  0
SECTION
  2
HEADER
  9
$ACADVER
  1
AC1024
  9
$ACADMAINTVER
 70
   205
  9
$DWGCODEPAGE
  3
ANSI_1251
  9
$INSBASE
 10
0.0
 20
0.0
 30
0.0
  9
$EXTMIN
 10
1.000000000000000E+20
 20
1.000000000000000E+20
 30
1.000000000000000E+20
  9
$EXTMAX
 10
-1.000000000000000E+20
 20
-1.000000000000000E+20
 30
-1.000000000000000E+20
  9
$LIMMIN
 10
0.0
 20
0.0
  9
$LIMMAX
 10
12.0
 20
9.0
  9
$ORTHOMODE
 70
     0
  9
$REGENMODE
 70
     1
  9
$FILLMODE
 70
     1
  9
$QTEXTMODE
 70
     0
  9
$MIRRTEXT
 70
     1
  9
$LTSCALE
 40
1.0
  9
$ATTMODE
 70
     1
  9
$TEXTSIZE
 40
0.2
  9
$TRACEWID
 40
0.05
  9
$TEXTSTYLE
  7
Standard
  9
$CLAYER
  8
OracDecor_skirtings
  9
$CELTYPE
  6
ByLayer
  9
$CECOLOR
 62
   256
  9
$CELTSCALE
 40
1.0
  9
$DISPSILH
 70
     0
  9
$DIMSCALE
 40
1.0
  9
$DIMASZ
 40
0.18
  9
$DIMEXO
 40
0.0625
  9
$DIMDLI
 40
0.38
  9
$DIMRND
 40
0.0
  9
$DIMDLE
 40
0.0
  9
$DIMEXE
 40
0.18
  9
$DIMTP
 40
0.0
  9
$DIMTM
 40
0.0
  9
$DIMTXT
 40
0.18
  9
$DIMCEN
 40
0.09
  9
$DIMTSZ
 40
0.0
  9
$DIMTOL
 70
     0
  9
$DIMLIM
 70
     0
  9
$DIMTIH
 70
     1
  9
$DIMTOH
 70
     1
  9
$DIMSE1
 70
     0
  9
$DIMSE2
 70
     0
  9
$DIMTAD
 70
     0
  9
$DIMZIN
 70
     0
  9
$DIMBLK
  1

  9
$DIMASO
 70
     1
  9
$DIMSHO
 70
     1
  9
$DIMPOST
  1

  9
$DIMAPOST
  1

  9
$DIMALT
 70
     0
  9
$DIMALTD
 70
     2
  9
$DIMALTF
 40
25.4
  9
$DIMLFAC
 40
1.0
  9
$DIMTOFL
 70
     0
  9
$DIMTVP
 40
0.0
  9
$DIMTIX
 70
     0
  9
$DIMSOXD
 70
     0
  9
$DIMSAH
 70
     0
  9
$DIMBLK1
  1

  9
$DIMBLK2
  1

  9
$DIMSTYLE
  2
Standard
  9
$DIMCLRD
 70
     0
  9
$DIMCLRE
 70
     0
  9
$DIMCLRT
 70
     0
  9
$DIMTFAC
 40
1.0
  9
$DIMGAP
 40
0.09
  9
$DIMJUST
 70
     0
  9
$DIMSD1
 70
     0
  9
$DIMSD2
 70
     0
  9
$DIMTOLJ
 70
     1
  9
$DIMTZIN
 70
     0
  9
$DIMALTZ
 70
     0
  9
$DIMALTTZ
 70
     0
  9
$DIMUPT
 70
     0
  9
$DIMDEC
 70
     4
  9
$DIMTDEC
 70
     4
  9
$DIMALTU
 70
     2
  9
$DIMALTTD
 70
     2
  9
$DIMTXSTY
  7
Standard
  9
$DIMAUNIT
 70
     0
  9
$DIMADEC
 70
     0
  9
$DIMALTRND
 40
0.0
  9
$DIMAZIN
 70
     0
  9
$DIMDSEP
 70
    46
  9
$DIMATFIT
 70
     3
  9
$DIMFRAC
 70
     0
  9
$DIMLDRBLK
  1

  9
$DIMLUNIT
 70
     2
  9
$DIMLWD
 70
    -2
  9
$DIMLWE
 70
    -2
  9
$DIMTMOVE
 70
     0
  9
$DIMFXL
 40
1.0
  9
$DIMFXLON
 70
     0
  9
$DIMJOGANG
 40
0.7853981633974483
  9
$DIMTFILL
 70
     0
  9
$DIMTFILLCLR
 70
     0
  9
$DIMARCSYM
 70
     0
  9
$DIMLTYPE
  6

  9
$DIMLTEX1
  6

  9
$DIMLTEX2
  6

  9
$DIMTXTDIRECTION
 70
     0
  9
$LUNITS
 70
     2
  9
$LUPREC
 70
     4
  9
$SKETCHINC
 40
0.1
  9
$FILLETRAD
 40
0.5
  9
$AUNITS
 70
     0
  9
$AUPREC
 70
     0
  9
$MENU
  1
.
  9
$ELEVATION
 40
0.0
  9
$PELEVATION
 40
0.0
  9
$THICKNESS
 40
0.0
  9
$LIMCHECK
 70
     0
  9
$CHAMFERA
 40
0.5
  9
$CHAMFERB
 40
0.5
  9
$CHAMFERC
 40
1.0
  9
$CHAMFERD
 40
0.0
  9
$SKPOLY
 70
     0
  9
$TDCREATE
 40
2451380.930432396
  9
$TDUCREATE
 40
2451380.805432396
  9
$TDUPDATE
 40
2451380.966180555
  9
$TDUUPDATE
 40
2451380.841180556
  9
$TDINDWG
 40
0.0075617940
  9
$TDUSRTIMER
 40
0.0075527546
  9
$USRTIMER
 70
     1
  9
$ANGBASE
 50
0.0
  9
$ANGDIR
 70
     0
  9
$PDMODE
 70
     0
  9
$PDSIZE
 40
0.0
  9
$PLINEWID
 40
0.0
  9
$SPLFRAME
 70
     0
  9
$SPLINETYPE
 70
     6
  9
$SPLINESEGS
 70
     8
  9
$HANDSEED
  5
1D2
  9
$SURFTAB1
 70
     6
  9
$SURFTAB2
 70
     6
  9
$SURFTYPE
 70
     6
  9
$SURFU
 70
     6
  9
$SURFV
 70
     6
  9
$UCSBASE
  2

  9
$UCSNAME
  2

  9
$UCSORG
 10
0.0
 20
0.0
 30
0.0
  9
$UCSXDIR
 10
1.0
 20
0.0
 30
0.0
  9
$UCSYDIR
 10
0.0
 20
1.0
 30
0.0
  9
$UCSORTHOREF
  2

  9
$UCSORTHOVIEW
 70
     0
  9
$UCSORGTOP
 10
0.0
 20
0.0
 30
0.0
  9
$UCSORGBOTTOM
 10
0.0
 20
0.0
 30
0.0
  9
$UCSORGLEFT
 10
0.0
 20
0.0
 30
0.0
  9
$UCSORGRIGHT
 10
0.0
 20
0.0
 30
0.0
  9
$UCSORGFRONT
 10
0.0
 20
0.0
 30
0.0
  9
$UCSORGBACK
 10
0.0
 20
0.0
 30
0.0
  9
$PUCSBASE
  2

  9
$PUCSNAME
  2

  9
$PUCSORG
 10
0.0
 20
0.0
 30
0.0
  9
$PUCSXDIR
 10
1.0
 20
0.0
 30
0.0
  9
$PUCSYDIR
 10
0.0
 20
1.0
 30
0.0
  9
$PUCSORTHOREF
  2

  9
$PUCSORTHOVIEW
 70
     0
  9
$PUCSORGTOP
 10
0.0
 20
0.0
 30
0.0
  9
$PUCSORGBOTTOM
 10
0.0
 20
0.0
 30
0.0
  9
$PUCSORGLEFT
 10
0.0
 20
0.0
 30
0.0
  9
$PUCSORGRIGHT
 10
0.0
 20
0.0
 30
0.0
  9
$PUCSORGFRONT
 10
0.0
 20
0.0
 30
0.0
  9
$PUCSORGBACK
 10
0.0
 20
0.0
 30
0.0
  9
$USERI1
 70
     0
  9
$USERI2
 70
     0
  9
$USERI3
 70
     0
  9
$USERI4
 70
     0
  9
$USERI5
 70
     0
  9
$USERR1
 40
0.0
  9
$USERR2
 40
0.0
  9
$USERR3
 40
0.0
  9
$USERR4
 40
0.0
  9
$USERR5
 40
0.0
  9
$WORLDVIEW
 70
     1
  9
$SHADEDGE
 70
     3
  9
$SHADEDIF
 70
    70
  9
$TILEMODE
 70
     1
  9
$MAXACTVP
 70
    64
  9
$PINSBASE
 10
0.0
 20
0.0
 30
0.0
  9
$PLIMCHECK
 70
     0
  9
$PEXTMIN
 10
1.000000000000000E+20
 20
1.000000000000000E+20
 30
1.000000000000000E+20
  9
$PEXTMAX
 10
-1.000000000000000E+20
 20
-1.000000000000000E+20
 30
-1.000000000000000E+20
  9
$PLIMMIN
 10
0.0
 20
0.0
  9
$PLIMMAX
 10
12.0
 20
9.0
  9
$UNITMODE
 70
     0
  9
$VISRETAIN
 70
     1
  9
$PLINEGEN
 70
     0
  9
$PSLTSCALE
 70
     1
  9
$TREEDEPTH
 70
  3020
  9
$CMLSTYLE
  2
Standard
  9
$CMLJUST
 70
     0
  9
$CMLSCALE
 40
1.0
  9
$PROXYGRAPHICS
 70
     1
  9
$MEASUREMENT
 70
     1
  9
$CELWEIGHT
370
    -1
  9
$ENDCAPS
280
     0
  9
$JOINSTYLE
280
     0
  9
$LWDISPLAY
290
     0
  9
$INSUNITS
 70
     4
  9
$HYPERLINKBASE
  1

  9
$STYLESHEET
  1

  9
$XEDIT
290
     1
  9
$CEPSNTYPE
380
     0
  9
$PSTYLEMODE
290
     1
  9
$FINGERPRINTGUID
  2
{12F50282-3ED8-11D3-A8B7-0060B0F84BC6}
  9
$VERSIONGUID
  2
{12F50293-3ED8-11D3-A8B7-0060B0F84BC6}
  9
$EXTNAMES
290
     1
  9
$PSVPSCALE
 40
0.0
  9
$OLESTARTUP
290
     0
  9
$SORTENTS
280
   127
  9
$INDEXCTL
280
     0
  9
$HIDETEXT
280
     0
  9
$XCLIPFRAME
280
     2
  9
$HALOGAP
280
     0
  9
$OBSCOLOR
 70
   257
  9
$OBSLTYPE
280
     0
  9
$INTERSECTIONDISPLAY
280
     0
  9
$INTERSECTIONCOLOR
 70
   257
  9
$DIMASSOC
280
     1
  9
$PROJECTNAME
  1

  9
$CAMERADISPLAY
290
     0
  9
$LENSLENGTH
 40
50.0
  9
$CAMERAHEIGHT
 40
0.0
  9
$STEPSPERSEC
 40
2.0
  9
$STEPSIZE
 40
6.0
  9
$3DDWFPREC
 40
2.0
  9
$PSOLWIDTH
 40
0.25
  9
$PSOLHEIGHT
 40
4.0
  9
$LOFTANG1
 40
1.570796326794896
  9
$LOFTANG2
 40
1.570796326794896
  9
$LOFTMAG1
 40
0.0
  9
$LOFTMAG2
 40
0.0
  9
$LOFTPARAM
 70
     7
  9
$LOFTNORMALS
280
     1
  9
$LATITUDE
 40
37.795
  9
$LONGITUDE
 40
-122.394
  9
$NORTHDIRECTION
 40
0.0
  9
$TIMEZONE
 70
 -8000
  9
$LIGHTGLYPHDISPLAY
280
     1
  9
$TILEMODELIGHTSYNCH
280
     1
  9
$CMATERIAL
347
AB
  9
$SOLIDHIST
280
     0
  9
$SHOWHIST
280
     1
  9
$DWFFRAME
280
     2
  9
$DGNFRAME
280
     0
  9
$REALWORLDSCALE
290
     1
  9
$INTERFERECOLOR
 62
     1
  9
$INTERFEREOBJVS
345
CD
  9
$INTERFEREVPVS
346
CA
  9
$CSHADOW
280
     0
  9
$SHADOWPLANELOCATION
 40
0.0
  0
ENDSEC
  0
SECTION
  2
CLASSES
  0
CLASS
  1
ACDBDICTIONARYWDFLT
  2
AcDbDictionaryWithDefault
  3
ObjectDBX Classes
 90
        0
 91
        1
280
     0
281
     0
  0
CLASS
  1
ACDBPLACEHOLDER
  2
AcDbPlaceHolder
  3
ObjectDBX Classes
 90
        0
 91
        2
280
     0
281
     0
  0
CLASS
  1
LAYOUT
  2
AcDbLayout
  3
ObjectDBX Classes
 90
        0
 91
        3
280
     0
281
     0
  0
CLASS
  1
MATERIAL
  2
AcDbMaterial
  3
ObjectDBX Classes
 90
     1153
 91
        3
280
     0
281
     0
  0
CLASS
  1
VISUALSTYLE
  2
AcDbVisualStyle
  3
ObjectDBX Classes
 90
     4095
 91
       24
280
     0
281
     0
  0
CLASS
  1
TABLESTYLE
  2
AcDbTableStyle
  3
ObjectDBX Classes
 90
     4095
 91
        1
280
     0
281
     0
  0
CLASS
  1
SCALE
  2
AcDbScale
  3
ObjectDBX Classes
 90
     1153
 91
       17
280
     0
281
     0
  0
CLASS
  1
MLEADERSTYLE
  2
AcDbMLeaderStyle
  3
ACDB_MLEADERSTYLE_CLASS
 90
     4095
 91
        1
280
     0
281
     0
  0
CLASS
  1
ACDBSECTIONVIEWSTYLE
  2
AcDbSectionViewStyle
  3
ObjectDBX Classes
 90
     1025
 91
        1
280
     0
281
     0
  0
CLASS
  1
ACDBDETAILVIEWSTYLE
  2
AcDbDetailViewStyle
  3
ObjectDBX Classes
 90
     1025
 91
        1
280
     0
281
     0
  0
CLASS
  1
MESH
  2
AcDbSubDMesh
  3
ObjectDBX Classes
 90
        0
 91
        1
280
     0
281
     1
  0
CLASS
  1
DICTIONARYVAR
  2
AcDbDictionaryVar
  3
ObjectDBX Classes
 90
        0
 91
        9
280
     0
281
     0
  0
CLASS
  1
CELLSTYLEMAP
  2
AcDbCellStyleMap
  3
ObjectDBX Classes
 90
     1152
 91
        1
280
     0
281
     0
  0
ENDSEC
  0
SECTION
  2
TABLES
  0
TABLE
  2
VPORT
  5
8
330
0
100
AcDbSymbolTable
 70
     1
  0
VPORT
  5
A8
330
8
100
AcDbSymbolTableRecord
100
AcDbViewportTableRecord
  2
*Active
 70
     0
 10
0.0
 20
0.0
 11
1.0
 21
1.0
 12
-0.0000175330897036
 22
56.3382568359375
 13
0.0
 23
0.0
 14
0.5
 24
0.5
 15
0.5
 25
0.5
 16
-1.0
 26
-1.0
 36
1.0
 17
0.0
 27
0.0
 37
0.0
 40
1160.000032398435
 41
1.52599649316587
 42
50.0
 43
0.0
 44
0.0
 50
0.0
 51
0.0
 71
     0
 72
   100
 73
     1
 74
     3
 75
     0
 76
     0
 77
     0
 78
     0
281
     0
 65
     1
110
0.0
120
0.0
130
0.0
111
1.0
121
0.0
131
0.0
112
0.0
122
1.0
132
0.0
 79
     0
146
0.0
348
C9
 60
     3
 61
     5
292
     1
282
     1
141
0.0
142
0.0
 63
   250
421
  3355443
  0
ENDTAB
  0
TABLE
  2
LTYPE
  5
5
330
0
100
AcDbSymbolTable
 70
     1
  0
LTYPE
  5
14
330
5
100
AcDbSymbolTableRecord
100
AcDbLinetypeTableRecord
  2
ByBlock
 70
     0
  3

 72
    65
 73
     0
 40
0.0
  0
LTYPE
  5
15
330
5
100
AcDbSymbolTableRecord
100
AcDbLinetypeTableRecord
  2
ByLayer
 70
     0
  3

 72
    65
 73
     0
 40
0.0
  0
LTYPE
  5
16
330
5
100
AcDbSymbolTableRecord
100
AcDbLinetypeTableRecord
  2
Continuous
 70
     0
  3
Solid line
 72
    65
 73
     0
 40
0.0
  0
ENDTAB
  0
TABLE
  2
LAYER
  5
2
330
0
100
AcDbSymbolTable
 70
     3
  0
LAYER
  5
10
330
2
100
AcDbSymbolTableRecord
100
AcDbLayerTableRecord
  2
0
 70
     0
 62
     7
  6
Continuous
370
    -3
390
F
347
BB
  0
LAYER
  5
2B
330
2
100
AcDbSymbolTableRecord
100
AcDbLayerTableRecord
  2
ASHADE
 70
     4
 62
     7
  6
Continuous
370
    -3
390
2D
347
BB
  0
LAYER
  5
F8
330
2
100
AcDbSymbolTableRecord
100
AcDbLayerTableRecord
  2
OracDecor_skirtings
 70
     0
 62
    84
420
  1814811
  6
Continuous
370
    -3
390
F
347
BB
  0
ENDTAB
  0
TABLE
  2
STYLE
  5
3
330
0
100
AcDbSymbolTable
 70
     2
  0
STYLE
  5
11
330
3
100
AcDbSymbolTableRecord
100
AcDbTextStyleTableRecord
  2
Standard
 70
     0
 40
0.0
 41
1.0
 50
0.0
 71
     0
 42
0.2
  3
txt
  4

  0
STYLE
  5
2C
330
3
100
AcDbSymbolTableRecord
100
AcDbTextStyleTableRecord
  2
ASHADE
 70
     0
 40
0.2
 41
1.0
 50
0.0
 71
     0
 42
0.2
  3
simplex
  4

  0
ENDTAB
  0
TABLE
  2
VIEW
  5
6
330
0
100
AcDbSymbolTable
 70
     0
  0
ENDTAB
  0
TABLE
  2
UCS
  5
7
330
0
100
AcDbSymbolTable
 70
     0
  0
ENDTAB
  0
TABLE
  2
APPID
  5
9
330
0
100
AcDbSymbolTable
 70
     6
  0
APPID
  5
12
330
9
100
AcDbSymbolTableRecord
100
AcDbRegAppTableRecord
  2
ACAD
 70
     0
  0
APPID
  5
8F
330
9
100
AcDbSymbolTableRecord
100
AcDbRegAppTableRecord
  2
AVE_RENDER
 70
     0
  0
APPID
  5
90
330
9
100
AcDbSymbolTableRecord
100
AcDbRegAppTableRecord
  2
AVE_ENTITY_MATERIAL
 70
     0
  0
APPID
  5
9C
330
9
100
AcDbSymbolTableRecord
100
AcDbRegAppTableRecord
  2
AVE_FINISH
 70
     0
  0
APPID
  5
9D
330
9
100
AcDbSymbolTableRecord
100
AcDbRegAppTableRecord
  2
AVE_MATERIAL
 70
     0
  0
APPID
  5
9E
330
9
100
AcDbSymbolTableRecord
100
AcDbRegAppTableRecord
  2
AVE_GLOBAL
 70
     0
  0
ENDTAB
  0
TABLE
  2
DIMSTYLE
  5
A
330
0
100
AcDbSymbolTable
 70
     1
100
AcDbDimStyleTable
 71
     0
  0
DIMSTYLE
105
27
330
A
100
AcDbSymbolTableRecord
100
AcDbDimStyleTableRecord
  2
Standard
 70
     0
340
11
  0
ENDTAB
  0
TABLE
  2
BLOCK_RECORD
  5
1
330
0
100
AcDbSymbolTable
 70
     6
  0
BLOCK_RECORD
  5
1F
330
1
100
AcDbSymbolTableRecord
100
AcDbBlockTableRecord
  2
*Model_Space
340
22
 70
     0
280
     1
281
     0
  0
BLOCK_RECORD
  5
1B
330
1
100
AcDbSymbolTableRecord
100
AcDbBlockTableRecord
  2
*Paper_Space
340
1E
 70
     0
280
     1
281
     0
  0
BLOCK_RECORD
  5
23
330
1
100
AcDbSymbolTableRecord
100
AcDbBlockTableRecord
  2
*Paper_Space0
340
26
 70
     0
280
     1
281
     0
  0
BLOCK_RECORD
  5
2E
330
1
100
AcDbSymbolTableRecord
100
AcDbBlockTableRecord
  2
direct
340
0
 70
     0
280
     1
281
     0
  0
BLOCK_RECORD
  5
42
330
1
100
AcDbSymbolTableRecord
100
AcDbBlockTableRecord
  2
overhead
340
0
 70
     0
280
     1
281
     0
  0
BLOCK_RECORD
  5
5F
330
1
100
AcDbSymbolTableRecord
100
AcDbBlockTableRecord
  2
sh_spot
340
0
 70
     0
280
     1
281
     0
  0
BLOCK_RECORD
  5
91
330
1
100
AcDbSymbolTableRecord
100
AcDbBlockTableRecord
  2
AVE_RENDER
340
0
102
{BLKREFS
331
94
331
95
331
96
331
97
331
98
331
99
331
9A
331
9B
102
}
 70
     0
280
     1
281
     0
  0
BLOCK_RECORD
  5
9F
330
1
100
AcDbSymbolTableRecord
100
AcDbBlockTableRecord
  2
AVE_GLOBAL
340
0
102
{BLKREFS
331
A2
102
}
 70
     0
280
     1
281
     0
  0
ENDTAB
  0
ENDSEC
  0
SECTION
  2
BLOCKS
  0
BLOCK
  5
20
330
1F
100
AcDbEntity
  8
0
100
AcDbBlockBegin
  2
*Model_Space
 70
     0
 10
0.0
 20
0.0
 30
0.0
  3
*Model_Space
  1

  0
ENDBLK
  5
21
330
1F
100
AcDbEntity
  8
0
100
AcDbBlockEnd
  0
BLOCK
  5
1C
330
1B
100
AcDbEntity
 67
     1
  8
0
100
AcDbBlockBegin
  2
*Paper_Space
 70
     0
 10
0.0
 20
0.0
 30
0.0
  3
*Paper_Space
  1

  0
ENDBLK
  5
1D
330
1B
100
AcDbEntity
 67
     1
  8
0
100
AcDbBlockEnd
  0
BLOCK
  5
24
330
23
100
AcDbEntity
 67
     1
  8
0
100
AcDbBlockBegin
  2
*Paper_Space0
 70
     0
 10
0.0
 20
0.0
 30
0.0
  3
*Paper_Space0
  1

  0
ENDBLK
  5
25
330
23
100
AcDbEntity
 67
     1
  8
0
100
AcDbBlockEnd
  0
BLOCK
  5
40
330
2E
100
AcDbEntity
  8
0
100
AcDbBlockBegin
  2
direct
 70
     2
 10
0.0
 20
0.0
 30
0.0
  3
direct
  1

  0
ATTDEF
  5
2F
330
2E
100
AcDbEntity
  8
ASHADE
  6
Continuous
 62
     1
100
AcDbText
 10
0.0
 20
-0.1
 30
0.0
 40
0.2
  1

  7
ASHADE
 72
     1
 11
0.0
 21
-0.1
 31
0.0
100
AcDbAttributeDefinition
280
     0
  3
Light Name
  2
SNAME
 70
     0
280
     0
  0
ARC
  5
30
330
2E
100
AcDbEntity
  8
ASHADE
  6
Continuous
 62
     7
100
AcDbCircle
 10
0.0
 20
0.0
 30
0.0
 40
0.3
100
AcDbArc
 50
205.6792886194569
 51
334.3207113805431
  0
ARC
  5
31
330
2E
100
AcDbEntity
  8
ASHADE
  6
Continuous
 62
     7
100
AcDbCircle
 10
0.0
 20
0.0
 30
0.0
 40
0.3
100
AcDbArc
 50
25.67928861945685
 51
154.3207113805431
  0
LINE
  5
32
330
2E
100
AcDbEntity
  8
ASHADE
  6
Continuous
 62
     7
100
AcDbLine
 10
-0.21
 20
0.2142428528562855
 30
0.0
 11
-0.21
 21
0.5
 31
0.0
  0
LINE
  5
33
330
2E
100
AcDbEntity
  8
ASHADE
  6
Continuous
 62
     7
100
AcDbLine
 10
-0.11
 20
0.2791057147390572
 30
0.0
 11
-0.11
 21
0.5
 31
0.0
  0
LINE
  5
34
330
2E
100
AcDbEntity
  8
ASHADE
  6
Continuous
 62
     7
100
AcDbLine
 10
0.21
 20
0.2142428528562855
 30
0.0
 11
0.21
 21
0.5
 31
0.0
  0
ATTDEF
  5
35
330
2E
100
AcDbEntity
  8
ASHADE
  6
Continuous
 62
     7
100
AcDbText
 10
0.0
 20
0.25
 30
0.0
 40
0.01
  1

100
AcDbAttributeDefinition
280
     0
  3
Look-at Y
  2
LAY
 70
     1
280
     0
  0
ATTDEF
  5
36
330
2E
100
AcDbEntity
  8
ASHADE
  6
Continuous
 62
     7
100
AcDbText
 10
0.0
 20
0.22
 30
0.0
 40
0.01
  1
1
100
AcDbAttributeDefinition
280
     0
  3
Light Intensity
  2
INTENSITY
 70
     1
280
     0
  0
ATTDEF
  5
37
330
2E
100
AcDbEntity
  8
ASHADE
  6
Continuous
 62
     7
100
AcDbText
 10
0.0
 20
0.16
 30
0.0
 40
0.01
  1
-1
100
AcDbAttributeDefinition
280
     0
  3
*not used*
  2
BEAMD
 70
     1
280
     0
  0
ATTDEF
  5
38
330
2E
100
AcDbEntity
  8
ASHADE
  6
Continuous
 62
     7
100
AcDbText
 10
0.0
 20
0.175
 30
0.0
 40
0.01
  1
-1
100
AcDbAttributeDefinition
280
     0
  3
*not used*
  2
CONED
 70
     1
280
     0
  0
ATTDEF
  5
39
330
2E
100
AcDbEntity
  8
ASHADE
  6
Continuous
 62
     7
100
AcDbText
 10
0.0
 20
0.19
 30
0.0
 40
0.01
  1
0
100
AcDbAttributeDefinition
280
     0
  3
Depth Map Size
  2
CONEA
 70
     1
280
     0
  0
ATTDEF
  5
3A
330
2E
100
AcDbEntity
  8
ASHADE
  6
Continuous
 62
     7
100
AcDbText
 10
0.0
 20
0.2050000000000001
 30
0.0
 40
0.01
  1
1,1,1
100
AcDbAttributeDefinition
280
     0
  3
Light Color (RGB)
  2
COLOR
 70
     1
280
     0
  0
ATTDEF
  5
3B
330
2E
100
AcDbEntity
  8
ASHADE
  6
Continuous
 62
     7
100
AcDbText
 10
0.0
 20
0.235
 30
0.0
 40
0.01
  1

100
AcDbAttributeDefinition
280
     0
  3
Look-at Z
  2
LAZ
 70
     1
280
     0
  0
LINE
  5
3C
330
2E
100
AcDbEntity
  8
ASHADE
  6
Continuous
 62
     7
100
AcDbLine
 10
0.0
 20
0.3
 30
0.0
 11
0.0
 21
0.5
 31
0.0
  0
LINE
  5
3D
330
2E
100
AcDbEntity
  8
ASHADE
  6
Continuous
 62
     7
100
AcDbLine
 10
0.11
 20
0.2791057147390572
 30
0.0
 11
0.11
 21
0.5
 31
0.0
  0
ATTDEF
  5
3E
330
2E
100
AcDbEntity
  8
ASHADE
  6
Continuous
 62
     7
100
AcDbText
 10
0.0
 20
0.265
 30
0.0
 40
0.01
  1

100
AcDbAttributeDefinition
280
     0
  3
Look-at X
  2
LAX
 70
     1
280
     0
  0
ATTDEF
  5
3F
330
2E
100
AcDbEntity
  8
ASHADE
  6
Continuous
 62
     7
100
AcDbText
 10
0.0
 20
0.28
 30
0.0
 40
0.01
  1

100
AcDbAttributeDefinition
280
     0
  3

  2
GNAME
 70
     1
280
     0
  0
ENDBLK
  5
41
330
2E
100
AcDbEntity
  8
0
100
AcDbBlockEnd
  0
BLOCK
  5
5D
330
42
100
AcDbEntity
  8
0
100
AcDbBlockBegin
  2
overhead
 70
     2
 10
0.0
 20
0.0
 30
0.0
  3
overhead
  1

  0
ATTDEF
  5
43
330
42
100
AcDbEntity
  8
ASHADE
  6
Continuous
 62
     1
100
AcDbText
 10
0.0
 20
-0.1
 30
0.0
 40
0.2
  1

  7
ASHADE
 72
     1
 11
0.0
 21
-0.1
 31
0.0
100
AcDbAttributeDefinition
280
     0
  3
Light Name
  2
SNAME
 70
     0
280
     0
  0
ARC
  5
44
330
42
100
AcDbEntity
  8
ASHADE
  6
Continuous
 62
     7
100
AcDbCircle
 10
0.0
 20
0.0
 30
0.0
 40
0.3
100
AcDbArc
 50
205.6792886194569
 51
334.3207113805431
  0
LINE
  5
45
330
42
100
AcDbEntity
  8
ASHADE
  6
Continuous
 62
     7
100
AcDbLine
 10
-0.2041413561583015
 20
-0.2198324514393848
 30
0.0
 11
-0.2721884748777353
 21
-0.2931099352525131
 31
0.0
  0
LINE
  5
46
330
42
100
AcDbEntity
  8
ASHADE
  6
Continuous
 62
     7
100
AcDbLine
 10
-0.1096591641591904
 20
-0.2792398032442862
 30
0.0
 11
-0.1279356915190555
 21
-0.3257797704516673
 31
0.0
  0
LINE
  5
47
330
42
100
AcDbEntity
  8
ASHADE
  6
Continuous
 62
     7
100
AcDbLine
 10
0.0
 20
-0.2999999999999999
 30
0.0
 11
0.0
 21
-0.4
 31
0.0
  0
LINE
  5
48
330
42
100
AcDbEntity
  8
ASHADE
  6
Continuous
 62
     7
100
AcDbLine
 10
0.1096591641591904
 20
-0.2792398032442862
 30
0.0
 11
0.1279356915190555
 21
-0.3257797704516673
 31
0.0
  0
LINE
  5
49
330
42
100
AcDbEntity
  8
ASHADE
  6
Continuous
 62
     7
100
AcDbLine
 10
0.2041413561583015
 20
-0.2198324514393848
 30
0.0
 11
0.2721884748777353
 21
-0.2931099352525131
 31
0.0
  0
ARC
  5
4A
330
42
100
AcDbEntity
  8
ASHADE
  6
Continuous
 62
     7
100
AcDbCircle
 10
0.0
 20
0.0
 30
0.0
 40
0.3
100
AcDbArc
 50
25.67928861945685
 51
154.3207113805431
  0
LINE
  5
4B
330
42
100
AcDbEntity
  8
ASHADE
  6
Continuous
 62
     7
100
AcDbLine
 10
-0.2703701166919155
 20
0.13
 30
0.0
 11
-0.3154318028072347
 21
0.1516666666666666
 31
0.0
  0
LINE
  5
4C
330
42
100
AcDbEntity
  8
ASHADE
  6
Continuous
 62
     7
100
AcDbLine
 10
-0.2703701166919155
 20
-0.13
 30
0.0
 11
-0.3154318028072347
 21
-0.1516666666666666
 31
0.0
  0
LINE
  5
4D
330
42
100
AcDbEntity
  8
ASHADE
  6
Continuous
 62
     7
100
AcDbLine
 10
-0.2041413561583015
 20
0.2198324514393849
 30
0.0
 11
-0.2721884748777353
 21
0.2931099352525131
 31
0.0
  0
LINE
  5
4E
330
42
100
AcDbEntity
  8
ASHADE
  6
Continuous
 62
     7
100
AcDbLine
 10
-0.1096591641591904
 20
0.2792398032442862
 30
0.0
 11
-0.1279356915190555
 21
0.3257797704516674
 31
0.0
  0
LINE
  5
4F
330
42
100
AcDbEntity
  8
ASHADE
  6
Continuous
 62
     7
100
AcDbLine
 10
0.2703701166919155
 20
-0.13
 30
0.0
 11
0.3154318028072347
 21
-0.1516666666666666
 31
0.0
  0
LINE
  5
50
330
42
100
AcDbEntity
  8
ASHADE
  6
Continuous
 62
     7
100
AcDbLine
 10
0.2703701166919155
 20
0.13
 30
0.0
 11
0.3154318028072347
 21
0.1516666666666666
 31
0.0
  0
LINE
  5
51
330
42
100
AcDbEntity
  8
ASHADE
  6
Continuous
 62
     7
100
AcDbLine
 10
0.0
 20
0.3
 30
0.0
 11
0.0
 21
0.4
 31
0.0
  0
ATTDEF
  5
52
330
42
100
AcDbEntity
  8
ASHADE
  6
Continuous
 62
     7
100
AcDbText
 10
0.0
 20
0.22
 30
0.0
 40
0.01
  1
1
100
AcDbAttributeDefinition
280
     0
  3
Light Intensity
  2
INTENSITY
 70
     1
280
     0
  0
ATTDEF
  5
53
330
42
100
AcDbEntity
  8
ASHADE
  6
Continuous
 62
     7
100
AcDbText
 10
0.0
 20
0.16
 30
0.0
 40
0.01
  1
-1
100
AcDbAttributeDefinition
280
     0
  3
*not used*
  2
BEAMD
 70
     1
280
     0
  0
ATTDEF
  5
54
330
42
100
AcDbEntity
  8
ASHADE
  6
Continuous
 62
     7
100
AcDbText
 10
0.0
 20
0.175
 30
0.0
 40
0.01
  1
-1
100
AcDbAttributeDefinition
280
     0
  3
*not used*
  2
CONED
 70
     1
280
     0
  0
ATTDEF
  5
55
330
42
100
AcDbEntity
  8
ASHADE
  6
Continuous
 62
     7
100
AcDbText
 10
0.0
 20
0.19
 30
0.0
 40
0.01
  1
0
100
AcDbAttributeDefinition
280
     0
  3
Depth Map Size
  2
CONEA
 70
     1
280
     0
  0
ATTDEF
  5
56
330
42
100
AcDbEntity
  8
ASHADE
  6
Continuous
 62
     7
100
AcDbText
 10
0.0
 20
0.2050000000000001
 30
0.0
 40
0.01
  1
1,1,1
100
AcDbAttributeDefinition
280
     0
  3
Light Color (RGB)
  2
COLOR
 70
     1
280
     0
  0
ATTDEF
  5
57
330
42
100
AcDbEntity
  8
ASHADE
  6
Continuous
 62
     7
100
AcDbText
 10
0.0
 20
0.235
 30
0.0
 40
0.01
  1

100
AcDbAttributeDefinition
280
     0
  3
Look-at Z
  2
LAZ
 70
     1
280
     0
  0
ATTDEF
  5
58
330
42
100
AcDbEntity
  8
ASHADE
  6
Continuous
 62
     7
100
AcDbText
 10
0.0
 20
0.25
 30
0.0
 40
0.01
  1

100
AcDbAttributeDefinition
280
     0
  3
Look-at Y
  2
LAY
 70
     1
280
     0
  0
ATTDEF
  5
59
330
42
100
AcDbEntity
  8
ASHADE
  6
Continuous
 62
     7
100
AcDbText
 10
0.0
 20
0.265
 30
0.0
 40
0.01
  1

100
AcDbAttributeDefinition
280
     0
  3
Look-at X
  2
LAX
 70
     1
280
     0
  0
ATTDEF
  5
5A
330
42
100
AcDbEntity
  8
ASHADE
  6
Continuous
 62
     7
100
AcDbText
 10
0.0
 20
0.28
 30
0.0
 40
0.01
  1

100
AcDbAttributeDefinition
280
     0
  3

  2
GNAME
 70
     1
280
     0
  0
LINE
  5
5B
330
42
100
AcDbEntity
  8
ASHADE
  6
Continuous
 62
     7
100
AcDbLine
 10
0.1096591641591904
 20
0.2792398032442862
 30
0.0
 11
0.1279356915190555
 21
0.3257797704516674
 31
0.0
  0
LINE
  5
5C
330
42
100
AcDbEntity
  8
ASHADE
  6
Continuous
 62
     7
100
AcDbLine
 10
0.2041413561583015
 20
0.2198324514393849
 30
0.0
 11
0.2721884748777353
 21
0.2931099352525131
 31
0.0
  0
ENDBLK
  5
5E
330
42
100
AcDbEntity
  8
0
100
AcDbBlockEnd
  0
BLOCK
  5
85
330
5F
100
AcDbEntity
  8
0
100
AcDbBlockBegin
  2
sh_spot
 70
     2
 10
0.0
 20
0.0
 30
0.0
  3
sh_spot
  1

  0
LINE
  5
60
330
5F
100
AcDbEntity
  8
ASHADE
  6
Continuous
 62
     7
100
AcDbLine
 10
0.25
 20
0.26
 30
0.0
 11
-0.25
 21
0.26
 31
0.0
  0
LINE
  5
61
330
5F
100
AcDbEntity
  8
ASHADE
  6
Continuous
 62
     7
100
AcDbLine
 10
-0.25
 20
-0.3399999999999999
 30
0.0
 11
0.25
 21
-0.3399999999999999
 31
0.0
  0
ATTDEF
  5
62
330
5F
100
AcDbEntity
  8
ASHADE
  6
Continuous
 62
     1
100
AcDbText
 10
0.0
 20
-0.1
 30
0.0
 40
0.2
  1

  7
ASHADE
 72
     1
 11
0.0
 21
-0.1
 31
0.0
100
AcDbAttributeDefinition
280
     0
  3
Light Name
  2
SNAME
 70
     0
280
     0
  0
LINE
  5
63
330
5F
100
AcDbEntity
  8
ASHADE
  6
Continuous
 62
     7
100
AcDbLine
 10
-0.25
 20
-0.13
 30
0.0
 11
-0.25
 21
-0.3399999999999999
 31
0.0
  0
LINE
  5
64
330
5F
100
AcDbEntity
  8
ASHADE
  6
Continuous
 62
     7
100
AcDbLine
 10
-0.25
 20
-0.18
 30
0.0
 11
-0.29
 21
-0.18
 31
0.0
  0
LINE
  5
65
330
5F
100
AcDbEntity
  8
ASHADE
  6
Continuous
 62
     7
100
AcDbLine
 10
-0.29
 20
-0.22
 30
0.0
 11
-0.25
 21
-0.22
 31
0.0
  0
LINE
  5
66
330
5F
100
AcDbEntity
  8
ASHADE
  6
Continuous
 62
     7
100
AcDbLine
 10
-0.29
 20
-0.18
 30
0.0
 11
-0.29
 21
-0.22
 31
0.0
  0
LINE
  5
67
330
5F
100
AcDbEntity
  8
ASHADE
  6
Continuous
 62
     7
100
AcDbLine
 10
-0.1045454545454545
 20
0.26
 30
0.0
 11
-0.15
 21
0.46
 31
0.0
  0
LINE
  5
68
330
5F
100
AcDbEntity
  8
ASHADE
  6
Continuous
 62
     7
100
AcDbLine
 10
-0.21
 20
0.26
 30
0.0
 11
-0.301304347826087
 21
0.46
 31
0.0
  0
LINE
  5
69
330
5F
100
AcDbEntity
  8
ASHADE
  6
Continuous
 62
     7
100
AcDbLine
 10
-0.25
 20
0.26
 30
0.0
 11
-0.25
 21
0.13
 31
0.0
  0
LINE
  5
6A
330
5F
100
AcDbEntity
  8
ASHADE
  6
Continuous
 62
     7
100
AcDbLine
 10
-0.25
 20
0.22
 30
0.0
 11
-0.29
 21
0.22
 31
0.0
  0
LINE
  5
6B
330
5F
100
AcDbEntity
  8
ASHADE
  6
Continuous
 62
     7
100
AcDbLine
 10
-0.29
 20
0.1799999999999999
 30
0.0
 11
-0.25
 21
0.1799999999999999
 31
0.0
  0
LINE
  5
6C
330
5F
100
AcDbEntity
  8
ASHADE
  6
Continuous
 62
     7
100
AcDbLine
 10
-0.29
 20
0.22
 30
0.0
 11
-0.29
 21
0.1799999999999999
 31
0.0
  0
ATTDEF
  5
6D
330
5F
100
AcDbEntity
  8
ASHADE
  6
Continuous
 62
     7
100
AcDbText
 10
0.0
 20
-0.24
 30
0.0
 40
0.01
  1
0
100
AcDbAttributeDefinition
280
     0
  3
Depth Map Size
  2
ZSIZE
 70
     1
280
     0
  0
ATTDEF
  5
6E
330
5F
100
AcDbEntity
  8
ASHADE
  6
Continuous
 62
     7
100
AcDbText
 10
0.0
 20
-0.3300000000000001
 30
0.0
 40
0.01
  1
0,0,0
100
AcDbAttributeDefinition
280
     0
  3
Look-from XYZ
  2
LFXYZ
 70
     1
280
     0
  0
ATTDEF
  5
6F
330
5F
100
AcDbEntity
  8
ASHADE
  6
Continuous
 62
     7
100
AcDbText
 10
0.0
 20
-0.315
 30
0.0
 40
0.01
  1
0.0
100
AcDbAttributeDefinition
280
     0
  3
Beam Distribution
  2
BEAMDI
 70
     1
280
     0
  0
ATTDEF
  5
70
330
5F
100
AcDbEntity
  8
ASHADE
  6
Continuous
 62
     7
100
AcDbText
 10
0.0
 20
-0.3
 30
0.0
 40
0.01
  1
0.0
100
AcDbAttributeDefinition
280
     0
  3
Cone Delta
  2
CONEDE
 70
     1
280
     0
  0
ATTDEF
  5
71
330
5F
100
AcDbEntity
  8
ASHADE
  6
Continuous
 62
     7
100
AcDbText
 10
0.0
 20
-0.2850000000000001
 30
0.0
 40
0.01
  1
10.0
100
AcDbAttributeDefinition
280
     0
  3
Cone Angle
  2
CONEAN
 70
     1
280
     0
  0
ATTDEF
  5
72
330
5F
100
AcDbEntity
  8
ASHADE
  6
Continuous
 62
     7
100
AcDbText
 10
0.0
 20
-0.27
 30
0.0
 40
0.01
  1
-1
100
AcDbAttributeDefinition
280
     0
  3
*not used*
  2
BIASMAX
 70
     1
280
     0
  0
ATTDEF
  5
73
330
5F
100
AcDbEntity
  8
ASHADE
  6
Continuous
 62
     7
100
AcDbText
 10
0.0
 20
-0.255
 30
0.0
 40
0.01
  1
-1
100
AcDbAttributeDefinition
280
     0
  3
*not used*
  2
BIASMIN
 70
     1
280
     0
  0
ATTDEF
  5
74
330
5F
100
AcDbEntity
  8
ASHADE
  6
Continuous
 62
     7
100
AcDbText
 10
0.0
 20
-0.225
 30
0.0
 40
0.01
  1
1,1,1
100
AcDbAttributeDefinition
280
     0
  3
Light Color (RGB)
  2
COLOR
 70
     1
280
     0
  0
ATTDEF
  5
75
330
5F
100
AcDbEntity
  8
ASHADE
  6
Continuous
 62
     7
100
AcDbText
 10
0.0
 20
-0.21
 30
0.0
 40
0.01
  1
1
100
AcDbAttributeDefinition
280
     0
  3
Light Intensity
  2
INTENSITY
 70
     1
280
     0
  0
ATTDEF
  5
76
330
5F
100
AcDbEntity
  8
ASHADE
  6
Continuous
 62
     7
100
AcDbText
 10
0.0
 20
-0.15
 30
0.0
 40
0.01
  1

100
AcDbAttributeDefinition
280
     0
  3

  2
GNAME
 70
     1
280
     0
  0
ATTDEF
  5
77
330
5F
100
AcDbEntity
  8
ASHADE
  6
Continuous
 62
     7
100
AcDbText
 10
0.0
 20
-0.195
 30
0.0
 40
0.01
  1

100
AcDbAttributeDefinition
280
     0
  3
Look-at Z
  2
LAZ
 70
     1
280
     0
  0
ATTDEF
  5
78
330
5F
100
AcDbEntity
  8
ASHADE
  6
Continuous
 62
     7
100
AcDbText
 10
0.0
 20
-0.18
 30
0.0
 40
0.01
  1

100
AcDbAttributeDefinition
280
     0
  3
Look-at Y
  2
LAY
 70
     1
280
     0
  0
ATTDEF
  5
79
330
5F
100
AcDbEntity
  8
ASHADE
  6
Continuous
 62
     7
100
AcDbText
 10
0.0
 20
-0.165
 30
0.0
 40
0.01
  1

100
AcDbAttributeDefinition
280
     0
  3
Look-at X
  2
LAX
 70
     1
280
     0
  0
LINE
  5
7A
330
5F
100
AcDbEntity
  8
ASHADE
  6
Continuous
 62
     7
100
AcDbLine
 10
0.25
 20
-0.3399999999999999
 30
0.0
 11
0.25
 21
-0.13
 31
0.0
  0
LINE
  5
7B
330
5F
100
AcDbEntity
  8
ASHADE
  6
Continuous
 62
     7
100
AcDbLine
 10
0.25
 20
-0.18
 30
0.0
 11
0.29
 21
-0.18
 31
0.0
  0
LINE
  5
7C
330
5F
100
AcDbEntity
  8
ASHADE
  6
Continuous
 62
     7
100
AcDbLine
 10
0.29
 20
-0.22
 30
0.0
 11
0.25
 21
-0.22
 31
0.0
  0
LINE
  5
7D
330
5F
100
AcDbEntity
  8
ASHADE
  6
Continuous
 62
     7
100
AcDbLine
 10
0.29
 20
-0.18
 30
0.0
 11
0.29
 21
-0.22
 31
0.0
  0
LINE
  5
7E
330
5F
100
AcDbEntity
  8
ASHADE
  6
Continuous
 62
     7
100
AcDbLine
 10
0.21
 20
0.26
 30
0.0
 11
0.301304347826087
 21
0.46
 31
0.0
  0
LINE
  5
7F
330
5F
100
AcDbEntity
  8
ASHADE
  6
Continuous
 62
     7
100
AcDbLine
 10
0.1045454545454545
 20
0.26
 30
0.0
 11
0.15
 21
0.46
 31
0.0
  0
LINE
  5
80
330
5F
100
AcDbEntity
  8
ASHADE
  6
Continuous
 62
     7
100
AcDbLine
 10
0.0
 20
0.26
 30
0.0
 11
0.0
 21
0.46
 31
0.0
  0
LINE
  5
81
330
5F
100
AcDbEntity
  8
ASHADE
  6
Continuous
 62
     7
100
AcDbLine
 10
0.25
 20
0.13
 30
0.0
 11
0.25
 21
0.26
 31
0.0
  0
LINE
  5
82
330
5F
100
AcDbEntity
  8
ASHADE
  6
Continuous
 62
     7
100
AcDbLine
 10
0.25
 20
0.22
 30
0.0
 11
0.29
 21
0.22
 31
0.0
  0
LINE
  5
83
330
5F
100
AcDbEntity
  8
ASHADE
  6
Continuous
 62
     7
100
AcDbLine
 10
0.29
 20
0.1799999999999999
 30
0.0
 11
0.25
 21
0.1799999999999999
 31
0.0
  0
LINE
  5
84
330
5F
100
AcDbEntity
  8
ASHADE
  6
Continuous
 62
     7
100
AcDbLine
 10
0.29
 20
0.22
 30
0.0
 11
0.29
 21
0.1799999999999999
 31
0.0
  0
ENDBLK
  5
86
330
5F
100
AcDbEntity
  8
0
100
AcDbBlockEnd
  0
BLOCK
  5
92
330
91
100
AcDbEntity
  8
ASHADE
100
AcDbBlockBegin
  2
AVE_RENDER
 70
     0
 10
0.0
 20
0.0
 30
0.0
  3
AVE_RENDER
  1
AVE_RENDER
  0
ENDBLK
  5
93
330
91
100
AcDbEntity
  8
0
100
AcDbBlockEnd
  0
BLOCK
  5
A0
330
9F
100
AcDbEntity
  8
ASHADE
100
AcDbBlockBegin
  2
AVE_GLOBAL
 70
     0
 10
0.0
 20
0.0
 30
0.0
  3
AVE_GLOBAL
  1
AVE_GLOBAL
  0
ENDBLK
  5
A1
330
9F
100
AcDbEntity
  8
0
100
AcDbBlockEnd
  0
ENDSEC
  0
SECTION
  2
ENTITIES
  0
INSERT
  5
94
330
1F
100
AcDbEntity
  8
ASHADE
 62
     1
100
AcDbBlockReference
  2
AVE_RENDER
 10
0.0
 20
0.0
 30
0.0
1001
AVE_RENDER
1002
{
1070
     7
1000
Pref
1070
    30
1070
    20
1070
     1
1070
     0
1000

1070
    10
1070
     1
1070
    10
1040
1.0
1070
     1
1040
0.3
1040
0.7
1040
0.0
1040
10.0
1010
-1.0
1020
-1.0
1030
-1.0
1040
0.3
1070
    49
1070
     0
1070
     0
1010
1.0
1020
1.0
1030
1.0
1040
45.0
1070
     1
1070
     0
1000
WCS
1040
0.0
1070
     0
1040
10.0
1002
}
  0
INSERT
  5
95
330
1F
100
AcDbEntity
  8
ASHADE
 62
     3
100
AcDbBlockReference
  2
AVE_RENDER
 10
0.0
 20
0.0
 30
0.0
1001
AVE_RENDER
1002
{
1070
     0
1000
Full Opt
1070
     0
1070
     1
1070
     1
1070
     1
1070
     0
1070
     0
1070
     0
1070
     1
1070
     1
1040
0.0001
1040
0.0001
1002
}
  0
INSERT
  5
96
330
1F
100
AcDbEntity
  8
ASHADE
 62
     4
100
AcDbBlockReference
  2
AVE_RENDER
 10
0.0
 20
0.0
 30
0.0
1001
AVE_RENDER
1002
{
1070
     0
1000
Quick Opt
1070
     0
1070
     1
1070
     1
1070
     1
1070
     0
1070
     0
1070
     1
1002
}
  0
INSERT
  5
97
330
1F
100
AcDbEntity
  8
ASHADE
 62
     5
100
AcDbBlockReference
  2
AVE_RENDER
 10
0.0
 20
0.0
 30
0.0
1001
AVE_RENDER
1002
{
1070
     1
1000
Scanl Opt
1070
     2
1070
     0
1070
     2
1040
2.0
1040
4.0
1070
     0
1070
     1
1070
     0
1040
0.03
1002
}
  0
INSERT
  5
98
330
1F
100
AcDbEntity
  8
ASHADE
 62
     6
100
AcDbBlockReference
  2
AVE_RENDER
 10
0.0
 20
0.0
 30
0.0
1001
AVE_RENDER
1002
{
1070
     2
1000
Raytr Opt
1070
     2
1070
     0
1070
     2
1040
2.0
1040
4.0
1070
     0
1070
     1
1070
     1
1040
0.03
1070
     3
1040
0.03
1002
}
  0
INSERT
  5
99
330
1F
100
AcDbEntity
  8
ASHADE
 62
     7
100
AcDbBlockReference
  2
AVE_RENDER
 10
0.0
 20
0.0
 30
0.0
1001
AVE_RENDER
1002
{
1070
     0
1000
RFile Opt
1070
     1
1070
   640
1070
   480
1070
 10000
1070
     1
1070
     8
1070
     8
1070
     0
1070
     0
1070
     0
1070
     0
1070
     0
1070
     0
1070
     0
1002
}
  0
INSERT
  5
9A
330
1F
100
AcDbEntity
  8
ASHADE
 62
     8
100
AcDbBlockReference
  2
AVE_RENDER
 10
0.0
 20
0.0
 30
0.0
1001
AVE_RENDER
1002
{
1070
     0
1000
Fog Opt
1070
     0
1070
     0
1040
0.0
1040
1.0
1040
0.0
1040
1.0
1010
0.5
1020
0.5
1030
0.5
1002
}
  0
INSERT
  5
9B
330
1F
100
AcDbEntity
  8
ASHADE
 62
     9
100
AcDbBlockReference
  2
AVE_RENDER
 10
0.0
 20
0.0
 30
0.0
1001
AVE_RENDER
1002
{
1070
     0
1000
BG Opt
1070
     0
1070
     1
1010
0.0
1020
0.0
1030
0.0
1010
1.0
1020
0.0
1030
0.0
1010
0.0
1020
1.0
1030
0.0
1010
0.0
1020
0.0
1030
1.0
1040
0.5
1040
0.33
1040
0.0
1000

1070
     1
1000

1070
     1
1070
     1
1040
1.0
1040
1.0
1040
0.0
1040
0.0
1070
     0
1002
}
  0
INSERT
  5
A2
330
1F
100
AcDbEntity
  8
ASHADE
 62
     1
100
AcDbBlockReference
  2
AVE_GLOBAL
 10
0.0
 20
0.0
 30
0.0
1001
AVE_MATERIAL
1002
{
1000
*GLOBAL*
1000
2
1000
Global finish.
1002
{
1002
}
1002
{
1070
    63
1002
{
1002
{
1010
-1.0
1020
-1.0
1030
-1.0
1002
}
1040
0.1000000014901161
1000

1040
0.0
1002
{
1002
}
1040
0.0
1002
{
1002
}
1040
0.0
1002
}
1002
{
1002
{
1010
-1.0
1020
-1.0
1030
-1.0
1002
}
1040
0.6999999880790711
1000

1040
0.0
1002
{
1002
}
1040
0.0
1002
{
1002
}
1040
0.0
1002
}
1002
{
1002
{
1010
-1.0
1020
-1.0
1030
-1.0
1002
}
1040
0.2000000029802322
1000

1040
0.0
1002
{
1002
}
1040
0.0
1002
{
1002
}
1040
0.0
1002
}
1002
{
1070
     0
1002
{
1070
     1
1002
{
1040
1.0
1040
1.0
1000

1040
0.0
1002
{
1002
}
1040
0.0
1002
{
1002
}
1040
0.0
1002
}
1002
}
1040
1.0
1040
0.0
1040
0.0
1002
}
1002
{
1040
1.0
1040
1.0
1000

1040
0.0
1002
{
1002
}
1040
0.0
1002
{
1002
}
1040
0.0
1002
}
1002
{
1040
0.5
1040
1.0
1000

1040
0.0
1002
{
1002
}
1040
0.0
1002
{
1002
}
1040
0.0
1002
}
1002
{
1070
     0
1040
0.0
1002
{
1002
}
1040
1.0
1002
{
1002
}
1040
0.0
1002
}
1002
{
1040
0.0
1002
{
1002
{
1010
0.0
1020
0.0
1030
0.0
1002
}
1040
1.0
1000

1040
0.0
1002
{
1002
}
1040
0.0
1002
{
1002
}
1040
0.0
1002
}
1002
}
1002
{
1002
{
1070
     1
1002
{
1040
0.0
1040
1.0
1000

1040
0.0
1002
{
1002
}
1040
0.0
1002
{
1002
}
1040
0.0
1002
}
1002
}
1040
0.0
1002
{
1002
}
1010
1.0
1020
0.0
1030
0.0
1010
0.0
1020
1.0
1030
0.0
1010
0.0
1020
0.0
1030
1.0
1070
     0
1002
}
1002
{
1002
{
1040
1.0
1040
1.0
1002
{
1070
     1
1002
{
1040
1.0
1040
1.0
1000

1040
0.0
1002
{
1002
}
1040
0.0
1002
{
1002
}
1040
0.0
1002
}
1002
}
1002
}
1070
     0
1040
0.0
1002
{
1002
}
1002
}
1002
{
1002
}
1002
}
1002
{
1071
        3
1070
     3
1070
     0
1002
{
1070
     2
1070
     0
1070
     0
1040
0.0
1002
}
1070
     0
1070
     2
1002
{
1002
}
1002
}
1002
{
1040
8030.0
1040
190.3000030517578
1040
0.3050000071525574
1040
228.0
1040
545.0
1040
14.0
1040
17.39999961853027
1040
0.4560000002384186
1002
}
1002
}
  0
MESH
  5
F9
330
1F
100
AcDbEntity
  8
OracDecor_skirtings
 62
   221
420
 15047383
160
             46016
310
C0B30000FE0400000C00000013000000020000003C00000006000000020000000000000000408F4000000080000036C00000000000C059400000000000408F400000000001002CC00000008006B058400C000000130000000A0000003C00000006000000020000000000000000408F4000000080000036C00000000000C059
310
400000000000408F400000000001002CC0000000C00A7145400C00000013000000120000003C00000006000000020000000000000000408F400000000001002CC00000008006B058400000000000408F400000000001002CC0000000C00A7145400C000000130000001A0000003C0000000600000002000000000000000040
310
8F40000000C0AB212CC00000000080D5B03F0000000000408F400000000001002CC0000000008099C93F0C00000013000000220000003C00000006000000020000000000000000408F400000000001002CC0000000008099C93F0000000000408F400000000001002CC000000000AA771C400C000000130000002A0000003C
310
00000006000000020000000000000000408F400000000001002CC000000000AA771C400000000000408F40000000207F212CC000000000A6E31D400C00000013000000320000003C00000006000000020000000000000000408F40000000C0AB212CC00000000080D5B03F0000000000408F40000000207F212CC000000000
310
A6E31D400C000000130000003A0000003C00000006000000020000000000000000408F400000006067662CC000000000000000000000000000408F40000000C0AB212CC00000000080D5B03F0C00000013000000420000003C00000006000000020000000000000000408F40000000207F212CC000000000A6E31D40000000
310
0000408F40000000A0B4812CC000000000A8201F400C000000130000004A0000003C00000006000000020000000000000000408F400000006067662CC000000000000000000000000000408F40000000A0B4812CC000000000A8201F400C00000013000000520000003C00000006000000020000000000000000408F400000
310
0080000036C000000000000000000000000000408F400000006067662CC000000000000000000C000000130000005A0000003C00000006000000020000000000000000408F4000000040B2132DC0000000000A0220400000000000408F40000000A0B4812CC000000000A8201F400C00000013000000620000003C00000006
310
000000020000000000000000408F4000000080000036C000000000000000000000000000408F4000000040B2132DC0000000000A0220400C000000130000006A0000003C00000006000000020000000000000000408F4000000000385C2EC000000000D70121400000000000408F4000000040B2132DC0000000000A022040
310
0C00000013000000720000003C00000006000000020000000000000000408F4000000080000036C000000000000000000000000000408F4000000000385C2EC000000000D70121400C000000130000007A0000003C00000006000000020000000000000000408F4000000000385C2EC000000000D70121400000000000408F
310
40000000E07A342FC000000000E36522400C00000013000000820000003C00000006000000020000000000000000408F4000000080000036C000000000000000000000000000408F40000000E07A342FC000000000E36522400C000000130000008A0000003C00000006000000020000000000000000408F40000000000180
310
2FC000000000000024400000000000408F40000000E07A342FC000000000E36522400C00000013000000920000003C00000006000000020000000000000000408F400000000001802FC000000000000024400000000000408F4000000080000036C000000000000000000C000000130000009A0000003C0000000600000002
310
0000000000000000408F400000000001802FC000000000000024400000000000408F400000000001802FC000000000000034400C00000013000000A20000003C00000006000000020000000000000000408F4000000080000036C000000000000000000000000000408F400000000001802FC000000000000034400C000000
310
13000000AA0000003C00000006000000020000000000000000408F400000000001802FC000000000000024400000000000408F40000000E07A342FC0000000001D9A25400C00000013000000B20000003C00000006000000020000000000000000408F40000000E07A342FC0000000001D9A25400000000000408F40000000
310
E07A342FC000000080F13233400C00000013000000BA0000003C00000006000000020000000000000000408F400000000001802FC000000000000034400000000000408F40000000E07A342FC000000080F13233400C00000013000000C20000003C00000006000000020000000000000000408F400000000001802FC00000
310
0000000034400000000000408F40000000E07A342FC0000000800ECD34400C00000013000000CA0000003C00000006000000020000000000000000408F40000000E07A342FC0000000800ECD34400000000000408F40000000E07A342FC000000080F1323D400C00000013000000D20000003C000000060000000200000000
310
00000000408F400000000001802FC00000000000003E400000000000408F40000000E07A342FC000000080F1323D400C00000013000000DA0000003C00000006000000020000000000000000408F400000000001802FC000000000000034400000000000408F400000000001802FC00000000000003E400C00000013000000
310
E20000003C00000006000000020000000000000000408F4000000080000036C000000000000000000000000000408F400000000001802FC00000000000003E400C00000013000000EA0000003C00000006000000020000000000000000408F40000000207F212CC0000000002D0E29400000000000408F400000000001002C
310
C0000000002BC429400C00000013000000F20000003C00000006000000020000000000000000408F400000000001002CC0000000002BC429400000000000408F400000000001002CC000000080EA1D31400C00000013000000FA0000003C00000006000000020000000000000000408F400000000001002CC000000080EA1D
310
31400000000000408F40000000207F212CC000000080E97831400C00000013000000020100003C00000006000000020000000000000000408F40000000207F212CC0000000002D0E29400000000000408F40000000207F212CC000000080E97831400C000000130000000A0100003C00000006000000020000000000000000
310
408F40000000A0B4812CC000000000AC6F28400000000000408F40000000207F212CC0000000002D0E29400C00000013000000120100003C00000006000000020000000000000000408F40000000207F212CC000000080E97831400000000000408F40000000A0B4812CC0000000802AC831400C000000130000001A010000
310
3C00000006000000020000000000000000408F40000000A0B4812CC000000000AC6F28400000000000408F40000000A0B4812CC0000000802AC831400C00000013000000220100003C00000006000000020000000000000000408F4000000040B2132DC000000000F6FD27400000000000408F40000000A0B4812CC0000000
310
00AC6F28400C000000130000002A0100003C00000006000000020000000000000000408F4000000040B2132DC000000000050132400000000000408F40000000A0B4812CC0000000802AC831400C00000013000000320100003C00000006000000020000000000000000408F4000000040B2132DC000000000F6FD27400000
310
000000408F4000000040B2132DC000000000050132400C000000130000003A0100003C00000006000000020000000000000000408F4000000000385C2EC00000000029FE26400000000000408F4000000040B2132DC000000000F6FD27400C00000013000000420100003C00000006000000020000000000000000408F4000
310
000000385C2EC000000080EB8032400000000000408F4000000040B2132DC000000000050132400C000000130000004A0100003C00000006000000020000000000000000408F4000000000385C2EC00000000029FE26400000000000408F4000000000385C2EC000000080EB8032400C00000013000000520100003C000000
310
06000000020000000000000000408F40000000E07A342FC0000000001D9A25400000000000408F4000000000385C2EC00000000029FE26400C000000130000005A0100003C00000006000000020000000000000000408F40000000E07A342FC000000080F13233400000000000408F4000000000385C2EC000000080EB8032
310
400C00000013000000620100003C00000006000000020000000000000000408F40000000E07A342FC0000000800ECD34400000000000408F4000000000385C2EC000000080147F35400C000000130000006A0100003C00000006000000020000000000000000408F4000000000385C2EC000000080147F3540000000000040
310
8F4000000000385C2EC000000080EB803C400C00000013000000720100003C00000006000000020000000000000000408F40000000E07A342FC000000080F1323D400000000000408F4000000000385C2EC000000080EB803C400C000000130000007A0100003C00000006000000020000000000000000408F400000000038
310
5C2EC000000080147F35400000000000408F4000000040B2132DC000000000FBFE35400C00000013000000820100003C00000006000000020000000000000000408F4000000040B2132DC000000000FBFE35400000000000408F4000000040B2132DC00000000005013C400C000000130000008A0100003C00000006000000
310
020000000000000000408F4000000000385C2EC000000080EB803C400000000000408F4000000040B2132DC00000000005013C400C00000013000000920100003C00000006000000020000000000000000408F4000000040B2132DC000000000FBFE35400000000000408F40000000A0B4812CC000000080D53736400C0000
310
00130000009A0100003C00000006000000020000000000000000408F40000000A0B4812CC000000080D53736400000000000408F40000000A0B4812CC0000000802AC83B400C00000013000000A20100003C00000006000000020000000000000000408F4000000040B2132DC00000000005013C400000000000408F400000
310
00A0B4812CC0000000802AC83B400C00000013000000AA0100003C00000006000000020000000000000000408F40000000A0B4812CC000000080D53736400000000000408F40000000207F212CC000000080168736400C00000013000000B20100003C00000006000000020000000000000000408F40000000207F212CC000
310
000080168736400000000000408F40000000207F212CC000000080E9783B400C00000013000000BA0100003C00000006000000020000000000000000408F40000000207F212CC000000080E9783B400000000000408F40000000A0B4812CC0000000802AC83B400C00000013000000C20100003C0000000600000002000000
310
0000000000408F40000000207F212CC000000080168736400000000000408F400000000001002CC00000008015E236400C00000013000000CA0100003C00000006000000020000000000000000408F400000000001002CC00000008015E236400000000000408F400000000001002CC000000080EA1D3B400C000000130000
310
00D20100003C00000006000000020000000000000000408F400000000001002CC000000080EA1D3B400000000000408F40000000207F212CC000000080E9783B400C00000013000000DA0100003C00000006000000020000000000000000408F400000000001802FC00000000000003E400000000000408F40000000E07A34
310
2FC0000000800ECD3E400C00000013000000E20100003C00000006000000020000000000000000408F40000000E07A342FC0000000800ECD3E400000000000408F40000000E07A342FC0000000C0789943400C00000013000000EA0100003C00000006000000020000000000000000408F400000000001802FC00000000000
310
0044400000000000408F40000000E07A342FC0000000C0789943400C00000013000000F20100003C00000006000000020000000000000000408F400000000001802FC00000000000003E400000000000408F400000000001802FC000000000000044400C00000013000000FA0100003C000000060000000200000000000000
310
00408F40000000E07A342FC0000000800ECD3E400000000000408F4000000000385C2EC000000080147F3F400C00000013000000020200003C00000006000000020000000000000000408F4000000000385C2EC000000080147F3F400000000000408F4000000000385C2EC0000000A0754043400C000000130000000A0200
310
003C00000006000000020000000000000000408F40000000E07A342FC0000000C0789943400000000000408F4000000000385C2EC0000000A0754043400C00000013000000120200003C00000006000000020000000000000000408F4000000000385C2EC000000080147F3F400000000000408F4000000040B2132DC00000
310
0000FBFE3F400C000000130000001A0200003C00000006000000020000000000000000408F4000000040B2132DC000000000FBFE3F400000000000408F4000000040B2132DC000000060820043400C00000013000000220200003C00000006000000020000000000000000408F4000000000385C2EC0000000A07540434000
310
00000000408F4000000040B2132DC000000060820043400C000000130000002A0200003C00000006000000020000000000000000408F4000000040B2132DC000000000FBFE3F400000000000408F40000000A0B4812CC0000000C0EA1B40400C00000013000000320200003C00000006000000020000000000000000408F40
310
000000A0B4812CC0000000C0EA1B40400000000000408F40000000A0B4812CC00000002015E442400C000000130000003A0200003C00000006000000020000000000000000408F4000000040B2132DC000000060820043400000000000408F40000000A0B4812CC00000002015E442400C00000013000000420200003C0000
310
0006000000020000000000000000408F40000000A0B4812CC0000000C0EA1B40400000000000408F40000000207F212CC0000000408B4340400C000000130000004A0200003C00000006000000020000000000000000408F40000000207F212CC0000000408B4340400000000000408F40000000207F212CC0000000C074BC
310
42400C00000013000000520200003C00000006000000020000000000000000408F40000000207F212CC0000000C074BC42400000000000408F40000000A0B4812CC00000002015E442400C000000130000005A0200003C00000006000000020000000000000000408F40000000207F212CC0000000408B4340400000000000
310
408F400000000001002CC0000000C00A7140400C00000013000000620200003C00000006000000020000000000000000408F400000000001002CC0000000C00A7140400000000000408F400000000001002CC000000040F58E42400C000000130000006A0200003C00000006000000020000000000000000408F4000000000
310
01002CC000000040F58E42400000000000408F40000000207F212CC0000000C074BC42400C00000013000000720200003C00000006000000020000000000000000408F4000000080000036C00000000000C059400000000000408F4000000080000036C000000000000000000C000000130000007A0200003C000000060000
310
00020000000000000000408F4000000080000036C00000000000C059400000000000408F400000000001802FC000000000000044400C00000013000000820200003C00000006000000020000000000000000408F400000000001802FC000000000000044400000000000408F40000000E07A342FC000000040876644400C00
310
0000130000008A0200003C00000006000000020000000000000000408F4000000080000036C00000000000C059400000000000408F40000000E07A342FC000000040876644400C00000013000000920200003C00000006000000020000000000000000408F40000000E07A342FC000000040876644400000000000408F4000
310
000000385C2EC0000000608ABF44400C000000130000009A0200003C00000006000000020000000000000000408F4000000080000036C00000000000C059400000000000408F4000000000385C2EC0000000608ABF44400C00000013000000A20200003C00000006000000020000000000000000408F4000000000385C2EC0
310
000000608ABF44400000000000408F4000000040B2132DC0000000A07DFF44400C00000013000000AA0200003C00000006000000020000000000000000408F4000000080000036C00000000000C059400000000000408F4000000040B2132DC0000000A07DFF44400C00000013000000B20200003C00000006000000020000
310
000000000000408F4000000040B2132DC0000000A07DFF44400000000000408F40000000A0B4812CC0000000E0EA1B45400C00000013000000BA0200003C00000006000000020000000000000000408F4000000080000036C00000000000C059400000000000408F40000000A0B4812CC0000000E0EA1B45400C0000001300
310
0000C20200003C00000006000000020000000000000000408F40000000207F212CC0000000408B4345400000000000408F40000000A0B4812CC0000000E0EA1B45400C00000013000000CA0200003C00000006000000020000000000000000408F4000000080000036C00000000000C059400000000000408F40000000207F
310
212CC0000000408B4345400C00000013000000D20200003C00000006000000020000000000000000408F400000000001002CC0000000C00A7145400000000000408F40000000207F212CC0000000408B4345400C00000013000000DA0200003C00000006000000020000000000000000408F400000000001002CC000000080
310
06B058400000000000408F40000000A09DC52BC0000000806FE458400C00000013000000E20200003C00000006000000020000000000000000408F40000000A09DC52BC0000000806FE458400000000000408F4000000060A94735C0000000E086525A400C00000013000000EA0200003C0000000600000002000000000000
310
0000408F40000000C0C4D035C000000040D40C5A400000000000408F4000000060A94735C0000000E086525A400C00000013000000F20200003C00000006000000020000000000000000408F400000000001002CC00000008006B058400000000000408F40000000C0C4D035C000000040D40C5A400C00000013000000FA02
310
00003C00000006000000020000000000000000408F4000000080000036C00000000000C059400000000000408F40000000C0C4D035C000000040D40C5A400C00000013000000020300003C00000006000000020000000000000000408F40000000A09DC52BC0000000806FE458400000000000408F4000000000C61A2BC000
310
000040EB1459400C000000130000000A0300003C00000006000000020000000000000000408F4000000000C61A2BC000000040EB1459400000000000408F40000000C0F07034C000000020CB8A5A400C00000013000000120300003C00000006000000020000000000000000408F4000000060A94735C0000000E086525A40
310
0000000000408F40000000C0F07034C000000020CB8A5A400C000000130000001A0300003C00000006000000020000000000000000408F4000000000C61A2BC000000040EB1459400000000000408F4000000040E76033C0000000A04EB05A400C00000013000000220300003C00000006000000020000000000000000408F
310
40000000C0F07034C000000020CB8A5A400000000000408F4000000040E76033C0000000A04EB05A400C000000130000002A0300003C00000006000000020000000000000000408F4000000000C61A2BC000000040EB1459400000000000408F40000000C0D70C2AC000000080AE3D59400C00000013000000320300003C00
310
000006000000020000000000000000408F40000000C0D70C2AC000000080AE3D59400000000000408F4000000080C33032C0000000A0B5BF5A400C000000130000003A0300003C00000006000000020000000000000000408F4000000040E76033C0000000A04EB05A400000000000408F4000000080C33032C0000000A0B5
310
BF5A400C00000013000000420300003C00000006000000020000000000000000408F40000000C0D70C2AC000000080AE3D59400000000000408F4000000080000032C0000000C07ECC5A400C000000130000004A0300003C00000006000000020000000000000000408F4000000080000032C0000000C07ECC5A4000000000
310
00408F4000000060250E32C000000080A9C35A400C00000013000000520300003C00000006000000020000000000000000408F40000000C0D70C2AC000000080AE3D59400000000000408F4000000060250E32C000000080A9C35A400C000000130000005A0300003C00000006000000020000000000000000408F40000000
310
60250E32C000000080A9C35A400000000000408F4000000080C33032C0000000A0B5BF5A400C00000013000000620300003C00000006000000020000000000000000408F40000000C0D70C2AC000000080AE3D59400000000000408F4000000020677723C00000000070FE59400C000000130000006A0300003C0000000600
310
0000020000000000000000408F4000000020677723C00000000070FE59400000000000408F4000000080A9EB31C000000040EA7A5B400C00000013000000720300003C00000006000000020000000000000000408F4000000080000032C0000000C07ECC5A400000000000408F4000000080A9EB31C000000040EA7A5B400C
310
000000130000007A0300003C00000006000000020000000000000000408F4000000020677723C00000000070FE59400000000000408F40000000C0F23622C0000000A050175A400C00000013000000820300003C00000006000000020000000000000000408F40000000C0F23622C0000000A050175A400000000000408F40
310
00000000AF282EC0000000A015855B400C000000130000008A0300003C00000006000000020000000000000000408F4000000080A9EB31C000000040EA7A5B400000000000408F4000000000AF282EC0000000A015855B400C00000013000000920300003C00000006000000020000000000000000408F40000000C0F23622
310
C0000000A050175A400000000000408F40000000602DC420C00000000000205A400C000000130000009A0300003C00000006000000020000000000000000408F40000000602DC420C00000000000205A400000000000408F4000000000AF282EC0000000A015855B400C00000013000000A20300003C000000060000000200
310
00000000000000408F40000000602DC420C00000000000205A400000000000408F40000000000800F0BF0000000000205A400C00000013000000AA0300003C00000006000000020000000000000000408F40000000000800F0BF0000000000205A400000000000408F4000000000AF282EC0000000A015855B400C00000013
310
000000B20300003C00000006000000020000000000000000408F4000000060D1761BC00000000000005C400000000000408F400000002002001CC00000000000205C400C00000013000000BA0300003C00000006000000020000000000000000408F4000000000AF282EC0000000A015855B400000000000408F4000000020
310
02001CC00000000000205C400C00000013000000C20300003C00000006000000020000000000000000408F4000000000AF282EC0000000A015855B400000000000408F4000000060D1761BC00000000000005C400C00000013000000CA0300003C00000006000000020000000000000000408F400000002002001CC0000000
310
0000205C400000000000408F400000002002001CC00000000000405C400C00000013000000D20300003C00000006000000020000000000000000408F400000000001002EC00000000040375C400000000000408F400000002002001CC00000000000405C400C00000013000000DA0300003C00000006000000020000000000
310
000000408F4000000000AF282EC0000000A015855B400000000000408F400000000001002EC00000000040375C400C00000013000000E20300003C00000006000000020000000000000000408F400000002002001AC00000000093E85B400000000000408F4000000060D1761BC00000000000005C400C00000013000000EA
310
0300003C00000006000000020000000000000000408F4000000000AF282EC0000000A015855B400000000000408F400000002002001AC00000000093E85B400C00000013000000F20300003C00000006000000020000000000000000408F4000000000AF282EC0000000A015855B400000000000408F4000000020020018C0
310
0000000000E05B400C00000013000000FA0300003C00000006000000020000000000000000408F4000000020020018C00000000000E05B400000000000408F400000002002001AC00000000093E85B400C00000013000000020400003C00000006000000020000000000000000408F40000000005826C1BF0000000000C05B
310
400000000000408F40000000001000E0BF000000006DD75B400C000000130000000A0400003C00000006000000020000000000000000408F4000000000AF282EC0000000A015855B400000000000408F40000000001000E0BF000000006DD75B400C00000013000000120400003C0000000600000002000000000000000040
310
8F4000000000AF282EC0000000A015855B400000000000408F40000000005826C1BF0000000000C05B400C000000130000001A0400003C00000006000000020000000000000000408F40000000001000E0BF000000006DD75B400000000000408F40000000000800F0BF0000000000E05B400C00000013000000220400003C
310
00000006000000020000000000000000408F4000000020020018C00000000000E05B400000000000408F40000000000800F0BF0000000000E05B400C000000130000002A0400003C00000006000000020000000000000000408F40000000000000E0BE00000060E7775B400000000000408F40000000000000E0BE00000000
310
00A05B400C00000013000000320400003C00000006000000020000000000000000408F40000000000000E0BE0000000000A05B400000000000408F4000000000AF282EC0000000A015855B400C000000130000003A0400003C00000006000000020000000000000000408F40000000000000E0BE00000060E7775B40000000
310
0000408F4000000000AF282EC0000000A015855B400C00000013000000420400003C00000006000000020000000000000000408F40000000000000E0BE0000000000A05B400000000000408F40000000005826C1BF0000000000C05B400C000000130000004A0400003C00000006000000020000000000000000408F400000
310
00002000D8BF000000A0F1455B400000000000408F4000000000203FB9BF00000000315C5B400C00000013000000520400003C00000006000000020000000000000000408F4000000000203FB9BF00000000315C5B400000000000408F4000000000AF282EC0000000A015855B400C000000130000005A0400003C00000006
310
000000020000000000000000408F40000000002000D8BF000000A0F1455B400000000000408F4000000000AF282EC0000000A015855B400C00000013000000620400003C00000006000000020000000000000000408F4000000000203FB9BF00000000315C5B400000000000408F40000000000000E0BE00000060E7775B40
310
0C000000130000006A0400003C00000006000000020000000000000000408F4000000000BC62E8BF000000C0C8265B400000000000408F40000000002000D8BF000000A0F1455B400C00000013000000720400003C00000006000000020000000000000000408F4000000000BC62E8BF000000C0C8265B400000000000408F
310
4000000000AF282EC0000000A015855B400C000000130000007A0400003C00000006000000020000000000000000408F4000000000DCCCECBF0000000000005B400000000000408F4000000000AF282EC0000000A015855B400C00000013000000820400003C00000006000000020000000000000000408F4000000000DCCC
310
ECBF0000000000005B400000000000408F4000000000BC62E8BF000000C0C8265B400C000000130000008A0400003C00000006000000020000000000000000408F4000000000BC62E8BF0000004037D95A400000000000408F4000000000DCCCECBF0000000000005B400C00000013000000920400003C0000000600000002
310
0000000000000000408F4000000000BC62E8BF0000004037D95A400000000000408F4000000000AF282EC0000000A015855B400C000000130000009A0400003C00000006000000020000000000000000408F40000000002000D8BF000000600EBA5A400000000000408F4000000000AF282EC0000000A015855B400C000000
310
13000000A20400003C00000006000000020000000000000000408F40000000002000D8BF000000600EBA5A400000000000408F4000000000BC62E8BF0000004037D95A400C00000013000000AA0400003C00000006000000020000000000000000408F40000000000000E0BE000000A018885A400000000000408F40000000
310
00203FB9BF00000000CFA35A400C00000013000000B20400003C00000006000000020000000000000000408F4000000000203FB9BF00000000CFA35A400000000000408F4000000000AF282EC0000000A015855B400C00000013000000BA0400003C00000006000000020000000000000000408F40000000000000E0BE0000
310
00A018885A400000000000408F4000000000AF282EC0000000A015855B400C00000013000000C20400003C00000006000000020000000000000000408F4000000000203FB9BF00000000CFA35A400000000000408F40000000002000D8BF000000600EBA5A400C00000013000000CA0400003C000000060000000200000000
310
00000000408F40000000005826C1BF0000000000405A400000000000408F40000000000000E0BE0000000000605A400C00000013000000D20400003C00000006000000020000000000000000408F40000000000000E0BE0000000000605A400000000000408F4000000000AF282EC0000000A015855B400C00000013000000
310
DA0400003C00000006000000020000000000000000408F40000000005826C1BF0000000000405A400000000000408F4000000000AF282EC0000000A015855B400C00000013000000E20400003C00000006000000020000000000000000408F40000000000000E0BE0000000000605A400000000000408F40000000000000E0
310
BE000000A018885A400C00000013000000EA0400003C00000006000000020000000000000000408F40000000000800F0BF0000000000205A400000000000408F40000000001000E0BF0000000093285A400C00000013000000F20400003C00000006000000020000000000000000408F40000000001000E0BF000000009328
310
5A400000000000408F4000000000AF282EC0000000A015855B400C00000013000000FA0400003C00000006000000020000000000000000408F40000000001000E0BF0000000093285A400000000000408F40000000005826C1BF0000000000405A400C00000013000000020500003C00000006000000020000000000000000
310
408F400000002002001CC00000000000405C400000000000408F40000000A0B1EF1CC000000060EDBA5C400C000000130000000A0500003C00000006000000020000000000000000408F4000000040CE112EC000000000733E5C400000000000408F40000000A0B1EF1CC000000060EDBA5C400C0000001300000012050000
310
3C00000006000000020000000000000000408F400000000001002EC00000000040375C400000000000408F4000000040CE112EC000000000733E5C400C000000130000001A0500003C00000006000000020000000000000000408F40000000A0B1EF1CC000000060EDBA5C400000000000408F400000006018B01FC0000000
310
A09C2E5D400C00000013000000220500003C00000006000000020000000000000000408F400000006018B01FC0000000A09C2E5D400000000000408F40000000C0DB402EC0000000A028435C400C000000130000002A0500003C00000006000000020000000000000000408F4000000040CE112EC000000000733E5C400000
310
000000408F40000000C0DB402EC0000000A028435C400C00000013000000320500003C00000006000000020000000000000000408F400000006018B01FC0000000A09C2E5D400000000000408F40000000E0560C22C00000008065945D400C000000130000003A0500003C00000006000000020000000000000000408F4000
310
0000E0560C22C00000008065945D400000000000408F40000000203A7E2FC00000006009545C400C00000013000000420500003C00000006000000020000000000000000408F40000000203A7E2FC00000006009545C400000000000408F40000000C0DB402EC0000000A028435C400C000000130000004A0500003C000000
310
06000000020000000000000000408F40000000E0560C22C00000008065945D400000000000408F40000000C0307622C000000080B6AB5D400C00000013000000520500003C00000006000000020000000000000000408F40000000E0C20B31C000000080FD7E5C400000000000408F40000000C0307622C000000080B6AB5D
310
400C000000130000005A0500003C00000006000000020000000000000000408F40000000E0C20B31C000000080FD7E5C400000000000408F40000000203A7E2FC00000006009545C400C00000013000000620500003C00000006000000020000000000000000408F40000000E01CC032C00000004042CF5C40000000000040
310
8F40000000C0307622C000000080B6AB5D400C000000130000006A0500003C00000006000000020000000000000000408F40000000E01CC032C00000004042CF5C400000000000408F40000000E0C20B31C000000080FD7E5C400C00000013000000720500003C00000006000000020000000000000000408F40000000C030
310
7622C000000080B6AB5D400000000000408F40000000A0618A22C0000000C05FC65D400C000000130000007A0500003C00000006000000020000000000000000408F40000000C029D733C000000040EB245D400000000000408F40000000A0618A22C0000000C05FC65D400C00000013000000820500003C00000006000000
310
020000000000000000408F40000000E01CC032C00000004042CF5C400000000000408F40000000C029D733C000000040EB245D400C000000130000008A0500003C00000006000000020000000000000000408F40000000A0618A22C0000000C05FC65D400000000000408F4000000000158E34C0000000605FCC5D400C0000
310
0013000000920500003C00000006000000020000000000000000408F4000000000B76734C0000000400B7C5D400000000000408F4000000000158E34C0000000605FCC5D400C000000130000009A0500003C00000006000000020000000000000000408F4000000000B76734C0000000400B7C5D400000000000408F400000
310
00A0618A22C0000000C05FC65D400C00000013000000A20500003C00000006000000020000000000000000408F40000000C029D733C000000040EB245D400000000000408F4000000000B76734C0000000400B7C5D400C00000013000000AA0500003C00000006000000020000000000000000408F40000000A0618A22C000
310
0000C05FC65D400000000000408F40000000E08E4522C000000020BCDF5D400C00000013000000B20500003C00000006000000020000000000000000408F40000000E08E4522C000000020BCDF5D400000000000408F40000000C08DF933C0000000E08F655E400C00000013000000BA0500003C0000000600000002000000
310
0000000000408F40000000C08DF933C0000000E08F655E400000000000408F4000000020A96534C000000060651A5E400C00000013000000C20500003C00000006000000020000000000000000408F40000000A0618A22C0000000C05FC65D400000000000408F4000000020A96534C000000060651A5E400C000000130000
310
00CA0500003C00000006000000020000000000000000408F4000000000158E34C0000000605FCC5D400000000000408F4000000020A96534C000000060651A5E400C00000013000000D20500003C00000006000000020000000000000000408F40000000E08E4522C000000020BCDF5D400000000000408F400000002092B3
310
32C000000000ABD35E400C00000013000000DA0500003C00000006000000020000000000000000408F400000002092B332C000000000ABD35E400000000000408F40000000E0626633C00000004092A15E400C00000013000000E20500003C00000006000000020000000000000000408F40000000E08E4522C000000020BC
310
DF5D400000000000408F40000000E0626633C00000004092A15E400C00000013000000EA0500003C00000006000000020000000000000000408F40000000E0626633C00000004092A15E400000000000408F40000000C08DF933C0000000E08F655E400C00000013000000F20500003C000000060000000200000000000000
310
00408F40000000E08E4522C000000020BCDF5D400000000000408F40000000808DB321C0000000405FF35D400C00000013000000FA0500003C00000006000000020000000000000000408F40000000808DB321C0000000405FF35D400000000000408F4000000000D61831C00000008010205F400C00000013000000020600
310
003C00000006000000020000000000000000408F4000000000D61831C00000008010205F400000000000408F4000000040E9E131C00000006005FF5E400C000000130000000A0600003C00000006000000020000000000000000408F40000000E08E4522C000000020BCDF5D400000000000408F4000000040E9E131C00000
310
006005FF5E400C00000013000000120600003C00000006000000020000000000000000408F4000000040E9E131C00000006005FF5E400000000000408F400000002092B332C000000000ABD35E400C000000130000001A0600003C00000006000000020000000000000000408F40000000808DB321C0000000405FF35D4000
310
00000000408F4000000020410D2FC000000000C2555F400C00000013000000220600003C00000006000000020000000000000000408F4000000020410D2FC000000000C2555F400000000000408F40000000C04E4C30C0000000C09A3C5F400C000000130000002A0600003C00000006000000020000000000000000408F40
310
000000808DB321C0000000405FF35D400000000000408F40000000C04E4C30C0000000C09A3C5F400C00000013000000320600003C00000006000000020000000000000000408F40000000C04E4C30C0000000C09A3C5F400000000000408F4000000000D61831C00000008010205F400C000000130000003A0600003C0000
310
0006000000020000000000000000408F40000000808DB321C0000000405FF35D400000000000408F40000000009DF32BC000000000AE885F400C00000013000000420600003C00000006000000020000000000000000408F400000006067872DC0000000800C6E5F400000000000408F40000000009DF32BC000000000AE88
310
5F400C000000130000004A0600003C00000006000000020000000000000000408F40000000808DB321C0000000405FF35D400000000000408F400000006067872DC0000000800C6E5F400C00000013000000520600003C00000006000000020000000000000000408F400000006067872DC0000000800C6E5F400000000000
310
408F4000000020410D2FC000000000C2555F400C000000130000005A0600003C00000006000000020000000000000000408F40000000808DB321C0000000405FF35D400000000000408F4000000080FCFC28C00000008091C65F400C00000013000000620600003C00000006000000020000000000000000408F4000000040
310
2C6F2AC000000000FBA55F400000000000408F4000000080FCFC28C00000008091C65F400C000000130000006A0600003C00000006000000020000000000000000408F40000000808DB321C0000000405FF35D400000000000408F40000000402C6F2AC000000000FBA55F400C00000013000000720600003C000000060000
310
00020000000000000000408F40000000009DF32BC000000000AE885F400000000000408F40000000402C6F2AC000000000FBA55F400C000000130000007A0600003C00000006000000020000000000000000408F40000000808DB321C0000000405FF35D400000000000408F4000000000A84ADBBF00000000E46C5F400C00
310
000013000000820600003C00000006000000020000000000000000408F4000000000A84ADBBF00000000E46C5F400000000000408F40000000801C6127C0000000807CF15F400C000000130000008A0600003C00000006000000020000000000000000408F40000000801C6127C0000000807CF15F400000000000408F4000
310
000080FCFC28C00000008091C65F400C00000013000000920600003C00000006000000020000000000000000408F4000000000A84ADBBF00000000E46C5F400000000000408F400000000060EDBCBF000000A0C3835F400C000000130000009A0600003C00000006000000020000000000000000408F400000000060EDBCBF
310
000000A0C3835F400000000000408F400000000083B525C0000000C0731360400C00000013000000A20600003C00000006000000020000000000000000408F400000000083B525C0000000C0731360400000000000408F40000000801C6127C0000000807CF15F400C00000013000000AA0600003C00000006000000020000
310
000000000000408F400000000060EDBCBF000000A0C3835F400000000000408F40000000000000E0BE0000000051A15F400C00000013000000B20600003C00000006000000020000000000000000408F40000000000000E0BE0000000051A15F400000000000408F4000000080740324C000000080273660400C0000001300
310
0000BA0600003C00000006000000020000000000000000408F4000000080740324C000000080273660400000000000408F400000000083B525C0000000C0731360400C00000013000000C20600003C00000006000000020000000000000000408F40000000000000E0BE0000000051A15F400000000000408F400000000000
310
00E0BE00000080573460400C00000013000000CA0600003C00000006000000020000000000000000408F40000000000000E0BE00000080573460400000000000408F40000000C0286222C0000000C05D6260400C00000013000000D20600003C00000006000000020000000000000000408F4000000080740324C000000080
310
273660400000000000408F40000000C0286222C0000000C05D6260400C00000013000000DA0600003C00000006000000020000000000000000408F40000000000000E0BE00000080573460400000000000408F4000000000F0ACBFBF00000080C24360400C00000013000000E20600003C0000000600000002000000000000
310
0000408F4000000000F0ACBFBF00000080C24360400000000000408F40000000C0286222C0000000C05D6260400C00000013000000EA0600003C00000006000000020000000000000000408F4000000000F0ACBFBF00000080C24360400000000000408F4000000000FCB6DDBF000000E05C4F60400C00000013000000F206
310
00003C00000006000000020000000000000000408F4000000000FCB6DDBF000000E05C4F60400000000000408F40000000C0286222C0000000C05D6260400C00000013000000FA0600003C00000006000000020000000000000000408F4000000000FCB6DDBF000000E05C4F60400000000000408F40000000001A70EFBF00
310
000020545F60400C00000013000000020700003C00000006000000020000000000000000408F40000000001A70EFBF00000020545F60400000000000408F40000000C0286222C0000000C05D6260400C000000130000000A0700003C00000006000000020000000000000000408F40000000001A70EFBF00000020545F6040
310
0000000000408F40000000006038F4BF000000E07F7460400C00000013000000120700003C00000006000000020000000000000000408F40000000C0286222C0000000C05D6260400000000000408F40000000006038F4BF000000E07F7460400C000000130000001A0700003C00000006000000020000000000000000408F
310
40000000006038F4BF000000E07F7460400000000000408F40000000006038F4BF00000020808B60400C00000013000000220700003C00000006000000020000000000000000408F400000008032C920C000000040D79C60400000000000408F40000000006038F4BF00000020808B60400C000000130000002A0700003C00
310
000006000000020000000000000000408F40000000C0286222C0000000C05D6260400000000000408F400000008032C920C000000040D79C60400C00000013000000320700003C00000006000000020000000000000000408F40000000006038F4BF00000020808B60400000000000408F40000000001A70EFBF000000E0AB
310
A060400C000000130000003A0700003C00000006000000020000000000000000408F40000000001A70EFBF000000E0ABA060400000000000408F40000000C0BE971EC000000060B9E760400C00000013000000420700003C00000006000000020000000000000000408F400000008032C920C000000040D79C604000000000
310
00408F40000000C0BE971EC000000060B9E760400C000000130000004A0700003C00000006000000020000000000000000408F40000000001A70EFBF000000E0ABA060400000000000408F4000000000FCB6DDBF00000020A3B060400C00000013000000520700003C00000006000000020000000000000000408F40000000
310
00FCB6DDBF00000020A3B060400000000000408F40000000C06AC71CC000000040DC2161400C000000130000005A0700003C00000006000000020000000000000000408F40000000C0BE971EC000000060B9E760400000000000408F40000000C06AC71CC000000040DC2161400C00000013000000620700003C0000000600
310
0000020000000000000000408F4000000000FCB6DDBF00000020A3B060400000000000408F4000000000F0ACBFBF000000803DBC60400C000000130000006A0700003C00000006000000020000000000000000408F4000000000F0ACBFBF000000803DBC60400000000000408F40000000A0A3201CC0000000E0DA3A61400C
310
00000013000000720700003C00000006000000020000000000000000408F40000000A0A3201CC0000000E0DA3A61400000000000408F40000000C06AC71CC000000040DC2161400C000000130000007A0700003C00000006000000020000000000000000408F4000000000F0ACBFBF000000803DBC60400000000000408F40
310
000000000000E0BE00000080A8CB60400C00000013000000820700003C00000006000000020000000000000000408F40000000000000E0BE00000080A8CB60400000000000408F40000000C0D0571BC000000000004061400C000000130000008A0700003C00000006000000020000000000000000408F40000000C0D0571B
310
C000000000004061400000000000408F40000000A0A8D91BC0000000A08C3E61400C00000013000000920700003C00000006000000020000000000000000408F4000000000F0ACBFBF000000803DBC60400000000000408F40000000A0A8D91BC0000000A08C3E61400C000000130000009A0700003C000000060000000200
310
00000000000000408F40000000A0A8D91BC0000000A08C3E61400000000000408F40000000A0A3201CC0000000E0DA3A61400C00000013000000A20700003C00000006000000020000000000000000408F40000000000000E0BE00000080A8CB60400000000000408F40000000000000E0BE00000000004061400C00000013
310
000000AA0700003C00000006000000020000000000000000408F40000000C0D0571BC000000000004061400000000000408F40000000000000E0BE00000000004061400C00000013000000B20700003C00000006000000020000000000000000408F4000000080000036C000000000000000000000002000408FC000000080
310
FFFF35C000000000000000000C00000013000000BA0700003C00000006000000020000000000002000408FC00000006065662CC000000000000000000000002000408FC000000080FFFF35C000000000000000000C00000013000000C20700003C00000006000000020000000000000000408F400000006067662CC0000000
310
00000000000000002000408FC00000006065662CC000000000000000000C00000013000000CA0700003C00000006000000020000000000000000408F4000000080000036C00000000000C059400000002000408FC000000080FFFF35C00000000000C059400C00000013000000D20700003C00000006000000020000000000
310
002000408FC000000080FFFF35C00000000000C059400000002000408FC000000080FFFF35C000000000000000000C00000013000000DA0700003C00000006000000020000000000000000408F40000000C0C4D035C000000040D40C5A400000002000408FC0000000C0C3D035C000000040D40C5A400C00000013000000E2
310
0700003C00000006000000020000000000002000408FC000000080FFFF35C00000000000C059400000002000408FC0000000C0C3D035C000000040D40C5A400C00000013000000EA0700003C00000006000000020000000000000000408F4000000060A94735C0000000E086525A400000002000408FC000000060A84735C0
310
000000E086525A400C00000013000000F20700003C00000006000000020000000000002000408FC000000060A84735C0000000E086525A400000002000408FC0000000C0C3D035C000000040D40C5A400C00000013000000FA0700003C00000006000000020000000000000000408F40000000C0F07034C000000020CB8A5A
310
400000002000408FC0000000C0EF7034C000000020CB8A5A400C00000013000000020800003C00000006000000020000000000002000408FC000000060A84735C0000000E086525A400000002000408FC0000000C0EF7034C000000020CB8A5A400C000000130000000A0800003C0000000600000002000000000000000040
310
8F4000000040E76033C0000000A04EB05A400000002000408FC000000040E66033C0000000A04EB05A400C00000013000000120800003C00000006000000020000000000002000408FC0000000C0EF7034C000000020CB8A5A400000002000408FC000000040E66033C0000000A04EB05A400C000000130000001A0800003C
310
00000006000000020000000000000000408F4000000080C33032C0000000A0B5BF5A400000002000408FC000000080C23032C0000000A0B5BF5A400C00000013000000220800003C00000006000000020000000000002000408FC000000040E66033C0000000A04EB05A400000002000408FC000000080C23032C0000000A0
310
B5BF5A400C000000130000002A0800003C00000006000000020000000000000000408F4000000060250E32C000000080A9C35A400000002000408FC000000060240E32C000000080A9C35A400C00000013000000320800003C00000006000000020000000000002000408FC000000080C23032C0000000A0B5BF5A40000000
310
2000408FC000000060240E32C000000080A9C35A400C000000130000003A0800003C00000006000000020000000000000000408F4000000080000032C0000000C07ECC5A400000002000408FC000000080FFFF31C0000000C07ECC5A400C00000013000000420800003C00000006000000020000000000002000408FC00000
310
0080FFFF31C0000000C07ECC5A400000002000408FC000000060240E32C000000080A9C35A400C000000130000004A0800003C00000006000000020000000000000000408F4000000080A9EB31C000000040EA7A5B400000002000408FC000000080A8EB31C000000040EA7A5B400C00000013000000520800003C00000006
310
000000020000000000002000408FC000000080FFFF31C0000000C07ECC5A400000002000408FC000000080A8EB31C000000040EA7A5B400C000000130000005A0800003C00000006000000020000000000000000408F4000000000AF282EC0000000A015855B400000002000408FC000000000AD282EC0000000A015855B40
310
0C00000013000000620800003C00000006000000020000000000002000408FC000000000AD282EC0000000A015855B400000002000408FC000000080A8EB31C000000040EA7A5B400C000000130000006A0800003C00000006000000020000000000000000408F400000000001002EC00000000040375C400000002000408F
310
C000000000FFFF2DC00000000040375C400C00000013000000720800003C00000006000000020000000000002000408FC000000000AD282EC0000000A015855B400000002000408FC000000000FFFF2DC00000000040375C400C000000130000007A0800003C00000006000000020000000000000000408F4000000040CE11
310
2EC000000000733E5C400000002000408FC000000040CC112EC000000000733E5C400C00000013000000820800003C00000006000000020000000000002000408FC000000000FFFF2DC00000000040375C400000002000408FC000000040CC112EC000000000733E5C400C000000130000008A0800003C0000000600000002
310
0000000000000000408F40000000C0DB402EC0000000A028435C400000002000408FC0000000C0D9402EC0000000A028435C400C00000013000000920800003C00000006000000020000000000002000408FC0000000C0D9402EC0000000A028435C400000002000408FC000000040CC112EC000000000733E5C400C000000
310
130000009A0800003C00000006000000020000000000000000408F40000000203A7E2FC00000006009545C400000002000408FC000000020387E2FC00000006009545C400C00000013000000A20800003C00000006000000020000000000002000408FC0000000C0D9402EC0000000A028435C400000002000408FC0000000
310
20387E2FC00000006009545C400C00000013000000AA0800003C00000006000000020000000000000000408F40000000E0C20B31C000000080FD7E5C400000002000408FC0000000E0C10B31C000000080FD7E5C400C00000013000000B20800003C00000006000000020000000000002000408FC000000020387E2FC00000
310
006009545C400000002000408FC0000000E0C10B31C000000080FD7E5C400C00000013000000BA0800003C00000006000000020000000000000000408F40000000E01CC032C00000004042CF5C400000002000408FC0000000E01BC032C00000004042CF5C400C00000013000000C20800003C000000060000000200000000
310
00002000408FC0000000E01BC032C00000004042CF5C400000002000408FC0000000E0C10B31C000000080FD7E5C400C00000013000000CA0800003C00000006000000020000000000000000408F40000000C029D733C000000040EB245D400000002000408FC0000000C028D733C000000040EB245D400C00000013000000
310
D20800003C00000006000000020000000000002000408FC0000000E01BC032C00000004042CF5C400000002000408FC0000000C028D733C000000040EB245D400C00000013000000DA0800003C00000006000000020000000000000000408F4000000000B76734C0000000400B7C5D400000002000408FC000000000B66734
310
C0000000400B7C5D400C00000013000000E20800003C00000006000000020000000000002000408FC0000000C028D733C000000040EB245D400000002000408FC000000000B66734C0000000400B7C5D400C00000013000000EA0800003C00000006000000020000000000000000408F4000000000158E34C0000000605FCC
310
5D400000002000408FC000000000148E34C0000000605FCC5D400C00000013000000F20800003C00000006000000020000000000002000408FC000000000148E34C0000000605FCC5D400000002000408FC000000000B66734C0000000400B7C5D400C00000013000000FA0800003C00000006000000020000000000000000
310
408F4000000020A96534C000000060651A5E400000002000408FC000000020A86534C000000060651A5E400C00000013000000020900003C00000006000000020000000000002000408FC000000000148E34C0000000605FCC5D400000002000408FC000000020A86534C000000060651A5E400C000000130000000A090000
310
3C00000006000000020000000000000000408F40000000C08DF933C0000000E08F655E400000002000408FC0000000C08CF933C0000000E08F655E400C00000013000000120900003C00000006000000020000000000002000408FC0000000C08CF933C0000000E08F655E400000002000408FC000000020A86534C0000000
310
60651A5E400C000000130000001A0900003C00000006000000020000000000000000408F40000000E0626633C00000004092A15E400000002000408FC0000000E0616633C00000004092A15E400C00000013000000220900003C00000006000000020000000000002000408FC0000000C08CF933C0000000E08F655E400000
310
002000408FC0000000E0616633C00000004092A15E400C000000130000002A0900003C00000006000000020000000000000000408F400000002092B332C000000000ABD35E400000002000408FC00000002091B332C000000000ABD35E400C00000013000000320900003C00000006000000020000000000002000408FC000
310
0000E0616633C00000004092A15E400000002000408FC00000002091B332C000000000ABD35E400C000000130000003A0900003C00000006000000020000000000000000408F4000000040E9E131C00000006005FF5E400000002000408FC000000040E8E131C00000006005FF5E400C00000013000000420900003C000000
310
06000000020000000000002000408FC00000002091B332C000000000ABD35E400000002000408FC000000040E8E131C00000006005FF5E400C000000130000004A0900003C00000006000000020000000000000000408F4000000000D61831C00000008010205F400000002000408FC000000000D51831C00000008010205F
310
400C00000013000000520900003C00000006000000020000000000002000408FC000000000D51831C00000008010205F400000002000408FC000000040E8E131C00000006005FF5E400C000000130000005A0900003C00000006000000020000000000000000408F40000000C04E4C30C0000000C09A3C5F40000000200040
310
8FC0000000C04D4C30C0000000C09A3C5F400C00000013000000620900003C00000006000000020000000000002000408FC000000000D51831C00000008010205F400000002000408FC0000000C04D4C30C0000000C09A3C5F400C000000130000006A0900003C00000006000000020000000000000000408F400000002041
310
0D2FC000000000C2555F400000002000408FC0000000203F0D2FC000000000C2555F400C00000013000000720900003C00000006000000020000000000002000408FC0000000203F0D2FC000000000C2555F400000002000408FC0000000C04D4C30C0000000C09A3C5F400C000000130000007A0900003C00000006000000
310
020000000000000000408F400000006067872DC0000000800C6E5F400000002000408FC00000006065872DC0000000800C6E5F400C00000013000000820900003C00000006000000020000000000002000408FC0000000203F0D2FC000000000C2555F400000002000408FC00000006065872DC0000000800C6E5F400C0000
310
00130000008A0900003C00000006000000020000000000000000408F40000000009DF32BC000000000AE885F400000002000408FC0000000009BF32BC000000000AE885F400C00000013000000920900003C00000006000000020000000000002000408FC0000000009BF32BC000000000AE885F400000002000408FC00000
310
006065872DC0000000800C6E5F400C000000130000009A0900003C00000006000000020000000000000000408F40000000402C6F2AC000000000FBA55F400000002000408FC0000000402A6F2AC000000000FBA55F400C00000013000000A20900003C00000006000000020000000000002000408FC0000000402A6F2AC000
310
000000FBA55F400000002000408FC0000000009BF32BC000000000AE885F400C00000013000000AA0900003C00000006000000020000000000000000408F4000000080FCFC28C00000008091C65F400000002000408FC000000080FAFC28C00000008091C65F400C00000013000000B20900003C0000000600000002000000
310
0000002000408FC000000080FAFC28C00000008091C65F400000002000408FC0000000402A6F2AC000000000FBA55F400C00000013000000BA0900003C00000006000000020000000000000000408F40000000801C6127C0000000807CF15F400000002000408FC0000000801A6127C0000000807CF15F400C000000130000
310
00C20900003C00000006000000020000000000002000408FC000000080FAFC28C00000008091C65F400000002000408FC0000000801A6127C0000000807CF15F400C00000013000000CA0900003C00000006000000020000000000000000408F400000000083B525C0000000C0731360400000002000408FC00000000081B5
310
25C0000000C0731360400C00000013000000D20900003C00000006000000020000000000002000408FC0000000801A6127C0000000807CF15F400000002000408FC00000000081B525C0000000C0731360400C00000013000000DA0900003C00000006000000020000000000000000408F4000000080740324C00000008027
310
3660400000002000408FC000000080720324C000000080273660400C00000013000000E20900003C00000006000000020000000000002000408FC000000080720324C000000080273660400000002000408FC00000000081B525C0000000C0731360400C00000013000000EA0900003C000000060000000200000000000000
310
00408F40000000C0286222C0000000C05D6260400000002000408FC0000000C0266222C0000000C05D6260400C00000013000000F20900003C00000006000000020000000000002000408FC000000080720324C000000080273660400000002000408FC0000000C0266222C0000000C05D6260400C00000013000000FA0900
310
003C00000006000000020000000000000000408F400000008032C920C000000040D79C60400000002000408FC00000008030C920C000000040D79C60400C00000013000000020A00003C00000006000000020000000000002000408FC0000000C0266222C0000000C05D6260400000002000408FC00000008030C920C00000
310
0040D79C60400C000000130000000A0A00003C00000006000000020000000000000000408F40000000C0BE971EC000000060B9E760400000002000408FC000000080BA971EC000000060B9E760400C00000013000000120A00003C00000006000000020000000000002000408FC00000008030C920C000000040D79C604000
310
00002000408FC000000080BA971EC000000060B9E760400C000000130000001A0A00003C00000006000000020000000000000000408F40000000C06AC71CC000000040DC2161400000002000408FC00000008066C71CC000000040DC2161400C00000013000000220A00003C00000006000000020000000000002000408FC0
310
00000080BA971EC000000060B9E760400000002000408FC00000008066C71CC000000040DC2161400C000000130000002A0A00003C00000006000000020000000000000000408F40000000A0A3201CC0000000E0DA3A61400000002000408FC0000000609F201CC0000000E0DA3A61400C00000013000000320A00003C0000
310
0006000000020000000000002000408FC00000008066C71CC000000040DC2161400000002000408FC0000000609F201CC0000000E0DA3A61400C000000130000003A0A00003C00000006000000020000000000000000408F40000000A0A8D91BC0000000A08C3E61400000002000408FC000000060A4D91BC0000000A08C3E
310
61400C00000013000000420A00003C00000006000000020000000000002000408FC0000000609F201CC0000000E0DA3A61400000002000408FC000000060A4D91BC0000000A08C3E61400C000000130000004A0A00003C00000006000000020000000000000000408F40000000C0D0571BC000000000004061400000002000
310
408FC000000080CC571BC000000000004061400C00000013000000520A00003C00000006000000020000000000002000408FC000000080CC571BC000000000004061400000002000408FC000000060A4D91BC0000000A08C3E61400C000000130000005A0A00003C00000006000000020000000000000000408F4000000000
310
0000E0BE00000000004061400000002000408FC0000000000000E03E00000000004061400C00000013000000620A00003C00000006000000020000000000002000408FC000000080CC571BC000000000004061400000002000408FC0000000000000E03E00000000004061400C000000130000006A0A00003C000000060000
310
00020000000000000000408F40000000000000E0BE00000080A8CB60400000002000408FC0000000000000E03E00000080A8CB60400C00000013000000720A00003C00000006000000020000000000002000408FC0000000000000E03E00000080A8CB60400000002000408FC0000000000000E03E00000000004061400C00
310
0000130000007A0A00003C00000006000000020000000000000000408F4000000000F0ACBFBF000000803DBC60400000002000408FC000000000F0ABBFBF000000803DBC60400C00000013000000820A00003C00000006000000020000000000002000408FC000000000F0ABBFBF000000803DBC60400000002000408FC000
310
0000000000E03E00000080A8CB60400C000000130000008A0A00003C00000006000000020000000000000000408F4000000000FCB6DDBF00000020A3B060400000002000408FC000000000BCB6DDBF00000020A3B060400C00000013000000920A00003C00000006000000020000000000002000408FC000000000BCB6DDBF
310
00000020A3B060400000002000408FC000000000F0ABBFBF000000803DBC60400C000000130000009A0A00003C00000006000000020000000000000000408F40000000001A70EFBF000000E0ABA060400000002000408FC000000000FA6FEFBF000000E0ABA060400C00000013000000A20A00003C00000006000000020000
310
000000002000408FC000000000BCB6DDBF00000020A3B060400000002000408FC000000000FA6FEFBF000000E0ABA060400C00000013000000AA0A00003C00000006000000020000000000000000408F40000000006038F4BF00000020808B60400000002000408FC0000000005038F4BF00000020808B60400C0000001300
310
0000B20A00003C00000006000000020000000000002000408FC0000000005038F4BF00000020808B60400000002000408FC000000000FA6FEFBF000000E0ABA060400C00000013000000BA0A00003C00000006000000020000000000000000408F40000000006038F4BF000000E07F7460400000002000408FC00000000050
310
38F4BF000000E07F7460400C00000013000000C20A00003C00000006000000020000000000002000408FC0000000005038F4BF000000E07F7460400000002000408FC0000000005038F4BF00000020808B60400C00000013000000CA0A00003C00000006000000020000000000000000408F40000000001A70EFBF00000020
310
545F60400000002000408FC000000000FA6FEFBF00000020545F60400C00000013000000D20A00003C00000006000000020000000000002000408FC0000000005038F4BF000000E07F7460400000002000408FC000000000FA6FEFBF00000020545F60400C00000013000000DA0A00003C0000000600000002000000000000
310
0000408F4000000000FCB6DDBF000000E05C4F60400000002000408FC000000000BCB6DDBF000000E05C4F60400C00000013000000E20A00003C00000006000000020000000000002000408FC000000000BCB6DDBF000000E05C4F60400000002000408FC000000000FA6FEFBF00000020545F60400C00000013000000EA0A
310
00003C00000006000000020000000000000000408F4000000000F0ACBFBF00000080C24360400000002000408FC000000000F0ABBFBF00000080C24360400C00000013000000F20A00003C00000006000000020000000000002000408FC000000000F0ABBFBF00000080C24360400000002000408FC000000000BCB6DDBF00
310
0000E05C4F60400C00000013000000FA0A00003C00000006000000020000000000000000408F40000000000000E0BE00000080573460400000002000408FC0000000000000E03E00000080573460400C00000013000000020B00003C00000006000000020000000000002000408FC000000000F0ABBFBF00000080C2436040
310
0000002000408FC0000000000000E03E00000080573460400C000000130000000A0B00003C00000006000000020000000000000000408F40000000000000E0BE0000000051A15F400000002000408FC0000000000000E03E0000000051A15F400C00000013000000120B00003C00000006000000020000000000002000408F
310
C0000000000000E03E0000000051A15F400000002000408FC0000000000000E03E00000080573460400C000000130000001A0B00003C00000006000000020000000000000000408F400000000060EDBCBF000000A0C3835F400000002000408FC00000000060ECBCBF000000A0C3835F400C00000013000000220B00003C00
310
000006000000020000000000002000408FC00000000060ECBCBF000000A0C3835F400000002000408FC0000000000000E03E0000000051A15F400C000000130000002A0B00003C00000006000000020000000000000000408F4000000000A84ADBBF00000000E46C5F400000002000408FC000000000684ADBBF00000000E4
310
6C5F400C00000013000000320B00003C00000006000000020000000000002000408FC000000000684ADBBF00000000E46C5F400000002000408FC00000000060ECBCBF000000A0C3835F400C000000130000003A0B00003C00000006000000020000000000000000408F40000000808DB321C0000000405FF35D4000000020
310
00408FC0000000808BB321C0000000405FF35D400C00000013000000420B00003C00000006000000020000000000002000408FC0000000808BB321C0000000405FF35D400000002000408FC000000000684ADBBF00000000E46C5F400C000000130000004A0B00003C00000006000000020000000000000000408F40000000
310
E08E4522C000000020BCDF5D400000002000408FC0000000E08C4522C000000020BCDF5D400C00000013000000520B00003C00000006000000020000000000002000408FC0000000E08C4522C000000020BCDF5D400000002000408FC0000000808BB321C0000000405FF35D400C000000130000005A0B00003C0000000600
310
0000020000000000000000408F40000000A0618A22C0000000C05FC65D400000002000408FC0000000A05F8A22C0000000C05FC65D400C00000013000000620B00003C00000006000000020000000000002000408FC0000000A05F8A22C0000000C05FC65D400000002000408FC0000000E08C4522C000000020BCDF5D400C
310
000000130000006A0B00003C00000006000000020000000000000000408F40000000C0307622C000000080B6AB5D400000002000408FC0000000C02E7622C000000080B6AB5D400C00000013000000720B00003C00000006000000020000000000002000408FC0000000C02E7622C000000080B6AB5D400000002000408FC0
310
000000A05F8A22C0000000C05FC65D400C000000130000007A0B00003C00000006000000020000000000000000408F40000000E0560C22C00000008065945D400000002000408FC0000000E0540C22C00000008065945D400C00000013000000820B00003C00000006000000020000000000002000408FC0000000E0540C22
310
C00000008065945D400000002000408FC0000000C02E7622C000000080B6AB5D400C000000130000008A0B00003C00000006000000020000000000000000408F400000006018B01FC0000000A09C2E5D400000002000408FC00000002014B01FC0000000A09C2E5D400C00000013000000920B00003C000000060000000200
310
00000000002000408FC0000000E0540C22C00000008065945D400000002000408FC00000002014B01FC0000000A09C2E5D400C000000130000009A0B00003C00000006000000020000000000000000408F40000000A0B1EF1CC000000060EDBA5C400000002000408FC000000060ADEF1CC000000060EDBA5C400C00000013
310
000000A20B00003C00000006000000020000000000002000408FC000000060ADEF1CC000000060EDBA5C400000002000408FC00000002014B01FC0000000A09C2E5D400C00000013000000AA0B00003C00000006000000020000000000000000408F400000002002001CC00000000000405C400000002000408FC0000000E0
310
FDFF1BC00000000000405C400C00000013000000B20B00003C00000006000000020000000000002000408FC0000000E0FDFF1BC00000000000405C400000002000408FC000000060ADEF1CC000000060EDBA5C400C00000013000000BA0B00003C00000006000000020000000000000000408F400000002002001CC0000000
310
0000205C400000002000408FC0000000E0FDFF1BC00000000000205C400C00000013000000C20B00003C00000006000000020000000000002000408FC0000000E0FDFF1BC00000000000405C400000002000408FC0000000E0FDFF1BC00000000000205C400C00000013000000CA0B00003C00000006000000020000000000
310
000000408F4000000060D1761BC00000000000005C400000002000408FC000000020CD761BC00000000000005C400C00000013000000D20B00003C00000006000000020000000000002000408FC000000020CD761BC00000000000005C400000002000408FC0000000E0FDFF1BC00000000000205C400C00000013000000DA
310
0B00003C00000006000000020000000000000000408F400000002002001AC00000000093E85B400000002000408FC0000000E0FDFF19C00000000093E85B400C00000013000000E20B00003C00000006000000020000000000002000408FC0000000E0FDFF19C00000000093E85B400000002000408FC000000020CD761BC0
310
0000000000005C400C00000013000000EA0B00003C00000006000000020000000000000000408F4000000020020018C00000000000E05B400000002000408FC0000000E0FDFF17C00000000000E05B400C00000013000000F20B00003C00000006000000020000000000002000408FC0000000E0FDFF19C00000000093E85B
310
400000002000408FC0000000E0FDFF17C00000000000E05B400C00000013000000FA0B00003C00000006000000020000000000000000408F40000000000800F0BF0000000000E05B400000002000408FC000000000F0FFEFBF0000000000E05B400C00000013000000020C00003C0000000600000002000000000000200040
310
8FC0000000E0FDFF17C00000000000E05B400000002000408FC000000000F0FFEFBF0000000000E05B400C000000130000000A0C00003C00000006000000020000000000000000408F40000000001000E0BF000000006DD75B400000002000408FC000000000E0FFDFBF000000006DD75B400C00000013000000120C00003C
310
00000006000000020000000000002000408FC000000000E0FFDFBF000000006DD75B400000002000408FC000000000F0FFEFBF0000000000E05B400C000000130000001A0C00003C00000006000000020000000000000000408F40000000005826C1BF0000000000C05B400000002000408FC000000000D825C1BF00000000
310
00C05B400C00000013000000220C00003C00000006000000020000000000002000408FC000000000D825C1BF0000000000C05B400000002000408FC000000000E0FFDFBF000000006DD75B400C000000130000002A0C00003C00000006000000020000000000000000408F40000000000000E0BE0000000000A05B40000000
310
2000408FC0000000000000E03E0000000000A05B400C00000013000000320C00003C00000006000000020000000000002000408FC000000000D825C1BF0000000000C05B400000002000408FC0000000000000E03E0000000000A05B400C000000130000003A0C00003C00000006000000020000000000000000408F400000
310
00000000E0BE00000060E7775B400000002000408FC0000000000000E03E00000060E7775B400C00000013000000420C00003C00000006000000020000000000002000408FC0000000000000E03E0000000000A05B400000002000408FC0000000000000E03E00000060E7775B400C000000130000004A0C00003C00000006
310
000000020000000000000000408F4000000000203FB9BF00000000315C5B400000002000408FC000000000203EB9BF00000000315C5B400C00000013000000520C00003C00000006000000020000000000002000408FC0000000000000E03E00000060E7775B400000002000408FC000000000203EB9BF00000000315C5B40
310
0C000000130000005A0C00003C00000006000000020000000000000000408F40000000002000D8BF000000A0F1455B400000002000408FC000000000E0FFD7BF000000A0F1455B400C00000013000000620C00003C00000006000000020000000000002000408FC000000000E0FFD7BF000000A0F1455B400000002000408F
310
C000000000203EB9BF00000000315C5B400C000000130000006A0C00003C00000006000000020000000000000000408F4000000000BC62E8BF000000C0C8265B400000002000408FC0000000009C62E8BF000000C0C8265B400C00000013000000720C00003C00000006000000020000000000002000408FC000000000E0FF
310
D7BF000000A0F1455B400000002000408FC0000000009C62E8BF000000C0C8265B400C000000130000007A0C00003C00000006000000020000000000000000408F4000000000DCCCECBF0000000000005B400000002000408FC000000000BCCCECBF0000000000005B400C00000013000000820C00003C0000000600000002
310
0000000000002000408FC000000000BCCCECBF0000000000005B400000002000408FC0000000009C62E8BF000000C0C8265B400C000000130000008A0C00003C00000006000000020000000000000000408F4000000000BC62E8BF0000004037D95A400000002000408FC0000000009C62E8BF0000004037D95A400C000000
310
13000000920C00003C00000006000000020000000000002000408FC000000000BCCCECBF0000000000005B400000002000408FC0000000009C62E8BF0000004037D95A400C000000130000009A0C00003C00000006000000020000000000000000408F40000000002000D8BF000000600EBA5A400000002000408FC0000000
310
00E0FFD7BF000000600EBA5A400C00000013000000A20C00003C00000006000000020000000000002000408FC0000000009C62E8BF0000004037D95A400000002000408FC000000000E0FFD7BF000000600EBA5A400C00000013000000AA0C00003C00000006000000020000000000000000408F4000000000203FB9BF0000
310
0000CFA35A400000002000408FC000000000203EB9BF00000000CFA35A400C00000013000000B20C00003C00000006000000020000000000002000408FC000000000E0FFD7BF000000600EBA5A400000002000408FC000000000203EB9BF00000000CFA35A400C00000013000000BA0C00003C000000060000000200000000
310
00000000408F40000000000000E0BE000000A018885A400000002000408FC0000000000000E03E000000A018885A400C00000013000000C20C00003C00000006000000020000000000002000408FC0000000000000E03E000000A018885A400000002000408FC000000000203EB9BF00000000CFA35A400C00000013000000
310
CA0C00003C00000006000000020000000000000000408F40000000000000E0BE0000000000605A400000002000408FC0000000000000E03E0000000000605A400C00000013000000D20C00003C00000006000000020000000000002000408FC0000000000000E03E000000A018885A400000002000408FC0000000000000E0
310
3E0000000000605A400C00000013000000DA0C00003C00000006000000020000000000000000408F40000000005826C1BF0000000000405A400000002000408FC000000000D825C1BF0000000000405A400C00000013000000E20C00003C00000006000000020000000000002000408FC000000000D825C1BF000000000040
310
5A400000002000408FC0000000000000E03E0000000000605A400C00000013000000EA0C00003C00000006000000020000000000000000408F40000000001000E0BF0000000093285A400000002000408FC000000000E0FFDFBF0000000093285A400C00000013000000F20C00003C00000006000000020000000000002000
310
408FC000000000D825C1BF0000000000405A400000002000408FC000000000E0FFDFBF0000000093285A400C00000013000000FA0C00003C00000006000000020000000000000000408F40000000000800F0BF0000000000205A400000002000408FC000000000F0FFEFBF0000000000205A400C00000013000000020D0000
310
3C00000006000000020000000000002000408FC000000000F0FFEFBF0000000000205A400000002000408FC000000000E0FFDFBF0000000093285A400C000000130000000A0D00003C00000006000000020000000000000000408F40000000602DC420C00000000000205A400000002000408FC0000000602BC420C0000000
310
0000205A400C00000013000000120D00003C00000006000000020000000000002000408FC0000000602BC420C00000000000205A400000002000408FC000000000F0FFEFBF0000000000205A400C000000130000001A0D00003C00000006000000020000000000000000408F40000000C0F23622C0000000A050175A400000
310
002000408FC0000000C0F03622C0000000A050175A400C00000013000000220D00003C00000006000000020000000000002000408FC0000000602BC420C00000000000205A400000002000408FC0000000C0F03622C0000000A050175A400C000000130000002A0D00003C00000006000000020000000000000000408F4000
310
000020677723C00000000070FE59400000002000408FC000000020657723C00000000070FE59400C00000013000000320D00003C00000006000000020000000000002000408FC000000020657723C00000000070FE59400000002000408FC0000000C0F03622C0000000A050175A400C000000130000003A0D00003C000000
310
06000000020000000000000000408F40000000C0D70C2AC000000080AE3D59400000002000408FC0000000C0D50C2AC000000080AE3D59400C00000013000000420D00003C00000006000000020000000000002000408FC0000000C0D50C2AC000000080AE3D59400000002000408FC000000020657723C00000000070FE59
310
400C000000130000004A0D00003C00000006000000020000000000000000408F4000000000C61A2BC000000040EB1459400000002000408FC000000000C41A2BC000000040EB1459400C00000013000000520D00003C00000006000000020000000000002000408FC000000000C41A2BC000000040EB145940000000200040
310
8FC0000000C0D50C2AC000000080AE3D59400C000000130000005A0D00003C00000006000000020000000000000000408F40000000A09DC52BC0000000806FE458400000002000408FC0000000A09BC52BC0000000806FE458400C00000013000000620D00003C00000006000000020000000000002000408FC000000000C4
310
1A2BC000000040EB1459400000002000408FC0000000A09BC52BC0000000806FE458400C000000130000006A0D00003C00000006000000020000000000000000408F400000000001002CC00000008006B058400000002000408FC000000000FFFF2BC00000008006B058400C00000013000000720D00003C00000006000000
310
020000000000002000408FC000000000FFFF2BC00000008006B058400000002000408FC0000000A09BC52BC0000000806FE458400C000000130000007A0D00003C00000006000000020000000000000000408F400000000001002CC0000000C00A7145400000002000408FC000000000FFFF2BC0000000C00A7145400C0000
310
0013000000820D00003C00000006000000020000000000002000408FC000000000FFFF2BC00000008006B058400000002000408FC000000000FFFF2BC0000000C00A7145400C000000130000008A0D00003C00000006000000020000000000000000408F40000000207F212CC0000000408B4345400000002000408FC00000
310
00207D212CC0000000408B4345400C00000013000000920D00003C00000006000000020000000000002000408FC000000000FFFF2BC0000000C00A7145400000002000408FC0000000207D212CC0000000408B4345400C000000130000009A0D00003C00000006000000020000000000000000408F40000000A0B4812CC000
310
0000E0EA1B45400000002000408FC0000000A0B2812CC0000000E0EA1B45400C00000013000000A20D00003C00000006000000020000000000002000408FC0000000A0B2812CC0000000E0EA1B45400000002000408FC0000000207D212CC0000000408B4345400C00000013000000AA0D00003C0000000600000002000000
310
0000000000408F4000000040B2132DC0000000A07DFF44400000002000408FC000000040B0132DC0000000A07DFF44400C00000013000000B20D00003C00000006000000020000000000002000408FC000000040B0132DC0000000A07DFF44400000002000408FC0000000A0B2812CC0000000E0EA1B45400C000000130000
310
00BA0D00003C00000006000000020000000000000000408F4000000000385C2EC0000000608ABF44400000002000408FC000000000365C2EC0000000608ABF44400C00000013000000C20D00003C00000006000000020000000000002000408FC000000040B0132DC0000000A07DFF44400000002000408FC000000000365C
310
2EC0000000608ABF44400C00000013000000CA0D00003C00000006000000020000000000000000408F40000000E07A342FC000000040876644400000002000408FC0000000E078342FC000000040876644400C00000013000000D20D00003C00000006000000020000000000002000408FC0000000E078342FC00000004087
310
6644400000002000408FC000000000365C2EC0000000608ABF44400C00000013000000DA0D00003C00000006000000020000000000000000408F400000000001802FC000000000000044400000002000408FC000000000FF7F2FC000000000000044400C00000013000000E20D00003C000000060000000200000000000020
310
00408FC000000000FF7F2FC000000000000044400000002000408FC0000000E078342FC000000040876644400C00000013000000EA0D00003C00000006000000020000000000000000408F40000000E07A342FC0000000C0789943400000002000408FC0000000E078342FC0000000C0789943400C00000013000000F20D00
310
003C00000006000000020000000000002000408FC0000000E078342FC0000000C0789943400000002000408FC000000000FF7F2FC000000000000044400C00000013000000FA0D00003C00000006000000020000000000000000408F4000000000385C2EC0000000A0754043400000002000408FC000000000365C2EC00000
310
00A0754043400C00000013000000020E00003C00000006000000020000000000002000408FC0000000E078342FC0000000C0789943400000002000408FC000000000365C2EC0000000A0754043400C000000130000000A0E00003C00000006000000020000000000000000408F4000000040B2132DC0000000608200434000
310
00002000408FC000000040B0132DC000000060820043400C00000013000000120E00003C00000006000000020000000000002000408FC000000000365C2EC0000000A0754043400000002000408FC000000040B0132DC000000060820043400C000000130000001A0E00003C00000006000000020000000000000000408F40
310
000000A0B4812CC00000002015E442400000002000408FC0000000A0B2812CC00000002015E442400C00000013000000220E00003C00000006000000020000000000002000408FC000000040B0132DC000000060820043400000002000408FC0000000A0B2812CC00000002015E442400C000000130000002A0E00003C0000
310
0006000000020000000000000000408F40000000207F212CC0000000C074BC42400000002000408FC0000000207D212CC0000000C074BC42400C00000013000000320E00003C00000006000000020000000000002000408FC0000000207D212CC0000000C074BC42400000002000408FC0000000A0B2812CC00000002015E4
310
42400C000000130000003A0E00003C00000006000000020000000000000000408F400000000001002CC000000040F58E42400000002000408FC000000000FFFF2BC000000040F58E42400C00000013000000420E00003C00000006000000020000000000002000408FC0000000207D212CC0000000C074BC42400000002000
310
408FC000000000FFFF2BC000000040F58E42400C000000130000004A0E00003C00000006000000020000000000000000408F400000000001002CC0000000C00A7140400000002000408FC000000000FFFF2BC0000000C00A7140400C00000013000000520E00003C00000006000000020000000000002000408FC000000000
310
FFFF2BC0000000C00A7140400000002000408FC000000000FFFF2BC000000040F58E42400C000000130000005A0E00003C00000006000000020000000000000000408F40000000207F212CC0000000408B4340400000002000408FC0000000207D212CC0000000408B4340400C00000013000000620E00003C000000060000
310
00020000000000002000408FC0000000207D212CC0000000408B4340400000002000408FC000000000FFFF2BC0000000C00A7140400C000000130000006A0E00003C00000006000000020000000000000000408F40000000A0B4812CC0000000C0EA1B40400000002000408FC0000000A0B2812CC0000000C0EA1B40400C00
310
000013000000720E00003C00000006000000020000000000002000408FC0000000A0B2812CC0000000C0EA1B40400000002000408FC0000000207D212CC0000000408B4340400C000000130000007A0E00003C00000006000000020000000000000000408F4000000040B2132DC000000000FBFE3F400000002000408FC000
310
000040B0132DC000000000FBFE3F400C00000013000000820E00003C00000006000000020000000000002000408FC000000040B0132DC000000000FBFE3F400000002000408FC0000000A0B2812CC0000000C0EA1B40400C000000130000008A0E00003C00000006000000020000000000000000408F4000000000385C2EC0
310
00000080147F3F400000002000408FC000000000365C2EC000000080147F3F400C00000013000000920E00003C00000006000000020000000000002000408FC000000040B0132DC000000000FBFE3F400000002000408FC000000000365C2EC000000080147F3F400C000000130000009A0E00003C00000006000000020000
310
000000000000408F40000000E07A342FC0000000800ECD3E400000002000408FC0000000E078342FC0000000800ECD3E400C00000013000000A20E00003C00000006000000020000000000002000408FC0000000E078342FC0000000800ECD3E400000002000408FC000000000365C2EC000000080147F3F400C0000001300
310
0000AA0E00003C00000006000000020000000000000000408F400000000001802FC00000000000003E400000002000408FC000000000FF7F2FC00000000000003E400C00000013000000B20E00003C00000006000000020000000000002000408FC000000000FF7F2FC00000000000003E400000002000408FC0000000E078
310
342FC0000000800ECD3E400C00000013000000BA0E00003C00000006000000020000000000000000408F40000000E07A342FC000000080F1323D400000002000408FC0000000E078342FC000000080F1323D400C00000013000000C20E00003C00000006000000020000000000002000408FC000000000FF7F2FC000000000
310
00003E400000002000408FC0000000E078342FC000000080F1323D400C00000013000000CA0E00003C00000006000000020000000000000000408F4000000000385C2EC000000080EB803C400000002000408FC000000000365C2EC000000080EB803C400C00000013000000D20E00003C0000000600000002000000000000
310
2000408FC000000000365C2EC000000080EB803C400000002000408FC0000000E078342FC000000080F1323D400C00000013000000DA0E00003C00000006000000020000000000000000408F4000000040B2132DC00000000005013C400000002000408FC000000040B0132DC00000000005013C400C00000013000000E20E
310
00003C00000006000000020000000000002000408FC000000000365C2EC000000080EB803C400000002000408FC000000040B0132DC00000000005013C400C00000013000000EA0E00003C00000006000000020000000000000000408F40000000A0B4812CC0000000802AC83B400000002000408FC0000000A0B2812CC000
310
0000802AC83B400C00000013000000F20E00003C00000006000000020000000000002000408FC000000040B0132DC00000000005013C400000002000408FC0000000A0B2812CC0000000802AC83B400C00000013000000FA0E00003C00000006000000020000000000000000408F40000000207F212CC000000080E9783B40
310
0000002000408FC0000000207D212CC000000080E9783B400C00000013000000020F00003C00000006000000020000000000002000408FC0000000A0B2812CC0000000802AC83B400000002000408FC0000000207D212CC000000080E9783B400C000000130000000A0F00003C00000006000000020000000000000000408F
310
400000000001002CC000000080EA1D3B400000002000408FC000000000FFFF2BC000000080EA1D3B400C00000013000000120F00003C00000006000000020000000000002000408FC0000000207D212CC000000080E9783B400000002000408FC000000000FFFF2BC000000080EA1D3B400C000000130000001A0F00003C00
310
000006000000020000000000000000408F400000000001002CC00000008015E236400000002000408FC000000000FFFF2BC00000008015E236400C00000013000000220F00003C00000006000000020000000000002000408FC000000000FFFF2BC00000008015E236400000002000408FC000000000FFFF2BC000000080EA
310
1D3B400C000000130000002A0F00003C00000006000000020000000000000000408F40000000207F212CC000000080168736400000002000408FC0000000207D212CC000000080168736400C00000013000000320F00003C00000006000000020000000000002000408FC0000000207D212CC0000000801687364000000020
310
00408FC000000000FFFF2BC00000008015E236400C000000130000003A0F00003C00000006000000020000000000000000408F40000000A0B4812CC000000080D53736400000002000408FC0000000A0B2812CC000000080D53736400C00000013000000420F00003C00000006000000020000000000002000408FC0000000
310
A0B2812CC000000080D53736400000002000408FC0000000207D212CC000000080168736400C000000130000004A0F00003C00000006000000020000000000000000408F4000000040B2132DC000000000FBFE35400000002000408FC000000040B0132DC000000000FBFE35400C00000013000000520F00003C0000000600
310
0000020000000000002000408FC0000000A0B2812CC000000080D53736400000002000408FC000000040B0132DC000000000FBFE35400C000000130000005A0F00003C00000006000000020000000000000000408F4000000000385C2EC000000080147F35400000002000408FC000000000365C2EC000000080147F35400C
310
00000013000000620F00003C00000006000000020000000000002000408FC000000000365C2EC000000080147F35400000002000408FC000000040B0132DC000000000FBFE35400C000000130000006A0F00003C00000006000000020000000000000000408F40000000E07A342FC0000000800ECD34400000002000408FC0
310
000000E078342FC0000000800ECD34400C00000013000000720F00003C00000006000000020000000000002000408FC0000000E078342FC0000000800ECD34400000002000408FC000000000365C2EC000000080147F35400C000000130000007A0F00003C00000006000000020000000000000000408F400000000001802F
310
C000000000000034400000002000408FC000000000FF7F2FC000000000000034400C00000013000000820F00003C00000006000000020000000000002000408FC000000000FF7F2FC000000000000034400000002000408FC0000000E078342FC0000000800ECD34400C000000130000008A0F00003C000000060000000200
310
00000000000000408F40000000E07A342FC000000080F13233400000002000408FC0000000E078342FC000000080F13233400C00000013000000920F00003C00000006000000020000000000002000408FC000000000FF7F2FC000000000000034400000002000408FC0000000E078342FC000000080F13233400C00000013
310
0000009A0F00003C00000006000000020000000000000000408F4000000000385C2EC000000080EB8032400000002000408FC000000000365C2EC000000080EB8032400C00000013000000A20F00003C00000006000000020000000000002000408FC000000000365C2EC000000080EB8032400000002000408FC0000000E0
310
78342FC000000080F13233400C00000013000000AA0F00003C00000006000000020000000000000000408F4000000040B2132DC000000000050132400000002000408FC000000040B0132DC000000000050132400C00000013000000B20F00003C00000006000000020000000000002000408FC000000000365C2EC0000000
310
80EB8032400000002000408FC000000040B0132DC000000000050132400C00000013000000BA0F00003C00000006000000020000000000000000408F40000000A0B4812CC0000000802AC831400000002000408FC0000000A0B2812CC0000000802AC831400C00000013000000C20F00003C00000006000000020000000000
310
002000408FC0000000A0B2812CC0000000802AC831400000002000408FC000000040B0132DC000000000050132400C00000013000000CA0F00003C00000006000000020000000000000000408F40000000207F212CC000000080E97831400000002000408FC0000000207D212CC000000080E97831400C00000013000000D2
310
0F00003C00000006000000020000000000002000408FC0000000207D212CC000000080E97831400000002000408FC0000000A0B2812CC0000000802AC831400C00000013000000DA0F00003C00000006000000020000000000000000408F400000000001002CC000000080EA1D31400000002000408FC000000000FFFF2BC0
310
00000080EA1D31400C00000013000000E20F00003C00000006000000020000000000002000408FC000000000FFFF2BC000000080EA1D31400000002000408FC0000000207D212CC000000080E97831400C00000013000000EA0F00003C00000006000000020000000000000000408F400000000001002CC0000000002BC429
310
400000002000408FC000000000FFFF2BC0000000002BC429400C00000013000000F20F00003C00000006000000020000000000002000408FC000000000FFFF2BC0000000002BC429400000002000408FC000000000FFFF2BC000000080EA1D31400C00000013000000FA0F00003C0000000600000002000000000000000040
310
8F40000000207F212CC0000000002D0E29400000002000408FC0000000207D212CC0000000002D0E29400C00000013000000021000003C00000006000000020000000000002000408FC000000000FFFF2BC0000000002BC429400000002000408FC0000000207D212CC0000000002D0E29400C000000130000000A1000003C
310
00000006000000020000000000000000408F40000000A0B4812CC000000000AC6F28400000002000408FC0000000A0B2812CC000000000AC6F28400C00000013000000121000003C00000006000000020000000000002000408FC0000000A0B2812CC000000000AC6F28400000002000408FC0000000207D212CC000000000
310
2D0E29400C000000130000001A1000003C00000006000000020000000000000000408F4000000040B2132DC000000000F6FD27400000002000408FC000000040B0132DC000000000F6FD27400C00000013000000221000003C00000006000000020000000000002000408FC0000000A0B2812CC000000000AC6F2840000000
310
2000408FC000000040B0132DC000000000F6FD27400C000000130000002A1000003C00000006000000020000000000000000408F4000000000385C2EC00000000029FE26400000002000408FC000000000365C2EC00000000029FE26400C00000013000000321000003C00000006000000020000000000002000408FC00000
310
0040B0132DC000000000F6FD27400000002000408FC000000000365C2EC00000000029FE26400C000000130000003A1000003C00000006000000020000000000000000408F40000000E07A342FC0000000001D9A25400000002000408FC0000000E078342FC0000000001D9A25400C00000013000000421000003C00000006
310
000000020000000000002000408FC0000000E078342FC0000000001D9A25400000002000408FC000000000365C2EC00000000029FE26400C000000130000004A1000003C00000006000000020000000000000000408F400000000001802FC000000000000024400000002000408FC000000000FF7F2FC00000000000002440
310
0C00000013000000521000003C00000006000000020000000000002000408FC000000000FF7F2FC000000000000024400000002000408FC0000000E078342FC0000000001D9A25400C000000130000005A1000003C00000006000000020000000000000000408F40000000E07A342FC000000000E36522400000002000408F
310
C0000000E078342FC000000000E36522400C00000013000000621000003C00000006000000020000000000002000408FC000000000FF7F2FC000000000000024400000002000408FC0000000E078342FC000000000E36522400C000000130000006A1000003C00000006000000020000000000000000408F4000000000385C
310
2EC000000000D70121400000002000408FC000000000365C2EC000000000D70121400C00000013000000721000003C00000006000000020000000000002000408FC000000000365C2EC000000000D70121400000002000408FC0000000E078342FC000000000E36522400C000000130000007A1000003C0000000600000002
310
0000000000000000408F4000000040B2132DC0000000000A0220400000002000408FC000000040B0132DC0000000000A0220400C00000013000000821000003C00000006000000020000000000002000408FC000000040B0132DC0000000000A0220400000002000408FC000000000365C2EC000000000D70121400C000000
310
130000008A1000003C00000006000000020000000000000000408F40000000A0B4812CC000000000A8201F400000002000408FC0000000A0B2812CC000000000A8201F400C00000013000000921000003C00000006000000020000000000002000408FC000000040B0132DC0000000000A0220400000002000408FC0000000
310
A0B2812CC000000000A8201F400C000000130000009A1000003C00000006000000020000000000000000408F40000000207F212CC000000000A6E31D400000002000408FC0000000207D212CC000000000A6E31D400C00000013000000A21000003C00000006000000020000000000002000408FC0000000207D212CC00000
310
0000A6E31D400000002000408FC0000000A0B2812CC000000000A8201F400C00000013000000AA1000003C00000006000000020000000000000000408F400000000001002CC000000000AA771C400000002000408FC000000000FFFF2BC000000000AA771C400C00000013000000B21000003C000000060000000200000000
310
00002000408FC000000000FFFF2BC000000000AA771C400000002000408FC0000000207D212CC000000000A6E31D400C00000013000000BA1000003C00000006000000020000000000000000408F400000000001002CC0000000008099C93F0000002000408FC000000000FFFF2BC0000000008099C93F0C00000013000000
310
C21000003C00000006000000020000000000002000408FC000000000FFFF2BC0000000008099C93F0000002000408FC000000000FFFF2BC000000000AA771C400C00000013000000CA1000003C00000006000000020000000000000000408F40000000C0AB212CC00000000080D5B03F0000002000408FC0000000C0A9212C
310
C00000000080D5B03F0C00000013000000D21000003C00000006000000020000000000002000408FC0000000C0A9212CC00000000080D5B03F0000002000408FC000000000FFFF2BC0000000008099C93F0C00000013000000DA1000003C00000006000000020000000000002000408FC0000000C0A9212CC00000000080D5
310
B03F0000002000408FC00000006065662CC000000000000000000C00000013000000E21000003C00000006000000020000000000002000408FC000000080FFFF35C00000000000C059400000002000408FC000000000FFFF2BC0000000C00A7145400C00000013000000EA1000003C00000006000000020000000000002000
310
408FC000000000FFFF2BC00000008006B058400000002000408FC000000080FFFF35C00000000000C059400C00000013000000F21000003C00000006000000020000000000002000408FC0000000C0A9212CC00000000080D5B03F0000002000408FC0000000207D212CC000000000A6E31D400C00000013000000FA100000
310
3C00000006000000020000000000002000408FC00000006065662CC000000000000000000000002000408FC0000000A0B2812CC000000000A8201F400C00000013000000021100003C00000006000000020000000000002000408FC000000040B0132DC0000000000A0220400000002000408FC000000080FFFF35C0000000
310
00000000000C000000130000000A1100003C00000006000000020000000000002000408FC000000000365C2EC000000000D70121400000002000408FC000000080FFFF35C000000000000000000C00000013000000121100003C00000006000000020000000000002000408FC000000080FFFF35C000000000000000000000
310
002000408FC0000000E078342FC000000000E36522400C000000130000001A1100003C00000006000000020000000000002000408FC000000000FF7F2FC000000000000024400000002000408FC000000080FFFF35C000000000000000000C00000013000000221100003C00000006000000020000000000002000408FC000
310
000000FF7F2FC000000000000034400000002000408FC000000080FFFF35C000000000000000000C000000130000002A1100003C00000006000000020000000000002000408FC000000000FF7F2FC000000000000024400000002000408FC000000000FF7F2FC000000000000034400C00000013000000321100003C000000
310
06000000020000000000002000408FC0000000E078342FC0000000001D9A25400000002000408FC0000000E078342FC000000080F13233400C000000130000003A1100003C00000006000000020000000000002000408FC000000000FF7F2FC000000000000034400000002000408FC000000000FF7F2FC00000000000003E
310
400C00000013000000421100003C00000006000000020000000000002000408FC0000000E078342FC0000000800ECD34400000002000408FC0000000E078342FC000000080F1323D400C000000130000004A1100003C00000006000000020000000000002000408FC000000000FF7F2FC00000000000003E40000000200040
310
8FC000000080FFFF35C000000000000000000C00000013000000521100003C00000006000000020000000000002000408FC0000000207D212CC000000080E97831400000002000408FC0000000207D212CC0000000002D0E29400C000000130000005A1100003C00000006000000020000000000002000408FC0000000A0B2
310
812CC000000000AC6F28400000002000408FC0000000A0B2812CC0000000802AC831400C00000013000000621100003C00000006000000020000000000002000408FC000000040B0132DC000000000F6FD27400000002000408FC000000040B0132DC000000000050132400C000000130000006A1100003C00000006000000
310
020000000000002000408FC000000000365C2EC000000080EB8032400000002000408FC000000000365C2EC00000000029FE26400C00000013000000721100003C00000006000000020000000000002000408FC000000000365C2EC000000080EB803C400000002000408FC000000000365C2EC000000080147F35400C0000
310
00130000007A1100003C00000006000000020000000000002000408FC000000040B0132DC00000000005013C400000002000408FC000000040B0132DC000000000FBFE35400C00000013000000821100003C00000006000000020000000000002000408FC0000000A0B2812CC000000080D53736400000002000408FC00000
310
00A0B2812CC0000000802AC83B400C000000130000008A1100003C00000006000000020000000000002000408FC0000000207D212CC000000080168736400000002000408FC0000000207D212CC000000080E9783B400C00000013000000921100003C00000006000000020000000000002000408FC000000000FF7F2FC000
310
00000000003E400000002000408FC000000000FF7F2FC000000000000044400C000000130000009A1100003C00000006000000020000000000002000408FC0000000E078342FC0000000800ECD3E400000002000408FC0000000E078342FC0000000C0789943400C00000013000000A21100003C0000000600000002000000
310
0000002000408FC000000000365C2EC000000080147F3F400000002000408FC000000000365C2EC0000000A0754043400C00000013000000AA1100003C00000006000000020000000000002000408FC000000040B0132DC000000000FBFE3F400000002000408FC000000040B0132DC000000060820043400C000000130000
310
00B21100003C00000006000000020000000000002000408FC0000000A0B2812CC0000000C0EA1B40400000002000408FC0000000A0B2812CC00000002015E442400C00000013000000BA1100003C00000006000000020000000000002000408FC0000000207D212CC0000000408B4340400000002000408FC0000000207D21
310
2CC0000000C074BC42400C00000013000000C21100003C00000006000000020000000000002000408FC000000080FFFF35C00000000000C059400000002000408FC000000000FF7F2FC000000000000044400C00000013000000CA1100003C00000006000000020000000000002000408FC000000080FFFF35C00000000000
310
C059400000002000408FC0000000E078342FC000000040876644400C00000013000000D21100003C00000006000000020000000000002000408FC000000080FFFF35C00000000000C059400000002000408FC000000000365C2EC0000000608ABF44400C00000013000000DA1100003C000000060000000200000000000020
310
00408FC000000080FFFF35C00000000000C059400000002000408FC000000040B0132DC0000000A07DFF44400C00000013000000E21100003C00000006000000020000000000002000408FC000000080FFFF35C00000000000C059400000002000408FC0000000A0B2812CC0000000E0EA1B45400C00000013000000EA1100
310
003C00000006000000020000000000002000408FC000000080FFFF35C00000000000C059400000002000408FC0000000207D212CC0000000408B4345400C00000013000000F21100003C00000006000000020000000000002000408FC000000000FFFF2BC00000008006B058400000002000408FC0000000C0C3D035C00000
310
0040D40C5A400C00000013000000FA1100003C00000006000000020000000000002000408FC000000060A84735C0000000E086525A400000002000408FC0000000A09BC52BC0000000806FE458400C00000013000000021200003C00000006000000020000000000002000408FC000000000C41A2BC000000040EB14594000
310
00002000408FC0000000C0EF7034C000000020CB8A5A400C000000130000000A1200003C00000006000000020000000000002000408FC000000000C41A2BC000000040EB1459400000002000408FC000000040E66033C0000000A04EB05A400C00000013000000121200003C00000006000000020000000000002000408FC0
310
000000C0D50C2AC000000080AE3D59400000002000408FC000000080C23032C0000000A0B5BF5A400C000000130000001A1200003C00000006000000020000000000002000408FC0000000C0D50C2AC000000080AE3D59400000002000408FC000000060240E32C000000080A9C35A400C00000013000000221200003C0000
310
0006000000020000000000002000408FC000000080FFFF31C0000000C07ECC5A400000002000408FC0000000C0D50C2AC000000080AE3D59400C000000130000002A1200003C00000006000000020000000000002000408FC000000020657723C00000000070FE59400000002000408FC000000080A8EB31C000000040EA7A
310
5B400C00000013000000321200003C00000006000000020000000000002000408FC000000000AD282EC0000000A015855B400000002000408FC0000000C0F03622C0000000A050175A400C000000130000003A1200003C00000006000000020000000000002000408FC000000000AD282EC0000000A015855B400000002000
310
408FC0000000602BC420C00000000000205A400C00000013000000421200003C00000006000000020000000000002000408FC000000000AD282EC0000000A015855B400000002000408FC000000000F0FFEFBF0000000000205A400C000000130000004A1200003C00000006000000020000000000002000408FC000000000
310
AD282EC0000000A015855B400000002000408FC000000020CD761BC00000000000005C400C00000013000000521200003C00000006000000020000000000002000408FC000000000AD282EC0000000A015855B400000002000408FC0000000E0FDFF1BC00000000000205C400C000000130000005A1200003C000000060000
310
00020000000000002000408FC0000000E0FDFF1BC00000000000405C400000002000408FC000000000FFFF2DC00000000040375C400C00000013000000621200003C00000006000000020000000000002000408FC000000000AD282EC0000000A015855B400000002000408FC0000000E0FDFF19C00000000093E85B400C00
310
0000130000006A1200003C00000006000000020000000000002000408FC000000000AD282EC0000000A015855B400000002000408FC0000000E0FDFF17C00000000000E05B400C00000013000000721200003C00000006000000020000000000002000408FC000000000AD282EC0000000A015855B400000002000408FC000
310
000000D825C1BF0000000000C05B400C000000130000007A1200003C00000006000000020000000000002000408FC000000000AD282EC0000000A015855B400000002000408FC000000000E0FFDFBF000000006DD75B400C00000013000000821200003C00000006000000020000000000002000408FC000000000AD282EC0
310
000000A015855B400000002000408FC0000000000000E03E00000060E7775B400C000000130000008A1200003C00000006000000020000000000002000408FC000000000AD282EC0000000A015855B400000002000408FC0000000000000E03E0000000000A05B400C00000013000000921200003C00000006000000020000
310
000000002000408FC000000000AD282EC0000000A015855B400000002000408FC000000000E0FFD7BF000000A0F1455B400C000000130000009A1200003C00000006000000020000000000002000408FC000000000AD282EC0000000A015855B400000002000408FC000000000203EB9BF00000000315C5B400C0000001300
310
0000A21200003C00000006000000020000000000002000408FC000000000AD282EC0000000A015855B400000002000408FC0000000009C62E8BF000000C0C8265B400C00000013000000AA1200003C00000006000000020000000000002000408FC000000000AD282EC0000000A015855B400000002000408FC000000000BC
310
CCECBF0000000000005B400C00000013000000B21200003C00000006000000020000000000002000408FC000000000AD282EC0000000A015855B400000002000408FC0000000009C62E8BF0000004037D95A400C00000013000000BA1200003C00000006000000020000000000002000408FC000000000AD282EC0000000A0
310
15855B400000002000408FC000000000E0FFD7BF000000600EBA5A400C00000013000000C21200003C00000006000000020000000000002000408FC000000000AD282EC0000000A015855B400000002000408FC0000000000000E03E000000A018885A400C00000013000000CA1200003C0000000600000002000000000000
310
2000408FC000000000AD282EC0000000A015855B400000002000408FC000000000203EB9BF00000000CFA35A400C00000013000000D21200003C00000006000000020000000000002000408FC000000000AD282EC0000000A015855B400000002000408FC000000000D825C1BF0000000000405A400C00000013000000DA12
310
00003C00000006000000020000000000002000408FC000000000AD282EC0000000A015855B400000002000408FC0000000000000E03E0000000000605A400C00000013000000E21200003C00000006000000020000000000002000408FC000000000AD282EC0000000A015855B400000002000408FC000000000E0FFDFBF00
310
00000093285A400C00000013000000EA1200003C00000006000000020000000000002000408FC000000060ADEF1CC000000060EDBA5C400000002000408FC000000040CC112EC000000000733E5C400C00000013000000F21200003C00000006000000020000000000002000408FC0000000C0D9402EC0000000A028435C40
310
0000002000408FC00000002014B01FC0000000A09C2E5D400C00000013000000FA1200003C00000006000000020000000000002000408FC0000000E0540C22C00000008065945D400000002000408FC000000020387E2FC00000006009545C400C00000013000000021300003C00000006000000020000000000002000408F
310
C0000000C02E7622C000000080B6AB5D400000002000408FC0000000E0C10B31C000000080FD7E5C400C000000130000000A1300003C00000006000000020000000000002000408FC0000000C02E7622C000000080B6AB5D400000002000408FC0000000E01BC032C00000004042CF5C400C00000013000000121300003C00
310
000006000000020000000000002000408FC0000000A05F8A22C0000000C05FC65D400000002000408FC0000000C028D733C000000040EB245D400C000000130000001A1300003C00000006000000020000000000002000408FC0000000A05F8A22C0000000C05FC65D400000002000408FC000000000B66734C0000000400B
310
7C5D400C00000013000000221300003C00000006000000020000000000002000408FC0000000A05F8A22C0000000C05FC65D400000002000408FC000000000148E34C0000000605FCC5D400C000000130000002A1300003C00000006000000020000000000002000408FC0000000A05F8A22C0000000C05FC65D4000000020
310
00408FC000000020A86534C000000060651A5E400C00000013000000321300003C00000006000000020000000000002000408FC0000000E08C4522C000000020BCDF5D400000002000408FC0000000C08CF933C0000000E08F655E400C000000130000003A1300003C00000006000000020000000000002000408FC0000000
310
E08C4522C000000020BCDF5D400000002000408FC0000000E0616633C00000004092A15E400C00000013000000421300003C00000006000000020000000000002000408FC0000000E08C4522C000000020BCDF5D400000002000408FC00000002091B332C000000000ABD35E400C000000130000004A1300003C0000000600
310
0000020000000000002000408FC0000000E08C4522C000000020BCDF5D400000002000408FC000000040E8E131C00000006005FF5E400C00000013000000521300003C00000006000000020000000000002000408FC0000000808BB321C0000000405FF35D400000002000408FC000000000D51831C00000008010205F400C
310
000000130000005A1300003C00000006000000020000000000002000408FC0000000808BB321C0000000405FF35D400000002000408FC0000000C04D4C30C0000000C09A3C5F400C00000013000000621300003C00000006000000020000000000002000408FC0000000808BB321C0000000405FF35D400000002000408FC0
310
000000203F0D2FC000000000C2555F400C000000130000006A1300003C00000006000000020000000000002000408FC0000000808BB321C0000000405FF35D400000002000408FC00000006065872DC0000000800C6E5F400C00000013000000721300003C00000006000000020000000000002000408FC0000000808BB321
310
C0000000405FF35D400000002000408FC0000000009BF32BC000000000AE885F400C000000130000007A1300003C00000006000000020000000000002000408FC0000000808BB321C0000000405FF35D400000002000408FC0000000402A6F2AC000000000FBA55F400C00000013000000821300003C000000060000000200
310
00000000002000408FC0000000808BB321C0000000405FF35D400000002000408FC000000080FAFC28C00000008091C65F400C000000130000008A1300003C00000006000000020000000000002000408FC000000000684ADBBF00000000E46C5F400000002000408FC0000000801A6127C0000000807CF15F400C00000013
310
000000921300003C00000006000000020000000000002000408FC00000000060ECBCBF000000A0C3835F400000002000408FC00000000081B525C0000000C0731360400C000000130000009A1300003C00000006000000020000000000002000408FC000000080720324C000000080273660400000002000408FC000000000
310
0000E03E0000000051A15F400C00000013000000A21300003C00000006000000020000000000002000408FC0000000C0266222C0000000C05D6260400000002000408FC0000000000000E03E00000080573460400C00000013000000AA1300003C00000006000000020000000000002000408FC0000000C0266222C0000000
310
C05D6260400000002000408FC000000000F0ABBFBF00000080C24360400C00000013000000B21300003C00000006000000020000000000002000408FC0000000C0266222C0000000C05D6260400000002000408FC000000000BCB6DDBF000000E05C4F60400C00000013000000BA1300003C00000006000000020000000000
310
002000408FC0000000C0266222C0000000C05D6260400000002000408FC000000000FA6FEFBF00000020545F60400C00000013000000C21300003C00000006000000020000000000002000408FC0000000C0266222C0000000C05D6260400000002000408FC0000000005038F4BF000000E07F7460400C00000013000000CA
310
1300003C00000006000000020000000000002000408FC00000008030C920C000000040D79C60400000002000408FC0000000005038F4BF00000020808B60400C00000013000000D21300003C00000006000000020000000000002000408FC000000080BA971EC000000060B9E760400000002000408FC000000000FA6FEFBF
310
000000E0ABA060400C00000013000000DA1300003C00000006000000020000000000002000408FC000000000BCB6DDBF00000020A3B060400000002000408FC00000008066C71CC000000040DC2161400C00000013000000E21300003C00000006000000020000000000002000408FC000000000F0ABBFBF000000803DBC60
310
400000002000408FC0000000609F201CC0000000E0DA3A61400C00000013000000EA1300003C00000006000000020000000000002000408FC000000000F0ABBFBF000000803DBC60400000002000408FC000000060A4D91BC0000000A08C3E61400C00000013000000F21300003C0000000600000002000000000000200040
310
8FC0000000000000E03E00000080A8CB60400000002000408FC000000080CC571BC00000000000406140
100
AcDbSubDMesh
 71
     2
 72
     0
 91
        0
 92
      294
 10
1000.0
 20
-22.00000762939453
 30
103.0
 10
1000.0
 20
-14.00000762939453
 30
98.75039672851563
 10
1000.0
 20
-14.00000762939453
 30
42.88314056396484
 10
1000.0
 20
-14.06542301177978
 30
42.5276870727539
 10
1000.0
 20
-13.88596820831299
 30
99.56930541992187
 10
1000.0
 20
-13.55229187011719
 30
100.3268585205078
 10
1000.0
 20
-13.02508354187011
 30
100.9637756347656
 10
1000.0
 20
-9.733208656311035
 30
103.9755859375
 10
1000.0
 20
-21.81550216674805
 30
104.200454711914
 10
1000.0
 20
-9.10732078552246
 30
104.3642959594726
 10
1000.0
 20
-21.27992820739746
 30
105.2894821166992
 10
1000.0
 20
-8.383158683776855
 30
104.5
 10
1000.0
 20
-1.000007629394531
 30
104.5
 10
1000.0
 20
-0.5000076293945313
 30
104.6339721679687
 10
1000.0
 20
-0.1339826583862305
 30
105.0
 10
1000.0
 20
-0.0000076293945313
 30
105.5
 10
1000.0
 20
-20.4411735534668
 30
106.1686477661132
 10
1000.0
 20
-0.0000076293945313
 30
106.1265029907226
 10
1000.0
 20
-0.0986194610595703
 30
106.5595092773437
 10
1000.0
 20
-19.3785285949707
 30
106.7547988891601
 10
1000.0
 20
-0.3750076293945312
 30
106.9071273803711
 10
1000.0
 20
-18.00000762939453
 30
107.1952362060547
 10
1000.0
 20
-0.7620525360107422
 30
107.3939971923828
 10
1000.0
 20
-18.05525779724121
 30
107.0572204589844
 10
1000.0
 20
-18.19048309326172
 30
106.9954605102539
 10
1000.0
 20
-17.92055511474609
 30
109.9205474853515
 10
1000.0
 20
-0.9000072479248046
 30
108.0
 10
1000.0
 20
-0.7620525360107422
 30
108.6060028076172
 10
1000.0
 20
-0.3750076293945312
 30
109.0928726196289
 10
1000.0
 20
-0.0986194610595703
 30
109.4404907226562
 10
1000.0
 20
-0.0000076293945313
 30
109.8734970092773
 10
1000.0
 20
-0.0000076293945313
 30
110.5
 10
1000.0
 20
-15.07946014404297
 30
110.0794448852539
 10
1000.0
 20
-6.000008106231689
 30
111.5
 10
1000.0
 20
-0.1339826583862305
 30
111.0
 10
1000.0
 20
-15.00000762939453
 30
112.86328125
 10
1000.0
 20
-0.5000076293945313
 30
111.3660278320312
 10
1000.0
 20
-1.000007629394531
 30
111.5
 10
1000.0
 20
-6.500008106231689
 30
111.6339721679687
 10
1000.0
 20
-6.86603307723999
 30
112.0
 10
1000.0
 20
-7.000008106231689
 30
112.5
 10
1000.0
 20
-15.03477668762207
 30
112.9757690429687
 10
1000.0
 20
-7.000008106231689
 30
113.0
 10
1000.0
 20
-18.75044059753418
 30
115.2384185791015
 10
1000.0
 20
-7.234076023101806
 30
114.9207382202148
 10
1000.0
 20
-17.04594230651855
 30
113.9842224121093
 10
1000.0
 20
-7.921967983245849
 30
116.7283096313476
 10
1000.0
 20
-19.84048080444336
 30
116.5768585205078
 10
1000.0
 20
-9.024100303649902
 30
118.3186950683593
 10
1000.0
 20
-20.40513610839844
 30
117.9381866455078
 10
1000.0
 20
-9.230840682983398
 30
118.6830139160156
 10
1000.0
 20
-9.270276069641113
 30
119.0995941162109
 10
1000.0
 20
-20.55500793457031
 30
119.1933212280273
 10
1000.0
 20
-9.135855674743652
 30
119.4958572387695
 10
1000.0
 20
-8.850688934326171
 30
119.8026885986328
 10
1000.0
 20
-0.4264316558837891
 30
125.701416015625
 10
1000.0
 20
-14.76446056365967
 30
125.7195129394531
 10
1000.0
 20
-15.52588748931885
 30
125.3399658203125
 10
1000.0
 20
-16.29807662963867
 30
124.9469451904297
 10
1000.0
 20
-17.09701538085937
 30
124.5010070800781
 10
1000.0
 20
-17.88246536254883
 30
123.9847030639648
 10
1000.0
 20
-18.70144844055175
 30
123.3073120117187
 10
1000.0
 20
-19.39994621276855
 30
122.5245513916015
 10
1000.0
 20
-19.97481918334961
 30
121.5869064331055
 10
1000.0
 20
-20.3971118927002
 30
120.4124374389648
 10
1000.0
 20
-13.9758071899414
 30
126.1356201171875
 10
1000.0
 20
-0.1129970550537109
 30
126.0588150024414
 10
1000.0
 20
-13.21713447570801
 30
126.5934448242187
 10
1000.0
 20
-0.0000076293945313
 30
126.5205688476562
 10
1000.0
 20
-0.0000076293945313
 30
129.6356811523437
 10
1000.0
 20
-10.00674819946289
 30
129.6923217773437
 10
1000.0
 20
-10.85451507568359
 30
128.6078796386719
 10
1000.0
 20
-11.68967056274414
 30
127.7732238769531
 10
1000.0
 20
-12.49411392211914
 30
127.1026306152343
 10
1000.0
 20
-0.1237325668334961
 30
130.1174926757812
 10
1000.0
 20
-0.4642934799194336
 30
130.4800872802734
 10
1000.0
 20
-0.9824342727661132
 30
130.979019165039
 10
1000.0
 20
-9.191717147827148
 30
131.0739440917968
 10
1000.0
 20
-1.263763427734375
 30
131.6406097412109
 10
1000.0
 20
-8.392963409423828
 30
132.9012756347656
 10
1000.0
 20
-1.263763427734375
 30
132.359390258789
 10
1000.0
 20
-0.9824342727661132
 30
133.0209808349609
 10
1000.0
 20
-0.4642934799194336
 30
133.5199127197265
 10
1000.0
 20
-0.1237325668334961
 30
133.8825073242187
 10
1000.0
 20
-7.648188591003417
 30
135.2413787841797
 10
1000.0
 20
-0.0000076293945313
 30
134.3643188476562
 10
1000.0
 20
-6.835757255554199
 30
138.0
 10
1000.0
 20
-0.0000076293945313
 30
138.0
 10
1000.0
 20
-6.962557315826416
 30
137.9546661376953
 10
1000.0
 20
-7.031874179840087
 30
137.8392181396484
 10
1000.0
 20
-7.194743156433105
 30
137.0581359863281
 10
1000.0
 20
-15.75000762939453
 30
10.0
 10
1000.0
 20
-22.00000762939453
 30
0.0
 10
1000.0
 20
-15.60249996185303
 30
10.8010025024414
 10
1000.0
 20
-15.18011474609375
 30
11.49640655517578
 10
1000.0
 20
-15.75000762939453
 30
20.0
 10
1000.0
 20
-15.60249996185303
 30
20.80100250244141
 10
1000.0
 20
-15.18011474609375
 30
21.49640655517578
 10
1000.0
 20
-15.75000762939453
 30
30.0
 10
1000.0
 20
-15.60249996185303
 30
30.80100250244141
 10
1000.0
 20
-15.18011474609375
 30
31.49640655517578
 10
1000.0
 20
-15.75000762939453
 30
40.0
 10
1000.0
 20
-15.60249996185303
 30
40.8010025024414
 10
1000.0
 20
-15.18011474609375
 30
41.49641036987304
 10
1000.0
 20
-14.53846931457519
 30
41.99602127075195
 10
1000.0
 20
-14.25333118438721
 30
42.21810531616211
 10
1000.0
 20
-14.20000743865967
 30
0.0
 10
1000.0
 20
-14.06576347351074
 30
0.0657577514648438
 10
1000.0
 20
-14.00000762939453
 30
0.1999969482421875
 10
1000.0
 20
-15.18011474609375
 30
8.503593444824218
 10
1000.0
 20
-14.00000762939453
 30
7.116859436035156
 10
1000.0
 20
-15.60249996185303
 30
9.198997497558593
 10
1000.0
 20
-14.06542301177978
 30
7.472312927246093
 10
1000.0
 20
-14.53846931457519
 30
8.003982543945312
 10
1000.0
 20
-14.25333118438721
 30
7.781890869140625
 10
1000.0
 20
-14.53846931457519
 30
11.99601745605469
 10
1000.0
 20
-15.60249996185303
 30
19.19899749755859
 10
1000.0
 20
-14.25333118438721
 30
12.21810913085937
 10
1000.0
 20
-14.06542301177978
 30
12.52768707275391
 10
1000.0
 20
-14.00000762939453
 30
12.88314056396484
 10
1000.0
 20
-15.18011474609375
 30
18.50359344482422
 10
1000.0
 20
-14.00000762939453
 30
17.11685943603515
 10
1000.0
 20
-14.06542301177978
 30
17.47231292724609
 10
1000.0
 20
-14.53846931457519
 30
18.00398254394531
 10
1000.0
 20
-14.25333118438721
 30
17.78189849853515
 10
1000.0
 20
-14.53846931457519
 30
21.99601745605469
 10
1000.0
 20
-15.60249996185303
 30
29.1989974975586
 10
1000.0
 20
-14.25333118438721
 30
22.21810150146485
 10
1000.0
 20
-14.06542301177978
 30
22.52768707275391
 10
1000.0
 20
-14.00000762939453
 30
22.88314056396484
 10
1000.0
 20
-15.18011474609375
 30
28.50359344482422
 10
1000.0
 20
-14.00000762939453
 30
27.11685943603516
 10
1000.0
 20
-14.06542301177978
 30
27.4723129272461
 10
1000.0
 20
-14.53846931457519
 30
28.00398254394531
 10
1000.0
 20
-14.25333118438721
 30
27.78189849853516
 10
1000.0
 20
-14.53846931457519
 30
31.99601745605469
 10
1000.0
 20
-15.60249996185303
 30
39.1989974975586
 10
1000.0
 20
-14.25333118438721
 30
32.21810150146485
 10
1000.0
 20
-14.06542301177978
 30
32.52768707275391
 10
1000.0
 20
-14.00000762939453
 30
32.88314056396484
 10
1000.0
 20
-15.18011474609375
 30
38.50358963012695
 10
1000.0
 20
-14.00000762939453
 30
37.11685943603516
 10
1000.0
 20
-14.06542301177978
 30
37.4723129272461
 10
1000.0
 20
-14.53846931457519
 30
38.00397872924805
 10
1000.0
 20
-14.25333118438721
 30
37.78189468383789
 10
1000.0
 20
-15.74653720855713
 30
113.3130722045898
 10
1000.0
 20
-15.12667655944824
 30
113.0493545532226
 10
-1000.000061035156
 20
-13.99999237060547
 30
98.75039672851563
 10
-1000.000061035156
 20
-21.99999237060547
 30
103.0
 10
-1000.000061035156
 20
-13.99999237060547
 30
42.88314056396484
 10
-1000.000061035156
 20
-14.06574821472168
 30
0.0657577514648438
 10
-1000.000061035156
 20
-13.99999237060547
 30
0.1999969482421875
 10
-1000.000061035156
 20
-14.53845405578613
 30
8.003982543945312
 10
-1000.000061035156
 20
-15.18009948730469
 30
8.503593444824218
 10
-1000.000061035156
 20
-15.74999237060547
 30
10.0
 10
-1000.000061035156
 20
-15.74999237060547
 30
20.0
 10
-1000.000061035156
 20
-15.74999237060547
 30
30.0
 10
-1000.000061035156
 20
-13.99999237060547
 30
12.88314056396484
 10
-1000.000061035156
 20
-13.99999237060547
 30
17.11685943603515
 10
-1000.000061035156
 20
-14.06540775299072
 30
17.47231292724609
 10
-1000.000061035156
 20
-14.25331592559814
 30
12.21810913085937
 10
-1000.000061035156
 20
-14.25331592559814
 30
17.78189849853515
 10
-1000.000061035156
 20
-14.53845405578613
 30
11.99601745605469
 10
-1000.000061035156
 20
-15.18009948730469
 30
18.50359344482422
 10
-1000.000061035156
 20
-15.18009948730469
 30
28.50359344482422
 10
-1000.000061035156
 20
-14.53845405578613
 30
28.00398254394531
 10
-1000.000061035156
 20
-14.25331592559814
 30
22.21810150146485
 10
-1000.000061035156
 20
-14.25331592559814
 30
27.78189849853516
 10
-1000.000061035156
 20
-14.06540775299072
 30
22.52768707275391
 10
-1000.000061035156
 20
-13.99999237060547
 30
22.88314056396484
 10
-1000.000061035156
 20
-15.60248470306396
 30
30.80100250244141
 10
-1000.000061035156
 20
-15.60248470306396
 30
39.1989974975586
 10
-1000.000061035156
 20
-15.74999237060547
 30
40.0
 10
-1000.000061035156
 20
-14.53845405578613
 30
31.99601745605469
 10
-1000.000061035156
 20
-14.25331592559814
 30
32.21810150146485
 10
-1000.000061035156
 20
-14.06540775299072
 30
32.52768707275391
 10
-1000.000061035156
 20
-14.06540775299072
 30
37.4723129272461
 10
-1000.000061035156
 20
-14.53845405578613
 30
41.99602127075195
 10
-1000.000061035156
 20
-14.25331592559814
 30
42.21810531616211
 10
-1000.000061035156
 20
-14.06540775299072
 30
42.5276870727539
 10
-1000.000061035156
 20
-21.2799129486084
 30
105.2894821166992
 10
-1000.000061035156
 20
-21.81548690795898
 30
104.200454711914
 10
-1000.000061035156
 20
-13.55227661132812
 30
100.3268585205078
 10
-1000.000061035156
 20
-20.44115829467774
 30
106.1686477661132
 10
-1000.000061035156
 20
-19.37851333618164
 30
106.7547988891601
 10
-1000.000061035156
 20
-17.99999237060547
 30
107.1952362060547
 10
-1000.000061035156
 20
-15.0794448852539
 30
110.0794448852539
 10
-1000.000061035156
 20
-8.383143424987792
 30
104.5
 10
-1000.000061035156
 20
-6.99999189376831
 30
113.0
 10
-1000.000061035156
 20
-6.49999189376831
 30
111.6339721679687
 10
-1000.000061035156
 20
-0.133967399597168
 30
111.0
 10
-1000.000061035156
 20
-0.4999923706054688
 30
111.3660278320312
 10
-1000.000061035156
 20
0.0000076293945313
 30
110.5
 10
-1000.000061035156
 20
-0.8999919891357421
 30
108.0
 10
-1000.000061035156
 20
-0.7620372772216797
 30
107.3939971923828
 10
-1000.000061035156
 20
0.0000076293945313
 30
106.1265029907226
 10
-1000.000061035156
 20
-0.133967399597168
 30
105.0
 10
-1000.000061035156
 20
0.0000076293945313
 30
105.5
 10
-1000.000061035156
 20
-7.234059810638427
 30
114.9207382202148
 10
-1000.000061035156
 20
-15.12666130065918
 30
113.0493545532226
 10
-1000.000061035156
 20
-9.024085044860839
 30
118.3186950683593
 10
-1000.000061035156
 20
-9.230825424194335
 30
118.6830139160156
 10
-1000.000061035156
 20
-18.75042533874512
 30
115.2384185791015
 10
-1000.000061035156
 20
-9.27026081085205
 30
119.0995941162109
 10
-1000.000061035156
 20
-19.8404655456543
 30
116.5768585205078
 10
-1000.000061035156
 20
-20.55499267578125
 30
119.1933212280273
 10
-1000.000061035156
 20
-20.40512084960937
 30
117.9381866455078
 10
-1000.000061035156
 20
-9.135840415954589
 30
119.4958572387695
 10
-1000.000061035156
 20
-19.97480392456054
 30
121.5869064331055
 10
-1000.000061035156
 20
-19.39993095397949
 30
122.5245513916015
 10
-1000.000061035156
 20
-8.850673675537109
 30
119.8026885986328
 10
-1000.000061035156
 20
-17.09700012207031
 30
124.5010070800781
 10
-1000.000061035156
 20
-12.49409866333008
 30
127.1026306152343
 10
-1000.000061035156
 20
-13.21711921691894
 30
126.5934448242187
 10
-1000.000061035156
 20
-0.4264163970947266
 30
125.701416015625
 10
-1000.000061035156
 20
-10.00673294067383
 30
129.6923217773437
 10
-1000.000061035156
 20
-9.191701889038085
 30
131.0739440917968
 10
-1000.000061035156
 20
-0.1237173080444336
 30
130.1174926757812
 10
-1000.000061035156
 20
-1.263748168945312
 30
131.6406097412109
 10
-1000.000061035156
 20
-8.392948150634765
 30
132.9012756347656
 10
-1000.000061035156
 20
-7.648172378540039
 30
135.2413787841797
 10
-1000.000061035156
 20
-0.4642782211303711
 30
133.5199127197265
 10
-1000.000061035156
 20
-0.1237173080444336
 30
133.8825073242187
 10
-1000.000061035156
 20
0.0000076293945313
 30
134.3643188476562
 10
-1000.000061035156
 20
-6.83574104309082
 30
138.0
 10
-1000.000061035156
 20
-13.99999237060547
 30
7.116859436035156
 10
-1000.000061035156
 20
-14.06540775299072
 30
7.472312927246093
 10
-1000.000061035156
 20
-14.1999921798706
 30
0.0
 10
-1000.000061035156
 20
-14.25331592559814
 30
7.781890869140625
 10
-1000.000061035156
 20
-21.99999237060547
 30
0.0
 10
-1000.000061035156
 20
-15.60248470306396
 30
9.198997497558593
 10
-1000.000061035156
 20
-15.60248470306396
 30
10.8010025024414
 10
-1000.000061035156
 20
-15.60248470306396
 30
19.19899749755859
 10
-1000.000061035156
 20
-15.60248470306396
 30
20.80100250244141
 10
-1000.000061035156
 20
-15.60248470306396
 30
29.1989974975586
 10
-1000.000061035156
 20
-14.06540775299072
 30
12.52768707275391
 10
-1000.000061035156
 20
-14.53845405578613
 30
18.00398254394531
 10
-1000.000061035156
 20
-15.18009948730469
 30
11.49640655517578
 10
-1000.000061035156
 20
-15.18009948730469
 30
21.49640655517578
 10
-1000.000061035156
 20
-14.53845405578613
 30
21.99601745605469
 10
-1000.000061035156
 20
-14.06540775299072
 30
27.4723129272461
 10
-1000.000061035156
 20
-13.99999237060547
 30
27.11685943603516
 10
-1000.000061035156
 20
-15.18009948730469
 30
31.49640655517578
 10
-1000.000061035156
 20
-15.18009948730469
 30
38.50358963012695
 10
-1000.000061035156
 20
-14.53845405578613
 30
38.00397872924805
 10
-1000.000061035156
 20
-14.25331592559814
 30
37.78189468383789
 10
-1000.000061035156
 20
-13.99999237060547
 30
32.88314056396484
 10
-1000.000061035156
 20
-13.99999237060547
 30
37.11685943603516
 10
-1000.000061035156
 20
-15.60248470306396
 30
40.8010025024414
 10
-1000.000061035156
 20
-15.18009948730469
 30
41.49641036987304
 10
-1000.000061035156
 20
-13.88595294952392
 30
99.56930541992187
 10
-1000.000061035156
 20
-13.02506828308105
 30
100.9637756347656
 10
-1000.000061035156
 20
-18.19046783447265
 30
106.9954605102539
 10
-1000.000061035156
 20
-18.05524253845215
 30
107.0572204589844
 10
-1000.000061035156
 20
-9.733193397521972
 30
103.9755859375
 10
-1000.000061035156
 20
-17.92053985595703
 30
109.9205474853515
 10
-1000.000061035156
 20
-9.107305526733398
 30
104.3642959594726
 10
-1000.000061035156
 20
-0.9999923706054687
 30
104.5
 10
-1000.000061035156
 20
-6.866016864776611
 30
112.0
 10
-1000.000061035156
 20
-6.99999189376831
 30
112.5
 10
-1000.000061035156
 20
-14.99999237060547
 30
112.86328125
 10
-1000.000061035156
 20
-5.99999189376831
 30
111.5
 10
-1000.000061035156
 20
-0.9999923706054687
 30
111.5
 10
-1000.000061035156
 20
0.0000076293945313
 30
109.8734970092773
 10
-1000.000061035156
 20
-0.3749923706054687
 30
109.0928726196289
 10
-1000.000061035156
 20
-0.0986042022705078
 30
109.4404907226562
 10
-1000.000061035156
 20
-0.7620372772216797
 30
108.6060028076172
 10
-1000.000061035156
 20
-0.3749923706054687
 30
106.9071273803711
 10
-1000.000061035156
 20
-0.0986042022705078
 30
106.5595092773437
 10
-1000.000061035156
 20
-0.4999923706054688
 30
104.6339721679687
 10
-1000.000061035156
 20
-15.034761428833
 30
112.9757690429687
 10
-1000.000061035156
 20
-7.92195177078247
 30
116.7283096313476
 10
-1000.000061035156
 20
-15.74652194976806
 30
113.3130722045898
 10
-1000.000061035156
 20
-17.04592704772949
 30
113.9842224121093
 10
-1000.000061035156
 20
-20.39709663391113
 30
120.4124374389648
 10
-1000.000061035156
 20
-18.70143318176269
 30
123.3073120117187
 10
-1000.000061035156
 20
-17.88245010375976
 30
123.9847030639648
 10
-1000.000061035156
 20
-15.52587223052978
 30
125.3399658203125
 10
-1000.000061035156
 20
-16.29806137084961
 30
124.9469451904297
 10
-1000.000061035156
 20
-13.97579193115234
 30
126.1356201171875
 10
-1000.000061035156
 20
-14.7644453048706
 30
125.7195129394531
 10
-1000.000061035156
 20
-11.68965530395507
 30
127.7732238769531
 10
-1000.000061035156
 20
-0.1129817962646484
 30
126.0588150024414
 10
-1000.000061035156
 20
-10.85449981689453
 30
128.6078796386719
 10
-1000.000061035156
 20
0.0000076293945313
 30
126.5205688476562
 10
-1000.000061035156
 20
0.0000076293945313
 30
129.6356811523437
 10
-1000.000061035156
 20
-0.4642782211303711
 30
130.4800872802734
 10
-1000.000061035156
 20
-0.9824190139770507
 30
130.979019165039
 10
-1000.000061035156
 20
-1.263748168945312
 30
132.359390258789
 10
-1000.000061035156
 20
-0.9824190139770507
 30
133.0209808349609
 10
-1000.000061035156
 20
-7.194726943969726
 30
137.0581359863281
 10
-1000.000061035156
 20
-7.031857967376708
 30
137.8392181396484
 10
-1000.000061035156
 20
-6.962541103363037
 30
137.9546661376953
 10
-1000.000061035156
 20
0.0000076293945313
 30
138.0
 93
     1625
 90
        3
 90
        1
 90
        0
 90
        2
 90
        4
 90
      107
 90
      108
 90
      110
 90
      112
 90
        4
 90
      106
 90
      107
 90
      112
 90
      114
 90
        4
 90
       92
 90
      106
 90
      114
 90
      113
 90
        3
 90
       92
 90
      113
 90
      109
 90
        3
 90
       92
 90
      109
 90
      111
 90
        3
 90
       92
 90
      111
 90
       91
 90
        3
 90
       92
 90
       91
 90
       95
 90
        4
 90
       91
 90
       93
 90
      116
 90
       95
 90
        4
 90
       95
 90
       96
 90
      126
 90
       98
 90
        3
 90
       92
 90
       95
 90
       98
 90
        4
 90
      118
 90
      119
 90
      121
 90
      122
 90
        4
 90
      117
 90
      118
 90
      122
 90
      124
 90
        4
 90
      115
 90
      117
 90
      124
 90
      123
 90
        4
 90
       94
 90
      115
 90
      123
 90
      120
 90
        4
 90
       93
 90
       94
 90
      120
 90
      116
 90
        4
 90
       96
 90
       97
 90
      130
 90
      126
 90
        4
 90
       97
 90
      125
 90
      133
 90
      130
 90
        4
 90
      125
 90
      127
 90
      134
 90
      133
 90
        4
 90
      127
 90
      128
 90
      132
 90
      134
 90
        4
 90
      128
 90
      129
 90
      131
 90
      132
 90
        4
 90
       98
 90
       99
 90
      136
 90
      101
 90
        4
 90
       99
 90
      100
 90
      140
 90
      136
 90
        4
 90
      100
 90
      135
 90
      143
 90
      140
 90
        4
 90
      135
 90
      137
 90
      144
 90
      143
 90
        4
 90
      137
 90
      138
 90
      142
 90
      144
 90
        4
 90
      138
 90
      139
 90
      141
 90
      142
 90
        4
 90
        0
 90
       92
 90
       98
 90
      101
 90
        3
 90
        0
 90
      101
 90
      102
 90
        3
 90
        0
 90
      102
 90
      103
 90
        3
 90
        0
 90
      103
 90
      104
 90
        3
 90
        0
 90
      104
 90
      105
 90
        3
 90
        0
 90
      105
 90
        3
 90
        3
 90
        0
 90
        3
 90
        2
 90
        4
 90
        1
 90
        4
 90
       10
 90
        8
 90
        3
 90
        1
 90
        8
 90
        0
 90
        4
 90
        4
 90
        5
 90
       16
 90
       10
 90
        3
 90
        5
 90
       19
 90
       16
 90
        4
 90
        5
 90
        6
 90
       24
 90
       19
 90
        3
 90
        6
 90
       21
 90
       23
 90
        3
 90
        6
 90
       23
 90
       24
 90
        4
 90
        6
 90
        7
 90
       25
 90
       21
 90
        4
 90
        7
 90
        9
 90
       32
 90
       25
 90
        3
 90
        9
 90
       11
 90
       32
 90
        3
 90
       11
 90
       12
 90
       32
 90
        3
 90
       39
 90
       40
 90
       32
 90
        4
 90
       40
 90
       42
 90
       35
 90
       32
 90
        3
 90
       38
 90
       39
 90
       32
 90
        3
 90
       32
 90
       33
 90
       38
 90
        3
 90
       34
 90
       36
 90
       32
 90
        4
 90
       36
 90
       37
 90
       33
 90
       32
 90
        3
 90
       30
 90
       31
 90
       32
 90
        3
 90
       31
 90
       34
 90
       32
 90
        3
 90
       28
 90
       29
 90
       32
 90
        3
 90
       29
 90
       30
 90
       32
 90
        3
 90
       27
 90
       28
 90
       32
 90
        3
 90
       32
 90
       26
 90
       27
 90
        3
 90
       22
 90
       26
 90
       32
 90
        3
 90
       32
 90
       20
 90
       22
 90
        3
 90
       17
 90
       18
 90
       32
 90
        3
 90
       18
 90
       20
 90
       32
 90
        3
 90
       14
 90
       15
 90
       32
 90
        3
 90
       15
 90
       17
 90
       32
 90
        3
 90
       12
 90
       13
 90
       32
 90
        3
 90
       13
 90
       14
 90
       32
 90
        4
 90
       42
 90
       44
 90
       41
 90
       35
 90
        4
 90
       44
 90
       46
 90
      146
 90
       41
 90
        4
 90
       46
 90
       48
 90
      145
 90
      146
 90
        4
 90
       48
 90
       50
 90
       45
 90
      145
 90
        3
 90
       50
 90
       43
 90
       45
 90
        4
 90
       50
 90
       51
 90
       47
 90
       43
 90
        3
 90
       51
 90
       52
 90
       49
 90
        3
 90
       51
 90
       49
 90
       47
 90
        4
 90
       51
 90
       53
 90
       63
 90
       64
 90
        3
 90
       51
 90
       64
 90
       52
 90
        3
 90
       53
 90
       61
 90
       62
 90
        3
 90
       53
 90
       62
 90
       63
 90
        4
 90
       53
 90
       54
 90
       59
 90
       60
 90
        3
 90
       53
 90
       60
 90
       61
 90
        3
 90
       54
 90
       57
 90
       58
 90
        3
 90
       54
 90
       58
 90
       59
 90
        3
 90
       54
 90
       65
 90
       56
 90
        3
 90
       54
 90
       56
 90
       57
 90
        3
 90
       54
 90
       73
 90
       67
 90
        3
 90
       54
 90
       67
 90
       65
 90
        4
 90
       54
 90
       55
 90
       72
 90
       73
 90
        4
 90
       55
 90
       66
 90
       71
 90
       72
 90
        4
 90
       66
 90
       68
 90
       70
 90
       71
 90
        4
 90
       68
 90
       69
 90
       77
 90
       70
 90
        3
 90
       69
 90
       74
 90
       77
 90
        3
 90
       74
 90
       75
 90
       77
 90
        3
 90
       75
 90
       76
 90
       77
 90
        3
 90
       76
 90
       78
 90
       77
 90
        4
 90
       78
 90
       80
 90
       79
 90
       77
 90
        4
 90
       80
 90
       81
 90
       84
 90
       79
 90
        4
 90
       81
 90
       82
 90
       90
 90
       84
 90
        4
 90
       82
 90
       83
 90
       89
 90
       90
 90
        4
 90
       83
 90
       85
 90
       86
 90
       88
 90
        3
 90
       83
 90
       88
 90
       89
 90
        3
 90
       85
 90
       87
 90
       86
 90
        4
 90
      106
 90
       92
 90
      229
 90
      227
 90
        4
 90
       92
 90
        0
 90
      148
 90
      229
 90
        4
 90
        0
 90
        8
 90
      181
 90
      148
 90
        4
 90
        8
 90
       10
 90
      180
 90
      181
 90
        4
 90
       10
 90
       16
 90
      183
 90
      180
 90
        4
 90
       16
 90
       19
 90
      184
 90
      183
 90
        4
 90
       19
 90
       24
 90
      252
 90
      184
 90
        4
 90
       24
 90
       23
 90
      253
 90
      252
 90
        4
 90
       23
 90
       21
 90
      185
 90
      253
 90
        4
 90
       21
 90
       25
 90
      255
 90
      185
 90
        4
 90
       25
 90
       32
 90
      186
 90
      255
 90
        4
 90
       32
 90
       35
 90
      260
 90
      186
 90
        4
 90
       35
 90
       41
 90
      270
 90
      260
 90
        4
 90
       41
 90
      146
 90
      199
 90
      270
 90
        4
 90
      146
 90
      145
 90
      272
 90
      199
 90
        4
 90
      145
 90
       45
 90
      273
 90
      272
 90
        4
 90
       45
 90
       43
 90
      202
 90
      273
 90
        4
 90
       43
 90
       47
 90
      204
 90
      202
 90
        4
 90
       47
 90
       49
 90
      206
 90
      204
 90
        4
 90
       49
 90
       52
 90
      205
 90
      206
 90
        4
 90
       52
 90
       64
 90
      274
 90
      205
 90
        4
 90
       64
 90
       63
 90
      208
 90
      274
 90
        4
 90
       63
 90
       62
 90
      209
 90
      208
 90
        4
 90
       62
 90
       61
 90
      275
 90
      209
 90
        4
 90
       61
 90
       60
 90
      276
 90
      275
 90
        4
 90
       60
 90
       59
 90
      211
 90
      276
 90
        4
 90
       59
 90
       58
 90
      278
 90
      211
 90
        4
 90
       58
 90
       57
 90
      277
 90
      278
 90
        4
 90
       57
 90
       56
 90
      280
 90
      277
 90
        4
 90
       56
 90
       65
 90
      279
 90
      280
 90
        4
 90
       65
 90
       67
 90
      213
 90
      279
 90
        4
 90
       67
 90
       73
 90
      212
 90
      213
 90
        4
 90
       73
 90
       72
 90
      281
 90
      212
 90
        4
 90
       72
 90
       71
 90
      283
 90
      281
 90
        4
 90
       71
 90
       70
 90
      215
 90
      283
 90
        4
 90
       70
 90
       77
 90
      216
 90
      215
 90
        4
 90
       77
 90
       79
 90
      219
 90
      216
 90
        4
 90
       79
 90
       84
 90
      220
 90
      219
 90
        4
 90
       84
 90
       90
 90
      290
 90
      220
 90
        4
 90
       90
 90
       89
 90
      291
 90
      290
 90
        4
 90
       89
 90
       88
 90
      292
 90
      291
 90
        4
 90
       88
 90
       86
 90
      224
 90
      292
 90
        4
 90
       86
 90
       87
 90
      293
 90
      224
 90
        4
 90
       87
 90
       85
 90
      223
 90
      293
 90
        4
 90
       85
 90
       83
 90
      222
 90
      223
 90
        4
 90
       83
 90
       82
 90
      221
 90
      222
 90
        4
 90
       82
 90
       81
 90
      289
 90
      221
 90
        4
 90
       81
 90
       80
 90
      288
 90
      289
 90
        4
 90
       80
 90
       78
 90
      218
 90
      288
 90
        4
 90
       78
 90
       76
 90
      287
 90
      218
 90
        4
 90
       76
 90
       75
 90
      286
 90
      287
 90
        4
 90
       75
 90
       74
 90
      217
 90
      286
 90
        4
 90
       74
 90
       69
 90
      285
 90
      217
 90
        4
 90
       69
 90
       68
 90
      284
 90
      285
 90
        4
 90
       68
 90
       66
 90
      282
 90
      284
 90
        4
 90
       66
 90
       55
 90
      214
 90
      282
 90
        4
 90
       55
 90
       54
 90
      210
 90
      214
 90
        4
 90
       54
 90
       53
 90
      207
 90
      210
 90
        4
 90
       53
 90
       51
 90
      203
 90
      207
 90
        4
 90
       51
 90
       50
 90
      201
 90
      203
 90
        4
 90
       50
 90
       48
 90
      200
 90
      201
 90
        4
 90
       48
 90
       46
 90
      271
 90
      200
 90
        4
 90
       46
 90
       44
 90
      198
 90
      271
 90
        4
 90
       44
 90
       42
 90
      188
 90
      198
 90
        4
 90
       42
 90
       40
 90
      259
 90
      188
 90
        4
 90
       40
 90
       39
 90
      258
 90
      259
 90
        4
 90
       39
 90
       38
 90
      189
 90
      258
 90
        4
 90
       38
 90
       33
 90
      261
 90
      189
 90
        4
 90
       33
 90
       37
 90
      262
 90
      261
 90
        4
 90
       37
 90
       36
 90
      191
 90
      262
 90
        4
 90
       36
 90
       34
 90
      190
 90
      191
 90
        4
 90
       34
 90
       31
 90
      192
 90
      190
 90
        4
 90
       31
 90
       30
 90
      263
 90
      192
 90
        4
 90
       30
 90
       29
 90
      265
 90
      263
 90
        4
 90
       29
 90
       28
 90
      264
 90
      265
 90
        4
 90
       28
 90
       27
 90
      266
 90
      264
 90
        4
 90
       27
 90
       26
 90
      193
 90
      266
 90
        4
 90
       26
 90
       22
 90
      194
 90
      193
 90
        4
 90
       22
 90
       20
 90
      267
 90
      194
 90
        4
 90
       20
 90
       18
 90
      268
 90
      267
 90
        4
 90
       18
 90
       17
 90
      195
 90
      268
 90
        4
 90
       17
 90
       15
 90
      197
 90
      195
 90
        4
 90
       15
 90
       14
 90
      196
 90
      197
 90
        4
 90
       14
 90
       13
 90
      269
 90
      196
 90
        4
 90
       13
 90
       12
 90
      257
 90
      269
 90
        4
 90
       12
 90
       11
 90
      187
 90
      257
 90
        4
 90
       11
 90
        9
 90
      256
 90
      187
 90
        4
 90
        9
 90
        7
 90
      254
 90
      256
 90
        4
 90
        7
 90
        6
 90
      251
 90
      254
 90
        4
 90
        6
 90
        5
 90
      182
 90
      251
 90
        4
 90
        5
 90
        4
 90
      250
 90
      182
 90
        4
 90
        4
 90
        1
 90
      147
 90
      250
 90
        4
 90
        1
 90
        2
 90
      149
 90
      147
 90
        4
 90
        2
 90
        3
 90
      179
 90
      149
 90
        4
 90
        3
 90
      105
 90
      178
 90
      179
 90
        4
 90
      105
 90
      104
 90
      177
 90
      178
 90
        4
 90
      104
 90
      103
 90
      249
 90
      177
 90
        4
 90
      103
 90
      102
 90
      248
 90
      249
 90
        4
 90
      102
 90
      101
 90
      172
 90
      248
 90
        4
 90
      101
 90
      136
 90
      171
 90
      172
 90
        4
 90
      136
 90
      140
 90
      243
 90
      171
 90
        4
 90
      140
 90
      143
 90
      244
 90
      243
 90
        4
 90
      143
 90
      144
 90
      245
 90
      244
 90
        4
 90
      144
 90
      142
 90
      176
 90
      245
 90
        4
 90
      142
 90
      141
 90
      247
 90
      176
 90
        4
 90
      141
 90
      139
 90
      246
 90
      247
 90
        4
 90
      139
 90
      138
 90
      175
 90
      246
 90
        4
 90
      138
 90
      137
 90
      174
 90
      175
 90
        4
 90
      137
 90
      135
 90
      173
 90
      174
 90
        4
 90
      135
 90
      100
 90
      242
 90
      173
 90
        4
 90
      100
 90
       99
 90
      170
 90
      242
 90
        4
 90
       99
 90
       98
 90
      156
 90
      170
 90
        4
 90
       98
 90
      126
 90
      234
 90
      156
 90
        4
 90
      126
 90
      130
 90
      164
 90
      234
 90
        4
 90
      130
 90
      133
 90
      165
 90
      164
 90
        4
 90
      133
 90
      134
 90
      167
 90
      165
 90
        4
 90
      134
 90
      132
 90
      240
 90
      167
 90
        4
 90
      132
 90
      131
 90
      241
 90
      240
 90
        4
 90
      131
 90
      129
 90
      169
 90
      241
 90
        4
 90
      129
 90
      128
 90
      168
 90
      169
 90
        4
 90
      128
 90
      127
 90
      166
 90
      168
 90
        4
 90
      127
 90
      125
 90
      239
 90
      166
 90
        4
 90
      125
 90
       97
 90
      238
 90
      239
 90
        4
 90
       97
 90
       96
 90
      233
 90
      238
 90
        4
 90
       96
 90
       95
 90
      155
 90
      233
 90
        4
 90
       95
 90
      116
 90
      232
 90
      155
 90
        4
 90
      116
 90
      120
 90
      163
 90
      232
 90
        4
 90
      120
 90
      123
 90
      236
 90
      163
 90
        4
 90
      123
 90
      124
 90
      161
 90
      236
 90
        4
 90
      124
 90
      122
 90
      159
 90
      161
 90
        4
 90
      122
 90
      121
 90
      158
 90
      159
 90
        4
 90
      121
 90
      119
 90
      157
 90
      158
 90
        4
 90
      119
 90
      118
 90
      235
 90
      157
 90
        4
 90
      118
 90
      117
 90
      160
 90
      235
 90
        4
 90
      117
 90
      115
 90
      162
 90
      160
 90
        4
 90
      115
 90
       94
 90
      237
 90
      162
 90
        4
 90
       94
 90
       93
 90
      231
 90
      237
 90
        4
 90
       93
 90
       91
 90
      154
 90
      231
 90
        4
 90
       91
 90
      111
 90
      230
 90
      154
 90
        4
 90
      111
 90
      109
 90
      153
 90
      230
 90
        4
 90
      109
 90
      113
 90
      152
 90
      153
 90
        4
 90
      113
 90
      114
 90
      228
 90
      152
 90
        4
 90
      114
 90
      112
 90
      226
 90
      228
 90
        4
 90
      112
 90
      110
 90
      225
 90
      226
 90
        4
 90
      110
 90
      108
 90
      151
 90
      225
 90
        4
 90
      108
 90
      107
 90
      150
 90
      151
 90
        4
 90
      107
 90
      106
 90
      227
 90
      150
 90
        3
 90
      147
 90
      149
 90
      148
 90
        4
 90
      150
 90
      226
 90
      225
 90
      151
 90
        4
 90
      227
 90
      228
 90
      226
 90
      150
 90
        4
 90
      229
 90
      152
 90
      228
 90
      227
 90
        3
 90
      229
 90
      153
 90
      152
 90
        3
 90
      229
 90
      230
 90
      153
 90
        3
 90
      229
 90
      154
 90
      230
 90
        3
 90
      229
 90
      155
 90
      154
 90
        4
 90
      154
 90
      155
 90
      232
 90
      231
 90
        4
 90
      155
 90
      156
 90
      234
 90
      233
 90
        3
 90
      229
 90
      156
 90
      155
 90
        4
 90
      235
 90
      159
 90
      158
 90
      157
 90
        4
 90
      160
 90
      161
 90
      159
 90
      235
 90
        4
 90
      162
 90
      236
 90
      161
 90
      160
 90
        4
 90
      237
 90
      163
 90
      236
 90
      162
 90
        4
 90
      231
 90
      232
 90
      163
 90
      237
 90
        4
 90
      233
 90
      234
 90
      164
 90
      238
 90
        4
 90
      238
 90
      164
 90
      165
 90
      239
 90
        4
 90
      239
 90
      165
 90
      167
 90
      166
 90
        4
 90
      166
 90
      167
 90
      240
 90
      168
 90
        4
 90
      168
 90
      240
 90
      241
 90
      169
 90
        4
 90
      156
 90
      172
 90
      171
 90
      170
 90
        4
 90
      170
 90
      171
 90
      243
 90
      242
 90
        4
 90
      242
 90
      243
 90
      244
 90
      173
 90
        4
 90
      173
 90
      244
 90
      245
 90
      174
 90
        4
 90
      174
 90
      245
 90
      176
 90
      175
 90
        4
 90
      175
 90
      176
 90
      247
 90
      246
 90
        4
 90
      148
 90
      172
 90
      156
 90
      229
 90
        3
 90
      148
 90
      248
 90
      172
 90
        3
 90
      148
 90
      249
 90
      248
 90
        3
 90
      148
 90
      177
 90
      249
 90
        3
 90
      148
 90
      178
 90
      177
 90
        3
 90
      148
 90
      179
 90
      178
 90
        3
 90
      148
 90
      149
 90
      179
 90
        4
 90
      147
 90
      181
 90
      180
 90
      250
 90
        3
 90
      147
 90
      148
 90
      181
 90
        4
 90
      250
 90
      180
 90
      183
 90
      182
 90
        3
 90
      182
 90
      183
 90
      184
 90
        4
 90
      182
 90
      184
 90
      252
 90
      251
 90
        3
 90
      251
 90
      253
 90
      185
 90
        3
 90
      251
 90
      252
 90
      253
 90
        4
 90
      251
 90
      185
 90
      255
 90
      254
 90
        4
 90
      254
 90
      255
 90
      186
 90
      256
 90
        3
 90
      256
 90
      186
 90
      187
 90
        3
 90
      187
 90
      186
 90
      257
 90
        3
 90
      258
 90
      186
 90
      259
 90
        4
 90
      259
 90
      186
 90
      260
 90
      188
 90
        3
 90
      189
 90
      186
 90
      258
 90
        3
 90
      186
 90
      189
 90
      261
 90
        3
 90
      190
 90
      186
 90
      191
 90
        4
 90
      191
 90
      186
 90
      261
 90
      262
 90
        3
 90
      263
 90
      186
 90
      192
 90
        3
 90
      192
 90
      186
 90
      190
 90
        3
 90
      264
 90
      186
 90
      265
 90
        3
 90
      265
 90
      186
 90
      263
 90
        3
 90
      266
 90
      186
 90
      264
 90
        3
 90
      186
 90
      266
 90
      193
 90
        3
 90
      194
 90
      186
 90
      193
 90
        3
 90
      186
 90
      194
 90
      267
 90
        3
 90
      195
 90
      186
 90
      268
 90
        3
 90
      268
 90
      186
 90
      267
 90
        3
 90
      196
 90
      186
 90
      197
 90
        3
 90
      197
 90
      186
 90
      195
 90
        3
 90
      257
 90
      186
 90
      269
 90
        3
 90
      269
 90
      186
 90
      196
 90
        4
 90
      188
 90
      260
 90
      270
 90
      198
 90
        4
 90
      198
 90
      270
 90
      199
 90
      271
 90
        4
 90
      271
 90
      199
 90
      272
 90
      200
 90
        4
 90
      200
 90
      272
 90
      273
 90
      201
 90
        3
 90
      201
 90
      273
 90
      202
 90
        4
 90
      201
 90
      202
 90
      204
 90
      203
 90
        3
 90
      203
 90
      206
 90
      205
 90
        3
 90
      203
 90
      204
 90
      206
 90
        4
 90
      203
 90
      274
 90
      208
 90
      207
 90
        3
 90
      203
 90
      205
 90
      274
 90
        3
 90
      207
 90
      209
 90
      275
 90
        3
 90
      207
 90
      208
 90
      209
 90
        4
 90
      207
 90
      276
 90
      211
 90
      210
 90
        3
 90
      207
 90
      275
 90
      276
 90
        3
 90
      210
 90
      278
 90
      277
 90
        3
 90
      210
 90
      211
 90
      278
 90
        3
 90
      210
 90
      280
 90
      279
 90
        3
 90
      210
 90
      277
 90
      280
 90
        3
 90
      210
 90
      213
 90
      212
 90
        3
 90
      210
 90
      279
 90
      213
 90
        4
 90
      210
 90
      212
 90
      281
 90
      214
 90
        4
 90
      214
 90
      281
 90
      283
 90
      282
 90
        4
 90
      282
 90
      283
 90
      215
 90
      284
 90
        4
 90
      284
 90
      215
 90
      216
 90
      285
 90
        3
 90
      285
 90
      216
 90
      217
 90
        3
 90
      217
 90
      216
 90
      286
 90
        3
 90
      286
 90
      216
 90
      287
 90
        3
 90
      287
 90
      216
 90
      218
 90
        4
 90
      218
 90
      216
 90
      219
 90
      288
 90
        4
 90
      288
 90
      219
 90
      220
 90
      289
 90
        4
 90
      289
 90
      220
 90
      290
 90
      221
 90
        4
 90
      221
 90
      290
 90
      291
 90
      222
 90
        4
 90
      222
 90
      292
 90
      224
 90
      223
 90
        3
 90
      222
 90
      291
 90
      292
 90
        3
 90
      223
 90
      224
 90
      293
 94
      639
 90
        0
 90
        1
 90
        0
 90
        2
 90
        1
 90
        2
 90
      107
 90
      108
 90
      108
 90
      110
 90
      110
 90
      112
 90
      107
 90
      112
 90
      106
 90
      107
 90
      112
 90
      114
 90
      106
 90
      114
 90
       92
 90
      106
 90
      113
 90
      114
 90
       92
 90
      113
 90
      109
 90
      113
 90
       92
 90
      109
 90
      109
 90
      111
 90
       92
 90
      111
 90
       91
 90
      111
 90
       91
 90
       92
 90
       91
 90
       95
 90
       92
 90
       95
 90
       91
 90
       93
 90
       93
 90
      116
 90
       95
 90
      116
 90
       95
 90
       96
 90
       96
 90
      126
 90
       98
 90
      126
 90
       95
 90
       98
 90
       92
 90
       98
 90
      118
 90
      119
 90
      119
 90
      121
 90
      121
 90
      122
 90
      118
 90
      122
 90
      117
 90
      118
 90
      122
 90
      124
 90
      117
 90
      124
 90
      115
 90
      117
 90
      123
 90
      124
 90
      115
 90
      123
 90
       94
 90
      115
 90
      120
 90
      123
 90
       94
 90
      120
 90
       93
 90
       94
 90
      116
 90
      120
 90
       96
 90
       97
 90
       97
 90
      130
 90
      126
 90
      130
 90
       97
 90
      125
 90
      125
 90
      133
 90
      130
 90
      133
 90
      125
 90
      127
 90
      127
 90
      134
 90
      133
 90
      134
 90
      127
 90
      128
 90
      128
 90
      132
 90
      132
 90
      134
 90
      128
 90
      129
 90
      129
 90
      131
 90
      131
 90
      132
 90
       98
 90
       99
 90
       99
 90
      136
 90
      101
 90
      136
 90
       98
 90
      101
 90
       99
 90
      100
 90
      100
 90
      140
 90
      136
 90
      140
 90
      100
 90
      135
 90
      135
 90
      143
 90
      140
 90
      143
 90
      135
 90
      137
 90
      137
 90
      144
 90
      143
 90
      144
 90
      137
 90
      138
 90
      138
 90
      142
 90
      142
 90
      144
 90
      138
 90
      139
 90
      139
 90
      141
 90
      141
 90
      142
 90
        0
 90
       92
 90
        0
 90
      101
 90
      101
 90
      102
 90
        0
 90
      102
 90
      102
 90
      103
 90
        0
 90
      103
 90
      103
 90
      104
 90
        0
 90
      104
 90
      104
 90
      105
 90
        0
 90
      105
 90
        3
 90
      105
 90
        0
 90
        3
 90
        2
 90
        3
 90
        1
 90
        4
 90
        4
 90
       10
 90
        8
 90
       10
 90
        1
 90
        8
 90
        0
 90
        8
 90
        4
 90
        5
 90
        5
 90
       16
 90
       10
 90
       16
 90
        5
 90
       19
 90
       16
 90
       19
 90
        5
 90
        6
 90
        6
 90
       24
 90
       19
 90
       24
 90
        6
 90
       21
 90
       21
 90
       23
 90
        6
 90
       23
 90
       23
 90
       24
 90
        6
 90
        7
 90
        7
 90
       25
 90
       21
 90
       25
 90
        7
 90
        9
 90
        9
 90
       32
 90
       25
 90
       32
 90
        9
 90
       11
 90
       11
 90
       32
 90
       11
 90
       12
 90
       12
 90
       32
 90
       39
 90
       40
 90
       32
 90
       40
 90
       32
 90
       39
 90
       40
 90
       42
 90
       35
 90
       42
 90
       32
 90
       35
 90
       38
 90
       39
 90
       32
 90
       38
 90
       32
 90
       33
 90
       33
 90
       38
 90
       34
 90
       36
 90
       32
 90
       36
 90
       32
 90
       34
 90
       36
 90
       37
 90
       33
 90
       37
 90
       30
 90
       31
 90
       31
 90
       32
 90
       30
 90
       32
 90
       31
 90
       34
 90
       28
 90
       29
 90
       29
 90
       32
 90
       28
 90
       32
 90
       29
 90
       30
 90
       27
 90
       28
 90
       27
 90
       32
 90
       26
 90
       32
 90
       26
 90
       27
 90
       22
 90
       26
 90
       22
 90
       32
 90
       20
 90
       32
 90
       20
 90
       22
 90
       17
 90
       18
 90
       18
 90
       32
 90
       17
 90
       32
 90
       18
 90
       20
 90
       14
 90
       15
 90
       15
 90
       32
 90
       14
 90
       32
 90
       15
 90
       17
 90
       12
 90
       13
 90
       13
 90
       32
 90
       13
 90
       14
 90
       42
 90
       44
 90
       41
 90
       44
 90
       35
 90
       41
 90
       44
 90
       46
 90
       46
 90
      146
 90
       41
 90
      146
 90
       46
 90
       48
 90
       48
 90
      145
 90
      145
 90
      146
 90
       48
 90
       50
 90
       45
 90
       50
 90
       45
 90
      145
 90
       43
 90
       50
 90
       43
 90
       45
 90
       50
 90
       51
 90
       47
 90
       51
 90
       43
 90
       47
 90
       51
 90
       52
 90
       49
 90
       52
 90
       49
 90
       51
 90
       47
 90
       49
 90
       51
 90
       53
 90
       53
 90
       63
 90
       63
 90
       64
 90
       51
 90
       64
 90
       52
 90
       64
 90
       53
 90
       61
 90
       61
 90
       62
 90
       53
 90
       62
 90
       62
 90
       63
 90
       53
 90
       54
 90
       54
 90
       59
 90
       59
 90
       60
 90
       53
 90
       60
 90
       60
 90
       61
 90
       54
 90
       57
 90
       57
 90
       58
 90
       54
 90
       58
 90
       58
 90
       59
 90
       54
 90
       65
 90
       56
 90
       65
 90
       54
 90
       56
 90
       56
 90
       57
 90
       54
 90
       73
 90
       67
 90
       73
 90
       54
 90
       67
 90
       65
 90
       67
 90
       54
 90
       55
 90
       55
 90
       72
 90
       72
 90
       73
 90
       55
 90
       66
 90
       66
 90
       71
 90
       71
 90
       72
 90
       66
 90
       68
 90
       68
 90
       70
 90
       70
 90
       71
 90
       68
 90
       69
 90
       69
 90
       77
 90
       70
 90
       77
 90
       69
 90
       74
 90
       74
 90
       77
 90
       74
 90
       75
 90
       75
 90
       77
 90
       75
 90
       76
 90
       76
 90
       77
 90
       76
 90
       78
 90
       77
 90
       78
 90
       78
 90
       80
 90
       79
 90
       80
 90
       77
 90
       79
 90
       80
 90
       81
 90
       81
 90
       84
 90
       79
 90
       84
 90
       81
 90
       82
 90
       82
 90
       90
 90
       84
 90
       90
 90
       82
 90
       83
 90
       83
 90
       89
 90
       89
 90
       90
 90
       83
 90
       85
 90
       85
 90
       86
 90
       86
 90
       88
 90
       83
 90
       88
 90
       88
 90
       89
 90
       85
 90
       87
 90
       86
 90
       87
 90
       92
 90
      229
 90
      227
 90
      229
 90
      106
 90
      227
 90
        0
 90
      148
 90
      148
 90
      229
 90
        8
 90
      181
 90
      148
 90
      181
 90
       10
 90
      180
 90
      180
 90
      181
 90
       16
 90
      183
 90
      180
 90
      183
 90
       19
 90
      184
 90
      183
 90
      184
 90
       24
 90
      252
 90
      184
 90
      252
 90
       23
 90
      253
 90
      252
 90
      253
 90
       21
 90
      185
 90
      185
 90
      253
 90
       25
 90
      255
 90
      185
 90
      255
 90
       32
 90
      186
 90
      186
 90
      255
 90
       35
 90
      260
 90
      186
 90
      260
 90
       41
 90
      270
 90
      260
 90
      270
 90
      146
 90
      199
 90
      199
 90
      270
 90
      145
 90
      272
 90
      199
 90
      272
 90
       45
 90
      273
 90
      272
 90
      273
 90
       43
 90
      202
 90
      202
 90
      273
 90
       47
 90
      204
 90
      202
 90
      204
 90
       49
 90
      206
 90
      204
 90
      206
 90
       52
 90
      205
 90
      205
 90
      206
 90
       64
 90
      274
 90
      205
 90
      274
 90
       63
 90
      208
 90
      208
 90
      274
 90
       62
 90
      209
 90
      208
 90
      209
 90
       61
 90
      275
 90
      209
 90
      275
 90
       60
 90
      276
 90
      275
 90
      276
 90
       59
 90
      211
 90
      211
 90
      276
 90
       58
 90
      278
 90
      211
 90
      278
 90
       57
 90
      277
 90
      277
 90
      278
 90
       56
 90
      280
 90
      277
 90
      280
 90
       65
 90
      279
 90
      279
 90
      280
 90
       67
 90
      213
 90
      213
 90
      279
 90
       73
 90
      212
 90
      212
 90
      213
 90
       72
 90
      281
 90
      212
 90
      281
 90
       71
 90
      283
 90
      281
 90
      283
 90
       70
 90
      215
 90
      215
 90
      283
 90
       77
 90
      216
 90
      215
 90
      216
 90
       79
 90
      219
 90
      216
 90
      219
 90
       84
 90
      220
 90
      219
 90
      220
 90
       90
 90
      290
 90
      220
 90
      290
 90
       89
 90
      291
 90
      290
 90
      291
 90
       88
 90
      292
 90
      291
 90
      292
 90
       86
 90
      224
 90
      224
 90
      292
 90
       87
 90
      293
 90
      224
 90
      293
 90
       85
 90
      223
 90
      223
 90
      293
 90
       83
 90
      222
 90
      222
 90
      223
 90
       82
 90
      221
 90
      221
 90
      222
 90
       81
 90
      289
 90
      221
 90
      289
 90
       80
 90
      288
 90
      288
 90
      289
 90
       78
 90
      218
 90
      218
 90
      288
 90
       76
 90
      287
 90
      218
 90
      287
 90
       75
 90
      286
 90
      286
 90
      287
 90
       74
 90
      217
 90
      217
 90
      286
 90
       69
 90
      285
 90
      217
 90
      285
 90
       68
 90
      284
 90
      284
 90
      285
 90
       66
 90
      282
 90
      282
 90
      284
 90
       55
 90
      214
 90
      214
 90
      282
 90
       54
 90
      210
 90
      210
 90
      214
 90
       53
 90
      207
 90
      207
 90
      210
 90
       51
 90
      203
 90
      203
 90
      207
 90
       50
 90
      201
 90
      201
 90
      203
 90
       48
 90
      200
 90
      200
 90
      201
 90
       46
 90
      271
 90
      200
 90
      271
 90
       44
 90
      198
 90
      198
 90
      271
 90
       42
 90
      188
 90
      188
 90
      198
 90
       40
 90
      259
 90
      188
 90
      259
 90
       39
 90
      258
 90
      258
 90
      259
 90
       38
 90
      189
 90
      189
 90
      258
 90
       33
 90
      261
 90
      189
 90
      261
 90
       37
 90
      262
 90
      261
 90
      262
 90
       36
 90
      191
 90
      191
 90
      262
 90
       34
 90
      190
 90
      190
 90
      191
 90
       31
 90
      192
 90
      190
 90
      192
 90
       30
 90
      263
 90
      192
 90
      263
 90
       29
 90
      265
 90
      263
 90
      265
 90
       28
 90
      264
 90
      264
 90
      265
 90
       27
 90
      266
 90
      264
 90
      266
 90
       26
 90
      193
 90
      193
 90
      266
 90
       22
 90
      194
 90
      193
 90
      194
 90
       20
 90
      267
 90
      194
 90
      267
 90
       18
 90
      268
 90
      267
 90
      268
 90
       17
 90
      195
 90
      195
 90
      268
 90
       15
 90
      197
 90
      195
 90
      197
 90
       14
 90
      196
 90
      196
 90
      197
 90
       13
 90
      269
 90
      196
 90
      269
 90
       12
 90
      257
 90
      257
 90
      269
 90
       11
 90
      187
 90
      187
 90
      257
 90
        9
 90
      256
 90
      187
 90
      256
 90
        7
 90
      254
 90
      254
 90
      256
 90
        6
 90
      251
 90
      251
 90
      254
 90
        5
 90
      182
 90
      182
 90
      251
 90
        4
 90
      250
 90
      182
 90
      250
 90
        1
 90
      147
 90
      147
 90
      250
 90
        2
 90
      149
 90
      147
 90
      149
 90
        3
 90
      179
 90
      149
 90
      179
 90
      105
 90
      178
 90
      178
 90
      179
 90
      104
 90
      177
 90
      177
 90
      178
 90
      103
 90
      249
 90
      177
 90
      249
 90
      102
 90
      248
 90
      248
 90
      249
 90
      101
 90
      172
 90
      172
 90
      248
 90
      136
 90
      171
 90
      171
 90
      172
 90
      140
 90
      243
 90
      171
 90
      243
 90
      143
 90
      244
 90
      243
 90
      244
 90
      144
 90
      245
 90
      244
 90
      245
 90
      142
 90
      176
 90
      176
 90
      245
 90
      141
 90
      247
 90
      176
 90
      247
 90
      139
 90
      246
 90
      246
 90
      247
 90
      138
 90
      175
 90
      175
 90
      246
 90
      137
 90
      174
 90
      174
 90
      175
 90
      135
 90
      173
 90
      173
 90
      174
 90
      100
 90
      242
 90
      173
 90
      242
 90
       99
 90
      170
 90
      170
 90
      242
 90
       98
 90
      156
 90
      156
 90
      170
 90
      126
 90
      234
 90
      156
 90
      234
 90
      130
 90
      164
 90
      164
 90
      234
 90
      133
 90
      165
 90
      164
 90
      165
 90
      134
 90
      167
 90
      165
 90
      167
 90
      132
 90
      240
 90
      167
 90
      240
 90
      131
 90
      241
 90
      240
 90
      241
 90
      129
 90
      169
 90
      169
 90
      241
 90
      128
 90
      168
 90
      168
 90
      169
 90
      127
 90
      166
 90
      166
 90
      168
 90
      125
 90
      239
 90
      166
 90
      239
 90
       97
 90
      238
 90
      238
 90
      239
 90
       96
 90
      233
 90
      233
 90
      238
 90
       95
 90
      155
 90
      155
 90
      233
 90
      116
 90
      232
 90
      155
 90
      232
 90
      120
 90
      163
 90
      163
 90
      232
 90
      123
 90
      236
 90
      163
 90
      236
 90
      124
 90
      161
 90
      161
 90
      236
 90
      122
 90
      159
 90
      159
 90
      161
 90
      121
 90
      158
 90
      158
 90
      159
 90
      119
 90
      157
 90
      157
 90
      158
 90
      118
 90
      235
 90
      157
 90
      235
 90
      117
 90
      160
 90
      160
 90
      235
 90
      115
 90
      162
 90
      160
 90
      162
 90
       94
 90
      237
 90
      162
 90
      237
 90
       93
 90
      231
 90
      231
 90
      237
 90
       91
 90
      154
 90
      154
 90
      231
 90
      111
 90
      230
 90
      154
 90
      230
 90
      109
 90
      153
 90
      153
 90
      230
 90
      113
 90
      152
 90
      152
 90
      153
 90
      114
 90
      228
 90
      152
 90
      228
 90
      112
 90
      226
 90
      226
 90
      228
 90
      110
 90
      225
 90
      225
 90
      226
 90
      108
 90
      151
 90
      151
 90
      225
 90
      107
 90
      150
 90
      150
 90
      151
 90
      150
 90
      227
 90
      148
 90
      149
 90
      147
 90
      148
 90
      150
 90
      226
 90
      227
 90
      228
 90
      152
 90
      229
 90
      153
 90
      229
 90
      229
 90
      230
 90
      154
 90
      229
 90
      155
 90
      229
 90
      154
 90
      155
 90
      231
 90
      232
 90
      155
 90
      156
 90
      233
 90
      234
 90
      156
 90
      229
 90
      159
 90
      235
 90
      160
 90
      161
 90
      162
 90
      236
 90
      163
 90
      237
 90
      164
 90
      238
 90
      165
 90
      239
 90
      166
 90
      167
 90
      168
 90
      240
 90
      156
 90
      172
 90
      170
 90
      171
 90
      242
 90
      243
 90
      173
 90
      244
 90
      174
 90
      245
 90
      175
 90
      176
 90
      148
 90
      172
 90
      148
 90
      248
 90
      148
 90
      249
 90
      148
 90
      177
 90
      148
 90
      178
 90
      148
 90
      179
 90
      147
 90
      181
 90
      180
 90
      250
 90
      182
 90
      183
 90
      182
 90
      184
 90
      251
 90
      252
 90
      251
 90
      253
 90
      185
 90
      251
 90
      254
 90
      255
 90
      186
 90
      256
 90
      186
 90
      187
 90
      186
 90
      257
 90
      186
 90
      258
 90
      186
 90
      259
 90
      188
 90
      260
 90
      186
 90
      189
 90
      186
 90
      261
 90
      186
 90
      190
 90
      186
 90
      191
 90
      186
 90
      263
 90
      186
 90
      192
 90
      186
 90
      264
 90
      186
 90
      265
 90
      186
 90
      266
 90
      186
 90
      193
 90
      186
 90
      194
 90
      186
 90
      267
 90
      186
 90
      195
 90
      186
 90
      268
 90
      186
 90
      196
 90
      186
 90
      197
 90
      186
 90
      269
 90
      198
 90
      270
 90
      199
 90
      271
 90
      200
 90
      272
 90
      201
 90
      273
 90
      201
 90
      202
 90
      203
 90
      204
 90
      203
 90
      206
 90
      203
 90
      205
 90
      203
 90
      274
 90
      207
 90
      208
 90
      207
 90
      209
 90
      207
 90
      275
 90
      207
 90
      276
 90
      210
 90
      211
 90
      210
 90
      278
 90
      210
 90
      277
 90
      210
 90
      280
 90
      210
 90
      279
 90
      210
 90
      213
 90
      210
 90
      212
 90
      214
 90
      281
 90
      282
 90
      283
 90
      215
 90
      284
 90
      216
 90
      285
 90
      216
 90
      217
 90
      216
 90
      286
 90
      216
 90
      287
 90
      216
 90
      218
 90
      219
 90
      288
 90
      220
 90
      289
 90
      221
 90
      290
 90
      222
 90
      291
 90
      222
 90
      292
 90
      223
 90
      224
 95
      639
140
0.0
140
0.0
140
0.0
140
0.0
140
0.0
140
0.0
140
0.0
140
0.0
140
0.0
140
0.0
140
0.0
140
0.0
140
0.0
140
0.0
140
0.0
140
0.0
140
0.0
140
0.0
140
0.0
140
0.0
140
0.0
140
0.0
140
0.0
140
0.0
140
0.0
140
0.0
140
0.0
140
0.0
140
0.0
140
0.0
140
0.0
140
0.0
140
0.0
140
0.0
140
0.0
140
0.0
140
0.0
140
0.0
140
0.0
140
0.0
140
0.0
140
0.0
140
0.0
140
0.0
140
0.0
140
0.0
140
0.0
140
0.0
140
0.0
140
0.0
140
0.0
140
0.0
140
0.0
140
0.0
140
0.0
140
0.0
140
0.0
140
0.0
140
0.0
140
0.0
140
0.0
140
0.0
140
0.0
140
0.0
140
0.0
140
0.0
140
0.0
140
0.0
140
0.0
140
0.0
140
0.0
140
0.0
140
0.0
140
0.0
140
0.0
140
0.0
140
0.0
140
0.0
140
0.0
140
0.0
140
0.0
140
0.0
140
0.0
140
0.0
140
0.0
140
0.0
140
0.0
140
0.0
140
0.0
140
0.0
140
0.0
140
0.0
140
0.0
140
0.0
140
0.0
140
0.0
140
0.0
140
0.0
140
0.0
140
0.0
140
0.0
140
0.0
140
0.0
140
0.0
140
0.0
140
0.0
140
0.0
140
0.0
140
0.0
140
0.0
140
0.0
140
0.0
140
0.0
140
0.0
140
0.0
140
0.0
140
0.0
140
0.0
140
0.0
140
0.0
140
0.0
140
0.0
140
0.0
140
0.0
140
0.0
140
0.0
140
0.0
140
0.0
140
0.0
140
0.0
140
0.0
140
0.0
140
0.0
140
0.0
140
0.0
140
0.0
140
0.0
140
0.0
140
0.0
140
0.0
140
0.0
140
0.0
140
0.0
140
0.0
140
0.0
140
0.0
140
0.0
140
0.0
140
0.0
140
0.0
140
0.0
140
0.0
140
0.0
140
0.0
140
0.0
140
0.0
140
0.0
140
0.0
140
0.0
140
0.0
140
0.0
140
0.0
140
0.0
140
0.0
140
0.0
140
0.0
140
0.0
140
0.0
140
0.0
140
0.0
140
0.0
140
0.0
140
0.0
140
0.0
140
0.0
140
0.0
140
0.0
140
0.0
140
0.0
140
0.0
140
0.0
140
0.0
140
0.0
140
0.0
140
0.0
140
0.0
140
0.0
140
0.0
140
0.0
140
0.0
140
0.0
140
0.0
140
0.0
140
0.0
140
0.0
140
0.0
140
0.0
140
0.0
140
0.0
140
0.0
140
0.0
140
0.0
140
0.0
140
0.0
140
0.0
140
0.0
140
0.0
140
0.0
140
0.0
140
0.0
140
0.0
140
0.0
140
0.0
140
0.0
140
0.0
140
0.0
140
0.0
140
0.0
140
0.0
140
0.0
140
0.0
140
0.0
140
0.0
140
0.0
140
0.0
140
0.0
140
0.0
140
0.0
140
0.0
140
0.0
140
0.0
140
0.0
140
0.0
140
0.0
140
0.0
140
0.0
140
0.0
140
0.0
140
0.0
140
0.0
140
0.0
140
0.0
140
0.0
140
0.0
140
0.0
140
0.0
140
0.0
140
0.0
140
0.0
140
0.0
140
0.0
140
0.0
140
0.0
140
0.0
140
0.0
140
0.0
140
0.0
140
0.0
140
0.0
140
0.0
140
0.0
140
0.0
140
0.0
140
0.0
140
0.0
140
0.0
140
0.0
140
0.0
140
0.0
140
0.0
140
0.0
140
0.0
140
0.0
140
0.0
140
0.0
140
0.0
140
0.0
140
0.0
140
0.0
140
0.0
140
0.0
140
0.0
140
0.0
140
0.0
140
0.0
140
0.0
140
0.0
140
0.0
140
0.0
140
0.0
140
0.0
140
0.0
140
0.0
140
0.0
140
0.0
140
0.0
140
0.0
140
0.0
140
0.0
140
0.0
140
0.0
140
0.0
140
0.0
140
0.0
140
0.0
140
0.0
140
0.0
140
0.0
140
0.0
140
0.0
140
0.0
140
0.0
140
0.0
140
0.0
140
0.0
140
0.0
140
0.0
140
0.0
140
0.0
140
0.0
140
0.0
140
0.0
140
0.0
140
0.0
140
0.0
140
0.0
140
0.0
140
0.0
140
0.0
140
0.0
140
0.0
140
0.0
140
0.0
140
0.0
140
0.0
140
0.0
140
0.0
140
0.0
140
0.0
140
0.0
140
0.0
140
0.0
140
0.0
140
0.0
140
0.0
140
0.0
140
0.0
140
0.0
140
0.0
140
0.0
140
0.0
140
0.0
140
0.0
140
0.0
140
0.0
140
0.0
140
0.0
140
0.0
140
0.0
140
0.0
140
0.0
140
0.0
140
0.0
140
0.0
140
0.0
140
0.0
140
0.0
140
0.0
140
0.0
140
0.0
140
0.0
140
0.0
140
0.0
140
0.0
140
0.0
140
0.0
140
0.0
140
0.0
140
0.0
140
0.0
140
0.0
140
0.0
140
0.0
140
0.0
140
0.0
140
0.0
140
0.0
140
0.0
140
0.0
140
0.0
140
0.0
140
0.0
140
0.0
140
0.0
140
0.0
140
0.0
140
0.0
140
0.0
140
0.0
140
0.0
140
0.0
140
0.0
140
0.0
140
0.0
140
0.0
140
0.0
140
0.0
140
0.0
140
0.0
140
0.0
140
0.0
140
0.0
140
0.0
140
0.0
140
0.0
140
0.0
140
0.0
140
0.0
140
0.0
140
0.0
140
0.0
140
0.0
140
0.0
140
0.0
140
0.0
140
0.0
140
0.0
140
0.0
140
0.0
140
0.0
140
0.0
140
0.0
140
0.0
140
0.0
140
0.0
140
0.0
140
0.0
140
0.0
140
0.0
140
0.0
140
0.0
140
0.0
140
0.0
140
0.0
140
0.0
140
0.0
140
0.0
140
0.0
140
0.0
140
0.0
140
0.0
140
0.0
140
0.0
140
0.0
140
0.0
140
0.0
140
0.0
140
0.0
140
0.0
140
0.0
140
0.0
140
0.0
140
0.0
140
0.0
140
0.0
140
0.0
140
0.0
140
0.0
140
0.0
140
0.0
140
0.0
140
0.0
140
0.0
140
0.0
140
0.0
140
0.0
140
0.0
140
0.0
140
0.0
140
0.0
140
0.0
140
0.0
140
0.0
140
0.0
140
0.0
140
0.0
140
0.0
140
0.0
140
0.0
140
0.0
140
0.0
140
0.0
140
0.0
140
0.0
140
0.0
140
0.0
140
0.0
140
0.0
140
0.0
140
0.0
140
0.0
140
0.0
140
0.0
140
0.0
140
0.0
140
0.0
140
0.0
140
0.0
140
0.0
140
0.0
140
0.0
140
0.0
140
0.0
140
0.0
140
0.0
140
0.0
140
0.0
140
0.0
140
0.0
140
0.0
140
0.0
140
0.0
140
0.0
140
0.0
140
0.0
140
0.0
140
0.0
140
0.0
140
0.0
140
0.0
140
0.0
140
0.0
140
0.0
140
0.0
140
0.0
140
0.0
140
0.0
140
0.0
140
0.0
140
0.0
140
0.0
140
0.0
140
0.0
140
0.0
140
0.0
140
0.0
140
0.0
140
0.0
140
0.0
140
0.0
140
0.0
140
0.0
140
0.0
140
0.0
140
0.0
140
0.0
140
0.0
140
0.0
140
0.0
140
0.0
140
0.0
140
0.0
140
0.0
140
0.0
140
0.0
140
0.0
140
0.0
140
0.0
140
0.0
140
0.0
140
0.0
140
0.0
140
0.0
140
0.0
140
0.0
140
0.0
140
0.0
140
0.0
140
0.0
140
0.0
140
0.0
140
0.0
140
0.0
140
0.0
140
0.0
140
0.0
140
0.0
140
0.0
140
0.0
140
0.0
140
0.0
140
0.0
140
0.0
140
0.0
140
0.0
140
0.0
140
0.0
140
0.0
140
0.0
140
0.0
140
0.0
140
0.0
140
0.0
140
0.0
140
0.0
140
0.0
140
0.0
140
0.0
140
0.0
140
0.0
140
0.0
140
0.0
140
0.0
140
0.0
140
0.0
140
0.0
140
0.0
140
0.0
140
0.0
140
0.0
140
0.0
140
0.0
140
0.0
140
0.0
140
0.0
140
0.0
140
0.0
140
0.0
140
0.0
140
0.0
140
0.0
140
0.0
140
0.0
140
0.0
140
0.0
140
0.0
140
0.0
140
0.0
140
0.0
 90
        0
  0
POLYLINE
  5
FA
330
1F
100
AcDbEntity
  8
OracDecor_skirtings
 62
   153
420
  5804257
100
AcDb3dPolyline
 66
     1
 10
0.0
 20
0.0
 30
0.0
 70
     9
  0
VERTEX
  5
FB
330
FA
100
AcDbEntity
  8
OracDecor_skirtings
 62
   153
420
  5804257
100
AcDbVertex
100
AcDb3dPolylineVertex
 10
-0.0000034082904676
 20
13.99999332427978
 30
42.88314056396484
 70
    32
  0
VERTEX
  5
FC
330
FA
100
AcDbEntity
  8
OracDecor_skirtings
 62
   153
420
  5804257
100
AcDbVertex
100
AcDb3dPolylineVertex
 10
-0.0000020356292225
 20
13.9999885559082
 30
98.75039672851563
 70
    32
  0
VERTEX
  5
FD
330
FA
100
AcDbEntity
  8
OracDecor_skirtings
 62
   153
420
  5804257
100
AcDbVertex
100
AcDb3dPolylineVertex
 10
-0.0000020900045001
 20
13.88594913482666
 30
99.56930541992187
 70
    32
  0
VERTEX
  5
FE
330
FA
100
AcDbEntity
  8
OracDecor_skirtings
 62
   153
420
  5804257
100
AcDbVertex
100
AcDb3dPolylineVertex
 10
-0.00000217748061
 20
13.55227279663086
 30
100.3268585205078
 70
    32
  0
VERTEX
  5
FF
330
FA
100
AcDbEntity
  8
OracDecor_skirtings
 62
   153
420
  5804257
100
AcDbVertex
100
AcDb3dPolylineVertex
 10
-0.0000022912142867
 20
13.02506446838379
 30
100.9637756347656
 70
    32
  0
VERTEX
  5
100
330
FA
100
AcDbEntity
  8
OracDecor_skirtings
 62
   153
420
  5804257
100
AcDbVertex
100
AcDb3dPolylineVertex
 10
0.0000008555175555
 20
9.73318862915039
 30
103.9755859375
 70
    32
  0
VERTEX
  5
101
330
FA
100
AcDbEntity
  8
OracDecor_skirtings
 62
   153
420
  5804257
100
AcDbVertex
100
AcDb3dPolylineVertex
 10
0.0000007365570127
 20
9.107300758361816
 30
104.3642959594726
 70
    32
  0
VERTEX
  5
102
330
FA
100
AcDbEntity
  8
OracDecor_skirtings
 62
   153
420
  5804257
100
AcDbVertex
100
AcDb3dPolylineVertex
 10
0.0000006126438166
 20
8.38313865661621
 30
104.5
 70
    32
  0
VERTEX
  5
103
330
FA
100
AcDbEntity
  8
OracDecor_skirtings
 62
   153
420
  5804257
100
AcDbVertex
100
AcDb3dPolylineVertex
 10
-0.0000005902243174
 20
0.9999875426292419
 30
104.5
 70
    32
  0
VERTEX
  5
104
330
FA
100
AcDbEntity
  8
OracDecor_skirtings
 62
   153
420
  5804257
100
AcDbVertex
100
AcDb3dPolylineVertex
 10
-0.0000006775403563
 20
0.4999875128269196
 30
104.6339721679687
 70
    32
  0
VERTEX
  5
105
330
FA
100
AcDbEntity
  8
OracDecor_skirtings
 62
   153
420
  5804257
100
AcDbVertex
100
AcDb3dPolylineVertex
 10
-0.0000007531734809
 20
0.1339624971151352
 30
105.0
 70
    32
  0
VERTEX
  5
106
330
FA
100
AcDbEntity
  8
OracDecor_skirtings
 62
   153
420
  5804257
100
AcDbVertex
100
AcDb3dPolylineVertex
 10
-0.0000007968565114
 20
-0.0000125704154925
 30
105.5
 70
    32
  0
VERTEX
  5
107
330
FA
100
AcDbEntity
  8
OracDecor_skirtings
 62
   153
420
  5804257
100
AcDbVertex
100
AcDb3dPolylineVertex
 10
-0.0000008242418517
 20
-0.0000126251852635
 30
106.1265029907226
 70
    32
  0
VERTEX
  5
108
330
FA
100
AcDbEntity
  8
OracDecor_skirtings
 62
   153
420
  5804257
100
AcDbVertex
100
AcDb3dPolylineVertex
 10
-0.0000008271026672
 20
0.0985991656780243
 30
106.5595092773437
 70
    32
  0
VERTEX
  5
109
330
FA
100
AcDbEntity
  8
OracDecor_skirtings
 62
   153
420
  5804257
100
AcDbVertex
100
AcDb3dPolylineVertex
 10
-0.0000007972685125
 20
0.3749873042106628
 30
106.9071273803711
 70
    32
  0
VERTEX
  5
10A
330
FA
100
AcDbEntity
  8
OracDecor_skirtings
 62
   153
420
  5804257
100
AcDbVertex
100
AcDb3dPolylineVertex
 10
-0.0000007554926924
 20
0.762032151222229
 30
107.3939971923828
 70
    32
  0
VERTEX
  5
10B
330
FA
100
AcDbEntity
  8
OracDecor_skirtings
 62
   153
420
  5804257
100
AcDbVertex
100
AcDb3dPolylineVertex
 10
-0.0000007595062925
 20
0.8999868631362915
 30
108.0
 70
    32
  0
VERTEX
  5
10C
330
FA
100
AcDbEntity
  8
OracDecor_skirtings
 62
   153
420
  5804257
100
AcDbVertex
100
AcDb3dPolylineVertex
 10
-0.0000008084712135
 20
0.7620320916175843
 30
108.6060028076172
 70
    32
  0
VERTEX
  5
10D
330
FA
100
AcDbEntity
  8
OracDecor_skirtings
 62
   153
420
  5804257
100
AcDbVertex
100
AcDb3dPolylineVertex
 10
-0.0000008928104762
 20
0.3749871253967285
 30
109.0928726196289
 70
    32
  0
VERTEX
  5
10E
330
FA
100
AcDbEntity
  8
OracDecor_skirtings
 62
   153
420
  5804257
100
AcDbVertex
100
AcDb3dPolylineVertex
 10
-0.0000009530344869
 20
0.098598912358284
 30
109.4404907226562
 70
    32
  0
VERTEX
  5
10F
330
FA
100
AcDbEntity
  8
OracDecor_skirtings
 62
   153
420
  5804257
100
AcDbVertex
100
AcDb3dPolylineVertex
 10
-0.000000988028205
 20
-0.0000129527597892
 30
109.8734970092773
 70
    32
  0
VERTEX
  5
110
330
FA
100
AcDbEntity
  8
OracDecor_skirtings
 62
   153
420
  5804257
100
AcDbVertex
100
AcDb3dPolylineVertex
 10
-0.0000010154135452
 20
-0.0000130075295601
 30
110.5
 70
    32
  0
VERTEX
  5
111
330
FA
100
AcDbEntity
  8
OracDecor_skirtings
 62
   153
420
  5804257
100
AcDbVertex
100
AcDb3dPolylineVertex
 10
-0.0000010154417396
 20
0.1339619755744934
 30
111.0
 70
    32
  0
VERTEX
  5
112
330
FA
100
AcDbEntity
  8
OracDecor_skirtings
 62
   153
420
  5804257
100
AcDbVertex
100
AcDb3dPolylineVertex
 10
-0.0000009718078218
 20
0.4999869167804718
 30
111.3660278320312
 70
    32
  0
VERTEX
  5
113
330
FA
100
AcDbEntity
  8
OracDecor_skirtings
 62
   153
420
  5804257
100
AcDbVertex
100
AcDb3dPolylineVertex
 10
-0.0000008962038009
 20
0.9999868869781494
 30
111.5
 70
    32
  0
VERTEX
  5
114
330
FA
100
AcDbEntity
  8
OracDecor_skirtings
 62
   153
420
  5804257
100
AcDbVertex
100
AcDb3dPolylineVertex
 10
-0.0000000816003194
 20
5.999987125396728
 30
111.5
 70
    32
  0
VERTEX
  5
115
330
FA
100
AcDbEntity
  8
OracDecor_skirtings
 62
   153
420
  5804257
100
AcDbVertex
100
AcDb3dPolylineVertex
 10
-0.0000000059962986
 20
6.499987125396728
 30
111.6339721679687
 70
    32
  0
VERTEX
  5
116
330
FA
100
AcDbEntity
  8
OracDecor_skirtings
 62
   153
420
  5804257
100
AcDbVertex
100
AcDb3dPolylineVertex
 10
0.0000000376371645
 20
6.866011619567871
 30
112.0
 70
    32
  0
VERTEX
  5
117
330
FA
100
AcDbEntity
  8
OracDecor_skirtings
 62
   153
420
  5804257
100
AcDbVertex
100
AcDb3dPolylineVertex
 10
0.0000000376089702
 20
6.99998664855957
 30
112.5
 70
    32
  0
VERTEX
  5
118
330
FA
100
AcDbEntity
  8
OracDecor_skirtings
 62
   153
420
  5804257
100
AcDbVertex
100
AcDb3dPolylineVertex
 10
0.000000015752903
 20
6.99998664855957
 30
113.0
 70
    32
  0
VERTEX
  5
119
330
FA
100
AcDbEntity
  8
OracDecor_skirtings
 62
   153
420
  5804257
100
AcDbVertex
100
AcDb3dPolylineVertex
 10
-0.0000000300706233
 20
7.234054565429687
 30
114.9207382202148
 70
    32
  0
VERTEX
  5
11A
330
FA
100
AcDbEntity
  8
OracDecor_skirtings
 62
   153
420
  5804257
100
AcDbVertex
100
AcDb3dPolylineVertex
 10
0.0000000029895091
 20
7.92194652557373
 30
116.7283096313476
 70
    32
  0
VERTEX
  5
11B
330
FA
100
AcDbEntity
  8
OracDecor_skirtings
 62
   153
420
  5804257
100
AcDbVertex
100
AcDb3dPolylineVertex
 10
0.0000001130320015
 20
9.024079322814941
 30
118.3186950683593
 70
    32
  0
VERTEX
  5
11C
330
FA
100
AcDbEntity
  8
OracDecor_skirtings
 62
   153
420
  5804257
100
AcDbVertex
100
AcDb3dPolylineVertex
 10
0.0000001307894308
 20
9.230819702148437
 30
118.6830139160156
 70
    32
  0
VERTEX
  5
11D
330
FA
100
AcDbEntity
  8
OracDecor_skirtings
 62
   153
420
  5804257
100
AcDbVertex
100
AcDb3dPolylineVertex
 10
0.000000119005108
 20
9.270255088806152
 30
119.0995941162109
 70
    32
  0
VERTEX
  5
11E
330
FA
100
AcDbEntity
  8
OracDecor_skirtings
 62
   153
420
  5804257
100
AcDbVertex
100
AcDb3dPolylineVertex
 10
0.0000000797838311
 20
9.135834693908691
 30
119.4958572387695
 70
    32
  0
VERTEX
  5
11F
330
FA
100
AcDbEntity
  8
OracDecor_skirtings
 62
   153
420
  5804257
100
AcDbVertex
100
AcDb3dPolylineVertex
 10
0.000000019912477
 20
8.85066795349121
 30
119.8026885986328
 70
    32
  0
VERTEX
  5
120
330
FA
100
AcDbEntity
  8
OracDecor_skirtings
 62
   153
420
  5804257
100
AcDbVertex
100
AcDb3dPolylineVertex
 10
-0.0000016104154383
 20
0.4264096915721894
 30
125.701416015625
 70
    32
  0
VERTEX
  5
121
330
FA
100
AcDbEntity
  8
OracDecor_skirtings
 62
   153
420
  5804257
100
AcDbVertex
100
AcDb3dPolylineVertex
 10
-0.0000016771027731
 20
0.1129750534892082
 30
126.0588150024414
 70
    32
  0
VERTEX
  5
122
330
FA
100
AcDbEntity
  8
OracDecor_skirtings
 62
   153
420
  5804257
100
AcDbVertex
100
AcDb3dPolylineVertex
 10
-0.000001715694907
 20
-0.0000144080931932
 30
126.5205688476562
 70
    32
  0
VERTEX
  5
123
330
FA
100
AcDbEntity
  8
OracDecor_skirtings
 62
   153
420
  5804257
100
AcDbVertex
100
AcDb3dPolylineVertex
 10
-0.0000018518608158
 20
-0.0000146804250107
 30
129.6356811523437
 70
    32
  0
VERTEX
  5
124
330
FA
100
AcDbEntity
  8
OracDecor_skirtings
 62
   153
420
  5804257
100
AcDbVertex
100
AcDb3dPolylineVertex
 10
-0.000001852763944
 20
0.1237102076411247
 30
130.1174926757812
 70
    32
  0
VERTEX
  5
125
330
FA
100
AcDbEntity
  8
OracDecor_skirtings
 62
   153
420
  5804257
100
AcDbVertex
100
AcDb3dPolylineVertex
 10
-0.0000018131290744
 20
0.4642710983753205
 30
130.4800872802734
 70
    32
  0
VERTEX
  5
126
330
FA
100
AcDbEntity
  8
OracDecor_skirtings
 62
   153
420
  5804257
100
AcDbVertex
100
AcDb3dPolylineVertex
 10
0.000002064175078
 20
0.9824118614196777
 30
130.979019165039
 70
    32
  0
VERTEX
  5
127
330
FA
100
AcDbEntity
  8
OracDecor_skirtings
 62
   153
420
  5804257
100
AcDbVertex
100
AcDb3dPolylineVertex
 10
0.0000020810903152
 20
1.263740897178649
 30
131.6406097412109
 70
    32
  0
VERTEX
  5
128
330
FA
100
AcDbEntity
  8
OracDecor_skirtings
 62
   153
420
  5804257
100
AcDbVertex
100
AcDb3dPolylineVertex
 10
0.000002049671366
 20
1.263740897178649
 30
132.359390258789
 70
    32
  0
VERTEX
  5
129
330
FA
100
AcDbEntity
  8
OracDecor_skirtings
 62
   153
420
  5804257
100
AcDbVertex
100
AcDb3dPolylineVertex
 10
0.0000019749177227
 20
0.9824116826057434
 30
133.0209808349609
 70
    32
  0
VERTEX
  5
12A
330
FA
100
AcDbEntity
  8
OracDecor_skirtings
 62
   153
420
  5804257
100
AcDbVertex
100
AcDb3dPolylineVertex
 10
0.000001868693289
 20
0.464270830154419
 30
133.5199127197265
 70
    32
  0
VERTEX
  5
12B
330
FA
100
AcDbEntity
  8
OracDecor_skirtings
 62
   153
420
  5804257
100
AcDbVertex
100
AcDb3dPolylineVertex
 10
0.0000017973593458
 20
0.1237098798155785
 30
133.8825073242187
 70
    32
  0
VERTEX
  5
12C
330
FA
100
AcDbEntity
  8
OracDecor_skirtings
 62
   153
420
  5804257
100
AcDbVertex
100
AcDb3dPolylineVertex
 10
0.0000017561415007
 20
-0.0000150938139996
 30
134.3643188476562
 70
    32
  0
VERTEX
  5
12D
330
FA
100
AcDbEntity
  8
OracDecor_skirtings
 62
   153
420
  5804257
100
AcDbVertex
100
AcDb3dPolylineVertex
 10
0.0000015972200345
 20
-0.000015411655113
 30
138.0
 70
    32
  0
VERTEX
  5
12E
330
FA
100
AcDbEntity
  8
OracDecor_skirtings
 62
   153
420
  5804257
100
AcDbVertex
100
AcDb3dPolylineVertex
 10
0.0000027109053917
 20
6.835733890533447
 30
138.0
 70
    32
  0
VERTEX
  5
12F
330
FA
100
AcDbEntity
  8
OracDecor_skirtings
 62
   153
420
  5804257
100
AcDbVertex
100
AcDb3dPolylineVertex
 10
0.0000027335454433
 20
6.962533950805664
 30
137.9546661376953
 70
    32
  0
VERTEX
  5
130
330
FA
100
AcDbEntity
  8
OracDecor_skirtings
 62
   153
420
  5804257
100
AcDbVertex
100
AcDb3dPolylineVertex
 10
0.0000027498849704
 20
7.031850814819335
 30
137.8392181396484
 70
    32
  0
VERTEX
  5
131
330
FA
100
AcDbEntity
  8
OracDecor_skirtings
 62
   153
420
  5804257
100
AcDbVertex
100
AcDb3dPolylineVertex
 10
0.0000028105619094
 20
7.194719791412353
 30
137.0581359863281
 70
    32
  0
VERTEX
  5
132
330
FA
100
AcDbEntity
  8
OracDecor_skirtings
 62
   153
420
  5804257
100
AcDbVertex
100
AcDb3dPolylineVertex
 10
0.0000029638504202
 20
7.648165225982666
 30
135.2413787841797
 70
    32
  0
VERTEX
  5
133
330
FA
100
AcDbEntity
  8
OracDecor_skirtings
 62
   153
420
  5804257
100
AcDbVertex
100
AcDb3dPolylineVertex
 10
0.0000031874792512
 20
8.39294147491455
 30
132.9012756347656
 70
    32
  0
VERTEX
  5
134
330
FA
100
AcDbEntity
  8
OracDecor_skirtings
 62
   153
420
  5804257
100
AcDbVertex
100
AcDb3dPolylineVertex
 10
0.0000033974874896
 20
9.191695213317871
 30
131.0739440917968
 70
    32
  0
VERTEX
  5
135
330
FA
100
AcDbEntity
  8
OracDecor_skirtings
 62
   153
420
  5804257
100
AcDbVertex
100
AcDb3dPolylineVertex
 10
-0.0000002240312824
 20
10.00672626495361
 30
129.6923217773437
 70
    32
  0
VERTEX
  5
136
330
FA
100
AcDbEntity
  8
OracDecor_skirtings
 62
   153
420
  5804257
100
AcDbVertex
100
AcDb3dPolylineVertex
 10
-0.0000000385102794
 20
10.85449314117431
 30
128.6078796386719
 70
    32
  0
VERTEX
  5
137
330
FA
100
AcDbEntity
  8
OracDecor_skirtings
 62
   153
420
  5804257
100
AcDbVertex
100
AcDb3dPolylineVertex
 10
0.0000001340376912
 20
11.68964862823486
 30
127.7732238769531
 70
    32
  0
VERTEX
  5
138
330
FA
100
AcDbEntity
  8
OracDecor_skirtings
 62
   153
420
  5804257
100
AcDbVertex
100
AcDb3dPolylineVertex
 10
0.0000002944107109
 20
12.49409198760986
 30
127.1026306152343
 70
    32
  0
VERTEX
  5
139
330
FA
100
AcDbEntity
  8
OracDecor_skirtings
 62
   153
420
  5804257
100
AcDbVertex
100
AcDb3dPolylineVertex
 10
-0.0000033802343751
 20
13.21711254119873
 30
126.5934448242187
 70
    32
  0
VERTEX
  5
13A
330
FA
100
AcDbEntity
  8
OracDecor_skirtings
 62
   153
420
  5804257
100
AcDbVertex
100
AcDb3dPolylineVertex
 10
-0.0000032366183405
 20
13.97578525543213
 30
126.1356201171875
 70
    32
  0
VERTEX
  5
13B
330
FA
100
AcDbEntity
  8
OracDecor_skirtings
 62
   153
420
  5804257
100
AcDbVertex
100
AcDb3dPolylineVertex
 10
-0.0000030899418562
 20
14.76443862915039
 30
125.7195129394531
 70
    32
  0
VERTEX
  5
13C
330
FA
100
AcDbEntity
  8
OracDecor_skirtings
 62
   153
420
  5804257
100
AcDbVertex
100
AcDb3dPolylineVertex
 10
-0.0000029492989597
 20
15.52586650848389
 30
125.3399658203125
 70
    32
  0
VERTEX
  5
13D
330
FA
100
AcDbEntity
  8
OracDecor_skirtings
 62
   153
420
  5804257
100
AcDbVertex
100
AcDb3dPolylineVertex
 10
-0.0000028063143418
 20
16.29805374145508
 30
124.9469451904297
 70
    32
  0
VERTEX
  5
13E
330
FA
100
AcDbEntity
  8
OracDecor_skirtings
 62
   153
420
  5804257
100
AcDbVertex
100
AcDb3dPolylineVertex
 10
-0.0000026566583529
 20
17.09699249267578
 30
124.5010070800781
 70
    32
  0
VERTEX
  5
13F
330
FA
100
AcDbEntity
  8
OracDecor_skirtings
 62
   153
420
  5804257
100
AcDbVertex
100
AcDb3dPolylineVertex
 10
-0.0000025061240194
 20
17.88244247436523
 30
123.9847106933593
 70
    32
  0
VERTEX
  5
140
330
FA
100
AcDbEntity
  8
OracDecor_skirtings
 62
   153
420
  5804257
100
AcDbVertex
100
AcDb3dPolylineVertex
 10
-0.0000023430848159
 20
18.70142555236816
 30
123.3073196411132
 70
    32
  0
VERTEX
  5
141
330
FA
100
AcDbEntity
  8
OracDecor_skirtings
 62
   153
420
  5804257
100
AcDbVertex
100
AcDb3dPolylineVertex
 10
-0.0000021950700102
 20
19.39992332458496
 30
122.5245590209961
 70
    32
  0
VERTEX
  5
142
330
FA
100
AcDbEntity
  8
OracDecor_skirtings
 62
   153
420
  5804257
100
AcDbVertex
100
AcDb3dPolylineVertex
 10
-0.0000020604252313
 20
19.97479629516601
 30
121.5869140625
 70
    32
  0
VERTEX
  5
143
330
FA
100
AcDbEntity
  8
OracDecor_skirtings
 62
   153
420
  5804257
100
AcDbVertex
100
AcDb3dPolylineVertex
 10
-0.0000019402873477
 20
20.3970890045166
 30
120.4124450683593
 70
    32
  0
VERTEX
  5
144
330
FA
100
AcDbEntity
  8
OracDecor_skirtings
 62
   153
420
  5804257
100
AcDbVertex
100
AcDb3dPolylineVertex
 10
-0.0000018612734038
 20
20.55498695373535
 30
119.1933288574219
 70
    32
  0
VERTEX
  5
145
330
FA
100
AcDbEntity
  8
OracDecor_skirtings
 62
   153
420
  5804257
100
AcDbVertex
100
AcDb3dPolylineVertex
 10
-0.0000018308267045
 20
20.40511512756348
 30
117.9381942749023
 70
    32
  0
VERTEX
  5
146
330
FA
100
AcDbEntity
  8
OracDecor_skirtings
 62
   153
420
  5804257
100
AcDbVertex
100
AcDb3dPolylineVertex
 10
-0.0000018633152195
 20
19.8404598236084
 30
116.5768661499023
 70
    32
  0
VERTEX
  5
147
330
FA
100
AcDbEntity
  8
OracDecor_skirtings
 62
   153
420
  5804257
100
AcDbVertex
100
AcDb3dPolylineVertex
 10
-0.0000019824001356
 20
18.75041961669922
 30
115.2384262084961
 70
    32
  0
VERTEX
  5
148
330
FA
100
AcDbEntity
  8
OracDecor_skirtings
 62
   153
420
  5804257
100
AcDbVertex
100
AcDb3dPolylineVertex
 10
-0.0000022052752229
 20
17.04592132568359
 30
113.9842224121093
 70
    32
  0
VERTEX
  5
149
330
FA
100
AcDbEntity
  8
OracDecor_skirtings
 62
   153
420
  5804257
100
AcDbVertex
100
AcDb3dPolylineVertex
 10
-0.0000023876384603
 20
15.74651718139648
 30
113.3130722045898
 70
    32
  0
VERTEX
  5
14A
330
FA
100
AcDbEntity
  8
OracDecor_skirtings
 62
   153
420
  5804257
100
AcDbVertex
100
AcDb3dPolylineVertex
 10
-0.0000024770990876
 20
15.1266565322876
 30
113.0493545532226
 70
    32
  0
VERTEX
  5
14B
330
FA
100
AcDbEntity
  8
OracDecor_skirtings
 62
   153
420
  5804257
100
AcDbVertex
100
AcDb3dPolylineVertex
 10
-0.000002488854534
 20
15.03475666046142
 30
112.9757690429687
 70
    32
  0
VERTEX
  5
14C
330
FA
100
AcDbEntity
  8
OracDecor_skirtings
 62
   153
420
  5804257
100
AcDbVertex
100
AcDb3dPolylineVertex
 10
-0.0000024896025934
 20
14.99998760223389
 30
112.86328125
 70
    32
  0
VERTEX
  5
14D
330
FA
100
AcDbEntity
  8
OracDecor_skirtings
 62
   153
420
  5804257
100
AcDbVertex
100
AcDb3dPolylineVertex
 10
-0.0000023549725938
 20
15.07944011688232
 30
110.0794448852539
 70
    32
  0
VERTEX
  5
14E
330
FA
100
AcDbEntity
  8
OracDecor_skirtings
 62
   153
420
  5804257
100
AcDbVertex
100
AcDb3dPolylineVertex
 10
-0.0000018851542336
 20
17.92053413391113
 30
109.9205551147461
 70
    32
  0
VERTEX
  5
14F
330
FA
100
AcDbEntity
  8
OracDecor_skirtings
 62
   153
420
  5804257
100
AcDbVertex
100
AcDb3dPolylineVertex
 10
-0.00000175308287
 20
17.99998664855957
 30
107.1952438354492
 70
    32
  0
VERTEX
  5
150
330
FA
100
AcDbEntity
  8
OracDecor_skirtings
 62
   153
420
  5804257
100
AcDbVertex
100
AcDb3dPolylineVertex
 10
-0.0000017380484678
 20
18.05523681640625
 30
107.0572280883789
 70
    32
  0
VERTEX
  5
151
330
FA
100
AcDbEntity
  8
OracDecor_skirtings
 62
   153
420
  5804257
100
AcDbVertex
100
AcDb3dPolylineVertex
 10
-0.0000017133179426
 20
18.19046211242676
 30
106.9954681396484
 70
    32
  0
VERTEX
  5
152
330
FA
100
AcDbEntity
  8
OracDecor_skirtings
 62
   153
420
  5804257
100
AcDbVertex
100
AcDb3dPolylineVertex
 10
-0.0000015092412013
 20
19.37850761413574
 30
106.7548065185547
 70
    32
  0
VERTEX
  5
153
330
FA
100
AcDbEntity
  8
OracDecor_skirtings
 62
   153
420
  5804257
100
AcDbVertex
100
AcDb3dPolylineVertex
 10
-0.0000013104929621
 20
20.44115257263184
 30
106.1686553955078
 70
    32
  0
VERTEX
  5
154
330
FA
100
AcDbEntity
  8
OracDecor_skirtings
 62
   153
420
  5804257
100
AcDbVertex
100
AcDb3dPolylineVertex
 10
-0.0000011354127309
 20
21.2799072265625
 30
105.2894897460937
 70
    32
  0
VERTEX
  5
155
330
FA
100
AcDbEntity
  8
OracDecor_skirtings
 62
   153
420
  5804257
100
AcDbVertex
100
AcDb3dPolylineVertex
 10
-0.0000010005535387
 20
21.81548118591309
 30
104.2004623413086
 70
    32
  0
VERTEX
  5
156
330
FA
100
AcDbEntity
  8
OracDecor_skirtings
 62
   153
420
  5804257
100
AcDbVertex
100
AcDb3dPolylineVertex
 10
-0.0000009180205325
 20
21.99998664855957
 30
103.0000076293945
 70
    32
  0
VERTEX
  5
157
330
FA
100
AcDbEntity
  8
OracDecor_skirtings
 62
   153
420
  5804257
100
AcDbVertex
100
AcDb3dPolylineVertex
 10
-0.0000002304427653
 20
21.99999618530274
 30
0.0000019233009425
 70
    32
  0
VERTEX
  5
158
330
FA
100
AcDbEntity
  8
OracDecor_skirtings
 62
   153
420
  5804257
100
AcDbVertex
100
AcDb3dPolylineVertex
 10
-0.0000015012240056
 20
14.19999694824219
 30
0.0000012414033108
 70
    32
  0
VERTEX
  5
159
330
FA
100
AcDbEntity
  8
OracDecor_skirtings
 62
   153
420
  5804257
100
AcDbVertex
100
AcDb3dPolylineVertex
 10
-0.0000015259695374
 20
14.06575298309326
 30
0.0657589808106423
 70
    32
  0
VERTEX
  5
15A
330
FA
100
AcDbEntity
  8
OracDecor_skirtings
 62
   153
420
  5804257
100
AcDbVertex
100
AcDb3dPolylineVertex
 10
-0.0000015425505353
 20
13.99999713897705
 30
0.1999981850385666
 70
    32
  0
VERTEX
  5
15B
330
FA
100
AcDbEntity
  8
OracDecor_skirtings
 62
   153
420
  5804257
100
AcDbVertex
100
AcDb3dPolylineVertex
 10
-0.0000018448961328
 20
13.99999618530273
 30
7.116860389709472
 70
    32
  0
VERTEX
  5
15C
330
FA
100
AcDbEntity
  8
OracDecor_skirtings
 62
   153
420
  5804257
100
AcDbVertex
100
AcDb3dPolylineVertex
 10
-0.0000018497760266
 20
14.06541156768799
 30
7.47231388092041
 70
    32
  0
VERTEX
  5
15D
330
FA
100
AcDbEntity
  8
OracDecor_skirtings
 62
   153
420
  5804257
100
AcDbVertex
100
AcDb3dPolylineVertex
 10
-0.0000018326941245
 20
14.25331974029541
 30
7.781891822814941
 70
    32
  0
VERTEX
  5
15E
330
FA
100
AcDbEntity
  8
OracDecor_skirtings
 62
   153
420
  5804257
100
AcDbVertex
100
AcDb3dPolylineVertex
 10
-0.0000017959471279
 20
14.5384578704834
 30
8.003984451293945
 70
    32
  0
VERTEX
  5
15F
330
FA
100
AcDbEntity
  8
OracDecor_skirtings
 62
   153
420
  5804257
100
AcDbVertex
100
AcDb3dPolylineVertex
 10
-0.0000017132483663
 20
15.18010330200195
 30
8.503595352172851
 70
    32
  0
VERTEX
  5
160
330
FA
100
AcDbEntity
  8
OracDecor_skirtings
 62
   153
420
  5804257
100
AcDbVertex
100
AcDb3dPolylineVertex
 10
-0.0000016748301732
 20
15.60248851776123
 30
9.198999404907226
 70
    32
  0
VERTEX
  5
161
330
FA
100
AcDbEntity
  8
OracDecor_skirtings
 62
   153
420
  5804257
100
AcDbVertex
100
AcDb3dPolylineVertex
 10
-0.0000016858111849
 20
15.74999618530273
 30
10.00000190734863
 70
    32
  0
VERTEX
  5
162
330
FA
100
AcDbEntity
  8
OracDecor_skirtings
 62
   153
420
  5804257
100
AcDbVertex
100
AcDb3dPolylineVertex
 10
-0.0000017448560357
 20
15.60248851776123
 30
10.80100440979004
 70
    32
  0
VERTEX
  5
163
330
FA
100
AcDbEntity
  8
OracDecor_skirtings
 62
   153
420
  5804257
100
AcDbVertex
100
AcDb3dPolylineVertex
 10
-0.0000018440684926
 20
15.18010330200195
 30
11.49640846252441
 70
    32
  0
VERTEX
  5
164
330
FA
100
AcDbEntity
  8
OracDecor_skirtings
 62
   153
420
  5804257
100
AcDbVertex
100
AcDb3dPolylineVertex
 10
-0.000001970444373
 20
14.5384578704834
 30
11.99601936340332
 70
    32
  0
VERTEX
  5
165
330
FA
100
AcDbEntity
  8
OracDecor_skirtings
 62
   153
420
  5804257
100
AcDbVertex
100
AcDb3dPolylineVertex
 10
-0.0000020266072625
 20
14.25331974029541
 30
12.21811103820801
 70
    32
  0
VERTEX
  5
166
330
FA
100
AcDbEntity
  8
OracDecor_skirtings
 62
   153
420
  5804257
100
AcDbVertex
100
AcDb3dPolylineVertex
 10
-0.0000020707534532
 20
14.06541156768799
 30
12.52768898010254
 70
    32
  0
VERTEX
  5
167
330
FA
100
AcDbEntity
  8
OracDecor_skirtings
 62
   153
420
  5804257
100
AcDbVertex
100
AcDb3dPolylineVertex
 10
-0.0000020969482648
 20
13.99999618530273
 30
12.88314247131348
 70
    32
  0
VERTEX
  5
168
330
FA
100
AcDbEntity
  8
OracDecor_skirtings
 62
   153
420
  5804257
100
AcDbVertex
100
AcDb3dPolylineVertex
 10
-0.0000022820102004
 20
13.99999523162842
 30
17.11686134338379
 70
    32
  0
VERTEX
  5
169
330
FA
100
AcDbEntity
  8
OracDecor_skirtings
 62
   153
420
  5804257
100
AcDbVertex
100
AcDb3dPolylineVertex
 10
-0.0000022868900942
 20
14.06541061401367
 30
17.47231483459472
 70
    32
  0
VERTEX
  5
16A
330
FA
100
AcDbEntity
  8
OracDecor_skirtings
 62
   153
420
  5804257
100
AcDbVertex
100
AcDb3dPolylineVertex
 10
-0.0000022698081921
 20
14.25331878662109
 30
17.78190040588379
 70
    32
  0
VERTEX
  5
16B
330
FA
100
AcDbEntity
  8
OracDecor_skirtings
 62
   153
420
  5804257
100
AcDbVertex
100
AcDb3dPolylineVertex
 10
-0.0000022330609681
 20
14.53845691680908
 30
18.00398445129394
 70
    32
  0
VERTEX
  5
16C
330
FA
100
AcDbEntity
  8
OracDecor_skirtings
 62
   153
420
  5804257
100
AcDbVertex
100
AcDb3dPolylineVertex
 10
-0.0000021503624339
 20
15.18010234832764
 30
18.50359535217285
 70
    32
  0
VERTEX
  5
16D
330
FA
100
AcDbEntity
  8
OracDecor_skirtings
 62
   153
420
  5804257
100
AcDbVertex
100
AcDb3dPolylineVertex
 10
-0.0000021119442408
 20
15.60248756408691
 30
19.19899940490722
 70
    32
  0
VERTEX
  5
16E
330
FA
100
AcDbEntity
  8
OracDecor_skirtings
 62
   153
420
  5804257
100
AcDbVertex
100
AcDb3dPolylineVertex
 10
-0.0000021229252525
 20
15.74999523162842
 30
20.00000190734863
 70
    32
  0
VERTEX
  5
16F
330
FA
100
AcDbEntity
  8
OracDecor_skirtings
 62
   153
420
  5804257
100
AcDbVertex
100
AcDb3dPolylineVertex
 10
-0.0000021819701033
 20
15.60248756408691
 30
20.80100440979004
 70
    32
  0
VERTEX
  5
170
330
FA
100
AcDbEntity
  8
OracDecor_skirtings
 62
   153
420
  5804257
100
AcDbVertex
100
AcDb3dPolylineVertex
 10
-0.0000022811825602
 20
15.18010234832764
 30
21.49640846252442
 70
    32
  0
VERTEX
  5
171
330
FA
100
AcDbEntity
  8
OracDecor_skirtings
 62
   153
420
  5804257
100
AcDbVertex
100
AcDb3dPolylineVertex
 10
-0.0000024075584406
 20
14.53845691680908
 30
21.99601936340332
 70
    32
  0
VERTEX
  5
172
330
FA
100
AcDbEntity
  8
OracDecor_skirtings
 62
   153
420
  5804257
100
AcDbVertex
100
AcDb3dPolylineVertex
 10
-0.0000024637208753
 20
14.25331878662109
 30
22.21810340881348
 70
    32
  0
VERTEX
  5
173
330
FA
100
AcDbEntity
  8
OracDecor_skirtings
 62
   153
420
  5804257
100
AcDbVertex
100
AcDb3dPolylineVertex
 10
-0.0000025078675208
 20
14.06541061401367
 30
22.52768898010254
 70
    32
  0
VERTEX
  5
174
330
FA
100
AcDbEntity
  8
OracDecor_skirtings
 62
   153
420
  5804257
100
AcDbVertex
100
AcDb3dPolylineVertex
 10
-0.0000025340623324
 20
13.99999523162842
 30
22.88314247131348
 70
    32
  0
VERTEX
  5
175
330
FA
100
AcDbEntity
  8
OracDecor_skirtings
 62
   153
420
  5804257
100
AcDbVertex
100
AcDb3dPolylineVertex
 10
-0.0000027191240406
 20
13.99999523162842
 30
27.11686134338379
 70
    32
  0
VERTEX
  5
176
330
FA
100
AcDbEntity
  8
OracDecor_skirtings
 62
   153
420
  5804257
100
AcDbVertex
100
AcDb3dPolylineVertex
 10
-0.0000027240039344
 20
14.06540966033935
 30
27.47231483459473
 70
    32
  0
VERTEX
  5
177
330
FA
100
AcDbEntity
  8
OracDecor_skirtings
 62
   153
420
  5804257
100
AcDbVertex
100
AcDb3dPolylineVertex
 10
-0.0000027069222597
 20
14.25331783294678
 30
27.78190040588379
 70
    32
  0
VERTEX
  5
178
330
FA
100
AcDbEntity
  8
OracDecor_skirtings
 62
   153
420
  5804257
100
AcDbVertex
100
AcDb3dPolylineVertex
 10
-0.0000026701750357
 20
14.53845596313476
 30
28.00398445129395
 70
    32
  0
VERTEX
  5
179
330
FA
100
AcDbEntity
  8
OracDecor_skirtings
 62
   153
420
  5804257
100
AcDbVertex
100
AcDb3dPolylineVertex
 10
-0.0000025874765015
 20
15.18010139465332
 30
28.50359535217285
 70
    32
  0
VERTEX
  5
17A
330
FA
100
AcDbEntity
  8
OracDecor_skirtings
 62
   153
420
  5804257
100
AcDbVertex
100
AcDb3dPolylineVertex
 10
-0.0000025490580811
 20
15.6024866104126
 30
29.19899940490723
 70
    32
  0
VERTEX
  5
17B
330
FA
100
AcDbEntity
  8
OracDecor_skirtings
 62
   153
420
  5804257
100
AcDbVertex
100
AcDb3dPolylineVertex
 10
-0.0000025600390927
 20
15.7499942779541
 30
30.00000190734863
 70
    32
  0
VERTEX
  5
17C
330
FA
100
AcDbEntity
  8
OracDecor_skirtings
 62
   153
420
  5804257
100
AcDbVertex
100
AcDb3dPolylineVertex
 10
-0.0000026190841709
 20
15.6024866104126
 30
30.80100440979004
 70
    32
  0
VERTEX
  5
17D
330
FA
100
AcDbEntity
  8
OracDecor_skirtings
 62
   153
420
  5804257
100
AcDbVertex
100
AcDb3dPolylineVertex
 10
-0.0000027182964004
 20
15.18010139465332
 30
31.49640846252442
 70
    32
  0
VERTEX
  5
17E
330
FA
100
AcDbEntity
  8
OracDecor_skirtings
 62
   153
420
  5804257
100
AcDbVertex
100
AcDb3dPolylineVertex
 10
-0.0000028446725082
 20
14.53845596313476
 30
31.99601936340332
 70
    32
  0
VERTEX
  5
17F
330
FA
100
AcDbEntity
  8
OracDecor_skirtings
 62
   153
420
  5804257
100
AcDbVertex
100
AcDb3dPolylineVertex
 10
-0.0000029008349429
 20
14.25331783294678
 30
32.21810150146485
 70
    32
  0
VERTEX
  5
180
330
FA
100
AcDbEntity
  8
OracDecor_skirtings
 62
   153
420
  5804257
100
AcDbVertex
100
AcDb3dPolylineVertex
 10
-0.000002944981361
 20
14.06540966033935
 30
32.52768707275391
 70
    32
  0
VERTEX
  5
181
330
FA
100
AcDbEntity
  8
OracDecor_skirtings
 62
   153
420
  5804257
100
AcDbVertex
100
AcDb3dPolylineVertex
 10
-0.0000029711764
 20
13.9999942779541
 30
32.88314056396484
 70
    32
  0
VERTEX
  5
182
330
FA
100
AcDbEntity
  8
OracDecor_skirtings
 62
   153
420
  5804257
100
AcDbVertex
100
AcDb3dPolylineVertex
 10
-0.0000031562381082
 20
13.9999942779541
 30
37.11685943603516
 70
    32
  0
VERTEX
  5
183
330
FA
100
AcDbEntity
  8
OracDecor_skirtings
 62
   153
420
  5804257
100
AcDbVertex
100
AcDb3dPolylineVertex
 10
-0.000003161118002
 20
14.06540966033935
 30
37.4723129272461
 70
    32
  0
VERTEX
  5
184
330
FA
100
AcDbEntity
  8
OracDecor_skirtings
 62
   153
420
  5804257
100
AcDbVertex
100
AcDb3dPolylineVertex
 10
-0.0000031440358725
 20
14.25331783294678
 30
37.78189468383789
 70
    32
  0
VERTEX
  5
185
330
FA
100
AcDbEntity
  8
OracDecor_skirtings
 62
   153
420
  5804257
100
AcDbVertex
100
AcDb3dPolylineVertex
 10
-0.0000031072886486
 20
14.53845596313476
 30
38.00397872924805
 70
    32
  0
VERTEX
  5
186
330
FA
100
AcDbEntity
  8
OracDecor_skirtings
 62
   153
420
  5804257
100
AcDbVertex
100
AcDb3dPolylineVertex
 10
-0.0000030245903417
 20
15.180100440979
 30
38.50358963012695
 70
    32
  0
VERTEX
  5
187
330
FA
100
AcDbEntity
  8
OracDecor_skirtings
 62
   153
420
  5804257
100
AcDbVertex
100
AcDb3dPolylineVertex
 10
-0.0000029861721487
 20
15.60248565673828
 30
39.1989974975586
 70
    32
  0
VERTEX
  5
188
330
FA
100
AcDbEntity
  8
OracDecor_skirtings
 62
   153
420
  5804257
100
AcDbVertex
100
AcDb3dPolylineVertex
 10
-0.0000029971531603
 20
15.74999332427978
 30
40.0
 70
    32
  0
VERTEX
  5
189
330
FA
100
AcDbEntity
  8
OracDecor_skirtings
 62
   153
420
  5804257
100
AcDbVertex
100
AcDb3dPolylineVertex
 10
-0.0000030561982385
 20
15.60248565673828
 30
40.8010025024414
 70
    32
  0
VERTEX
  5
18A
330
FA
100
AcDbEntity
  8
OracDecor_skirtings
 62
   153
420
  5804257
100
AcDbVertex
100
AcDb3dPolylineVertex
 10
-0.000003155410468
 20
15.180100440979
 30
41.49641036987304
 70
    32
  0
VERTEX
  5
18B
330
FA
100
AcDbEntity
  8
OracDecor_skirtings
 62
   153
420
  5804257
100
AcDbVertex
100
AcDb3dPolylineVertex
 10
-0.0000032817865758
 20
14.53845500946045
 30
41.99602127075195
 70
    32
  0
VERTEX
  5
18C
330
FA
100
AcDbEntity
  8
OracDecor_skirtings
 62
   153
420
  5804257
100
AcDbVertex
100
AcDb3dPolylineVertex
 10
-0.0000033379492379
 20
14.25331687927246
 30
42.21810531616211
 70
    32
  0
VERTEX
  5
18D
330
FA
100
AcDbEntity
  8
OracDecor_skirtings
 62
   153
420
  5804257
100
AcDbVertex
100
AcDb3dPolylineVertex
 10
-0.0000033820954286
 20
14.06540870666504
 30
42.5276870727539
 70
    32
  0
SEQEND
  5
18E
330
FA
100
AcDbEntity
  8
OracDecor_skirtings
 62
   153
420
  5804257
  0
ENDSEC
  0
SECTION
  2
OBJECTS
  0
DICTIONARY
  5
C
330
0
100
AcDbDictionary
281
     1
  3
ACAD_COLOR
350
DC
  3
ACAD_DETAILVIEWSTYLE
350
F5
  3
ACAD_GROUP
350
D
  3
ACAD_LAYOUT
350
1A
  3
ACAD_MATERIAL
350
AA
  3
ACAD_MLEADERSTYLE
350
F1
  3
ACAD_MLINESTYLE
350
17
  3
ACAD_PLOTSETTINGS
350
19
  3
ACAD_PLOTSTYLENAME
350
E
  3
ACAD_SCALELIST
350
DF
  3
ACAD_SECTIONVIEWSTYLE
350
F3
  3
ACAD_TABLESTYLE
350
DD
  3
ACAD_VISUALSTYLE
350
C3
  3
ACDB_RECOMPOSE_DATA
350
19B
  3
AcDbVariableDictionary
350
18F
  0
DICTIONARY
  5
DC
102
{ACAD_REACTORS
330
C
102
}
330
C
100
AcDbDictionary
281
     1
  0
DICTIONARY
  5
F5
102
{ACAD_REACTORS
330
C
102
}
330
C
100
AcDbDictionary
281
     1
  3
Imperial24
350
F6
  0
DICTIONARY
  5
D
102
{ACAD_REACTORS
330
C
102
}
330
C
100
AcDbDictionary
281
     1
  0
DICTIONARY
  5
1A
102
{ACAD_REACTORS
330
C
102
}
330
C
100
AcDbDictionary
281
     1
  3
Layout1
350
1E
  3
Layout2
350
26
  3
Model
350
22
  0
DICTIONARY
  5
AA
102
{ACAD_REACTORS
330
C
102
}
330
C
100
AcDbDictionary
281
     1
  3
ByBlock
350
B3
  3
ByLayer
350
AB
  3
Global
350
BB
  0
DICTIONARY
  5
F1
102
{ACAD_REACTORS
330
C
102
}
330
C
100
AcDbDictionary
281
     1
  3
Standard
350
F2
  0
DICTIONARY
  5
17
102
{ACAD_REACTORS
330
C
102
}
330
C
100
AcDbDictionary
281
     1
  3
Standard
350
18
  0
DICTIONARY
  5
19
102
{ACAD_REACTORS
330
C
102
}
330
C
100
AcDbDictionary
281
     1
  0
ACDBDICTIONARYWDFLT
  5
E
102
{ACAD_REACTORS
330
C
102
}
330
C
100
AcDbDictionary
281
     1
  3
ByLayer
350
2D
  3
Normal
350
F
100
AcDbDictionaryWithDefault
340
F
  0
DICTIONARY
  5
DF
102
{ACAD_REACTORS
330
C
102
}
330
C
100
AcDbDictionary
281
     1
  3
A0
350
E0
  3
A1
350
E1
  3
A2
350
E2
  3
A3
350
E3
  3
A4
350
E4
  3
A5
350
E5
  3
A6
350
E6
  3
A7
350
E7
  3
A8
350
E8
  3
A9
350
E9
  3
B0
350
EA
  3
B1
350
EB
  3
B2
350
EC
  3
B3
350
ED
  3
B4
350
EE
  3
B5
350
EF
  3
B6
350
F0
  0
DICTIONARY
  5
F3
102
{ACAD_REACTORS
330
C
102
}
330
C
100
AcDbDictionary
281
     1
  3
Imperial24
350
F4
  0
DICTIONARY
  5
DD
102
{ACAD_REACTORS
330
C
102
}
330
C
100
AcDbDictionary
281
     1
  3
Standard
350
DE
  0
DICTIONARY
  5
C3
102
{ACAD_REACTORS
330
C
102
}
330
C
100
AcDbDictionary
281
     1
  3
2dWireframe
350
C9
  3
Basic
350
C8
  3
Brighten
350
CF
  3
ColorChange
350
D3
  3
Conceptual
350
CC
  3
Dim
350
CE
  3
EdgeColorOff
350
DB
  3
Facepattern
350
D2
  3
Flat
350
C4
  3
FlatWithEdges
350
C5
  3
Gouraud
350
C6
  3
GouraudWithEdges
350
C7
  3
Hidden
350
CB
  3
JitterOff
350
D9
  3
Linepattern
350
D1
  3
OverhangOff
350
DA
  3
Realistic
350
CD
  3
Shaded
350
D8
  3
Shaded with edges
350
D7
  3
Shades of Gray
350
D4
  3
Sketchy
350
D5
  3
Thicken
350
D0
  3
Wireframe
350
CA
  3
X-Ray
350
D6
  0
XRECORD
  5
19B
102
{ACAD_REACTORS
330
C
102
}
330
C
100
AcDbXrecord
280
     1
 90
        1
330
DE
  0
DICTIONARY
  5
18F
102
{ACAD_REACTORS
330
C
102
}
330
C
100
AcDbDictionary
281
     1
  3
CANNOSCALE
350
195
  3
CMLEADERSTYLE
350
191
  3
CTABLESTYLE
350
190
  3
CVIEWDETAILSTYLE
350
192
  3
CVIEWSECTIONSTYLE
350
193
  3
LAYEREVAL
350
197
  3
LAYERNOTIFY
350
198
  3
LIGHTINGUNITS
350
196
  3
MSLTSCALE
350
194
  0
ACDBDETAILVIEWSTYLE
  5
F6
102
{ACAD_XDICTIONARY
360
1D0
102
}
102
{ACAD_REACTORS
330
F5
102
}
330
F5
100
AcDbModelDocViewStyle
 70
     0
  3
Imperial24
290
     0
100
AcDbDetailViewStyle
 70
     0
 71
     0
 90
        3
 71
     1
340
11
 62
   256
 40
0.24
340
0
 62
   256
 40
0.24
300

 40
0.36
280
     3
 71
     2
340
16
 90
       25
 62
   256
 71
     3
340
11
 62
   256
 40
0.24
 90
        1
 40
0.75
 90
        1
300
%<\AcVar ViewType \f "%tc1">% %<\AcVar ViewDetailId>%\PSCALE %<\AcVar ViewScale \f "%sn">%
 71
     4
340
16
 90
       25
 62
   256
340
16
 90
       25
 62
   256
280
     0
  0
LAYOUT
  5
1E
102
{ACAD_REACTORS
330
1A
102
}
330
1A
100
AcDbPlotSettings
  1

  2
\\KTXNTBDC\CASF2PN1
  4

  6

 40
0.0
 41
0.0
 42
0.0
 43
0.0
 44
0.0
 45
0.0
 46
0.0
 47
0.0
 48
0.0
 49
0.0
140
0.0
141
0.0
142
1.0
143
1.0
 70
   688
 72
     0
 73
     0
 74
     5
  7

 75
    16
147
1.0
 76
     0
 77
     2
 78
   300
148
0.0
149
0.0
100
AcDbLayout
  1
Layout1
 70
     1
 71
     1
 10
0.0
 20
0.0
 11
12.0
 21
9.0
 12
0.0
 22
0.0
 32
0.0
 14
1.000000000000000E+20
 24
1.000000000000000E+20
 34
1.000000000000000E+20
 15
-1.000000000000000E+20
 25
-1.000000000000000E+20
 35
-1.000000000000000E+20
146
0.0
 13
0.0
 23
0.0
 33
0.0
 16
1.0
 26
0.0
 36
0.0
 17
0.0
 27
1.0
 37
0.0
 76
     0
330
1B
  0
LAYOUT
  5
26
102
{ACAD_REACTORS
330
1A
102
}
330
1A
100
AcDbPlotSettings
  1

  2
\\KTXNTBDC\CASF2PN1
  4

  6

 40
0.0
 41
0.0
 42
0.0
 43
0.0
 44
0.0
 45
0.0
 46
0.0
 47
0.0
 48
0.0
 49
0.0
140
0.0
141
0.0
142
1.0
143
1.0
 70
   688
 72
     0
 73
     0
 74
     5
  7

 75
    16
147
1.0
 76
     0
 77
     2
 78
   300
148
0.0
149
0.0
100
AcDbLayout
  1
Layout2
 70
     1
 71
     2
 10
0.0
 20
0.0
 11
12.0
 21
9.0
 12
0.0
 22
0.0
 32
0.0
 14
0.0
 24
0.0
 34
0.0
 15
0.0
 25
0.0
 35
0.0
146
0.0
 13
0.0
 23
0.0
 33
0.0
 16
1.0
 26
0.0
 36
0.0
 17
0.0
 27
1.0
 37
0.0
 76
     0
330
23
  0
LAYOUT
  5
22
102
{ACAD_REACTORS
330
1A
102
}
330
1A
100
AcDbPlotSettings
  1

  2
\\KTXNTBDC\CASF2PN1
  4

  6

 40
0.0
 41
0.0
 42
0.0
 43
0.0
 44
0.0
 45
0.0
 46
0.0
 47
0.0
 48
0.0
 49
0.0
140
0.0
141
0.0
142
1.0
143
1.0
 70
  1712
 72
     0
 73
     0
 74
     0
  7

 75
     0
147
1.0
 76
     0
 77
     2
 78
   300
148
0.0
149
0.0
100
AcDbLayout
  1
Model
 70
     1
 71
     0
 10
0.0
 20
0.0
 11
12.0
 21
9.0
 12
0.0
 22
0.0
 32
0.0
 14
0.0
 24
0.0
 34
0.0
 15
0.0
 25
0.0
 35
0.0
146
0.0
 13
0.0
 23
0.0
 33
0.0
 16
1.0
 26
0.0
 36
0.0
 17
0.0
 27
1.0
 37
0.0
 76
     0
330
1F
  0
MATERIAL
  5
B3
102
{ACAD_XDICTIONARY
360
B4
102
}
102
{ACAD_REACTORS
330
AA
102
}
330
AA
100
AcDbMaterial
  1
ByBlock
 72
     0
 43
0.0208333333333333
 43
0.0
 43
0.0
 43
0.0
 43
0.0
 43
0.0208333333333333
 43
0.0
 43
0.0
 43
0.0
 43
0.0
 43
1.0
 43
0.0
 43
0.0
 43
0.0
 43
0.0
 43
1.0
 77
     0
 47
0.0208333333333333
 47
0.0
 47
0.0
 47
0.0
 47
0.0
 47
0.0208333333333333
 47
0.0
 47
0.0
 47
0.0
 47
0.0
 47
1.0
 47
0.0
 47
0.0
 47
0.0
 47
0.0
 47
1.0
171
     0
 49
0.0208333333333333
 49
0.0
 49
0.0
 49
0.0
 49
0.0
 49
0.0208333333333333
 49
0.0
 49
0.0
 49
0.0
 49
0.0
 49
1.0
 49
0.0
 49
0.0
 49
0.0
 49
0.0
 49
1.0
175
     0
142
0.0208333333333333
142
0.0
142
0.0
142
0.0
142
0.0
142
0.0208333333333333
142
0.0
142
0.0
142
0.0
142
0.0
142
1.0
142
0.0
142
0.0
142
0.0
142
0.0
142
1.0
179
     0
144
0.0208333333333333
144
0.0
144
0.0
144
0.0
144
0.0
144
0.0208333333333333
144
0.0
144
0.0
144
0.0
144
0.0
144
1.0
144
0.0
144
0.0
144
0.0
144
0.0
144
1.0
147
0.0208333333333333
147
0.0
147
0.0
147
0.0
147
0.0
147
0.0208333333333333
147
0.0
147
0.0
147
0.0
147
0.0
147
1.0
147
0.0
147
0.0
147
0.0
147
0.0
147
1.0
  0
MATERIAL
  5
AB
102
{ACAD_XDICTIONARY
360
AC
102
}
102
{ACAD_REACTORS
330
AA
102
}
330
AA
100
AcDbMaterial
  1
ByLayer
 72
     0
 43
0.0208333333333333
 43
0.0
 43
0.0
 43
0.0
 43
0.0
 43
0.0208333333333333
 43
0.0
 43
0.0
 43
0.0
 43
0.0
 43
1.0
 43
0.0
 43
0.0
 43
0.0
 43
0.0
 43
1.0
 77
     0
 47
0.0208333333333333
 47
0.0
 47
0.0
 47
0.0
 47
0.0
 47
0.0208333333333333
 47
0.0
 47
0.0
 47
0.0
 47
0.0
 47
1.0
 47
0.0
 47
0.0
 47
0.0
 47
0.0
 47
1.0
171
     0
 49
0.0208333333333333
 49
0.0
 49
0.0
 49
0.0
 49
0.0
 49
0.0208333333333333
 49
0.0
 49
0.0
 49
0.0
 49
0.0
 49
1.0
 49
0.0
 49
0.0
 49
0.0
 49
0.0
 49
1.0
175
     0
142
0.0208333333333333
142
0.0
142
0.0
142
0.0
142
0.0
142
0.0208333333333333
142
0.0
142
0.0
142
0.0
142
0.0
142
1.0
142
0.0
142
0.0
142
0.0
142
0.0
142
1.0
179
     0
144
0.0208333333333333
144
0.0
144
0.0
144
0.0
144
0.0
144
0.0208333333333333
144
0.0
144
0.0
144
0.0
144
0.0
144
1.0
144
0.0
144
0.0
144
0.0
144
0.0
144
1.0
147
0.0208333333333333
147
0.0
147
0.0
147
0.0
147
0.0
147
0.0208333333333333
147
0.0
147
0.0
147
0.0
147
0.0
147
1.0
147
0.0
147
0.0
147
0.0
147
0.0
147
1.0
  0
MATERIAL
  5
BB
102
{ACAD_XDICTIONARY
360
BC
102
}
102
{ACAD_REACTORS
330
AA
102
}
330
AA
100
AcDbMaterial
  1
Global
 72
     0
 43
0.0208333333333333
 43
0.0
 43
0.0
 43
0.0
 43
0.0
 43
0.0208333333333333
 43
0.0
 43
0.0
 43
0.0
 43
0.0
 43
1.0
 43
0.0
 43
0.0
 43
0.0
 43
0.0
 43
1.0
 77
     0
 47
0.0208333333333333
 47
0.0
 47
0.0
 47
0.0
 47
0.0
 47
0.0208333333333333
 47
0.0
 47
0.0
 47
0.0
 47
0.0
 47
1.0
 47
0.0
 47
0.0
 47
0.0
 47
0.0
 47
1.0
171
     0
 49
0.0208333333333333
 49
0.0
 49
0.0
 49
0.0
 49
0.0
 49
0.0208333333333333
 49
0.0
 49
0.0
 49
0.0
 49
0.0
 49
1.0
 49
0.0
 49
0.0
 49
0.0
 49
0.0
 49
1.0
175
     0
142
0.0208333333333333
142
0.0
142
0.0
142
0.0
142
0.0
142
0.0208333333333333
142
0.0
142
0.0
142
0.0
142
0.0
142
1.0
142
0.0
142
0.0
142
0.0
142
0.0
142
1.0
179
     0
144
0.0208333333333333
144
0.0
144
0.0
144
0.0
144
0.0
144
0.0208333333333333
144
0.0
144
0.0
144
0.0
144
0.0
144
1.0
144
0.0
144
0.0
144
0.0
144
0.0
144
1.0
147
0.0208333333333333
147
0.0
147
0.0
147
0.0
147
0.0
147
0.0208333333333333
147
0.0
147
0.0
147
0.0
147
0.0
147
1.0
147
0.0
147
0.0
147
0.0
147
0.0
147
1.0
  0
MLEADERSTYLE
  5
F2
102
{ACAD_XDICTIONARY
360
1CC
102
}
102
{ACAD_REACTORS
330
F1
102
}
330
F1
100
AcDbMLeaderStyle
179
     2
170
     2
171
     1
172
     0
 90
        2
 40
0.0
 41
0.0
173
     1
 91
-1056964608
340
14
 92
       -2
290
     1
 42
0.09
291
     1
 43
0.36
  3
Standard
 44
0.18
300

342
11
174
     1
178
     6
175
     1
176
     0
 93
-1056964608
 45
0.18
292
     0
297
     0
 46
0.18
 94
-1056964608
 47
1.0
 49
1.0
140
1.0
293
     1
141
0.0
294
     1
177
     0
142
1.0
295
     0
296
     0
143
0.125
271
     0
272
     9
273
     9
  0
MLINESTYLE
  5
18
102
{ACAD_REACTORS
330
17
102
}
330
17
100
AcDbMlineStyle
  2
STANDARD
 70
     0
  3

 62
   256
 51
90.0
 52
90.0
 71
     2
 49
0.5
 62
   256
  6
BYLAYER
 49
-0.5
 62
   256
  6
BYLAYER
  0
ACDBPLACEHOLDER
  5
2D
102
{ACAD_REACTORS
330
E
102
}
330
E
  0
ACDBPLACEHOLDER
  5
F
102
{ACAD_REACTORS
330
E
102
}
330
E
  0
SCALE
  5
E0
102
{ACAD_REACTORS
330
DF
102
}
330
DF
100
AcDbScale
 70
     0
300
1:1
140
1.0
141
1.0
290
     1
  0
SCALE
  5
E1
102
{ACAD_REACTORS
330
DF
102
}
330
DF
100
AcDbScale
 70
     0
300
1/128" = 1'-0"
140
0.0078125
141
12.0
290
     0
  0
SCALE
  5
E2
102
{ACAD_REACTORS
330
DF
102
}
330
DF
100
AcDbScale
 70
     0
300
1/64" = 1'-0"
140
0.015625
141
12.0
290
     0
  0
SCALE
  5
E3
102
{ACAD_REACTORS
330
DF
102
}
330
DF
100
AcDbScale
 70
     0
300
1/32" = 1'-0"
140
0.03125
141
12.0
290
     0
  0
SCALE
  5
E4
102
{ACAD_REACTORS
330
DF
102
}
330
DF
100
AcDbScale
 70
     0
300
1/16" = 1'-0"
140
0.0625
141
12.0
290
     0
  0
SCALE
  5
E5
102
{ACAD_REACTORS
330
DF
102
}
330
DF
100
AcDbScale
 70
     0
300
3/32" = 1'-0"
140
0.09375
141
12.0
290
     0
  0
SCALE
  5
E6
102
{ACAD_REACTORS
330
DF
102
}
330
DF
100
AcDbScale
 70
     0
300
1/8" = 1'-0"
140
0.125
141
12.0
290
     0
  0
SCALE
  5
E7
102
{ACAD_REACTORS
330
DF
102
}
330
DF
100
AcDbScale
 70
     0
300
3/16" = 1'-0"
140
0.1875
141
12.0
290
     0
  0
SCALE
  5
E8
102
{ACAD_REACTORS
330
DF
102
}
330
DF
100
AcDbScale
 70
     0
300
1/4" = 1'-0"
140
0.25
141
12.0
290
     0
  0
SCALE
  5
E9
102
{ACAD_REACTORS
330
DF
102
}
330
DF
100
AcDbScale
 70
     0
300
3/8" = 1'-0"
140
0.375
141
12.0
290
     0
  0
SCALE
  5
EA
102
{ACAD_REACTORS
330
DF
102
}
330
DF
100
AcDbScale
 70
     0
300
1/2" = 1'-0"
140
0.5
141
12.0
290
     0
  0
SCALE
  5
EB
102
{ACAD_REACTORS
330
DF
102
}
330
DF
100
AcDbScale
 70
     0
300
3/4" = 1'-0"
140
0.75
141
12.0
290
     0
  0
SCALE
  5
EC
102
{ACAD_REACTORS
330
DF
102
}
330
DF
100
AcDbScale
 70
     0
300
1" = 1'-0"
140
1.0
141
12.0
290
     0
  0
SCALE
  5
ED
102
{ACAD_REACTORS
330
DF
102
}
330
DF
100
AcDbScale
 70
     0
300
1-1/2" = 1'-0"
140
1.5
141
12.0
290
     0
  0
SCALE
  5
EE
102
{ACAD_REACTORS
330
DF
102
}
330
DF
100
AcDbScale
 70
     0
300
3" = 1'-0"
140
3.0
141
12.0
290
     0
  0
SCALE
  5
EF
102
{ACAD_REACTORS
330
DF
102
}
330
DF
100
AcDbScale
 70
     0
300
6" = 1'-0"
140
6.0
141
12.0
290
     0
  0
SCALE
  5
F0
102
{ACAD_REACTORS
330
DF
102
}
330
DF
100
AcDbScale
 70
     0
300
1'-0" = 1'-0"
140
12.0
141
12.0
290
     0
  0
ACDBSECTIONVIEWSTYLE
  5
F4
102
{ACAD_XDICTIONARY
360
1CE
102
}
102
{ACAD_REACTORS
330
F3
102
}
330
F3
100
AcDbModelDocViewStyle
 70
     0
  3
Imperial24
290
     0
100
AcDbSectionViewStyle
 70
     0
 71
     0
 90
       78
 71
     1
340
11
 62
   256
 40
0.24
340
0
340
0
 62
   256
 40
0.24
300
I, O, Q, S, X, Z
 40
0.48
 90
        3
 40
0.18
 90
        1
 71
     2
340
16
 90
       25
 62
   256
340
16
 90
       50
 62
   256
 40
0.24
 40
0.0
 40
0.24
 71
     3
340
11
 62
   256
 40
0.24
 90
        1
 40
0.75
 90
        1
300
%<\AcVar ViewType \f "%tc1">% %<\AcVar ViewSectionStartId>%-%<\AcVar ViewSectionEndId>%\PSCALE %<\AcVar ViewScale \f "%sn">%
 71
     4
 62
   256
 62
   257
300
ANSI31
 40
1.0
 90
        0
290
     0
290
     0
 90
        6
 40
0.0
 40
1.570796326794896
 40
0.2617993877991494
 40
1.308996938995747
 40
-0.2617993877991494
 40
1.832595714594046
  0
TABLESTYLE
  5
DE
102
{ACAD_XDICTIONARY
360
199
102
}
102
{ACAD_REACTORS
330
DD
102
}
330
DD
100
AcDbTableStyle
280
     0
  3
Standard
 70
     0
 71
     0
 40
0.06
 41
0.06
280
     0
281
     0
  7
Standard
140
0.18
170
     2
 62
     0
 63
     7
283
     0
 90
      512
 91
        0
  1

274
    -2
284
     1
 64
     0
275
    -2
285
     1
 65
     0
276
    -2
286
     1
 66
     0
277
    -2
287
     1
 67
     0
278
    -2
288
     1
 68
     0
279
    -2
289
     1
 69
     0
  7
Standard
140
0.25
170
     5
 62
     0
 63
     7
283
     0
 90
      512
 91
        0
  1

274
    -2
284
     1
 64
     0
275
    -2
285
     1
 65
     0
276
    -2
286
     1
 66
     0
277
    -2
287
     1
 67
     0
278
    -2
288
     1
 68
     0
279
    -2
289
     1
 69
     0
  7
Standard
140
0.18
170
     5
 62
     0
 63
     7
283
     0
 90
      512
 91
        0
  1

274
    -2
284
     1
 64
     0
275
    -2
285
     1
 65
     0
276
    -2
286
     1
 66
     0
277
    -2
287
     1
 67
     0
278
    -2
288
     1
 68
     0
279
    -2
289
     1
 69
     0
  0
VISUALSTYLE
  5
C9
102
{ACAD_XDICTIONARY
360
1A6
102
}
102
{ACAD_REACTORS
330
C3
102
}
330
C3
100
AcDbVisualStyle
  2
2dWireframe
 70
     4
177
     2
291
     0
 71
     0
176
     1
 72
     2
176
     1
 73
     0
176
     1
 90
        0
176
     1
 40
0.6
176
     1
 41
30.0
176
     1
 63
     7
421
 16777215
176
     1
 74
     1
176
     1
 91
        4
176
     1
 64
     7
176
     1
 65
   257
176
     1
 75
     1
176
     1
175
     1
176
     1
 42
1.0
176
     1
 92
        0
176
     1
 66
   257
176
     1
 43
1.0
176
     1
 76
     1
176
     1
 77
     6
176
     1
 78
     2
176
     1
 67
     7
176
     1
 79
     5
176
     1
170
     0
176
     1
171
     0
176
     1
290
     0
176
     1
 93
        1
176
     1
 44
0.0
176
     1
173
     0
176
     1
1001
ACAD
1000
AcDbSavedByObjectVersion
1070
     0
  0
VISUALSTYLE
  5
C8
102
{ACAD_XDICTIONARY
360
1A4
102
}
102
{ACAD_REACTORS
330
C3
102
}
330
C3
100
AcDbVisualStyle
  2
Basic
 70
     7
177
     2
291
     1
 71
     1
176
     1
 72
     0
176
     1
 73
     1
176
     1
 90
        0
176
     1
 40
0.6
176
     1
 41
30.0
176
     1
 63
     7
421
 16777215
176
     1
 74
     0
176
     1
 91
        4
176
     1
 64
     7
176
     1
 65
   257
176
     1
 75
     1
176
     1
175
     1
176
     1
 42
1.0
176
     1
 92
        8
176
     1
 66
     7
176
     1
 43
1.0
176
     1
 76
     1
176
     1
 77
     6
176
     1
 78
     2
176
     1
 67
     7
176
     1
 79
     5
176
     1
170
     0
176
     1
171
     0
176
     1
290
     0
176
     1
 93
        1
176
     1
 44
0.0
176
     1
173
     0
176
     1
1001
ACAD
1000
AcDbSavedByObjectVersion
1070
     0
  0
VISUALSTYLE
  5
CF
102
{ACAD_XDICTIONARY
360
1B2
102
}
102
{ACAD_REACTORS
330
C3
102
}
330
C3
100
AcDbVisualStyle
  2
Brighten
 70
    12
177
     2
291
     1
 71
     2
176
     1
 72
     2
176
     1
 73
     0
176
     1
 90
        0
176
     1
 40
0.6
176
     1
 41
30.0
176
     1
 63
     7
421
 16777215
176
     1
 74
     1
176
     1
 91
        4
176
     1
 64
     7
176
     1
 65
   257
176
     1
 75
     1
176
     1
175
     1
176
     1
 42
1.0
176
     1
 92
        8
176
     1
 66
     7
176
     1
 43
1.0
176
     1
 76
     1
176
     1
 77
     6
176
     1
 78
     2
176
     1
 67
     7
176
     1
 79
     5
176
     1
170
     0
176
     1
171
     0
176
     1
290
     0
176
     1
 93
        1
176
     1
 44
50.0
176
     1
173
     0
176
     1
1001
ACAD
1000
AcDbSavedByObjectVersion
1070
     0
  0
VISUALSTYLE
  5
D3
102
{ACAD_XDICTIONARY
360
1BA
102
}
102
{ACAD_REACTORS
330
C3
102
}
330
C3
100
AcDbVisualStyle
  2
ColorChange
 70
    16
177
     2
291
     1
 71
     2
176
     1
 72
     2
176
     1
 73
     3
176
     1
 90
        0
176
     1
 40
0.6
176
     1
 41
30.0
176
     1
 63
     8
421
  8421504
176
     1
 74
     1
176
     1
 91
        4
176
     1
 64
     7
176
     1
 65
   257
176
     1
 75
     1
176
     1
175
     1
176
     1
 42
1.0
176
     1
 92
        8
176
     1
 66
     8
424
  8421504
176
     1
 43
1.0
176
     1
 76
     1
176
     1
 77
     6
176
     1
 78
     2
176
     1
 67
     7
176
     1
 79
     5
176
     1
170
     0
176
     1
171
     0
176
     1
290
     0
176
     1
 93
        1
176
     1
 44
0.0
176
     1
173
     0
176
     1
1001
ACAD
1000
AcDbSavedByObjectVersion
1070
     0
  0
VISUALSTYLE
  5
CC
102
{ACAD_XDICTIONARY
360
1AC
102
}
102
{ACAD_REACTORS
330
C3
102
}
330
C3
100
AcDbVisualStyle
  2
Conceptual
 70
     9
177
     2
291
     0
 71
     3
176
     1
 72
     2
176
     1
 73
     0
176
     1
 90
        0
176
     1
 40
0.6
176
     1
 41
30.0
176
     1
 63
     7
421
 16777215
176
     1
 74
     2
176
     1
 91
        2
176
     1
 64
     7
176
     1
 65
   257
176
     1
 75
     1
176
     1
175
     1
176
     1
 42
179.0
176
     1
 92
        8
176
     1
 66
     7
176
     1
 43
1.0
176
     1
 76
     1
176
     1
 77
     6
176
     1
 78
     2
176
     1
 67
     7
176
     1
 79
     3
176
     1
170
     0
176
     1
171
     0
176
     1
290
     0
176
     1
 93
        1
176
     1
 44
0.0
176
     1
173
     0
176
     1
1001
ACAD
1000
AcDbSavedByObjectVersion
1070
     0
  0
VISUALSTYLE
  5
CE
102
{ACAD_XDICTIONARY
360
1B0
102
}
102
{ACAD_REACTORS
330
C3
102
}
330
C3
100
AcDbVisualStyle
  2
Dim
 70
    11
177
     2
291
     1
 71
     2
176
     1
 72
     2
176
     1
 73
     0
176
     1
 90
        0
176
     1
 40
0.6
176
     1
 41
30.0
176
     1
 63
     7
421
 16777215
176
     1
 74
     1
176
     1
 91
        4
176
     1
 64
     7
176
     1
 65
   257
176
     1
 75
     1
176
     1
175
     1
176
     1
 42
1.0
176
     1
 92
        8
176
     1
 66
     7
176
     1
 43
1.0
176
     1
 76
     1
176
     1
 77
     6
176
     1
 78
     2
176
     1
 67
     7
176
     1
 79
     5
176
     1
170
     0
176
     1
171
     0
176
     1
290
     0
176
     1
 93
        1
176
     1
 44
-50.0
176
     1
173
     0
176
     1
1001
ACAD
1000
AcDbSavedByObjectVersion
1070
     0
  0
VISUALSTYLE
  5
DB
102
{ACAD_XDICTIONARY
360
1CA
102
}
102
{ACAD_REACTORS
330
C3
102
}
330
C3
100
AcDbVisualStyle
  2
EdgeColorOff
 70
    22
177
     2
291
     1
 71
     2
176
     0
 72
     2
176
     0
 73
     0
176
     0
 90
        0
176
     0
 40
0.6
176
     0
 41
30.0
176
     0
 63
     7
421
 16777215
176
     0
 74
     1
176
     0
 91
        4
176
     0
 64
     7
176
     0
 65
   257
176
     0
 75
     1
176
     0
175
     1
176
     0
 42
1.0
176
     0
 92
        8
176
     2
 66
     7
176
     0
 43
1.0
176
     0
 76
     1
176
     0
 77
     6
176
     0
 78
     2
176
     0
 67
     7
176
     0
 79
     5
176
     0
170
     0
176
     0
171
     0
176
     0
290
     0
176
     0
 93
        1
176
     0
 44
0.0
176
     0
173
     0
176
     0
1001
ACAD
1000
AcDbSavedByObjectVersion
1070
     0
  0
VISUALSTYLE
  5
D2
102
{ACAD_XDICTIONARY
360
1B8
102
}
102
{ACAD_REACTORS
330
C3
102
}
330
C3
100
AcDbVisualStyle
  2
Facepattern
 70
    15
177
     2
291
     1
 71
     2
176
     1
 72
     2
176
     1
 73
     0
176
     1
 90
        0
176
     1
 40
0.6
176
     1
 41
30.0
176
     1
 63
     7
421
 16777215
176
     1
 74
     1
176
     1
 91
        4
176
     1
 64
     7
176
     1
 65
   257
176
     1
 75
     1
176
     1
175
     1
176
     1
 42
1.0
176
     1
 92
        8
176
     1
 66
     7
176
     1
 43
1.0
176
     1
 76
     1
176
     1
 77
     6
176
     1
 78
     2
176
     1
 67
     7
176
     1
 79
     5
176
     1
170
     0
176
     1
171
     0
176
     1
290
     0
176
     1
 93
        1
176
     1
 44
0.0
176
     1
173
     0
176
     1
1001
ACAD
1000
AcDbSavedByObjectVersion
1070
     0
  0
VISUALSTYLE
  5
C4
102
{ACAD_XDICTIONARY
360
19C
102
}
102
{ACAD_REACTORS
330
C3
102
}
330
C3
100
AcDbVisualStyle
  2
Flat
 70
     0
177
     2
291
     1
 71
     2
176
     1
 72
     1
176
     1
 73
     1
176
     1
 90
        2
176
     1
 40
0.6
176
     1
 41
30.0
176
     1
 63
     7
421
 16777215
176
     1
 74
     0
176
     1
 91
        0
176
     1
 64
     7
176
     1
 65
   257
176
     1
 75
     1
176
     1
175
     1
176
     1
 42
1.0
176
     1
 92
        8
176
     1
 66
     7
176
     1
 43
1.0
176
     1
 76
     1
176
     1
 77
     6
176
     1
 78
     2
176
     1
 67
     7
176
     1
 79
     5
176
     1
170
     0
176
     1
171
     0
176
     1
290
     0
176
     1
 93
       13
176
     1
 44
0.0
176
     1
173
     0
176
     1
1001
ACAD
1000
AcDbSavedByObjectVersion
1070
     0
  0
VISUALSTYLE
  5
C5
102
{ACAD_XDICTIONARY
360
19E
102
}
102
{ACAD_REACTORS
330
C3
102
}
330
C3
100
AcDbVisualStyle
  2
FlatWithEdges
 70
     1
177
     2
291
     1
 71
     2
176
     1
 72
     1
176
     1
 73
     1
176
     1
 90
        2
176
     1
 40
0.6
176
     1
 41
30.0
176
     1
 63
     7
421
 16777215
176
     1
 74
     1
176
     1
 91
        0
176
     1
 64
     7
176
     1
 65
   257
176
     1
 75
     1
176
     1
175
     1
176
     1
 42
1.0
176
     1
 92
        0
176
     1
 66
   257
176
     1
 43
1.0
176
     1
 76
     1
176
     1
 77
     6
176
     1
 78
     2
176
     1
 67
     7
176
     1
 79
     5
176
     1
170
     0
176
     1
171
     0
176
     1
290
     0
176
     1
 93
       13
176
     1
 44
0.0
176
     1
173
     0
176
     1
1001
ACAD
1000
AcDbSavedByObjectVersion
1070
     0
  0
VISUALSTYLE
  5
C6
102
{ACAD_XDICTIONARY
360
1A0
102
}
102
{ACAD_REACTORS
330
C3
102
}
330
C3
100
AcDbVisualStyle
  2
Gouraud
 70
     2
177
     2
291
     1
 71
     2
176
     1
 72
     2
176
     1
 73
     1
176
     1
 90
        2
176
     1
 40
0.6
176
     1
 41
30.0
176
     1
 63
     7
421
 16777215
176
     1
 74
     0
176
     1
 91
        0
176
     1
 64
     7
176
     1
 65
   257
176
     1
 75
     1
176
     1
175
     1
176
     1
 42
1.0
176
     1
 92
        0
176
     1
 66
     7
176
     1
 43
1.0
176
     1
 76
     1
176
     1
 77
     6
176
     1
 78
     2
176
     1
 67
     7
176
     1
 79
     5
176
     1
170
     0
176
     1
171
     0
176
     1
290
     0
176
     1
 93
       13
176
     1
 44
0.0
176
     1
173
     0
176
     1
1001
ACAD
1000
AcDbSavedByObjectVersion
1070
     0
  0
VISUALSTYLE
  5
C7
102
{ACAD_XDICTIONARY
360
1A2
102
}
102
{ACAD_REACTORS
330
C3
102
}
330
C3
100
AcDbVisualStyle
  2
GouraudWithEdges
 70
     3
177
     2
291
     1
 71
     2
176
     1
 72
     2
176
     1
 73
     1
176
     1
 90
        2
176
     1
 40
0.6
176
     1
 41
30.0
176
     1
 63
     7
421
 16777215
176
     1
 74
     1
176
     1
 91
        0
176
     1
 64
     7
176
     1
 65
   257
176
     1
 75
     1
176
     1
175
     1
176
     1
 42
1.0
176
     1
 92
        0
176
     1
 66
   257
176
     1
 43
1.0
176
     1
 76
     1
176
     1
 77
     6
176
     1
 78
     2
176
     1
 67
     7
176
     1
 79
     5
176
     1
170
     0
176
     1
171
     0
176
     1
290
     0
176
     1
 93
       13
176
     1
 44
0.0
176
     1
173
     0
176
     1
1001
ACAD
1000
AcDbSavedByObjectVersion
1070
     0
  0
VISUALSTYLE
  5
CB
102
{ACAD_XDICTIONARY
360
1AA
102
}
102
{ACAD_REACTORS
330
C3
102
}
330
C3
100
AcDbVisualStyle
  2
Hidden
 70
     6
177
     2
291
     0
 71
     1
176
     1
 72
     2
176
     1
 73
     2
176
     1
 90
        0
176
     1
 40
0.6
176
     1
 41
30.0
176
     1
 63
     7
421
 16777215
176
     1
 74
     2
176
     1
 91
        2
176
     1
 64
     7
176
     1
 65
   257
176
     1
 75
     2
176
     1
175
     1
176
     1
 42
40.0
176
     1
 92
        0
176
     1
 66
   257
176
     1
 43
1.0
176
     1
 76
     1
176
     1
 77
     6
176
     1
 78
     2
176
     1
 67
     7
176
     1
 79
     3
176
     1
170
     0
176
     1
171
     0
176
     1
290
     0
176
     1
 93
        1
176
     1
 44
0.0
176
     1
173
     0
176
     1
1001
ACAD
1000
AcDbSavedByObjectVersion
1070
     0
  0
VISUALSTYLE
  5
D9
102
{ACAD_XDICTIONARY
360
1C6
102
}
102
{ACAD_REACTORS
330
C3
102
}
330
C3
100
AcDbVisualStyle
  2
JitterOff
 70
    20
177
     2
291
     1
 71
     2
176
     0
 72
     2
176
     0
 73
     0
176
     0
 90
        0
176
     0
 40
0.6
176
     0
 41
30.0
176
     0
 63
     7
421
 16777215
176
     0
 74
     1
176
     0
 91
        4
176
     0
 64
     7
176
     0
 65
   257
176
     0
 75
     1
176
     0
175
     1
176
     0
 42
1.0
176
     0
 92
       10
176
     2
 66
     7
176
     0
 43
1.0
176
     0
 76
     1
176
     0
 77
     6
176
     0
 78
     2
176
     0
 67
     7
176
     0
 79
     5
176
     0
170
     0
176
     0
171
     0
176
     0
290
     0
176
     0
 93
        1
176
     0
 44
0.0
176
     0
173
     0
176
     0
1001
ACAD
1000
AcDbSavedByObjectVersion
1070
     0
  0
VISUALSTYLE
  5
D1
102
{ACAD_XDICTIONARY
360
1B6
102
}
102
{ACAD_REACTORS
330
C3
102
}
330
C3
100
AcDbVisualStyle
  2
Linepattern
 70
    14
177
     2
291
     1
 71
     2
176
     1
 72
     2
176
     1
 73
     0
176
     1
 90
        0
176
     1
 40
0.6
176
     1
 41
30.0
176
     1
 63
     7
421
 16777215
176
     1
 74
     1
176
     1
 91
        4
176
     1
 64
     7
176
     1
 65
   257
176
     1
 75
     7
176
     1
175
     7
176
     1
 42
1.0
176
     1
 92
        8
176
     1
 66
     7
176
     1
 43
1.0
176
     1
 76
     1
176
     1
 77
     6
176
     1
 78
     2
176
     1
 67
     7
176
     1
 79
     5
176
     1
170
     0
176
     1
171
     0
176
     1
290
     0
176
     1
 93
        1
176
     1
 44
0.0
176
     1
173
     0
176
     1
1001
ACAD
1000
AcDbSavedByObjectVersion
1070
     0
  0
VISUALSTYLE
  5
DA
102
{ACAD_XDICTIONARY
360
1C8
102
}
102
{ACAD_REACTORS
330
C3
102
}
330
C3
100
AcDbVisualStyle
  2
OverhangOff
 70
    21
177
     2
291
     1
 71
     2
176
     0
 72
     2
176
     0
 73
     0
176
     0
 90
        0
176
     0
 40
0.6
176
     0
 41
30.0
176
     0
 63
     7
421
 16777215
176
     0
 74
     1
176
     0
 91
        4
176
     0
 64
     7
176
     0
 65
   257
176
     0
 75
     1
176
     0
175
     1
176
     0
 42
1.0
176
     0
 92
        9
176
     2
 66
     7
176
     0
 43
1.0
176
     0
 76
     1
176
     0
 77
     6
176
     0
 78
     2
176
     0
 67
     7
176
     0
 79
     5
176
     0
170
     0
176
     0
171
     0
176
     0
290
     0
176
     0
 93
        1
176
     0
 44
0.0
176
     0
173
     0
176
     0
1001
ACAD
1000
AcDbSavedByObjectVersion
1070
     0
  0
VISUALSTYLE
  5
CD
102
{ACAD_XDICTIONARY
360
1AE
102
}
102
{ACAD_REACTORS
330
C3
102
}
330
C3
100
AcDbVisualStyle
  2
Realistic
 70
     8
177
     2
291
     0
 71
     2
176
     1
 72
     3
176
     1
 73
     0
176
     1
 90
        2
176
     1
 40
0.6
176
     1
 41
30.0
176
     1
 63
     7
421
 16777215
176
     1
 74
     0
176
     1
 91
        0
176
     1
 64
     7
176
     1
 65
   257
176
     1
 75
     1
176
     1
175
     1
176
     1
 42
1.0
176
     1
 92
        8
176
     1
 66
   257
176
     1
 43
1.0
176
     1
 76
     1
176
     1
 77
     6
176
     1
 78
     2
176
     1
 67
     7
176
     1
 79
     3
176
     1
170
     0
176
     1
171
     0
176
     1
290
     0
176
     1
 93
       13
176
     1
 44
0.0
176
     1
173
     0
176
     1
1001
ACAD
1000
AcDbSavedByObjectVersion
1070
     0
  0
VISUALSTYLE
  5
D8
102
{ACAD_XDICTIONARY
360
1C4
102
}
102
{ACAD_REACTORS
330
C3
102
}
330
C3
100
AcDbVisualStyle
  2
Shaded
 70
    27
177
     2
291
     0
 71
     2
176
     1
 72
     2
176
     1
 73
     1
176
     1
 90
        2
176
     1
 40
0.6
176
     1
 41
30.0
176
     1
 63
     7
421
 16777215
176
     1
 74
     0
176
     1
 91
        4
176
     1
 64
     7
176
     1
 65
   257
176
     1
 75
     1
176
     1
175
     1
176
     1
 42
1.0
176
     1
 92
        8
176
     1
 66
   257
176
     1
 43
1.0
176
     1
 76
     1
176
     1
 77
     6
176
     1
 78
     2
176
     1
 67
     8
425
  7895160
176
     1
 79
     3
176
     1
170
     0
176
     1
171
     0
176
     1
290
     0
176
     1
 93
        5
176
     1
 44
0.0
176
     1
173
     0
176
     1
1001
ACAD
1000
AcDbSavedByObjectVersion
1070
     0
  0
VISUALSTYLE
  5
D7
102
{ACAD_XDICTIONARY
360
1C2
102
}
102
{ACAD_REACTORS
330
C3
102
}
330
C3
100
AcDbVisualStyle
  2
Shaded with edges
 70
    26
177
     2
291
     0
 71
     2
176
     1
 72
     2
176
     1
 73
     1
176
     1
 90
        2
176
     1
 40
0.6
176
     1
 41
30.0
176
     1
 63
     7
421
 16777215
176
     1
 74
     1
176
     1
 91
       10
176
     1
 64
     7
176
     1
 65
   257
176
     1
 75
     2
176
     1
175
     1
176
     1
 42
1.0
176
     1
 92
        8
176
     1
 66
   257
176
     1
 43
1.0
176
     1
 76
     1
176
     1
 77
     6
176
     1
 78
     2
176
     1
 67
     7
176
     1
 79
     3
176
     1
170
     0
176
     1
171
     0
176
     1
290
     0
176
     1
 93
        5
176
     1
 44
0.0
176
     1
173
     0
176
     1
1001
ACAD
1000
AcDbSavedByObjectVersion
1070
     0
  0
VISUALSTYLE
  5
D4
102
{ACAD_XDICTIONARY
360
1BC
102
}
102
{ACAD_REACTORS
330
C3
102
}
330
C3
100
AcDbVisualStyle
  2
Shades of Gray
 70
    23
177
     2
291
     0
 71
     2
176
     1
 72
     2
176
     1
 73
     3
176
     1
 90
        0
176
     1
 40
0.6
176
     1
 41
30.0
176
     1
 63
     7
421
 16777215
176
     1
 74
     2
176
     1
 91
        2
176
     1
 64
     7
176
     1
 65
     7
176
     1
 75
     1
176
     1
175
     1
176
     1
 42
40.0
176
     1
 92
        8
176
     1
 66
     7
176
     1
 43
1.0
176
     1
 76
     1
176
     1
 77
     6
176
     1
 78
     2
176
     1
 67
     7
176
     1
 79
     3
176
     1
170
     0
176
     1
171
     0
176
     1
290
     0
176
     1
 93
        1
176
     1
 44
0.0
176
     1
173
     0
176
     1
1001
ACAD
1000
AcDbSavedByObjectVersion
1070
     0
  0
VISUALSTYLE
  5
D5
102
{ACAD_XDICTIONARY
360
1BE
102
}
102
{ACAD_REACTORS
330
C3
102
}
330
C3
100
AcDbVisualStyle
  2
Sketchy
 70
    24
177
     2
291
     0
 71
     1
176
     1
 72
     2
176
     1
 73
     2
176
     1
 90
        0
176
     1
 40
0.6
176
     1
 41
30.0
176
     1
 63
     7
421
 16777215
176
     1
 74
     2
176
     1
 91
        2
176
     1
 64
     7
176
     1
 65
     7
176
     1
 75
     1
176
     1
175
     1
176
     1
 42
40.0
176
     1
 92
       11
176
     1
 66
     7
176
     1
 43
1.0
176
     1
 76
     1
176
     1
 77
     6
176
     1
 78
     2
176
     1
 67
     7
176
     1
 79
     6
176
     1
170
     0
176
     1
171
     0
176
     1
290
     0
176
     1
 93
        1
176
     1
 44
0.0
176
     1
173
     0
176
     1
1001
ACAD
1000
AcDbSavedByObjectVersion
1070
     0
  0
VISUALSTYLE
  5
D0
102
{ACAD_XDICTIONARY
360
1B4
102
}
102
{ACAD_REACTORS
330
C3
102
}
330
C3
100
AcDbVisualStyle
  2
Thicken
 70
    13
177
     2
291
     1
 71
     2
176
     1
 72
     2
176
     1
 73
     0
176
     1
 90
        0
176
     1
 40
0.6
176
     1
 41
30.0
176
     1
 63
     7
421
 16777215
176
     1
 74
     1
176
     1
 91
        4
176
     1
 64
     7
176
     1
 65
   257
176
     1
 75
     1
176
     1
175
     1
176
     1
 42
1.0
176
     1
 92
       12
176
     1
 66
     7
176
     1
 43
1.0
176
     1
 76
     1
176
     1
 77
     6
176
     1
 78
     2
176
     1
 67
     7
176
     1
 79
     5
176
     1
170
     0
176
     1
171
     0
176
     1
290
     0
176
     1
 93
        1
176
     1
 44
0.0
176
     1
173
     0
176
     1
1001
ACAD
1000
AcDbSavedByObjectVersion
1070
     0
  0
VISUALSTYLE
  5
CA
102
{ACAD_XDICTIONARY
360
1A8
102
}
102
{ACAD_REACTORS
330
C3
102
}
330
C3
100
AcDbVisualStyle
  2
Wireframe
 70
     5
177
     2
291
     0
 71
     0
176
     1
 72
     2
176
     1
 73
     0
176
     1
 90
        0
176
     1
 40
0.6
176
     1
 41
30.0
176
     1
 63
     7
421
 16777215
176
     1
 74
     1
176
     1
 91
        4
176
     1
 64
     7
176
     1
 65
   257
176
     1
 75
     1
176
     1
175
     1
176
     1
 42
1.0
176
     1
 92
        0
176
     1
 66
   257
176
     1
 43
1.0
176
     1
 76
     1
176
     1
 77
     6
176
     1
 78
     2
176
     1
 67
     7
176
     1
 79
     3
176
     1
170
     0
176
     1
171
     0
176
     1
290
     0
176
     1
 93
        1
176
     1
 44
0.0
176
     1
173
     0
176
     1
1001
ACAD
1000
AcDbSavedByObjectVersion
1070
     0
  0
VISUALSTYLE
  5
D6
102
{ACAD_XDICTIONARY
360
1C0
102
}
102
{ACAD_REACTORS
330
C3
102
}
330
C3
100
AcDbVisualStyle
  2
X-Ray
 70
    25
177
     2
291
     0
 71
     2
176
     1
 72
     2
176
     1
 73
     1
176
     1
 90
        1
176
     1
 40
0.5
176
     1
 41
30.0
176
     1
 63
     7
421
 16777215
176
     1
 74
     1
176
     1
 91
        0
176
     1
 64
     7
176
     1
 65
   257
176
     1
 75
     1
176
     1
175
     1
176
     1
 42
1.0
176
     1
 92
        8
176
     1
 66
     7
176
     1
 43
1.0
176
     1
 76
     1
176
     1
 77
     6
176
     1
 78
     2
176
     1
 67
     7
176
     1
 79
     3
176
     1
170
     0
176
     1
171
     0
176
     1
290
     0
176
     1
 93
       13
176
     1
 44
0.0
176
     1
173
     0
176
     1
1001
ACAD
1000
AcDbSavedByObjectVersion
1070
     0
  0
DICTIONARYVAR
  5
195
102
{ACAD_REACTORS
330
18F
102
}
330
18F
100
DictionaryVariables
280
     0
  1
1:1
  0
DICTIONARYVAR
  5
191
102
{ACAD_REACTORS
330
18F
102
}
330
18F
100
DictionaryVariables
280
     0
  1
STANDARD
  0
DICTIONARYVAR
  5
190
102
{ACAD_REACTORS
330
18F
102
}
330
18F
100
DictionaryVariables
280
     0
  1
STANDARD
  0
DICTIONARYVAR
  5
192
102
{ACAD_REACTORS
330
18F
102
}
330
18F
100
DictionaryVariables
280
     0
  1
Imperial24
  0
DICTIONARYVAR
  5
193
102
{ACAD_REACTORS
330
18F
102
}
330
18F
100
DictionaryVariables
280
     0
  1
Imperial24
  0
DICTIONARYVAR
  5
197
102
{ACAD_REACTORS
330
18F
102
}
330
18F
100
DictionaryVariables
280
     0
  1
1
  0
DICTIONARYVAR
  5
198
102
{ACAD_REACTORS
330
18F
102
}
330
18F
100
DictionaryVariables
280
     0
  1
15
  0
DICTIONARYVAR
  5
196
102
{ACAD_REACTORS
330
18F
102
}
330
18F
100
DictionaryVariables
280
     0
  1
0
  0
DICTIONARYVAR
  5
194
102
{ACAD_REACTORS
330
18F
102
}
330
18F
100
DictionaryVariables
280
     0
  1
0
  0
DICTIONARY
  5
1D0
330
F6
100
AcDbDictionary
280
     1
281
     1
  3
ACAD_XREC_ROUNDTRIP
360
1D1
  0
DICTIONARY
  5
B4
330
B3
100
AcDbDictionary
280
     1
281
     1
  3
BUMPTILE
360
B6
  3
DIFFUSETILE
360
B5
  3
OPACITYTILE
360
B9
  3
REFLECTIONTILE
360
B8
  3
REFRACTIONTILE
360
BA
  3
SPECULARTILE
360
B7
  0
DICTIONARY
  5
AC
330
AB
100
AcDbDictionary
280
     1
281
     1
  3
BUMPTILE
360
AE
  3
DIFFUSETILE
360
AD
  3
OPACITYTILE
360
B1
  3
REFLECTIONTILE
360
B0
  3
REFRACTIONTILE
360
B2
  3
SPECULARTILE
360
AF
  0
DICTIONARY
  5
BC
330
BB
100
AcDbDictionary
280
     1
281
     1
  3
BUMPTILE
360
BE
  3
DIFFUSETILE
360
BD
  3
OPACITYTILE
360
C1
  3
REFLECTIONTILE
360
C0
  3
REFRACTIONTILE
360
C2
  3
SPECULARTILE
360
BF
  0
DICTIONARY
  5
1CC
330
F2
100
AcDbDictionary
280
     1
281
     1
  3
ACAD_XREC_ROUNDTRIP
360
1CD
  0
DICTIONARY
  5
1CE
330
F4
100
AcDbDictionary
280
     1
281
     1
  3
ACAD_XREC_ROUNDTRIP
360
1CF
  0
DICTIONARY
  5
199
330
DE
100
AcDbDictionary
280
     1
281
     1
  3
ACAD_ROUNDTRIP_2008_TABLESTYLE_CELLSTYLEMAP
360
19A
  0
DICTIONARY
  5
1A6
330
C9
100
AcDbDictionary
280
     1
281
     1
  3
ACAD_XREC_ROUNDTRIP
360
1A7
  0
DICTIONARY
  5
1A4
330
C8
100
AcDbDictionary
280
     1
281
     1
  3
ACAD_XREC_ROUNDTRIP
360
1A5
  0
DICTIONARY
  5
1B2
330
CF
100
AcDbDictionary
280
     1
281
     1
  3
ACAD_XREC_ROUNDTRIP
360
1B3
  0
DICTIONARY
  5
1BA
330
D3
100
AcDbDictionary
280
     1
281
     1
  3
ACAD_XREC_ROUNDTRIP
360
1BB
  0
DICTIONARY
  5
1AC
330
CC
100
AcDbDictionary
280
     1
281
     1
  3
ACAD_XREC_ROUNDTRIP
360
1AD
  0
DICTIONARY
  5
1B0
330
CE
100
AcDbDictionary
280
     1
281
     1
  3
ACAD_XREC_ROUNDTRIP
360
1B1
  0
DICTIONARY
  5
1CA
330
DB
100
AcDbDictionary
280
     1
281
     1
  3
ACAD_XREC_ROUNDTRIP
360
1CB
  0
DICTIONARY
  5
1B8
330
D2
100
AcDbDictionary
280
     1
281
     1
  3
ACAD_XREC_ROUNDTRIP
360
1B9
  0
DICTIONARY
  5
19C
330
C4
100
AcDbDictionary
280
     1
281
     1
  3
ACAD_XREC_ROUNDTRIP
360
19D
  0
DICTIONARY
  5
19E
330
C5
100
AcDbDictionary
280
     1
281
     1
  3
ACAD_XREC_ROUNDTRIP
360
19F
  0
DICTIONARY
  5
1A0
330
C6
100
AcDbDictionary
280
     1
281
     1
  3
ACAD_XREC_ROUNDTRIP
360
1A1
  0
DICTIONARY
  5
1A2
330
C7
100
AcDbDictionary
280
     1
281
     1
  3
ACAD_XREC_ROUNDTRIP
360
1A3
  0
DICTIONARY
  5
1AA
330
CB
100
AcDbDictionary
280
     1
281
     1
  3
ACAD_XREC_ROUNDTRIP
360
1AB
  0
DICTIONARY
  5
1C6
330
D9
100
AcDbDictionary
280
     1
281
     1
  3
ACAD_XREC_ROUNDTRIP
360
1C7
  0
DICTIONARY
  5
1B6
330
D1
100
AcDbDictionary
280
     1
281
     1
  3
ACAD_XREC_ROUNDTRIP
360
1B7
  0
DICTIONARY
  5
1C8
330
DA
100
AcDbDictionary
280
     1
281
     1
  3
ACAD_XREC_ROUNDTRIP
360
1C9
  0
DICTIONARY
  5
1AE
330
CD
100
AcDbDictionary
280
     1
281
     1
  3
ACAD_XREC_ROUNDTRIP
360
1AF
  0
DICTIONARY
  5
1C4
330
D8
100
AcDbDictionary
280
     1
281
     1
  3
ACAD_XREC_ROUNDTRIP
360
1C5
  0
DICTIONARY
  5
1C2
330
D7
100
AcDbDictionary
280
     1
281
     1
  3
ACAD_XREC_ROUNDTRIP
360
1C3
  0
DICTIONARY
  5
1BC
330
D4
100
AcDbDictionary
280
     1
281
     1
  3
ACAD_XREC_ROUNDTRIP
360
1BD
  0
DICTIONARY
  5
1BE
330
D5
100
AcDbDictionary
280
     1
281
     1
  3
ACAD_XREC_ROUNDTRIP
360
1BF
  0
DICTIONARY
  5
1B4
330
D0
100
AcDbDictionary
280
     1
281
     1
  3
ACAD_XREC_ROUNDTRIP
360
1B5
  0
DICTIONARY
  5
1A8
330
CA
100
AcDbDictionary
280
     1
281
     1
  3
ACAD_XREC_ROUNDTRIP
360
1A9
  0
DICTIONARY
  5
1C0
330
D6
100
AcDbDictionary
280
     1
281
     1
  3
ACAD_XREC_ROUNDTRIP
360
1C1
  0
XRECORD
  5
1D1
102
{ACAD_REACTORS
330
1D0
102
}
330
1D0
100
AcDbXrecord
280
     1
102
DISPLAYNAME
  1
Imperial24
102
FLAGS
 90
        0
  0
XRECORD
  5
B6
102
{ACAD_REACTORS
330
B4
102
}
330
B4
100
AcDbXrecord
280
     1
270
     1
271
     1
  0
XRECORD
  5
B5
102
{ACAD_REACTORS
330
B4
102
}
330
B4
100
AcDbXrecord
280
     1
270
     1
271
     1
  0
XRECORD
  5
B9
102
{ACAD_REACTORS
330
B4
102
}
330
B4
100
AcDbXrecord
280
     1
270
     1
271
     1
  0
XRECORD
  5
B8
102
{ACAD_REACTORS
330
B4
102
}
330
B4
100
AcDbXrecord
280
     1
270
     1
271
     1
  0
XRECORD
  5
BA
102
{ACAD_REACTORS
330
B4
102
}
330
B4
100
AcDbXrecord
280
     1
270
     1
271
     1
  0
XRECORD
  5
B7
102
{ACAD_REACTORS
330
B4
102
}
330
B4
100
AcDbXrecord
280
     1
270
     1
271
     1
  0
XRECORD
  5
AE
102
{ACAD_REACTORS
330
AC
102
}
330
AC
100
AcDbXrecord
280
     1
270
     1
271
     1
  0
XRECORD
  5
AD
102
{ACAD_REACTORS
330
AC
102
}
330
AC
100
AcDbXrecord
280
     1
270
     1
271
     1
  0
XRECORD
  5
B1
102
{ACAD_REACTORS
330
AC
102
}
330
AC
100
AcDbXrecord
280
     1
270
     1
271
     1
  0
XRECORD
  5
B0
102
{ACAD_REACTORS
330
AC
102
}
330
AC
100
AcDbXrecord
280
     1
270
     1
271
     1
  0
XRECORD
  5
B2
102
{ACAD_REACTORS
330
AC
102
}
330
AC
100
AcDbXrecord
280
     1
270
     1
271
     1
  0
XRECORD
  5
AF
102
{ACAD_REACTORS
330
AC
102
}
330
AC
100
AcDbXrecord
280
     1
270
     1
271
     1
  0
XRECORD
  5
BE
102
{ACAD_REACTORS
330
BC
102
}
330
BC
100
AcDbXrecord
280
     1
270
     1
271
     1
  0
XRECORD
  5
BD
102
{ACAD_REACTORS
330
BC
102
}
330
BC
100
AcDbXrecord
280
     1
270
     1
271
     1
  0
XRECORD
  5
C1
102
{ACAD_REACTORS
330
BC
102
}
330
BC
100
AcDbXrecord
280
     1
270
     1
271
     1
  0
XRECORD
  5
C0
102
{ACAD_REACTORS
330
BC
102
}
330
BC
100
AcDbXrecord
280
     1
270
     1
271
     1
  0
XRECORD
  5
C2
102
{ACAD_REACTORS
330
BC
102
}
330
BC
100
AcDbXrecord
280
     1
270
     1
271
     1
  0
XRECORD
  5
BF
102
{ACAD_REACTORS
330
BC
102
}
330
BC
100
AcDbXrecord
280
     1
270
     1
271
     1
  0
XRECORD
  5
1CD
102
{ACAD_REACTORS
330
1CC
102
}
330
1CC
100
AcDbXrecord
280
     1
102
ACAD_ROUNDTRIP_2012_MLEADER_STYLE
298
     1
  0
XRECORD
  5
1CF
102
{ACAD_REACTORS
330
1CE
102
}
330
1CE
100
AcDbXrecord
280
     1
102
DISPLAYNAME
  1
Imperial24
102
FLAGS
 90
        0
  0
CELLSTYLEMAP
  5
19A
102
{ACAD_REACTORS
330
199
102
}
330
199
100
AcDbCellStyleMap
 90
        3
300
CELLSTYLE
  1
TABLEFORMAT_BEGIN
 90
        5
170
     1
 91
        0
 92
    32768
 62
   257
 93
        1
300
CONTENTFORMAT
  1
CONTENTFORMAT_BEGIN
 90
        0
 91
        0
 92
      512
 93
        0
300

 40
0.0
140
1.0
 94
        5
 62
     0
340
11
144
0.25
309
CONTENTFORMAT_END
171
     0
 94
        0
309
TABLEFORMAT_END
  1
CELLSTYLE_BEGIN
 90
        1
 91
        1
300
_TITLE
309
CELLSTYLE_END
300
CELLSTYLE
  1
TABLEFORMAT_BEGIN
 90
        5
170
     1
 91
        0
 92
        0
 62
   257
 93
        1
300
CONTENTFORMAT
  1
CONTENTFORMAT_BEGIN
 90
        0
 91
        0
 92
      512
 93
        0
300

 40
0.0
140
1.0
 94
        5
 62
     0
340
11
144
0.18
309
CONTENTFORMAT_END
171
     0
 94
        0
309
TABLEFORMAT_END
  1
CELLSTYLE_BEGIN
 90
        2
 91
        1
300
_HEADER
309
CELLSTYLE_END
300
CELLSTYLE
  1
TABLEFORMAT_BEGIN
 90
        5
170
     1
 91
        0
 92
        0
 62
   257
 93
        1
300
CONTENTFORMAT
  1
CONTENTFORMAT_BEGIN
 90
        0
 91
        0
 92
      512
 93
        0
300

 40
0.0
140
1.0
 94
        2
 62
     0
340
11
144
0.18
309
CONTENTFORMAT_END
171
     0
 94
        0
309
TABLEFORMAT_END
  1
CELLSTYLE_BEGIN
 90
        3
 91
        2
300
_DATA
309
CELLSTYLE_END
  0
XRECORD
  5
1A7
102
{ACAD_REACTORS
330
1A6
102
}
330
1A6
100
AcDbXrecord
280
     1
102
RTVSPost2010Prop28
280
     1
102
RTVSPost2010PropOp28
 70
     1
102
RTVSPost2010Prop29
280
     1
102
RTVSPost2010PropOp29
 70
     1
102
RTVSPost2010Prop30
280
     0
102
RTVSPost2010PropOp30
 70
     1
102
RTVSPost2010Prop31
280
     0
102
RTVSPost2010PropOp31
 70
     1
102
RTVSPost2010Prop32
280
     0
102
RTVSPost2010PropOp32
 70
     1
102
RTVSPost2010Prop33
280
     0
102
RTVSPost2010PropOp33
 70
     1
102
RTVSPost2010Prop34
280
     0
102
RTVSPost2010PropOp34
 70
     1
102
RTVSPost2010Prop35
280
     0
102
RTVSPost2010PropOp35
 70
     1
102
RTVSPost2010Prop36
280
     0
102
RTVSPost2010PropOp36
 70
     1
102
RTVSPost2010Prop37
 90
       50
102
RTVSPost2010PropOp37
 70
     1
102
RTVSPost2010Prop38
140
0.0
102
RTVSPost2010PropOp38
 70
     1
102
RTVSPost2010Prop39
140
1.0
102
RTVSPost2010PropOp39
 70
     1
102
RTVSPost2010Prop40
 90
        0
102
RTVSPost2010PropOp40
 70
     1
102
RTVSPost2010Prop41ColorIndex
 90
       18
102
RTVSPost2010Prop41ColorRGB
 90
        0
102
RTVSPost2010PropOp41
 70
     1
102
RTVSPost2010Prop42
 90
       50
102
RTVSPost2010PropOp42
 70
     1
102
RTVSPost2010Prop43
 90
        3
102
RTVSPost2010PropOp43
 70
     1
102
RTVSPost2010Prop44ColorIndex
 90
        5
102
RTVSPost2010Prop44ColorRGB
 90
      255
102
RTVSPost2010PropOp44
 70
     1
102
RTVSPost2010Prop45
280
     0
102
RTVSPost2010PropOp45
 70
     1
102
RTVSPost2010Prop46
 90
       50
102
RTVSPost2010PropOp46
 70
     1
102
RTVSPost2010Prop47
 90
       50
102
RTVSPost2010PropOp47
 70
     1
102
RTVSPost2010Prop48
 90
       50
102
RTVSPost2010PropOp48
 70
     1
102
RTVSPost2010Prop49
280
     0
102
RTVSPost2010PropOp49
 70
     1
102
RTVSPost2010Prop50
 90
       50
102
RTVSPost2010PropOp50
 70
     1
102
RTVSPost2010Prop51ColorIndex
 90
      256
102
RTVSPost2010Prop51ColorRGB
 90
-16777216
102
RTVSPost2010PropOp51
 70
     0
102
RTVSPost2010Prop52
140
1.0
102
RTVSPost2010PropOp52
 70
     0
102
RTVSPost2010Prop53
 90
        2
102
RTVSPost2010PropOp53
 70
     1
102
RTVSPost2010Prop54
  1
strokes_ogs.tif
102
RTVSPost2010PropOp54
 70
     1
102
RTVSPost2010Prop55
280
     0
102
RTVSPost2010PropOp55
 70
     1
102
RTVSPost2010Prop56
140
1.0
102
RTVSPost2010PropOp56
 70
     1
102
RTVSPost2010Prop57
140
1.0
102
RTVSPost2010PropOp57
 70
     1
  0
XRECORD
  5
1A5
102
{ACAD_REACTORS
330
1A4
102
}
330
1A4
100
AcDbXrecord
280
     1
102
RTVSPost2010Prop28
280
     0
102
RTVSPost2010PropOp28
 70
     1
102
RTVSPost2010Prop29
280
     1
102
RTVSPost2010PropOp29
 70
     1
102
RTVSPost2010Prop30
280
     1
102
RTVSPost2010PropOp30
 70
     1
102
RTVSPost2010Prop31
280
     0
102
RTVSPost2010PropOp31
 70
     1
102
RTVSPost2010Prop32
280
     0
102
RTVSPost2010PropOp32
 70
     1
102
RTVSPost2010Prop33
280
     0
102
RTVSPost2010PropOp33
 70
     1
102
RTVSPost2010Prop34
280
     0
102
RTVSPost2010PropOp34
 70
     1
102
RTVSPost2010Prop35
280
     0
102
RTVSPost2010PropOp35
 70
     1
102
RTVSPost2010Prop36
280
     0
102
RTVSPost2010PropOp36
 70
     1
102
RTVSPost2010Prop37
 90
       50
102
RTVSPost2010PropOp37
 70
     1
102
RTVSPost2010Prop38
140
0.0
102
RTVSPost2010PropOp38
 70
     1
102
RTVSPost2010Prop39
140
1.0
102
RTVSPost2010PropOp39
 70
     1
102
RTVSPost2010Prop40
 90
        0
102
RTVSPost2010PropOp40
 70
     1
102
RTVSPost2010Prop41ColorIndex
 90
       18
102
RTVSPost2010Prop41ColorRGB
 90
        0
102
RTVSPost2010PropOp41
 70
     1
102
RTVSPost2010Prop42
 90
       50
102
RTVSPost2010PropOp42
 70
     1
102
RTVSPost2010Prop43
 90
        3
102
RTVSPost2010PropOp43
 70
     1
102
RTVSPost2010Prop44ColorIndex
 90
        5
102
RTVSPost2010Prop44ColorRGB
 90
      255
102
RTVSPost2010PropOp44
 70
     1
102
RTVSPost2010Prop45
280
     0
102
RTVSPost2010PropOp45
 70
     1
102
RTVSPost2010Prop46
 90
       50
102
RTVSPost2010PropOp46
 70
     1
102
RTVSPost2010Prop47
 90
       50
102
RTVSPost2010PropOp47
 70
     1
102
RTVSPost2010Prop48
 90
       50
102
RTVSPost2010PropOp48
 70
     1
102
RTVSPost2010Prop49
280
     0
102
RTVSPost2010PropOp49
 70
     1
102
RTVSPost2010Prop50
 90
       50
102
RTVSPost2010PropOp50
 70
     1
102
RTVSPost2010Prop51ColorIndex
 90
      256
102
RTVSPost2010Prop51ColorRGB
 90
-16777216
102
RTVSPost2010PropOp51
 70
     0
102
RTVSPost2010Prop52
140
1.0
102
RTVSPost2010PropOp52
 70
     0
102
RTVSPost2010Prop53
 90
        2
102
RTVSPost2010PropOp53
 70
     1
102
RTVSPost2010Prop54
  1
strokes_ogs.tif
102
RTVSPost2010PropOp54
 70
     1
102
RTVSPost2010Prop55
280
     0
102
RTVSPost2010PropOp55
 70
     1
102
RTVSPost2010Prop56
140
1.0
102
RTVSPost2010PropOp56
 70
     1
102
RTVSPost2010Prop57
140
1.0
102
RTVSPost2010PropOp57
 70
     1
  0
XRECORD
  5
1B3
102
{ACAD_REACTORS
330
1B2
102
}
330
1B2
100
AcDbXrecord
280
     1
102
RTVSPost2010Prop28
280
     0
102
RTVSPost2010PropOp28
 70
     1
102
RTVSPost2010Prop29
280
     1
102
RTVSPost2010PropOp29
 70
     1
102
RTVSPost2010Prop30
280
     1
102
RTVSPost2010PropOp30
 70
     1
102
RTVSPost2010Prop31
280
     0
102
RTVSPost2010PropOp31
 70
     1
102
RTVSPost2010Prop32
280
     0
102
RTVSPost2010PropOp32
 70
     1
102
RTVSPost2010Prop33
280
     0
102
RTVSPost2010PropOp33
 70
     1
102
RTVSPost2010Prop34
280
     0
102
RTVSPost2010PropOp34
 70
     1
102
RTVSPost2010Prop35
280
     0
102
RTVSPost2010PropOp35
 70
     1
102
RTVSPost2010Prop36
280
     0
102
RTVSPost2010PropOp36
 70
     1
102
RTVSPost2010Prop37
 90
       50
102
RTVSPost2010PropOp37
 70
     1
102
RTVSPost2010Prop38
140
0.0
102
RTVSPost2010PropOp38
 70
     1
102
RTVSPost2010Prop39
140
1.0
102
RTVSPost2010PropOp39
 70
     1
102
RTVSPost2010Prop40
 90
        0
102
RTVSPost2010PropOp40
 70
     1
102
RTVSPost2010Prop41ColorIndex
 90
       18
102
RTVSPost2010Prop41ColorRGB
 90
        0
102
RTVSPost2010PropOp41
 70
     1
102
RTVSPost2010Prop42
 90
       50
102
RTVSPost2010PropOp42
 70
     1
102
RTVSPost2010Prop43
 90
        3
102
RTVSPost2010PropOp43
 70
     1
102
RTVSPost2010Prop44ColorIndex
 90
        5
102
RTVSPost2010Prop44ColorRGB
 90
      255
102
RTVSPost2010PropOp44
 70
     1
102
RTVSPost2010Prop45
280
     0
102
RTVSPost2010PropOp45
 70
     1
102
RTVSPost2010Prop46
 90
       50
102
RTVSPost2010PropOp46
 70
     1
102
RTVSPost2010Prop47
 90
       50
102
RTVSPost2010PropOp47
 70
     1
102
RTVSPost2010Prop48
 90
       50
102
RTVSPost2010PropOp48
 70
     1
102
RTVSPost2010Prop49
280
     0
102
RTVSPost2010PropOp49
 70
     1
102
RTVSPost2010Prop50
 90
       50
102
RTVSPost2010PropOp50
 70
     1
102
RTVSPost2010Prop51ColorIndex
 90
      256
102
RTVSPost2010Prop51ColorRGB
 90
-16777216
102
RTVSPost2010PropOp51
 70
     0
102
RTVSPost2010Prop52
140
1.0
102
RTVSPost2010PropOp52
 70
     0
102
RTVSPost2010Prop53
 90
        2
102
RTVSPost2010PropOp53
 70
     1
102
RTVSPost2010Prop54
  1
strokes_ogs.tif
102
RTVSPost2010PropOp54
 70
     1
102
RTVSPost2010Prop55
280
     0
102
RTVSPost2010PropOp55
 70
     1
102
RTVSPost2010Prop56
140
1.0
102
RTVSPost2010PropOp56
 70
     1
102
RTVSPost2010Prop57
140
1.0
102
RTVSPost2010PropOp57
 70
     1
  0
XRECORD
  5
1BB
102
{ACAD_REACTORS
330
1BA
102
}
330
1BA
100
AcDbXrecord
280
     1
102
RTVSPost2010Prop28
280
     0
102
RTVSPost2010PropOp28
 70
     1
102
RTVSPost2010Prop29
280
     1
102
RTVSPost2010PropOp29
 70
     1
102
RTVSPost2010Prop30
280
     1
102
RTVSPost2010PropOp30
 70
     1
102
RTVSPost2010Prop31
280
     0
102
RTVSPost2010PropOp31
 70
     1
102
RTVSPost2010Prop32
280
     0
102
RTVSPost2010PropOp32
 70
     1
102
RTVSPost2010Prop33
280
     0
102
RTVSPost2010PropOp33
 70
     1
102
RTVSPost2010Prop34
280
     0
102
RTVSPost2010PropOp34
 70
     1
102
RTVSPost2010Prop35
280
     0
102
RTVSPost2010PropOp35
 70
     1
102
RTVSPost2010Prop36
280
     0
102
RTVSPost2010PropOp36
 70
     1
102
RTVSPost2010Prop37
 90
       50
102
RTVSPost2010PropOp37
 70
     1
102
RTVSPost2010Prop38
140
0.0
102
RTVSPost2010PropOp38
 70
     1
102
RTVSPost2010Prop39
140
1.0
102
RTVSPost2010PropOp39
 70
     1
102
RTVSPost2010Prop40
 90
        0
102
RTVSPost2010PropOp40
 70
     1
102
RTVSPost2010Prop41ColorIndex
 90
       18
102
RTVSPost2010Prop41ColorRGB
 90
        0
102
RTVSPost2010PropOp41
 70
     1
102
RTVSPost2010Prop42
 90
       50
102
RTVSPost2010PropOp42
 70
     1
102
RTVSPost2010Prop43
 90
        3
102
RTVSPost2010PropOp43
 70
     1
102
RTVSPost2010Prop44ColorIndex
 90
        5
102
RTVSPost2010Prop44ColorRGB
 90
      255
102
RTVSPost2010PropOp44
 70
     1
102
RTVSPost2010Prop45
280
     0
102
RTVSPost2010PropOp45
 70
     1
102
RTVSPost2010Prop46
 90
       50
102
RTVSPost2010PropOp46
 70
     1
102
RTVSPost2010Prop47
 90
       50
102
RTVSPost2010PropOp47
 70
     1
102
RTVSPost2010Prop48
 90
       50
102
RTVSPost2010PropOp48
 70
     1
102
RTVSPost2010Prop49
280
     0
102
RTVSPost2010PropOp49
 70
     1
102
RTVSPost2010Prop50
 90
       50
102
RTVSPost2010PropOp50
 70
     1
102
RTVSPost2010Prop51ColorIndex
 90
      256
102
RTVSPost2010Prop51ColorRGB
 90
-16777216
102
RTVSPost2010PropOp51
 70
     0
102
RTVSPost2010Prop52
140
1.0
102
RTVSPost2010PropOp52
 70
     0
102
RTVSPost2010Prop53
 90
        2
102
RTVSPost2010PropOp53
 70
     1
102
RTVSPost2010Prop54
  1
strokes_ogs.tif
102
RTVSPost2010PropOp54
 70
     1
102
RTVSPost2010Prop55
280
     0
102
RTVSPost2010PropOp55
 70
     1
102
RTVSPost2010Prop56
140
1.0
102
RTVSPost2010PropOp56
 70
     1
102
RTVSPost2010Prop57
140
1.0
102
RTVSPost2010PropOp57
 70
     1
  0
XRECORD
  5
1AD
102
{ACAD_REACTORS
330
1AC
102
}
330
1AC
100
AcDbXrecord
280
     1
102
RTVSPost2010Prop28
280
     0
102
RTVSPost2010PropOp28
 70
     1
102
RTVSPost2010Prop29
280
     1
102
RTVSPost2010PropOp29
 70
     1
102
RTVSPost2010Prop30
280
     1
102
RTVSPost2010PropOp30
 70
     1
102
RTVSPost2010Prop31
280
     0
102
RTVSPost2010PropOp31
 70
     1
102
RTVSPost2010Prop32
280
     0
102
RTVSPost2010PropOp32
 70
     1
102
RTVSPost2010Prop33
280
     0
102
RTVSPost2010PropOp33
 70
     1
102
RTVSPost2010Prop34
280
     0
102
RTVSPost2010PropOp34
 70
     1
102
RTVSPost2010Prop35
280
     0
102
RTVSPost2010PropOp35
 70
     1
102
RTVSPost2010Prop36
280
     0
102
RTVSPost2010PropOp36
 70
     1
102
RTVSPost2010Prop37
 90
       50
102
RTVSPost2010PropOp37
 70
     1
102
RTVSPost2010Prop38
140
0.0
102
RTVSPost2010PropOp38
 70
     1
102
RTVSPost2010Prop39
140
1.0
102
RTVSPost2010PropOp39
 70
     1
102
RTVSPost2010Prop40
 90
        0
102
RTVSPost2010PropOp40
 70
     1
102
RTVSPost2010Prop41ColorIndex
 90
       18
102
RTVSPost2010Prop41ColorRGB
 90
        0
102
RTVSPost2010PropOp41
 70
     1
102
RTVSPost2010Prop42
 90
       50
102
RTVSPost2010PropOp42
 70
     1
102
RTVSPost2010Prop43
 90
        3
102
RTVSPost2010PropOp43
 70
     1
102
RTVSPost2010Prop44ColorIndex
 90
        5
102
RTVSPost2010Prop44ColorRGB
 90
      255
102
RTVSPost2010PropOp44
 70
     1
102
RTVSPost2010Prop45
280
     0
102
RTVSPost2010PropOp45
 70
     1
102
RTVSPost2010Prop46
 90
       50
102
RTVSPost2010PropOp46
 70
     1
102
RTVSPost2010Prop47
 90
       50
102
RTVSPost2010PropOp47
 70
     1
102
RTVSPost2010Prop48
 90
       50
102
RTVSPost2010PropOp48
 70
     1
102
RTVSPost2010Prop49
280
     0
102
RTVSPost2010PropOp49
 70
     1
102
RTVSPost2010Prop50
 90
       50
102
RTVSPost2010PropOp50
 70
     1
102
RTVSPost2010Prop51ColorIndex
 90
      256
102
RTVSPost2010Prop51ColorRGB
 90
-16777216
102
RTVSPost2010PropOp51
 70
     0
102
RTVSPost2010Prop52
140
1.0
102
RTVSPost2010PropOp52
 70
     0
102
RTVSPost2010Prop53
 90
        2
102
RTVSPost2010PropOp53
 70
     1
102
RTVSPost2010Prop54
  1
strokes_ogs.tif
102
RTVSPost2010PropOp54
 70
     1
102
RTVSPost2010Prop55
280
     0
102
RTVSPost2010PropOp55
 70
     1
102
RTVSPost2010Prop56
140
1.0
102
RTVSPost2010PropOp56
 70
     1
102
RTVSPost2010Prop57
140
1.0
102
RTVSPost2010PropOp57
 70
     1
  0
XRECORD
  5
1B1
102
{ACAD_REACTORS
330
1B0
102
}
330
1B0
100
AcDbXrecord
280
     1
102
RTVSPost2010Prop28
280
     0
102
RTVSPost2010PropOp28
 70
     1
102
RTVSPost2010Prop29
280
     1
102
RTVSPost2010PropOp29
 70
     1
102
RTVSPost2010Prop30
280
     1
102
RTVSPost2010PropOp30
 70
     1
102
RTVSPost2010Prop31
280
     0
102
RTVSPost2010PropOp31
 70
     1
102
RTVSPost2010Prop32
280
     0
102
RTVSPost2010PropOp32
 70
     1
102
RTVSPost2010Prop33
280
     0
102
RTVSPost2010PropOp33
 70
     1
102
RTVSPost2010Prop34
280
     0
102
RTVSPost2010PropOp34
 70
     1
102
RTVSPost2010Prop35
280
     0
102
RTVSPost2010PropOp35
 70
     1
102
RTVSPost2010Prop36
280
     0
102
RTVSPost2010PropOp36
 70
     1
102
RTVSPost2010Prop37
 90
       50
102
RTVSPost2010PropOp37
 70
     1
102
RTVSPost2010Prop38
140
0.0
102
RTVSPost2010PropOp38
 70
     1
102
RTVSPost2010Prop39
140
1.0
102
RTVSPost2010PropOp39
 70
     1
102
RTVSPost2010Prop40
 90
        0
102
RTVSPost2010PropOp40
 70
     1
102
RTVSPost2010Prop41ColorIndex
 90
       18
102
RTVSPost2010Prop41ColorRGB
 90
        0
102
RTVSPost2010PropOp41
 70
     1
102
RTVSPost2010Prop42
 90
       50
102
RTVSPost2010PropOp42
 70
     1
102
RTVSPost2010Prop43
 90
        3
102
RTVSPost2010PropOp43
 70
     1
102
RTVSPost2010Prop44ColorIndex
 90
        5
102
RTVSPost2010Prop44ColorRGB
 90
      255
102
RTVSPost2010PropOp44
 70
     1
102
RTVSPost2010Prop45
280
     0
102
RTVSPost2010PropOp45
 70
     1
102
RTVSPost2010Prop46
 90
       50
102
RTVSPost2010PropOp46
 70
     1
102
RTVSPost2010Prop47
 90
       50
102
RTVSPost2010PropOp47
 70
     1
102
RTVSPost2010Prop48
 90
       50
102
RTVSPost2010PropOp48
 70
     1
102
RTVSPost2010Prop49
280
     0
102
RTVSPost2010PropOp49
 70
     1
102
RTVSPost2010Prop50
 90
       50
102
RTVSPost2010PropOp50
 70
     1
102
RTVSPost2010Prop51ColorIndex
 90
      256
102
RTVSPost2010Prop51ColorRGB
 90
-16777216
102
RTVSPost2010PropOp51
 70
     0
102
RTVSPost2010Prop52
140
1.0
102
RTVSPost2010PropOp52
 70
     0
102
RTVSPost2010Prop53
 90
        2
102
RTVSPost2010PropOp53
 70
     1
102
RTVSPost2010Prop54
  1
strokes_ogs.tif
102
RTVSPost2010PropOp54
 70
     1
102
RTVSPost2010Prop55
280
     0
102
RTVSPost2010PropOp55
 70
     1
102
RTVSPost2010Prop56
140
1.0
102
RTVSPost2010PropOp56
 70
     1
102
RTVSPost2010Prop57
140
1.0
102
RTVSPost2010PropOp57
 70
     1
  0
XRECORD
  5
1CB
102
{ACAD_REACTORS
330
1CA
102
}
330
1CA
100
AcDbXrecord
280
     1
102
RTVSPost2010Prop28
280
     0
102
RTVSPost2010PropOp28
 70
     0
102
RTVSPost2010Prop29
280
     1
102
RTVSPost2010PropOp29
 70
     0
102
RTVSPost2010Prop30
280
     1
102
RTVSPost2010PropOp30
 70
     0
102
RTVSPost2010Prop31
280
     0
102
RTVSPost2010PropOp31
 70
     0
102
RTVSPost2010Prop32
280
     0
102
RTVSPost2010PropOp32
 70
     0
102
RTVSPost2010Prop33
280
     0
102
RTVSPost2010PropOp33
 70
     0
102
RTVSPost2010Prop34
280
     0
102
RTVSPost2010PropOp34
 70
     0
102
RTVSPost2010Prop35
280
     0
102
RTVSPost2010PropOp35
 70
     0
102
RTVSPost2010Prop36
280
     0
102
RTVSPost2010PropOp36
 70
     0
102
RTVSPost2010Prop37
 90
       50
102
RTVSPost2010PropOp37
 70
     0
102
RTVSPost2010Prop38
140
0.0
102
RTVSPost2010PropOp38
 70
     0
102
RTVSPost2010Prop39
140
1.0
102
RTVSPost2010PropOp39
 70
     0
102
RTVSPost2010Prop40
 90
        0
102
RTVSPost2010PropOp40
 70
     0
102
RTVSPost2010Prop41ColorIndex
 90
       18
102
RTVSPost2010Prop41ColorRGB
 90
        0
102
RTVSPost2010PropOp41
 70
     0
102
RTVSPost2010Prop42
 90
       50
102
RTVSPost2010PropOp42
 70
     0
102
RTVSPost2010Prop43
 90
        3
102
RTVSPost2010PropOp43
 70
     0
102
RTVSPost2010Prop44ColorIndex
 90
        5
102
RTVSPost2010Prop44ColorRGB
 90
      255
102
RTVSPost2010PropOp44
 70
     0
102
RTVSPost2010Prop45
280
     0
102
RTVSPost2010PropOp45
 70
     0
102
RTVSPost2010Prop46
 90
       50
102
RTVSPost2010PropOp46
 70
     0
102
RTVSPost2010Prop47
 90
       50
102
RTVSPost2010PropOp47
 70
     0
102
RTVSPost2010Prop48
 90
       50
102
RTVSPost2010PropOp48
 70
     0
102
RTVSPost2010Prop49
280
     0
102
RTVSPost2010PropOp49
 70
     0
102
RTVSPost2010Prop50
 90
       50
102
RTVSPost2010PropOp50
 70
     0
102
RTVSPost2010Prop51ColorIndex
 90
      256
102
RTVSPost2010Prop51ColorRGB
 90
-16777216
102
RTVSPost2010PropOp51
 70
     0
102
RTVSPost2010Prop52
140
1.0
102
RTVSPost2010PropOp52
 70
     0
102
RTVSPost2010Prop53
 90
        2
102
RTVSPost2010PropOp53
 70
     0
102
RTVSPost2010Prop54
  1
strokes_ogs.tif
102
RTVSPost2010PropOp54
 70
     0
102
RTVSPost2010Prop55
280
     0
102
RTVSPost2010PropOp55
 70
     0
102
RTVSPost2010Prop56
140
1.0
102
RTVSPost2010PropOp56
 70
     0
102
RTVSPost2010Prop57
140
1.0
102
RTVSPost2010PropOp57
 70
     0
  0
XRECORD
  5
1B9
102
{ACAD_REACTORS
330
1B8
102
}
330
1B8
100
AcDbXrecord
280
     1
102
RTVSPost2010Prop28
280
     0
102
RTVSPost2010PropOp28
 70
     1
102
RTVSPost2010Prop29
280
     1
102
RTVSPost2010PropOp29
 70
     1
102
RTVSPost2010Prop30
280
     1
102
RTVSPost2010PropOp30
 70
     1
102
RTVSPost2010Prop31
280
     0
102
RTVSPost2010PropOp31
 70
     1
102
RTVSPost2010Prop32
280
     0
102
RTVSPost2010PropOp32
 70
     1
102
RTVSPost2010Prop33
280
     0
102
RTVSPost2010PropOp33
 70
     1
102
RTVSPost2010Prop34
280
     0
102
RTVSPost2010PropOp34
 70
     1
102
RTVSPost2010Prop35
280
     0
102
RTVSPost2010PropOp35
 70
     1
102
RTVSPost2010Prop36
280
     0
102
RTVSPost2010PropOp36
 70
     1
102
RTVSPost2010Prop37
 90
       50
102
RTVSPost2010PropOp37
 70
     1
102
RTVSPost2010Prop38
140
0.0
102
RTVSPost2010PropOp38
 70
     1
102
RTVSPost2010Prop39
140
1.0
102
RTVSPost2010PropOp39
 70
     1
102
RTVSPost2010Prop40
 90
        0
102
RTVSPost2010PropOp40
 70
     1
102
RTVSPost2010Prop41ColorIndex
 90
       18
102
RTVSPost2010Prop41ColorRGB
 90
        0
102
RTVSPost2010PropOp41
 70
     1
102
RTVSPost2010Prop42
 90
       50
102
RTVSPost2010PropOp42
 70
     1
102
RTVSPost2010Prop43
 90
        3
102
RTVSPost2010PropOp43
 70
     1
102
RTVSPost2010Prop44ColorIndex
 90
        5
102
RTVSPost2010Prop44ColorRGB
 90
      255
102
RTVSPost2010PropOp44
 70
     1
102
RTVSPost2010Prop45
280
     0
102
RTVSPost2010PropOp45
 70
     1
102
RTVSPost2010Prop46
 90
       50
102
RTVSPost2010PropOp46
 70
     1
102
RTVSPost2010Prop47
 90
       50
102
RTVSPost2010PropOp47
 70
     1
102
RTVSPost2010Prop48
 90
       50
102
RTVSPost2010PropOp48
 70
     1
102
RTVSPost2010Prop49
280
     0
102
RTVSPost2010PropOp49
 70
     1
102
RTVSPost2010Prop50
 90
       50
102
RTVSPost2010PropOp50
 70
     1
102
RTVSPost2010Prop51ColorIndex
 90
      256
102
RTVSPost2010Prop51ColorRGB
 90
-16777216
102
RTVSPost2010PropOp51
 70
     0
102
RTVSPost2010Prop52
140
1.0
102
RTVSPost2010PropOp52
 70
     0
102
RTVSPost2010Prop53
 90
        2
102
RTVSPost2010PropOp53
 70
     1
102
RTVSPost2010Prop54
  1
strokes_ogs.tif
102
RTVSPost2010PropOp54
 70
     1
102
RTVSPost2010Prop55
280
     0
102
RTVSPost2010PropOp55
 70
     1
102
RTVSPost2010Prop56
140
1.0
102
RTVSPost2010PropOp56
 70
     1
102
RTVSPost2010Prop57
140
1.0
102
RTVSPost2010PropOp57
 70
     1
  0
XRECORD
  5
19D
102
{ACAD_REACTORS
330
19C
102
}
330
19C
100
AcDbXrecord
280
     1
102
RTVSPost2010Prop28
280
     0
102
RTVSPost2010PropOp28
 70
     1
102
RTVSPost2010Prop29
280
     1
102
RTVSPost2010PropOp29
 70
     1
102
RTVSPost2010Prop30
280
     1
102
RTVSPost2010PropOp30
 70
     1
102
RTVSPost2010Prop31
280
     0
102
RTVSPost2010PropOp31
 70
     1
102
RTVSPost2010Prop32
280
     0
102
RTVSPost2010PropOp32
 70
     1
102
RTVSPost2010Prop33
280
     0
102
RTVSPost2010PropOp33
 70
     1
102
RTVSPost2010Prop34
280
     0
102
RTVSPost2010PropOp34
 70
     1
102
RTVSPost2010Prop35
280
     0
102
RTVSPost2010PropOp35
 70
     1
102
RTVSPost2010Prop36
280
     0
102
RTVSPost2010PropOp36
 70
     1
102
RTVSPost2010Prop37
 90
       50
102
RTVSPost2010PropOp37
 70
     1
102
RTVSPost2010Prop38
140
0.0
102
RTVSPost2010PropOp38
 70
     1
102
RTVSPost2010Prop39
140
1.0
102
RTVSPost2010PropOp39
 70
     1
102
RTVSPost2010Prop40
 90
        0
102
RTVSPost2010PropOp40
 70
     1
102
RTVSPost2010Prop41ColorIndex
 90
       18
102
RTVSPost2010Prop41ColorRGB
 90
        0
102
RTVSPost2010PropOp41
 70
     1
102
RTVSPost2010Prop42
 90
       50
102
RTVSPost2010PropOp42
 70
     1
102
RTVSPost2010Prop43
 90
        3
102
RTVSPost2010PropOp43
 70
     1
102
RTVSPost2010Prop44ColorIndex
 90
        5
102
RTVSPost2010Prop44ColorRGB
 90
      255
102
RTVSPost2010PropOp44
 70
     1
102
RTVSPost2010Prop45
280
     0
102
RTVSPost2010PropOp45
 70
     1
102
RTVSPost2010Prop46
 90
       50
102
RTVSPost2010PropOp46
 70
     1
102
RTVSPost2010Prop47
 90
       50
102
RTVSPost2010PropOp47
 70
     1
102
RTVSPost2010Prop48
 90
       50
102
RTVSPost2010PropOp48
 70
     1
102
RTVSPost2010Prop49
280
     0
102
RTVSPost2010PropOp49
 70
     1
102
RTVSPost2010Prop50
 90
       50
102
RTVSPost2010PropOp50
 70
     1
102
RTVSPost2010Prop51ColorIndex
 90
      256
102
RTVSPost2010Prop51ColorRGB
 90
-16777216
102
RTVSPost2010PropOp51
 70
     0
102
RTVSPost2010Prop52
140
1.0
102
RTVSPost2010PropOp52
 70
     0
102
RTVSPost2010Prop53
 90
        2
102
RTVSPost2010PropOp53
 70
     1
102
RTVSPost2010Prop54
  1
strokes_ogs.tif
102
RTVSPost2010PropOp54
 70
     1
102
RTVSPost2010Prop55
280
     0
102
RTVSPost2010PropOp55
 70
     1
102
RTVSPost2010Prop56
140
1.0
102
RTVSPost2010PropOp56
 70
     1
102
RTVSPost2010Prop57
140
1.0
102
RTVSPost2010PropOp57
 70
     1
  0
XRECORD
  5
19F
102
{ACAD_REACTORS
330
19E
102
}
330
19E
100
AcDbXrecord
280
     1
102
RTVSPost2010Prop28
280
     0
102
RTVSPost2010PropOp28
 70
     1
102
RTVSPost2010Prop29
280
     1
102
RTVSPost2010PropOp29
 70
     1
102
RTVSPost2010Prop30
280
     1
102
RTVSPost2010PropOp30
 70
     1
102
RTVSPost2010Prop31
280
     0
102
RTVSPost2010PropOp31
 70
     1
102
RTVSPost2010Prop32
280
     0
102
RTVSPost2010PropOp32
 70
     1
102
RTVSPost2010Prop33
280
     0
102
RTVSPost2010PropOp33
 70
     1
102
RTVSPost2010Prop34
280
     0
102
RTVSPost2010PropOp34
 70
     1
102
RTVSPost2010Prop35
280
     0
102
RTVSPost2010PropOp35
 70
     1
102
RTVSPost2010Prop36
280
     0
102
RTVSPost2010PropOp36
 70
     1
102
RTVSPost2010Prop37
 90
       50
102
RTVSPost2010PropOp37
 70
     1
102
RTVSPost2010Prop38
140
0.0
102
RTVSPost2010PropOp38
 70
     1
102
RTVSPost2010Prop39
140
1.0
102
RTVSPost2010PropOp39
 70
     1
102
RTVSPost2010Prop40
 90
        0
102
RTVSPost2010PropOp40
 70
     1
102
RTVSPost2010Prop41ColorIndex
 90
       18
102
RTVSPost2010Prop41ColorRGB
 90
        0
102
RTVSPost2010PropOp41
 70
     1
102
RTVSPost2010Prop42
 90
       50
102
RTVSPost2010PropOp42
 70
     1
102
RTVSPost2010Prop43
 90
        3
102
RTVSPost2010PropOp43
 70
     1
102
RTVSPost2010Prop44ColorIndex
 90
        5
102
RTVSPost2010Prop44ColorRGB
 90
      255
102
RTVSPost2010PropOp44
 70
     1
102
RTVSPost2010Prop45
280
     0
102
RTVSPost2010PropOp45
 70
     1
102
RTVSPost2010Prop46
 90
       50
102
RTVSPost2010PropOp46
 70
     1
102
RTVSPost2010Prop47
 90
       50
102
RTVSPost2010PropOp47
 70
     1
102
RTVSPost2010Prop48
 90
       50
102
RTVSPost2010PropOp48
 70
     1
102
RTVSPost2010Prop49
280
     0
102
RTVSPost2010PropOp49
 70
     1
102
RTVSPost2010Prop50
 90
       50
102
RTVSPost2010PropOp50
 70
     1
102
RTVSPost2010Prop51ColorIndex
 90
      256
102
RTVSPost2010Prop51ColorRGB
 90
-16777216
102
RTVSPost2010PropOp51
 70
     0
102
RTVSPost2010Prop52
140
1.0
102
RTVSPost2010PropOp52
 70
     0
102
RTVSPost2010Prop53
 90
        2
102
RTVSPost2010PropOp53
 70
     1
102
RTVSPost2010Prop54
  1
strokes_ogs.tif
102
RTVSPost2010PropOp54
 70
     1
102
RTVSPost2010Prop55
280
     0
102
RTVSPost2010PropOp55
 70
     1
102
RTVSPost2010Prop56
140
1.0
102
RTVSPost2010PropOp56
 70
     1
102
RTVSPost2010Prop57
140
1.0
102
RTVSPost2010PropOp57
 70
     1
  0
XRECORD
  5
1A1
102
{ACAD_REACTORS
330
1A0
102
}
330
1A0
100
AcDbXrecord
280
     1
102
RTVSPost2010Prop28
280
     0
102
RTVSPost2010PropOp28
 70
     1
102
RTVSPost2010Prop29
280
     1
102
RTVSPost2010PropOp29
 70
     1
102
RTVSPost2010Prop30
280
     1
102
RTVSPost2010PropOp30
 70
     1
102
RTVSPost2010Prop31
280
     0
102
RTVSPost2010PropOp31
 70
     1
102
RTVSPost2010Prop32
280
     0
102
RTVSPost2010PropOp32
 70
     1
102
RTVSPost2010Prop33
280
     0
102
RTVSPost2010PropOp33
 70
     1
102
RTVSPost2010Prop34
280
     0
102
RTVSPost2010PropOp34
 70
     1
102
RTVSPost2010Prop35
280
     0
102
RTVSPost2010PropOp35
 70
     1
102
RTVSPost2010Prop36
280
     0
102
RTVSPost2010PropOp36
 70
     1
102
RTVSPost2010Prop37
 90
       50
102
RTVSPost2010PropOp37
 70
     1
102
RTVSPost2010Prop38
140
0.0
102
RTVSPost2010PropOp38
 70
     1
102
RTVSPost2010Prop39
140
1.0
102
RTVSPost2010PropOp39
 70
     1
102
RTVSPost2010Prop40
 90
        0
102
RTVSPost2010PropOp40
 70
     1
102
RTVSPost2010Prop41ColorIndex
 90
       18
102
RTVSPost2010Prop41ColorRGB
 90
        0
102
RTVSPost2010PropOp41
 70
     1
102
RTVSPost2010Prop42
 90
       50
102
RTVSPost2010PropOp42
 70
     1
102
RTVSPost2010Prop43
 90
        3
102
RTVSPost2010PropOp43
 70
     1
102
RTVSPost2010Prop44ColorIndex
 90
        5
102
RTVSPost2010Prop44ColorRGB
 90
      255
102
RTVSPost2010PropOp44
 70
     1
102
RTVSPost2010Prop45
280
     0
102
RTVSPost2010PropOp45
 70
     1
102
RTVSPost2010Prop46
 90
       50
102
RTVSPost2010PropOp46
 70
     1
102
RTVSPost2010Prop47
 90
       50
102
RTVSPost2010PropOp47
 70
     1
102
RTVSPost2010Prop48
 90
       50
102
RTVSPost2010PropOp48
 70
     1
102
RTVSPost2010Prop49
280
     0
102
RTVSPost2010PropOp49
 70
     1
102
RTVSPost2010Prop50
 90
       50
102
RTVSPost2010PropOp50
 70
     1
102
RTVSPost2010Prop51ColorIndex
 90
      256
102
RTVSPost2010Prop51ColorRGB
 90
-16777216
102
RTVSPost2010PropOp51
 70
     0
102
RTVSPost2010Prop52
140
1.0
102
RTVSPost2010PropOp52
 70
     0
102
RTVSPost2010Prop53
 90
        2
102
RTVSPost2010PropOp53
 70
     1
102
RTVSPost2010Prop54
  1
strokes_ogs.tif
102
RTVSPost2010PropOp54
 70
     1
102
RTVSPost2010Prop55
280
     0
102
RTVSPost2010PropOp55
 70
     1
102
RTVSPost2010Prop56
140
1.0
102
RTVSPost2010PropOp56
 70
     1
102
RTVSPost2010Prop57
140
1.0
102
RTVSPost2010PropOp57
 70
     1
  0
XRECORD
  5
1A3
102
{ACAD_REACTORS
330
1A2
102
}
330
1A2
100
AcDbXrecord
280
     1
102
RTVSPost2010Prop28
280
     0
102
RTVSPost2010PropOp28
 70
     1
102
RTVSPost2010Prop29
280
     1
102
RTVSPost2010PropOp29
 70
     1
102
RTVSPost2010Prop30
280
     1
102
RTVSPost2010PropOp30
 70
     1
102
RTVSPost2010Prop31
280
     0
102
RTVSPost2010PropOp31
 70
     1
102
RTVSPost2010Prop32
280
     0
102
RTVSPost2010PropOp32
 70
     1
102
RTVSPost2010Prop33
280
     0
102
RTVSPost2010PropOp33
 70
     1
102
RTVSPost2010Prop34
280
     0
102
RTVSPost2010PropOp34
 70
     1
102
RTVSPost2010Prop35
280
     0
102
RTVSPost2010PropOp35
 70
     1
102
RTVSPost2010Prop36
280
     0
102
RTVSPost2010PropOp36
 70
     1
102
RTVSPost2010Prop37
 90
       50
102
RTVSPost2010PropOp37
 70
     1
102
RTVSPost2010Prop38
140
0.0
102
RTVSPost2010PropOp38
 70
     1
102
RTVSPost2010Prop39
140
1.0
102
RTVSPost2010PropOp39
 70
     1
102
RTVSPost2010Prop40
 90
        0
102
RTVSPost2010PropOp40
 70
     1
102
RTVSPost2010Prop41ColorIndex
 90
       18
102
RTVSPost2010Prop41ColorRGB
 90
        0
102
RTVSPost2010PropOp41
 70
     1
102
RTVSPost2010Prop42
 90
       50
102
RTVSPost2010PropOp42
 70
     1
102
RTVSPost2010Prop43
 90
        3
102
RTVSPost2010PropOp43
 70
     1
102
RTVSPost2010Prop44ColorIndex
 90
        5
102
RTVSPost2010Prop44ColorRGB
 90
      255
102
RTVSPost2010PropOp44
 70
     1
102
RTVSPost2010Prop45
280
     0
102
RTVSPost2010PropOp45
 70
     1
102
RTVSPost2010Prop46
 90
       50
102
RTVSPost2010PropOp46
 70
     1
102
RTVSPost2010Prop47
 90
       50
102
RTVSPost2010PropOp47
 70
     1
102
RTVSPost2010Prop48
 90
       50
102
RTVSPost2010PropOp48
 70
     1
102
RTVSPost2010Prop49
280
     0
102
RTVSPost2010PropOp49
 70
     1
102
RTVSPost2010Prop50
 90
       50
102
RTVSPost2010PropOp50
 70
     1
102
RTVSPost2010Prop51ColorIndex
 90
      256
102
RTVSPost2010Prop51ColorRGB
 90
-16777216
102
RTVSPost2010PropOp51
 70
     0
102
RTVSPost2010Prop52
140
1.0
102
RTVSPost2010PropOp52
 70
     0
102
RTVSPost2010Prop53
 90
        2
102
RTVSPost2010PropOp53
 70
     1
102
RTVSPost2010Prop54
  1
strokes_ogs.tif
102
RTVSPost2010PropOp54
 70
     1
102
RTVSPost2010Prop55
280
     0
102
RTVSPost2010PropOp55
 70
     1
102
RTVSPost2010Prop56
140
1.0
102
RTVSPost2010PropOp56
 70
     1
102
RTVSPost2010Prop57
140
1.0
102
RTVSPost2010PropOp57
 70
     1
  0
XRECORD
  5
1AB
102
{ACAD_REACTORS
330
1AA
102
}
330
1AA
100
AcDbXrecord
280
     1
102
RTVSPost2010Prop28
280
     0
102
RTVSPost2010PropOp28
 70
     1
102
RTVSPost2010Prop29
280
     1
102
RTVSPost2010PropOp29
 70
     1
102
RTVSPost2010Prop30
280
     1
102
RTVSPost2010PropOp30
 70
     1
102
RTVSPost2010Prop31
280
     0
102
RTVSPost2010PropOp31
 70
     1
102
RTVSPost2010Prop32
280
     0
102
RTVSPost2010PropOp32
 70
     1
102
RTVSPost2010Prop33
280
     0
102
RTVSPost2010PropOp33
 70
     1
102
RTVSPost2010Prop34
280
     0
102
RTVSPost2010PropOp34
 70
     1
102
RTVSPost2010Prop35
280
     0
102
RTVSPost2010PropOp35
 70
     1
102
RTVSPost2010Prop36
280
     0
102
RTVSPost2010PropOp36
 70
     1
102
RTVSPost2010Prop37
 90
       50
102
RTVSPost2010PropOp37
 70
     1
102
RTVSPost2010Prop38
140
0.0
102
RTVSPost2010PropOp38
 70
     1
102
RTVSPost2010Prop39
140
1.0
102
RTVSPost2010PropOp39
 70
     1
102
RTVSPost2010Prop40
 90
        0
102
RTVSPost2010PropOp40
 70
     1
102
RTVSPost2010Prop41ColorIndex
 90
       18
102
RTVSPost2010Prop41ColorRGB
 90
        0
102
RTVSPost2010PropOp41
 70
     1
102
RTVSPost2010Prop42
 90
       50
102
RTVSPost2010PropOp42
 70
     1
102
RTVSPost2010Prop43
 90
        3
102
RTVSPost2010PropOp43
 70
     1
102
RTVSPost2010Prop44ColorIndex
 90
        5
102
RTVSPost2010Prop44ColorRGB
 90
      255
102
RTVSPost2010PropOp44
 70
     1
102
RTVSPost2010Prop45
280
     0
102
RTVSPost2010PropOp45
 70
     1
102
RTVSPost2010Prop46
 90
       50
102
RTVSPost2010PropOp46
 70
     1
102
RTVSPost2010Prop47
 90
       50
102
RTVSPost2010PropOp47
 70
     1
102
RTVSPost2010Prop48
 90
       50
102
RTVSPost2010PropOp48
 70
     1
102
RTVSPost2010Prop49
280
     0
102
RTVSPost2010PropOp49
 70
     1
102
RTVSPost2010Prop50
 90
       50
102
RTVSPost2010PropOp50
 70
     1
102
RTVSPost2010Prop51ColorIndex
 90
      256
102
RTVSPost2010Prop51ColorRGB
 90
-16777216
102
RTVSPost2010PropOp51
 70
     0
102
RTVSPost2010Prop52
140
1.0
102
RTVSPost2010PropOp52
 70
     0
102
RTVSPost2010Prop53
 90
        2
102
RTVSPost2010PropOp53
 70
     1
102
RTVSPost2010Prop54
  1
strokes_ogs.tif
102
RTVSPost2010PropOp54
 70
     1
102
RTVSPost2010Prop55
280
     0
102
RTVSPost2010PropOp55
 70
     1
102
RTVSPost2010Prop56
140
1.0
102
RTVSPost2010PropOp56
 70
     1
102
RTVSPost2010Prop57
140
1.0
102
RTVSPost2010PropOp57
 70
     1
  0
XRECORD
  5
1C7
102
{ACAD_REACTORS
330
1C6
102
}
330
1C6
100
AcDbXrecord
280
     1
102
RTVSPost2010Prop28
280
     0
102
RTVSPost2010PropOp28
 70
     0
102
RTVSPost2010Prop29
280
     1
102
RTVSPost2010PropOp29
 70
     0
102
RTVSPost2010Prop30
280
     1
102
RTVSPost2010PropOp30
 70
     0
102
RTVSPost2010Prop31
280
     0
102
RTVSPost2010PropOp31
 70
     0
102
RTVSPost2010Prop32
280
     0
102
RTVSPost2010PropOp32
 70
     0
102
RTVSPost2010Prop33
280
     0
102
RTVSPost2010PropOp33
 70
     0
102
RTVSPost2010Prop34
280
     0
102
RTVSPost2010PropOp34
 70
     0
102
RTVSPost2010Prop35
280
     0
102
RTVSPost2010PropOp35
 70
     0
102
RTVSPost2010Prop36
280
     0
102
RTVSPost2010PropOp36
 70
     0
102
RTVSPost2010Prop37
 90
       50
102
RTVSPost2010PropOp37
 70
     0
102
RTVSPost2010Prop38
140
0.0
102
RTVSPost2010PropOp38
 70
     0
102
RTVSPost2010Prop39
140
1.0
102
RTVSPost2010PropOp39
 70
     0
102
RTVSPost2010Prop40
 90
        0
102
RTVSPost2010PropOp40
 70
     0
102
RTVSPost2010Prop41ColorIndex
 90
       18
102
RTVSPost2010Prop41ColorRGB
 90
        0
102
RTVSPost2010PropOp41
 70
     0
102
RTVSPost2010Prop42
 90
       50
102
RTVSPost2010PropOp42
 70
     0
102
RTVSPost2010Prop43
 90
        3
102
RTVSPost2010PropOp43
 70
     0
102
RTVSPost2010Prop44ColorIndex
 90
        5
102
RTVSPost2010Prop44ColorRGB
 90
      255
102
RTVSPost2010PropOp44
 70
     0
102
RTVSPost2010Prop45
280
     0
102
RTVSPost2010PropOp45
 70
     0
102
RTVSPost2010Prop46
 90
       50
102
RTVSPost2010PropOp46
 70
     0
102
RTVSPost2010Prop47
 90
       50
102
RTVSPost2010PropOp47
 70
     0
102
RTVSPost2010Prop48
 90
       50
102
RTVSPost2010PropOp48
 70
     0
102
RTVSPost2010Prop49
280
     0
102
RTVSPost2010PropOp49
 70
     0
102
RTVSPost2010Prop50
 90
       50
102
RTVSPost2010PropOp50
 70
     0
102
RTVSPost2010Prop51ColorIndex
 90
      256
102
RTVSPost2010Prop51ColorRGB
 90
-16777216
102
RTVSPost2010PropOp51
 70
     0
102
RTVSPost2010Prop52
140
1.0
102
RTVSPost2010PropOp52
 70
     0
102
RTVSPost2010Prop53
 90
        2
102
RTVSPost2010PropOp53
 70
     0
102
RTVSPost2010Prop54
  1
strokes_ogs.tif
102
RTVSPost2010PropOp54
 70
     0
102
RTVSPost2010Prop55
280
     0
102
RTVSPost2010PropOp55
 70
     0
102
RTVSPost2010Prop56
140
1.0
102
RTVSPost2010PropOp56
 70
     0
102
RTVSPost2010Prop57
140
1.0
102
RTVSPost2010PropOp57
 70
     0
  0
XRECORD
  5
1B7
102
{ACAD_REACTORS
330
1B6
102
}
330
1B6
100
AcDbXrecord
280
     1
102
RTVSPost2010Prop28
280
     0
102
RTVSPost2010PropOp28
 70
     1
102
RTVSPost2010Prop29
280
     1
102
RTVSPost2010PropOp29
 70
     1
102
RTVSPost2010Prop30
280
     1
102
RTVSPost2010PropOp30
 70
     1
102
RTVSPost2010Prop31
280
     0
102
RTVSPost2010PropOp31
 70
     1
102
RTVSPost2010Prop32
280
     0
102
RTVSPost2010PropOp32
 70
     1
102
RTVSPost2010Prop33
280
     0
102
RTVSPost2010PropOp33
 70
     1
102
RTVSPost2010Prop34
280
     0
102
RTVSPost2010PropOp34
 70
     1
102
RTVSPost2010Prop35
280
     0
102
RTVSPost2010PropOp35
 70
     1
102
RTVSPost2010Prop36
280
     0
102
RTVSPost2010PropOp36
 70
     1
102
RTVSPost2010Prop37
 90
       50
102
RTVSPost2010PropOp37
 70
     1
102
RTVSPost2010Prop38
140
0.0
102
RTVSPost2010PropOp38
 70
     1
102
RTVSPost2010Prop39
140
1.0
102
RTVSPost2010PropOp39
 70
     1
102
RTVSPost2010Prop40
 90
        0
102
RTVSPost2010PropOp40
 70
     1
102
RTVSPost2010Prop41ColorIndex
 90
       18
102
RTVSPost2010Prop41ColorRGB
 90
        0
102
RTVSPost2010PropOp41
 70
     1
102
RTVSPost2010Prop42
 90
       50
102
RTVSPost2010PropOp42
 70
     1
102
RTVSPost2010Prop43
 90
        3
102
RTVSPost2010PropOp43
 70
     1
102
RTVSPost2010Prop44ColorIndex
 90
        5
102
RTVSPost2010Prop44ColorRGB
 90
      255
102
RTVSPost2010PropOp44
 70
     1
102
RTVSPost2010Prop45
280
     0
102
RTVSPost2010PropOp45
 70
     1
102
RTVSPost2010Prop46
 90
       50
102
RTVSPost2010PropOp46
 70
     1
102
RTVSPost2010Prop47
 90
       50
102
RTVSPost2010PropOp47
 70
     1
102
RTVSPost2010Prop48
 90
       50
102
RTVSPost2010PropOp48
 70
     1
102
RTVSPost2010Prop49
280
     0
102
RTVSPost2010PropOp49
 70
     1
102
RTVSPost2010Prop50
 90
       50
102
RTVSPost2010PropOp50
 70
     1
102
RTVSPost2010Prop51ColorIndex
 90
      256
102
RTVSPost2010Prop51ColorRGB
 90
-16777216
102
RTVSPost2010PropOp51
 70
     0
102
RTVSPost2010Prop52
140
1.0
102
RTVSPost2010PropOp52
 70
     0
102
RTVSPost2010Prop53
 90
        2
102
RTVSPost2010PropOp53
 70
     1
102
RTVSPost2010Prop54
  1
strokes_ogs.tif
102
RTVSPost2010PropOp54
 70
     1
102
RTVSPost2010Prop55
280
     0
102
RTVSPost2010PropOp55
 70
     1
102
RTVSPost2010Prop56
140
1.0
102
RTVSPost2010PropOp56
 70
     1
102
RTVSPost2010Prop57
140
1.0
102
RTVSPost2010PropOp57
 70
     1
  0
XRECORD
  5
1C9
102
{ACAD_REACTORS
330
1C8
102
}
330
1C8
100
AcDbXrecord
280
     1
102
RTVSPost2010Prop28
280
     0
102
RTVSPost2010PropOp28
 70
     0
102
RTVSPost2010Prop29
280
     1
102
RTVSPost2010PropOp29
 70
     0
102
RTVSPost2010Prop30
280
     1
102
RTVSPost2010PropOp30
 70
     0
102
RTVSPost2010Prop31
280
     0
102
RTVSPost2010PropOp31
 70
     0
102
RTVSPost2010Prop32
280
     0
102
RTVSPost2010PropOp32
 70
     0
102
RTVSPost2010Prop33
280
     0
102
RTVSPost2010PropOp33
 70
     0
102
RTVSPost2010Prop34
280
     0
102
RTVSPost2010PropOp34
 70
     0
102
RTVSPost2010Prop35
280
     0
102
RTVSPost2010PropOp35
 70
     0
102
RTVSPost2010Prop36
280
     0
102
RTVSPost2010PropOp36
 70
     0
102
RTVSPost2010Prop37
 90
       50
102
RTVSPost2010PropOp37
 70
     0
102
RTVSPost2010Prop38
140
0.0
102
RTVSPost2010PropOp38
 70
     0
102
RTVSPost2010Prop39
140
1.0
102
RTVSPost2010PropOp39
 70
     0
102
RTVSPost2010Prop40
 90
        0
102
RTVSPost2010PropOp40
 70
     0
102
RTVSPost2010Prop41ColorIndex
 90
       18
102
RTVSPost2010Prop41ColorRGB
 90
        0
102
RTVSPost2010PropOp41
 70
     0
102
RTVSPost2010Prop42
 90
       50
102
RTVSPost2010PropOp42
 70
     0
102
RTVSPost2010Prop43
 90
        3
102
RTVSPost2010PropOp43
 70
     0
102
RTVSPost2010Prop44ColorIndex
 90
        5
102
RTVSPost2010Prop44ColorRGB
 90
      255
102
RTVSPost2010PropOp44
 70
     0
102
RTVSPost2010Prop45
280
     0
102
RTVSPost2010PropOp45
 70
     0
102
RTVSPost2010Prop46
 90
       50
102
RTVSPost2010PropOp46
 70
     0
102
RTVSPost2010Prop47
 90
       50
102
RTVSPost2010PropOp47
 70
     0
102
RTVSPost2010Prop48
 90
       50
102
RTVSPost2010PropOp48
 70
     0
102
RTVSPost2010Prop49
280
     0
102
RTVSPost2010PropOp49
 70
     0
102
RTVSPost2010Prop50
 90
       50
102
RTVSPost2010PropOp50
 70
     0
102
RTVSPost2010Prop51ColorIndex
 90
      256
102
RTVSPost2010Prop51ColorRGB
 90
-16777216
102
RTVSPost2010PropOp51
 70
     0
102
RTVSPost2010Prop52
140
1.0
102
RTVSPost2010PropOp52
 70
     0
102
RTVSPost2010Prop53
 90
        2
102
RTVSPost2010PropOp53
 70
     0
102
RTVSPost2010Prop54
  1
strokes_ogs.tif
102
RTVSPost2010PropOp54
 70
     0
102
RTVSPost2010Prop55
280
     0
102
RTVSPost2010PropOp55
 70
     0
102
RTVSPost2010Prop56
140
1.0
102
RTVSPost2010PropOp56
 70
     0
102
RTVSPost2010Prop57
140
1.0
102
RTVSPost2010PropOp57
 70
     0
  0
XRECORD
  5
1AF
102
{ACAD_REACTORS
330
1AE
102
}
330
1AE
100
AcDbXrecord
280
     1
102
RTVSPost2010Prop28
280
     0
102
RTVSPost2010PropOp28
 70
     1
102
RTVSPost2010Prop29
280
     1
102
RTVSPost2010PropOp29
 70
     1
102
RTVSPost2010Prop30
280
     1
102
RTVSPost2010PropOp30
 70
     1
102
RTVSPost2010Prop31
280
     0
102
RTVSPost2010PropOp31
 70
     1
102
RTVSPost2010Prop32
280
     0
102
RTVSPost2010PropOp32
 70
     1
102
RTVSPost2010Prop33
280
     0
102
RTVSPost2010PropOp33
 70
     1
102
RTVSPost2010Prop34
280
     0
102
RTVSPost2010PropOp34
 70
     1
102
RTVSPost2010Prop35
280
     0
102
RTVSPost2010PropOp35
 70
     1
102
RTVSPost2010Prop36
280
     0
102
RTVSPost2010PropOp36
 70
     1
102
RTVSPost2010Prop37
 90
       50
102
RTVSPost2010PropOp37
 70
     1
102
RTVSPost2010Prop38
140
0.0
102
RTVSPost2010PropOp38
 70
     1
102
RTVSPost2010Prop39
140
1.0
102
RTVSPost2010PropOp39
 70
     1
102
RTVSPost2010Prop40
 90
        0
102
RTVSPost2010PropOp40
 70
     1
102
RTVSPost2010Prop41ColorIndex
 90
       18
102
RTVSPost2010Prop41ColorRGB
 90
        0
102
RTVSPost2010PropOp41
 70
     1
102
RTVSPost2010Prop42
 90
       50
102
RTVSPost2010PropOp42
 70
     1
102
RTVSPost2010Prop43
 90
        3
102
RTVSPost2010PropOp43
 70
     1
102
RTVSPost2010Prop44ColorIndex
 90
        5
102
RTVSPost2010Prop44ColorRGB
 90
      255
102
RTVSPost2010PropOp44
 70
     1
102
RTVSPost2010Prop45
280
     0
102
RTVSPost2010PropOp45
 70
     1
102
RTVSPost2010Prop46
 90
       50
102
RTVSPost2010PropOp46
 70
     1
102
RTVSPost2010Prop47
 90
       50
102
RTVSPost2010PropOp47
 70
     1
102
RTVSPost2010Prop48
 90
       50
102
RTVSPost2010PropOp48
 70
     1
102
RTVSPost2010Prop49
280
     0
102
RTVSPost2010PropOp49
 70
     1
102
RTVSPost2010Prop50
 90
       50
102
RTVSPost2010PropOp50
 70
     1
102
RTVSPost2010Prop51ColorIndex
 90
      256
102
RTVSPost2010Prop51ColorRGB
 90
-16777216
102
RTVSPost2010PropOp51
 70
     0
102
RTVSPost2010Prop52
140
1.0
102
RTVSPost2010PropOp52
 70
     0
102
RTVSPost2010Prop53
 90
        2
102
RTVSPost2010PropOp53
 70
     1
102
RTVSPost2010Prop54
  1
strokes_ogs.tif
102
RTVSPost2010PropOp54
 70
     1
102
RTVSPost2010Prop55
280
     0
102
RTVSPost2010PropOp55
 70
     1
102
RTVSPost2010Prop56
140
1.0
102
RTVSPost2010PropOp56
 70
     1
102
RTVSPost2010Prop57
140
1.0
102
RTVSPost2010PropOp57
 70
     1
  0
XRECORD
  5
1C5
102
{ACAD_REACTORS
330
1C4
102
}
330
1C4
100
AcDbXrecord
280
     1
102
RTVSPost2010Prop28
280
     0
102
RTVSPost2010PropOp28
 70
     1
102
RTVSPost2010Prop29
280
     1
102
RTVSPost2010PropOp29
 70
     1
102
RTVSPost2010Prop30
280
     1
102
RTVSPost2010PropOp30
 70
     1
102
RTVSPost2010Prop31
280
     0
102
RTVSPost2010PropOp31
 70
     1
102
RTVSPost2010Prop32
280
     0
102
RTVSPost2010PropOp32
 70
     1
102
RTVSPost2010Prop33
280
     0
102
RTVSPost2010PropOp33
 70
     1
102
RTVSPost2010Prop34
280
     0
102
RTVSPost2010PropOp34
 70
     1
102
RTVSPost2010Prop35
280
     0
102
RTVSPost2010PropOp35
 70
     1
102
RTVSPost2010Prop36
280
     0
102
RTVSPost2010PropOp36
 70
     1
102
RTVSPost2010Prop37
 90
       50
102
RTVSPost2010PropOp37
 70
     1
102
RTVSPost2010Prop38
140
0.0
102
RTVSPost2010PropOp38
 70
     1
102
RTVSPost2010Prop39
140
1.0
102
RTVSPost2010PropOp39
 70
     1
102
RTVSPost2010Prop40
 90
        0
102
RTVSPost2010PropOp40
 70
     1
102
RTVSPost2010Prop41ColorIndex
 90
       18
102
RTVSPost2010Prop41ColorRGB
 90
        0
102
RTVSPost2010PropOp41
 70
     1
102
RTVSPost2010Prop42
 90
       50
102
RTVSPost2010PropOp42
 70
     1
102
RTVSPost2010Prop43
 90
        3
102
RTVSPost2010PropOp43
 70
     1
102
RTVSPost2010Prop44ColorIndex
 90
        5
102
RTVSPost2010Prop44ColorRGB
 90
      255
102
RTVSPost2010PropOp44
 70
     1
102
RTVSPost2010Prop45
280
     0
102
RTVSPost2010PropOp45
 70
     1
102
RTVSPost2010Prop46
 90
       50
102
RTVSPost2010PropOp46
 70
     1
102
RTVSPost2010Prop47
 90
       50
102
RTVSPost2010PropOp47
 70
     1
102
RTVSPost2010Prop48
 90
       50
102
RTVSPost2010PropOp48
 70
     1
102
RTVSPost2010Prop49
280
     0
102
RTVSPost2010PropOp49
 70
     1
102
RTVSPost2010Prop50
 90
       50
102
RTVSPost2010PropOp50
 70
     1
102
RTVSPost2010Prop51ColorIndex
 90
      256
102
RTVSPost2010Prop51ColorRGB
 90
-16777216
102
RTVSPost2010PropOp51
 70
     0
102
RTVSPost2010Prop52
140
1.0
102
RTVSPost2010PropOp52
 70
     0
102
RTVSPost2010Prop53
 90
        2
102
RTVSPost2010PropOp53
 70
     1
102
RTVSPost2010Prop54
  1
strokes_ogs.tif
102
RTVSPost2010PropOp54
 70
     1
102
RTVSPost2010Prop55
280
     0
102
RTVSPost2010PropOp55
 70
     1
102
RTVSPost2010Prop56
140
1.0
102
RTVSPost2010PropOp56
 70
     1
102
RTVSPost2010Prop57
140
1.0
102
RTVSPost2010PropOp57
 70
     1
  0
XRECORD
  5
1C3
102
{ACAD_REACTORS
330
1C2
102
}
330
1C2
100
AcDbXrecord
280
     1
102
RTVSPost2010Prop28
280
     0
102
RTVSPost2010PropOp28
 70
     1
102
RTVSPost2010Prop29
280
     1
102
RTVSPost2010PropOp29
 70
     1
102
RTVSPost2010Prop30
280
     1
102
RTVSPost2010PropOp30
 70
     1
102
RTVSPost2010Prop31
280
     0
102
RTVSPost2010PropOp31
 70
     1
102
RTVSPost2010Prop32
280
     0
102
RTVSPost2010PropOp32
 70
     1
102
RTVSPost2010Prop33
280
     0
102
RTVSPost2010PropOp33
 70
     1
102
RTVSPost2010Prop34
280
     0
102
RTVSPost2010PropOp34
 70
     1
102
RTVSPost2010Prop35
280
     0
102
RTVSPost2010PropOp35
 70
     1
102
RTVSPost2010Prop36
280
     0
102
RTVSPost2010PropOp36
 70
     1
102
RTVSPost2010Prop37
 90
       50
102
RTVSPost2010PropOp37
 70
     1
102
RTVSPost2010Prop38
140
0.0
102
RTVSPost2010PropOp38
 70
     1
102
RTVSPost2010Prop39
140
1.0
102
RTVSPost2010PropOp39
 70
     1
102
RTVSPost2010Prop40
 90
        0
102
RTVSPost2010PropOp40
 70
     1
102
RTVSPost2010Prop41ColorIndex
 90
       18
102
RTVSPost2010Prop41ColorRGB
 90
        0
102
RTVSPost2010PropOp41
 70
     1
102
RTVSPost2010Prop42
 90
       50
102
RTVSPost2010PropOp42
 70
     1
102
RTVSPost2010Prop43
 90
        3
102
RTVSPost2010PropOp43
 70
     1
102
RTVSPost2010Prop44ColorIndex
 90
        5
102
RTVSPost2010Prop44ColorRGB
 90
      255
102
RTVSPost2010PropOp44
 70
     1
102
RTVSPost2010Prop45
280
     0
102
RTVSPost2010PropOp45
 70
     1
102
RTVSPost2010Prop46
 90
       50
102
RTVSPost2010PropOp46
 70
     1
102
RTVSPost2010Prop47
 90
       50
102
RTVSPost2010PropOp47
 70
     1
102
RTVSPost2010Prop48
 90
       50
102
RTVSPost2010PropOp48
 70
     1
102
RTVSPost2010Prop49
280
     0
102
RTVSPost2010PropOp49
 70
     1
102
RTVSPost2010Prop50
 90
       50
102
RTVSPost2010PropOp50
 70
     1
102
RTVSPost2010Prop51ColorIndex
 90
      256
102
RTVSPost2010Prop51ColorRGB
 90
-16777216
102
RTVSPost2010PropOp51
 70
     0
102
RTVSPost2010Prop52
140
1.0
102
RTVSPost2010PropOp52
 70
     0
102
RTVSPost2010Prop53
 90
        2
102
RTVSPost2010PropOp53
 70
     1
102
RTVSPost2010Prop54
  1
strokes_ogs.tif
102
RTVSPost2010PropOp54
 70
     1
102
RTVSPost2010Prop55
280
     0
102
RTVSPost2010PropOp55
 70
     1
102
RTVSPost2010Prop56
140
1.0
102
RTVSPost2010PropOp56
 70
     1
102
RTVSPost2010Prop57
140
1.0
102
RTVSPost2010PropOp57
 70
     1
  0
XRECORD
  5
1BD
102
{ACAD_REACTORS
330
1BC
102
}
330
1BC
100
AcDbXrecord
280
     1
102
RTVSPost2010Prop28
280
     0
102
RTVSPost2010PropOp28
 70
     1
102
RTVSPost2010Prop29
280
     1
102
RTVSPost2010PropOp29
 70
     1
102
RTVSPost2010Prop30
280
     1
102
RTVSPost2010PropOp30
 70
     1
102
RTVSPost2010Prop31
280
     0
102
RTVSPost2010PropOp31
 70
     1
102
RTVSPost2010Prop32
280
     0
102
RTVSPost2010PropOp32
 70
     1
102
RTVSPost2010Prop33
280
     0
102
RTVSPost2010PropOp33
 70
     1
102
RTVSPost2010Prop34
280
     0
102
RTVSPost2010PropOp34
 70
     1
102
RTVSPost2010Prop35
280
     0
102
RTVSPost2010PropOp35
 70
     1
102
RTVSPost2010Prop36
280
     0
102
RTVSPost2010PropOp36
 70
     1
102
RTVSPost2010Prop37
 90
       50
102
RTVSPost2010PropOp37
 70
     1
102
RTVSPost2010Prop38
140
0.0
102
RTVSPost2010PropOp38
 70
     1
102
RTVSPost2010Prop39
140
1.0
102
RTVSPost2010PropOp39
 70
     1
102
RTVSPost2010Prop40
 90
        0
102
RTVSPost2010PropOp40
 70
     1
102
RTVSPost2010Prop41ColorIndex
 90
       18
102
RTVSPost2010Prop41ColorRGB
 90
        0
102
RTVSPost2010PropOp41
 70
     1
102
RTVSPost2010Prop42
 90
       50
102
RTVSPost2010PropOp42
 70
     1
102
RTVSPost2010Prop43
 90
        3
102
RTVSPost2010PropOp43
 70
     1
102
RTVSPost2010Prop44ColorIndex
 90
        5
102
RTVSPost2010Prop44ColorRGB
 90
      255
102
RTVSPost2010PropOp44
 70
     1
102
RTVSPost2010Prop45
280
     0
102
RTVSPost2010PropOp45
 70
     1
102
RTVSPost2010Prop46
 90
       50
102
RTVSPost2010PropOp46
 70
     1
102
RTVSPost2010Prop47
 90
       50
102
RTVSPost2010PropOp47
 70
     1
102
RTVSPost2010Prop48
 90
       50
102
RTVSPost2010PropOp48
 70
     1
102
RTVSPost2010Prop49
280
     0
102
RTVSPost2010PropOp49
 70
     1
102
RTVSPost2010Prop50
 90
       50
102
RTVSPost2010PropOp50
 70
     1
102
RTVSPost2010Prop51ColorIndex
 90
      256
102
RTVSPost2010Prop51ColorRGB
 90
-16777216
102
RTVSPost2010PropOp51
 70
     0
102
RTVSPost2010Prop52
140
1.0
102
RTVSPost2010PropOp52
 70
     0
102
RTVSPost2010Prop53
 90
        2
102
RTVSPost2010PropOp53
 70
     1
102
RTVSPost2010Prop54
  1
strokes_ogs.tif
102
RTVSPost2010PropOp54
 70
     1
102
RTVSPost2010Prop55
280
     0
102
RTVSPost2010PropOp55
 70
     1
102
RTVSPost2010Prop56
140
1.0
102
RTVSPost2010PropOp56
 70
     1
102
RTVSPost2010Prop57
140
1.0
102
RTVSPost2010PropOp57
 70
     1
  0
XRECORD
  5
1BF
102
{ACAD_REACTORS
330
1BE
102
}
330
1BE
100
AcDbXrecord
280
     1
102
RTVSPost2010Prop28
280
     0
102
RTVSPost2010PropOp28
 70
     1
102
RTVSPost2010Prop29
280
     1
102
RTVSPost2010PropOp29
 70
     1
102
RTVSPost2010Prop30
280
     1
102
RTVSPost2010PropOp30
 70
     1
102
RTVSPost2010Prop31
280
     0
102
RTVSPost2010PropOp31
 70
     1
102
RTVSPost2010Prop32
280
     0
102
RTVSPost2010PropOp32
 70
     1
102
RTVSPost2010Prop33
280
     0
102
RTVSPost2010PropOp33
 70
     1
102
RTVSPost2010Prop34
280
     0
102
RTVSPost2010PropOp34
 70
     1
102
RTVSPost2010Prop35
280
     0
102
RTVSPost2010PropOp35
 70
     1
102
RTVSPost2010Prop36
280
     0
102
RTVSPost2010PropOp36
 70
     1
102
RTVSPost2010Prop37
 90
       50
102
RTVSPost2010PropOp37
 70
     1
102
RTVSPost2010Prop38
140
0.0
102
RTVSPost2010PropOp38
 70
     1
102
RTVSPost2010Prop39
140
1.0
102
RTVSPost2010PropOp39
 70
     1
102
RTVSPost2010Prop40
 90
        0
102
RTVSPost2010PropOp40
 70
     1
102
RTVSPost2010Prop41ColorIndex
 90
       18
102
RTVSPost2010Prop41ColorRGB
 90
        0
102
RTVSPost2010PropOp41
 70
     1
102
RTVSPost2010Prop42
 90
       50
102
RTVSPost2010PropOp42
 70
     1
102
RTVSPost2010Prop43
 90
        3
102
RTVSPost2010PropOp43
 70
     1
102
RTVSPost2010Prop44ColorIndex
 90
        5
102
RTVSPost2010Prop44ColorRGB
 90
      255
102
RTVSPost2010PropOp44
 70
     1
102
RTVSPost2010Prop45
280
     0
102
RTVSPost2010PropOp45
 70
     1
102
RTVSPost2010Prop46
 90
       50
102
RTVSPost2010PropOp46
 70
     1
102
RTVSPost2010Prop47
 90
       50
102
RTVSPost2010PropOp47
 70
     1
102
RTVSPost2010Prop48
 90
       50
102
RTVSPost2010PropOp48
 70
     1
102
RTVSPost2010Prop49
280
     0
102
RTVSPost2010PropOp49
 70
     1
102
RTVSPost2010Prop50
 90
       50
102
RTVSPost2010PropOp50
 70
     1
102
RTVSPost2010Prop51ColorIndex
 90
      256
102
RTVSPost2010Prop51ColorRGB
 90
-16777216
102
RTVSPost2010PropOp51
 70
     0
102
RTVSPost2010Prop52
140
1.0
102
RTVSPost2010PropOp52
 70
     0
102
RTVSPost2010Prop53
 90
        2
102
RTVSPost2010PropOp53
 70
     1
102
RTVSPost2010Prop54
  1
strokes_ogs.tif
102
RTVSPost2010PropOp54
 70
     1
102
RTVSPost2010Prop55
280
     0
102
RTVSPost2010PropOp55
 70
     1
102
RTVSPost2010Prop56
140
1.0
102
RTVSPost2010PropOp56
 70
     1
102
RTVSPost2010Prop57
140
1.0
102
RTVSPost2010PropOp57
 70
     1
  0
XRECORD
  5
1B5
102
{ACAD_REACTORS
330
1B4
102
}
330
1B4
100
AcDbXrecord
280
     1
102
RTVSPost2010Prop28
280
     0
102
RTVSPost2010PropOp28
 70
     1
102
RTVSPost2010Prop29
280
     1
102
RTVSPost2010PropOp29
 70
     1
102
RTVSPost2010Prop30
280
     1
102
RTVSPost2010PropOp30
 70
     1
102
RTVSPost2010Prop31
280
     0
102
RTVSPost2010PropOp31
 70
     1
102
RTVSPost2010Prop32
280
     0
102
RTVSPost2010PropOp32
 70
     1
102
RTVSPost2010Prop33
280
     0
102
RTVSPost2010PropOp33
 70
     1
102
RTVSPost2010Prop34
280
     0
102
RTVSPost2010PropOp34
 70
     1
102
RTVSPost2010Prop35
280
     0
102
RTVSPost2010PropOp35
 70
     1
102
RTVSPost2010Prop36
280
     0
102
RTVSPost2010PropOp36
 70
     1
102
RTVSPost2010Prop37
 90
       50
102
RTVSPost2010PropOp37
 70
     1
102
RTVSPost2010Prop38
140
0.0
102
RTVSPost2010PropOp38
 70
     1
102
RTVSPost2010Prop39
140
1.0
102
RTVSPost2010PropOp39
 70
     1
102
RTVSPost2010Prop40
 90
        0
102
RTVSPost2010PropOp40
 70
     1
102
RTVSPost2010Prop41ColorIndex
 90
       18
102
RTVSPost2010Prop41ColorRGB
 90
        0
102
RTVSPost2010PropOp41
 70
     1
102
RTVSPost2010Prop42
 90
       50
102
RTVSPost2010PropOp42
 70
     1
102
RTVSPost2010Prop43
 90
        3
102
RTVSPost2010PropOp43
 70
     1
102
RTVSPost2010Prop44ColorIndex
 90
        5
102
RTVSPost2010Prop44ColorRGB
 90
      255
102
RTVSPost2010PropOp44
 70
     1
102
RTVSPost2010Prop45
280
     0
102
RTVSPost2010PropOp45
 70
     1
102
RTVSPost2010Prop46
 90
       50
102
RTVSPost2010PropOp46
 70
     1
102
RTVSPost2010Prop47
 90
       50
102
RTVSPost2010PropOp47
 70
     1
102
RTVSPost2010Prop48
 90
       50
102
RTVSPost2010PropOp48
 70
     1
102
RTVSPost2010Prop49
280
     0
102
RTVSPost2010PropOp49
 70
     1
102
RTVSPost2010Prop50
 90
       50
102
RTVSPost2010PropOp50
 70
     1
102
RTVSPost2010Prop51ColorIndex
 90
      256
102
RTVSPost2010Prop51ColorRGB
 90
-16777216
102
RTVSPost2010PropOp51
 70
     0
102
RTVSPost2010Prop52
140
1.0
102
RTVSPost2010PropOp52
 70
     0
102
RTVSPost2010Prop53
 90
        2
102
RTVSPost2010PropOp53
 70
     1
102
RTVSPost2010Prop54
  1
strokes_ogs.tif
102
RTVSPost2010PropOp54
 70
     1
102
RTVSPost2010Prop55
280
     0
102
RTVSPost2010PropOp55
 70
     1
102
RTVSPost2010Prop56
140
1.0
102
RTVSPost2010PropOp56
 70
     1
102
RTVSPost2010Prop57
140
1.0
102
RTVSPost2010PropOp57
 70
     1
  0
XRECORD
  5
1A9
102
{ACAD_REACTORS
330
1A8
102
}
330
1A8
100
AcDbXrecord
280
     1
102
RTVSPost2010Prop28
280
     0
102
RTVSPost2010PropOp28
 70
     1
102
RTVSPost2010Prop29
280
     1
102
RTVSPost2010PropOp29
 70
     1
102
RTVSPost2010Prop30
280
     1
102
RTVSPost2010PropOp30
 70
     1
102
RTVSPost2010Prop31
280
     0
102
RTVSPost2010PropOp31
 70
     1
102
RTVSPost2010Prop32
280
     0
102
RTVSPost2010PropOp32
 70
     1
102
RTVSPost2010Prop33
280
     0
102
RTVSPost2010PropOp33
 70
     1
102
RTVSPost2010Prop34
280
     0
102
RTVSPost2010PropOp34
 70
     1
102
RTVSPost2010Prop35
280
     0
102
RTVSPost2010PropOp35
 70
     1
102
RTVSPost2010Prop36
280
     0
102
RTVSPost2010PropOp36
 70
     1
102
RTVSPost2010Prop37
 90
       50
102
RTVSPost2010PropOp37
 70
     1
102
RTVSPost2010Prop38
140
0.0
102
RTVSPost2010PropOp38
 70
     1
102
RTVSPost2010Prop39
140
1.0
102
RTVSPost2010PropOp39
 70
     1
102
RTVSPost2010Prop40
 90
        0
102
RTVSPost2010PropOp40
 70
     1
102
RTVSPost2010Prop41ColorIndex
 90
       18
102
RTVSPost2010Prop41ColorRGB
 90
        0
102
RTVSPost2010PropOp41
 70
     1
102
RTVSPost2010Prop42
 90
       50
102
RTVSPost2010PropOp42
 70
     1
102
RTVSPost2010Prop43
 90
        3
102
RTVSPost2010PropOp43
 70
     1
102
RTVSPost2010Prop44ColorIndex
 90
        5
102
RTVSPost2010Prop44ColorRGB
 90
      255
102
RTVSPost2010PropOp44
 70
     1
102
RTVSPost2010Prop45
280
     0
102
RTVSPost2010PropOp45
 70
     1
102
RTVSPost2010Prop46
 90
       50
102
RTVSPost2010PropOp46
 70
     1
102
RTVSPost2010Prop47
 90
       50
102
RTVSPost2010PropOp47
 70
     1
102
RTVSPost2010Prop48
 90
       50
102
RTVSPost2010PropOp48
 70
     1
102
RTVSPost2010Prop49
280
     0
102
RTVSPost2010PropOp49
 70
     1
102
RTVSPost2010Prop50
 90
       50
102
RTVSPost2010PropOp50
 70
     1
102
RTVSPost2010Prop51ColorIndex
 90
      256
102
RTVSPost2010Prop51ColorRGB
 90
-16777216
102
RTVSPost2010PropOp51
 70
     0
102
RTVSPost2010Prop52
140
1.0
102
RTVSPost2010PropOp52
 70
     0
102
RTVSPost2010Prop53
 90
        2
102
RTVSPost2010PropOp53
 70
     1
102
RTVSPost2010Prop54
  1
strokes_ogs.tif
102
RTVSPost2010PropOp54
 70
     1
102
RTVSPost2010Prop55
280
     0
102
RTVSPost2010PropOp55
 70
     1
102
RTVSPost2010Prop56
140
1.0
102
RTVSPost2010PropOp56
 70
     1
102
RTVSPost2010Prop57
140
1.0
102
RTVSPost2010PropOp57
 70
     1
  0
XRECORD
  5
1C1
102
{ACAD_REACTORS
330
1C0
102
}
330
1C0
100
AcDbXrecord
280
     1
102
RTVSPost2010Prop28
280
     0
102
RTVSPost2010PropOp28
 70
     1
102
RTVSPost2010Prop29
280
     1
102
RTVSPost2010PropOp29
 70
     1
102
RTVSPost2010Prop30
280
     1
102
RTVSPost2010PropOp30
 70
     1
102
RTVSPost2010Prop31
280
     0
102
RTVSPost2010PropOp31
 70
     1
102
RTVSPost2010Prop32
280
     0
102
RTVSPost2010PropOp32
 70
     1
102
RTVSPost2010Prop33
280
     0
102
RTVSPost2010PropOp33
 70
     1
102
RTVSPost2010Prop34
280
     0
102
RTVSPost2010PropOp34
 70
     1
102
RTVSPost2010Prop35
280
     0
102
RTVSPost2010PropOp35
 70
     1
102
RTVSPost2010Prop36
280
     0
102
RTVSPost2010PropOp36
 70
     1
102
RTVSPost2010Prop37
 90
       50
102
RTVSPost2010PropOp37
 70
     1
102
RTVSPost2010Prop38
140
0.0
102
RTVSPost2010PropOp38
 70
     1
102
RTVSPost2010Prop39
140
1.0
102
RTVSPost2010PropOp39
 70
     1
102
RTVSPost2010Prop40
 90
        0
102
RTVSPost2010PropOp40
 70
     1
102
RTVSPost2010Prop41ColorIndex
 90
       18
102
RTVSPost2010Prop41ColorRGB
 90
        0
102
RTVSPost2010PropOp41
 70
     1
102
RTVSPost2010Prop42
 90
       50
102
RTVSPost2010PropOp42
 70
     1
102
RTVSPost2010Prop43
 90
        3
102
RTVSPost2010PropOp43
 70
     1
102
RTVSPost2010Prop44ColorIndex
 90
        5
102
RTVSPost2010Prop44ColorRGB
 90
      255
102
RTVSPost2010PropOp44
 70
     1
102
RTVSPost2010Prop45
280
     0
102
RTVSPost2010PropOp45
 70
     1
102
RTVSPost2010Prop46
 90
       50
102
RTVSPost2010PropOp46
 70
     1
102
RTVSPost2010Prop47
 90
       50
102
RTVSPost2010PropOp47
 70
     1
102
RTVSPost2010Prop48
 90
       50
102
RTVSPost2010PropOp48
 70
     1
102
RTVSPost2010Prop49
280
     0
102
RTVSPost2010PropOp49
 70
     1
102
RTVSPost2010Prop50
 90
       50
102
RTVSPost2010PropOp50
 70
     1
102
RTVSPost2010Prop51ColorIndex
 90
      256
102
RTVSPost2010Prop51ColorRGB
 90
-16777216
102
RTVSPost2010PropOp51
 70
     0
102
RTVSPost2010Prop52
140
1.0
102
RTVSPost2010PropOp52
 70
     0
102
RTVSPost2010Prop53
 90
        2
102
RTVSPost2010PropOp53
 70
     1
102
RTVSPost2010Prop54
  1
strokes_ogs.tif
102
RTVSPost2010PropOp54
 70
     1
102
RTVSPost2010Prop55
280
     0
102
RTVSPost2010PropOp55
 70
     1
102
RTVSPost2010Prop56
140
1.0
102
RTVSPost2010PropOp56
 70
     1
102
RTVSPost2010Prop57
140
1.0
102
RTVSPost2010PropOp57
 70
     1
  0
ENDSEC
  0
EOF
