  0
SECTION
  2
HEADER
  9
$ACADVER
  1
AC1024
  9
$ACADMAINTVER
 70
   205
  9
$DWGCODEPAGE
  3
ANSI_1251
  9
$INSBASE
 10
0.0
 20
0.0
 30
0.0
  9
$EXTMIN
 10
1.000000000000000E+20
 20
1.000000000000000E+20
 30
1.000000000000000E+20
  9
$EXTMAX
 10
-1.000000000000000E+20
 20
-1.000000000000000E+20
 30
-1.000000000000000E+20
  9
$LIMMIN
 10
0.0
 20
0.0
  9
$LIMMAX
 10
12.0
 20
9.0
  9
$ORTHOMODE
 70
     0
  9
$REGENMODE
 70
     1
  9
$FILLMODE
 70
     1
  9
$QTEXTMODE
 70
     0
  9
$MIRRTEXT
 70
     1
  9
$LTSCALE
 40
1.0
  9
$ATTMODE
 70
     1
  9
$TEXTSIZE
 40
0.2
  9
$TRACEWID
 40
0.05
  9
$TEXTSTYLE
  7
Standard
  9
$CLAYER
  8
OracDecor_cornice_mouldings
  9
$CELTYPE
  6
ByLayer
  9
$CECOLOR
 62
   256
  9
$CELTSCALE
 40
1.0
  9
$DISPSILH
 70
     0
  9
$DIMSCALE
 40
1.0
  9
$DIMASZ
 40
0.18
  9
$DIMEXO
 40
0.0625
  9
$DIMDLI
 40
0.38
  9
$DIMRND
 40
0.0
  9
$DIMDLE
 40
0.0
  9
$DIMEXE
 40
0.18
  9
$DIMTP
 40
0.0
  9
$DIMTM
 40
0.0
  9
$DIMTXT
 40
0.18
  9
$DIMCEN
 40
0.09
  9
$DIMTSZ
 40
0.0
  9
$DIMTOL
 70
     0
  9
$DIMLIM
 70
     0
  9
$DIMTIH
 70
     1
  9
$DIMTOH
 70
     1
  9
$DIMSE1
 70
     0
  9
$DIMSE2
 70
     0
  9
$DIMTAD
 70
     0
  9
$DIMZIN
 70
     0
  9
$DIMBLK
  1

  9
$DIMASO
 70
     1
  9
$DIMSHO
 70
     1
  9
$DIMPOST
  1

  9
$DIMAPOST
  1

  9
$DIMALT
 70
     0
  9
$DIMALTD
 70
     2
  9
$DIMALTF
 40
25.4
  9
$DIMLFAC
 40
1.0
  9
$DIMTOFL
 70
     0
  9
$DIMTVP
 40
0.0
  9
$DIMTIX
 70
     0
  9
$DIMSOXD
 70
     0
  9
$DIMSAH
 70
     0
  9
$DIMBLK1
  1

  9
$DIMBLK2
  1

  9
$DIMSTYLE
  2
Standard
  9
$DIMCLRD
 70
     0
  9
$DIMCLRE
 70
     0
  9
$DIMCLRT
 70
     0
  9
$DIMTFAC
 40
1.0
  9
$DIMGAP
 40
0.09
  9
$DIMJUST
 70
     0
  9
$DIMSD1
 70
     0
  9
$DIMSD2
 70
     0
  9
$DIMTOLJ
 70
     1
  9
$DIMTZIN
 70
     0
  9
$DIMALTZ
 70
     0
  9
$DIMALTTZ
 70
     0
  9
$DIMUPT
 70
     0
  9
$DIMDEC
 70
     4
  9
$DIMTDEC
 70
     4
  9
$DIMALTU
 70
     2
  9
$DIMALTTD
 70
     2
  9
$DIMTXSTY
  7
Standard
  9
$DIMAUNIT
 70
     0
  9
$DIMADEC
 70
     0
  9
$DIMALTRND
 40
0.0
  9
$DIMAZIN
 70
     0
  9
$DIMDSEP
 70
    46
  9
$DIMATFIT
 70
     3
  9
$DIMFRAC
 70
     0
  9
$DIMLDRBLK
  1

  9
$DIMLUNIT
 70
     2
  9
$DIMLWD
 70
    -2
  9
$DIMLWE
 70
    -2
  9
$DIMTMOVE
 70
     0
  9
$DIMFXL
 40
1.0
  9
$DIMFXLON
 70
     0
  9
$DIMJOGANG
 40
0.7853981633974483
  9
$DIMTFILL
 70
     0
  9
$DIMTFILLCLR
 70
     0
  9
$DIMARCSYM
 70
     0
  9
$DIMLTYPE
  6

  9
$DIMLTEX1
  6

  9
$DIMLTEX2
  6

  9
$DIMTXTDIRECTION
 70
     0
  9
$LUNITS
 70
     2
  9
$LUPREC
 70
     4
  9
$SKETCHINC
 40
0.1
  9
$FILLETRAD
 40
0.5
  9
$AUNITS
 70
     0
  9
$AUPREC
 70
     0
  9
$MENU
  1
.
  9
$ELEVATION
 40
0.0
  9
$PELEVATION
 40
0.0
  9
$THICKNESS
 40
0.0
  9
$LIMCHECK
 70
     0
  9
$CHAMFERA
 40
0.5
  9
$CHAMFERB
 40
0.5
  9
$CHAMFERC
 40
1.0
  9
$CHAMFERD
 40
0.0
  9
$SKPOLY
 70
     0
  9
$TDCREATE
 40
2451380.930432396
  9
$TDUCREATE
 40
2451380.805432396
  9
$TDUPDATE
 40
2451380.966180555
  9
$TDUUPDATE
 40
2451380.841180556
  9
$TDINDWG
 40
0.0075615856
  9
$TDUSRTIMER
 40
0.0075525463
  9
$USRTIMER
 70
     1
  9
$ANGBASE
 50
0.0
  9
$ANGDIR
 70
     0
  9
$PDMODE
 70
     0
  9
$PDSIZE
 40
0.0
  9
$PLINEWID
 40
0.0
  9
$SPLFRAME
 70
     0
  9
$SPLINETYPE
 70
     6
  9
$SPLINESEGS
 70
     8
  9
$HANDSEED
  5
18C
  9
$SURFTAB1
 70
     6
  9
$SURFTAB2
 70
     6
  9
$SURFTYPE
 70
     6
  9
$SURFU
 70
     6
  9
$SURFV
 70
     6
  9
$UCSBASE
  2

  9
$UCSNAME
  2

  9
$UCSORG
 10
0.0
 20
0.0
 30
0.0
  9
$UCSXDIR
 10
1.0
 20
0.0
 30
0.0
  9
$UCSYDIR
 10
0.0
 20
1.0
 30
0.0
  9
$UCSORTHOREF
  2

  9
$UCSORTHOVIEW
 70
     0
  9
$UCSORGTOP
 10
0.0
 20
0.0
 30
0.0
  9
$UCSORGBOTTOM
 10
0.0
 20
0.0
 30
0.0
  9
$UCSORGLEFT
 10
0.0
 20
0.0
 30
0.0
  9
$UCSORGRIGHT
 10
0.0
 20
0.0
 30
0.0
  9
$UCSORGFRONT
 10
0.0
 20
0.0
 30
0.0
  9
$UCSORGBACK
 10
0.0
 20
0.0
 30
0.0
  9
$PUCSBASE
  2

  9
$PUCSNAME
  2

  9
$PUCSORG
 10
0.0
 20
0.0
 30
0.0
  9
$PUCSXDIR
 10
1.0
 20
0.0
 30
0.0
  9
$PUCSYDIR
 10
0.0
 20
1.0
 30
0.0
  9
$PUCSORTHOREF
  2

  9
$PUCSORTHOVIEW
 70
     0
  9
$PUCSORGTOP
 10
0.0
 20
0.0
 30
0.0
  9
$PUCSORGBOTTOM
 10
0.0
 20
0.0
 30
0.0
  9
$PUCSORGLEFT
 10
0.0
 20
0.0
 30
0.0
  9
$PUCSORGRIGHT
 10
0.0
 20
0.0
 30
0.0
  9
$PUCSORGFRONT
 10
0.0
 20
0.0
 30
0.0
  9
$PUCSORGBACK
 10
0.0
 20
0.0
 30
0.0
  9
$USERI1
 70
     0
  9
$USERI2
 70
     0
  9
$USERI3
 70
     0
  9
$USERI4
 70
     0
  9
$USERI5
 70
     0
  9
$USERR1
 40
0.0
  9
$USERR2
 40
0.0
  9
$USERR3
 40
0.0
  9
$USERR4
 40
0.0
  9
$USERR5
 40
0.0
  9
$WORLDVIEW
 70
     1
  9
$SHADEDGE
 70
     3
  9
$SHADEDIF
 70
    70
  9
$TILEMODE
 70
     1
  9
$MAXACTVP
 70
    64
  9
$PINSBASE
 10
0.0
 20
0.0
 30
0.0
  9
$PLIMCHECK
 70
     0
  9
$PEXTMIN
 10
1.000000000000000E+20
 20
1.000000000000000E+20
 30
1.000000000000000E+20
  9
$PEXTMAX
 10
-1.000000000000000E+20
 20
-1.000000000000000E+20
 30
-1.000000000000000E+20
  9
$PLIMMIN
 10
0.0
 20
0.0
  9
$PLIMMAX
 10
12.0
 20
9.0
  9
$UNITMODE
 70
     0
  9
$VISRETAIN
 70
     1
  9
$PLINEGEN
 70
     0
  9
$PSLTSCALE
 70
     1
  9
$TREEDEPTH
 70
  3020
  9
$CMLSTYLE
  2
Standard
  9
$CMLJUST
 70
     0
  9
$CMLSCALE
 40
1.0
  9
$PROXYGRAPHICS
 70
     1
  9
$MEASUREMENT
 70
     1
  9
$CELWEIGHT
370
    -1
  9
$ENDCAPS
280
     0
  9
$JOINSTYLE
280
     0
  9
$LWDISPLAY
290
     0
  9
$INSUNITS
 70
     4
  9
$HYPERLINKBASE
  1

  9
$STYLESHEET
  1

  9
$XEDIT
290
     1
  9
$CEPSNTYPE
380
     0
  9
$PSTYLEMODE
290
     1
  9
$FINGERPRINTGUID
  2
{12F50282-3ED8-11D3-A8B7-0060B0F84BC6}
  9
$VERSIONGUID
  2
{12F50293-3ED8-11D3-A8B7-0060B0F84BC6}
  9
$EXTNAMES
290
     1
  9
$PSVPSCALE
 40
0.0
  9
$OLESTARTUP
290
     0
  9
$SORTENTS
280
   127
  9
$INDEXCTL
280
     0
  9
$HIDETEXT
280
     0
  9
$XCLIPFRAME
280
     2
  9
$HALOGAP
280
     0
  9
$OBSCOLOR
 70
   257
  9
$OBSLTYPE
280
     0
  9
$INTERSECTIONDISPLAY
280
     0
  9
$INTERSECTIONCOLOR
 70
   257
  9
$DIMASSOC
280
     1
  9
$PROJECTNAME
  1

  9
$CAMERADISPLAY
290
     0
  9
$LENSLENGTH
 40
50.0
  9
$CAMERAHEIGHT
 40
0.0
  9
$STEPSPERSEC
 40
2.0
  9
$STEPSIZE
 40
6.0
  9
$3DDWFPREC
 40
2.0
  9
$PSOLWIDTH
 40
0.25
  9
$PSOLHEIGHT
 40
4.0
  9
$LOFTANG1
 40
1.570796326794896
  9
$LOFTANG2
 40
1.570796326794896
  9
$LOFTMAG1
 40
0.0
  9
$LOFTMAG2
 40
0.0
  9
$LOFTPARAM
 70
     7
  9
$LOFTNORMALS
280
     1
  9
$LATITUDE
 40
37.795
  9
$LONGITUDE
 40
-122.394
  9
$NORTHDIRECTION
 40
0.0
  9
$TIMEZONE
 70
 -8000
  9
$LIGHTGLYPHDISPLAY
280
     1
  9
$TILEMODELIGHTSYNCH
280
     1
  9
$CMATERIAL
347
AB
  9
$SOLIDHIST
280
     0
  9
$SHOWHIST
280
     1
  9
$DWFFRAME
280
     2
  9
$DGNFRAME
280
     0
  9
$REALWORLDSCALE
290
     1
  9
$INTERFERECOLOR
 62
     1
  9
$INTERFEREOBJVS
345
CD
  9
$INTERFEREVPVS
346
CA
  9
$CSHADOW
280
     0
  9
$SHADOWPLANELOCATION
 40
0.0
  0
ENDSEC
  0
SECTION
  2
CLASSES
  0
CLASS
  1
ACDBDICTIONARYWDFLT
  2
AcDbDictionaryWithDefault
  3
ObjectDBX Classes
 90
        0
 91
        1
280
     0
281
     0
  0
CLASS
  1
ACDBPLACEHOLDER
  2
AcDbPlaceHolder
  3
ObjectDBX Classes
 90
        0
 91
        2
280
     0
281
     0
  0
CLASS
  1
LAYOUT
  2
AcDbLayout
  3
ObjectDBX Classes
 90
        0
 91
        3
280
     0
281
     0
  0
CLASS
  1
MATERIAL
  2
AcDbMaterial
  3
ObjectDBX Classes
 90
     1153
 91
        3
280
     0
281
     0
  0
CLASS
  1
VISUALSTYLE
  2
AcDbVisualStyle
  3
ObjectDBX Classes
 90
     4095
 91
       24
280
     0
281
     0
  0
CLASS
  1
TABLESTYLE
  2
AcDbTableStyle
  3
ObjectDBX Classes
 90
     4095
 91
        1
280
     0
281
     0
  0
CLASS
  1
SCALE
  2
AcDbScale
  3
ObjectDBX Classes
 90
     1153
 91
       17
280
     0
281
     0
  0
CLASS
  1
MLEADERSTYLE
  2
AcDbMLeaderStyle
  3
ACDB_MLEADERSTYLE_CLASS
 90
     4095
 91
        1
280
     0
281
     0
  0
CLASS
  1
ACDBSECTIONVIEWSTYLE
  2
AcDbSectionViewStyle
  3
ObjectDBX Classes
 90
     1025
 91
        1
280
     0
281
     0
  0
CLASS
  1
ACDBDETAILVIEWSTYLE
  2
AcDbDetailViewStyle
  3
ObjectDBX Classes
 90
     1025
 91
        1
280
     0
281
     0
  0
CLASS
  1
MESH
  2
AcDbSubDMesh
  3
ObjectDBX Classes
 90
        0
 91
        1
280
     0
281
     1
  0
CLASS
  1
DICTIONARYVAR
  2
AcDbDictionaryVar
  3
ObjectDBX Classes
 90
        0
 91
        9
280
     0
281
     0
  0
CLASS
  1
CELLSTYLEMAP
  2
AcDbCellStyleMap
  3
ObjectDBX Classes
 90
     1152
 91
        1
280
     0
281
     0
  0
ENDSEC
  0
SECTION
  2
TABLES
  0
TABLE
  2
VPORT
  5
8
330
0
100
AcDbSymbolTable
 70
     1
  0
VPORT
  5
A8
330
8
100
AcDbSymbolTableRecord
100
AcDbViewportTableRecord
  2
*Active
 70
     0
 10
0.0
 20
0.0
 11
1.0
 21
1.0
 12
0.0000040460981836
 22
-5.309975624084472
 13
0.0
 23
0.0
 14
0.5
 24
0.5
 15
0.5
 25
0.5
 16
-1.0
 26
-1.0
 36
1.0
 17
0.0
 27
0.0
 37
0.0
 40
1063.006717654667
 41
1.710857834559068
 42
50.0
 43
0.0
 44
0.0
 50
0.0
 51
0.0
 71
     0
 72
   100
 73
     1
 74
     3
 75
     0
 76
     0
 77
     0
 78
     0
281
     0
 65
     1
110
0.0
120
0.0
130
0.0
111
1.0
121
0.0
131
0.0
112
0.0
122
1.0
132
0.0
 79
     0
146
0.0
348
C9
 60
     3
 61
     5
292
     1
282
     1
141
0.0
142
0.0
 63
   250
421
  3355443
  0
ENDTAB
  0
TABLE
  2
LTYPE
  5
5
330
0
100
AcDbSymbolTable
 70
     1
  0
LTYPE
  5
14
330
5
100
AcDbSymbolTableRecord
100
AcDbLinetypeTableRecord
  2
ByBlock
 70
     0
  3

 72
    65
 73
     0
 40
0.0
  0
LTYPE
  5
15
330
5
100
AcDbSymbolTableRecord
100
AcDbLinetypeTableRecord
  2
ByLayer
 70
     0
  3

 72
    65
 73
     0
 40
0.0
  0
LTYPE
  5
16
330
5
100
AcDbSymbolTableRecord
100
AcDbLinetypeTableRecord
  2
Continuous
 70
     0
  3
Solid line
 72
    65
 73
     0
 40
0.0
  0
ENDTAB
  0
TABLE
  2
LAYER
  5
2
330
0
100
AcDbSymbolTable
 70
     3
  0
LAYER
  5
10
330
2
100
AcDbSymbolTableRecord
100
AcDbLayerTableRecord
  2
0
 70
     0
 62
     7
  6
Continuous
370
    -3
390
F
347
BB
  0
LAYER
  5
2B
330
2
100
AcDbSymbolTableRecord
100
AcDbLayerTableRecord
  2
ASHADE
 70
     4
 62
     7
  6
Continuous
370
    -3
390
2D
347
BB
  0
LAYER
  5
F8
330
2
100
AcDbSymbolTableRecord
100
AcDbLayerTableRecord
  2
OracDecor_cornice_mouldings
 70
     0
 62
    81
420
 10085529
  6
Continuous
370
    -3
390
F
347
BB
  0
ENDTAB
  0
TABLE
  2
STYLE
  5
3
330
0
100
AcDbSymbolTable
 70
     2
  0
STYLE
  5
11
330
3
100
AcDbSymbolTableRecord
100
AcDbTextStyleTableRecord
  2
Standard
 70
     0
 40
0.0
 41
1.0
 50
0.0
 71
     0
 42
0.2
  3
txt
  4

  0
STYLE
  5
2C
330
3
100
AcDbSymbolTableRecord
100
AcDbTextStyleTableRecord
  2
ASHADE
 70
     0
 40
0.2
 41
1.0
 50
0.0
 71
     0
 42
0.2
  3
simplex
  4

  0
ENDTAB
  0
TABLE
  2
VIEW
  5
6
330
0
100
AcDbSymbolTable
 70
     0
  0
ENDTAB
  0
TABLE
  2
UCS
  5
7
330
0
100
AcDbSymbolTable
 70
     0
  0
ENDTAB
  0
TABLE
  2
APPID
  5
9
330
0
100
AcDbSymbolTable
 70
     6
  0
APPID
  5
12
330
9
100
AcDbSymbolTableRecord
100
AcDbRegAppTableRecord
  2
ACAD
 70
     0
  0
APPID
  5
8F
330
9
100
AcDbSymbolTableRecord
100
AcDbRegAppTableRecord
  2
AVE_RENDER
 70
     0
  0
APPID
  5
90
330
9
100
AcDbSymbolTableRecord
100
AcDbRegAppTableRecord
  2
AVE_ENTITY_MATERIAL
 70
     0
  0
APPID
  5
9C
330
9
100
AcDbSymbolTableRecord
100
AcDbRegAppTableRecord
  2
AVE_FINISH
 70
     0
  0
APPID
  5
9D
330
9
100
AcDbSymbolTableRecord
100
AcDbRegAppTableRecord
  2
AVE_MATERIAL
 70
     0
  0
APPID
  5
9E
330
9
100
AcDbSymbolTableRecord
100
AcDbRegAppTableRecord
  2
AVE_GLOBAL
 70
     0
  0
ENDTAB
  0
TABLE
  2
DIMSTYLE
  5
A
330
0
100
AcDbSymbolTable
 70
     1
100
AcDbDimStyleTable
 71
     0
  0
DIMSTYLE
105
27
330
A
100
AcDbSymbolTableRecord
100
AcDbDimStyleTableRecord
  2
Standard
 70
     0
340
11
  0
ENDTAB
  0
TABLE
  2
BLOCK_RECORD
  5
1
330
0
100
AcDbSymbolTable
 70
     6
  0
BLOCK_RECORD
  5
1F
330
1
100
AcDbSymbolTableRecord
100
AcDbBlockTableRecord
  2
*Model_Space
340
22
 70
     0
280
     1
281
     0
  0
BLOCK_RECORD
  5
1B
330
1
100
AcDbSymbolTableRecord
100
AcDbBlockTableRecord
  2
*Paper_Space
340
1E
 70
     0
280
     1
281
     0
  0
BLOCK_RECORD
  5
23
330
1
100
AcDbSymbolTableRecord
100
AcDbBlockTableRecord
  2
*Paper_Space0
340
26
 70
     0
280
     1
281
     0
  0
BLOCK_RECORD
  5
2E
330
1
100
AcDbSymbolTableRecord
100
AcDbBlockTableRecord
  2
direct
340
0
 70
     0
280
     1
281
     0
  0
BLOCK_RECORD
  5
42
330
1
100
AcDbSymbolTableRecord
100
AcDbBlockTableRecord
  2
overhead
340
0
 70
     0
280
     1
281
     0
  0
BLOCK_RECORD
  5
5F
330
1
100
AcDbSymbolTableRecord
100
AcDbBlockTableRecord
  2
sh_spot
340
0
 70
     0
280
     1
281
     0
  0
BLOCK_RECORD
  5
91
330
1
100
AcDbSymbolTableRecord
100
AcDbBlockTableRecord
  2
AVE_RENDER
340
0
102
{BLKREFS
331
94
331
95
331
96
331
97
331
98
331
99
331
9A
331
9B
102
}
 70
     0
280
     1
281
     0
  0
BLOCK_RECORD
  5
9F
330
1
100
AcDbSymbolTableRecord
100
AcDbBlockTableRecord
  2
AVE_GLOBAL
340
0
102
{BLKREFS
331
A2
102
}
 70
     0
280
     1
281
     0
  0
ENDTAB
  0
ENDSEC
  0
SECTION
  2
BLOCKS
  0
BLOCK
  5
20
330
1F
100
AcDbEntity
  8
0
100
AcDbBlockBegin
  2
*Model_Space
 70
     0
 10
0.0
 20
0.0
 30
0.0
  3
*Model_Space
  1

  0
ENDBLK
  5
21
330
1F
100
AcDbEntity
  8
0
100
AcDbBlockEnd
  0
BLOCK
  5
1C
330
1B
100
AcDbEntity
 67
     1
  8
0
100
AcDbBlockBegin
  2
*Paper_Space
 70
     0
 10
0.0
 20
0.0
 30
0.0
  3
*Paper_Space
  1

  0
ENDBLK
  5
1D
330
1B
100
AcDbEntity
 67
     1
  8
0
100
AcDbBlockEnd
  0
BLOCK
  5
24
330
23
100
AcDbEntity
 67
     1
  8
0
100
AcDbBlockBegin
  2
*Paper_Space0
 70
     0
 10
0.0
 20
0.0
 30
0.0
  3
*Paper_Space0
  1

  0
ENDBLK
  5
25
330
23
100
AcDbEntity
 67
     1
  8
0
100
AcDbBlockEnd
  0
BLOCK
  5
40
330
2E
100
AcDbEntity
  8
0
100
AcDbBlockBegin
  2
direct
 70
     2
 10
0.0
 20
0.0
 30
0.0
  3
direct
  1

  0
ATTDEF
  5
2F
330
2E
100
AcDbEntity
  8
ASHADE
  6
Continuous
 62
     1
100
AcDbText
 10
0.0
 20
-0.1
 30
0.0
 40
0.2
  1

  7
ASHADE
 72
     1
 11
0.0
 21
-0.1
 31
0.0
100
AcDbAttributeDefinition
280
     0
  3
Light Name
  2
SNAME
 70
     0
280
     0
  0
ARC
  5
30
330
2E
100
AcDbEntity
  8
ASHADE
  6
Continuous
 62
     7
100
AcDbCircle
 10
0.0
 20
0.0
 30
0.0
 40
0.3
100
AcDbArc
 50
205.6792886194569
 51
334.3207113805431
  0
ARC
  5
31
330
2E
100
AcDbEntity
  8
ASHADE
  6
Continuous
 62
     7
100
AcDbCircle
 10
0.0
 20
0.0
 30
0.0
 40
0.3
100
AcDbArc
 50
25.67928861945685
 51
154.3207113805431
  0
LINE
  5
32
330
2E
100
AcDbEntity
  8
ASHADE
  6
Continuous
 62
     7
100
AcDbLine
 10
-0.21
 20
0.2142428528562855
 30
0.0
 11
-0.21
 21
0.5
 31
0.0
  0
LINE
  5
33
330
2E
100
AcDbEntity
  8
ASHADE
  6
Continuous
 62
     7
100
AcDbLine
 10
-0.11
 20
0.2791057147390572
 30
0.0
 11
-0.11
 21
0.5
 31
0.0
  0
LINE
  5
34
330
2E
100
AcDbEntity
  8
ASHADE
  6
Continuous
 62
     7
100
AcDbLine
 10
0.21
 20
0.2142428528562855
 30
0.0
 11
0.21
 21
0.5
 31
0.0
  0
ATTDEF
  5
35
330
2E
100
AcDbEntity
  8
ASHADE
  6
Continuous
 62
     7
100
AcDbText
 10
0.0
 20
0.25
 30
0.0
 40
0.01
  1

100
AcDbAttributeDefinition
280
     0
  3
Look-at Y
  2
LAY
 70
     1
280
     0
  0
ATTDEF
  5
36
330
2E
100
AcDbEntity
  8
ASHADE
  6
Continuous
 62
     7
100
AcDbText
 10
0.0
 20
0.22
 30
0.0
 40
0.01
  1
1
100
AcDbAttributeDefinition
280
     0
  3
Light Intensity
  2
INTENSITY
 70
     1
280
     0
  0
ATTDEF
  5
37
330
2E
100
AcDbEntity
  8
ASHADE
  6
Continuous
 62
     7
100
AcDbText
 10
0.0
 20
0.16
 30
0.0
 40
0.01
  1
-1
100
AcDbAttributeDefinition
280
     0
  3
*not used*
  2
BEAMD
 70
     1
280
     0
  0
ATTDEF
  5
38
330
2E
100
AcDbEntity
  8
ASHADE
  6
Continuous
 62
     7
100
AcDbText
 10
0.0
 20
0.175
 30
0.0
 40
0.01
  1
-1
100
AcDbAttributeDefinition
280
     0
  3
*not used*
  2
CONED
 70
     1
280
     0
  0
ATTDEF
  5
39
330
2E
100
AcDbEntity
  8
ASHADE
  6
Continuous
 62
     7
100
AcDbText
 10
0.0
 20
0.19
 30
0.0
 40
0.01
  1
0
100
AcDbAttributeDefinition
280
     0
  3
Depth Map Size
  2
CONEA
 70
     1
280
     0
  0
ATTDEF
  5
3A
330
2E
100
AcDbEntity
  8
ASHADE
  6
Continuous
 62
     7
100
AcDbText
 10
0.0
 20
0.2050000000000001
 30
0.0
 40
0.01
  1
1,1,1
100
AcDbAttributeDefinition
280
     0
  3
Light Color (RGB)
  2
COLOR
 70
     1
280
     0
  0
ATTDEF
  5
3B
330
2E
100
AcDbEntity
  8
ASHADE
  6
Continuous
 62
     7
100
AcDbText
 10
0.0
 20
0.235
 30
0.0
 40
0.01
  1

100
AcDbAttributeDefinition
280
     0
  3
Look-at Z
  2
LAZ
 70
     1
280
     0
  0
LINE
  5
3C
330
2E
100
AcDbEntity
  8
ASHADE
  6
Continuous
 62
     7
100
AcDbLine
 10
0.0
 20
0.3
 30
0.0
 11
0.0
 21
0.5
 31
0.0
  0
LINE
  5
3D
330
2E
100
AcDbEntity
  8
ASHADE
  6
Continuous
 62
     7
100
AcDbLine
 10
0.11
 20
0.2791057147390572
 30
0.0
 11
0.11
 21
0.5
 31
0.0
  0
ATTDEF
  5
3E
330
2E
100
AcDbEntity
  8
ASHADE
  6
Continuous
 62
     7
100
AcDbText
 10
0.0
 20
0.265
 30
0.0
 40
0.01
  1

100
AcDbAttributeDefinition
280
     0
  3
Look-at X
  2
LAX
 70
     1
280
     0
  0
ATTDEF
  5
3F
330
2E
100
AcDbEntity
  8
ASHADE
  6
Continuous
 62
     7
100
AcDbText
 10
0.0
 20
0.28
 30
0.0
 40
0.01
  1

100
AcDbAttributeDefinition
280
     0
  3

  2
GNAME
 70
     1
280
     0
  0
ENDBLK
  5
41
330
2E
100
AcDbEntity
  8
0
100
AcDbBlockEnd
  0
BLOCK
  5
5D
330
42
100
AcDbEntity
  8
0
100
AcDbBlockBegin
  2
overhead
 70
     2
 10
0.0
 20
0.0
 30
0.0
  3
overhead
  1

  0
ATTDEF
  5
43
330
42
100
AcDbEntity
  8
ASHADE
  6
Continuous
 62
     1
100
AcDbText
 10
0.0
 20
-0.1
 30
0.0
 40
0.2
  1

  7
ASHADE
 72
     1
 11
0.0
 21
-0.1
 31
0.0
100
AcDbAttributeDefinition
280
     0
  3
Light Name
  2
SNAME
 70
     0
280
     0
  0
ARC
  5
44
330
42
100
AcDbEntity
  8
ASHADE
  6
Continuous
 62
     7
100
AcDbCircle
 10
0.0
 20
0.0
 30
0.0
 40
0.3
100
AcDbArc
 50
205.6792886194569
 51
334.3207113805431
  0
LINE
  5
45
330
42
100
AcDbEntity
  8
ASHADE
  6
Continuous
 62
     7
100
AcDbLine
 10
-0.2041413561583015
 20
-0.2198324514393848
 30
0.0
 11
-0.2721884748777353
 21
-0.2931099352525131
 31
0.0
  0
LINE
  5
46
330
42
100
AcDbEntity
  8
ASHADE
  6
Continuous
 62
     7
100
AcDbLine
 10
-0.1096591641591904
 20
-0.2792398032442862
 30
0.0
 11
-0.1279356915190555
 21
-0.3257797704516673
 31
0.0
  0
LINE
  5
47
330
42
100
AcDbEntity
  8
ASHADE
  6
Continuous
 62
     7
100
AcDbLine
 10
0.0
 20
-0.2999999999999999
 30
0.0
 11
0.0
 21
-0.4
 31
0.0
  0
LINE
  5
48
330
42
100
AcDbEntity
  8
ASHADE
  6
Continuous
 62
     7
100
AcDbLine
 10
0.1096591641591904
 20
-0.2792398032442862
 30
0.0
 11
0.1279356915190555
 21
-0.3257797704516673
 31
0.0
  0
LINE
  5
49
330
42
100
AcDbEntity
  8
ASHADE
  6
Continuous
 62
     7
100
AcDbLine
 10
0.2041413561583015
 20
-0.2198324514393848
 30
0.0
 11
0.2721884748777353
 21
-0.2931099352525131
 31
0.0
  0
ARC
  5
4A
330
42
100
AcDbEntity
  8
ASHADE
  6
Continuous
 62
     7
100
AcDbCircle
 10
0.0
 20
0.0
 30
0.0
 40
0.3
100
AcDbArc
 50
25.67928861945685
 51
154.3207113805431
  0
LINE
  5
4B
330
42
100
AcDbEntity
  8
ASHADE
  6
Continuous
 62
     7
100
AcDbLine
 10
-0.2703701166919155
 20
0.13
 30
0.0
 11
-0.3154318028072347
 21
0.1516666666666666
 31
0.0
  0
LINE
  5
4C
330
42
100
AcDbEntity
  8
ASHADE
  6
Continuous
 62
     7
100
AcDbLine
 10
-0.2703701166919155
 20
-0.13
 30
0.0
 11
-0.3154318028072347
 21
-0.1516666666666666
 31
0.0
  0
LINE
  5
4D
330
42
100
AcDbEntity
  8
ASHADE
  6
Continuous
 62
     7
100
AcDbLine
 10
-0.2041413561583015
 20
0.2198324514393849
 30
0.0
 11
-0.2721884748777353
 21
0.2931099352525131
 31
0.0
  0
LINE
  5
4E
330
42
100
AcDbEntity
  8
ASHADE
  6
Continuous
 62
     7
100
AcDbLine
 10
-0.1096591641591904
 20
0.2792398032442862
 30
0.0
 11
-0.1279356915190555
 21
0.3257797704516674
 31
0.0
  0
LINE
  5
4F
330
42
100
AcDbEntity
  8
ASHADE
  6
Continuous
 62
     7
100
AcDbLine
 10
0.2703701166919155
 20
-0.13
 30
0.0
 11
0.3154318028072347
 21
-0.1516666666666666
 31
0.0
  0
LINE
  5
50
330
42
100
AcDbEntity
  8
ASHADE
  6
Continuous
 62
     7
100
AcDbLine
 10
0.2703701166919155
 20
0.13
 30
0.0
 11
0.3154318028072347
 21
0.1516666666666666
 31
0.0
  0
LINE
  5
51
330
42
100
AcDbEntity
  8
ASHADE
  6
Continuous
 62
     7
100
AcDbLine
 10
0.0
 20
0.3
 30
0.0
 11
0.0
 21
0.4
 31
0.0
  0
ATTDEF
  5
52
330
42
100
AcDbEntity
  8
ASHADE
  6
Continuous
 62
     7
100
AcDbText
 10
0.0
 20
0.22
 30
0.0
 40
0.01
  1
1
100
AcDbAttributeDefinition
280
     0
  3
Light Intensity
  2
INTENSITY
 70
     1
280
     0
  0
ATTDEF
  5
53
330
42
100
AcDbEntity
  8
ASHADE
  6
Continuous
 62
     7
100
AcDbText
 10
0.0
 20
0.16
 30
0.0
 40
0.01
  1
-1
100
AcDbAttributeDefinition
280
     0
  3
*not used*
  2
BEAMD
 70
     1
280
     0
  0
ATTDEF
  5
54
330
42
100
AcDbEntity
  8
ASHADE
  6
Continuous
 62
     7
100
AcDbText
 10
0.0
 20
0.175
 30
0.0
 40
0.01
  1
-1
100
AcDbAttributeDefinition
280
     0
  3
*not used*
  2
CONED
 70
     1
280
     0
  0
ATTDEF
  5
55
330
42
100
AcDbEntity
  8
ASHADE
  6
Continuous
 62
     7
100
AcDbText
 10
0.0
 20
0.19
 30
0.0
 40
0.01
  1
0
100
AcDbAttributeDefinition
280
     0
  3
Depth Map Size
  2
CONEA
 70
     1
280
     0
  0
ATTDEF
  5
56
330
42
100
AcDbEntity
  8
ASHADE
  6
Continuous
 62
     7
100
AcDbText
 10
0.0
 20
0.2050000000000001
 30
0.0
 40
0.01
  1
1,1,1
100
AcDbAttributeDefinition
280
     0
  3
Light Color (RGB)
  2
COLOR
 70
     1
280
     0
  0
ATTDEF
  5
57
330
42
100
AcDbEntity
  8
ASHADE
  6
Continuous
 62
     7
100
AcDbText
 10
0.0
 20
0.235
 30
0.0
 40
0.01
  1

100
AcDbAttributeDefinition
280
     0
  3
Look-at Z
  2
LAZ
 70
     1
280
     0
  0
ATTDEF
  5
58
330
42
100
AcDbEntity
  8
ASHADE
  6
Continuous
 62
     7
100
AcDbText
 10
0.0
 20
0.25
 30
0.0
 40
0.01
  1

100
AcDbAttributeDefinition
280
     0
  3
Look-at Y
  2
LAY
 70
     1
280
     0
  0
ATTDEF
  5
59
330
42
100
AcDbEntity
  8
ASHADE
  6
Continuous
 62
     7
100
AcDbText
 10
0.0
 20
0.265
 30
0.0
 40
0.01
  1

100
AcDbAttributeDefinition
280
     0
  3
Look-at X
  2
LAX
 70
     1
280
     0
  0
ATTDEF
  5
5A
330
42
100
AcDbEntity
  8
ASHADE
  6
Continuous
 62
     7
100
AcDbText
 10
0.0
 20
0.28
 30
0.0
 40
0.01
  1

100
AcDbAttributeDefinition
280
     0
  3

  2
GNAME
 70
     1
280
     0
  0
LINE
  5
5B
330
42
100
AcDbEntity
  8
ASHADE
  6
Continuous
 62
     7
100
AcDbLine
 10
0.1096591641591904
 20
0.2792398032442862
 30
0.0
 11
0.1279356915190555
 21
0.3257797704516674
 31
0.0
  0
LINE
  5
5C
330
42
100
AcDbEntity
  8
ASHADE
  6
Continuous
 62
     7
100
AcDbLine
 10
0.2041413561583015
 20
0.2198324514393849
 30
0.0
 11
0.2721884748777353
 21
0.2931099352525131
 31
0.0
  0
ENDBLK
  5
5E
330
42
100
AcDbEntity
  8
0
100
AcDbBlockEnd
  0
BLOCK
  5
85
330
5F
100
AcDbEntity
  8
0
100
AcDbBlockBegin
  2
sh_spot
 70
     2
 10
0.0
 20
0.0
 30
0.0
  3
sh_spot
  1

  0
LINE
  5
60
330
5F
100
AcDbEntity
  8
ASHADE
  6
Continuous
 62
     7
100
AcDbLine
 10
0.25
 20
0.26
 30
0.0
 11
-0.25
 21
0.26
 31
0.0
  0
LINE
  5
61
330
5F
100
AcDbEntity
  8
ASHADE
  6
Continuous
 62
     7
100
AcDbLine
 10
-0.25
 20
-0.3399999999999999
 30
0.0
 11
0.25
 21
-0.3399999999999999
 31
0.0
  0
ATTDEF
  5
62
330
5F
100
AcDbEntity
  8
ASHADE
  6
Continuous
 62
     1
100
AcDbText
 10
0.0
 20
-0.1
 30
0.0
 40
0.2
  1

  7
ASHADE
 72
     1
 11
0.0
 21
-0.1
 31
0.0
100
AcDbAttributeDefinition
280
     0
  3
Light Name
  2
SNAME
 70
     0
280
     0
  0
LINE
  5
63
330
5F
100
AcDbEntity
  8
ASHADE
  6
Continuous
 62
     7
100
AcDbLine
 10
-0.25
 20
-0.13
 30
0.0
 11
-0.25
 21
-0.3399999999999999
 31
0.0
  0
LINE
  5
64
330
5F
100
AcDbEntity
  8
ASHADE
  6
Continuous
 62
     7
100
AcDbLine
 10
-0.25
 20
-0.18
 30
0.0
 11
-0.29
 21
-0.18
 31
0.0
  0
LINE
  5
65
330
5F
100
AcDbEntity
  8
ASHADE
  6
Continuous
 62
     7
100
AcDbLine
 10
-0.29
 20
-0.22
 30
0.0
 11
-0.25
 21
-0.22
 31
0.0
  0
LINE
  5
66
330
5F
100
AcDbEntity
  8
ASHADE
  6
Continuous
 62
     7
100
AcDbLine
 10
-0.29
 20
-0.18
 30
0.0
 11
-0.29
 21
-0.22
 31
0.0
  0
LINE
  5
67
330
5F
100
AcDbEntity
  8
ASHADE
  6
Continuous
 62
     7
100
AcDbLine
 10
-0.1045454545454545
 20
0.26
 30
0.0
 11
-0.15
 21
0.46
 31
0.0
  0
LINE
  5
68
330
5F
100
AcDbEntity
  8
ASHADE
  6
Continuous
 62
     7
100
AcDbLine
 10
-0.21
 20
0.26
 30
0.0
 11
-0.301304347826087
 21
0.46
 31
0.0
  0
LINE
  5
69
330
5F
100
AcDbEntity
  8
ASHADE
  6
Continuous
 62
     7
100
AcDbLine
 10
-0.25
 20
0.26
 30
0.0
 11
-0.25
 21
0.13
 31
0.0
  0
LINE
  5
6A
330
5F
100
AcDbEntity
  8
ASHADE
  6
Continuous
 62
     7
100
AcDbLine
 10
-0.25
 20
0.22
 30
0.0
 11
-0.29
 21
0.22
 31
0.0
  0
LINE
  5
6B
330
5F
100
AcDbEntity
  8
ASHADE
  6
Continuous
 62
     7
100
AcDbLine
 10
-0.29
 20
0.1799999999999999
 30
0.0
 11
-0.25
 21
0.1799999999999999
 31
0.0
  0
LINE
  5
6C
330
5F
100
AcDbEntity
  8
ASHADE
  6
Continuous
 62
     7
100
AcDbLine
 10
-0.29
 20
0.22
 30
0.0
 11
-0.29
 21
0.1799999999999999
 31
0.0
  0
ATTDEF
  5
6D
330
5F
100
AcDbEntity
  8
ASHADE
  6
Continuous
 62
     7
100
AcDbText
 10
0.0
 20
-0.24
 30
0.0
 40
0.01
  1
0
100
AcDbAttributeDefinition
280
     0
  3
Depth Map Size
  2
ZSIZE
 70
     1
280
     0
  0
ATTDEF
  5
6E
330
5F
100
AcDbEntity
  8
ASHADE
  6
Continuous
 62
     7
100
AcDbText
 10
0.0
 20
-0.3300000000000001
 30
0.0
 40
0.01
  1
0,0,0
100
AcDbAttributeDefinition
280
     0
  3
Look-from XYZ
  2
LFXYZ
 70
     1
280
     0
  0
ATTDEF
  5
6F
330
5F
100
AcDbEntity
  8
ASHADE
  6
Continuous
 62
     7
100
AcDbText
 10
0.0
 20
-0.315
 30
0.0
 40
0.01
  1
0.0
100
AcDbAttributeDefinition
280
     0
  3
Beam Distribution
  2
BEAMDI
 70
     1
280
     0
  0
ATTDEF
  5
70
330
5F
100
AcDbEntity
  8
ASHADE
  6
Continuous
 62
     7
100
AcDbText
 10
0.0
 20
-0.3
 30
0.0
 40
0.01
  1
0.0
100
AcDbAttributeDefinition
280
     0
  3
Cone Delta
  2
CONEDE
 70
     1
280
     0
  0
ATTDEF
  5
71
330
5F
100
AcDbEntity
  8
ASHADE
  6
Continuous
 62
     7
100
AcDbText
 10
0.0
 20
-0.2850000000000001
 30
0.0
 40
0.01
  1
10.0
100
AcDbAttributeDefinition
280
     0
  3
Cone Angle
  2
CONEAN
 70
     1
280
     0
  0
ATTDEF
  5
72
330
5F
100
AcDbEntity
  8
ASHADE
  6
Continuous
 62
     7
100
AcDbText
 10
0.0
 20
-0.27
 30
0.0
 40
0.01
  1
-1
100
AcDbAttributeDefinition
280
     0
  3
*not used*
  2
BIASMAX
 70
     1
280
     0
  0
ATTDEF
  5
73
330
5F
100
AcDbEntity
  8
ASHADE
  6
Continuous
 62
     7
100
AcDbText
 10
0.0
 20
-0.255
 30
0.0
 40
0.01
  1
-1
100
AcDbAttributeDefinition
280
     0
  3
*not used*
  2
BIASMIN
 70
     1
280
     0
  0
ATTDEF
  5
74
330
5F
100
AcDbEntity
  8
ASHADE
  6
Continuous
 62
     7
100
AcDbText
 10
0.0
 20
-0.225
 30
0.0
 40
0.01
  1
1,1,1
100
AcDbAttributeDefinition
280
     0
  3
Light Color (RGB)
  2
COLOR
 70
     1
280
     0
  0
ATTDEF
  5
75
330
5F
100
AcDbEntity
  8
ASHADE
  6
Continuous
 62
     7
100
AcDbText
 10
0.0
 20
-0.21
 30
0.0
 40
0.01
  1
1
100
AcDbAttributeDefinition
280
     0
  3
Light Intensity
  2
INTENSITY
 70
     1
280
     0
  0
ATTDEF
  5
76
330
5F
100
AcDbEntity
  8
ASHADE
  6
Continuous
 62
     7
100
AcDbText
 10
0.0
 20
-0.15
 30
0.0
 40
0.01
  1

100
AcDbAttributeDefinition
280
     0
  3

  2
GNAME
 70
     1
280
     0
  0
ATTDEF
  5
77
330
5F
100
AcDbEntity
  8
ASHADE
  6
Continuous
 62
     7
100
AcDbText
 10
0.0
 20
-0.195
 30
0.0
 40
0.01
  1

100
AcDbAttributeDefinition
280
     0
  3
Look-at Z
  2
LAZ
 70
     1
280
     0
  0
ATTDEF
  5
78
330
5F
100
AcDbEntity
  8
ASHADE
  6
Continuous
 62
     7
100
AcDbText
 10
0.0
 20
-0.18
 30
0.0
 40
0.01
  1

100
AcDbAttributeDefinition
280
     0
  3
Look-at Y
  2
LAY
 70
     1
280
     0
  0
ATTDEF
  5
79
330
5F
100
AcDbEntity
  8
ASHADE
  6
Continuous
 62
     7
100
AcDbText
 10
0.0
 20
-0.165
 30
0.0
 40
0.01
  1

100
AcDbAttributeDefinition
280
     0
  3
Look-at X
  2
LAX
 70
     1
280
     0
  0
LINE
  5
7A
330
5F
100
AcDbEntity
  8
ASHADE
  6
Continuous
 62
     7
100
AcDbLine
 10
0.25
 20
-0.3399999999999999
 30
0.0
 11
0.25
 21
-0.13
 31
0.0
  0
LINE
  5
7B
330
5F
100
AcDbEntity
  8
ASHADE
  6
Continuous
 62
     7
100
AcDbLine
 10
0.25
 20
-0.18
 30
0.0
 11
0.29
 21
-0.18
 31
0.0
  0
LINE
  5
7C
330
5F
100
AcDbEntity
  8
ASHADE
  6
Continuous
 62
     7
100
AcDbLine
 10
0.29
 20
-0.22
 30
0.0
 11
0.25
 21
-0.22
 31
0.0
  0
LINE
  5
7D
330
5F
100
AcDbEntity
  8
ASHADE
  6
Continuous
 62
     7
100
AcDbLine
 10
0.29
 20
-0.18
 30
0.0
 11
0.29
 21
-0.22
 31
0.0
  0
LINE
  5
7E
330
5F
100
AcDbEntity
  8
ASHADE
  6
Continuous
 62
     7
100
AcDbLine
 10
0.21
 20
0.26
 30
0.0
 11
0.301304347826087
 21
0.46
 31
0.0
  0
LINE
  5
7F
330
5F
100
AcDbEntity
  8
ASHADE
  6
Continuous
 62
     7
100
AcDbLine
 10
0.1045454545454545
 20
0.26
 30
0.0
 11
0.15
 21
0.46
 31
0.0
  0
LINE
  5
80
330
5F
100
AcDbEntity
  8
ASHADE
  6
Continuous
 62
     7
100
AcDbLine
 10
0.0
 20
0.26
 30
0.0
 11
0.0
 21
0.46
 31
0.0
  0
LINE
  5
81
330
5F
100
AcDbEntity
  8
ASHADE
  6
Continuous
 62
     7
100
AcDbLine
 10
0.25
 20
0.13
 30
0.0
 11
0.25
 21
0.26
 31
0.0
  0
LINE
  5
82
330
5F
100
AcDbEntity
  8
ASHADE
  6
Continuous
 62
     7
100
AcDbLine
 10
0.25
 20
0.22
 30
0.0
 11
0.29
 21
0.22
 31
0.0
  0
LINE
  5
83
330
5F
100
AcDbEntity
  8
ASHADE
  6
Continuous
 62
     7
100
AcDbLine
 10
0.29
 20
0.1799999999999999
 30
0.0
 11
0.25
 21
0.1799999999999999
 31
0.0
  0
LINE
  5
84
330
5F
100
AcDbEntity
  8
ASHADE
  6
Continuous
 62
     7
100
AcDbLine
 10
0.29
 20
0.22
 30
0.0
 11
0.29
 21
0.1799999999999999
 31
0.0
  0
ENDBLK
  5
86
330
5F
100
AcDbEntity
  8
0
100
AcDbBlockEnd
  0
BLOCK
  5
92
330
91
100
AcDbEntity
  8
ASHADE
100
AcDbBlockBegin
  2
AVE_RENDER
 70
     0
 10
0.0
 20
0.0
 30
0.0
  3
AVE_RENDER
  1
AVE_RENDER
  0
ENDBLK
  5
93
330
91
100
AcDbEntity
  8
0
100
AcDbBlockEnd
  0
BLOCK
  5
A0
330
9F
100
AcDbEntity
  8
ASHADE
100
AcDbBlockBegin
  2
AVE_GLOBAL
 70
     0
 10
0.0
 20
0.0
 30
0.0
  3
AVE_GLOBAL
  1
AVE_GLOBAL
  0
ENDBLK
  5
A1
330
9F
100
AcDbEntity
  8
0
100
AcDbBlockEnd
  0
ENDSEC
  0
SECTION
  2
ENTITIES
  0
INSERT
  5
94
330
1F
100
AcDbEntity
  8
ASHADE
 62
     1
100
AcDbBlockReference
  2
AVE_RENDER
 10
0.0
 20
0.0
 30
0.0
1001
AVE_RENDER
1002
{
1070
     7
1000
Pref
1070
    30
1070
    20
1070
     1
1070
     0
1000

1070
    10
1070
     1
1070
    10
1040
1.0
1070
     1
1040
0.3
1040
0.7
1040
0.0
1040
10.0
1010
-1.0
1020
-1.0
1030
-1.0
1040
0.3
1070
    49
1070
     0
1070
     0
1010
1.0
1020
1.0
1030
1.0
1040
45.0
1070
     1
1070
     0
1000
WCS
1040
0.0
1070
     0
1040
10.0
1002
}
  0
INSERT
  5
95
330
1F
100
AcDbEntity
  8
ASHADE
 62
     3
100
AcDbBlockReference
  2
AVE_RENDER
 10
0.0
 20
0.0
 30
0.0
1001
AVE_RENDER
1002
{
1070
     0
1000
Full Opt
1070
     0
1070
     1
1070
     1
1070
     1
1070
     0
1070
     0
1070
     0
1070
     1
1070
     1
1040
0.0001
1040
0.0001
1002
}
  0
INSERT
  5
96
330
1F
100
AcDbEntity
  8
ASHADE
 62
     4
100
AcDbBlockReference
  2
AVE_RENDER
 10
0.0
 20
0.0
 30
0.0
1001
AVE_RENDER
1002
{
1070
     0
1000
Quick Opt
1070
     0
1070
     1
1070
     1
1070
     1
1070
     0
1070
     0
1070
     1
1002
}
  0
INSERT
  5
97
330
1F
100
AcDbEntity
  8
ASHADE
 62
     5
100
AcDbBlockReference
  2
AVE_RENDER
 10
0.0
 20
0.0
 30
0.0
1001
AVE_RENDER
1002
{
1070
     1
1000
Scanl Opt
1070
     2
1070
     0
1070
     2
1040
2.0
1040
4.0
1070
     0
1070
     1
1070
     0
1040
0.03
1002
}
  0
INSERT
  5
98
330
1F
100
AcDbEntity
  8
ASHADE
 62
     6
100
AcDbBlockReference
  2
AVE_RENDER
 10
0.0
 20
0.0
 30
0.0
1001
AVE_RENDER
1002
{
1070
     2
1000
Raytr Opt
1070
     2
1070
     0
1070
     2
1040
2.0
1040
4.0
1070
     0
1070
     1
1070
     1
1040
0.03
1070
     3
1040
0.03
1002
}
  0
INSERT
  5
99
330
1F
100
AcDbEntity
  8
ASHADE
 62
     7
100
AcDbBlockReference
  2
AVE_RENDER
 10
0.0
 20
0.0
 30
0.0
1001
AVE_RENDER
1002
{
1070
     0
1000
RFile Opt
1070
     1
1070
   640
1070
   480
1070
 10000
1070
     1
1070
     8
1070
     8
1070
     0
1070
     0
1070
     0
1070
     0
1070
     0
1070
     0
1070
     0
1002
}
  0
INSERT
  5
9A
330
1F
100
AcDbEntity
  8
ASHADE
 62
     8
100
AcDbBlockReference
  2
AVE_RENDER
 10
0.0
 20
0.0
 30
0.0
1001
AVE_RENDER
1002
{
1070
     0
1000
Fog Opt
1070
     0
1070
     0
1040
0.0
1040
1.0
1040
0.0
1040
1.0
1010
0.5
1020
0.5
1030
0.5
1002
}
  0
INSERT
  5
9B
330
1F
100
AcDbEntity
  8
ASHADE
 62
     9
100
AcDbBlockReference
  2
AVE_RENDER
 10
0.0
 20
0.0
 30
0.0
1001
AVE_RENDER
1002
{
1070
     0
1000
BG Opt
1070
     0
1070
     1
1010
0.0
1020
0.0
1030
0.0
1010
1.0
1020
0.0
1030
0.0
1010
0.0
1020
1.0
1030
0.0
1010
0.0
1020
0.0
1030
1.0
1040
0.5
1040
0.33
1040
0.0
1000

1070
     1
1000

1070
     1
1070
     1
1040
1.0
1040
1.0
1040
0.0
1040
0.0
1070
     0
1002
}
  0
INSERT
  5
A2
330
1F
100
AcDbEntity
  8
ASHADE
 62
     1
100
AcDbBlockReference
  2
AVE_GLOBAL
 10
0.0
 20
0.0
 30
0.0
1001
AVE_MATERIAL
1002
{
1000
*GLOBAL*
1000
2
1000
Global finish.
1002
{
1002
}
1002
{
1070
    63
1002
{
1002
{
1010
-1.0
1020
-1.0
1030
-1.0
1002
}
1040
0.1000000014901161
1000

1040
0.0
1002
{
1002
}
1040
0.0
1002
{
1002
}
1040
0.0
1002
}
1002
{
1002
{
1010
-1.0
1020
-1.0
1030
-1.0
1002
}
1040
0.6999999880790711
1000

1040
0.0
1002
{
1002
}
1040
0.0
1002
{
1002
}
1040
0.0
1002
}
1002
{
1002
{
1010
-1.0
1020
-1.0
1030
-1.0
1002
}
1040
0.2000000029802322
1000

1040
0.0
1002
{
1002
}
1040
0.0
1002
{
1002
}
1040
0.0
1002
}
1002
{
1070
     0
1002
{
1070
     1
1002
{
1040
1.0
1040
1.0
1000

1040
0.0
1002
{
1002
}
1040
0.0
1002
{
1002
}
1040
0.0
1002
}
1002
}
1040
1.0
1040
0.0
1040
0.0
1002
}
1002
{
1040
1.0
1040
1.0
1000

1040
0.0
1002
{
1002
}
1040
0.0
1002
{
1002
}
1040
0.0
1002
}
1002
{
1040
0.5
1040
1.0
1000

1040
0.0
1002
{
1002
}
1040
0.0
1002
{
1002
}
1040
0.0
1002
}
1002
{
1070
     0
1040
0.0
1002
{
1002
}
1040
1.0
1002
{
1002
}
1040
0.0
1002
}
1002
{
1040
0.0
1002
{
1002
{
1010
0.0
1020
0.0
1030
0.0
1002
}
1040
1.0
1000

1040
0.0
1002
{
1002
}
1040
0.0
1002
{
1002
}
1040
0.0
1002
}
1002
}
1002
{
1002
{
1070
     1
1002
{
1040
0.0
1040
1.0
1000

1040
0.0
1002
{
1002
}
1040
0.0
1002
{
1002
}
1040
0.0
1002
}
1002
}
1040
0.0
1002
{
1002
}
1010
1.0
1020
0.0
1030
0.0
1010
0.0
1020
1.0
1030
0.0
1010
0.0
1020
0.0
1030
1.0
1070
     0
1002
}
1002
{
1002
{
1040
1.0
1040
1.0
1002
{
1070
     1
1002
{
1040
1.0
1040
1.0
1000

1040
0.0
1002
{
1002
}
1040
0.0
1002
{
1002
}
1040
0.0
1002
}
1002
}
1002
}
1070
     0
1040
0.0
1002
{
1002
}
1002
}
1002
{
1002
}
1002
}
1002
{
1071
        3
1070
     3
1070
     0
1002
{
1070
     2
1070
     0
1070
     0
1040
0.0
1002
}
1070
     0
1070
     2
1002
{
1002
}
1002
}
1002
{
1040
8030.0
1040
190.3000030517578
1040
0.3050000071525574
1040
228.0
1040
545.0
1040
14.0
1040
17.39999961853027
1040
0.4560000002384186
1002
}
1002
}
  0
MESH
  5
F9
330
1F
100
AcDbEntity
  8
OracDecor_cornice_mouldings
 62
   146
420
   552583
160
             23552
310
005C00008E0200000C00000013000000020000003C0000000600000002000000000000E0FF3F8F40000000A04BC546C0000000000080F03E000000E0FF3F8F400000006050FC48C0000000800D6DE8BF0C000000130000000A0000003C0000000600000002000000000000E0FF3F8F40000000A04BC546C0000000000080F0
310
3E000000E0FF3F8F40000000A0020049C0000000000000F23E0C00000013000000120000003C0000000600000002000000000000E0FF3F8F400000006050FC48C0000000800D6DE8BF000000E0FF3F8F40000000A0020049C0000000000000F23E0C000000130000001A0000003C0000000600000002000000000000E0FF3F
310
8F4000000000409CC9BF00000020FEFF29C0000000E0FF3F8F40000000C046F641C000000040FCFF29C00C00000013000000220000003C0000000600000002000000000000E0FF3F8F4000000000409CC9BF00000020FEFF29C0000000E0FF3F8F40000000800A002AC000000080FAFF17C00C000000130000002A0000003C
310
0000000600000002000000000000E0FF3F8F40000000800A002AC000000080FAFF17C0000000E0FF3F8F4000000060711D3EC000000080FAFF17C00C00000013000000320000003C0000000600000002000000000000E0FF3F8F4000000060711D3EC000000080FAFF17C0000000E0FF3F8F40000000C046F641C000000040
310
FCFF29C00C000000130000003A0000003C0000000600000002000000000000E0FF3F8F40000000A02F5C42C00000008062032AC0000000E0FF3F8F40000000C046F641C000000040FCFF29C00C00000013000000420000003C0000000600000002000000000000E0FF3F8F4000000060711D3EC000000080FAFF17C0000000
310
E0FF3F8F4000000060131C3FC00000008057A117C00C000000130000004A0000003C0000000600000002000000000000E0FF3F8F40000000A02F5C42C00000008062032AC0000000E0FF3F8F4000000060131C3FC00000008057A117C00C00000013000000520000003C0000000600000002000000000000E0FF3F8F400000
310
00A09EDE42C000000080B7EF29C0000000E0FF3F8F40000000A02F5C42C00000008062032AC00C000000130000005A0000003C0000000600000002000000000000E0FF3F8F4000000060131C3FC00000008057A117C0000000E0FF3F8F4000000060563140C000000000C12C16C00C00000013000000620000003C00000006
310
00000002000000000000E0FF3F8F40000000A09EDE42C000000080B7EF29C0000000E0FF3F8F4000000060563140C000000000C12C16C00C000000130000006A0000003C0000000600000002000000000000E0FF3F8F40000000A0615A43C0000000404EBF29C0000000E0FF3F8F40000000A09EDE42C000000080B7EF29C0
310
0C00000013000000720000003C0000000600000002000000000000E0FF3F8F4000000060563140C000000000C12C16C0000000E0FF3F8F40000000E08AC640C000000080FFA013C00C000000130000007A0000003C0000000600000002000000000000E0FF3F8F40000000A0615A43C0000000404EBF29C0000000E0FF3F8F
310
40000000E08AC640C000000080FFA013C00C00000013000000820000003C0000000600000002000000000000E0FF3F8F400000006050FC48C0000000800D6DE8BF000000E0FF3F8F40000000A05DEA48C0000000C01633FCBF0C000000130000008A0000003C0000000600000002000000000000E0FF3F8F40000000A05DEA
310
48C0000000C01633FCBF000000E0FF3F8F40000000A0E89946C00000000078FEB0BF0C00000013000000920000003C0000000600000002000000000000E0FF3F8F40000000A04BC546C0000000000080F03E000000E0FF3F8F40000000A0E89946C00000000078FEB0BF0C000000130000009A0000003C0000000600000002
310
000000000000E0FF3F8F40000000A05DEA48C0000000C01633FCBF000000E0FF3F8F400000002010D248C00000006003C804C00C00000013000000A20000003C0000000600000002000000000000E0FF3F8F400000002010D248C00000006003C804C0000000E0FF3F8F4000000020206946C0000000007C37D4BF0C000000
310
13000000AA0000003C0000000600000002000000000000E0FF3F8F40000000A0E89946C00000000078FEB0BF000000E0FF3F8F4000000020206946C0000000007C37D4BF0C00000013000000B20000003C0000000600000002000000000000E0FF3F8F400000002010D248C00000006003C804C0000000E0FF3F8F40000000
310
E06EB048C000000060F2B50BC00C00000013000000BA0000003C0000000600000002000000000000E0FF3F8F40000000E06EB048C000000060F2B50BC0000000E0FF3F8F4000000060F24546C000000080F99AE7BF0C00000013000000C20000003C0000000600000002000000000000E0FF3F8F4000000020206946C00000
310
00007C37D4BF000000E0FF3F8F4000000060F24546C000000080F99AE7BF0C00000013000000CA0000003C0000000600000002000000000000E0FF3F8F40000000E06EB048C000000060F2B50BC0000000E0FF3F8F40000000A0408448C0000000C0A66C11C00C00000013000000D20000003C000000060000000200000000
310
0000E0FF3F8F40000000A0408448C0000000C0A66C11C0000000E0FF3F8F4000000060F24546C000000080F99AE7BF0C00000013000000DA0000003C0000000600000002000000000000E0FF3F8F40000000A0408448C0000000C0A66C11C0000000E0FF3F8F40000000E07A4D48C0000000E0841D15C00C00000013000000
310
E20000003C0000000600000002000000000000E0FF3F8F40000000E07A4D48C0000000E0841D15C0000000E0FF3F8F40000000E0EB1046C0000000C04E3EF3BF0C00000013000000EA0000003C0000000600000002000000000000E0FF3F8F4000000060F24546C000000080F99AE7BF000000E0FF3F8F40000000E0EB1046
310
C0000000C04E3EF3BF0C00000013000000F20000003C0000000600000002000000000000E0FF3F8F40000000E07A4D48C0000000E0841D15C0000000E0FF3F8F4000000060190C48C00000006012D518C00C00000013000000FA0000003C0000000600000002000000000000E0FF3F8F4000000060190C48C00000006012D5
310
18C0000000E0FF3F8F40000000E0EB1046C0000000C04E3EF3BF0C00000013000000020100003C0000000600000002000000000000E0FF3F8F4000000060190C48C00000006012D518C0000000E0FF3F8F40000000E0DABE47C0000000E053911CC00C000000130000000A0100003C0000000600000002000000000000E0FF
310
3F8F40000000E0DABE47C0000000E053911CC0000000E0FF3F8F4000000020EFC745C0000000C03E56F7BF0C00000013000000120100003C0000000600000002000000000000E0FF3F8F40000000E0EB1046C0000000C04E3EF3BF000000E0FF3F8F4000000020EFC745C0000000C03E56F7BF0C000000130000001A010000
310
3C0000000600000002000000000000E0FF3F8F40000000E0DABE47C0000000E053911CC0000000E0FF3F8F40000000E0B56747C0000000C0B71F20C00C00000013000000220100003C0000000600000002000000000000E0FF3F8F40000000E0B56747C0000000C0B71F20C0000000E0FF3F8F4000000020EFC745C0000000
310
C03E56F7BF0C000000130000002A0100003C0000000600000002000000000000E0FF3F8F40000000E0B56747C0000000C0B71F20C0000000E0FF3F8F40000000A0FE0A47C000000040C8D021C00C00000013000000320100003C0000000600000002000000000000E0FF3F8F40000000A0FE0A47C000000040C8D021C00000
310
00E0FF3F8F4000000020167845C0000000C03E56F7BF0C000000130000003A0100003C0000000600000002000000000000E0FF3F8F4000000020EFC745C0000000C03E56F7BF000000E0FF3F8F4000000020167845C0000000C03E56F7BF0C00000013000000420100003C0000000600000002000000000000E0FF3F8F4000
310
0000A0FE0A47C000000040C8D021C0000000E0FF3F8F400000006003A846C0000000C0B45E23C00C000000130000004A0100003C0000000600000002000000000000E0FF3F8F400000006003A846C0000000C0B45E23C0000000E0FF3F8F4000000020167845C0000000C03E56F7BF0C00000013000000520100003C000000
310
0600000002000000000000E0FF3F8F400000006003A846C0000000C0B45E23C0000000E0FF3F8F4000000020E44246C0000000807BC024C00C000000130000005A0100003C0000000600000002000000000000E0FF3F8F4000000020E44246C0000000807BC024C0000000E0FF3F8F4000000060192F45C0000000C04E3EF3
310
BF0C00000013000000620100003C0000000600000002000000000000E0FF3F8F4000000020167845C0000000C03E56F7BF000000E0FF3F8F4000000060192F45C0000000C04E3EF3BF0C000000130000006A0100003C0000000600000002000000000000E0FF3F8F40000000A00B6C42C00000000038D9B2BF000000E0FF3F
310
8F4000000020A39942C0000000000080F03E0C00000013000000720100003C0000000600000002000000000000E0FF3F8F40000000E0B97A44C0000000000000F23E000000E0FF3F8F4000000020A39942C0000000000080F03E0C000000130000007A0100003C0000000600000002000000000000E0FF3F8F40000000A01C
310
A644C00000000060FEB0BF000000E0FF3F8F40000000E0B97A44C0000000000000F23E0C00000013000000820100003C0000000600000002000000000000E0FF3F8F40000000A01CA644C00000000060FEB0BF000000E0FF3F8F40000000A00B6C42C00000000038D9B2BF0C000000130000008A0100003C00000006000000
310
02000000000000E0FF3F8F40000000E0CE3942C000000000DB4CD6BF000000E0FF3F8F40000000A00B6C42C00000000038D9B2BF0C00000013000000920100003C0000000600000002000000000000E0FF3F8F4000000060E5D644C0000000006837D4BF000000E0FF3F8F40000000A01CA644C00000000060FEB0BF0C0000
310
00130000009A0100003C0000000600000002000000000000E0FF3F8F4000000060E5D644C0000000006837D4BF000000E0FF3F8F40000000E0CE3942C000000000DB4CD6BF0C00000013000000A20100003C0000000600000002000000000000E0FF3F8F40000000E0CE3942C000000000DB4CD6BF000000E0FF3F8F400000
310
00605B2142C000000000080EE5BF0C00000013000000AA0100003C0000000600000002000000000000E0FF3F8F400000002013FA44C000000080F99AE7BF000000E0FF3F8F4000000060E5D644C0000000006837D4BF0C00000013000000B20100003C0000000600000002000000000000E0FF3F8F400000002013FA44C000
310
000080F99AE7BF000000E0FF3F8F40000000605B2142C000000000080EE5BF0C00000013000000BA0100003C0000000600000002000000000000E0FF3F8F40000000A0BEA941C0000000C02FA407C0000000E0FF3F8F400000002068E041C000000020B56A00C00C00000013000000C20100003C0000000600000002000000
310
000000E0FF3F8F4000000060192F45C0000000C04E3EF3BF000000E0FF3F8F400000002068E041C000000020B56A00C00C00000013000000CA0100003C0000000600000002000000000000E0FF3F8F4000000060192F45C0000000C04E3EF3BF000000E0FF3F8F40000000A0BEA941C0000000C02FA407C00C000000130000
310
00D20100003C0000000600000002000000000000E0FF3F8F40000000605B2142C000000000080EE5BF000000E0FF3F8F400000002068E041C000000020B56A00C00C00000013000000DA0100003C0000000600000002000000000000E0FF3F8F4000000060192F45C0000000C04E3EF3BF000000E0FF3F8F400000002013FA
310
44C000000080F99AE7BF0C00000013000000E20100003C0000000600000002000000000000E0FF3F8F40000000207E3E44C0000000A0FB0629C0000000E0FF3F8F400000006002CF43C0000000A0207329C00C00000013000000EA0100003C0000000600000002000000000000E0FF3F8F400000006002CF43C0000000A020
310
7329C0000000E0FF3F8F4000000060214641C0000000E0431E10C00C00000013000000F20100003C0000000600000002000000000000E0FF3F8F40000000207E3E44C0000000A0FB0629C0000000E0FF3F8F4000000060214641C0000000E0431E10C00C00000013000000FA0100003C0000000600000002000000000000E0
310
FF3F8F400000006002CF43C0000000A0207329C0000000E0FF3F8F40000000A0615A43C0000000404EBF29C00C00000013000000020200003C0000000600000002000000000000E0FF3F8F40000000E08AC640C000000080FFA013C0000000E0FF3F8F4000000060214641C0000000E0431E10C00C000000130000000A0200
310
003C0000000600000002000000000000E0FF3F8F4000000060101145C0000000404EC827C0000000E0FF3F8F4000000020AFA944C0000000A0027928C00C00000013000000120200003C0000000600000002000000000000E0FF3F8F4000000020AFA944C0000000A0027928C0000000E0FF3F8F4000000060214641C00000
310
00E0431E10C00C000000130000001A0200003C0000000600000002000000000000E0FF3F8F4000000060101145C0000000404EC827C0000000E0FF3F8F4000000060214641C0000000E0431E10C00C00000013000000220200003C0000000600000002000000000000E0FF3F8F4000000020AFA944C0000000A0027928C000
310
0000E0FF3F8F40000000207E3E44C0000000A0FB0629C00C000000130000002A0200003C0000000600000002000000000000E0FF3F8F4000000020C97745C0000000C021EF26C0000000E0FF3F8F4000000060101145C0000000404EC827C00C00000013000000320200003C0000000600000002000000000000E0FF3F8F40
310
00000020C97745C0000000C021EF26C0000000E0FF3F8F4000000060214641C0000000E0431E10C00C000000130000003A0200003C0000000600000002000000000000E0FF3F8F40000000A0DDDD45C0000000C060EE25C0000000E0FF3F8F4000000020C97745C0000000C021EF26C00C00000013000000420200003C0000
310
000600000002000000000000E0FF3F8F40000000A0DDDD45C0000000C060EE25C0000000E0FF3F8F4000000060214641C0000000E0431E10C00C000000130000004A0200003C0000000600000002000000000000E0FF3F8F4000000020E44246C0000000807BC024C0000000E0FF3F8F40000000A0DDDD45C0000000C060EE
310
25C00C00000013000000520200003C0000000600000002000000000000E0FF3F8F4000000060214641C0000000E0431E10C0000000E0FF3F8F40000000A0BEA941C0000000C02FA407C00C000000130000005A0200003C0000000600000002000000000000E0FF3F8F4000000020E44246C0000000807BC024C0000000E0FF
310
3F8F40000000A0BEA941C0000000C02FA407C00C00000013000000620200003C0000000600000002000000000000E0FF3F8F4000000000008014BF000000000000F63E000000E0FF3F8F4000000000000015BF00000020979929C00C000000130000006A0200003C0000000600000002000000000000E0FF3F8F4000000000
310
008014BF000000000000F63E000000E0FF3F8F40000000009BAB0DC0000000000080F43E0C00000013000000720200003C0000000600000002000000000000E0FF3F8F4000000000000015BF00000020979929C0000000E0FF3F8F40000000009BAB0DC0000000000080F43E0C000000130000007A0200003C000000060000
310
0002000000000000E0FF3F8F4000000080E43010C00000000038FEB0BF000000E0FF3F8F40000000009BAB0DC0000000000080F43E0C00000013000000820200003C0000000600000002000000000000E0FF3F8F4000000000000015BF00000020979929C0000000E0FF3F8F4000000080E43010C00000000038FEB0BF0C00
310
0000130000008A0200003C0000000600000002000000000000E0FF3F8F400000000080849BBF00000020CACC29C0000000E0FF3F8F4000000000000015BF00000020979929C00C00000013000000920200003C0000000600000002000000000000E0FF3F8F4000000080E43010C00000000038FEB0BF000000E0FF3F8F4000
310
00008029B711C0000000006C37D4BF0C000000130000009A0200003C0000000600000002000000000000E0FF3F8F400000000080849BBF00000020CACC29C0000000E0FF3F8F400000008029B711C0000000006C37D4BF0C00000013000000A20200003C0000000600000002000000000000E0FF3F8F400000008097D012C0
310
00000080F19AE7BF000000E0FF3F8F400000008029B711C0000000006C37D4BF0C00000013000000AA0200003C0000000600000002000000000000E0FF3F8F400000000080849BBF00000020CACC29C0000000E0FF3F8F400000008097D012C000000080F19AE7BF0C00000013000000B20200003C00000006000000020000
310
00000000E0FF3F8F4000000000209FB9BF0000002045F229C0000000E0FF3F8F400000000080849BBF00000020CACC29C00C00000013000000BA0200003C0000000600000002000000000000E0FF3F8F4000000080CB7814C0000000C04A3EF3BF000000E0FF3F8F400000008097D012C000000080F19AE7BF0C0000001300
310
0000C20200003C0000000600000002000000000000E0FF3F8F4000000000209FB9BF0000002045F229C0000000E0FF3F8F4000000080CB7814C0000000C04A3EF3BF0C00000013000000CA0200003C0000000600000002000000000000E0FF3F8F4000000000409CC9BF00000020FEFF29C0000000E0FF3F8F400000000020
310
9FB9BF0000002045F229C00C00000013000000D20200003C0000000600000002000000000000E0FF3F8F4000000080CB7814C0000000C04A3EF3BF000000E0FF3F8F4000000080B1C016C0000000C03A56F7BF0C00000013000000DA0200003C0000000600000002000000000000E0FF3F8F4000000000409CC9BF00000020
310
FEFF29C0000000E0FF3F8F4000000080B1C016C0000000C03A56F7BF0C00000013000000E20200003C0000000600000002000000000000E0FF3F8F4000000000409CC9BF00000020FEFF29C0000000E0FF3F8F4000000020EAFF28C0000000806E7617C00C00000013000000EA0200003C0000000600000002000000000000
310
E0FF3F8F40000000801E7B29C000000080D5DC17C0000000E0FF3F8F4000000020EAFF28C0000000806E7617C00C00000013000000F20200003C0000000600000002000000000000E0FF3F8F40000000801E7B29C000000080D5DC17C0000000E0FF3F8F4000000000409CC9BF00000020FEFF29C00C00000013000000FA02
310
00003C0000000600000002000000000000E0FF3F8F40000000801E7B29C000000080D5DC17C0000000E0FF3F8F40000000800A002AC000000080FAFF17C00C00000013000000020300003C0000000600000002000000000000E0FF3F8F4000000000409CC9BF00000020FEFF29C0000000E0FF3F8F4000000080D04428C000
310
0000803A0016C00C000000130000000A0300003C0000000600000002000000000000E0FF3F8F40000000C0159628C000000000E3D316C0000000E0FF3F8F4000000080D04428C0000000803A0016C00C00000013000000120300003C0000000600000002000000000000E0FF3F8F4000000000409CC9BF00000020FEFF29C0
310
000000E0FF3F8F40000000C0159628C000000000E3D316C00C000000130000001A0300003C0000000600000002000000000000E0FF3F8F4000000020EAFF28C0000000806E7617C0000000E0FF3F8F40000000C0159628C000000000E3D316C00C00000013000000220300003C0000000600000002000000000000E0FF3F8F
310
4000000000409CC9BF00000020FEFF29C0000000E0FF3F8F40000000800A0028C000000080FAFF13C00C000000130000002A0300003C0000000600000002000000000000E0FF3F8F40000000409D1128C000000000D40915C0000000E0FF3F8F40000000800A0028C000000080FAFF13C00C00000013000000320300003C00
310
00000600000002000000000000E0FF3F8F4000000000409CC9BF00000020FEFF29C0000000E0FF3F8F40000000409D1128C000000000D40915C00C000000130000003A0300003C0000000600000002000000000000E0FF3F8F4000000080D04428C0000000803A0016C0000000E0FF3F8F40000000409D1128C000000000D4
310
0915C00C00000013000000420300003C0000000600000002000000000000E0FF3F8F4000000080B1C016C0000000C03A56F7BF000000E0FF3F8F4000000080773F19C0000000C03A56F7BF0C000000130000004A0300003C0000000600000002000000000000E0FF3F8F4000000080773F19C0000000C03A56F7BF000000E0
310
FF3F8F40000000800A0028C000000080FAFF13C00C00000013000000520300003C0000000600000002000000000000E0FF3F8F400000000045CF1FC00000000020FEB0BF000000E0FF3F8F40000000802E9520C0000000000000F63E0C000000130000005A0300003C0000000600000002000000000000E0FF3F8F40000000
310
802E9520C0000000000000F63E000000E0FF3F8F40000000800A0026C0000000000000F63E0C00000013000000620300003C0000000600000002000000000000E0FF3F8F4000000000F78426C000000000C08FA1BF000000E0FF3F8F40000000800A0026C0000000000000F63E0C000000130000006A0300003C0000000600
310
000002000000000000E0FF3F8F400000000045CF1FC00000000020FEB0BF000000E0FF3F8F4000000000F78426C000000000C08FA1BF0C00000013000000720300003C0000000600000002000000000000E0FF3F8F4000000080FF481EC0000000006A37D4BF000000E0FF3F8F400000000045CF1FC00000000020FEB0BF0C
310
000000130000007A0300003C0000000600000002000000000000E0FF3F8F4000000000F78426C000000000C08FA1BF000000E0FF3F8F40000000002B0027C000000000D030C1BF0C00000013000000820300003C0000000600000002000000000000E0FF3F8F4000000080FF481EC0000000006A37D4BF000000E0FF3F8F40
310
000000002B0027C000000000D030C1BF0C000000130000008A0300003C0000000600000002000000000000E0FF3F8F40000000002B0027C000000000D030C1BF000000E0FF3F8F4000000080FF6927C00000000008C1D2BF0C00000013000000920300003C0000000600000002000000000000E0FF3F8F4000000080FF481E
310
C0000000006A37D4BF000000E0FF3F8F4000000080FF6927C00000000008C1D2BF0C000000130000009A0300003C0000000600000002000000000000E0FF3F8F4000000080912F1DC000000080F19AE7BF000000E0FF3F8F4000000080FF481EC0000000006A37D4BF0C00000013000000A20300003C000000060000000200
310
0000000000E0FF3F8F4000000080FF6927C00000000008C1D2BF000000E0FF3F8F400000000045BB27C000000000A3FBDFBF0C00000013000000AA0300003C0000000600000002000000000000E0FF3F8F4000000080912F1DC000000080F19AE7BF000000E0FF3F8F400000000045BB27C000000000A3FBDFBF0C00000013
310
000000B20300003C0000000600000002000000000000E0FF3F8F400000000045BB27C000000000A3FBDFBF000000E0FF3F8F400000000078EE27C00000008011B1E7BF0C00000013000000BA0300003C0000000600000002000000000000E0FF3F8F4000000080912F1DC000000080F19AE7BF000000E0FF3F8F4000000000
310
78EE27C00000008011B1E7BF0C00000013000000C20300003C0000000600000002000000000000E0FF3F8F40000000805E871BC0000000804A3EF3BF000000E0FF3F8F4000000080912F1DC000000080F19AE7BF0C00000013000000CA0300003C0000000600000002000000000000E0FF3F8F400000000078EE27C0000000
310
8011B1E7BF000000E0FF3F8F40000000800A0028C000000080D5FFEFBF0C00000013000000D20300003C0000000600000002000000000000E0FF3F8F40000000805E871BC0000000804A3EF3BF000000E0FF3F8F40000000800A0028C000000080D5FFEFBF0C00000013000000DA0300003C00000006000000020000000000
310
00E0FF3F8F4000000080773F19C0000000C03A56F7BF000000E0FF3F8F40000000805E871BC0000000804A3EF3BF0C00000013000000E20300003C0000000600000002000000000000E0FF3F8F40000000800A0028C000000080FAFF13C0000000E0FF3F8F40000000800A0028C000000080D5FFEFBF0C00000013000000EA
310
0300003C0000000600000002000000000000E0FF3F8F400000000080849BBF00000020CACC29C00000000000408FC000000000806E9BBF00000020D4CC29C00C00000013000000F20300003C00000006000000020000000000000000408FC0000000000000E03E00000020A19929C00000000000408FC000000000806E9BBF
310
00000020D4CC29C00C00000013000000FA0300003C0000000600000002000000000000E0FF3F8F4000000000000015BF00000020979929C00000000000408FC0000000000000E03E00000020A19929C00C00000013000000020400003C0000000600000002000000000000E0FF3F8F4000000000209FB9BF0000002045F229
310
C00000000000408FC0000000002099B9BF000000204FF229C00C000000130000000A0400003C00000006000000020000000000000000408FC0000000002099B9BF000000204FF229C00000000000408FC000000000806E9BBF00000020D4CC29C00C00000013000000120400003C0000000600000002000000000000E0FF3F
310
8F4000000000409CC9BF00000020FEFF29C00000000000408FC0000000006099C9BF0000002007002AC00C000000130000001A0400003C00000006000000020000000000000000408FC0000000006099C9BF0000002007002AC00000000000408FC0000000002099B9BF000000204FF229C00C00000013000000220400003C
310
0000000600000002000000000000E0FF3F8F40000000C046F641C000000040FCFF29C00000000000408FC00000008043F641C0000000C006002AC00C000000130000002A0400003C00000006000000020000000000000000408FC00000008043F641C0000000C006002AC00000000000408FC0000000006099C9BF00000020
310
07002AC00C00000013000000320400003C0000000600000002000000000000E0FF3F8F40000000A02F5C42C00000008062032AC00000000000408FC0000000802C5C42C0000000006C032AC00C000000130000003A0400003C00000006000000020000000000000000408FC00000008043F641C0000000C006002AC0000000
310
0000408FC0000000802C5C42C0000000006C032AC00C00000013000000420400003C0000000600000002000000000000E0FF3F8F40000000A09EDE42C000000080B7EF29C00000000000408FC0000000809BDE42C000000000C1EF29C00C000000130000004A0400003C00000006000000020000000000000000408FC00000
310
00802C5C42C0000000006C032AC00000000000408FC0000000809BDE42C000000000C1EF29C00C00000013000000520400003C0000000600000002000000000000E0FF3F8F40000000A0615A43C0000000404EBF29C00000000000408FC0000000805E5A43C0000000C058BF29C00C000000130000005A0400003C00000006
310
000000020000000000000000408FC0000000805E5A43C0000000C058BF29C00000000000408FC0000000809BDE42C000000000C1EF29C00C00000013000000620400003C0000000600000002000000000000E0FF3F8F400000006002CF43C0000000A0207329C00000000000408FC000000040FFCE43C0000000202A7329C0
310
0C000000130000006A0400003C00000006000000020000000000000000408FC0000000805E5A43C0000000C058BF29C00000000000408FC000000040FFCE43C0000000202A7329C00C00000013000000720400003C0000000600000002000000000000E0FF3F8F40000000207E3E44C0000000A0FB0629C00000000000408F
310
C0000000007B3E44C000000020050729C00C000000130000007A0400003C00000006000000020000000000000000408FC0000000007B3E44C000000020050729C00000000000408FC000000040FFCE43C0000000202A7329C00C00000013000000820400003C0000000600000002000000000000E0FF3F8F4000000020AFA9
310
44C0000000A0027928C00000000000408FC000000000ACA944C0000000200D7928C00C000000130000008A0400003C00000006000000020000000000000000408FC000000000ACA944C0000000200D7928C00000000000408FC0000000007B3E44C000000020050729C00C00000013000000920400003C0000000600000002
310
000000000000E0FF3F8F4000000060101145C0000000404EC827C00000000000408FC0000000400D1145C0000000C057C827C00C000000130000009A0400003C00000006000000020000000000000000408FC000000000ACA944C0000000200D7928C00000000000408FC0000000400D1145C0000000C057C827C00C000000
310
13000000A20400003C0000000600000002000000000000E0FF3F8F4000000020C97745C0000000C021EF26C00000000000408FC000000000C67745C0000000402BEF26C00C00000013000000AA0400003C00000006000000020000000000000000408FC0000000400D1145C0000000C057C827C00000000000408FC0000000
310
00C67745C0000000402BEF26C00C00000013000000B20400003C0000000600000002000000000000E0FF3F8F40000000A0DDDD45C0000000C060EE25C00000000000408FC000000080DADD45C0000000406AEE25C00C00000013000000BA0400003C00000006000000020000000000000000408FC000000000C67745C00000
310
00402BEF26C00000000000408FC000000080DADD45C0000000406AEE25C00C00000013000000C20400003C0000000600000002000000000000E0FF3F8F4000000020E44246C0000000807BC024C00000000000408FC000000000E14246C00000000085C024C00C00000013000000CA0400003C000000060000000200000000
310
00000000408FC000000000E14246C00000000085C024C00000000000408FC000000080DADD45C0000000406AEE25C00C00000013000000D20400003C0000000600000002000000000000E0FF3F8F400000006003A846C0000000C0B45E23C00000000000408FC00000008000A846C000000040BF5E23C00C00000013000000
310
DA0400003C00000006000000020000000000000000408FC000000000E14246C00000000085C024C00000000000408FC00000008000A846C000000040BF5E23C00C00000013000000E20400003C0000000600000002000000000000E0FF3F8F40000000A0FE0A47C000000040C8D021C00000000000408FC0000000C0FB0A47
310
C0000000C0D1D021C00C00000013000000EA0400003C00000006000000020000000000000000408FC0000000C0FB0A47C0000000C0D1D021C00000000000408FC00000008000A846C000000040BF5E23C00C00000013000000F20400003C0000000600000002000000000000E0FF3F8F40000000E0B56747C0000000C0B71F
310
20C00000000000408FC0000000C0B26747C0000000C0C11F20C00C00000013000000FA0400003C00000006000000020000000000000000408FC0000000C0FB0A47C0000000C0D1D021C00000000000408FC0000000C0B26747C0000000C0C11F20C00C00000013000000020500003C0000000600000002000000000000E0FF
310
3F8F40000000E0DABE47C0000000E053911CC00000000000408FC000000000D8BE47C0000000E067911CC00C000000130000000A0500003C00000006000000020000000000000000408FC000000000D8BE47C0000000E067911CC00000000000408FC0000000C0B26747C0000000C0C11F20C00C0000001300000012050000
310
3C0000000600000002000000000000E0FF3F8F4000000060190C48C00000006012D518C00000000000408FC000000040160C48C00000006025D518C00C000000130000001A0500003C00000006000000020000000000000000408FC000000040160C48C00000006025D518C00000000000408FC000000000D8BE47C0000000
310
E067911CC00C00000013000000220500003C0000000600000002000000000000E0FF3F8F40000000E07A4D48C0000000E0841D15C00000000000408FC000000000784D48C0000000E0981D15C00C000000130000002A0500003C00000006000000020000000000000000408FC000000040160C48C00000006025D518C00000
310
000000408FC000000000784D48C0000000E0981D15C00C00000013000000320500003C0000000600000002000000000000E0FF3F8F40000000A0408448C0000000C0A66C11C00000000000408FC0000000C03D8448C0000000C0BA6C11C00C000000130000003A0500003C00000006000000020000000000000000408FC000
310
0000C03D8448C0000000C0BA6C11C00000000000408FC000000000784D48C0000000E0981D15C00C00000013000000420500003C0000000600000002000000000000E0FF3F8F40000000E06EB048C000000060F2B50BC00000000000408FC0000000006CB048C00000006017B60BC00C000000130000004A0500003C000000
310
06000000020000000000000000408FC0000000006CB048C00000006017B60BC00000000000408FC0000000C03D8448C0000000C0BA6C11C00C00000013000000520500003C0000000600000002000000000000E0FF3F8F400000002010D248C00000006003C804C00000000000408FC0000000400DD248C00000006029C804
310
C00C000000130000005A0500003C00000006000000020000000000000000408FC0000000400DD248C00000006029C804C00000000000408FC0000000006CB048C00000006017B60BC00C00000013000000620500003C0000000600000002000000000000E0FF3F8F40000000A05DEA48C0000000C01633FCBF000000000040
310
8FC0000000C05AEA48C0000000C06233FCBF0C000000130000006A0500003C00000006000000020000000000000000408FC0000000400DD248C00000006029C804C00000000000408FC0000000C05AEA48C0000000C06233FCBF0C00000013000000720500003C0000000600000002000000000000E0FF3F8F400000006050
310
FC48C0000000800D6DE8BF0000000000408FC0000000804DFC48C000000080A56DE8BF0C000000130000007A0500003C00000006000000020000000000000000408FC0000000804DFC48C000000080A56DE8BF0000000000408FC0000000C05AEA48C0000000C06233FCBF0C00000013000000820500003C00000006000000
310
02000000000000E0FF3F8F40000000A0020049C0000000000000F23E0000000000408FC0000000C0FFFF48C00000000000000DBF0C000000130000008A0500003C00000006000000020000000000000000408FC0000000C0FFFF48C00000000000000DBF0000000000408FC0000000804DFC48C000000080A56DE8BF0C0000
310
0013000000920500003C0000000600000002000000000000E0FF3F8F40000000A04BC546C0000000000080F03E0000000000408FC00000008048C546C00000000000C00DBF0C000000130000009A0500003C00000006000000020000000000000000408FC0000000C0FFFF48C00000000000000DBF0000000000408FC00000
310
008048C546C00000000000C00DBF0C00000013000000A20500003C0000000600000002000000000000E0FF3F8F40000000A0E89946C00000000078FEB0BF0000000000408FC0000000C0E59946C000000000F802B1BF0C00000013000000AA0500003C00000006000000020000000000000000408FC0000000C0E59946C000
310
000000F802B1BF0000000000408FC00000008048C546C00000000000C00DBF0C00000013000000B20500003C0000000600000002000000000000E0FF3F8F4000000020206946C0000000007C37D4BF0000000000408FC0000000001D6946C0000000009C38D4BF0C00000013000000BA0500003C0000000600000002000000
310
0000000000408FC0000000C0E59946C000000000F802B1BF0000000000408FC0000000001D6946C0000000009C38D4BF0C00000013000000C20500003C0000000600000002000000000000E0FF3F8F4000000060F24546C000000080F99AE7BF0000000000408FC000000040EF4546C000000080919BE7BF0C000000130000
310
00CA0500003C00000006000000020000000000000000408FC0000000001D6946C0000000009C38D4BF0000000000408FC000000040EF4546C000000080919BE7BF0C00000013000000D20500003C0000000600000002000000000000E0FF3F8F40000000E0EB1046C0000000C04E3EF3BF0000000000408FC000000000E910
310
46C0000000C09A3EF3BF0C00000013000000DA0500003C00000006000000020000000000000000408FC000000040EF4546C000000080919BE7BF0000000000408FC000000000E91046C0000000C09A3EF3BF0C00000013000000E20500003C0000000600000002000000000000E0FF3F8F4000000020EFC745C0000000C03E
310
56F7BF0000000000408FC000000040ECC745C0000000C08A56F7BF0C00000013000000EA0500003C00000006000000020000000000000000408FC000000040ECC745C0000000C08A56F7BF0000000000408FC000000000E91046C0000000C09A3EF3BF0C00000013000000F20500003C0000000600000002000000000000E0
310
FF3F8F4000000020167845C0000000C03E56F7BF0000000000408FC000000040137845C0000000C08A56F7BF0C00000013000000FA0500003C00000006000000020000000000000000408FC000000040ECC745C0000000C08A56F7BF0000000000408FC000000040137845C0000000C08A56F7BF0C00000013000000020600
310
003C0000000600000002000000000000E0FF3F8F4000000060192F45C0000000C04E3EF3BF0000000000408FC000000080162F45C0000000C09A3EF3BF0C000000130000000A0600003C00000006000000020000000000000000408FC000000040137845C0000000C08A56F7BF0000000000408FC000000080162F45C00000
310
00C09A3EF3BF0C00000013000000120600003C0000000600000002000000000000E0FF3F8F400000002013FA44C000000080F99AE7BF0000000000408FC00000000010FA44C000000080919BE7BF0C000000130000001A0600003C00000006000000020000000000000000408FC000000080162F45C0000000C09A3EF3BF00
310
00000000408FC00000000010FA44C000000080919BE7BF0C00000013000000220600003C0000000600000002000000000000E0FF3F8F4000000060E5D644C0000000006837D4BF0000000000408FC000000040E2D644C0000000009838D4BF0C000000130000002A0600003C00000006000000020000000000000000408FC0
310
0000000010FA44C000000080919BE7BF0000000000408FC000000040E2D644C0000000009838D4BF0C00000013000000320600003C0000000600000002000000000000E0FF3F8F40000000A01CA644C00000000060FEB0BF0000000000408FC0000000C019A644C000000000E002B1BF0C000000130000003A0600003C0000
310
0006000000020000000000000000408FC0000000C019A644C000000000E002B1BF0000000000408FC000000040E2D644C0000000009838D4BF0C00000013000000420600003C0000000600000002000000000000E0FF3F8F40000000E0B97A44C0000000000000F23E0000000000408FC0000000C0B67A44C0000000000000
310
0DBF0C000000130000004A0600003C00000006000000020000000000000000408FC0000000C0B67A44C00000000000000DBF0000000000408FC0000000C019A644C000000000E002B1BF0C00000013000000520600003C0000000600000002000000000000E0FF3F8F4000000020A39942C0000000000080F03E0000000000
310
408FC000000000A09942C00000000000C00DBF0C000000130000005A0600003C00000006000000020000000000000000408FC000000000A09942C00000000000C00DBF0000000000408FC0000000C0B67A44C00000000000000DBF0C00000013000000620600003C0000000600000002000000000000E0FF3F8F40000000A0
310
0B6C42C00000000038D9B2BF0000000000408FC000000080086C42C000000000F8DDB2BF0C000000130000006A0600003C00000006000000020000000000000000408FC000000080086C42C000000000F8DDB2BF0000000000408FC000000000A09942C00000000000C00DBF0C00000013000000720600003C000000060000
310
0002000000000000E0FF3F8F40000000E0CE3942C000000000DB4CD6BF0000000000408FC0000000C0CB3942C0000000000B4ED6BF0C000000130000007A0600003C00000006000000020000000000000000408FC000000080086C42C000000000F8DDB2BF0000000000408FC0000000C0CB3942C0000000000B4ED6BF0C00
310
000013000000820600003C0000000600000002000000000000E0FF3F8F40000000605B2142C000000000080EE5BF0000000000408FC000000040582142C0000000009C0EE5BF0C000000130000008A0600003C00000006000000020000000000000000408FC0000000C0CB3942C0000000000B4ED6BF0000000000408FC000
310
000040582142C0000000009C0EE5BF0C00000013000000920600003C0000000600000002000000000000E0FF3F8F400000002068E041C000000020B56A00C00000000000408FC00000000065E041C000000020DB6A00C00C000000130000009A0600003C00000006000000020000000000000000408FC000000040582142C0
310
000000009C0EE5BF0000000000408FC00000000065E041C000000020DB6A00C00C00000013000000A20600003C0000000600000002000000000000E0FF3F8F40000000A0BEA941C0000000C02FA407C00000000000408FC000000080BBA941C0000000C055A407C00C00000013000000AA0600003C00000006000000020000
310
000000000000408FC000000080BBA941C0000000C055A407C00000000000408FC00000000065E041C000000020DB6A00C00C00000013000000B20600003C0000000600000002000000000000E0FF3F8F4000000060214641C0000000E0431E10C00000000000408FC0000000401E4641C0000000E0561E10C00C0000001300
310
0000BA0600003C00000006000000020000000000000000408FC000000080BBA941C0000000C055A407C00000000000408FC0000000401E4641C0000000E0561E10C00C00000013000000C20600003C0000000600000002000000000000E0FF3F8F40000000E08AC640C000000080FFA013C00000000000408FC0000000C087
310
C640C00000008012A113C00C00000013000000CA0600003C00000006000000020000000000000000408FC0000000C087C640C00000008012A113C00000000000408FC0000000401E4641C0000000E0561E10C00C00000013000000D20600003C0000000600000002000000000000E0FF3F8F4000000060563140C000000000
310
C12C16C00000000000408FC000000040533140C000000000D62C16C00C00000013000000DA0600003C00000006000000020000000000000000408FC0000000C087C640C00000008012A113C00000000000408FC000000040533140C000000000D62C16C00C00000013000000E20600003C0000000600000002000000000000
310
E0FF3F8F4000000060131C3FC00000008057A117C00000000000408FC0000000A00D1C3FC0000000806AA117C00C00000013000000EA0600003C00000006000000020000000000000000408FC0000000A00D1C3FC0000000806AA117C00000000000408FC000000040533140C000000000D62C16C00C00000013000000F206
310
00003C0000000600000002000000000000E0FF3F8F4000000060711D3EC000000080FAFF17C00000000000408FC0000000A06B1D3EC0000000800D0018C00C00000013000000FA0600003C00000006000000020000000000000000408FC0000000A06B1D3EC0000000800D0018C00000000000408FC0000000A00D1C3FC000
310
0000806AA117C00C00000013000000020700003C0000000600000002000000000000E0FF3F8F40000000800A002AC000000080FAFF17C00000000000408FC000000000FFFF29C0000000800D0018C00C000000130000000A0700003C00000006000000020000000000000000408FC000000000FFFF29C0000000800D0018C0
310
0000000000408FC0000000A06B1D3EC0000000800D0018C00C00000013000000120700003C0000000600000002000000000000E0FF3F8F40000000801E7B29C000000080D5DC17C00000000000408FC000000000137B29C000000080E8DC17C00C000000130000001A0700003C00000006000000020000000000000000408F
310
C000000000FFFF29C0000000800D0018C00000000000408FC000000000137B29C000000080E8DC17C00C00000013000000220700003C0000000600000002000000000000E0FF3F8F4000000020EAFF28C0000000806E7617C00000000000408FC0000000A0DEFF28C000000080817617C00C000000130000002A0700003C00
310
000006000000020000000000000000408FC0000000A0DEFF28C000000080817617C00000000000408FC000000000137B29C000000080E8DC17C00C00000013000000320700003C0000000600000002000000000000E0FF3F8F40000000C0159628C000000000E3D316C00000000000408FC0000000400A9628C000000000F8
310
D316C00C000000130000003A0700003C00000006000000020000000000000000408FC0000000A0DEFF28C000000080817617C00000000000408FC0000000400A9628C000000000F8D316C00C00000013000000420700003C0000000600000002000000000000E0FF3F8F4000000080D04428C0000000803A0016C000000000
310
00408FC000000000C54428C0000000804D0016C00C000000130000004A0700003C00000006000000020000000000000000408FC000000000C54428C0000000804D0016C00000000000408FC0000000400A9628C000000000F8D316C00C00000013000000520700003C0000000600000002000000000000E0FF3F8F40000000
310
409D1128C000000000D40915C00000000000408FC0000000C0911128C000000000E50915C00C000000130000005A0700003C00000006000000020000000000000000408FC000000000C54428C0000000804D0016C00000000000408FC0000000C0911128C000000000E50915C00C00000013000000620700003C0000000600
310
000002000000000000E0FF3F8F40000000800A0028C000000080FAFF13C00000000000408FC000000000FFFF27C0000000800D0014C00C000000130000006A0700003C00000006000000020000000000000000408FC000000000FFFF27C0000000800D0014C00000000000408FC0000000C0911128C000000000E50915C00C
310
00000013000000720700003C0000000600000002000000000000E0FF3F8F40000000800A0028C000000080D5FFEFBF0000000000408FC000000000FFFF27C0000000C03600F0BF0C000000130000007A0700003C00000006000000020000000000000000408FC000000000FFFF27C0000000800D0014C00000000000408FC0
310
00000000FFFF27C0000000C03600F0BF0C00000013000000820700003C0000000600000002000000000000E0FF3F8F400000000078EE27C00000008011B1E7BF0000000000408FC0000000806CEE27C000000080A5B1E7BF0C000000130000008A0700003C00000006000000020000000000000000408FC0000000806CEE27
310
C000000080A5B1E7BF0000000000408FC000000000FFFF27C0000000C03600F0BF0C00000013000000920700003C0000000600000002000000000000E0FF3F8F400000000045BB27C000000000A3FBDFBF0000000000408FC00000008039BB27C000000000D3FCDFBF0C000000130000009A0700003C000000060000000200
310
00000000000000408FC0000000806CEE27C000000080A5B1E7BF0000000000408FC00000008039BB27C000000000D3FCDFBF0C00000013000000A20700003C0000000600000002000000000000E0FF3F8F4000000080FF6927C00000000008C1D2BF0000000000408FC000000000F46927C00000000038C2D2BF0C00000013
310
000000AA0700003C00000006000000020000000000000000408FC000000000F46927C00000000038C2D2BF0000000000408FC00000008039BB27C000000000D3FCDFBF0C00000013000000B20700003C0000000600000002000000000000E0FF3F8F40000000002B0027C000000000D030C1BF0000000000408FC000000080
310
1F0027C0000000001033C1BF0C00000013000000BA0700003C00000006000000020000000000000000408FC000000000F46927C00000000038C2D2BF0000000000408FC0000000801F0027C0000000001033C1BF0C00000013000000C20700003C0000000600000002000000000000E0FF3F8F4000000000F78426C0000000
310
00C08FA1BF0000000000408FC000000080EB8426C0000000004099A1BF0C00000013000000CA0700003C00000006000000020000000000000000408FC000000080EB8426C0000000004099A1BF0000000000408FC0000000801F0027C0000000001033C1BF0C00000013000000D20700003C00000006000000020000000000
310
00E0FF3F8F40000000800A0026C0000000000000F63E0000000000408FC000000000FFFF25C00000000000000BBF0C00000013000000DA0700003C00000006000000020000000000000000408FC000000000FFFF25C00000000000000BBF0000000000408FC000000080EB8426C0000000004099A1BF0C00000013000000E2
310
0700003C0000000600000002000000000000E0FF3F8F40000000802E9520C0000000000000F63E0000000000408FC000000000239520C00000000000000BBF0C00000013000000EA0700003C00000006000000020000000000000000408FC000000000FFFF25C00000000000000BBF0000000000408FC000000000239520C0
310
0000000000000BBF0C00000013000000F20700003C0000000600000002000000000000E0FF3F8F400000000045CF1FC00000000020FEB0BF0000000000408FC0000000002FCF1FC000000000A002B1BF0C00000013000000FA0700003C00000006000000020000000000000000408FC0000000002FCF1FC000000000A002B1
310
BF0000000000408FC000000000239520C00000000000000BBF0C00000013000000020800003C0000000600000002000000000000E0FF3F8F4000000080FF481EC0000000006A37D4BF0000000000408FC000000000E9481EC0000000008A38D4BF0C000000130000000A0800003C0000000600000002000000000000000040
310
8FC0000000002FCF1FC000000000A002B1BF0000000000408FC000000000E9481EC0000000008A38D4BF0C00000013000000120800003C0000000600000002000000000000E0FF3F8F4000000080912F1DC000000080F19AE7BF0000000000408FC0000000007C2F1DC000000080899BE7BF0C000000130000001A0800003C
310
00000006000000020000000000000000408FC000000000E9481EC0000000008A38D4BF0000000000408FC0000000007C2F1DC000000080899BE7BF0C00000013000000220800003C0000000600000002000000000000E0FF3F8F40000000805E871BC0000000804A3EF3BF0000000000408FC00000000048871BC000000080
310
963EF3BF0C000000130000002A0800003C00000006000000020000000000000000408FC0000000007C2F1DC000000080899BE7BF0000000000408FC00000000048871BC000000080963EF3BF0C00000013000000320800003C0000000600000002000000000000E0FF3F8F4000000080773F19C0000000C03A56F7BF000000
310
0000408FC000000000623F19C0000000C08656F7BF0C000000130000003A0800003C00000006000000020000000000000000408FC000000000623F19C0000000C08656F7BF0000000000408FC00000000048871BC000000080963EF3BF0C00000013000000420800003C0000000600000002000000000000E0FF3F8F400000
310
0080B1C016C0000000C03A56F7BF0000000000408FC0000000809AC016C0000000C08656F7BF0C000000130000004A0800003C00000006000000020000000000000000408FC0000000809AC016C0000000C08656F7BF0000000000408FC000000000623F19C0000000C08656F7BF0C00000013000000520800003C00000006
310
00000002000000000000E0FF3F8F4000000080CB7814C0000000C04A3EF3BF0000000000408FC000000000B57814C0000000C0963EF3BF0C000000130000005A0800003C00000006000000020000000000000000408FC000000000B57814C0000000C0963EF3BF0000000000408FC0000000809AC016C0000000C08656F7BF
310
0C00000013000000620800003C0000000600000002000000000000E0FF3F8F400000008097D012C000000080F19AE7BF0000000000408FC00000000081D012C000000080899BE7BF0C000000130000006A0800003C00000006000000020000000000000000408FC000000000B57814C0000000C0963EF3BF0000000000408F
310
C00000000081D012C000000080899BE7BF0C00000013000000720800003C0000000600000002000000000000E0FF3F8F400000008029B711C0000000006C37D4BF0000000000408FC00000000014B711C0000000008C38D4BF0C000000130000007A0800003C00000006000000020000000000000000408FC00000000014B7
310
11C0000000008C38D4BF0000000000408FC00000000081D012C000000080899BE7BF0C00000013000000820800003C0000000600000002000000000000E0FF3F8F4000000080E43010C00000000038FEB0BF0000000000408FC000000000CE3010C000000000B802B1BF0C000000130000008A0800003C0000000600000002
310
0000000000000000408FC00000000014B711C0000000008C38D4BF0000000000408FC000000000CE3010C000000000B802B1BF0C00000013000000920800003C0000000600000002000000000000E0FF3F8F40000000009BAB0DC0000000000080F43E0000000000408FC0000000006EAB0DC00000000000C00BBF0C000000
310
130000009A0800003C00000006000000020000000000000000408FC0000000006EAB0DC00000000000C00BBF0000000000408FC000000000CE3010C000000000B802B1BF0C00000013000000A20800003C0000000600000002000000000000E0FF3F8F4000000000008014BF000000000000F63E0000000000408FC0000000
310
000000E43E0000000000000BBF0C00000013000000AA0800003C00000006000000020000000000000000408FC0000000006EAB0DC00000000000C00BBF0000000000408FC0000000000000E43E0000000000000BBF0C00000013000000B20800003C00000006000000020000000000000000408FC0000000000000E03E0000
310
0020A19929C00000000000408FC0000000000000E43E0000000000000BBF0C00000013000000BA0800003C00000006000000020000000000000000408FC0000000804DFC48C000000080A56DE8BF0000000000408FC00000008048C546C00000000000C00DBF0C00000013000000C20800003C000000060000000200000000
310
00000000408FC00000008043F641C0000000C006002AC00000000000408FC0000000A06B1D3EC0000000800D0018C00C00000013000000CA0800003C00000006000000020000000000000000408FC0000000006099C9BF0000002007002AC00000000000408FC000000000FFFF29C0000000800D0018C00C00000013000000
310
D20800003C00000006000000020000000000000000408FC0000000802C5C42C0000000006C032AC00000000000408FC0000000A00D1C3FC0000000806AA117C00C00000013000000DA0800003C00000006000000020000000000000000408FC0000000809BDE42C000000000C1EF29C00000000000408FC000000040533140
310
C000000000D62C16C00C00000013000000E20800003C00000006000000020000000000000000408FC0000000805E5A43C0000000C058BF29C00000000000408FC0000000C087C640C00000008012A113C00C00000013000000EA0800003C00000006000000020000000000000000408FC0000000C0E59946C000000000F802
310
B1BF0000000000408FC0000000C05AEA48C0000000C06233FCBF0C00000013000000F20800003C00000006000000020000000000000000408FC0000000400DD248C00000006029C804C00000000000408FC0000000001D6946C0000000009C38D4BF0C00000013000000FA0800003C00000006000000020000000000000000
310
408FC0000000006CB048C00000006017B60BC00000000000408FC000000040EF4546C000000080919BE7BF0C00000013000000020900003C00000006000000020000000000000000408FC000000040EF4546C000000080919BE7BF0000000000408FC0000000C03D8448C0000000C0BA6C11C00C000000130000000A090000
310
3C00000006000000020000000000000000408FC000000000784D48C0000000E0981D15C00000000000408FC000000000E91046C0000000C09A3EF3BF0C00000013000000120900003C00000006000000020000000000000000408FC000000040160C48C00000006025D518C00000000000408FC000000000E91046C0000000
310
C09A3EF3BF0C000000130000001A0900003C00000006000000020000000000000000408FC000000000D8BE47C0000000E067911CC00000000000408FC000000040ECC745C0000000C08A56F7BF0C00000013000000220900003C00000006000000020000000000000000408FC000000040ECC745C0000000C08A56F7BF0000
310
000000408FC0000000C0B26747C0000000C0C11F20C00C000000130000002A0900003C00000006000000020000000000000000408FC0000000C0FB0A47C0000000C0D1D021C00000000000408FC000000040137845C0000000C08A56F7BF0C00000013000000320900003C00000006000000020000000000000000408FC000
310
000040137845C0000000C08A56F7BF0000000000408FC00000008000A846C000000040BF5E23C00C000000130000003A0900003C00000006000000020000000000000000408FC000000000E14246C00000000085C024C00000000000408FC000000080162F45C0000000C09A3EF3BF0C00000013000000420900003C000000
310
06000000020000000000000000408FC000000080086C42C000000000F8DDB2BF0000000000408FC0000000C019A644C000000000E002B1BF0C000000130000004A0900003C00000006000000020000000000000000408FC0000000C0CB3942C0000000000B4ED6BF0000000000408FC000000040E2D644C0000000009838D4
310
BF0C00000013000000520900003C00000006000000020000000000000000408FC00000000010FA44C000000080919BE7BF0000000000408FC000000040582142C0000000009C0EE5BF0C000000130000005A0900003C00000006000000020000000000000000408FC000000080162F45C0000000C09A3EF3BF000000000040
310
8FC000000080BBA941C0000000C055A407C00C00000013000000620900003C00000006000000020000000000000000408FC000000080162F45C0000000C09A3EF3BF0000000000408FC00000000065E041C000000020DB6A00C00C000000130000006A0900003C00000006000000020000000000000000408FC0000000007B
310
3E44C000000020050729C00000000000408FC0000000401E4641C0000000E0561E10C00C00000013000000720900003C00000006000000020000000000000000408FC000000040FFCE43C0000000202A7329C00000000000408FC0000000401E4641C0000000E0561E10C00C000000130000007A0900003C00000006000000
310
020000000000000000408FC0000000401E4641C0000000E0561E10C00000000000408FC0000000400D1145C0000000C057C827C00C00000013000000820900003C00000006000000020000000000000000408FC000000000ACA944C0000000200D7928C00000000000408FC0000000401E4641C0000000E0561E10C00C0000
310
00130000008A0900003C00000006000000020000000000000000408FC0000000401E4641C0000000E0561E10C00000000000408FC000000000C67745C0000000402BEF26C00C00000013000000920900003C00000006000000020000000000000000408FC0000000401E4641C0000000E0561E10C00000000000408FC00000
310
0080DADD45C0000000406AEE25C00C000000130000009A0900003C00000006000000020000000000000000408FC000000000E14246C00000000085C024C00000000000408FC000000080BBA941C0000000C055A407C00C00000013000000A20900003C00000006000000020000000000000000408FC0000000000000E03E00
310
000020A19929C00000000000408FC0000000006EAB0DC00000000000C00BBF0C00000013000000AA0900003C00000006000000020000000000000000408FC0000000000000E03E00000020A19929C00000000000408FC000000000CE3010C000000000B802B1BF0C00000013000000B20900003C0000000600000002000000
310
0000000000408FC00000000014B711C0000000008C38D4BF0000000000408FC000000000806E9BBF00000020D4CC29C00C00000013000000BA0900003C00000006000000020000000000000000408FC000000000806E9BBF00000020D4CC29C00000000000408FC00000000081D012C000000080899BE7BF0C000000130000
310
00C20900003C00000006000000020000000000000000408FC0000000002099B9BF000000204FF229C00000000000408FC000000000B57814C0000000C0963EF3BF0C00000013000000CA0900003C00000006000000020000000000000000408FC0000000006099C9BF0000002007002AC00000000000408FC0000000809AC0
310
16C0000000C08656F7BF0C00000013000000D20900003C00000006000000020000000000000000408FC0000000006099C9BF0000002007002AC00000000000408FC000000000137B29C000000080E8DC17C00C00000013000000DA0900003C00000006000000020000000000000000408FC0000000006099C9BF0000002007
310
002AC00000000000408FC0000000A0DEFF28C000000080817617C00C00000013000000E20900003C00000006000000020000000000000000408FC0000000006099C9BF0000002007002AC00000000000408FC0000000400A9628C000000000F8D316C00C00000013000000EA0900003C000000060000000200000000000000
310
00408FC0000000006099C9BF0000002007002AC00000000000408FC000000000C54428C0000000804D0016C00C00000013000000F20900003C00000006000000020000000000000000408FC0000000006099C9BF0000002007002AC00000000000408FC0000000C0911128C000000000E50915C00C00000013000000FA0900
310
003C00000006000000020000000000000000408FC0000000006099C9BF0000002007002AC00000000000408FC000000000FFFF27C0000000800D0014C00C00000013000000020A00003C00000006000000020000000000000000408FC000000000FFFF27C0000000800D0014C00000000000408FC000000000623F19C00000
310
00C08656F7BF0C000000130000000A0A00003C00000006000000020000000000000000408FC000000080EB8426C0000000004099A1BF0000000000408FC0000000002FCF1FC000000000A002B1BF0C00000013000000120A00003C00000006000000020000000000000000408FC000000000E9481EC0000000008A38D4BF00
310
00000000408FC0000000801F0027C0000000001033C1BF0C000000130000001A0A00003C00000006000000020000000000000000408FC000000000F46927C00000000038C2D2BF0000000000408FC000000000E9481EC0000000008A38D4BF0C00000013000000220A00003C00000006000000020000000000000000408FC0
310
000000007C2F1DC000000080899BE7BF0000000000408FC00000008039BB27C000000000D3FCDFBF0C000000130000002A0A00003C00000006000000020000000000000000408FC0000000806CEE27C000000080A5B1E7BF0000000000408FC0000000007C2F1DC000000080899BE7BF0C00000013000000320A00003C0000
310
0006000000020000000000000000408FC00000000048871BC000000080963EF3BF0000000000408FC000000000FFFF27C0000000C03600F0BF
100
AcDbSubDMesh
 71
     2
 72
     0
 91
        0
 92
      154
 10
999.9999389648436
 20
-45.5413703918457
 30
0.0000157356262207
 10
999.9999389648436
 20
-49.9712028503418
 30
-0.7633121013641358
 10
999.9999389648436
 20
-49.83098220825195
 30
-1.762472867965698
 10
999.9999389648436
 20
-49.64111709594726
 30
-2.597662687301635
 10
999.9999389648436
 20
-49.37838363647461
 30
-3.463841199874877
 10
999.9999389648436
 20
-49.03322219848632
 30
-4.356104850769042
 10
999.9999389648436
 20
-48.60531234741211
 30
-5.278827190399169
 10
999.9999389648436
 20
-48.09452438354492
 30
-6.208077907562255
 10
999.9999389648436
 20
-47.4910545349121
 30
-7.141921520233154
 10
999.9999389648436
 20
-46.81023788452148
 30
-8.061948776245117
 10
999.9999389648436
 20
-46.08589553833008
 30
-8.907777786254882
 10
999.9999389648436
 20
-45.20241165161133
 30
-0.0663828849792481
 10
999.9999389648436
 20
-45.31260299682617
 30
-9.684972763061523
 10
999.9999389648436
 20
-44.82129287719726
 30
-0.3158864974975586
 10
999.9999389648436
 20
-44.52258682250977
 30
-10.37594223022461
 10
999.9999389648436
 20
-44.54645919799804
 30
-0.7376677989959717
 10
999.9999389648436
 20
-44.13219833374023
 30
-1.202711820602416
 10
999.9999389648436
 20
-43.56198501586914
 30
-1.458555936813354
 10
999.9999389648436
 20
-43.73332595825195
 30
-10.9655818939209
 10
999.9999389648436
 20
-42.93582534790039
 30
-11.46705436706543
 10
999.9999389648436
 20
-42.93817520141601
 30
-1.458555936813354
 10
999.9999389648436
 20
-42.36796188354492
 30
-1.202711820602416
 10
999.9999389648436
 20
-41.95370864868164
 30
-0.7376677989959717
 10
999.9999389648436
 20
-42.13331222534179
 30
-11.89122200012207
 10
999.9999389648436
 20
-41.67887496948242
 30
-0.3158817291259766
 10
999.9999389648436
 20
-41.32565689086914
 30
-12.23634815216064
 10
999.9999389648436
 20
-41.29774856567382
 30
-0.0663814544677734
 10
999.9999389648436
 20
-40.95879745483398
 30
0.0000171661376953
 10
999.9999389648436
 20
-40.48822402954101
 30
-12.51363849639892
 10
999.9999389648436
 20
-39.61725997924805
 30
-12.72485828399658
 10
999.9999389648436
 20
-38.70610427856446
 30
-12.87364387512207
 10
999.9999389648436
 20
-37.73921585083008
 30
-12.96819686889648
 10
999.9999389648436
 20
-36.45162582397461
 30
-0.3484408855438232
 10
999.9999389648436
 20
-36.72020339965821
 30
-13.00661087036133
 10
999.9999389648436
 20
-36.84410476684571
 30
-0.0736269950866699
 10
999.9999389648436
 20
-36.26060104370117
 30
-0.6579627990722657
 10
999.9999389648436
 20
-12.7404670715332
 30
-5.96565818786621
 10
999.9999389648436
 20
-0.2000808715820312
 30
-12.99998569488525
 10
999.9999389648436
 20
-13.00008010864258
 30
-5.999979019165039
 10
999.9999389648436
 20
-30.11501121520996
 30
-5.999979019165039
 10
999.9999389648436
 20
-31.10967063903809
 30
-5.907560348510742
 10
999.9999389648436
 20
-32.38544845581055
 30
-5.543704986572265
 10
999.9999389648436
 20
-33.55111312866211
 30
-4.907224655151367
 10
999.9999389648436
 20
-34.54789352416992
 30
-4.029555797576904
 10
999.9999389648436
 20
-35.32612991333008
 30
-2.955169200897216
 10
999.9999389648436
 20
-35.75317764282227
 30
-2.052103281021118
 10
999.9999389648436
 20
-0.0000782012939453
 30
0.0000209808349609
 10
999.9999389648436
 20
-0.1000843048095703
 30
-12.97318363189697
 10
999.9999389648436
 20
-5.117963790893554
 30
-1.202708005905151
 10
999.9999389648436
 20
-12.49983310699463
 30
-5.865655899047851
 10
999.9999389648436
 20
-0.0268726348876953
 30
-12.89997959136963
 10
999.9999389648436
 20
-0.0000801086425781
 30
-12.79998111724853
 10
999.9999389648436
 20
-4.703702926635742
 30
-0.7376639842987061
 10
999.9999389648436
 20
-4.047746658325195
 30
-0.0663790702819824
 10
999.9999389648436
 20
-4.428869247436523
 30
-0.315882682800293
 10
999.9999389648436
 20
-5.688177108764648
 30
-1.458552122116088
 10
999.9999389648436
 20
-6.311979293823242
 30
-1.458552122116088
 10
999.9999389648436
 20
-12.29313468933105
 30
-5.706920623779296
 10
999.9999389648436
 20
-6.882196426391601
 30
-1.202707767486572
 10
999.9999389648436
 20
-7.296453475952148
 30
-0.7376639842987061
 10
999.9999389648436
 20
-7.571287155151367
 30
-0.3158822059631348
 10
999.9999389648436
 20
-12.13440322875976
 30
-5.500223159790039
 10
999.9999389648436
 20
-7.952411651611328
 30
-0.0663776397705078
 10
999.9999389648436
 20
-12.03440284729004
 30
-5.259597778320312
 10
999.9999389648436
 20
-11.25969696044922
 30
-0.0342998504638672
 10
999.9999389648436
 20
-12.00008010864258
 30
-4.999979019165039
 10
999.9999389648436
 20
-11.50032806396484
 30
-0.1343021392822266
 10
999.9999389648436
 20
-11.70702743530273
 30
-0.2930316925048828
 10
999.9999389648436
 20
-11.86576080322265
 30
-0.4997336864471436
 10
999.9999389648436
 20
-11.96575927734375
 30
-0.7403647899627686
 10
999.9999389648436
 20
-12.00008010864258
 30
-0.9999797344207763
 10
999.9999389648436
 20
-50.00008010864258
 30
0.0000171661376953
 10
999.9999389648436
 20
-37.20029067993164
 30
0.0000157356262207
 10
999.9999389648436
 20
-3.708791732788085
 30
0.0000195503234863
 10
999.9999389648436
 20
-8.291370391845703
 30
0.0000209808349609
 10
999.9999389648436
 20
-11.00008010864258
 30
0.0000209808349609
 10
999.9999389648436
 20
-35.92403411865234
 30
-12.99997138977051
 10
-1000.0
 20
-49.99999237060547
 30
-0.0000553131103516
 10
-1000.0
 20
-35.92393493652344
 30
-13.00005149841308
 10
-1000.0
 20
-0.1999931335449219
 30
-13.00005435943603
 10
-1000.0
 20
-12.99999237060547
 30
-6.000051498413085
 10
-1000.0
 20
-36.72010803222657
 30
-13.00668334960937
 10
-1000.0
 20
-38.70600891113281
 30
-12.87372398376465
 10
-1000.0
 20
-33.55101776123047
 30
-4.907297134399414
 10
-1000.0
 20
-45.20232391357422
 30
-0.0664515495300293
 10
-1000.0
 20
-49.64102935791015
 30
-2.597735166549682
 10
-1000.0
 20
-44.82119750976562
 30
-0.3159551620483398
 10
-1000.0
 20
-49.3782958984375
 30
-3.463911771774291
 10
-1000.0
 20
-44.5463638305664
 30
-0.7377402782440186
 10
-1000.0
 20
-49.03313446044922
 30
-4.356181144714355
 10
-1000.0
 20
-48.09442901611328
 30
-6.208150386810302
 10
-1000.0
 20
-47.49096679687499
 30
-7.141997814178466
 10
-1000.0
 20
-43.56189727783203
 30
-1.458628416061401
 10
-1000.0
 20
-46.08580780029297
 30
-8.907850265502929
 10
-1000.0
 20
-42.9380874633789
 30
-1.458628416061401
 10
-1000.0
 20
-44.52249145507813
 30
-10.37601470947265
 10
-1000.0
 20
-42.36787414550781
 30
-1.202784299850463
 10
-1000.0
 20
-36.84400939941407
 30
-0.0736994743347168
 10
-1000.0
 20
-37.2001953125
 30
-0.0000567436218262
 10
-1000.0
 20
-40.95870208740234
 30
-0.0000553131103516
 10
-1000.0
 20
-36.45153045654297
 30
-0.3485133647918701
 10
-1000.0
 20
-41.95361328125
 30
-0.7377402782440186
 10
-1000.0
 20
-35.32603454589844
 30
-2.955241680145263
 10
-1000.0
 20
-41.3255615234375
 30
-12.23642826080322
 10
-1000.0
 20
0.0000076293945313
 30
-12.80005741119385
 10
-1000.0
 20
-3.708705902099609
 30
-0.0000529289245605
 10
-1000.0
 20
-4.428787231445312
 30
-0.3159513473510742
 10
-1000.0
 20
-0.0999927520751953
 30
-12.97325992584228
 10
-1000.0
 20
-5.117877960205078
 30
-1.202780485153198
 10
-1000.0
 20
-5.688089370727539
 30
-1.458624601364135
 10
-1000.0
 20
-12.49974536895752
 30
-5.865728378295898
 10
-1000.0
 20
-12.13431549072266
 30
-5.500295639038085
 10
-1000.0
 20
-11.99999237060547
 30
-5.000051498413085
 10
-1000.0
 20
-12.03431510925293
 30
-5.259662628173828
 10
-1000.0
 20
-10.99999237060547
 30
-0.0000514984130859
 10
-1000.0
 20
-11.25960922241211
 30
-0.0343723297119141
 10
-1000.0
 20
-11.70693969726562
 30
-0.2931041717529297
 10
-1000.0
 20
-11.96567153930664
 30
-0.7404353618621827
 10
-1000.0
 20
-49.97111511230468
 30
-0.7633845806121827
 10
-1000.0
 20
-45.54127502441406
 30
-0.0000567436218262
 10
-1000.0
 20
-30.11492347717285
 30
-6.000051498413085
 10
-1000.0
 20
-31.10958290100098
 30
-5.907632827758789
 10
-1000.0
 20
-37.73912048339844
 30
-12.96826934814453
 10
-1000.0
 20
-32.38535308837891
 30
-5.543785095214843
 10
-1000.0
 20
-49.83089447021484
 30
-1.762545347213745
 10
-1000.0
 20
-48.605224609375
 30
-5.278903484344482
 10
-1000.0
 20
-44.13211059570312
 30
-1.202784299850463
 10
-1000.0
 20
-46.81014251708984
 30
-8.062025070190429
 10
-1000.0
 20
-45.31251525878906
 30
-9.685052871704101
 10
-1000.0
 20
-41.29766082763672
 30
-0.0664501190185547
 10
-1000.0
 20
-41.67877960205077
 30
-0.3159542083740234
 10
-1000.0
 20
-36.26050567626953
 30
-0.6580333709716797
 10
-1000.0
 20
-35.75308227539063
 30
-2.052175760269165
 10
-1000.0
 20
-40.48812866210937
 30
-12.51371097564697
 10
-1000.0
 20
-39.61716461181641
 30
-12.72493076324463
 10
-1000.0
 20
-34.54779815673828
 30
-4.029628276824951
 10
-1000.0
 20
-42.13321685791015
 30
-11.89129447937012
 10
-1000.0
 20
-42.93572998046875
 30
-11.46712684631348
 10
-1000.0
 20
-43.73323059082031
 30
-10.96565437316894
 10
-1000.0
 20
0.0000095367431641
 30
-0.0000514984130859
 10
-1000.0
 20
-4.047660827636718
 30
-0.0664477348327637
 10
-1000.0
 20
-0.0267887115478516
 30
-12.90005588531494
 10
-1000.0
 20
-4.703617095947265
 30
-0.737736463546753
 10
-1000.0
 20
-12.74037933349609
 30
-5.965730667114257
 10
-1000.0
 20
-12.29304695129394
 30
-5.707000732421875
 10
-1000.0
 20
-6.311897277832031
 30
-1.458624601364135
 10
-1000.0
 20
-7.952327728271484
 30
-0.0664463043212891
 10
-1000.0
 20
-8.291282653808593
 30
-0.0000514984130859
 10
-1000.0
 20
-7.57120132446289
 30
-0.315950870513916
 10
-1000.0
 20
-11.50024032592773
 30
-0.1343708038330078
 10
-1000.0
 20
-7.296371459960937
 30
-0.737736463546753
 10
-1000.0
 20
-11.86567306518554
 30
-0.4998061656951905
 10
-1000.0
 20
-6.882110595703125
 30
-1.202780246734619
 10
-1000.0
 20
-11.99999237060547
 30
-1.000052213668823
 93
      829
 90
        3
 90
        1
 90
        0
 90
       71
 90
        4
 90
       76
 90
       37
 90
       38
 90
       39
 90
        4
 90
       33
 90
       76
 90
       39
 90
       40
 90
        4
 90
       31
 90
       33
 90
       40
 90
       41
 90
        4
 90
       30
 90
       31
 90
       41
 90
       42
 90
        4
 90
        1
 90
        2
 90
       11
 90
        0
 90
        4
 90
        2
 90
        3
 90
       13
 90
       11
 90
        4
 90
        3
 90
        4
 90
       15
 90
       13
 90
        3
 90
        4
 90
        5
 90
       15
 90
        4
 90
        5
 90
        6
 90
       16
 90
       15
 90
        3
 90
        6
 90
        7
 90
       16
 90
        4
 90
        7
 90
        8
 90
       17
 90
       16
 90
        3
 90
        8
 90
        9
 90
       17
 90
        4
 90
        9
 90
       10
 90
       20
 90
       17
 90
        3
 90
       10
 90
       12
 90
       20
 90
        4
 90
       12
 90
       14
 90
       21
 90
       20
 90
        4
 90
       34
 90
       72
 90
       27
 90
       26
 90
        4
 90
       32
 90
       34
 90
       26
 90
       24
 90
        4
 90
       35
 90
       32
 90
       24
 90
       22
 90
        3
 90
       44
 90
       45
 90
       21
 90
        4
 90
       45
 90
       35
 90
       22
 90
       21
 90
        3
 90
       28
 90
       29
 90
       43
 90
        4
 90
       29
 90
       30
 90
       42
 90
       43
 90
        3
 90
       23
 90
       25
 90
       43
 90
        3
 90
       25
 90
       28
 90
       43
 90
        3
 90
       19
 90
       23
 90
       43
 90
        3
 90
       18
 90
       19
 90
       43
 90
        4
 90
       14
 90
       18
 90
       43
 90
       44
 90
        3
 90
       14
 90
       44
 90
       21
 90
        3
 90
       51
 90
       46
 90
       73
 90
        3
 90
       51
 90
       73
 90
       53
 90
        4
 90
       50
 90
       51
 90
       53
 90
       54
 90
        3
 90
       50
 90
       54
 90
       52
 90
        4
 90
       47
 90
       50
 90
       52
 90
       48
 90
        4
 90
       37
 90
       47
 90
       48
 90
       55
 90
        3
 90
       37
 90
       49
 90
       36
 90
        3
 90
       37
 90
       36
 90
       38
 90
        3
 90
       37
 90
       61
 90
       57
 90
        3
 90
       37
 90
       57
 90
       49
 90
        3
 90
       37
 90
       65
 90
       63
 90
        3
 90
       37
 90
       63
 90
       61
 90
        4
 90
       37
 90
       55
 90
       56
 90
       65
 90
        4
 90
       62
 90
       74
 90
       75
 90
       64
 90
        4
 90
       60
 90
       62
 90
       64
 90
       66
 90
        3
 90
       60
 90
       66
 90
       67
 90
        4
 90
       59
 90
       60
 90
       67
 90
       68
 90
        3
 90
       59
 90
       68
 90
       69
 90
        4
 90
       58
 90
       59
 90
       69
 90
       70
 90
        4
 90
       56
 90
       58
 90
       70
 90
       65
 90
        4
 90
       51
 90
       50
 90
      141
 90
      104
 90
        4
 90
       50
 90
       47
 90
      107
 90
      141
 90
        4
 90
       47
 90
       37
 90
       79
 90
      107
 90
        4
 90
       37
 90
       76
 90
       78
 90
       79
 90
        4
 90
       76
 90
       33
 90
       81
 90
       78
 90
        4
 90
       33
 90
       31
 90
      122
 90
       81
 90
        4
 90
       31
 90
       30
 90
       82
 90
      122
 90
        4
 90
       30
 90
       29
 90
      134
 90
       82
 90
        4
 90
       29
 90
       28
 90
      133
 90
      134
 90
        4
 90
       28
 90
       25
 90
      103
 90
      133
 90
        4
 90
       25
 90
       23
 90
      136
 90
      103
 90
        4
 90
       23
 90
       19
 90
      137
 90
      136
 90
        4
 90
       19
 90
       18
 90
      138
 90
      137
 90
        4
 90
       18
 90
       14
 90
       95
 90
      138
 90
        4
 90
       14
 90
       12
 90
      128
 90
       95
 90
        4
 90
       12
 90
       10
 90
       93
 90
      128
 90
        4
 90
       10
 90
        9
 90
      127
 90
       93
 90
        4
 90
        9
 90
        8
 90
       91
 90
      127
 90
        4
 90
        8
 90
        7
 90
       90
 90
       91
 90
        4
 90
        7
 90
        6
 90
      125
 90
       90
 90
        4
 90
        6
 90
        5
 90
       89
 90
      125
 90
        4
 90
        5
 90
        4
 90
       87
 90
       89
 90
        4
 90
        4
 90
        3
 90
       85
 90
       87
 90
        4
 90
        3
 90
        2
 90
      124
 90
       85
 90
        4
 90
        2
 90
        1
 90
      118
 90
      124
 90
        4
 90
        1
 90
       71
 90
       77
 90
      118
 90
        4
 90
       71
 90
        0
 90
      119
 90
       77
 90
        4
 90
        0
 90
       11
 90
       84
 90
      119
 90
        4
 90
       11
 90
       13
 90
       86
 90
       84
 90
        4
 90
       13
 90
       15
 90
       88
 90
       86
 90
        4
 90
       15
 90
       16
 90
      126
 90
       88
 90
        4
 90
       16
 90
       17
 90
       92
 90
      126
 90
        4
 90
       17
 90
       20
 90
       94
 90
       92
 90
        4
 90
       20
 90
       21
 90
       96
 90
       94
 90
        4
 90
       21
 90
       22
 90
      101
 90
       96
 90
        4
 90
       22
 90
       24
 90
      130
 90
      101
 90
        4
 90
       24
 90
       26
 90
      129
 90
      130
 90
        4
 90
       26
 90
       27
 90
       99
 90
      129
 90
        4
 90
       27
 90
       72
 90
       98
 90
       99
 90
        4
 90
       72
 90
       34
 90
       97
 90
       98
 90
        4
 90
       34
 90
       32
 90
      100
 90
       97
 90
        4
 90
       32
 90
       35
 90
      131
 90
      100
 90
        4
 90
       35
 90
       45
 90
      132
 90
      131
 90
        4
 90
       45
 90
       44
 90
      102
 90
      132
 90
        4
 90
       44
 90
       43
 90
      135
 90
      102
 90
        4
 90
       43
 90
       42
 90
       83
 90
      135
 90
        4
 90
       42
 90
       41
 90
      123
 90
       83
 90
        4
 90
       41
 90
       40
 90
      121
 90
      123
 90
        4
 90
       40
 90
       39
 90
      120
 90
      121
 90
        4
 90
       39
 90
       38
 90
       80
 90
      120
 90
        4
 90
       38
 90
       36
 90
      143
 90
       80
 90
        4
 90
       36
 90
       49
 90
      110
 90
      143
 90
        4
 90
       49
 90
       57
 90
      144
 90
      110
 90
        4
 90
       57
 90
       61
 90
      111
 90
      144
 90
        4
 90
       61
 90
       63
 90
      113
 90
      111
 90
        4
 90
       63
 90
       65
 90
      112
 90
      113
 90
        4
 90
       65
 90
       70
 90
      153
 90
      112
 90
        4
 90
       70
 90
       69
 90
      117
 90
      153
 90
        4
 90
       69
 90
       68
 90
      151
 90
      117
 90
        4
 90
       68
 90
       67
 90
      116
 90
      151
 90
        4
 90
       67
 90
       66
 90
      149
 90
      116
 90
        4
 90
       66
 90
       64
 90
      115
 90
      149
 90
        4
 90
       64
 90
       75
 90
      114
 90
      115
 90
        4
 90
       75
 90
       74
 90
      147
 90
      114
 90
        4
 90
       74
 90
       62
 90
      146
 90
      147
 90
        4
 90
       62
 90
       60
 90
      148
 90
      146
 90
        4
 90
       60
 90
       59
 90
      150
 90
      148
 90
        4
 90
       59
 90
       58
 90
      152
 90
      150
 90
        4
 90
       58
 90
       56
 90
      145
 90
      152
 90
        4
 90
       56
 90
       55
 90
      109
 90
      145
 90
        4
 90
       55
 90
       48
 90
      108
 90
      109
 90
        4
 90
       48
 90
       52
 90
      142
 90
      108
 90
        4
 90
       52
 90
       54
 90
      106
 90
      142
 90
        4
 90
       54
 90
       53
 90
      140
 90
      106
 90
        4
 90
       53
 90
       73
 90
      105
 90
      140
 90
        4
 90
       73
 90
       46
 90
      139
 90
      105
 90
        4
 90
       46
 90
       51
 90
      104
 90
      139
 90
        3
 90
      118
 90
       77
 90
      119
 90
        4
 90
       78
 90
      120
 90
       80
 90
       79
 90
        4
 90
       81
 90
      121
 90
      120
 90
       78
 90
        4
 90
      122
 90
      123
 90
      121
 90
       81
 90
        4
 90
       82
 90
       83
 90
      123
 90
      122
 90
        4
 90
      118
 90
      119
 90
       84
 90
      124
 90
        4
 90
      124
 90
       84
 90
       86
 90
       85
 90
        4
 90
       85
 90
       86
 90
       88
 90
       87
 90
        3
 90
       87
 90
       88
 90
       89
 90
        4
 90
       89
 90
       88
 90
      126
 90
      125
 90
        3
 90
      125
 90
      126
 90
       90
 90
        4
 90
       90
 90
      126
 90
       92
 90
       91
 90
        3
 90
       91
 90
       92
 90
      127
 90
        4
 90
      127
 90
       92
 90
       94
 90
       93
 90
        3
 90
       93
 90
       94
 90
      128
 90
        4
 90
      128
 90
       94
 90
       96
 90
       95
 90
        4
 90
       97
 90
      129
 90
       99
 90
       98
 90
        4
 90
      100
 90
      130
 90
      129
 90
       97
 90
        4
 90
      131
 90
      101
 90
      130
 90
      100
 90
        3
 90
      102
 90
       96
 90
      132
 90
        4
 90
      132
 90
       96
 90
      101
 90
      131
 90
        3
 90
      133
 90
      135
 90
      134
 90
        4
 90
      134
 90
      135
 90
       83
 90
       82
 90
        3
 90
      136
 90
      135
 90
      103
 90
        3
 90
      103
 90
      135
 90
      133
 90
        3
 90
      137
 90
      135
 90
      136
 90
        3
 90
      138
 90
      135
 90
      137
 90
        4
 90
       95
 90
      102
 90
      135
 90
      138
 90
        3
 90
       95
 90
       96
 90
      102
 90
        3
 90
      104
 90
      105
 90
      139
 90
        3
 90
      104
 90
      140
 90
      105
 90
        4
 90
      141
 90
      106
 90
      140
 90
      104
 90
        3
 90
      141
 90
      142
 90
      106
 90
        4
 90
      107
 90
      108
 90
      142
 90
      141
 90
        4
 90
       79
 90
      109
 90
      108
 90
      107
 90
        3
 90
       79
 90
      143
 90
      110
 90
        3
 90
       79
 90
       80
 90
      143
 90
        3
 90
       79
 90
      144
 90
      111
 90
        3
 90
       79
 90
      110
 90
      144
 90
        3
 90
       79
 90
      113
 90
      112
 90
        3
 90
       79
 90
      111
 90
      113
 90
        4
 90
       79
 90
      112
 90
      145
 90
      109
 90
        4
 90
      146
 90
      115
 90
      114
 90
      147
 90
        4
 90
      148
 90
      149
 90
      115
 90
      146
 90
        3
 90
      148
 90
      116
 90
      149
 90
        4
 90
      150
 90
      151
 90
      116
 90
      148
 90
        3
 90
      150
 90
      117
 90
      151
 90
        4
 90
      152
 90
      153
 90
      117
 90
      150
 90
        4
 90
      145
 90
      112
 90
      153
 90
      152
 94
      327
 90
        0
 90
        1
 90
        0
 90
       71
 90
        1
 90
       71
 90
       37
 90
       76
 90
       37
 90
       38
 90
       38
 90
       39
 90
       39
 90
       76
 90
       33
 90
       76
 90
       39
 90
       40
 90
       33
 90
       40
 90
       31
 90
       33
 90
       40
 90
       41
 90
       31
 90
       41
 90
       30
 90
       31
 90
       41
 90
       42
 90
       30
 90
       42
 90
        1
 90
        2
 90
        2
 90
       11
 90
        0
 90
       11
 90
        2
 90
        3
 90
        3
 90
       13
 90
       11
 90
       13
 90
        3
 90
        4
 90
        4
 90
       15
 90
       13
 90
       15
 90
        4
 90
        5
 90
        5
 90
       15
 90
        5
 90
        6
 90
        6
 90
       16
 90
       15
 90
       16
 90
        6
 90
        7
 90
        7
 90
       16
 90
        7
 90
        8
 90
        8
 90
       17
 90
       16
 90
       17
 90
        8
 90
        9
 90
        9
 90
       17
 90
        9
 90
       10
 90
       10
 90
       20
 90
       17
 90
       20
 90
       10
 90
       12
 90
       12
 90
       20
 90
       12
 90
       14
 90
       14
 90
       21
 90
       20
 90
       21
 90
       34
 90
       72
 90
       27
 90
       72
 90
       26
 90
       27
 90
       26
 90
       34
 90
       32
 90
       34
 90
       24
 90
       26
 90
       24
 90
       32
 90
       32
 90
       35
 90
       22
 90
       24
 90
       22
 90
       35
 90
       44
 90
       45
 90
       21
 90
       45
 90
       21
 90
       44
 90
       35
 90
       45
 90
       21
 90
       22
 90
       28
 90
       29
 90
       29
 90
       43
 90
       28
 90
       43
 90
       29
 90
       30
 90
       42
 90
       43
 90
       23
 90
       25
 90
       25
 90
       43
 90
       23
 90
       43
 90
       25
 90
       28
 90
       19
 90
       23
 90
       19
 90
       43
 90
       18
 90
       19
 90
       18
 90
       43
 90
       14
 90
       18
 90
       43
 90
       44
 90
       14
 90
       44
 90
       46
 90
       51
 90
       46
 90
       73
 90
       51
 90
       73
 90
       53
 90
       73
 90
       51
 90
       53
 90
       50
 90
       51
 90
       53
 90
       54
 90
       50
 90
       54
 90
       52
 90
       54
 90
       50
 90
       52
 90
       47
 90
       50
 90
       48
 90
       52
 90
       47
 90
       48
 90
       37
 90
       47
 90
       48
 90
       55
 90
       37
 90
       55
 90
       37
 90
       49
 90
       36
 90
       49
 90
       36
 90
       37
 90
       36
 90
       38
 90
       37
 90
       61
 90
       57
 90
       61
 90
       37
 90
       57
 90
       49
 90
       57
 90
       37
 90
       65
 90
       63
 90
       65
 90
       37
 90
       63
 90
       61
 90
       63
 90
       55
 90
       56
 90
       56
 90
       65
 90
       62
 90
       74
 90
       74
 90
       75
 90
       64
 90
       75
 90
       62
 90
       64
 90
       60
 90
       62
 90
       64
 90
       66
 90
       60
 90
       66
 90
       66
 90
       67
 90
       60
 90
       67
 90
       59
 90
       60
 90
       67
 90
       68
 90
       59
 90
       68
 90
       68
 90
       69
 90
       59
 90
       69
 90
       58
 90
       59
 90
       69
 90
       70
 90
       58
 90
       70
 90
       56
 90
       58
 90
       65
 90
       70
 90
       50
 90
      141
 90
      104
 90
      141
 90
       51
 90
      104
 90
       47
 90
      107
 90
      107
 90
      141
 90
       37
 90
       79
 90
       79
 90
      107
 90
       76
 90
       78
 90
       78
 90
       79
 90
       33
 90
       81
 90
       78
 90
       81
 90
       31
 90
      122
 90
       81
 90
      122
 90
       30
 90
       82
 90
       82
 90
      122
 90
       29
 90
      134
 90
       82
 90
      134
 90
       28
 90
      133
 90
      133
 90
      134
 90
       25
 90
      103
 90
      103
 90
      133
 90
       23
 90
      136
 90
      103
 90
      136
 90
       19
 90
      137
 90
      136
 90
      137
 90
       18
 90
      138
 90
      137
 90
      138
 90
       14
 90
       95
 90
       95
 90
      138
 90
       12
 90
      128
 90
       95
 90
      128
 90
       10
 90
       93
 90
       93
 90
      128
 90
        9
 90
      127
 90
       93
 90
      127
 90
        8
 90
       91
 90
       91
 90
      127
 90
        7
 90
       90
 90
       90
 90
       91
 90
        6
 90
      125
 90
       90
 90
      125
 90
        5
 90
       89
 90
       89
 90
      125
 90
        4
 90
       87
 90
       87
 90
       89
 90
        3
 90
       85
 90
       85
 90
       87
 90
        2
 90
      124
 90
       85
 90
      124
 90
        1
 90
      118
 90
      118
 90
      124
 90
       71
 90
       77
 90
       77
 90
      118
 90
        0
 90
      119
 90
       77
 90
      119
 90
       11
 90
       84
 90
       84
 90
      119
 90
       13
 90
       86
 90
       84
 90
       86
 90
       15
 90
       88
 90
       86
 90
       88
 90
       16
 90
      126
 90
       88
 90
      126
 90
       17
 90
       92
 90
       92
 90
      126
 90
       20
 90
       94
 90
       92
 90
       94
 90
       21
 90
       96
 90
       94
 90
       96
 90
       22
 90
      101
 90
       96
 90
      101
 90
       24
 90
      130
 90
      101
 90
      130
 90
       26
 90
      129
 90
      129
 90
      130
 90
       27
 90
       99
 90
       99
 90
      129
 90
       72
 90
       98
 90
       98
 90
       99
 90
       34
 90
       97
 90
       97
 90
       98
 90
       32
 90
      100
 90
       97
 90
      100
 90
       35
 90
      131
 90
      100
 90
      131
 90
       45
 90
      132
 90
      131
 90
      132
 90
       44
 90
      102
 90
      102
 90
      132
 90
       43
 90
      135
 90
      102
 90
      135
 90
       42
 90
       83
 90
       83
 90
      135
 90
       41
 90
      123
 90
       83
 90
      123
 90
       40
 90
      121
 90
      121
 90
      123
 90
       39
 90
      120
 90
      120
 90
      121
 90
       38
 90
       80
 90
       80
 90
      120
 90
       36
 90
      143
 90
       80
 90
      143
 90
       49
 90
      110
 90
      110
 90
      143
 90
       57
 90
      144
 90
      110
 90
      144
 90
       61
 90
      111
 90
      111
 90
      144
 90
       63
 90
      113
 90
      111
 90
      113
 90
       65
 90
      112
 90
      112
 90
      113
 90
       70
 90
      153
 90
      112
 90
      153
 90
       69
 90
      117
 90
      117
 90
      153
 90
       68
 90
      151
 90
      117
 90
      151
 90
       67
 90
      116
 90
      116
 90
      151
 90
       66
 90
      149
 90
      116
 90
      149
 90
       64
 90
      115
 90
      115
 90
      149
 90
       75
 90
      114
 90
      114
 90
      115
 90
       74
 90
      147
 90
      114
 90
      147
 90
       62
 90
      146
 90
      146
 90
      147
 90
       60
 90
      148
 90
      146
 90
      148
 90
       59
 90
      150
 90
      148
 90
      150
 90
       58
 90
      152
 90
      150
 90
      152
 90
       56
 90
      145
 90
      145
 90
      152
 90
       55
 90
      109
 90
      109
 90
      145
 90
       48
 90
      108
 90
      108
 90
      109
 90
       52
 90
      142
 90
      108
 90
      142
 90
       54
 90
      106
 90
      106
 90
      142
 90
       53
 90
      140
 90
      106
 90
      140
 90
       73
 90
      105
 90
      105
 90
      140
 90
       46
 90
      139
 90
      105
 90
      139
 90
      104
 90
      139
 90
      118
 90
      119
 90
       78
 90
      120
 90
       79
 90
       80
 90
       81
 90
      121
 90
      122
 90
      123
 90
       82
 90
       83
 90
       84
 90
      124
 90
       85
 90
       86
 90
       87
 90
       88
 90
       88
 90
       89
 90
      125
 90
      126
 90
       90
 90
      126
 90
       91
 90
       92
 90
       92
 90
      127
 90
       93
 90
       94
 90
       94
 90
      128
 90
       95
 90
       96
 90
       97
 90
      129
 90
      100
 90
      130
 90
      101
 90
      131
 90
       96
 90
      102
 90
       96
 90
      132
 90
      133
 90
      135
 90
      134
 90
      135
 90
      135
 90
      136
 90
      103
 90
      135
 90
      135
 90
      137
 90
      135
 90
      138
 90
       95
 90
      102
 90
      104
 90
      105
 90
      104
 90
      140
 90
      106
 90
      141
 90
      141
 90
      142
 90
      107
 90
      108
 90
       79
 90
      109
 90
       79
 90
      143
 90
       79
 90
      110
 90
       79
 90
      144
 90
       79
 90
      111
 90
       79
 90
      113
 90
       79
 90
      112
 90
      112
 90
      145
 90
      115
 90
      146
 90
      148
 90
      149
 90
      116
 90
      148
 90
      150
 90
      151
 90
      117
 90
      150
 90
      152
 90
      153
 95
      327
140
0.0
140
0.0
140
0.0
140
0.0
140
0.0
140
0.0
140
0.0
140
0.0
140
0.0
140
0.0
140
0.0
140
0.0
140
0.0
140
0.0
140
0.0
140
0.0
140
0.0
140
0.0
140
0.0
140
0.0
140
0.0
140
0.0
140
0.0
140
0.0
140
0.0
140
0.0
140
0.0
140
0.0
140
0.0
140
0.0
140
0.0
140
0.0
140
0.0
140
0.0
140
0.0
140
0.0
140
0.0
140
0.0
140
0.0
140
0.0
140
0.0
140
0.0
140
0.0
140
0.0
140
0.0
140
0.0
140
0.0
140
0.0
140
0.0
140
0.0
140
0.0
140
0.0
140
0.0
140
0.0
140
0.0
140
0.0
140
0.0
140
0.0
140
0.0
140
0.0
140
0.0
140
0.0
140
0.0
140
0.0
140
0.0
140
0.0
140
0.0
140
0.0
140
0.0
140
0.0
140
0.0
140
0.0
140
0.0
140
0.0
140
0.0
140
0.0
140
0.0
140
0.0
140
0.0
140
0.0
140
0.0
140
0.0
140
0.0
140
0.0
140
0.0
140
0.0
140
0.0
140
0.0
140
0.0
140
0.0
140
0.0
140
0.0
140
0.0
140
0.0
140
0.0
140
0.0
140
0.0
140
0.0
140
0.0
140
0.0
140
0.0
140
0.0
140
0.0
140
0.0
140
0.0
140
0.0
140
0.0
140
0.0
140
0.0
140
0.0
140
0.0
140
0.0
140
0.0
140
0.0
140
0.0
140
0.0
140
0.0
140
0.0
140
0.0
140
0.0
140
0.0
140
0.0
140
0.0
140
0.0
140
0.0
140
0.0
140
0.0
140
0.0
140
0.0
140
0.0
140
0.0
140
0.0
140
0.0
140
0.0
140
0.0
140
0.0
140
0.0
140
0.0
140
0.0
140
0.0
140
0.0
140
0.0
140
0.0
140
0.0
140
0.0
140
0.0
140
0.0
140
0.0
140
0.0
140
0.0
140
0.0
140
0.0
140
0.0
140
0.0
140
0.0
140
0.0
140
0.0
140
0.0
140
0.0
140
0.0
140
0.0
140
0.0
140
0.0
140
0.0
140
0.0
140
0.0
140
0.0
140
0.0
140
0.0
140
0.0
140
0.0
140
0.0
140
0.0
140
0.0
140
0.0
140
0.0
140
0.0
140
0.0
140
0.0
140
0.0
140
0.0
140
0.0
140
0.0
140
0.0
140
0.0
140
0.0
140
0.0
140
0.0
140
0.0
140
0.0
140
0.0
140
0.0
140
0.0
140
0.0
140
0.0
140
0.0
140
0.0
140
0.0
140
0.0
140
0.0
140
0.0
140
0.0
140
0.0
140
0.0
140
0.0
140
0.0
140
0.0
140
0.0
140
0.0
140
0.0
140
0.0
140
0.0
140
0.0
140
0.0
140
0.0
140
0.0
140
0.0
140
0.0
140
0.0
140
0.0
140
0.0
140
0.0
140
0.0
140
0.0
140
0.0
140
0.0
140
0.0
140
0.0
140
0.0
140
0.0
140
0.0
140
0.0
140
0.0
140
0.0
140
0.0
140
0.0
140
0.0
140
0.0
140
0.0
140
0.0
140
0.0
140
0.0
140
0.0
140
0.0
140
0.0
140
0.0
140
0.0
140
0.0
140
0.0
140
0.0
140
0.0
140
0.0
140
0.0
140
0.0
140
0.0
140
0.0
140
0.0
140
0.0
140
0.0
140
0.0
140
0.0
140
0.0
140
0.0
140
0.0
140
0.0
140
0.0
140
0.0
140
0.0
140
0.0
140
0.0
140
0.0
140
0.0
140
0.0
140
0.0
140
0.0
140
0.0
140
0.0
140
0.0
140
0.0
140
0.0
140
0.0
140
0.0
140
0.0
140
0.0
140
0.0
140
0.0
140
0.0
140
0.0
140
0.0
140
0.0
140
0.0
140
0.0
140
0.0
140
0.0
140
0.0
140
0.0
140
0.0
140
0.0
140
0.0
140
0.0
140
0.0
140
0.0
140
0.0
140
0.0
140
0.0
140
0.0
140
0.0
140
0.0
140
0.0
140
0.0
140
0.0
140
0.0
140
0.0
140
0.0
140
0.0
140
0.0
140
0.0
140
0.0
140
0.0
140
0.0
140
0.0
140
0.0
140
0.0
140
0.0
140
0.0
140
0.0
140
0.0
 90
        0
  0
POLYLINE
  5
FA
330
1F
100
AcDbEntity
  8
OracDecor_cornice_mouldings
 62
    41
420
 14997145
100
AcDb3dPolyline
 66
     1
 10
0.0
 20
0.0
 30
0.0
 70
     9
  0
VERTEX
  5
FB
330
FA
100
AcDbEntity
  8
OracDecor_cornice_mouldings
 62
    41
420
 14997145
100
AcDbVertex
100
AcDb3dPolylineVertex
 10
0.0000058053424254
 20
45.54129028320312
 30
-0.0000043064069359
 70
    32
  0
VERTEX
  5
FC
330
FA
100
AcDbEntity
  8
OracDecor_cornice_mouldings
 62
    41
420
 14997145
100
AcDbVertex
100
AcDb3dPolylineVertex
 10
0.0000060002394093
 20
50.00000762939453
 30
-0.0000043064069359
 70
    32
  0
VERTEX
  5
FD
330
FA
100
AcDbEntity
  8
OracDecor_cornice_mouldings
 62
    41
420
 14997145
100
AcDbVertex
100
AcDb3dPolylineVertex
 10
0.0000060323436628
 20
49.97113037109375
 30
-0.7633366584777832
 70
    32
  0
VERTEX
  5
FE
330
FA
100
AcDbEntity
  8
OracDecor_cornice_mouldings
 62
    41
420
 14997145
100
AcDbVertex
100
AcDb3dPolylineVertex
 10
0.0000060698894231
 20
49.83090972900391
 30
-1.762497425079345
 70
    32
  0
VERTEX
  5
FF
330
FA
100
AcDbEntity
  8
OracDecor_cornice_mouldings
 62
    41
420
 14997145
100
AcDbVertex
100
AcDb3dPolylineVertex
 10
0.000006098097856
 20
49.64104461669922
 30
-2.597689151763916
 70
    32
  0
VERTEX
  5
100
330
FA
100
AcDbEntity
  8
OracDecor_cornice_mouldings
 62
    41
420
 14997145
100
AcDbVertex
100
AcDb3dPolylineVertex
 10
0.0000061244732024
 20
49.37831115722656
 30
-3.463865756988525
 70
    32
  0
VERTEX
  5
101
330
FA
100
AcDbEntity
  8
OracDecor_cornice_mouldings
 62
    41
420
 14997145
100
AcDbVertex
100
AcDb3dPolylineVertex
 10
0.0000061483888203
 20
49.03314971923828
 30
-4.356129169464111
 70
    32
  0
VERTEX
  5
102
330
FA
100
AcDbEntity
  8
OracDecor_cornice_mouldings
 62
    41
420
 14997145
100
AcDbVertex
100
AcDb3dPolylineVertex
 10
0.0000061700184233
 20
48.60523986816406
 30
-5.27885103225708
 70
    32
  0
VERTEX
  5
103
330
FA
100
AcDbEntity
  8
OracDecor_cornice_mouldings
 62
    41
420
 14997145
100
AcDbVertex
100
AcDb3dPolylineVertex
 10
0.0000061883088165
 20
48.09444427490234
 30
-6.2080979347229
 70
    32
  0
VERTEX
  5
104
330
FA
100
AcDbEntity
  8
OracDecor_cornice_mouldings
 62
    41
420
 14997145
100
AcDbVertex
100
AcDb3dPolylineVertex
 10
0.0000062027506829
 20
47.49098205566406
 30
-7.14194917678833
 70
    32
  0
VERTEX
  5
105
330
FA
100
AcDbEntity
  8
OracDecor_cornice_mouldings
 62
    41
420
 14997145
100
AcDbVertex
100
AcDb3dPolylineVertex
 10
0.000006213206234
 20
46.8101577758789
 30
-8.061978340148925
 70
    32
  0
VERTEX
  5
106
330
FA
100
AcDbEntity
  8
OracDecor_cornice_mouldings
 62
    41
420
 14997145
100
AcDbVertex
100
AcDb3dPolylineVertex
 10
0.0000062185181378
 20
46.08582305908202
 30
-8.907807350158691
 70
    32
  0
VERTEX
  5
107
330
FA
100
AcDbEntity
  8
OracDecor_cornice_mouldings
 62
    41
420
 14997145
100
AcDbVertex
100
AcDb3dPolylineVertex
 10
0.000006218688668
 20
45.31253051757812
 30
-9.685002326965332
 70
    32
  0
VERTEX
  5
108
330
FA
100
AcDbEntity
  8
OracDecor_cornice_mouldings
 62
    41
420
 14997145
100
AcDbVertex
100
AcDb3dPolylineVertex
 10
0.000006214358109
 20
44.52250671386718
 30
-10.37596607208252
 70
    32
  0
VERTEX
  5
109
330
FA
100
AcDbEntity
  8
OracDecor_cornice_mouldings
 62
    41
420
 14997145
100
AcDbVertex
100
AcDb3dPolylineVertex
 10
0.0000062056319621
 20
43.73324584960937
 30
-10.96560955047607
 70
    32
  0
VERTEX
  5
10A
330
FA
100
AcDbEntity
  8
OracDecor_cornice_mouldings
 62
    41
420
 14997145
100
AcDbVertex
100
AcDb3dPolylineVertex
 10
0.0000061926921262
 20
42.93574523925781
 30
-11.46708393096924
 70
    32
  0
VERTEX
  5
10B
330
FA
100
AcDbEntity
  8
OracDecor_cornice_mouldings
 62
    41
420
 14997145
100
AcDbVertex
100
AcDb3dPolylineVertex
 10
0.0000061761543293
 20
42.13323211669922
 30
-11.89124965667724
 70
    32
  0
VERTEX
  5
10C
330
FA
100
AcDbEntity
  8
OracDecor_cornice_mouldings
 62
    41
420
 14997145
100
AcDbVertex
100
AcDb3dPolylineVertex
 10
0.0000061559371716
 20
41.32557678222656
 30
-12.23637866973877
 70
    32
  0
VERTEX
  5
10D
330
FA
100
AcDbEntity
  8
OracDecor_cornice_mouldings
 62
    41
420
 14997145
100
AcDbVertex
100
AcDb3dPolylineVertex
 10
0.00000613145221
 20
40.48814392089844
 30
-12.51366519927978
 70
    32
  0
VERTEX
  5
10E
330
FA
100
AcDbEntity
  8
OracDecor_cornice_mouldings
 62
    41
420
 14997145
100
AcDbVertex
100
AcDb3dPolylineVertex
 10
0.0000022879162316
 20
39.61717987060547
 30
-12.72488498687744
 70
    32
  0
VERTEX
  5
10F
330
FA
100
AcDbEntity
  8
OracDecor_cornice_mouldings
 62
    41
420
 14997145
100
AcDbVertex
100
AcDb3dPolylineVertex
 10
0.0000022545923457
 20
38.70602416992188
 30
-12.87367916107178
 70
    32
  0
VERTEX
  5
110
330
FA
100
AcDbEntity
  8
OracDecor_cornice_mouldings
 62
    41
420
 14997145
100
AcDbVertex
100
AcDb3dPolylineVertex
 10
0.0000022164613256
 20
37.7391357421875
 30
-12.96822834014892
 70
    32
  0
VERTEX
  5
111
330
FA
100
AcDbEntity
  8
OracDecor_cornice_mouldings
 62
    41
420
 14997145
100
AcDbVertex
100
AcDb3dPolylineVertex
 10
0.0000021735977498
 20
36.72012329101562
 30
-13.00664234161377
 70
    32
  0
VERTEX
  5
112
330
FA
100
AcDbEntity
  8
OracDecor_cornice_mouldings
 62
    41
420
 14997145
100
AcDbVertex
100
AcDb3dPolylineVertex
 10
0.0000021385053515
 20
35.92395782470703
 30
-13.00000667572021
 70
    32
  0
VERTEX
  5
113
330
FA
100
AcDbEntity
  8
OracDecor_cornice_mouldings
 62
    41
420
 14997145
100
AcDbVertex
100
AcDb3dPolylineVertex
 10
0.0000005769620088
 20
0.2000039517879486
 30
-13.00000858306885
 70
    32
  0
VERTEX
  5
114
330
FA
100
AcDbEntity
  8
OracDecor_cornice_mouldings
 62
    41
420
 14997145
100
AcDbVertex
100
AcDb3dPolylineVertex
 10
0.0000005714198323
 20
0.100003570318222
 30
-12.9732141494751
 70
    32
  0
VERTEX
  5
115
330
FA
100
AcDbEntity
  8
OracDecor_cornice_mouldings
 62
    41
420
 14997145
100
AcDbVertex
100
AcDb3dPolylineVertex
 10
0.0000005650200023
 20
0.0267976224422455
 30
-12.90001010894775
 70
    32
  0
VERTEX
  5
116
330
FA
100
AcDbEntity
  8
OracDecor_cornice_mouldings
 62
    41
420
 14997145
100
AcDbVertex
100
AcDb3dPolylineVertex
 10
0.0000005594778258
 20
0.0000031889067031
 30
-12.80000782012939
 70
    32
  0
VERTEX
  5
117
330
FA
100
AcDbEntity
  8
OracDecor_cornice_mouldings
 62
    41
420
 14997145
100
AcDbVertex
100
AcDb3dPolylineVertex
 10
0.0000038146692987
 20
0.000003188906021
 30
-0.0000081211046563
 70
    32
  0
VERTEX
  5
118
330
FA
100
AcDbEntity
  8
OracDecor_cornice_mouldings
 62
    41
420
 14997145
100
AcDbVertex
100
AcDb3dPolylineVertex
 10
0.0000039767824092
 20
3.708714723587036
 30
-0.0000081211046563
 70
    32
  0
VERTEX
  5
119
330
FA
100
AcDbEntity
  8
OracDecor_cornice_mouldings
 62
    41
420
 14997145
100
AcDbVertex
100
AcDb3dPolylineVertex
 10
0.0000039945007302
 20
4.047669887542724
 30
-0.0664048343896866
 70
    32
  0
VERTEX
  5
11A
330
FA
100
AcDbEntity
  8
OracDecor_cornice_mouldings
 62
    41
420
 14997145
100
AcDbVertex
100
AcDb3dPolylineVertex
 10
0.0000040220661504
 20
4.428796291351318
 30
-0.3159108161926269
 70
    32
  0
VERTEX
  5
11B
330
FA
100
AcDbEntity
  8
OracDecor_cornice_mouldings
 62
    41
420
 14997145
100
AcDbVertex
100
AcDb3dPolylineVertex
 10
0.0000040525164877
 20
4.703626155853271
 30
-0.737694263458252
 70
    32
  0
VERTEX
  5
11C
330
FA
100
AcDbEntity
  8
OracDecor_cornice_mouldings
 62
    41
420
 14997145
100
AcDbVertex
100
AcDb3dPolylineVertex
 10
0.0000040909517338
 20
5.117887020111083
 30
-1.202738285064697
 70
    32
  0
VERTEX
  5
11D
330
FA
100
AcDbEntity
  8
OracDecor_cornice_mouldings
 62
    41
420
 14997145
100
AcDbVertex
100
AcDb3dPolylineVertex
 10
0.0000041270600377
 20
5.688100337982177
 30
-1.458580493927001
 70
    32
  0
VERTEX
  5
11E
330
FA
100
AcDbEntity
  8
OracDecor_cornice_mouldings
 62
    41
420
 14997145
100
AcDbVertex
100
AcDb3dPolylineVertex
 10
0.0000041543271436
 20
6.311906337738037
 30
-1.458580493927001
 70
    32
  0
VERTEX
  5
11F
330
FA
100
AcDbEntity
  8
OracDecor_cornice_mouldings
 62
    41
420
 14997145
100
AcDbVertex
100
AcDb3dPolylineVertex
 10
0.0000041680696086
 20
6.88211965560913
 30
-1.202738285064697
 70
    32
  0
VERTEX
  5
120
330
FA
100
AcDbEntity
  8
OracDecor_cornice_mouldings
 62
    41
420
 14997145
100
AcDbVertex
100
AcDb3dPolylineVertex
 10
0.000004165849532
 20
7.296380519866943
 30
-0.737694263458252
 70
    32
  0
VERTEX
  5
121
330
FA
100
AcDbEntity
  8
OracDecor_cornice_mouldings
 62
    41
420
 14997145
100
AcDbVertex
100
AcDb3dPolylineVertex
 10
0.0000041594257709
 20
7.571210384368896
 30
-0.3159108161926269
 70
    32
  0
VERTEX
  5
122
330
FA
100
AcDbEntity
  8
OracDecor_cornice_mouldings
 62
    41
420
 14997145
100
AcDbVertex
100
AcDb3dPolylineVertex
 10
0.0000041651787797
 20
7.95233678817749
 30
-0.0664048343896866
 70
    32
  0
VERTEX
  5
123
330
FA
100
AcDbEntity
  8
OracDecor_cornice_mouldings
 62
    41
420
 14997145
100
AcDbVertex
100
AcDb3dPolylineVertex
 10
0.0000041770927055
 20
8.291291236877441
 30
-0.0000081211046563
 70
    32
  0
VERTEX
  5
124
330
FA
100
AcDbEntity
  8
OracDecor_cornice_mouldings
 62
    41
420
 14997145
100
AcDbVertex
100
AcDb3dPolylineVertex
 10
0.0000042954943638
 20
11.00000286102295
 30
-0.0000081211046563
 70
    32
  0
VERTEX
  5
125
330
FA
100
AcDbEntity
  8
OracDecor_cornice_mouldings
 62
    41
420
 14997145
100
AcDbVertex
100
AcDb3dPolylineVertex
 10
0.0000043083427954
 20
11.25961780548095
 30
-0.0343289524316788
 70
    32
  0
VERTEX
  5
126
330
FA
100
AcDbEntity
  8
OracDecor_cornice_mouldings
 62
    41
420
 14997145
100
AcDbVertex
100
AcDb3dPolylineVertex
 10
0.0000043232321332
 20
11.50024890899658
 30
-0.1343293339014053
 70
    32
  0
VERTEX
  5
127
330
FA
100
AcDbEntity
  8
OracDecor_cornice_mouldings
 62
    41
420
 14997145
100
AcDbVertex
100
AcDb3dPolylineVertex
 10
0.0000043392055886
 20
11.7069501876831
 30
-0.2930607795715332
 70
    32
  0
VERTEX
  5
128
330
FA
100
AcDbEntity
  8
OracDecor_cornice_mouldings
 62
    41
420
 14997145
100
AcDbVertex
100
AcDb3dPolylineVertex
 10
0.0000043551799536
 20
11.86568164825439
 30
-0.4997620582580567
 70
    32
  0
VERTEX
  5
129
330
FA
100
AcDbEntity
  8
OracDecor_cornice_mouldings
 62
    41
420
 14997145
100
AcDbVertex
100
AcDb3dPolylineVertex
 10
0.0000043700692913
 20
11.96568202972412
 30
-0.7403931617736817
 70
    32
  0
VERTEX
  5
12A
330
FA
100
AcDbEntity
  8
OracDecor_cornice_mouldings
 62
    41
420
 14997145
100
AcDbVertex
100
AcDb3dPolylineVertex
 10
0.0000043829172682
 20
12.00000286102295
 30
-1.000008106231689
 70
    32
  0
VERTEX
  5
12B
330
FA
100
AcDbEntity
  8
OracDecor_cornice_mouldings
 62
    41
420
 14997145
100
AcDbVertex
100
AcDb3dPolylineVertex
 10
0.0000045577626224
 20
12.00000286102295
 30
-5.000008106231689
 70
    32
  0
VERTEX
  5
12C
330
FA
100
AcDbEntity
  8
OracDecor_cornice_mouldings
 62
    41
420
 14997145
100
AcDbVertex
100
AcDb3dPolylineVertex
 10
0.0000045706110541
 20
12.03432369232178
 30
-5.259623050689697
 70
    32
  0
VERTEX
  5
12D
330
FA
100
AcDbEntity
  8
OracDecor_cornice_mouldings
 62
    41
420
 14997145
100
AcDbVertex
100
AcDb3dPolylineVertex
 10
0.0000045855003918
 20
12.13432502746582
 30
-5.500252246856689
 70
    32
  0
VERTEX
  5
12E
330
FA
100
AcDbEntity
  8
OracDecor_cornice_mouldings
 62
    41
420
 14997145
100
AcDbVertex
100
AcDb3dPolylineVertex
 10
0.0000046014747568
 20
12.29305648803711
 30
-5.706955432891845
 70
    32
  0
VERTEX
  5
12F
330
FA
100
AcDbEntity
  8
OracDecor_cornice_mouldings
 62
    41
420
 14997145
100
AcDbVertex
100
AcDb3dPolylineVertex
 10
0.0000046174473027
 20
12.49975776672363
 30
-5.865684986114501
 70
    32
  0
VERTEX
  5
130
330
FA
100
AcDbEntity
  8
OracDecor_cornice_mouldings
 62
    41
420
 14997145
100
AcDbVertex
100
AcDb3dPolylineVertex
 10
0.00000463233755
 20
12.74038887023926
 30
-5.965687274932861
 70
    32
  0
VERTEX
  5
131
330
FA
100
AcDbEntity
  8
OracDecor_cornice_mouldings
 62
    41
420
 14997145
100
AcDbVertex
100
AcDb3dPolylineVertex
 10
0.0000046451859816
 20
13.00000381469726
 30
-6.000008106231689
 70
    32
  0
VERTEX
  5
132
330
FA
100
AcDbEntity
  8
OracDecor_cornice_mouldings
 62
    41
420
 14997145
100
AcDbVertex
100
AcDb3dPolylineVertex
 10
0.0000053933035815
 20
30.11493682861328
 30
-6.000006198883056
 70
    32
  0
VERTEX
  5
133
330
FA
100
AcDbEntity
  8
OracDecor_cornice_mouldings
 62
    41
420
 14997145
100
AcDbVertex
100
AcDb3dPolylineVertex
 10
0.0000054327410908
 20
31.10959625244141
 30
-5.907587528228759
 70
    32
  0
VERTEX
  5
134
330
FA
100
AcDbEntity
  8
OracDecor_cornice_mouldings
 62
    41
420
 14997145
100
AcDbVertex
100
AcDb3dPolylineVertex
 10
0.0000054726042436
 20
32.38536834716797
 30
-5.543735980987548
 70
    32
  0
VERTEX
  5
135
330
FA
100
AcDbEntity
  8
OracDecor_cornice_mouldings
 62
    41
420
 14997145
100
AcDbVertex
100
AcDb3dPolylineVertex
 10
0.0000054957349676
 20
33.55103302001953
 30
-4.907251834869384
 70
    32
  0
VERTEX
  5
136
330
FA
100
AcDbEntity
  8
OracDecor_cornice_mouldings
 62
    41
420
 14997145
100
AcDbVertex
100
AcDb3dPolylineVertex
 10
0.00000550094137
 20
34.54781341552735
 30
-4.029577732086181
 70
    32
  0
VERTEX
  5
137
330
FA
100
AcDbEntity
  8
OracDecor_cornice_mouldings
 62
    41
420
 14997145
100
AcDbVertex
100
AcDb3dPolylineVertex
 10
0.0000054879965319
 20
35.32605743408203
 30
-2.955191135406494
 70
    32
  0
VERTEX
  5
138
330
FA
100
AcDbEntity
  8
OracDecor_cornice_mouldings
 62
    41
420
 14997145
100
AcDbVertex
100
AcDb3dPolylineVertex
 10
0.0000054671882026
 20
35.75309753417969
 30
-2.052126407623291
 70
    32
  0
VERTEX
  5
139
330
FA
100
AcDbEntity
  8
OracDecor_cornice_mouldings
 62
    41
420
 14997145
100
AcDbVertex
100
AcDb3dPolylineVertex
 10
0.0000054284287216
 20
36.26052093505859
 30
-0.6579861640930176
 70
    32
  0
VERTEX
  5
13A
330
FA
100
AcDbEntity
  8
OracDecor_cornice_mouldings
 62
    41
420
 14997145
100
AcDbVertex
100
AcDb3dPolylineVertex
 10
0.0000054232482398
 20
36.45154571533203
 30
-0.3484654426574707
 70
    32
  0
VERTEX
  5
13B
330
FA
100
AcDbEntity
  8
OracDecor_cornice_mouldings
 62
    41
420
 14997145
100
AcDbVertex
100
AcDb3dPolylineVertex
 10
0.0000054283918871
 20
36.84402465820312
 30
-0.0736508518457413
 70
    32
  0
VERTEX
  5
13C
330
FA
100
AcDbEntity
  8
OracDecor_cornice_mouldings
 62
    41
420
 14997145
100
AcDbVertex
100
AcDb3dPolylineVertex
 10
0.0000054407428252
 20
37.20021057128906
 30
-0.0000062137555688
 70
    32
  0
VERTEX
  5
13D
330
FA
100
AcDbEntity
  8
OracDecor_cornice_mouldings
 62
    41
420
 14997145
100
AcDbVertex
100
AcDb3dPolylineVertex
 10
0.0000056050316743
 20
40.9587173461914
 30
-0.0000043064069359
 70
    32
  0
VERTEX
  5
13E
330
FA
100
AcDbEntity
  8
OracDecor_cornice_mouldings
 62
    41
420
 14997145
100
AcDbVertex
100
AcDb3dPolylineVertex
 10
0.0000056227509049
 20
41.29767608642578
 30
-0.0664029270410538
 70
    32
  0
VERTEX
  5
13F
330
FA
100
AcDbEntity
  8
OracDecor_cornice_mouldings
 62
    41
420
 14997145
100
AcDbVertex
100
AcDb3dPolylineVertex
 10
0.000005650316325
 20
41.67879486083984
 30
-0.3159070014953613
 70
    32
  0
VERTEX
  5
140
330
FA
100
AcDbEntity
  8
OracDecor_cornice_mouldings
 62
    41
420
 14997145
100
AcDbVertex
100
AcDb3dPolylineVertex
 10
0.0000056807662077
 20
41.95362854003906
 30
-0.7376904487609864
 70
    32
  0
VERTEX
  5
141
330
FA
100
AcDbEntity
  8
OracDecor_cornice_mouldings
 62
    41
420
 14997145
100
AcDbVertex
100
AcDb3dPolylineVertex
 10
0.0000057192019085
 20
42.36788940429687
 30
-1.202734470367431
 70
    32
  0
VERTEX
  5
142
330
FA
100
AcDbEntity
  8
OracDecor_cornice_mouldings
 62
    41
420
 14997145
100
AcDbVertex
100
AcDb3dPolylineVertex
 10
0.0000057553102124
 20
42.93810272216797
 30
-1.458576679229736
 70
    32
  0
VERTEX
  5
143
330
FA
100
AcDbEntity
  8
OracDecor_cornice_mouldings
 62
    41
420
 14997145
100
AcDbVertex
100
AcDb3dPolylineVertex
 10
0.0000057825777731
 20
43.56191253662109
 30
-1.458576679229736
 70
    32
  0
VERTEX
  5
144
330
FA
100
AcDbEntity
  8
OracDecor_cornice_mouldings
 62
    41
420
 14997145
100
AcDbVertex
100
AcDb3dPolylineVertex
 10
0.0000057963197833
 20
44.13212585449218
 30
-1.202734470367431
 70
    32
  0
VERTEX
  5
145
330
FA
100
AcDbEntity
  8
OracDecor_cornice_mouldings
 62
    41
420
 14997145
100
AcDbVertex
100
AcDb3dPolylineVertex
 10
0.0000057940987972
 20
44.54637908935547
 30
-0.7376904487609864
 70
    32
  0
VERTEX
  5
146
330
FA
100
AcDbEntity
  8
OracDecor_cornice_mouldings
 62
    41
420
 14997145
100
AcDbVertex
100
AcDb3dPolylineVertex
 10
0.0000057876754909
 20
44.82121276855468
 30
-0.3159070014953613
 70
    32
  0
VERTEX
  5
147
330
FA
100
AcDbEntity
  8
OracDecor_cornice_mouldings
 62
    41
420
 14997145
100
AcDbVertex
100
AcDb3dPolylineVertex
 10
0.0000057934294091
 20
45.20233917236327
 30
-0.066401019692421
 70
    32
  0
SEQEND
  5
148
330
FA
100
AcDbEntity
  8
OracDecor_cornice_mouldings
 62
    41
420
 14997145
  0
ENDSEC
  0
SECTION
  2
OBJECTS
  0
DICTIONARY
  5
C
330
0
100
AcDbDictionary
281
     1
  3
ACAD_COLOR
350
DC
  3
ACAD_DETAILVIEWSTYLE
350
F5
  3
ACAD_GROUP
350
D
  3
ACAD_LAYOUT
350
1A
  3
ACAD_MATERIAL
350
AA
  3
ACAD_MLEADERSTYLE
350
F1
  3
ACAD_MLINESTYLE
350
17
  3
ACAD_PLOTSETTINGS
350
19
  3
ACAD_PLOTSTYLENAME
350
E
  3
ACAD_SCALELIST
350
DF
  3
ACAD_SECTIONVIEWSTYLE
350
F3
  3
ACAD_TABLESTYLE
350
DD
  3
ACAD_VISUALSTYLE
350
C3
  3
ACDB_RECOMPOSE_DATA
350
155
  3
AcDbVariableDictionary
350
149
  0
DICTIONARY
  5
DC
102
{ACAD_REACTORS
330
C
102
}
330
C
100
AcDbDictionary
281
     1
  0
DICTIONARY
  5
F5
102
{ACAD_REACTORS
330
C
102
}
330
C
100
AcDbDictionary
281
     1
  3
Imperial24
350
F6
  0
DICTIONARY
  5
D
102
{ACAD_REACTORS
330
C
102
}
330
C
100
AcDbDictionary
281
     1
  0
DICTIONARY
  5
1A
102
{ACAD_REACTORS
330
C
102
}
330
C
100
AcDbDictionary
281
     1
  3
Layout1
350
1E
  3
Layout2
350
26
  3
Model
350
22
  0
DICTIONARY
  5
AA
102
{ACAD_REACTORS
330
C
102
}
330
C
100
AcDbDictionary
281
     1
  3
ByBlock
350
B3
  3
ByLayer
350
AB
  3
Global
350
BB
  0
DICTIONARY
  5
F1
102
{ACAD_REACTORS
330
C
102
}
330
C
100
AcDbDictionary
281
     1
  3
Standard
350
F2
  0
DICTIONARY
  5
17
102
{ACAD_REACTORS
330
C
102
}
330
C
100
AcDbDictionary
281
     1
  3
Standard
350
18
  0
DICTIONARY
  5
19
102
{ACAD_REACTORS
330
C
102
}
330
C
100
AcDbDictionary
281
     1
  0
ACDBDICTIONARYWDFLT
  5
E
102
{ACAD_REACTORS
330
C
102
}
330
C
100
AcDbDictionary
281
     1
  3
ByLayer
350
2D
  3
Normal
350
F
100
AcDbDictionaryWithDefault
340
F
  0
DICTIONARY
  5
DF
102
{ACAD_REACTORS
330
C
102
}
330
C
100
AcDbDictionary
281
     1
  3
A0
350
E0
  3
A1
350
E1
  3
A2
350
E2
  3
A3
350
E3
  3
A4
350
E4
  3
A5
350
E5
  3
A6
350
E6
  3
A7
350
E7
  3
A8
350
E8
  3
A9
350
E9
  3
B0
350
EA
  3
B1
350
EB
  3
B2
350
EC
  3
B3
350
ED
  3
B4
350
EE
  3
B5
350
EF
  3
B6
350
F0
  0
DICTIONARY
  5
F3
102
{ACAD_REACTORS
330
C
102
}
330
C
100
AcDbDictionary
281
     1
  3
Imperial24
350
F4
  0
DICTIONARY
  5
DD
102
{ACAD_REACTORS
330
C
102
}
330
C
100
AcDbDictionary
281
     1
  3
Standard
350
DE
  0
DICTIONARY
  5
C3
102
{ACAD_REACTORS
330
C
102
}
330
C
100
AcDbDictionary
281
     1
  3
2dWireframe
350
C9
  3
Basic
350
C8
  3
Brighten
350
CF
  3
ColorChange
350
D3
  3
Conceptual
350
CC
  3
Dim
350
CE
  3
EdgeColorOff
350
DB
  3
Facepattern
350
D2
  3
Flat
350
C4
  3
FlatWithEdges
350
C5
  3
Gouraud
350
C6
  3
GouraudWithEdges
350
C7
  3
Hidden
350
CB
  3
JitterOff
350
D9
  3
Linepattern
350
D1
  3
OverhangOff
350
DA
  3
Realistic
350
CD
  3
Shaded
350
D8
  3
Shaded with edges
350
D7
  3
Shades of Gray
350
D4
  3
Sketchy
350
D5
  3
Thicken
350
D0
  3
Wireframe
350
CA
  3
X-Ray
350
D6
  0
XRECORD
  5
155
102
{ACAD_REACTORS
330
C
102
}
330
C
100
AcDbXrecord
280
     1
 90
        1
330
DE
  0
DICTIONARY
  5
149
102
{ACAD_REACTORS
330
C
102
}
330
C
100
AcDbDictionary
281
     1
  3
CANNOSCALE
350
14F
  3
CMLEADERSTYLE
350
14B
  3
CTABLESTYLE
350
14A
  3
CVIEWDETAILSTYLE
350
14C
  3
CVIEWSECTIONSTYLE
350
14D
  3
LAYEREVAL
350
151
  3
LAYERNOTIFY
350
152
  3
LIGHTINGUNITS
350
150
  3
MSLTSCALE
350
14E
  0
ACDBDETAILVIEWSTYLE
  5
F6
102
{ACAD_XDICTIONARY
360
18A
102
}
102
{ACAD_REACTORS
330
F5
102
}
330
F5
100
AcDbModelDocViewStyle
 70
     0
  3
Imperial24
290
     0
100
AcDbDetailViewStyle
 70
     0
 71
     0
 90
        3
 71
     1
340
11
 62
   256
 40
0.24
340
0
 62
   256
 40
0.24
300

 40
0.36
280
     3
 71
     2
340
16
 90
       25
 62
   256
 71
     3
340
11
 62
   256
 40
0.24
 90
        1
 40
0.75
 90
        1
300
%<\AcVar ViewType \f "%tc1">% %<\AcVar ViewDetailId>%\PSCALE %<\AcVar ViewScale \f "%sn">%
 71
     4
340
16
 90
       25
 62
   256
340
16
 90
       25
 62
   256
280
     0
  0
LAYOUT
  5
1E
102
{ACAD_REACTORS
330
1A
102
}
330
1A
100
AcDbPlotSettings
  1

  2
\\KTXNTBDC\CASF2PN1
  4

  6

 40
0.0
 41
0.0
 42
0.0
 43
0.0
 44
0.0
 45
0.0
 46
0.0
 47
0.0
 48
0.0
 49
0.0
140
0.0
141
0.0
142
1.0
143
1.0
 70
   688
 72
     0
 73
     0
 74
     5
  7

 75
    16
147
1.0
 76
     0
 77
     2
 78
   300
148
0.0
149
0.0
100
AcDbLayout
  1
Layout1
 70
     1
 71
     1
 10
0.0
 20
0.0
 11
12.0
 21
9.0
 12
0.0
 22
0.0
 32
0.0
 14
1.000000000000000E+20
 24
1.000000000000000E+20
 34
1.000000000000000E+20
 15
-1.000000000000000E+20
 25
-1.000000000000000E+20
 35
-1.000000000000000E+20
146
0.0
 13
0.0
 23
0.0
 33
0.0
 16
1.0
 26
0.0
 36
0.0
 17
0.0
 27
1.0
 37
0.0
 76
     0
330
1B
  0
LAYOUT
  5
26
102
{ACAD_REACTORS
330
1A
102
}
330
1A
100
AcDbPlotSettings
  1

  2
\\KTXNTBDC\CASF2PN1
  4

  6

 40
0.0
 41
0.0
 42
0.0
 43
0.0
 44
0.0
 45
0.0
 46
0.0
 47
0.0
 48
0.0
 49
0.0
140
0.0
141
0.0
142
1.0
143
1.0
 70
   688
 72
     0
 73
     0
 74
     5
  7

 75
    16
147
1.0
 76
     0
 77
     2
 78
   300
148
0.0
149
0.0
100
AcDbLayout
  1
Layout2
 70
     1
 71
     2
 10
0.0
 20
0.0
 11
12.0
 21
9.0
 12
0.0
 22
0.0
 32
0.0
 14
0.0
 24
0.0
 34
0.0
 15
0.0
 25
0.0
 35
0.0
146
0.0
 13
0.0
 23
0.0
 33
0.0
 16
1.0
 26
0.0
 36
0.0
 17
0.0
 27
1.0
 37
0.0
 76
     0
330
23
  0
LAYOUT
  5
22
102
{ACAD_REACTORS
330
1A
102
}
330
1A
100
AcDbPlotSettings
  1

  2
\\KTXNTBDC\CASF2PN1
  4

  6

 40
0.0
 41
0.0
 42
0.0
 43
0.0
 44
0.0
 45
0.0
 46
0.0
 47
0.0
 48
0.0
 49
0.0
140
0.0
141
0.0
142
1.0
143
1.0
 70
  1712
 72
     0
 73
     0
 74
     0
  7

 75
     0
147
1.0
 76
     0
 77
     2
 78
   300
148
0.0
149
0.0
100
AcDbLayout
  1
Model
 70
     1
 71
     0
 10
0.0
 20
0.0
 11
12.0
 21
9.0
 12
0.0
 22
0.0
 32
0.0
 14
0.0
 24
0.0
 34
0.0
 15
0.0
 25
0.0
 35
0.0
146
0.0
 13
0.0
 23
0.0
 33
0.0
 16
1.0
 26
0.0
 36
0.0
 17
0.0
 27
1.0
 37
0.0
 76
     0
330
1F
  0
MATERIAL
  5
B3
102
{ACAD_XDICTIONARY
360
B4
102
}
102
{ACAD_REACTORS
330
AA
102
}
330
AA
100
AcDbMaterial
  1
ByBlock
 72
     0
 43
0.0208333333333333
 43
0.0
 43
0.0
 43
0.0
 43
0.0
 43
0.0208333333333333
 43
0.0
 43
0.0
 43
0.0
 43
0.0
 43
1.0
 43
0.0
 43
0.0
 43
0.0
 43
0.0
 43
1.0
 77
     0
 47
0.0208333333333333
 47
0.0
 47
0.0
 47
0.0
 47
0.0
 47
0.0208333333333333
 47
0.0
 47
0.0
 47
0.0
 47
0.0
 47
1.0
 47
0.0
 47
0.0
 47
0.0
 47
0.0
 47
1.0
171
     0
 49
0.0208333333333333
 49
0.0
 49
0.0
 49
0.0
 49
0.0
 49
0.0208333333333333
 49
0.0
 49
0.0
 49
0.0
 49
0.0
 49
1.0
 49
0.0
 49
0.0
 49
0.0
 49
0.0
 49
1.0
175
     0
142
0.0208333333333333
142
0.0
142
0.0
142
0.0
142
0.0
142
0.0208333333333333
142
0.0
142
0.0
142
0.0
142
0.0
142
1.0
142
0.0
142
0.0
142
0.0
142
0.0
142
1.0
179
     0
144
0.0208333333333333
144
0.0
144
0.0
144
0.0
144
0.0
144
0.0208333333333333
144
0.0
144
0.0
144
0.0
144
0.0
144
1.0
144
0.0
144
0.0
144
0.0
144
0.0
144
1.0
147
0.0208333333333333
147
0.0
147
0.0
147
0.0
147
0.0
147
0.0208333333333333
147
0.0
147
0.0
147
0.0
147
0.0
147
1.0
147
0.0
147
0.0
147
0.0
147
0.0
147
1.0
  0
MATERIAL
  5
AB
102
{ACAD_XDICTIONARY
360
AC
102
}
102
{ACAD_REACTORS
330
AA
102
}
330
AA
100
AcDbMaterial
  1
ByLayer
 72
     0
 43
0.0208333333333333
 43
0.0
 43
0.0
 43
0.0
 43
0.0
 43
0.0208333333333333
 43
0.0
 43
0.0
 43
0.0
 43
0.0
 43
1.0
 43
0.0
 43
0.0
 43
0.0
 43
0.0
 43
1.0
 77
     0
 47
0.0208333333333333
 47
0.0
 47
0.0
 47
0.0
 47
0.0
 47
0.0208333333333333
 47
0.0
 47
0.0
 47
0.0
 47
0.0
 47
1.0
 47
0.0
 47
0.0
 47
0.0
 47
0.0
 47
1.0
171
     0
 49
0.0208333333333333
 49
0.0
 49
0.0
 49
0.0
 49
0.0
 49
0.0208333333333333
 49
0.0
 49
0.0
 49
0.0
 49
0.0
 49
1.0
 49
0.0
 49
0.0
 49
0.0
 49
0.0
 49
1.0
175
     0
142
0.0208333333333333
142
0.0
142
0.0
142
0.0
142
0.0
142
0.0208333333333333
142
0.0
142
0.0
142
0.0
142
0.0
142
1.0
142
0.0
142
0.0
142
0.0
142
0.0
142
1.0
179
     0
144
0.0208333333333333
144
0.0
144
0.0
144
0.0
144
0.0
144
0.0208333333333333
144
0.0
144
0.0
144
0.0
144
0.0
144
1.0
144
0.0
144
0.0
144
0.0
144
0.0
144
1.0
147
0.0208333333333333
147
0.0
147
0.0
147
0.0
147
0.0
147
0.0208333333333333
147
0.0
147
0.0
147
0.0
147
0.0
147
1.0
147
0.0
147
0.0
147
0.0
147
0.0
147
1.0
  0
MATERIAL
  5
BB
102
{ACAD_XDICTIONARY
360
BC
102
}
102
{ACAD_REACTORS
330
AA
102
}
330
AA
100
AcDbMaterial
  1
Global
 72
     0
 43
0.0208333333333333
 43
0.0
 43
0.0
 43
0.0
 43
0.0
 43
0.0208333333333333
 43
0.0
 43
0.0
 43
0.0
 43
0.0
 43
1.0
 43
0.0
 43
0.0
 43
0.0
 43
0.0
 43
1.0
 77
     0
 47
0.0208333333333333
 47
0.0
 47
0.0
 47
0.0
 47
0.0
 47
0.0208333333333333
 47
0.0
 47
0.0
 47
0.0
 47
0.0
 47
1.0
 47
0.0
 47
0.0
 47
0.0
 47
0.0
 47
1.0
171
     0
 49
0.0208333333333333
 49
0.0
 49
0.0
 49
0.0
 49
0.0
 49
0.0208333333333333
 49
0.0
 49
0.0
 49
0.0
 49
0.0
 49
1.0
 49
0.0
 49
0.0
 49
0.0
 49
0.0
 49
1.0
175
     0
142
0.0208333333333333
142
0.0
142
0.0
142
0.0
142
0.0
142
0.0208333333333333
142
0.0
142
0.0
142
0.0
142
0.0
142
1.0
142
0.0
142
0.0
142
0.0
142
0.0
142
1.0
179
     0
144
0.0208333333333333
144
0.0
144
0.0
144
0.0
144
0.0
144
0.0208333333333333
144
0.0
144
0.0
144
0.0
144
0.0
144
1.0
144
0.0
144
0.0
144
0.0
144
0.0
144
1.0
147
0.0208333333333333
147
0.0
147
0.0
147
0.0
147
0.0
147
0.0208333333333333
147
0.0
147
0.0
147
0.0
147
0.0
147
1.0
147
0.0
147
0.0
147
0.0
147
0.0
147
1.0
  0
MLEADERSTYLE
  5
F2
102
{ACAD_XDICTIONARY
360
186
102
}
102
{ACAD_REACTORS
330
F1
102
}
330
F1
100
AcDbMLeaderStyle
179
     2
170
     2
171
     1
172
     0
 90
        2
 40
0.0
 41
0.0
173
     1
 91
-1056964608
340
14
 92
       -2
290
     1
 42
0.09
291
     1
 43
0.36
  3
Standard
 44
0.18
300

342
11
174
     1
178
     6
175
     1
176
     0
 93
-1056964608
 45
0.18
292
     0
297
     0
 46
0.18
 94
-1056964608
 47
1.0
 49
1.0
140
1.0
293
     1
141
0.0
294
     1
177
     0
142
1.0
295
     0
296
     0
143
0.125
271
     0
272
     9
273
     9
  0
MLINESTYLE
  5
18
102
{ACAD_REACTORS
330
17
102
}
330
17
100
AcDbMlineStyle
  2
STANDARD
 70
     0
  3

 62
   256
 51
90.0
 52
90.0
 71
     2
 49
0.5
 62
   256
  6
BYLAYER
 49
-0.5
 62
   256
  6
BYLAYER
  0
ACDBPLACEHOLDER
  5
2D
102
{ACAD_REACTORS
330
E
102
}
330
E
  0
ACDBPLACEHOLDER
  5
F
102
{ACAD_REACTORS
330
E
102
}
330
E
  0
SCALE
  5
E0
102
{ACAD_REACTORS
330
DF
102
}
330
DF
100
AcDbScale
 70
     0
300
1:1
140
1.0
141
1.0
290
     1
  0
SCALE
  5
E1
102
{ACAD_REACTORS
330
DF
102
}
330
DF
100
AcDbScale
 70
     0
300
1/128" = 1'-0"
140
0.0078125
141
12.0
290
     0
  0
SCALE
  5
E2
102
{ACAD_REACTORS
330
DF
102
}
330
DF
100
AcDbScale
 70
     0
300
1/64" = 1'-0"
140
0.015625
141
12.0
290
     0
  0
SCALE
  5
E3
102
{ACAD_REACTORS
330
DF
102
}
330
DF
100
AcDbScale
 70
     0
300
1/32" = 1'-0"
140
0.03125
141
12.0
290
     0
  0
SCALE
  5
E4
102
{ACAD_REACTORS
330
DF
102
}
330
DF
100
AcDbScale
 70
     0
300
1/16" = 1'-0"
140
0.0625
141
12.0
290
     0
  0
SCALE
  5
E5
102
{ACAD_REACTORS
330
DF
102
}
330
DF
100
AcDbScale
 70
     0
300
3/32" = 1'-0"
140
0.09375
141
12.0
290
     0
  0
SCALE
  5
E6
102
{ACAD_REACTORS
330
DF
102
}
330
DF
100
AcDbScale
 70
     0
300
1/8" = 1'-0"
140
0.125
141
12.0
290
     0
  0
SCALE
  5
E7
102
{ACAD_REACTORS
330
DF
102
}
330
DF
100
AcDbScale
 70
     0
300
3/16" = 1'-0"
140
0.1875
141
12.0
290
     0
  0
SCALE
  5
E8
102
{ACAD_REACTORS
330
DF
102
}
330
DF
100
AcDbScale
 70
     0
300
1/4" = 1'-0"
140
0.25
141
12.0
290
     0
  0
SCALE
  5
E9
102
{ACAD_REACTORS
330
DF
102
}
330
DF
100
AcDbScale
 70
     0
300
3/8" = 1'-0"
140
0.375
141
12.0
290
     0
  0
SCALE
  5
EA
102
{ACAD_REACTORS
330
DF
102
}
330
DF
100
AcDbScale
 70
     0
300
1/2" = 1'-0"
140
0.5
141
12.0
290
     0
  0
SCALE
  5
EB
102
{ACAD_REACTORS
330
DF
102
}
330
DF
100
AcDbScale
 70
     0
300
3/4" = 1'-0"
140
0.75
141
12.0
290
     0
  0
SCALE
  5
EC
102
{ACAD_REACTORS
330
DF
102
}
330
DF
100
AcDbScale
 70
     0
300
1" = 1'-0"
140
1.0
141
12.0
290
     0
  0
SCALE
  5
ED
102
{ACAD_REACTORS
330
DF
102
}
330
DF
100
AcDbScale
 70
     0
300
1-1/2" = 1'-0"
140
1.5
141
12.0
290
     0
  0
SCALE
  5
EE
102
{ACAD_REACTORS
330
DF
102
}
330
DF
100
AcDbScale
 70
     0
300
3" = 1'-0"
140
3.0
141
12.0
290
     0
  0
SCALE
  5
EF
102
{ACAD_REACTORS
330
DF
102
}
330
DF
100
AcDbScale
 70
     0
300
6" = 1'-0"
140
6.0
141
12.0
290
     0
  0
SCALE
  5
F0
102
{ACAD_REACTORS
330
DF
102
}
330
DF
100
AcDbScale
 70
     0
300
1'-0" = 1'-0"
140
12.0
141
12.0
290
     0
  0
ACDBSECTIONVIEWSTYLE
  5
F4
102
{ACAD_XDICTIONARY
360
188
102
}
102
{ACAD_REACTORS
330
F3
102
}
330
F3
100
AcDbModelDocViewStyle
 70
     0
  3
Imperial24
290
     0
100
AcDbSectionViewStyle
 70
     0
 71
     0
 90
       78
 71
     1
340
11
 62
   256
 40
0.24
340
0
340
0
 62
   256
 40
0.24
300
I, O, Q, S, X, Z
 40
0.48
 90
        3
 40
0.18
 90
        1
 71
     2
340
16
 90
       25
 62
   256
340
16
 90
       50
 62
   256
 40
0.24
 40
0.0
 40
0.24
 71
     3
340
11
 62
   256
 40
0.24
 90
        1
 40
0.75
 90
        1
300
%<\AcVar ViewType \f "%tc1">% %<\AcVar ViewSectionStartId>%-%<\AcVar ViewSectionEndId>%\PSCALE %<\AcVar ViewScale \f "%sn">%
 71
     4
 62
   256
 62
   257
300
ANSI31
 40
1.0
 90
        0
290
     0
290
     0
 90
        6
 40
0.0
 40
1.570796326794896
 40
0.2617993877991494
 40
1.308996938995747
 40
-0.2617993877991494
 40
1.832595714594046
  0
TABLESTYLE
  5
DE
102
{ACAD_XDICTIONARY
360
153
102
}
102
{ACAD_REACTORS
330
DD
102
}
330
DD
100
AcDbTableStyle
280
     0
  3
Standard
 70
     0
 71
     0
 40
0.06
 41
0.06
280
     0
281
     0
  7
Standard
140
0.18
170
     2
 62
     0
 63
     7
283
     0
 90
      512
 91
        0
  1

274
    -2
284
     1
 64
     0
275
    -2
285
     1
 65
     0
276
    -2
286
     1
 66
     0
277
    -2
287
     1
 67
     0
278
    -2
288
     1
 68
     0
279
    -2
289
     1
 69
     0
  7
Standard
140
0.25
170
     5
 62
     0
 63
     7
283
     0
 90
      512
 91
        0
  1

274
    -2
284
     1
 64
     0
275
    -2
285
     1
 65
     0
276
    -2
286
     1
 66
     0
277
    -2
287
     1
 67
     0
278
    -2
288
     1
 68
     0
279
    -2
289
     1
 69
     0
  7
Standard
140
0.18
170
     5
 62
     0
 63
     7
283
     0
 90
      512
 91
        0
  1

274
    -2
284
     1
 64
     0
275
    -2
285
     1
 65
     0
276
    -2
286
     1
 66
     0
277
    -2
287
     1
 67
     0
278
    -2
288
     1
 68
     0
279
    -2
289
     1
 69
     0
  0
VISUALSTYLE
  5
C9
102
{ACAD_XDICTIONARY
360
160
102
}
102
{ACAD_REACTORS
330
C3
102
}
330
C3
100
AcDbVisualStyle
  2
2dWireframe
 70
     4
177
     2
291
     0
 71
     0
176
     1
 72
     2
176
     1
 73
     0
176
     1
 90
        0
176
     1
 40
0.6
176
     1
 41
30.0
176
     1
 63
     7
421
 16777215
176
     1
 74
     1
176
     1
 91
        4
176
     1
 64
     7
176
     1
 65
   257
176
     1
 75
     1
176
     1
175
     1
176
     1
 42
1.0
176
     1
 92
        0
176
     1
 66
   257
176
     1
 43
1.0
176
     1
 76
     1
176
     1
 77
     6
176
     1
 78
     2
176
     1
 67
     7
176
     1
 79
     5
176
     1
170
     0
176
     1
171
     0
176
     1
290
     0
176
     1
 93
        1
176
     1
 44
0.0
176
     1
173
     0
176
     1
1001
ACAD
1000
AcDbSavedByObjectVersion
1070
     0
  0
VISUALSTYLE
  5
C8
102
{ACAD_XDICTIONARY
360
15E
102
}
102
{ACAD_REACTORS
330
C3
102
}
330
C3
100
AcDbVisualStyle
  2
Basic
 70
     7
177
     2
291
     1
 71
     1
176
     1
 72
     0
176
     1
 73
     1
176
     1
 90
        0
176
     1
 40
0.6
176
     1
 41
30.0
176
     1
 63
     7
421
 16777215
176
     1
 74
     0
176
     1
 91
        4
176
     1
 64
     7
176
     1
 65
   257
176
     1
 75
     1
176
     1
175
     1
176
     1
 42
1.0
176
     1
 92
        8
176
     1
 66
     7
176
     1
 43
1.0
176
     1
 76
     1
176
     1
 77
     6
176
     1
 78
     2
176
     1
 67
     7
176
     1
 79
     5
176
     1
170
     0
176
     1
171
     0
176
     1
290
     0
176
     1
 93
        1
176
     1
 44
0.0
176
     1
173
     0
176
     1
1001
ACAD
1000
AcDbSavedByObjectVersion
1070
     0
  0
VISUALSTYLE
  5
CF
102
{ACAD_XDICTIONARY
360
16C
102
}
102
{ACAD_REACTORS
330
C3
102
}
330
C3
100
AcDbVisualStyle
  2
Brighten
 70
    12
177
     2
291
     1
 71
     2
176
     1
 72
     2
176
     1
 73
     0
176
     1
 90
        0
176
     1
 40
0.6
176
     1
 41
30.0
176
     1
 63
     7
421
 16777215
176
     1
 74
     1
176
     1
 91
        4
176
     1
 64
     7
176
     1
 65
   257
176
     1
 75
     1
176
     1
175
     1
176
     1
 42
1.0
176
     1
 92
        8
176
     1
 66
     7
176
     1
 43
1.0
176
     1
 76
     1
176
     1
 77
     6
176
     1
 78
     2
176
     1
 67
     7
176
     1
 79
     5
176
     1
170
     0
176
     1
171
     0
176
     1
290
     0
176
     1
 93
        1
176
     1
 44
50.0
176
     1
173
     0
176
     1
1001
ACAD
1000
AcDbSavedByObjectVersion
1070
     0
  0
VISUALSTYLE
  5
D3
102
{ACAD_XDICTIONARY
360
174
102
}
102
{ACAD_REACTORS
330
C3
102
}
330
C3
100
AcDbVisualStyle
  2
ColorChange
 70
    16
177
     2
291
     1
 71
     2
176
     1
 72
     2
176
     1
 73
     3
176
     1
 90
        0
176
     1
 40
0.6
176
     1
 41
30.0
176
     1
 63
     8
421
  8421504
176
     1
 74
     1
176
     1
 91
        4
176
     1
 64
     7
176
     1
 65
   257
176
     1
 75
     1
176
     1
175
     1
176
     1
 42
1.0
176
     1
 92
        8
176
     1
 66
     8
424
  8421504
176
     1
 43
1.0
176
     1
 76
     1
176
     1
 77
     6
176
     1
 78
     2
176
     1
 67
     7
176
     1
 79
     5
176
     1
170
     0
176
     1
171
     0
176
     1
290
     0
176
     1
 93
        1
176
     1
 44
0.0
176
     1
173
     0
176
     1
1001
ACAD
1000
AcDbSavedByObjectVersion
1070
     0
  0
VISUALSTYLE
  5
CC
102
{ACAD_XDICTIONARY
360
166
102
}
102
{ACAD_REACTORS
330
C3
102
}
330
C3
100
AcDbVisualStyle
  2
Conceptual
 70
     9
177
     2
291
     0
 71
     3
176
     1
 72
     2
176
     1
 73
     0
176
     1
 90
        0
176
     1
 40
0.6
176
     1
 41
30.0
176
     1
 63
     7
421
 16777215
176
     1
 74
     2
176
     1
 91
        2
176
     1
 64
     7
176
     1
 65
   257
176
     1
 75
     1
176
     1
175
     1
176
     1
 42
179.0
176
     1
 92
        8
176
     1
 66
     7
176
     1
 43
1.0
176
     1
 76
     1
176
     1
 77
     6
176
     1
 78
     2
176
     1
 67
     7
176
     1
 79
     3
176
     1
170
     0
176
     1
171
     0
176
     1
290
     0
176
     1
 93
        1
176
     1
 44
0.0
176
     1
173
     0
176
     1
1001
ACAD
1000
AcDbSavedByObjectVersion
1070
     0
  0
VISUALSTYLE
  5
CE
102
{ACAD_XDICTIONARY
360
16A
102
}
102
{ACAD_REACTORS
330
C3
102
}
330
C3
100
AcDbVisualStyle
  2
Dim
 70
    11
177
     2
291
     1
 71
     2
176
     1
 72
     2
176
     1
 73
     0
176
     1
 90
        0
176
     1
 40
0.6
176
     1
 41
30.0
176
     1
 63
     7
421
 16777215
176
     1
 74
     1
176
     1
 91
        4
176
     1
 64
     7
176
     1
 65
   257
176
     1
 75
     1
176
     1
175
     1
176
     1
 42
1.0
176
     1
 92
        8
176
     1
 66
     7
176
     1
 43
1.0
176
     1
 76
     1
176
     1
 77
     6
176
     1
 78
     2
176
     1
 67
     7
176
     1
 79
     5
176
     1
170
     0
176
     1
171
     0
176
     1
290
     0
176
     1
 93
        1
176
     1
 44
-50.0
176
     1
173
     0
176
     1
1001
ACAD
1000
AcDbSavedByObjectVersion
1070
     0
  0
VISUALSTYLE
  5
DB
102
{ACAD_XDICTIONARY
360
184
102
}
102
{ACAD_REACTORS
330
C3
102
}
330
C3
100
AcDbVisualStyle
  2
EdgeColorOff
 70
    22
177
     2
291
     1
 71
     2
176
     0
 72
     2
176
     0
 73
     0
176
     0
 90
        0
176
     0
 40
0.6
176
     0
 41
30.0
176
     0
 63
     7
421
 16777215
176
     0
 74
     1
176
     0
 91
        4
176
     0
 64
     7
176
     0
 65
   257
176
     0
 75
     1
176
     0
175
     1
176
     0
 42
1.0
176
     0
 92
        8
176
     2
 66
     7
176
     0
 43
1.0
176
     0
 76
     1
176
     0
 77
     6
176
     0
 78
     2
176
     0
 67
     7
176
     0
 79
     5
176
     0
170
     0
176
     0
171
     0
176
     0
290
     0
176
     0
 93
        1
176
     0
 44
0.0
176
     0
173
     0
176
     0
1001
ACAD
1000
AcDbSavedByObjectVersion
1070
     0
  0
VISUALSTYLE
  5
D2
102
{ACAD_XDICTIONARY
360
172
102
}
102
{ACAD_REACTORS
330
C3
102
}
330
C3
100
AcDbVisualStyle
  2
Facepattern
 70
    15
177
     2
291
     1
 71
     2
176
     1
 72
     2
176
     1
 73
     0
176
     1
 90
        0
176
     1
 40
0.6
176
     1
 41
30.0
176
     1
 63
     7
421
 16777215
176
     1
 74
     1
176
     1
 91
        4
176
     1
 64
     7
176
     1
 65
   257
176
     1
 75
     1
176
     1
175
     1
176
     1
 42
1.0
176
     1
 92
        8
176
     1
 66
     7
176
     1
 43
1.0
176
     1
 76
     1
176
     1
 77
     6
176
     1
 78
     2
176
     1
 67
     7
176
     1
 79
     5
176
     1
170
     0
176
     1
171
     0
176
     1
290
     0
176
     1
 93
        1
176
     1
 44
0.0
176
     1
173
     0
176
     1
1001
ACAD
1000
AcDbSavedByObjectVersion
1070
     0
  0
VISUALSTYLE
  5
C4
102
{ACAD_XDICTIONARY
360
156
102
}
102
{ACAD_REACTORS
330
C3
102
}
330
C3
100
AcDbVisualStyle
  2
Flat
 70
     0
177
     2
291
     1
 71
     2
176
     1
 72
     1
176
     1
 73
     1
176
     1
 90
        2
176
     1
 40
0.6
176
     1
 41
30.0
176
     1
 63
     7
421
 16777215
176
     1
 74
     0
176
     1
 91
        0
176
     1
 64
     7
176
     1
 65
   257
176
     1
 75
     1
176
     1
175
     1
176
     1
 42
1.0
176
     1
 92
        8
176
     1
 66
     7
176
     1
 43
1.0
176
     1
 76
     1
176
     1
 77
     6
176
     1
 78
     2
176
     1
 67
     7
176
     1
 79
     5
176
     1
170
     0
176
     1
171
     0
176
     1
290
     0
176
     1
 93
       13
176
     1
 44
0.0
176
     1
173
     0
176
     1
1001
ACAD
1000
AcDbSavedByObjectVersion
1070
     0
  0
VISUALSTYLE
  5
C5
102
{ACAD_XDICTIONARY
360
158
102
}
102
{ACAD_REACTORS
330
C3
102
}
330
C3
100
AcDbVisualStyle
  2
FlatWithEdges
 70
     1
177
     2
291
     1
 71
     2
176
     1
 72
     1
176
     1
 73
     1
176
     1
 90
        2
176
     1
 40
0.6
176
     1
 41
30.0
176
     1
 63
     7
421
 16777215
176
     1
 74
     1
176
     1
 91
        0
176
     1
 64
     7
176
     1
 65
   257
176
     1
 75
     1
176
     1
175
     1
176
     1
 42
1.0
176
     1
 92
        0
176
     1
 66
   257
176
     1
 43
1.0
176
     1
 76
     1
176
     1
 77
     6
176
     1
 78
     2
176
     1
 67
     7
176
     1
 79
     5
176
     1
170
     0
176
     1
171
     0
176
     1
290
     0
176
     1
 93
       13
176
     1
 44
0.0
176
     1
173
     0
176
     1
1001
ACAD
1000
AcDbSavedByObjectVersion
1070
     0
  0
VISUALSTYLE
  5
C6
102
{ACAD_XDICTIONARY
360
15A
102
}
102
{ACAD_REACTORS
330
C3
102
}
330
C3
100
AcDbVisualStyle
  2
Gouraud
 70
     2
177
     2
291
     1
 71
     2
176
     1
 72
     2
176
     1
 73
     1
176
     1
 90
        2
176
     1
 40
0.6
176
     1
 41
30.0
176
     1
 63
     7
421
 16777215
176
     1
 74
     0
176
     1
 91
        0
176
     1
 64
     7
176
     1
 65
   257
176
     1
 75
     1
176
     1
175
     1
176
     1
 42
1.0
176
     1
 92
        0
176
     1
 66
     7
176
     1
 43
1.0
176
     1
 76
     1
176
     1
 77
     6
176
     1
 78
     2
176
     1
 67
     7
176
     1
 79
     5
176
     1
170
     0
176
     1
171
     0
176
     1
290
     0
176
     1
 93
       13
176
     1
 44
0.0
176
     1
173
     0
176
     1
1001
ACAD
1000
AcDbSavedByObjectVersion
1070
     0
  0
VISUALSTYLE
  5
C7
102
{ACAD_XDICTIONARY
360
15C
102
}
102
{ACAD_REACTORS
330
C3
102
}
330
C3
100
AcDbVisualStyle
  2
GouraudWithEdges
 70
     3
177
     2
291
     1
 71
     2
176
     1
 72
     2
176
     1
 73
     1
176
     1
 90
        2
176
     1
 40
0.6
176
     1
 41
30.0
176
     1
 63
     7
421
 16777215
176
     1
 74
     1
176
     1
 91
        0
176
     1
 64
     7
176
     1
 65
   257
176
     1
 75
     1
176
     1
175
     1
176
     1
 42
1.0
176
     1
 92
        0
176
     1
 66
   257
176
     1
 43
1.0
176
     1
 76
     1
176
     1
 77
     6
176
     1
 78
     2
176
     1
 67
     7
176
     1
 79
     5
176
     1
170
     0
176
     1
171
     0
176
     1
290
     0
176
     1
 93
       13
176
     1
 44
0.0
176
     1
173
     0
176
     1
1001
ACAD
1000
AcDbSavedByObjectVersion
1070
     0
  0
VISUALSTYLE
  5
CB
102
{ACAD_XDICTIONARY
360
164
102
}
102
{ACAD_REACTORS
330
C3
102
}
330
C3
100
AcDbVisualStyle
  2
Hidden
 70
     6
177
     2
291
     0
 71
     1
176
     1
 72
     2
176
     1
 73
     2
176
     1
 90
        0
176
     1
 40
0.6
176
     1
 41
30.0
176
     1
 63
     7
421
 16777215
176
     1
 74
     2
176
     1
 91
        2
176
     1
 64
     7
176
     1
 65
   257
176
     1
 75
     2
176
     1
175
     1
176
     1
 42
40.0
176
     1
 92
        0
176
     1
 66
   257
176
     1
 43
1.0
176
     1
 76
     1
176
     1
 77
     6
176
     1
 78
     2
176
     1
 67
     7
176
     1
 79
     3
176
     1
170
     0
176
     1
171
     0
176
     1
290
     0
176
     1
 93
        1
176
     1
 44
0.0
176
     1
173
     0
176
     1
1001
ACAD
1000
AcDbSavedByObjectVersion
1070
     0
  0
VISUALSTYLE
  5
D9
102
{ACAD_XDICTIONARY
360
180
102
}
102
{ACAD_REACTORS
330
C3
102
}
330
C3
100
AcDbVisualStyle
  2
JitterOff
 70
    20
177
     2
291
     1
 71
     2
176
     0
 72
     2
176
     0
 73
     0
176
     0
 90
        0
176
     0
 40
0.6
176
     0
 41
30.0
176
     0
 63
     7
421
 16777215
176
     0
 74
     1
176
     0
 91
        4
176
     0
 64
     7
176
     0
 65
   257
176
     0
 75
     1
176
     0
175
     1
176
     0
 42
1.0
176
     0
 92
       10
176
     2
 66
     7
176
     0
 43
1.0
176
     0
 76
     1
176
     0
 77
     6
176
     0
 78
     2
176
     0
 67
     7
176
     0
 79
     5
176
     0
170
     0
176
     0
171
     0
176
     0
290
     0
176
     0
 93
        1
176
     0
 44
0.0
176
     0
173
     0
176
     0
1001
ACAD
1000
AcDbSavedByObjectVersion
1070
     0
  0
VISUALSTYLE
  5
D1
102
{ACAD_XDICTIONARY
360
170
102
}
102
{ACAD_REACTORS
330
C3
102
}
330
C3
100
AcDbVisualStyle
  2
Linepattern
 70
    14
177
     2
291
     1
 71
     2
176
     1
 72
     2
176
     1
 73
     0
176
     1
 90
        0
176
     1
 40
0.6
176
     1
 41
30.0
176
     1
 63
     7
421
 16777215
176
     1
 74
     1
176
     1
 91
        4
176
     1
 64
     7
176
     1
 65
   257
176
     1
 75
     7
176
     1
175
     7
176
     1
 42
1.0
176
     1
 92
        8
176
     1
 66
     7
176
     1
 43
1.0
176
     1
 76
     1
176
     1
 77
     6
176
     1
 78
     2
176
     1
 67
     7
176
     1
 79
     5
176
     1
170
     0
176
     1
171
     0
176
     1
290
     0
176
     1
 93
        1
176
     1
 44
0.0
176
     1
173
     0
176
     1
1001
ACAD
1000
AcDbSavedByObjectVersion
1070
     0
  0
VISUALSTYLE
  5
DA
102
{ACAD_XDICTIONARY
360
182
102
}
102
{ACAD_REACTORS
330
C3
102
}
330
C3
100
AcDbVisualStyle
  2
OverhangOff
 70
    21
177
     2
291
     1
 71
     2
176
     0
 72
     2
176
     0
 73
     0
176
     0
 90
        0
176
     0
 40
0.6
176
     0
 41
30.0
176
     0
 63
     7
421
 16777215
176
     0
 74
     1
176
     0
 91
        4
176
     0
 64
     7
176
     0
 65
   257
176
     0
 75
     1
176
     0
175
     1
176
     0
 42
1.0
176
     0
 92
        9
176
     2
 66
     7
176
     0
 43
1.0
176
     0
 76
     1
176
     0
 77
     6
176
     0
 78
     2
176
     0
 67
     7
176
     0
 79
     5
176
     0
170
     0
176
     0
171
     0
176
     0
290
     0
176
     0
 93
        1
176
     0
 44
0.0
176
     0
173
     0
176
     0
1001
ACAD
1000
AcDbSavedByObjectVersion
1070
     0
  0
VISUALSTYLE
  5
CD
102
{ACAD_XDICTIONARY
360
168
102
}
102
{ACAD_REACTORS
330
C3
102
}
330
C3
100
AcDbVisualStyle
  2
Realistic
 70
     8
177
     2
291
     0
 71
     2
176
     1
 72
     3
176
     1
 73
     0
176
     1
 90
        2
176
     1
 40
0.6
176
     1
 41
30.0
176
     1
 63
     7
421
 16777215
176
     1
 74
     0
176
     1
 91
        0
176
     1
 64
     7
176
     1
 65
   257
176
     1
 75
     1
176
     1
175
     1
176
     1
 42
1.0
176
     1
 92
        8
176
     1
 66
   257
176
     1
 43
1.0
176
     1
 76
     1
176
     1
 77
     6
176
     1
 78
     2
176
     1
 67
     7
176
     1
 79
     3
176
     1
170
     0
176
     1
171
     0
176
     1
290
     0
176
     1
 93
       13
176
     1
 44
0.0
176
     1
173
     0
176
     1
1001
ACAD
1000
AcDbSavedByObjectVersion
1070
     0
  0
VISUALSTYLE
  5
D8
102
{ACAD_XDICTIONARY
360
17E
102
}
102
{ACAD_REACTORS
330
C3
102
}
330
C3
100
AcDbVisualStyle
  2
Shaded
 70
    27
177
     2
291
     0
 71
     2
176
     1
 72
     2
176
     1
 73
     1
176
     1
 90
        2
176
     1
 40
0.6
176
     1
 41
30.0
176
     1
 63
     7
421
 16777215
176
     1
 74
     0
176
     1
 91
        4
176
     1
 64
     7
176
     1
 65
   257
176
     1
 75
     1
176
     1
175
     1
176
     1
 42
1.0
176
     1
 92
        8
176
     1
 66
   257
176
     1
 43
1.0
176
     1
 76
     1
176
     1
 77
     6
176
     1
 78
     2
176
     1
 67
     8
425
  7895160
176
     1
 79
     3
176
     1
170
     0
176
     1
171
     0
176
     1
290
     0
176
     1
 93
        5
176
     1
 44
0.0
176
     1
173
     0
176
     1
1001
ACAD
1000
AcDbSavedByObjectVersion
1070
     0
  0
VISUALSTYLE
  5
D7
102
{ACAD_XDICTIONARY
360
17C
102
}
102
{ACAD_REACTORS
330
C3
102
}
330
C3
100
AcDbVisualStyle
  2
Shaded with edges
 70
    26
177
     2
291
     0
 71
     2
176
     1
 72
     2
176
     1
 73
     1
176
     1
 90
        2
176
     1
 40
0.6
176
     1
 41
30.0
176
     1
 63
     7
421
 16777215
176
     1
 74
     1
176
     1
 91
       10
176
     1
 64
     7
176
     1
 65
   257
176
     1
 75
     2
176
     1
175
     1
176
     1
 42
1.0
176
     1
 92
        8
176
     1
 66
   257
176
     1
 43
1.0
176
     1
 76
     1
176
     1
 77
     6
176
     1
 78
     2
176
     1
 67
     7
176
     1
 79
     3
176
     1
170
     0
176
     1
171
     0
176
     1
290
     0
176
     1
 93
        5
176
     1
 44
0.0
176
     1
173
     0
176
     1
1001
ACAD
1000
AcDbSavedByObjectVersion
1070
     0
  0
VISUALSTYLE
  5
D4
102
{ACAD_XDICTIONARY
360
176
102
}
102
{ACAD_REACTORS
330
C3
102
}
330
C3
100
AcDbVisualStyle
  2
Shades of Gray
 70
    23
177
     2
291
     0
 71
     2
176
     1
 72
     2
176
     1
 73
     3
176
     1
 90
        0
176
     1
 40
0.6
176
     1
 41
30.0
176
     1
 63
     7
421
 16777215
176
     1
 74
     2
176
     1
 91
        2
176
     1
 64
     7
176
     1
 65
     7
176
     1
 75
     1
176
     1
175
     1
176
     1
 42
40.0
176
     1
 92
        8
176
     1
 66
     7
176
     1
 43
1.0
176
     1
 76
     1
176
     1
 77
     6
176
     1
 78
     2
176
     1
 67
     7
176
     1
 79
     3
176
     1
170
     0
176
     1
171
     0
176
     1
290
     0
176
     1
 93
        1
176
     1
 44
0.0
176
     1
173
     0
176
     1
1001
ACAD
1000
AcDbSavedByObjectVersion
1070
     0
  0
VISUALSTYLE
  5
D5
102
{ACAD_XDICTIONARY
360
178
102
}
102
{ACAD_REACTORS
330
C3
102
}
330
C3
100
AcDbVisualStyle
  2
Sketchy
 70
    24
177
     2
291
     0
 71
     1
176
     1
 72
     2
176
     1
 73
     2
176
     1
 90
        0
176
     1
 40
0.6
176
     1
 41
30.0
176
     1
 63
     7
421
 16777215
176
     1
 74
     2
176
     1
 91
        2
176
     1
 64
     7
176
     1
 65
     7
176
     1
 75
     1
176
     1
175
     1
176
     1
 42
40.0
176
     1
 92
       11
176
     1
 66
     7
176
     1
 43
1.0
176
     1
 76
     1
176
     1
 77
     6
176
     1
 78
     2
176
     1
 67
     7
176
     1
 79
     6
176
     1
170
     0
176
     1
171
     0
176
     1
290
     0
176
     1
 93
        1
176
     1
 44
0.0
176
     1
173
     0
176
     1
1001
ACAD
1000
AcDbSavedByObjectVersion
1070
     0
  0
VISUALSTYLE
  5
D0
102
{ACAD_XDICTIONARY
360
16E
102
}
102
{ACAD_REACTORS
330
C3
102
}
330
C3
100
AcDbVisualStyle
  2
Thicken
 70
    13
177
     2
291
     1
 71
     2
176
     1
 72
     2
176
     1
 73
     0
176
     1
 90
        0
176
     1
 40
0.6
176
     1
 41
30.0
176
     1
 63
     7
421
 16777215
176
     1
 74
     1
176
     1
 91
        4
176
     1
 64
     7
176
     1
 65
   257
176
     1
 75
     1
176
     1
175
     1
176
     1
 42
1.0
176
     1
 92
       12
176
     1
 66
     7
176
     1
 43
1.0
176
     1
 76
     1
176
     1
 77
     6
176
     1
 78
     2
176
     1
 67
     7
176
     1
 79
     5
176
     1
170
     0
176
     1
171
     0
176
     1
290
     0
176
     1
 93
        1
176
     1
 44
0.0
176
     1
173
     0
176
     1
1001
ACAD
1000
AcDbSavedByObjectVersion
1070
     0
  0
VISUALSTYLE
  5
CA
102
{ACAD_XDICTIONARY
360
162
102
}
102
{ACAD_REACTORS
330
C3
102
}
330
C3
100
AcDbVisualStyle
  2
Wireframe
 70
     5
177
     2
291
     0
 71
     0
176
     1
 72
     2
176
     1
 73
     0
176
     1
 90
        0
176
     1
 40
0.6
176
     1
 41
30.0
176
     1
 63
     7
421
 16777215
176
     1
 74
     1
176
     1
 91
        4
176
     1
 64
     7
176
     1
 65
   257
176
     1
 75
     1
176
     1
175
     1
176
     1
 42
1.0
176
     1
 92
        0
176
     1
 66
   257
176
     1
 43
1.0
176
     1
 76
     1
176
     1
 77
     6
176
     1
 78
     2
176
     1
 67
     7
176
     1
 79
     3
176
     1
170
     0
176
     1
171
     0
176
     1
290
     0
176
     1
 93
        1
176
     1
 44
0.0
176
     1
173
     0
176
     1
1001
ACAD
1000
AcDbSavedByObjectVersion
1070
     0
  0
VISUALSTYLE
  5
D6
102
{ACAD_XDICTIONARY
360
17A
102
}
102
{ACAD_REACTORS
330
C3
102
}
330
C3
100
AcDbVisualStyle
  2
X-Ray
 70
    25
177
     2
291
     0
 71
     2
176
     1
 72
     2
176
     1
 73
     1
176
     1
 90
        1
176
     1
 40
0.5
176
     1
 41
30.0
176
     1
 63
     7
421
 16777215
176
     1
 74
     1
176
     1
 91
        0
176
     1
 64
     7
176
     1
 65
   257
176
     1
 75
     1
176
     1
175
     1
176
     1
 42
1.0
176
     1
 92
        8
176
     1
 66
     7
176
     1
 43
1.0
176
     1
 76
     1
176
     1
 77
     6
176
     1
 78
     2
176
     1
 67
     7
176
     1
 79
     3
176
     1
170
     0
176
     1
171
     0
176
     1
290
     0
176
     1
 93
       13
176
     1
 44
0.0
176
     1
173
     0
176
     1
1001
ACAD
1000
AcDbSavedByObjectVersion
1070
     0
  0
DICTIONARYVAR
  5
14F
102
{ACAD_REACTORS
330
149
102
}
330
149
100
DictionaryVariables
280
     0
  1
1:1
  0
DICTIONARYVAR
  5
14B
102
{ACAD_REACTORS
330
149
102
}
330
149
100
DictionaryVariables
280
     0
  1
STANDARD
  0
DICTIONARYVAR
  5
14A
102
{ACAD_REACTORS
330
149
102
}
330
149
100
DictionaryVariables
280
     0
  1
STANDARD
  0
DICTIONARYVAR
  5
14C
102
{ACAD_REACTORS
330
149
102
}
330
149
100
DictionaryVariables
280
     0
  1
Imperial24
  0
DICTIONARYVAR
  5
14D
102
{ACAD_REACTORS
330
149
102
}
330
149
100
DictionaryVariables
280
     0
  1
Imperial24
  0
DICTIONARYVAR
  5
151
102
{ACAD_REACTORS
330
149
102
}
330
149
100
DictionaryVariables
280
     0
  1
1
  0
DICTIONARYVAR
  5
152
102
{ACAD_REACTORS
330
149
102
}
330
149
100
DictionaryVariables
280
     0
  1
15
  0
DICTIONARYVAR
  5
150
102
{ACAD_REACTORS
330
149
102
}
330
149
100
DictionaryVariables
280
     0
  1
0
  0
DICTIONARYVAR
  5
14E
102
{ACAD_REACTORS
330
149
102
}
330
149
100
DictionaryVariables
280
     0
  1
0
  0
DICTIONARY
  5
18A
330
F6
100
AcDbDictionary
280
     1
281
     1
  3
ACAD_XREC_ROUNDTRIP
360
18B
  0
DICTIONARY
  5
B4
330
B3
100
AcDbDictionary
280
     1
281
     1
  3
BUMPTILE
360
B6
  3
DIFFUSETILE
360
B5
  3
OPACITYTILE
360
B9
  3
REFLECTIONTILE
360
B8
  3
REFRACTIONTILE
360
BA
  3
SPECULARTILE
360
B7
  0
DICTIONARY
  5
AC
330
AB
100
AcDbDictionary
280
     1
281
     1
  3
BUMPTILE
360
AE
  3
DIFFUSETILE
360
AD
  3
OPACITYTILE
360
B1
  3
REFLECTIONTILE
360
B0
  3
REFRACTIONTILE
360
B2
  3
SPECULARTILE
360
AF
  0
DICTIONARY
  5
BC
330
BB
100
AcDbDictionary
280
     1
281
     1
  3
BUMPTILE
360
BE
  3
DIFFUSETILE
360
BD
  3
OPACITYTILE
360
C1
  3
REFLECTIONTILE
360
C0
  3
REFRACTIONTILE
360
C2
  3
SPECULARTILE
360
BF
  0
DICTIONARY
  5
186
330
F2
100
AcDbDictionary
280
     1
281
     1
  3
ACAD_XREC_ROUNDTRIP
360
187
  0
DICTIONARY
  5
188
330
F4
100
AcDbDictionary
280
     1
281
     1
  3
ACAD_XREC_ROUNDTRIP
360
189
  0
DICTIONARY
  5
153
330
DE
100
AcDbDictionary
280
     1
281
     1
  3
ACAD_ROUNDTRIP_2008_TABLESTYLE_CELLSTYLEMAP
360
154
  0
DICTIONARY
  5
160
330
C9
100
AcDbDictionary
280
     1
281
     1
  3
ACAD_XREC_ROUNDTRIP
360
161
  0
DICTIONARY
  5
15E
330
C8
100
AcDbDictionary
280
     1
281
     1
  3
ACAD_XREC_ROUNDTRIP
360
15F
  0
DICTIONARY
  5
16C
330
CF
100
AcDbDictionary
280
     1
281
     1
  3
ACAD_XREC_ROUNDTRIP
360
16D
  0
DICTIONARY
  5
174
330
D3
100
AcDbDictionary
280
     1
281
     1
  3
ACAD_XREC_ROUNDTRIP
360
175
  0
DICTIONARY
  5
166
330
CC
100
AcDbDictionary
280
     1
281
     1
  3
ACAD_XREC_ROUNDTRIP
360
167
  0
DICTIONARY
  5
16A
330
CE
100
AcDbDictionary
280
     1
281
     1
  3
ACAD_XREC_ROUNDTRIP
360
16B
  0
DICTIONARY
  5
184
330
DB
100
AcDbDictionary
280
     1
281
     1
  3
ACAD_XREC_ROUNDTRIP
360
185
  0
DICTIONARY
  5
172
330
D2
100
AcDbDictionary
280
     1
281
     1
  3
ACAD_XREC_ROUNDTRIP
360
173
  0
DICTIONARY
  5
156
330
C4
100
AcDbDictionary
280
     1
281
     1
  3
ACAD_XREC_ROUNDTRIP
360
157
  0
DICTIONARY
  5
158
330
C5
100
AcDbDictionary
280
     1
281
     1
  3
ACAD_XREC_ROUNDTRIP
360
159
  0
DICTIONARY
  5
15A
330
C6
100
AcDbDictionary
280
     1
281
     1
  3
ACAD_XREC_ROUNDTRIP
360
15B
  0
DICTIONARY
  5
15C
330
C7
100
AcDbDictionary
280
     1
281
     1
  3
ACAD_XREC_ROUNDTRIP
360
15D
  0
DICTIONARY
  5
164
330
CB
100
AcDbDictionary
280
     1
281
     1
  3
ACAD_XREC_ROUNDTRIP
360
165
  0
DICTIONARY
  5
180
330
D9
100
AcDbDictionary
280
     1
281
     1
  3
ACAD_XREC_ROUNDTRIP
360
181
  0
DICTIONARY
  5
170
330
D1
100
AcDbDictionary
280
     1
281
     1
  3
ACAD_XREC_ROUNDTRIP
360
171
  0
DICTIONARY
  5
182
330
DA
100
AcDbDictionary
280
     1
281
     1
  3
ACAD_XREC_ROUNDTRIP
360
183
  0
DICTIONARY
  5
168
330
CD
100
AcDbDictionary
280
     1
281
     1
  3
ACAD_XREC_ROUNDTRIP
360
169
  0
DICTIONARY
  5
17E
330
D8
100
AcDbDictionary
280
     1
281
     1
  3
ACAD_XREC_ROUNDTRIP
360
17F
  0
DICTIONARY
  5
17C
330
D7
100
AcDbDictionary
280
     1
281
     1
  3
ACAD_XREC_ROUNDTRIP
360
17D
  0
DICTIONARY
  5
176
330
D4
100
AcDbDictionary
280
     1
281
     1
  3
ACAD_XREC_ROUNDTRIP
360
177
  0
DICTIONARY
  5
178
330
D5
100
AcDbDictionary
280
     1
281
     1
  3
ACAD_XREC_ROUNDTRIP
360
179
  0
DICTIONARY
  5
16E
330
D0
100
AcDbDictionary
280
     1
281
     1
  3
ACAD_XREC_ROUNDTRIP
360
16F
  0
DICTIONARY
  5
162
330
CA
100
AcDbDictionary
280
     1
281
     1
  3
ACAD_XREC_ROUNDTRIP
360
163
  0
DICTIONARY
  5
17A
330
D6
100
AcDbDictionary
280
     1
281
     1
  3
ACAD_XREC_ROUNDTRIP
360
17B
  0
XRECORD
  5
18B
102
{ACAD_REACTORS
330
18A
102
}
330
18A
100
AcDbXrecord
280
     1
102
DISPLAYNAME
  1
Imperial24
102
FLAGS
 90
        0
  0
XRECORD
  5
B6
102
{ACAD_REACTORS
330
B4
102
}
330
B4
100
AcDbXrecord
280
     1
270
     1
271
     1
  0
XRECORD
  5
B5
102
{ACAD_REACTORS
330
B4
102
}
330
B4
100
AcDbXrecord
280
     1
270
     1
271
     1
  0
XRECORD
  5
B9
102
{ACAD_REACTORS
330
B4
102
}
330
B4
100
AcDbXrecord
280
     1
270
     1
271
     1
  0
XRECORD
  5
B8
102
{ACAD_REACTORS
330
B4
102
}
330
B4
100
AcDbXrecord
280
     1
270
     1
271
     1
  0
XRECORD
  5
BA
102
{ACAD_REACTORS
330
B4
102
}
330
B4
100
AcDbXrecord
280
     1
270
     1
271
     1
  0
XRECORD
  5
B7
102
{ACAD_REACTORS
330
B4
102
}
330
B4
100
AcDbXrecord
280
     1
270
     1
271
     1
  0
XRECORD
  5
AE
102
{ACAD_REACTORS
330
AC
102
}
330
AC
100
AcDbXrecord
280
     1
270
     1
271
     1
  0
XRECORD
  5
AD
102
{ACAD_REACTORS
330
AC
102
}
330
AC
100
AcDbXrecord
280
     1
270
     1
271
     1
  0
XRECORD
  5
B1
102
{ACAD_REACTORS
330
AC
102
}
330
AC
100
AcDbXrecord
280
     1
270
     1
271
     1
  0
XRECORD
  5
B0
102
{ACAD_REACTORS
330
AC
102
}
330
AC
100
AcDbXrecord
280
     1
270
     1
271
     1
  0
XRECORD
  5
B2
102
{ACAD_REACTORS
330
AC
102
}
330
AC
100
AcDbXrecord
280
     1
270
     1
271
     1
  0
XRECORD
  5
AF
102
{ACAD_REACTORS
330
AC
102
}
330
AC
100
AcDbXrecord
280
     1
270
     1
271
     1
  0
XRECORD
  5
BE
102
{ACAD_REACTORS
330
BC
102
}
330
BC
100
AcDbXrecord
280
     1
270
     1
271
     1
  0
XRECORD
  5
BD
102
{ACAD_REACTORS
330
BC
102
}
330
BC
100
AcDbXrecord
280
     1
270
     1
271
     1
  0
XRECORD
  5
C1
102
{ACAD_REACTORS
330
BC
102
}
330
BC
100
AcDbXrecord
280
     1
270
     1
271
     1
  0
XRECORD
  5
C0
102
{ACAD_REACTORS
330
BC
102
}
330
BC
100
AcDbXrecord
280
     1
270
     1
271
     1
  0
XRECORD
  5
C2
102
{ACAD_REACTORS
330
BC
102
}
330
BC
100
AcDbXrecord
280
     1
270
     1
271
     1
  0
XRECORD
  5
BF
102
{ACAD_REACTORS
330
BC
102
}
330
BC
100
AcDbXrecord
280
     1
270
     1
271
     1
  0
XRECORD
  5
187
102
{ACAD_REACTORS
330
186
102
}
330
186
100
AcDbXrecord
280
     1
102
ACAD_ROUNDTRIP_2012_MLEADER_STYLE
298
     1
  0
XRECORD
  5
189
102
{ACAD_REACTORS
330
188
102
}
330
188
100
AcDbXrecord
280
     1
102
DISPLAYNAME
  1
Imperial24
102
FLAGS
 90
        0
  0
CELLSTYLEMAP
  5
154
102
{ACAD_REACTORS
330
153
102
}
330
153
100
AcDbCellStyleMap
 90
        3
300
CELLSTYLE
  1
TABLEFORMAT_BEGIN
 90
        5
170
     1
 91
        0
 92
    32768
 62
   257
 93
        1
300
CONTENTFORMAT
  1
CONTENTFORMAT_BEGIN
 90
        0
 91
        0
 92
      512
 93
        0
300

 40
0.0
140
1.0
 94
        5
 62
     0
340
11
144
0.25
309
CONTENTFORMAT_END
171
     0
 94
        0
309
TABLEFORMAT_END
  1
CELLSTYLE_BEGIN
 90
        1
 91
        1
300
_TITLE
309
CELLSTYLE_END
300
CELLSTYLE
  1
TABLEFORMAT_BEGIN
 90
        5
170
     1
 91
        0
 92
        0
 62
   257
 93
        1
300
CONTENTFORMAT
  1
CONTENTFORMAT_BEGIN
 90
        0
 91
        0
 92
      512
 93
        0
300

 40
0.0
140
1.0
 94
        5
 62
     0
340
11
144
0.18
309
CONTENTFORMAT_END
171
     0
 94
        0
309
TABLEFORMAT_END
  1
CELLSTYLE_BEGIN
 90
        2
 91
        1
300
_HEADER
309
CELLSTYLE_END
300
CELLSTYLE
  1
TABLEFORMAT_BEGIN
 90
        5
170
     1
 91
        0
 92
        0
 62
   257
 93
        1
300
CONTENTFORMAT
  1
CONTENTFORMAT_BEGIN
 90
        0
 91
        0
 92
      512
 93
        0
300

 40
0.0
140
1.0
 94
        2
 62
     0
340
11
144
0.18
309
CONTENTFORMAT_END
171
     0
 94
        0
309
TABLEFORMAT_END
  1
CELLSTYLE_BEGIN
 90
        3
 91
        2
300
_DATA
309
CELLSTYLE_END
  0
XRECORD
  5
161
102
{ACAD_REACTORS
330
160
102
}
330
160
100
AcDbXrecord
280
     1
102
RTVSPost2010Prop28
280
     1
102
RTVSPost2010PropOp28
 70
     1
102
RTVSPost2010Prop29
280
     1
102
RTVSPost2010PropOp29
 70
     1
102
RTVSPost2010Prop30
280
     0
102
RTVSPost2010PropOp30
 70
     1
102
RTVSPost2010Prop31
280
     0
102
RTVSPost2010PropOp31
 70
     1
102
RTVSPost2010Prop32
280
     0
102
RTVSPost2010PropOp32
 70
     1
102
RTVSPost2010Prop33
280
     0
102
RTVSPost2010PropOp33
 70
     1
102
RTVSPost2010Prop34
280
     0
102
RTVSPost2010PropOp34
 70
     1
102
RTVSPost2010Prop35
280
     0
102
RTVSPost2010PropOp35
 70
     1
102
RTVSPost2010Prop36
280
     0
102
RTVSPost2010PropOp36
 70
     1
102
RTVSPost2010Prop37
 90
       50
102
RTVSPost2010PropOp37
 70
     1
102
RTVSPost2010Prop38
140
0.0
102
RTVSPost2010PropOp38
 70
     1
102
RTVSPost2010Prop39
140
1.0
102
RTVSPost2010PropOp39
 70
     1
102
RTVSPost2010Prop40
 90
        0
102
RTVSPost2010PropOp40
 70
     1
102
RTVSPost2010Prop41ColorIndex
 90
       18
102
RTVSPost2010Prop41ColorRGB
 90
        0
102
RTVSPost2010PropOp41
 70
     1
102
RTVSPost2010Prop42
 90
       50
102
RTVSPost2010PropOp42
 70
     1
102
RTVSPost2010Prop43
 90
        3
102
RTVSPost2010PropOp43
 70
     1
102
RTVSPost2010Prop44ColorIndex
 90
        5
102
RTVSPost2010Prop44ColorRGB
 90
      255
102
RTVSPost2010PropOp44
 70
     1
102
RTVSPost2010Prop45
280
     0
102
RTVSPost2010PropOp45
 70
     1
102
RTVSPost2010Prop46
 90
       50
102
RTVSPost2010PropOp46
 70
     1
102
RTVSPost2010Prop47
 90
       50
102
RTVSPost2010PropOp47
 70
     1
102
RTVSPost2010Prop48
 90
       50
102
RTVSPost2010PropOp48
 70
     1
102
RTVSPost2010Prop49
280
     0
102
RTVSPost2010PropOp49
 70
     1
102
RTVSPost2010Prop50
 90
       50
102
RTVSPost2010PropOp50
 70
     1
102
RTVSPost2010Prop51ColorIndex
 90
      256
102
RTVSPost2010Prop51ColorRGB
 90
-16777216
102
RTVSPost2010PropOp51
 70
     0
102
RTVSPost2010Prop52
140
1.0
102
RTVSPost2010PropOp52
 70
     0
102
RTVSPost2010Prop53
 90
        2
102
RTVSPost2010PropOp53
 70
     1
102
RTVSPost2010Prop54
  1
strokes_ogs.tif
102
RTVSPost2010PropOp54
 70
     1
102
RTVSPost2010Prop55
280
     0
102
RTVSPost2010PropOp55
 70
     1
102
RTVSPost2010Prop56
140
1.0
102
RTVSPost2010PropOp56
 70
     1
102
RTVSPost2010Prop57
140
1.0
102
RTVSPost2010PropOp57
 70
     1
  0
XRECORD
  5
15F
102
{ACAD_REACTORS
330
15E
102
}
330
15E
100
AcDbXrecord
280
     1
102
RTVSPost2010Prop28
280
     0
102
RTVSPost2010PropOp28
 70
     1
102
RTVSPost2010Prop29
280
     1
102
RTVSPost2010PropOp29
 70
     1
102
RTVSPost2010Prop30
280
     1
102
RTVSPost2010PropOp30
 70
     1
102
RTVSPost2010Prop31
280
     0
102
RTVSPost2010PropOp31
 70
     1
102
RTVSPost2010Prop32
280
     0
102
RTVSPost2010PropOp32
 70
     1
102
RTVSPost2010Prop33
280
     0
102
RTVSPost2010PropOp33
 70
     1
102
RTVSPost2010Prop34
280
     0
102
RTVSPost2010PropOp34
 70
     1
102
RTVSPost2010Prop35
280
     0
102
RTVSPost2010PropOp35
 70
     1
102
RTVSPost2010Prop36
280
     0
102
RTVSPost2010PropOp36
 70
     1
102
RTVSPost2010Prop37
 90
       50
102
RTVSPost2010PropOp37
 70
     1
102
RTVSPost2010Prop38
140
0.0
102
RTVSPost2010PropOp38
 70
     1
102
RTVSPost2010Prop39
140
1.0
102
RTVSPost2010PropOp39
 70
     1
102
RTVSPost2010Prop40
 90
        0
102
RTVSPost2010PropOp40
 70
     1
102
RTVSPost2010Prop41ColorIndex
 90
       18
102
RTVSPost2010Prop41ColorRGB
 90
        0
102
RTVSPost2010PropOp41
 70
     1
102
RTVSPost2010Prop42
 90
       50
102
RTVSPost2010PropOp42
 70
     1
102
RTVSPost2010Prop43
 90
        3
102
RTVSPost2010PropOp43
 70
     1
102
RTVSPost2010Prop44ColorIndex
 90
        5
102
RTVSPost2010Prop44ColorRGB
 90
      255
102
RTVSPost2010PropOp44
 70
     1
102
RTVSPost2010Prop45
280
     0
102
RTVSPost2010PropOp45
 70
     1
102
RTVSPost2010Prop46
 90
       50
102
RTVSPost2010PropOp46
 70
     1
102
RTVSPost2010Prop47
 90
       50
102
RTVSPost2010PropOp47
 70
     1
102
RTVSPost2010Prop48
 90
       50
102
RTVSPost2010PropOp48
 70
     1
102
RTVSPost2010Prop49
280
     0
102
RTVSPost2010PropOp49
 70
     1
102
RTVSPost2010Prop50
 90
       50
102
RTVSPost2010PropOp50
 70
     1
102
RTVSPost2010Prop51ColorIndex
 90
      256
102
RTVSPost2010Prop51ColorRGB
 90
-16777216
102
RTVSPost2010PropOp51
 70
     0
102
RTVSPost2010Prop52
140
1.0
102
RTVSPost2010PropOp52
 70
     0
102
RTVSPost2010Prop53
 90
        2
102
RTVSPost2010PropOp53
 70
     1
102
RTVSPost2010Prop54
  1
strokes_ogs.tif
102
RTVSPost2010PropOp54
 70
     1
102
RTVSPost2010Prop55
280
     0
102
RTVSPost2010PropOp55
 70
     1
102
RTVSPost2010Prop56
140
1.0
102
RTVSPost2010PropOp56
 70
     1
102
RTVSPost2010Prop57
140
1.0
102
RTVSPost2010PropOp57
 70
     1
  0
XRECORD
  5
16D
102
{ACAD_REACTORS
330
16C
102
}
330
16C
100
AcDbXrecord
280
     1
102
RTVSPost2010Prop28
280
     0
102
RTVSPost2010PropOp28
 70
     1
102
RTVSPost2010Prop29
280
     1
102
RTVSPost2010PropOp29
 70
     1
102
RTVSPost2010Prop30
280
     1
102
RTVSPost2010PropOp30
 70
     1
102
RTVSPost2010Prop31
280
     0
102
RTVSPost2010PropOp31
 70
     1
102
RTVSPost2010Prop32
280
     0
102
RTVSPost2010PropOp32
 70
     1
102
RTVSPost2010Prop33
280
     0
102
RTVSPost2010PropOp33
 70
     1
102
RTVSPost2010Prop34
280
     0
102
RTVSPost2010PropOp34
 70
     1
102
RTVSPost2010Prop35
280
     0
102
RTVSPost2010PropOp35
 70
     1
102
RTVSPost2010Prop36
280
     0
102
RTVSPost2010PropOp36
 70
     1
102
RTVSPost2010Prop37
 90
       50
102
RTVSPost2010PropOp37
 70
     1
102
RTVSPost2010Prop38
140
0.0
102
RTVSPost2010PropOp38
 70
     1
102
RTVSPost2010Prop39
140
1.0
102
RTVSPost2010PropOp39
 70
     1
102
RTVSPost2010Prop40
 90
        0
102
RTVSPost2010PropOp40
 70
     1
102
RTVSPost2010Prop41ColorIndex
 90
       18
102
RTVSPost2010Prop41ColorRGB
 90
        0
102
RTVSPost2010PropOp41
 70
     1
102
RTVSPost2010Prop42
 90
       50
102
RTVSPost2010PropOp42
 70
     1
102
RTVSPost2010Prop43
 90
        3
102
RTVSPost2010PropOp43
 70
     1
102
RTVSPost2010Prop44ColorIndex
 90
        5
102
RTVSPost2010Prop44ColorRGB
 90
      255
102
RTVSPost2010PropOp44
 70
     1
102
RTVSPost2010Prop45
280
     0
102
RTVSPost2010PropOp45
 70
     1
102
RTVSPost2010Prop46
 90
       50
102
RTVSPost2010PropOp46
 70
     1
102
RTVSPost2010Prop47
 90
       50
102
RTVSPost2010PropOp47
 70
     1
102
RTVSPost2010Prop48
 90
       50
102
RTVSPost2010PropOp48
 70
     1
102
RTVSPost2010Prop49
280
     0
102
RTVSPost2010PropOp49
 70
     1
102
RTVSPost2010Prop50
 90
       50
102
RTVSPost2010PropOp50
 70
     1
102
RTVSPost2010Prop51ColorIndex
 90
      256
102
RTVSPost2010Prop51ColorRGB
 90
-16777216
102
RTVSPost2010PropOp51
 70
     0
102
RTVSPost2010Prop52
140
1.0
102
RTVSPost2010PropOp52
 70
     0
102
RTVSPost2010Prop53
 90
        2
102
RTVSPost2010PropOp53
 70
     1
102
RTVSPost2010Prop54
  1
strokes_ogs.tif
102
RTVSPost2010PropOp54
 70
     1
102
RTVSPost2010Prop55
280
     0
102
RTVSPost2010PropOp55
 70
     1
102
RTVSPost2010Prop56
140
1.0
102
RTVSPost2010PropOp56
 70
     1
102
RTVSPost2010Prop57
140
1.0
102
RTVSPost2010PropOp57
 70
     1
  0
XRECORD
  5
175
102
{ACAD_REACTORS
330
174
102
}
330
174
100
AcDbXrecord
280
     1
102
RTVSPost2010Prop28
280
     0
102
RTVSPost2010PropOp28
 70
     1
102
RTVSPost2010Prop29
280
     1
102
RTVSPost2010PropOp29
 70
     1
102
RTVSPost2010Prop30
280
     1
102
RTVSPost2010PropOp30
 70
     1
102
RTVSPost2010Prop31
280
     0
102
RTVSPost2010PropOp31
 70
     1
102
RTVSPost2010Prop32
280
     0
102
RTVSPost2010PropOp32
 70
     1
102
RTVSPost2010Prop33
280
     0
102
RTVSPost2010PropOp33
 70
     1
102
RTVSPost2010Prop34
280
     0
102
RTVSPost2010PropOp34
 70
     1
102
RTVSPost2010Prop35
280
     0
102
RTVSPost2010PropOp35
 70
     1
102
RTVSPost2010Prop36
280
     0
102
RTVSPost2010PropOp36
 70
     1
102
RTVSPost2010Prop37
 90
       50
102
RTVSPost2010PropOp37
 70
     1
102
RTVSPost2010Prop38
140
0.0
102
RTVSPost2010PropOp38
 70
     1
102
RTVSPost2010Prop39
140
1.0
102
RTVSPost2010PropOp39
 70
     1
102
RTVSPost2010Prop40
 90
        0
102
RTVSPost2010PropOp40
 70
     1
102
RTVSPost2010Prop41ColorIndex
 90
       18
102
RTVSPost2010Prop41ColorRGB
 90
        0
102
RTVSPost2010PropOp41
 70
     1
102
RTVSPost2010Prop42
 90
       50
102
RTVSPost2010PropOp42
 70
     1
102
RTVSPost2010Prop43
 90
        3
102
RTVSPost2010PropOp43
 70
     1
102
RTVSPost2010Prop44ColorIndex
 90
        5
102
RTVSPost2010Prop44ColorRGB
 90
      255
102
RTVSPost2010PropOp44
 70
     1
102
RTVSPost2010Prop45
280
     0
102
RTVSPost2010PropOp45
 70
     1
102
RTVSPost2010Prop46
 90
       50
102
RTVSPost2010PropOp46
 70
     1
102
RTVSPost2010Prop47
 90
       50
102
RTVSPost2010PropOp47
 70
     1
102
RTVSPost2010Prop48
 90
       50
102
RTVSPost2010PropOp48
 70
     1
102
RTVSPost2010Prop49
280
     0
102
RTVSPost2010PropOp49
 70
     1
102
RTVSPost2010Prop50
 90
       50
102
RTVSPost2010PropOp50
 70
     1
102
RTVSPost2010Prop51ColorIndex
 90
      256
102
RTVSPost2010Prop51ColorRGB
 90
-16777216
102
RTVSPost2010PropOp51
 70
     0
102
RTVSPost2010Prop52
140
1.0
102
RTVSPost2010PropOp52
 70
     0
102
RTVSPost2010Prop53
 90
        2
102
RTVSPost2010PropOp53
 70
     1
102
RTVSPost2010Prop54
  1
strokes_ogs.tif
102
RTVSPost2010PropOp54
 70
     1
102
RTVSPost2010Prop55
280
     0
102
RTVSPost2010PropOp55
 70
     1
102
RTVSPost2010Prop56
140
1.0
102
RTVSPost2010PropOp56
 70
     1
102
RTVSPost2010Prop57
140
1.0
102
RTVSPost2010PropOp57
 70
     1
  0
XRECORD
  5
167
102
{ACAD_REACTORS
330
166
102
}
330
166
100
AcDbXrecord
280
     1
102
RTVSPost2010Prop28
280
     0
102
RTVSPost2010PropOp28
 70
     1
102
RTVSPost2010Prop29
280
     1
102
RTVSPost2010PropOp29
 70
     1
102
RTVSPost2010Prop30
280
     1
102
RTVSPost2010PropOp30
 70
     1
102
RTVSPost2010Prop31
280
     0
102
RTVSPost2010PropOp31
 70
     1
102
RTVSPost2010Prop32
280
     0
102
RTVSPost2010PropOp32
 70
     1
102
RTVSPost2010Prop33
280
     0
102
RTVSPost2010PropOp33
 70
     1
102
RTVSPost2010Prop34
280
     0
102
RTVSPost2010PropOp34
 70
     1
102
RTVSPost2010Prop35
280
     0
102
RTVSPost2010PropOp35
 70
     1
102
RTVSPost2010Prop36
280
     0
102
RTVSPost2010PropOp36
 70
     1
102
RTVSPost2010Prop37
 90
       50
102
RTVSPost2010PropOp37
 70
     1
102
RTVSPost2010Prop38
140
0.0
102
RTVSPost2010PropOp38
 70
     1
102
RTVSPost2010Prop39
140
1.0
102
RTVSPost2010PropOp39
 70
     1
102
RTVSPost2010Prop40
 90
        0
102
RTVSPost2010PropOp40
 70
     1
102
RTVSPost2010Prop41ColorIndex
 90
       18
102
RTVSPost2010Prop41ColorRGB
 90
        0
102
RTVSPost2010PropOp41
 70
     1
102
RTVSPost2010Prop42
 90
       50
102
RTVSPost2010PropOp42
 70
     1
102
RTVSPost2010Prop43
 90
        3
102
RTVSPost2010PropOp43
 70
     1
102
RTVSPost2010Prop44ColorIndex
 90
        5
102
RTVSPost2010Prop44ColorRGB
 90
      255
102
RTVSPost2010PropOp44
 70
     1
102
RTVSPost2010Prop45
280
     0
102
RTVSPost2010PropOp45
 70
     1
102
RTVSPost2010Prop46
 90
       50
102
RTVSPost2010PropOp46
 70
     1
102
RTVSPost2010Prop47
 90
       50
102
RTVSPost2010PropOp47
 70
     1
102
RTVSPost2010Prop48
 90
       50
102
RTVSPost2010PropOp48
 70
     1
102
RTVSPost2010Prop49
280
     0
102
RTVSPost2010PropOp49
 70
     1
102
RTVSPost2010Prop50
 90
       50
102
RTVSPost2010PropOp50
 70
     1
102
RTVSPost2010Prop51ColorIndex
 90
      256
102
RTVSPost2010Prop51ColorRGB
 90
-16777216
102
RTVSPost2010PropOp51
 70
     0
102
RTVSPost2010Prop52
140
1.0
102
RTVSPost2010PropOp52
 70
     0
102
RTVSPost2010Prop53
 90
        2
102
RTVSPost2010PropOp53
 70
     1
102
RTVSPost2010Prop54
  1
strokes_ogs.tif
102
RTVSPost2010PropOp54
 70
     1
102
RTVSPost2010Prop55
280
     0
102
RTVSPost2010PropOp55
 70
     1
102
RTVSPost2010Prop56
140
1.0
102
RTVSPost2010PropOp56
 70
     1
102
RTVSPost2010Prop57
140
1.0
102
RTVSPost2010PropOp57
 70
     1
  0
XRECORD
  5
16B
102
{ACAD_REACTORS
330
16A
102
}
330
16A
100
AcDbXrecord
280
     1
102
RTVSPost2010Prop28
280
     0
102
RTVSPost2010PropOp28
 70
     1
102
RTVSPost2010Prop29
280
     1
102
RTVSPost2010PropOp29
 70
     1
102
RTVSPost2010Prop30
280
     1
102
RTVSPost2010PropOp30
 70
     1
102
RTVSPost2010Prop31
280
     0
102
RTVSPost2010PropOp31
 70
     1
102
RTVSPost2010Prop32
280
     0
102
RTVSPost2010PropOp32
 70
     1
102
RTVSPost2010Prop33
280
     0
102
RTVSPost2010PropOp33
 70
     1
102
RTVSPost2010Prop34
280
     0
102
RTVSPost2010PropOp34
 70
     1
102
RTVSPost2010Prop35
280
     0
102
RTVSPost2010PropOp35
 70
     1
102
RTVSPost2010Prop36
280
     0
102
RTVSPost2010PropOp36
 70
     1
102
RTVSPost2010Prop37
 90
       50
102
RTVSPost2010PropOp37
 70
     1
102
RTVSPost2010Prop38
140
0.0
102
RTVSPost2010PropOp38
 70
     1
102
RTVSPost2010Prop39
140
1.0
102
RTVSPost2010PropOp39
 70
     1
102
RTVSPost2010Prop40
 90
        0
102
RTVSPost2010PropOp40
 70
     1
102
RTVSPost2010Prop41ColorIndex
 90
       18
102
RTVSPost2010Prop41ColorRGB
 90
        0
102
RTVSPost2010PropOp41
 70
     1
102
RTVSPost2010Prop42
 90
       50
102
RTVSPost2010PropOp42
 70
     1
102
RTVSPost2010Prop43
 90
        3
102
RTVSPost2010PropOp43
 70
     1
102
RTVSPost2010Prop44ColorIndex
 90
        5
102
RTVSPost2010Prop44ColorRGB
 90
      255
102
RTVSPost2010PropOp44
 70
     1
102
RTVSPost2010Prop45
280
     0
102
RTVSPost2010PropOp45
 70
     1
102
RTVSPost2010Prop46
 90
       50
102
RTVSPost2010PropOp46
 70
     1
102
RTVSPost2010Prop47
 90
       50
102
RTVSPost2010PropOp47
 70
     1
102
RTVSPost2010Prop48
 90
       50
102
RTVSPost2010PropOp48
 70
     1
102
RTVSPost2010Prop49
280
     0
102
RTVSPost2010PropOp49
 70
     1
102
RTVSPost2010Prop50
 90
       50
102
RTVSPost2010PropOp50
 70
     1
102
RTVSPost2010Prop51ColorIndex
 90
      256
102
RTVSPost2010Prop51ColorRGB
 90
-16777216
102
RTVSPost2010PropOp51
 70
     0
102
RTVSPost2010Prop52
140
1.0
102
RTVSPost2010PropOp52
 70
     0
102
RTVSPost2010Prop53
 90
        2
102
RTVSPost2010PropOp53
 70
     1
102
RTVSPost2010Prop54
  1
strokes_ogs.tif
102
RTVSPost2010PropOp54
 70
     1
102
RTVSPost2010Prop55
280
     0
102
RTVSPost2010PropOp55
 70
     1
102
RTVSPost2010Prop56
140
1.0
102
RTVSPost2010PropOp56
 70
     1
102
RTVSPost2010Prop57
140
1.0
102
RTVSPost2010PropOp57
 70
     1
  0
XRECORD
  5
185
102
{ACAD_REACTORS
330
184
102
}
330
184
100
AcDbXrecord
280
     1
102
RTVSPost2010Prop28
280
     0
102
RTVSPost2010PropOp28
 70
     0
102
RTVSPost2010Prop29
280
     1
102
RTVSPost2010PropOp29
 70
     0
102
RTVSPost2010Prop30
280
     1
102
RTVSPost2010PropOp30
 70
     0
102
RTVSPost2010Prop31
280
     0
102
RTVSPost2010PropOp31
 70
     0
102
RTVSPost2010Prop32
280
     0
102
RTVSPost2010PropOp32
 70
     0
102
RTVSPost2010Prop33
280
     0
102
RTVSPost2010PropOp33
 70
     0
102
RTVSPost2010Prop34
280
     0
102
RTVSPost2010PropOp34
 70
     0
102
RTVSPost2010Prop35
280
     0
102
RTVSPost2010PropOp35
 70
     0
102
RTVSPost2010Prop36
280
     0
102
RTVSPost2010PropOp36
 70
     0
102
RTVSPost2010Prop37
 90
       50
102
RTVSPost2010PropOp37
 70
     0
102
RTVSPost2010Prop38
140
0.0
102
RTVSPost2010PropOp38
 70
     0
102
RTVSPost2010Prop39
140
1.0
102
RTVSPost2010PropOp39
 70
     0
102
RTVSPost2010Prop40
 90
        0
102
RTVSPost2010PropOp40
 70
     0
102
RTVSPost2010Prop41ColorIndex
 90
       18
102
RTVSPost2010Prop41ColorRGB
 90
        0
102
RTVSPost2010PropOp41
 70
     0
102
RTVSPost2010Prop42
 90
       50
102
RTVSPost2010PropOp42
 70
     0
102
RTVSPost2010Prop43
 90
        3
102
RTVSPost2010PropOp43
 70
     0
102
RTVSPost2010Prop44ColorIndex
 90
        5
102
RTVSPost2010Prop44ColorRGB
 90
      255
102
RTVSPost2010PropOp44
 70
     0
102
RTVSPost2010Prop45
280
     0
102
RTVSPost2010PropOp45
 70
     0
102
RTVSPost2010Prop46
 90
       50
102
RTVSPost2010PropOp46
 70
     0
102
RTVSPost2010Prop47
 90
       50
102
RTVSPost2010PropOp47
 70
     0
102
RTVSPost2010Prop48
 90
       50
102
RTVSPost2010PropOp48
 70
     0
102
RTVSPost2010Prop49
280
     0
102
RTVSPost2010PropOp49
 70
     0
102
RTVSPost2010Prop50
 90
       50
102
RTVSPost2010PropOp50
 70
     0
102
RTVSPost2010Prop51ColorIndex
 90
      256
102
RTVSPost2010Prop51ColorRGB
 90
-16777216
102
RTVSPost2010PropOp51
 70
     0
102
RTVSPost2010Prop52
140
1.0
102
RTVSPost2010PropOp52
 70
     0
102
RTVSPost2010Prop53
 90
        2
102
RTVSPost2010PropOp53
 70
     0
102
RTVSPost2010Prop54
  1
strokes_ogs.tif
102
RTVSPost2010PropOp54
 70
     0
102
RTVSPost2010Prop55
280
     0
102
RTVSPost2010PropOp55
 70
     0
102
RTVSPost2010Prop56
140
1.0
102
RTVSPost2010PropOp56
 70
     0
102
RTVSPost2010Prop57
140
1.0
102
RTVSPost2010PropOp57
 70
     0
  0
XRECORD
  5
173
102
{ACAD_REACTORS
330
172
102
}
330
172
100
AcDbXrecord
280
     1
102
RTVSPost2010Prop28
280
     0
102
RTVSPost2010PropOp28
 70
     1
102
RTVSPost2010Prop29
280
     1
102
RTVSPost2010PropOp29
 70
     1
102
RTVSPost2010Prop30
280
     1
102
RTVSPost2010PropOp30
 70
     1
102
RTVSPost2010Prop31
280
     0
102
RTVSPost2010PropOp31
 70
     1
102
RTVSPost2010Prop32
280
     0
102
RTVSPost2010PropOp32
 70
     1
102
RTVSPost2010Prop33
280
     0
102
RTVSPost2010PropOp33
 70
     1
102
RTVSPost2010Prop34
280
     0
102
RTVSPost2010PropOp34
 70
     1
102
RTVSPost2010Prop35
280
     0
102
RTVSPost2010PropOp35
 70
     1
102
RTVSPost2010Prop36
280
     0
102
RTVSPost2010PropOp36
 70
     1
102
RTVSPost2010Prop37
 90
       50
102
RTVSPost2010PropOp37
 70
     1
102
RTVSPost2010Prop38
140
0.0
102
RTVSPost2010PropOp38
 70
     1
102
RTVSPost2010Prop39
140
1.0
102
RTVSPost2010PropOp39
 70
     1
102
RTVSPost2010Prop40
 90
        0
102
RTVSPost2010PropOp40
 70
     1
102
RTVSPost2010Prop41ColorIndex
 90
       18
102
RTVSPost2010Prop41ColorRGB
 90
        0
102
RTVSPost2010PropOp41
 70
     1
102
RTVSPost2010Prop42
 90
       50
102
RTVSPost2010PropOp42
 70
     1
102
RTVSPost2010Prop43
 90
        3
102
RTVSPost2010PropOp43
 70
     1
102
RTVSPost2010Prop44ColorIndex
 90
        5
102
RTVSPost2010Prop44ColorRGB
 90
      255
102
RTVSPost2010PropOp44
 70
     1
102
RTVSPost2010Prop45
280
     0
102
RTVSPost2010PropOp45
 70
     1
102
RTVSPost2010Prop46
 90
       50
102
RTVSPost2010PropOp46
 70
     1
102
RTVSPost2010Prop47
 90
       50
102
RTVSPost2010PropOp47
 70
     1
102
RTVSPost2010Prop48
 90
       50
102
RTVSPost2010PropOp48
 70
     1
102
RTVSPost2010Prop49
280
     0
102
RTVSPost2010PropOp49
 70
     1
102
RTVSPost2010Prop50
 90
       50
102
RTVSPost2010PropOp50
 70
     1
102
RTVSPost2010Prop51ColorIndex
 90
      256
102
RTVSPost2010Prop51ColorRGB
 90
-16777216
102
RTVSPost2010PropOp51
 70
     0
102
RTVSPost2010Prop52
140
1.0
102
RTVSPost2010PropOp52
 70
     0
102
RTVSPost2010Prop53
 90
        2
102
RTVSPost2010PropOp53
 70
     1
102
RTVSPost2010Prop54
  1
strokes_ogs.tif
102
RTVSPost2010PropOp54
 70
     1
102
RTVSPost2010Prop55
280
     0
102
RTVSPost2010PropOp55
 70
     1
102
RTVSPost2010Prop56
140
1.0
102
RTVSPost2010PropOp56
 70
     1
102
RTVSPost2010Prop57
140
1.0
102
RTVSPost2010PropOp57
 70
     1
  0
XRECORD
  5
157
102
{ACAD_REACTORS
330
156
102
}
330
156
100
AcDbXrecord
280
     1
102
RTVSPost2010Prop28
280
     0
102
RTVSPost2010PropOp28
 70
     1
102
RTVSPost2010Prop29
280
     1
102
RTVSPost2010PropOp29
 70
     1
102
RTVSPost2010Prop30
280
     1
102
RTVSPost2010PropOp30
 70
     1
102
RTVSPost2010Prop31
280
     0
102
RTVSPost2010PropOp31
 70
     1
102
RTVSPost2010Prop32
280
     0
102
RTVSPost2010PropOp32
 70
     1
102
RTVSPost2010Prop33
280
     0
102
RTVSPost2010PropOp33
 70
     1
102
RTVSPost2010Prop34
280
     0
102
RTVSPost2010PropOp34
 70
     1
102
RTVSPost2010Prop35
280
     0
102
RTVSPost2010PropOp35
 70
     1
102
RTVSPost2010Prop36
280
     0
102
RTVSPost2010PropOp36
 70
     1
102
RTVSPost2010Prop37
 90
       50
102
RTVSPost2010PropOp37
 70
     1
102
RTVSPost2010Prop38
140
0.0
102
RTVSPost2010PropOp38
 70
     1
102
RTVSPost2010Prop39
140
1.0
102
RTVSPost2010PropOp39
 70
     1
102
RTVSPost2010Prop40
 90
        0
102
RTVSPost2010PropOp40
 70
     1
102
RTVSPost2010Prop41ColorIndex
 90
       18
102
RTVSPost2010Prop41ColorRGB
 90
        0
102
RTVSPost2010PropOp41
 70
     1
102
RTVSPost2010Prop42
 90
       50
102
RTVSPost2010PropOp42
 70
     1
102
RTVSPost2010Prop43
 90
        3
102
RTVSPost2010PropOp43
 70
     1
102
RTVSPost2010Prop44ColorIndex
 90
        5
102
RTVSPost2010Prop44ColorRGB
 90
      255
102
RTVSPost2010PropOp44
 70
     1
102
RTVSPost2010Prop45
280
     0
102
RTVSPost2010PropOp45
 70
     1
102
RTVSPost2010Prop46
 90
       50
102
RTVSPost2010PropOp46
 70
     1
102
RTVSPost2010Prop47
 90
       50
102
RTVSPost2010PropOp47
 70
     1
102
RTVSPost2010Prop48
 90
       50
102
RTVSPost2010PropOp48
 70
     1
102
RTVSPost2010Prop49
280
     0
102
RTVSPost2010PropOp49
 70
     1
102
RTVSPost2010Prop50
 90
       50
102
RTVSPost2010PropOp50
 70
     1
102
RTVSPost2010Prop51ColorIndex
 90
      256
102
RTVSPost2010Prop51ColorRGB
 90
-16777216
102
RTVSPost2010PropOp51
 70
     0
102
RTVSPost2010Prop52
140
1.0
102
RTVSPost2010PropOp52
 70
     0
102
RTVSPost2010Prop53
 90
        2
102
RTVSPost2010PropOp53
 70
     1
102
RTVSPost2010Prop54
  1
strokes_ogs.tif
102
RTVSPost2010PropOp54
 70
     1
102
RTVSPost2010Prop55
280
     0
102
RTVSPost2010PropOp55
 70
     1
102
RTVSPost2010Prop56
140
1.0
102
RTVSPost2010PropOp56
 70
     1
102
RTVSPost2010Prop57
140
1.0
102
RTVSPost2010PropOp57
 70
     1
  0
XRECORD
  5
159
102
{ACAD_REACTORS
330
158
102
}
330
158
100
AcDbXrecord
280
     1
102
RTVSPost2010Prop28
280
     0
102
RTVSPost2010PropOp28
 70
     1
102
RTVSPost2010Prop29
280
     1
102
RTVSPost2010PropOp29
 70
     1
102
RTVSPost2010Prop30
280
     1
102
RTVSPost2010PropOp30
 70
     1
102
RTVSPost2010Prop31
280
     0
102
RTVSPost2010PropOp31
 70
     1
102
RTVSPost2010Prop32
280
     0
102
RTVSPost2010PropOp32
 70
     1
102
RTVSPost2010Prop33
280
     0
102
RTVSPost2010PropOp33
 70
     1
102
RTVSPost2010Prop34
280
     0
102
RTVSPost2010PropOp34
 70
     1
102
RTVSPost2010Prop35
280
     0
102
RTVSPost2010PropOp35
 70
     1
102
RTVSPost2010Prop36
280
     0
102
RTVSPost2010PropOp36
 70
     1
102
RTVSPost2010Prop37
 90
       50
102
RTVSPost2010PropOp37
 70
     1
102
RTVSPost2010Prop38
140
0.0
102
RTVSPost2010PropOp38
 70
     1
102
RTVSPost2010Prop39
140
1.0
102
RTVSPost2010PropOp39
 70
     1
102
RTVSPost2010Prop40
 90
        0
102
RTVSPost2010PropOp40
 70
     1
102
RTVSPost2010Prop41ColorIndex
 90
       18
102
RTVSPost2010Prop41ColorRGB
 90
        0
102
RTVSPost2010PropOp41
 70
     1
102
RTVSPost2010Prop42
 90
       50
102
RTVSPost2010PropOp42
 70
     1
102
RTVSPost2010Prop43
 90
        3
102
RTVSPost2010PropOp43
 70
     1
102
RTVSPost2010Prop44ColorIndex
 90
        5
102
RTVSPost2010Prop44ColorRGB
 90
      255
102
RTVSPost2010PropOp44
 70
     1
102
RTVSPost2010Prop45
280
     0
102
RTVSPost2010PropOp45
 70
     1
102
RTVSPost2010Prop46
 90
       50
102
RTVSPost2010PropOp46
 70
     1
102
RTVSPost2010Prop47
 90
       50
102
RTVSPost2010PropOp47
 70
     1
102
RTVSPost2010Prop48
 90
       50
102
RTVSPost2010PropOp48
 70
     1
102
RTVSPost2010Prop49
280
     0
102
RTVSPost2010PropOp49
 70
     1
102
RTVSPost2010Prop50
 90
       50
102
RTVSPost2010PropOp50
 70
     1
102
RTVSPost2010Prop51ColorIndex
 90
      256
102
RTVSPost2010Prop51ColorRGB
 90
-16777216
102
RTVSPost2010PropOp51
 70
     0
102
RTVSPost2010Prop52
140
1.0
102
RTVSPost2010PropOp52
 70
     0
102
RTVSPost2010Prop53
 90
        2
102
RTVSPost2010PropOp53
 70
     1
102
RTVSPost2010Prop54
  1
strokes_ogs.tif
102
RTVSPost2010PropOp54
 70
     1
102
RTVSPost2010Prop55
280
     0
102
RTVSPost2010PropOp55
 70
     1
102
RTVSPost2010Prop56
140
1.0
102
RTVSPost2010PropOp56
 70
     1
102
RTVSPost2010Prop57
140
1.0
102
RTVSPost2010PropOp57
 70
     1
  0
XRECORD
  5
15B
102
{ACAD_REACTORS
330
15A
102
}
330
15A
100
AcDbXrecord
280
     1
102
RTVSPost2010Prop28
280
     0
102
RTVSPost2010PropOp28
 70
     1
102
RTVSPost2010Prop29
280
     1
102
RTVSPost2010PropOp29
 70
     1
102
RTVSPost2010Prop30
280
     1
102
RTVSPost2010PropOp30
 70
     1
102
RTVSPost2010Prop31
280
     0
102
RTVSPost2010PropOp31
 70
     1
102
RTVSPost2010Prop32
280
     0
102
RTVSPost2010PropOp32
 70
     1
102
RTVSPost2010Prop33
280
     0
102
RTVSPost2010PropOp33
 70
     1
102
RTVSPost2010Prop34
280
     0
102
RTVSPost2010PropOp34
 70
     1
102
RTVSPost2010Prop35
280
     0
102
RTVSPost2010PropOp35
 70
     1
102
RTVSPost2010Prop36
280
     0
102
RTVSPost2010PropOp36
 70
     1
102
RTVSPost2010Prop37
 90
       50
102
RTVSPost2010PropOp37
 70
     1
102
RTVSPost2010Prop38
140
0.0
102
RTVSPost2010PropOp38
 70
     1
102
RTVSPost2010Prop39
140
1.0
102
RTVSPost2010PropOp39
 70
     1
102
RTVSPost2010Prop40
 90
        0
102
RTVSPost2010PropOp40
 70
     1
102
RTVSPost2010Prop41ColorIndex
 90
       18
102
RTVSPost2010Prop41ColorRGB
 90
        0
102
RTVSPost2010PropOp41
 70
     1
102
RTVSPost2010Prop42
 90
       50
102
RTVSPost2010PropOp42
 70
     1
102
RTVSPost2010Prop43
 90
        3
102
RTVSPost2010PropOp43
 70
     1
102
RTVSPost2010Prop44ColorIndex
 90
        5
102
RTVSPost2010Prop44ColorRGB
 90
      255
102
RTVSPost2010PropOp44
 70
     1
102
RTVSPost2010Prop45
280
     0
102
RTVSPost2010PropOp45
 70
     1
102
RTVSPost2010Prop46
 90
       50
102
RTVSPost2010PropOp46
 70
     1
102
RTVSPost2010Prop47
 90
       50
102
RTVSPost2010PropOp47
 70
     1
102
RTVSPost2010Prop48
 90
       50
102
RTVSPost2010PropOp48
 70
     1
102
RTVSPost2010Prop49
280
     0
102
RTVSPost2010PropOp49
 70
     1
102
RTVSPost2010Prop50
 90
       50
102
RTVSPost2010PropOp50
 70
     1
102
RTVSPost2010Prop51ColorIndex
 90
      256
102
RTVSPost2010Prop51ColorRGB
 90
-16777216
102
RTVSPost2010PropOp51
 70
     0
102
RTVSPost2010Prop52
140
1.0
102
RTVSPost2010PropOp52
 70
     0
102
RTVSPost2010Prop53
 90
        2
102
RTVSPost2010PropOp53
 70
     1
102
RTVSPost2010Prop54
  1
strokes_ogs.tif
102
RTVSPost2010PropOp54
 70
     1
102
RTVSPost2010Prop55
280
     0
102
RTVSPost2010PropOp55
 70
     1
102
RTVSPost2010Prop56
140
1.0
102
RTVSPost2010PropOp56
 70
     1
102
RTVSPost2010Prop57
140
1.0
102
RTVSPost2010PropOp57
 70
     1
  0
XRECORD
  5
15D
102
{ACAD_REACTORS
330
15C
102
}
330
15C
100
AcDbXrecord
280
     1
102
RTVSPost2010Prop28
280
     0
102
RTVSPost2010PropOp28
 70
     1
102
RTVSPost2010Prop29
280
     1
102
RTVSPost2010PropOp29
 70
     1
102
RTVSPost2010Prop30
280
     1
102
RTVSPost2010PropOp30
 70
     1
102
RTVSPost2010Prop31
280
     0
102
RTVSPost2010PropOp31
 70
     1
102
RTVSPost2010Prop32
280
     0
102
RTVSPost2010PropOp32
 70
     1
102
RTVSPost2010Prop33
280
     0
102
RTVSPost2010PropOp33
 70
     1
102
RTVSPost2010Prop34
280
     0
102
RTVSPost2010PropOp34
 70
     1
102
RTVSPost2010Prop35
280
     0
102
RTVSPost2010PropOp35
 70
     1
102
RTVSPost2010Prop36
280
     0
102
RTVSPost2010PropOp36
 70
     1
102
RTVSPost2010Prop37
 90
       50
102
RTVSPost2010PropOp37
 70
     1
102
RTVSPost2010Prop38
140
0.0
102
RTVSPost2010PropOp38
 70
     1
102
RTVSPost2010Prop39
140
1.0
102
RTVSPost2010PropOp39
 70
     1
102
RTVSPost2010Prop40
 90
        0
102
RTVSPost2010PropOp40
 70
     1
102
RTVSPost2010Prop41ColorIndex
 90
       18
102
RTVSPost2010Prop41ColorRGB
 90
        0
102
RTVSPost2010PropOp41
 70
     1
102
RTVSPost2010Prop42
 90
       50
102
RTVSPost2010PropOp42
 70
     1
102
RTVSPost2010Prop43
 90
        3
102
RTVSPost2010PropOp43
 70
     1
102
RTVSPost2010Prop44ColorIndex
 90
        5
102
RTVSPost2010Prop44ColorRGB
 90
      255
102
RTVSPost2010PropOp44
 70
     1
102
RTVSPost2010Prop45
280
     0
102
RTVSPost2010PropOp45
 70
     1
102
RTVSPost2010Prop46
 90
       50
102
RTVSPost2010PropOp46
 70
     1
102
RTVSPost2010Prop47
 90
       50
102
RTVSPost2010PropOp47
 70
     1
102
RTVSPost2010Prop48
 90
       50
102
RTVSPost2010PropOp48
 70
     1
102
RTVSPost2010Prop49
280
     0
102
RTVSPost2010PropOp49
 70
     1
102
RTVSPost2010Prop50
 90
       50
102
RTVSPost2010PropOp50
 70
     1
102
RTVSPost2010Prop51ColorIndex
 90
      256
102
RTVSPost2010Prop51ColorRGB
 90
-16777216
102
RTVSPost2010PropOp51
 70
     0
102
RTVSPost2010Prop52
140
1.0
102
RTVSPost2010PropOp52
 70
     0
102
RTVSPost2010Prop53
 90
        2
102
RTVSPost2010PropOp53
 70
     1
102
RTVSPost2010Prop54
  1
strokes_ogs.tif
102
RTVSPost2010PropOp54
 70
     1
102
RTVSPost2010Prop55
280
     0
102
RTVSPost2010PropOp55
 70
     1
102
RTVSPost2010Prop56
140
1.0
102
RTVSPost2010PropOp56
 70
     1
102
RTVSPost2010Prop57
140
1.0
102
RTVSPost2010PropOp57
 70
     1
  0
XRECORD
  5
165
102
{ACAD_REACTORS
330
164
102
}
330
164
100
AcDbXrecord
280
     1
102
RTVSPost2010Prop28
280
     0
102
RTVSPost2010PropOp28
 70
     1
102
RTVSPost2010Prop29
280
     1
102
RTVSPost2010PropOp29
 70
     1
102
RTVSPost2010Prop30
280
     1
102
RTVSPost2010PropOp30
 70
     1
102
RTVSPost2010Prop31
280
     0
102
RTVSPost2010PropOp31
 70
     1
102
RTVSPost2010Prop32
280
     0
102
RTVSPost2010PropOp32
 70
     1
102
RTVSPost2010Prop33
280
     0
102
RTVSPost2010PropOp33
 70
     1
102
RTVSPost2010Prop34
280
     0
102
RTVSPost2010PropOp34
 70
     1
102
RTVSPost2010Prop35
280
     0
102
RTVSPost2010PropOp35
 70
     1
102
RTVSPost2010Prop36
280
     0
102
RTVSPost2010PropOp36
 70
     1
102
RTVSPost2010Prop37
 90
       50
102
RTVSPost2010PropOp37
 70
     1
102
RTVSPost2010Prop38
140
0.0
102
RTVSPost2010PropOp38
 70
     1
102
RTVSPost2010Prop39
140
1.0
102
RTVSPost2010PropOp39
 70
     1
102
RTVSPost2010Prop40
 90
        0
102
RTVSPost2010PropOp40
 70
     1
102
RTVSPost2010Prop41ColorIndex
 90
       18
102
RTVSPost2010Prop41ColorRGB
 90
        0
102
RTVSPost2010PropOp41
 70
     1
102
RTVSPost2010Prop42
 90
       50
102
RTVSPost2010PropOp42
 70
     1
102
RTVSPost2010Prop43
 90
        3
102
RTVSPost2010PropOp43
 70
     1
102
RTVSPost2010Prop44ColorIndex
 90
        5
102
RTVSPost2010Prop44ColorRGB
 90
      255
102
RTVSPost2010PropOp44
 70
     1
102
RTVSPost2010Prop45
280
     0
102
RTVSPost2010PropOp45
 70
     1
102
RTVSPost2010Prop46
 90
       50
102
RTVSPost2010PropOp46
 70
     1
102
RTVSPost2010Prop47
 90
       50
102
RTVSPost2010PropOp47
 70
     1
102
RTVSPost2010Prop48
 90
       50
102
RTVSPost2010PropOp48
 70
     1
102
RTVSPost2010Prop49
280
     0
102
RTVSPost2010PropOp49
 70
     1
102
RTVSPost2010Prop50
 90
       50
102
RTVSPost2010PropOp50
 70
     1
102
RTVSPost2010Prop51ColorIndex
 90
      256
102
RTVSPost2010Prop51ColorRGB
 90
-16777216
102
RTVSPost2010PropOp51
 70
     0
102
RTVSPost2010Prop52
140
1.0
102
RTVSPost2010PropOp52
 70
     0
102
RTVSPost2010Prop53
 90
        2
102
RTVSPost2010PropOp53
 70
     1
102
RTVSPost2010Prop54
  1
strokes_ogs.tif
102
RTVSPost2010PropOp54
 70
     1
102
RTVSPost2010Prop55
280
     0
102
RTVSPost2010PropOp55
 70
     1
102
RTVSPost2010Prop56
140
1.0
102
RTVSPost2010PropOp56
 70
     1
102
RTVSPost2010Prop57
140
1.0
102
RTVSPost2010PropOp57
 70
     1
  0
XRECORD
  5
181
102
{ACAD_REACTORS
330
180
102
}
330
180
100
AcDbXrecord
280
     1
102
RTVSPost2010Prop28
280
     0
102
RTVSPost2010PropOp28
 70
     0
102
RTVSPost2010Prop29
280
     1
102
RTVSPost2010PropOp29
 70
     0
102
RTVSPost2010Prop30
280
     1
102
RTVSPost2010PropOp30
 70
     0
102
RTVSPost2010Prop31
280
     0
102
RTVSPost2010PropOp31
 70
     0
102
RTVSPost2010Prop32
280
     0
102
RTVSPost2010PropOp32
 70
     0
102
RTVSPost2010Prop33
280
     0
102
RTVSPost2010PropOp33
 70
     0
102
RTVSPost2010Prop34
280
     0
102
RTVSPost2010PropOp34
 70
     0
102
RTVSPost2010Prop35
280
     0
102
RTVSPost2010PropOp35
 70
     0
102
RTVSPost2010Prop36
280
     0
102
RTVSPost2010PropOp36
 70
     0
102
RTVSPost2010Prop37
 90
       50
102
RTVSPost2010PropOp37
 70
     0
102
RTVSPost2010Prop38
140
0.0
102
RTVSPost2010PropOp38
 70
     0
102
RTVSPost2010Prop39
140
1.0
102
RTVSPost2010PropOp39
 70
     0
102
RTVSPost2010Prop40
 90
        0
102
RTVSPost2010PropOp40
 70
     0
102
RTVSPost2010Prop41ColorIndex
 90
       18
102
RTVSPost2010Prop41ColorRGB
 90
        0
102
RTVSPost2010PropOp41
 70
     0
102
RTVSPost2010Prop42
 90
       50
102
RTVSPost2010PropOp42
 70
     0
102
RTVSPost2010Prop43
 90
        3
102
RTVSPost2010PropOp43
 70
     0
102
RTVSPost2010Prop44ColorIndex
 90
        5
102
RTVSPost2010Prop44ColorRGB
 90
      255
102
RTVSPost2010PropOp44
 70
     0
102
RTVSPost2010Prop45
280
     0
102
RTVSPost2010PropOp45
 70
     0
102
RTVSPost2010Prop46
 90
       50
102
RTVSPost2010PropOp46
 70
     0
102
RTVSPost2010Prop47
 90
       50
102
RTVSPost2010PropOp47
 70
     0
102
RTVSPost2010Prop48
 90
       50
102
RTVSPost2010PropOp48
 70
     0
102
RTVSPost2010Prop49
280
     0
102
RTVSPost2010PropOp49
 70
     0
102
RTVSPost2010Prop50
 90
       50
102
RTVSPost2010PropOp50
 70
     0
102
RTVSPost2010Prop51ColorIndex
 90
      256
102
RTVSPost2010Prop51ColorRGB
 90
-16777216
102
RTVSPost2010PropOp51
 70
     0
102
RTVSPost2010Prop52
140
1.0
102
RTVSPost2010PropOp52
 70
     0
102
RTVSPost2010Prop53
 90
        2
102
RTVSPost2010PropOp53
 70
     0
102
RTVSPost2010Prop54
  1
strokes_ogs.tif
102
RTVSPost2010PropOp54
 70
     0
102
RTVSPost2010Prop55
280
     0
102
RTVSPost2010PropOp55
 70
     0
102
RTVSPost2010Prop56
140
1.0
102
RTVSPost2010PropOp56
 70
     0
102
RTVSPost2010Prop57
140
1.0
102
RTVSPost2010PropOp57
 70
     0
  0
XRECORD
  5
171
102
{ACAD_REACTORS
330
170
102
}
330
170
100
AcDbXrecord
280
     1
102
RTVSPost2010Prop28
280
     0
102
RTVSPost2010PropOp28
 70
     1
102
RTVSPost2010Prop29
280
     1
102
RTVSPost2010PropOp29
 70
     1
102
RTVSPost2010Prop30
280
     1
102
RTVSPost2010PropOp30
 70
     1
102
RTVSPost2010Prop31
280
     0
102
RTVSPost2010PropOp31
 70
     1
102
RTVSPost2010Prop32
280
     0
102
RTVSPost2010PropOp32
 70
     1
102
RTVSPost2010Prop33
280
     0
102
RTVSPost2010PropOp33
 70
     1
102
RTVSPost2010Prop34
280
     0
102
RTVSPost2010PropOp34
 70
     1
102
RTVSPost2010Prop35
280
     0
102
RTVSPost2010PropOp35
 70
     1
102
RTVSPost2010Prop36
280
     0
102
RTVSPost2010PropOp36
 70
     1
102
RTVSPost2010Prop37
 90
       50
102
RTVSPost2010PropOp37
 70
     1
102
RTVSPost2010Prop38
140
0.0
102
RTVSPost2010PropOp38
 70
     1
102
RTVSPost2010Prop39
140
1.0
102
RTVSPost2010PropOp39
 70
     1
102
RTVSPost2010Prop40
 90
        0
102
RTVSPost2010PropOp40
 70
     1
102
RTVSPost2010Prop41ColorIndex
 90
       18
102
RTVSPost2010Prop41ColorRGB
 90
        0
102
RTVSPost2010PropOp41
 70
     1
102
RTVSPost2010Prop42
 90
       50
102
RTVSPost2010PropOp42
 70
     1
102
RTVSPost2010Prop43
 90
        3
102
RTVSPost2010PropOp43
 70
     1
102
RTVSPost2010Prop44ColorIndex
 90
        5
102
RTVSPost2010Prop44ColorRGB
 90
      255
102
RTVSPost2010PropOp44
 70
     1
102
RTVSPost2010Prop45
280
     0
102
RTVSPost2010PropOp45
 70
     1
102
RTVSPost2010Prop46
 90
       50
102
RTVSPost2010PropOp46
 70
     1
102
RTVSPost2010Prop47
 90
       50
102
RTVSPost2010PropOp47
 70
     1
102
RTVSPost2010Prop48
 90
       50
102
RTVSPost2010PropOp48
 70
     1
102
RTVSPost2010Prop49
280
     0
102
RTVSPost2010PropOp49
 70
     1
102
RTVSPost2010Prop50
 90
       50
102
RTVSPost2010PropOp50
 70
     1
102
RTVSPost2010Prop51ColorIndex
 90
      256
102
RTVSPost2010Prop51ColorRGB
 90
-16777216
102
RTVSPost2010PropOp51
 70
     0
102
RTVSPost2010Prop52
140
1.0
102
RTVSPost2010PropOp52
 70
     0
102
RTVSPost2010Prop53
 90
        2
102
RTVSPost2010PropOp53
 70
     1
102
RTVSPost2010Prop54
  1
strokes_ogs.tif
102
RTVSPost2010PropOp54
 70
     1
102
RTVSPost2010Prop55
280
     0
102
RTVSPost2010PropOp55
 70
     1
102
RTVSPost2010Prop56
140
1.0
102
RTVSPost2010PropOp56
 70
     1
102
RTVSPost2010Prop57
140
1.0
102
RTVSPost2010PropOp57
 70
     1
  0
XRECORD
  5
183
102
{ACAD_REACTORS
330
182
102
}
330
182
100
AcDbXrecord
280
     1
102
RTVSPost2010Prop28
280
     0
102
RTVSPost2010PropOp28
 70
     0
102
RTVSPost2010Prop29
280
     1
102
RTVSPost2010PropOp29
 70
     0
102
RTVSPost2010Prop30
280
     1
102
RTVSPost2010PropOp30
 70
     0
102
RTVSPost2010Prop31
280
     0
102
RTVSPost2010PropOp31
 70
     0
102
RTVSPost2010Prop32
280
     0
102
RTVSPost2010PropOp32
 70
     0
102
RTVSPost2010Prop33
280
     0
102
RTVSPost2010PropOp33
 70
     0
102
RTVSPost2010Prop34
280
     0
102
RTVSPost2010PropOp34
 70
     0
102
RTVSPost2010Prop35
280
     0
102
RTVSPost2010PropOp35
 70
     0
102
RTVSPost2010Prop36
280
     0
102
RTVSPost2010PropOp36
 70
     0
102
RTVSPost2010Prop37
 90
       50
102
RTVSPost2010PropOp37
 70
     0
102
RTVSPost2010Prop38
140
0.0
102
RTVSPost2010PropOp38
 70
     0
102
RTVSPost2010Prop39
140
1.0
102
RTVSPost2010PropOp39
 70
     0
102
RTVSPost2010Prop40
 90
        0
102
RTVSPost2010PropOp40
 70
     0
102
RTVSPost2010Prop41ColorIndex
 90
       18
102
RTVSPost2010Prop41ColorRGB
 90
        0
102
RTVSPost2010PropOp41
 70
     0
102
RTVSPost2010Prop42
 90
       50
102
RTVSPost2010PropOp42
 70
     0
102
RTVSPost2010Prop43
 90
        3
102
RTVSPost2010PropOp43
 70
     0
102
RTVSPost2010Prop44ColorIndex
 90
        5
102
RTVSPost2010Prop44ColorRGB
 90
      255
102
RTVSPost2010PropOp44
 70
     0
102
RTVSPost2010Prop45
280
     0
102
RTVSPost2010PropOp45
 70
     0
102
RTVSPost2010Prop46
 90
       50
102
RTVSPost2010PropOp46
 70
     0
102
RTVSPost2010Prop47
 90
       50
102
RTVSPost2010PropOp47
 70
     0
102
RTVSPost2010Prop48
 90
       50
102
RTVSPost2010PropOp48
 70
     0
102
RTVSPost2010Prop49
280
     0
102
RTVSPost2010PropOp49
 70
     0
102
RTVSPost2010Prop50
 90
       50
102
RTVSPost2010PropOp50
 70
     0
102
RTVSPost2010Prop51ColorIndex
 90
      256
102
RTVSPost2010Prop51ColorRGB
 90
-16777216
102
RTVSPost2010PropOp51
 70
     0
102
RTVSPost2010Prop52
140
1.0
102
RTVSPost2010PropOp52
 70
     0
102
RTVSPost2010Prop53
 90
        2
102
RTVSPost2010PropOp53
 70
     0
102
RTVSPost2010Prop54
  1
strokes_ogs.tif
102
RTVSPost2010PropOp54
 70
     0
102
RTVSPost2010Prop55
280
     0
102
RTVSPost2010PropOp55
 70
     0
102
RTVSPost2010Prop56
140
1.0
102
RTVSPost2010PropOp56
 70
     0
102
RTVSPost2010Prop57
140
1.0
102
RTVSPost2010PropOp57
 70
     0
  0
XRECORD
  5
169
102
{ACAD_REACTORS
330
168
102
}
330
168
100
AcDbXrecord
280
     1
102
RTVSPost2010Prop28
280
     0
102
RTVSPost2010PropOp28
 70
     1
102
RTVSPost2010Prop29
280
     1
102
RTVSPost2010PropOp29
 70
     1
102
RTVSPost2010Prop30
280
     1
102
RTVSPost2010PropOp30
 70
     1
102
RTVSPost2010Prop31
280
     0
102
RTVSPost2010PropOp31
 70
     1
102
RTVSPost2010Prop32
280
     0
102
RTVSPost2010PropOp32
 70
     1
102
RTVSPost2010Prop33
280
     0
102
RTVSPost2010PropOp33
 70
     1
102
RTVSPost2010Prop34
280
     0
102
RTVSPost2010PropOp34
 70
     1
102
RTVSPost2010Prop35
280
     0
102
RTVSPost2010PropOp35
 70
     1
102
RTVSPost2010Prop36
280
     0
102
RTVSPost2010PropOp36
 70
     1
102
RTVSPost2010Prop37
 90
       50
102
RTVSPost2010PropOp37
 70
     1
102
RTVSPost2010Prop38
140
0.0
102
RTVSPost2010PropOp38
 70
     1
102
RTVSPost2010Prop39
140
1.0
102
RTVSPost2010PropOp39
 70
     1
102
RTVSPost2010Prop40
 90
        0
102
RTVSPost2010PropOp40
 70
     1
102
RTVSPost2010Prop41ColorIndex
 90
       18
102
RTVSPost2010Prop41ColorRGB
 90
        0
102
RTVSPost2010PropOp41
 70
     1
102
RTVSPost2010Prop42
 90
       50
102
RTVSPost2010PropOp42
 70
     1
102
RTVSPost2010Prop43
 90
        3
102
RTVSPost2010PropOp43
 70
     1
102
RTVSPost2010Prop44ColorIndex
 90
        5
102
RTVSPost2010Prop44ColorRGB
 90
      255
102
RTVSPost2010PropOp44
 70
     1
102
RTVSPost2010Prop45
280
     0
102
RTVSPost2010PropOp45
 70
     1
102
RTVSPost2010Prop46
 90
       50
102
RTVSPost2010PropOp46
 70
     1
102
RTVSPost2010Prop47
 90
       50
102
RTVSPost2010PropOp47
 70
     1
102
RTVSPost2010Prop48
 90
       50
102
RTVSPost2010PropOp48
 70
     1
102
RTVSPost2010Prop49
280
     0
102
RTVSPost2010PropOp49
 70
     1
102
RTVSPost2010Prop50
 90
       50
102
RTVSPost2010PropOp50
 70
     1
102
RTVSPost2010Prop51ColorIndex
 90
      256
102
RTVSPost2010Prop51ColorRGB
 90
-16777216
102
RTVSPost2010PropOp51
 70
     0
102
RTVSPost2010Prop52
140
1.0
102
RTVSPost2010PropOp52
 70
     0
102
RTVSPost2010Prop53
 90
        2
102
RTVSPost2010PropOp53
 70
     1
102
RTVSPost2010Prop54
  1
strokes_ogs.tif
102
RTVSPost2010PropOp54
 70
     1
102
RTVSPost2010Prop55
280
     0
102
RTVSPost2010PropOp55
 70
     1
102
RTVSPost2010Prop56
140
1.0
102
RTVSPost2010PropOp56
 70
     1
102
RTVSPost2010Prop57
140
1.0
102
RTVSPost2010PropOp57
 70
     1
  0
XRECORD
  5
17F
102
{ACAD_REACTORS
330
17E
102
}
330
17E
100
AcDbXrecord
280
     1
102
RTVSPost2010Prop28
280
     0
102
RTVSPost2010PropOp28
 70
     1
102
RTVSPost2010Prop29
280
     1
102
RTVSPost2010PropOp29
 70
     1
102
RTVSPost2010Prop30
280
     1
102
RTVSPost2010PropOp30
 70
     1
102
RTVSPost2010Prop31
280
     0
102
RTVSPost2010PropOp31
 70
     1
102
RTVSPost2010Prop32
280
     0
102
RTVSPost2010PropOp32
 70
     1
102
RTVSPost2010Prop33
280
     0
102
RTVSPost2010PropOp33
 70
     1
102
RTVSPost2010Prop34
280
     0
102
RTVSPost2010PropOp34
 70
     1
102
RTVSPost2010Prop35
280
     0
102
RTVSPost2010PropOp35
 70
     1
102
RTVSPost2010Prop36
280
     0
102
RTVSPost2010PropOp36
 70
     1
102
RTVSPost2010Prop37
 90
       50
102
RTVSPost2010PropOp37
 70
     1
102
RTVSPost2010Prop38
140
0.0
102
RTVSPost2010PropOp38
 70
     1
102
RTVSPost2010Prop39
140
1.0
102
RTVSPost2010PropOp39
 70
     1
102
RTVSPost2010Prop40
 90
        0
102
RTVSPost2010PropOp40
 70
     1
102
RTVSPost2010Prop41ColorIndex
 90
       18
102
RTVSPost2010Prop41ColorRGB
 90
        0
102
RTVSPost2010PropOp41
 70
     1
102
RTVSPost2010Prop42
 90
       50
102
RTVSPost2010PropOp42
 70
     1
102
RTVSPost2010Prop43
 90
        3
102
RTVSPost2010PropOp43
 70
     1
102
RTVSPost2010Prop44ColorIndex
 90
        5
102
RTVSPost2010Prop44ColorRGB
 90
      255
102
RTVSPost2010PropOp44
 70
     1
102
RTVSPost2010Prop45
280
     0
102
RTVSPost2010PropOp45
 70
     1
102
RTVSPost2010Prop46
 90
       50
102
RTVSPost2010PropOp46
 70
     1
102
RTVSPost2010Prop47
 90
       50
102
RTVSPost2010PropOp47
 70
     1
102
RTVSPost2010Prop48
 90
       50
102
RTVSPost2010PropOp48
 70
     1
102
RTVSPost2010Prop49
280
     0
102
RTVSPost2010PropOp49
 70
     1
102
RTVSPost2010Prop50
 90
       50
102
RTVSPost2010PropOp50
 70
     1
102
RTVSPost2010Prop51ColorIndex
 90
      256
102
RTVSPost2010Prop51ColorRGB
 90
-16777216
102
RTVSPost2010PropOp51
 70
     0
102
RTVSPost2010Prop52
140
1.0
102
RTVSPost2010PropOp52
 70
     0
102
RTVSPost2010Prop53
 90
        2
102
RTVSPost2010PropOp53
 70
     1
102
RTVSPost2010Prop54
  1
strokes_ogs.tif
102
RTVSPost2010PropOp54
 70
     1
102
RTVSPost2010Prop55
280
     0
102
RTVSPost2010PropOp55
 70
     1
102
RTVSPost2010Prop56
140
1.0
102
RTVSPost2010PropOp56
 70
     1
102
RTVSPost2010Prop57
140
1.0
102
RTVSPost2010PropOp57
 70
     1
  0
XRECORD
  5
17D
102
{ACAD_REACTORS
330
17C
102
}
330
17C
100
AcDbXrecord
280
     1
102
RTVSPost2010Prop28
280
     0
102
RTVSPost2010PropOp28
 70
     1
102
RTVSPost2010Prop29
280
     1
102
RTVSPost2010PropOp29
 70
     1
102
RTVSPost2010Prop30
280
     1
102
RTVSPost2010PropOp30
 70
     1
102
RTVSPost2010Prop31
280
     0
102
RTVSPost2010PropOp31
 70
     1
102
RTVSPost2010Prop32
280
     0
102
RTVSPost2010PropOp32
 70
     1
102
RTVSPost2010Prop33
280
     0
102
RTVSPost2010PropOp33
 70
     1
102
RTVSPost2010Prop34
280
     0
102
RTVSPost2010PropOp34
 70
     1
102
RTVSPost2010Prop35
280
     0
102
RTVSPost2010PropOp35
 70
     1
102
RTVSPost2010Prop36
280
     0
102
RTVSPost2010PropOp36
 70
     1
102
RTVSPost2010Prop37
 90
       50
102
RTVSPost2010PropOp37
 70
     1
102
RTVSPost2010Prop38
140
0.0
102
RTVSPost2010PropOp38
 70
     1
102
RTVSPost2010Prop39
140
1.0
102
RTVSPost2010PropOp39
 70
     1
102
RTVSPost2010Prop40
 90
        0
102
RTVSPost2010PropOp40
 70
     1
102
RTVSPost2010Prop41ColorIndex
 90
       18
102
RTVSPost2010Prop41ColorRGB
 90
        0
102
RTVSPost2010PropOp41
 70
     1
102
RTVSPost2010Prop42
 90
       50
102
RTVSPost2010PropOp42
 70
     1
102
RTVSPost2010Prop43
 90
        3
102
RTVSPost2010PropOp43
 70
     1
102
RTVSPost2010Prop44ColorIndex
 90
        5
102
RTVSPost2010Prop44ColorRGB
 90
      255
102
RTVSPost2010PropOp44
 70
     1
102
RTVSPost2010Prop45
280
     0
102
RTVSPost2010PropOp45
 70
     1
102
RTVSPost2010Prop46
 90
       50
102
RTVSPost2010PropOp46
 70
     1
102
RTVSPost2010Prop47
 90
       50
102
RTVSPost2010PropOp47
 70
     1
102
RTVSPost2010Prop48
 90
       50
102
RTVSPost2010PropOp48
 70
     1
102
RTVSPost2010Prop49
280
     0
102
RTVSPost2010PropOp49
 70
     1
102
RTVSPost2010Prop50
 90
       50
102
RTVSPost2010PropOp50
 70
     1
102
RTVSPost2010Prop51ColorIndex
 90
      256
102
RTVSPost2010Prop51ColorRGB
 90
-16777216
102
RTVSPost2010PropOp51
 70
     0
102
RTVSPost2010Prop52
140
1.0
102
RTVSPost2010PropOp52
 70
     0
102
RTVSPost2010Prop53
 90
        2
102
RTVSPost2010PropOp53
 70
     1
102
RTVSPost2010Prop54
  1
strokes_ogs.tif
102
RTVSPost2010PropOp54
 70
     1
102
RTVSPost2010Prop55
280
     0
102
RTVSPost2010PropOp55
 70
     1
102
RTVSPost2010Prop56
140
1.0
102
RTVSPost2010PropOp56
 70
     1
102
RTVSPost2010Prop57
140
1.0
102
RTVSPost2010PropOp57
 70
     1
  0
XRECORD
  5
177
102
{ACAD_REACTORS
330
176
102
}
330
176
100
AcDbXrecord
280
     1
102
RTVSPost2010Prop28
280
     0
102
RTVSPost2010PropOp28
 70
     1
102
RTVSPost2010Prop29
280
     1
102
RTVSPost2010PropOp29
 70
     1
102
RTVSPost2010Prop30
280
     1
102
RTVSPost2010PropOp30
 70
     1
102
RTVSPost2010Prop31
280
     0
102
RTVSPost2010PropOp31
 70
     1
102
RTVSPost2010Prop32
280
     0
102
RTVSPost2010PropOp32
 70
     1
102
RTVSPost2010Prop33
280
     0
102
RTVSPost2010PropOp33
 70
     1
102
RTVSPost2010Prop34
280
     0
102
RTVSPost2010PropOp34
 70
     1
102
RTVSPost2010Prop35
280
     0
102
RTVSPost2010PropOp35
 70
     1
102
RTVSPost2010Prop36
280
     0
102
RTVSPost2010PropOp36
 70
     1
102
RTVSPost2010Prop37
 90
       50
102
RTVSPost2010PropOp37
 70
     1
102
RTVSPost2010Prop38
140
0.0
102
RTVSPost2010PropOp38
 70
     1
102
RTVSPost2010Prop39
140
1.0
102
RTVSPost2010PropOp39
 70
     1
102
RTVSPost2010Prop40
 90
        0
102
RTVSPost2010PropOp40
 70
     1
102
RTVSPost2010Prop41ColorIndex
 90
       18
102
RTVSPost2010Prop41ColorRGB
 90
        0
102
RTVSPost2010PropOp41
 70
     1
102
RTVSPost2010Prop42
 90
       50
102
RTVSPost2010PropOp42
 70
     1
102
RTVSPost2010Prop43
 90
        3
102
RTVSPost2010PropOp43
 70
     1
102
RTVSPost2010Prop44ColorIndex
 90
        5
102
RTVSPost2010Prop44ColorRGB
 90
      255
102
RTVSPost2010PropOp44
 70
     1
102
RTVSPost2010Prop45
280
     0
102
RTVSPost2010PropOp45
 70
     1
102
RTVSPost2010Prop46
 90
       50
102
RTVSPost2010PropOp46
 70
     1
102
RTVSPost2010Prop47
 90
       50
102
RTVSPost2010PropOp47
 70
     1
102
RTVSPost2010Prop48
 90
       50
102
RTVSPost2010PropOp48
 70
     1
102
RTVSPost2010Prop49
280
     0
102
RTVSPost2010PropOp49
 70
     1
102
RTVSPost2010Prop50
 90
       50
102
RTVSPost2010PropOp50
 70
     1
102
RTVSPost2010Prop51ColorIndex
 90
      256
102
RTVSPost2010Prop51ColorRGB
 90
-16777216
102
RTVSPost2010PropOp51
 70
     0
102
RTVSPost2010Prop52
140
1.0
102
RTVSPost2010PropOp52
 70
     0
102
RTVSPost2010Prop53
 90
        2
102
RTVSPost2010PropOp53
 70
     1
102
RTVSPost2010Prop54
  1
strokes_ogs.tif
102
RTVSPost2010PropOp54
 70
     1
102
RTVSPost2010Prop55
280
     0
102
RTVSPost2010PropOp55
 70
     1
102
RTVSPost2010Prop56
140
1.0
102
RTVSPost2010PropOp56
 70
     1
102
RTVSPost2010Prop57
140
1.0
102
RTVSPost2010PropOp57
 70
     1
  0
XRECORD
  5
179
102
{ACAD_REACTORS
330
178
102
}
330
178
100
AcDbXrecord
280
     1
102
RTVSPost2010Prop28
280
     0
102
RTVSPost2010PropOp28
 70
     1
102
RTVSPost2010Prop29
280
     1
102
RTVSPost2010PropOp29
 70
     1
102
RTVSPost2010Prop30
280
     1
102
RTVSPost2010PropOp30
 70
     1
102
RTVSPost2010Prop31
280
     0
102
RTVSPost2010PropOp31
 70
     1
102
RTVSPost2010Prop32
280
     0
102
RTVSPost2010PropOp32
 70
     1
102
RTVSPost2010Prop33
280
     0
102
RTVSPost2010PropOp33
 70
     1
102
RTVSPost2010Prop34
280
     0
102
RTVSPost2010PropOp34
 70
     1
102
RTVSPost2010Prop35
280
     0
102
RTVSPost2010PropOp35
 70
     1
102
RTVSPost2010Prop36
280
     0
102
RTVSPost2010PropOp36
 70
     1
102
RTVSPost2010Prop37
 90
       50
102
RTVSPost2010PropOp37
 70
     1
102
RTVSPost2010Prop38
140
0.0
102
RTVSPost2010PropOp38
 70
     1
102
RTVSPost2010Prop39
140
1.0
102
RTVSPost2010PropOp39
 70
     1
102
RTVSPost2010Prop40
 90
        0
102
RTVSPost2010PropOp40
 70
     1
102
RTVSPost2010Prop41ColorIndex
 90
       18
102
RTVSPost2010Prop41ColorRGB
 90
        0
102
RTVSPost2010PropOp41
 70
     1
102
RTVSPost2010Prop42
 90
       50
102
RTVSPost2010PropOp42
 70
     1
102
RTVSPost2010Prop43
 90
        3
102
RTVSPost2010PropOp43
 70
     1
102
RTVSPost2010Prop44ColorIndex
 90
        5
102
RTVSPost2010Prop44ColorRGB
 90
      255
102
RTVSPost2010PropOp44
 70
     1
102
RTVSPost2010Prop45
280
     0
102
RTVSPost2010PropOp45
 70
     1
102
RTVSPost2010Prop46
 90
       50
102
RTVSPost2010PropOp46
 70
     1
102
RTVSPost2010Prop47
 90
       50
102
RTVSPost2010PropOp47
 70
     1
102
RTVSPost2010Prop48
 90
       50
102
RTVSPost2010PropOp48
 70
     1
102
RTVSPost2010Prop49
280
     0
102
RTVSPost2010PropOp49
 70
     1
102
RTVSPost2010Prop50
 90
       50
102
RTVSPost2010PropOp50
 70
     1
102
RTVSPost2010Prop51ColorIndex
 90
      256
102
RTVSPost2010Prop51ColorRGB
 90
-16777216
102
RTVSPost2010PropOp51
 70
     0
102
RTVSPost2010Prop52
140
1.0
102
RTVSPost2010PropOp52
 70
     0
102
RTVSPost2010Prop53
 90
        2
102
RTVSPost2010PropOp53
 70
     1
102
RTVSPost2010Prop54
  1
strokes_ogs.tif
102
RTVSPost2010PropOp54
 70
     1
102
RTVSPost2010Prop55
280
     0
102
RTVSPost2010PropOp55
 70
     1
102
RTVSPost2010Prop56
140
1.0
102
RTVSPost2010PropOp56
 70
     1
102
RTVSPost2010Prop57
140
1.0
102
RTVSPost2010PropOp57
 70
     1
  0
XRECORD
  5
16F
102
{ACAD_REACTORS
330
16E
102
}
330
16E
100
AcDbXrecord
280
     1
102
RTVSPost2010Prop28
280
     0
102
RTVSPost2010PropOp28
 70
     1
102
RTVSPost2010Prop29
280
     1
102
RTVSPost2010PropOp29
 70
     1
102
RTVSPost2010Prop30
280
     1
102
RTVSPost2010PropOp30
 70
     1
102
RTVSPost2010Prop31
280
     0
102
RTVSPost2010PropOp31
 70
     1
102
RTVSPost2010Prop32
280
     0
102
RTVSPost2010PropOp32
 70
     1
102
RTVSPost2010Prop33
280
     0
102
RTVSPost2010PropOp33
 70
     1
102
RTVSPost2010Prop34
280
     0
102
RTVSPost2010PropOp34
 70
     1
102
RTVSPost2010Prop35
280
     0
102
RTVSPost2010PropOp35
 70
     1
102
RTVSPost2010Prop36
280
     0
102
RTVSPost2010PropOp36
 70
     1
102
RTVSPost2010Prop37
 90
       50
102
RTVSPost2010PropOp37
 70
     1
102
RTVSPost2010Prop38
140
0.0
102
RTVSPost2010PropOp38
 70
     1
102
RTVSPost2010Prop39
140
1.0
102
RTVSPost2010PropOp39
 70
     1
102
RTVSPost2010Prop40
 90
        0
102
RTVSPost2010PropOp40
 70
     1
102
RTVSPost2010Prop41ColorIndex
 90
       18
102
RTVSPost2010Prop41ColorRGB
 90
        0
102
RTVSPost2010PropOp41
 70
     1
102
RTVSPost2010Prop42
 90
       50
102
RTVSPost2010PropOp42
 70
     1
102
RTVSPost2010Prop43
 90
        3
102
RTVSPost2010PropOp43
 70
     1
102
RTVSPost2010Prop44ColorIndex
 90
        5
102
RTVSPost2010Prop44ColorRGB
 90
      255
102
RTVSPost2010PropOp44
 70
     1
102
RTVSPost2010Prop45
280
     0
102
RTVSPost2010PropOp45
 70
     1
102
RTVSPost2010Prop46
 90
       50
102
RTVSPost2010PropOp46
 70
     1
102
RTVSPost2010Prop47
 90
       50
102
RTVSPost2010PropOp47
 70
     1
102
RTVSPost2010Prop48
 90
       50
102
RTVSPost2010PropOp48
 70
     1
102
RTVSPost2010Prop49
280
     0
102
RTVSPost2010PropOp49
 70
     1
102
RTVSPost2010Prop50
 90
       50
102
RTVSPost2010PropOp50
 70
     1
102
RTVSPost2010Prop51ColorIndex
 90
      256
102
RTVSPost2010Prop51ColorRGB
 90
-16777216
102
RTVSPost2010PropOp51
 70
     0
102
RTVSPost2010Prop52
140
1.0
102
RTVSPost2010PropOp52
 70
     0
102
RTVSPost2010Prop53
 90
        2
102
RTVSPost2010PropOp53
 70
     1
102
RTVSPost2010Prop54
  1
strokes_ogs.tif
102
RTVSPost2010PropOp54
 70
     1
102
RTVSPost2010Prop55
280
     0
102
RTVSPost2010PropOp55
 70
     1
102
RTVSPost2010Prop56
140
1.0
102
RTVSPost2010PropOp56
 70
     1
102
RTVSPost2010Prop57
140
1.0
102
RTVSPost2010PropOp57
 70
     1
  0
XRECORD
  5
163
102
{ACAD_REACTORS
330
162
102
}
330
162
100
AcDbXrecord
280
     1
102
RTVSPost2010Prop28
280
     0
102
RTVSPost2010PropOp28
 70
     1
102
RTVSPost2010Prop29
280
     1
102
RTVSPost2010PropOp29
 70
     1
102
RTVSPost2010Prop30
280
     1
102
RTVSPost2010PropOp30
 70
     1
102
RTVSPost2010Prop31
280
     0
102
RTVSPost2010PropOp31
 70
     1
102
RTVSPost2010Prop32
280
     0
102
RTVSPost2010PropOp32
 70
     1
102
RTVSPost2010Prop33
280
     0
102
RTVSPost2010PropOp33
 70
     1
102
RTVSPost2010Prop34
280
     0
102
RTVSPost2010PropOp34
 70
     1
102
RTVSPost2010Prop35
280
     0
102
RTVSPost2010PropOp35
 70
     1
102
RTVSPost2010Prop36
280
     0
102
RTVSPost2010PropOp36
 70
     1
102
RTVSPost2010Prop37
 90
       50
102
RTVSPost2010PropOp37
 70
     1
102
RTVSPost2010Prop38
140
0.0
102
RTVSPost2010PropOp38
 70
     1
102
RTVSPost2010Prop39
140
1.0
102
RTVSPost2010PropOp39
 70
     1
102
RTVSPost2010Prop40
 90
        0
102
RTVSPost2010PropOp40
 70
     1
102
RTVSPost2010Prop41ColorIndex
 90
       18
102
RTVSPost2010Prop41ColorRGB
 90
        0
102
RTVSPost2010PropOp41
 70
     1
102
RTVSPost2010Prop42
 90
       50
102
RTVSPost2010PropOp42
 70
     1
102
RTVSPost2010Prop43
 90
        3
102
RTVSPost2010PropOp43
 70
     1
102
RTVSPost2010Prop44ColorIndex
 90
        5
102
RTVSPost2010Prop44ColorRGB
 90
      255
102
RTVSPost2010PropOp44
 70
     1
102
RTVSPost2010Prop45
280
     0
102
RTVSPost2010PropOp45
 70
     1
102
RTVSPost2010Prop46
 90
       50
102
RTVSPost2010PropOp46
 70
     1
102
RTVSPost2010Prop47
 90
       50
102
RTVSPost2010PropOp47
 70
     1
102
RTVSPost2010Prop48
 90
       50
102
RTVSPost2010PropOp48
 70
     1
102
RTVSPost2010Prop49
280
     0
102
RTVSPost2010PropOp49
 70
     1
102
RTVSPost2010Prop50
 90
       50
102
RTVSPost2010PropOp50
 70
     1
102
RTVSPost2010Prop51ColorIndex
 90
      256
102
RTVSPost2010Prop51ColorRGB
 90
-16777216
102
RTVSPost2010PropOp51
 70
     0
102
RTVSPost2010Prop52
140
1.0
102
RTVSPost2010PropOp52
 70
     0
102
RTVSPost2010Prop53
 90
        2
102
RTVSPost2010PropOp53
 70
     1
102
RTVSPost2010Prop54
  1
strokes_ogs.tif
102
RTVSPost2010PropOp54
 70
     1
102
RTVSPost2010Prop55
280
     0
102
RTVSPost2010PropOp55
 70
     1
102
RTVSPost2010Prop56
140
1.0
102
RTVSPost2010PropOp56
 70
     1
102
RTVSPost2010Prop57
140
1.0
102
RTVSPost2010PropOp57
 70
     1
  0
XRECORD
  5
17B
102
{ACAD_REACTORS
330
17A
102
}
330
17A
100
AcDbXrecord
280
     1
102
RTVSPost2010Prop28
280
     0
102
RTVSPost2010PropOp28
 70
     1
102
RTVSPost2010Prop29
280
     1
102
RTVSPost2010PropOp29
 70
     1
102
RTVSPost2010Prop30
280
     1
102
RTVSPost2010PropOp30
 70
     1
102
RTVSPost2010Prop31
280
     0
102
RTVSPost2010PropOp31
 70
     1
102
RTVSPost2010Prop32
280
     0
102
RTVSPost2010PropOp32
 70
     1
102
RTVSPost2010Prop33
280
     0
102
RTVSPost2010PropOp33
 70
     1
102
RTVSPost2010Prop34
280
     0
102
RTVSPost2010PropOp34
 70
     1
102
RTVSPost2010Prop35
280
     0
102
RTVSPost2010PropOp35
 70
     1
102
RTVSPost2010Prop36
280
     0
102
RTVSPost2010PropOp36
 70
     1
102
RTVSPost2010Prop37
 90
       50
102
RTVSPost2010PropOp37
 70
     1
102
RTVSPost2010Prop38
140
0.0
102
RTVSPost2010PropOp38
 70
     1
102
RTVSPost2010Prop39
140
1.0
102
RTVSPost2010PropOp39
 70
     1
102
RTVSPost2010Prop40
 90
        0
102
RTVSPost2010PropOp40
 70
     1
102
RTVSPost2010Prop41ColorIndex
 90
       18
102
RTVSPost2010Prop41ColorRGB
 90
        0
102
RTVSPost2010PropOp41
 70
     1
102
RTVSPost2010Prop42
 90
       50
102
RTVSPost2010PropOp42
 70
     1
102
RTVSPost2010Prop43
 90
        3
102
RTVSPost2010PropOp43
 70
     1
102
RTVSPost2010Prop44ColorIndex
 90
        5
102
RTVSPost2010Prop44ColorRGB
 90
      255
102
RTVSPost2010PropOp44
 70
     1
102
RTVSPost2010Prop45
280
     0
102
RTVSPost2010PropOp45
 70
     1
102
RTVSPost2010Prop46
 90
       50
102
RTVSPost2010PropOp46
 70
     1
102
RTVSPost2010Prop47
 90
       50
102
RTVSPost2010PropOp47
 70
     1
102
RTVSPost2010Prop48
 90
       50
102
RTVSPost2010PropOp48
 70
     1
102
RTVSPost2010Prop49
280
     0
102
RTVSPost2010PropOp49
 70
     1
102
RTVSPost2010Prop50
 90
       50
102
RTVSPost2010PropOp50
 70
     1
102
RTVSPost2010Prop51ColorIndex
 90
      256
102
RTVSPost2010Prop51ColorRGB
 90
-16777216
102
RTVSPost2010PropOp51
 70
     0
102
RTVSPost2010Prop52
140
1.0
102
RTVSPost2010PropOp52
 70
     0
102
RTVSPost2010Prop53
 90
        2
102
RTVSPost2010PropOp53
 70
     1
102
RTVSPost2010Prop54
  1
strokes_ogs.tif
102
RTVSPost2010PropOp54
 70
     1
102
RTVSPost2010Prop55
280
     0
102
RTVSPost2010PropOp55
 70
     1
102
RTVSPost2010Prop56
140
1.0
102
RTVSPost2010PropOp56
 70
     1
102
RTVSPost2010Prop57
140
1.0
102
RTVSPost2010PropOp57
 70
     1
  0
ENDSEC
  0
EOF
