  0
SECTION
  2
HEADER
  9
$ACADVER
  1
AC1024
  9
$ACADMAINTVER
 70
   205
  9
$DWGCODEPAGE
  3
ANSI_1251
  9
$INSBASE
 10
0.0
 20
0.0
 30
0.0
  9
$EXTMIN
 10
1.000000000000000E+20
 20
1.000000000000000E+20
 30
1.000000000000000E+20
  9
$EXTMAX
 10
-1.000000000000000E+20
 20
-1.000000000000000E+20
 30
-1.000000000000000E+20
  9
$LIMMIN
 10
0.0
 20
0.0
  9
$LIMMAX
 10
12.0
 20
9.0
  9
$ORTHOMODE
 70
     0
  9
$REGENMODE
 70
     1
  9
$FILLMODE
 70
     1
  9
$QTEXTMODE
 70
     0
  9
$MIRRTEXT
 70
     1
  9
$LTSCALE
 40
1.0
  9
$ATTMODE
 70
     1
  9
$TEXTSIZE
 40
0.2
  9
$TRACEWID
 40
0.05
  9
$TEXTSTYLE
  7
Standard
  9
$CLAYER
  8
OracDecor_skirtings
  9
$CELTYPE
  6
ByLayer
  9
$CECOLOR
 62
   256
  9
$CELTSCALE
 40
1.0
  9
$DISPSILH
 70
     0
  9
$DIMSCALE
 40
1.0
  9
$DIMASZ
 40
0.18
  9
$DIMEXO
 40
0.0625
  9
$DIMDLI
 40
0.38
  9
$DIMRND
 40
0.0
  9
$DIMDLE
 40
0.0
  9
$DIMEXE
 40
0.18
  9
$DIMTP
 40
0.0
  9
$DIMTM
 40
0.0
  9
$DIMTXT
 40
0.18
  9
$DIMCEN
 40
0.09
  9
$DIMTSZ
 40
0.0
  9
$DIMTOL
 70
     0
  9
$DIMLIM
 70
     0
  9
$DIMTIH
 70
     1
  9
$DIMTOH
 70
     1
  9
$DIMSE1
 70
     0
  9
$DIMSE2
 70
     0
  9
$DIMTAD
 70
     0
  9
$DIMZIN
 70
     0
  9
$DIMBLK
  1

  9
$DIMASO
 70
     1
  9
$DIMSHO
 70
     1
  9
$DIMPOST
  1

  9
$DIMAPOST
  1

  9
$DIMALT
 70
     0
  9
$DIMALTD
 70
     2
  9
$DIMALTF
 40
25.4
  9
$DIMLFAC
 40
1.0
  9
$DIMTOFL
 70
     0
  9
$DIMTVP
 40
0.0
  9
$DIMTIX
 70
     0
  9
$DIMSOXD
 70
     0
  9
$DIMSAH
 70
     0
  9
$DIMBLK1
  1

  9
$DIMBLK2
  1

  9
$DIMSTYLE
  2
Standard
  9
$DIMCLRD
 70
     0
  9
$DIMCLRE
 70
     0
  9
$DIMCLRT
 70
     0
  9
$DIMTFAC
 40
1.0
  9
$DIMGAP
 40
0.09
  9
$DIMJUST
 70
     0
  9
$DIMSD1
 70
     0
  9
$DIMSD2
 70
     0
  9
$DIMTOLJ
 70
     1
  9
$DIMTZIN
 70
     0
  9
$DIMALTZ
 70
     0
  9
$DIMALTTZ
 70
     0
  9
$DIMUPT
 70
     0
  9
$DIMDEC
 70
     4
  9
$DIMTDEC
 70
     4
  9
$DIMALTU
 70
     2
  9
$DIMALTTD
 70
     2
  9
$DIMTXSTY
  7
Standard
  9
$DIMAUNIT
 70
     0
  9
$DIMADEC
 70
     0
  9
$DIMALTRND
 40
0.0
  9
$DIMAZIN
 70
     0
  9
$DIMDSEP
 70
    46
  9
$DIMATFIT
 70
     3
  9
$DIMFRAC
 70
     0
  9
$DIMLDRBLK
  1

  9
$DIMLUNIT
 70
     2
  9
$DIMLWD
 70
    -2
  9
$DIMLWE
 70
    -2
  9
$DIMTMOVE
 70
     0
  9
$DIMFXL
 40
1.0
  9
$DIMFXLON
 70
     0
  9
$DIMJOGANG
 40
0.7853981633974483
  9
$DIMTFILL
 70
     0
  9
$DIMTFILLCLR
 70
     0
  9
$DIMARCSYM
 70
     0
  9
$DIMLTYPE
  6

  9
$DIMLTEX1
  6

  9
$DIMLTEX2
  6

  9
$DIMTXTDIRECTION
 70
     0
  9
$LUNITS
 70
     2
  9
$LUPREC
 70
     4
  9
$SKETCHINC
 40
0.1
  9
$FILLETRAD
 40
0.5
  9
$AUNITS
 70
     0
  9
$AUPREC
 70
     0
  9
$MENU
  1
.
  9
$ELEVATION
 40
0.0
  9
$PELEVATION
 40
0.0
  9
$THICKNESS
 40
0.0
  9
$LIMCHECK
 70
     0
  9
$CHAMFERA
 40
0.5
  9
$CHAMFERB
 40
0.5
  9
$CHAMFERC
 40
1.0
  9
$CHAMFERD
 40
0.0
  9
$SKPOLY
 70
     0
  9
$TDCREATE
 40
2451380.930432396
  9
$TDUCREATE
 40
2451380.805432396
  9
$TDUPDATE
 40
2451380.966180555
  9
$TDUUPDATE
 40
2451380.841180556
  9
$TDINDWG
 40
0.0075639005
  9
$TDUSRTIMER
 40
0.0075548611
  9
$USRTIMER
 70
     1
  9
$ANGBASE
 50
0.0
  9
$ANGDIR
 70
     0
  9
$PDMODE
 70
     0
  9
$PDSIZE
 40
0.0
  9
$PLINEWID
 40
0.0
  9
$SPLFRAME
 70
     0
  9
$SPLINETYPE
 70
     6
  9
$SPLINESEGS
 70
     8
  9
$HANDSEED
  5
19D
  9
$SURFTAB1
 70
     6
  9
$SURFTAB2
 70
     6
  9
$SURFTYPE
 70
     6
  9
$SURFU
 70
     6
  9
$SURFV
 70
     6
  9
$UCSBASE
  2

  9
$UCSNAME
  2

  9
$UCSORG
 10
0.0
 20
0.0
 30
0.0
  9
$UCSXDIR
 10
1.0
 20
0.0
 30
0.0
  9
$UCSYDIR
 10
0.0
 20
1.0
 30
0.0
  9
$UCSORTHOREF
  2

  9
$UCSORTHOVIEW
 70
     0
  9
$UCSORGTOP
 10
0.0
 20
0.0
 30
0.0
  9
$UCSORGBOTTOM
 10
0.0
 20
0.0
 30
0.0
  9
$UCSORGLEFT
 10
0.0
 20
0.0
 30
0.0
  9
$UCSORGRIGHT
 10
0.0
 20
0.0
 30
0.0
  9
$UCSORGFRONT
 10
0.0
 20
0.0
 30
0.0
  9
$UCSORGBACK
 10
0.0
 20
0.0
 30
0.0
  9
$PUCSBASE
  2

  9
$PUCSNAME
  2

  9
$PUCSORG
 10
0.0
 20
0.0
 30
0.0
  9
$PUCSXDIR
 10
1.0
 20
0.0
 30
0.0
  9
$PUCSYDIR
 10
0.0
 20
1.0
 30
0.0
  9
$PUCSORTHOREF
  2

  9
$PUCSORTHOVIEW
 70
     0
  9
$PUCSORGTOP
 10
0.0
 20
0.0
 30
0.0
  9
$PUCSORGBOTTOM
 10
0.0
 20
0.0
 30
0.0
  9
$PUCSORGLEFT
 10
0.0
 20
0.0
 30
0.0
  9
$PUCSORGRIGHT
 10
0.0
 20
0.0
 30
0.0
  9
$PUCSORGFRONT
 10
0.0
 20
0.0
 30
0.0
  9
$PUCSORGBACK
 10
0.0
 20
0.0
 30
0.0
  9
$USERI1
 70
     0
  9
$USERI2
 70
     0
  9
$USERI3
 70
     0
  9
$USERI4
 70
     0
  9
$USERI5
 70
     0
  9
$USERR1
 40
0.0
  9
$USERR2
 40
0.0
  9
$USERR3
 40
0.0
  9
$USERR4
 40
0.0
  9
$USERR5
 40
0.0
  9
$WORLDVIEW
 70
     1
  9
$SHADEDGE
 70
     3
  9
$SHADEDIF
 70
    70
  9
$TILEMODE
 70
     1
  9
$MAXACTVP
 70
    64
  9
$PINSBASE
 10
0.0
 20
0.0
 30
0.0
  9
$PLIMCHECK
 70
     0
  9
$PEXTMIN
 10
1.000000000000000E+20
 20
1.000000000000000E+20
 30
1.000000000000000E+20
  9
$PEXTMAX
 10
-1.000000000000000E+20
 20
-1.000000000000000E+20
 30
-1.000000000000000E+20
  9
$PLIMMIN
 10
0.0
 20
0.0
  9
$PLIMMAX
 10
12.0
 20
9.0
  9
$UNITMODE
 70
     0
  9
$VISRETAIN
 70
     1
  9
$PLINEGEN
 70
     0
  9
$PSLTSCALE
 70
     1
  9
$TREEDEPTH
 70
  3020
  9
$CMLSTYLE
  2
Standard
  9
$CMLJUST
 70
     0
  9
$CMLSCALE
 40
1.0
  9
$PROXYGRAPHICS
 70
     1
  9
$MEASUREMENT
 70
     1
  9
$CELWEIGHT
370
    -1
  9
$ENDCAPS
280
     0
  9
$JOINSTYLE
280
     0
  9
$LWDISPLAY
290
     0
  9
$INSUNITS
 70
     4
  9
$HYPERLINKBASE
  1

  9
$STYLESHEET
  1

  9
$XEDIT
290
     1
  9
$CEPSNTYPE
380
     0
  9
$PSTYLEMODE
290
     1
  9
$FINGERPRINTGUID
  2
{12F50282-3ED8-11D3-A8B7-0060B0F84BC6}
  9
$VERSIONGUID
  2
{12F50293-3ED8-11D3-A8B7-0060B0F84BC6}
  9
$EXTNAMES
290
     1
  9
$PSVPSCALE
 40
0.0
  9
$OLESTARTUP
290
     0
  9
$SORTENTS
280
   127
  9
$INDEXCTL
280
     0
  9
$HIDETEXT
280
     0
  9
$XCLIPFRAME
280
     2
  9
$HALOGAP
280
     0
  9
$OBSCOLOR
 70
   257
  9
$OBSLTYPE
280
     0
  9
$INTERSECTIONDISPLAY
280
     0
  9
$INTERSECTIONCOLOR
 70
   257
  9
$DIMASSOC
280
     1
  9
$PROJECTNAME
  1

  9
$CAMERADISPLAY
290
     0
  9
$LENSLENGTH
 40
50.0
  9
$CAMERAHEIGHT
 40
0.0
  9
$STEPSPERSEC
 40
2.0
  9
$STEPSIZE
 40
6.0
  9
$3DDWFPREC
 40
2.0
  9
$PSOLWIDTH
 40
0.25
  9
$PSOLHEIGHT
 40
4.0
  9
$LOFTANG1
 40
1.570796326794896
  9
$LOFTANG2
 40
1.570796326794896
  9
$LOFTMAG1
 40
0.0
  9
$LOFTMAG2
 40
0.0
  9
$LOFTPARAM
 70
     7
  9
$LOFTNORMALS
280
     1
  9
$LATITUDE
 40
37.795
  9
$LONGITUDE
 40
-122.394
  9
$NORTHDIRECTION
 40
0.0
  9
$TIMEZONE
 70
 -8000
  9
$LIGHTGLYPHDISPLAY
280
     1
  9
$TILEMODELIGHTSYNCH
280
     1
  9
$CMATERIAL
347
AB
  9
$SOLIDHIST
280
     0
  9
$SHOWHIST
280
     1
  9
$DWFFRAME
280
     2
  9
$DGNFRAME
280
     0
  9
$REALWORLDSCALE
290
     1
  9
$INTERFERECOLOR
 62
     1
  9
$INTERFEREOBJVS
345
CD
  9
$INTERFEREVPVS
346
CA
  9
$CSHADOW
280
     0
  9
$SHADOWPLANELOCATION
 40
0.0
  0
ENDSEC
  0
SECTION
  2
CLASSES
  0
CLASS
  1
ACDBDICTIONARYWDFLT
  2
AcDbDictionaryWithDefault
  3
ObjectDBX Classes
 90
        0
 91
        1
280
     0
281
     0
  0
CLASS
  1
ACDBPLACEHOLDER
  2
AcDbPlaceHolder
  3
ObjectDBX Classes
 90
        0
 91
        2
280
     0
281
     0
  0
CLASS
  1
LAYOUT
  2
AcDbLayout
  3
ObjectDBX Classes
 90
        0
 91
        3
280
     0
281
     0
  0
CLASS
  1
MATERIAL
  2
AcDbMaterial
  3
ObjectDBX Classes
 90
     1153
 91
        3
280
     0
281
     0
  0
CLASS
  1
VISUALSTYLE
  2
AcDbVisualStyle
  3
ObjectDBX Classes
 90
     4095
 91
       24
280
     0
281
     0
  0
CLASS
  1
TABLESTYLE
  2
AcDbTableStyle
  3
ObjectDBX Classes
 90
     4095
 91
        1
280
     0
281
     0
  0
CLASS
  1
SCALE
  2
AcDbScale
  3
ObjectDBX Classes
 90
     1153
 91
       17
280
     0
281
     0
  0
CLASS
  1
MLEADERSTYLE
  2
AcDbMLeaderStyle
  3
ACDB_MLEADERSTYLE_CLASS
 90
     4095
 91
        1
280
     0
281
     0
  0
CLASS
  1
ACDBSECTIONVIEWSTYLE
  2
AcDbSectionViewStyle
  3
ObjectDBX Classes
 90
     1025
 91
        1
280
     0
281
     0
  0
CLASS
  1
ACDBDETAILVIEWSTYLE
  2
AcDbDetailViewStyle
  3
ObjectDBX Classes
 90
     1025
 91
        1
280
     0
281
     0
  0
CLASS
  1
MESH
  2
AcDbSubDMesh
  3
ObjectDBX Classes
 90
        0
 91
        1
280
     0
281
     1
  0
CLASS
  1
DICTIONARYVAR
  2
AcDbDictionaryVar
  3
ObjectDBX Classes
 90
        0
 91
        9
280
     0
281
     0
  0
CLASS
  1
CELLSTYLEMAP
  2
AcDbCellStyleMap
  3
ObjectDBX Classes
 90
     1152
 91
        1
280
     0
281
     0
  0
ENDSEC
  0
SECTION
  2
TABLES
  0
TABLE
  2
VPORT
  5
8
330
0
100
AcDbSymbolTable
 70
     1
  0
VPORT
  5
A8
330
8
100
AcDbSymbolTableRecord
100
AcDbViewportTableRecord
  2
*Active
 70
     0
 10
0.0
 20
0.0
 11
1.0
 21
1.0
 12
0.0000492275212309
 22
34.70112991333008
 13
0.0
 23
0.0
 14
0.5
 24
0.5
 15
0.5
 25
0.5
 16
-1.0
 26
-1.0
 36
1.0
 17
0.0
 27
0.0
 37
0.0
 40
1098.999868247442
 41
1.598088722882277
 42
50.0
 43
0.0
 44
0.0
 50
0.0
 51
0.0
 71
     0
 72
   100
 73
     1
 74
     3
 75
     0
 76
     0
 77
     0
 78
     0
281
     0
 65
     1
110
0.0
120
0.0
130
0.0
111
1.0
121
0.0
131
0.0
112
0.0
122
1.0
132
0.0
 79
     0
146
0.0
348
C9
 60
     3
 61
     5
292
     1
282
     1
141
0.0
142
0.0
 63
   250
421
  3355443
  0
ENDTAB
  0
TABLE
  2
LTYPE
  5
5
330
0
100
AcDbSymbolTable
 70
     1
  0
LTYPE
  5
14
330
5
100
AcDbSymbolTableRecord
100
AcDbLinetypeTableRecord
  2
ByBlock
 70
     0
  3

 72
    65
 73
     0
 40
0.0
  0
LTYPE
  5
15
330
5
100
AcDbSymbolTableRecord
100
AcDbLinetypeTableRecord
  2
ByLayer
 70
     0
  3

 72
    65
 73
     0
 40
0.0
  0
LTYPE
  5
16
330
5
100
AcDbSymbolTableRecord
100
AcDbLinetypeTableRecord
  2
Continuous
 70
     0
  3
Solid line
 72
    65
 73
     0
 40
0.0
  0
ENDTAB
  0
TABLE
  2
LAYER
  5
2
330
0
100
AcDbSymbolTable
 70
     3
  0
LAYER
  5
10
330
2
100
AcDbSymbolTableRecord
100
AcDbLayerTableRecord
  2
0
 70
     0
 62
     7
  6
Continuous
370
    -3
390
F
347
BB
  0
LAYER
  5
2B
330
2
100
AcDbSymbolTableRecord
100
AcDbLayerTableRecord
  2
ASHADE
 70
     4
 62
     7
  6
Continuous
370
    -3
390
2D
347
BB
  0
LAYER
  5
F8
330
2
100
AcDbSymbolTableRecord
100
AcDbLayerTableRecord
  2
OracDecor_skirtings
 70
     0
 62
   154
420
  1857969
  6
Continuous
370
    -3
390
F
347
BB
  0
ENDTAB
  0
TABLE
  2
STYLE
  5
3
330
0
100
AcDbSymbolTable
 70
     2
  0
STYLE
  5
11
330
3
100
AcDbSymbolTableRecord
100
AcDbTextStyleTableRecord
  2
Standard
 70
     0
 40
0.0
 41
1.0
 50
0.0
 71
     0
 42
0.2
  3
txt
  4

  0
STYLE
  5
2C
330
3
100
AcDbSymbolTableRecord
100
AcDbTextStyleTableRecord
  2
ASHADE
 70
     0
 40
0.2
 41
1.0
 50
0.0
 71
     0
 42
0.2
  3
simplex
  4

  0
ENDTAB
  0
TABLE
  2
VIEW
  5
6
330
0
100
AcDbSymbolTable
 70
     0
  0
ENDTAB
  0
TABLE
  2
UCS
  5
7
330
0
100
AcDbSymbolTable
 70
     0
  0
ENDTAB
  0
TABLE
  2
APPID
  5
9
330
0
100
AcDbSymbolTable
 70
     6
  0
APPID
  5
12
330
9
100
AcDbSymbolTableRecord
100
AcDbRegAppTableRecord
  2
ACAD
 70
     0
  0
APPID
  5
8F
330
9
100
AcDbSymbolTableRecord
100
AcDbRegAppTableRecord
  2
AVE_RENDER
 70
     0
  0
APPID
  5
90
330
9
100
AcDbSymbolTableRecord
100
AcDbRegAppTableRecord
  2
AVE_ENTITY_MATERIAL
 70
     0
  0
APPID
  5
9C
330
9
100
AcDbSymbolTableRecord
100
AcDbRegAppTableRecord
  2
AVE_FINISH
 70
     0
  0
APPID
  5
9D
330
9
100
AcDbSymbolTableRecord
100
AcDbRegAppTableRecord
  2
AVE_MATERIAL
 70
     0
  0
APPID
  5
9E
330
9
100
AcDbSymbolTableRecord
100
AcDbRegAppTableRecord
  2
AVE_GLOBAL
 70
     0
  0
ENDTAB
  0
TABLE
  2
DIMSTYLE
  5
A
330
0
100
AcDbSymbolTable
 70
     1
100
AcDbDimStyleTable
 71
     0
  0
DIMSTYLE
105
27
330
A
100
AcDbSymbolTableRecord
100
AcDbDimStyleTableRecord
  2
Standard
 70
     0
340
11
  0
ENDTAB
  0
TABLE
  2
BLOCK_RECORD
  5
1
330
0
100
AcDbSymbolTable
 70
     6
  0
BLOCK_RECORD
  5
1F
330
1
100
AcDbSymbolTableRecord
100
AcDbBlockTableRecord
  2
*Model_Space
340
22
 70
     0
280
     1
281
     0
  0
BLOCK_RECORD
  5
1B
330
1
100
AcDbSymbolTableRecord
100
AcDbBlockTableRecord
  2
*Paper_Space
340
1E
 70
     0
280
     1
281
     0
  0
BLOCK_RECORD
  5
23
330
1
100
AcDbSymbolTableRecord
100
AcDbBlockTableRecord
  2
*Paper_Space0
340
26
 70
     0
280
     1
281
     0
  0
BLOCK_RECORD
  5
2E
330
1
100
AcDbSymbolTableRecord
100
AcDbBlockTableRecord
  2
direct
340
0
 70
     0
280
     1
281
     0
  0
BLOCK_RECORD
  5
42
330
1
100
AcDbSymbolTableRecord
100
AcDbBlockTableRecord
  2
overhead
340
0
 70
     0
280
     1
281
     0
  0
BLOCK_RECORD
  5
5F
330
1
100
AcDbSymbolTableRecord
100
AcDbBlockTableRecord
  2
sh_spot
340
0
 70
     0
280
     1
281
     0
  0
BLOCK_RECORD
  5
91
330
1
100
AcDbSymbolTableRecord
100
AcDbBlockTableRecord
  2
AVE_RENDER
340
0
102
{BLKREFS
331
94
331
95
331
96
331
97
331
98
331
99
331
9A
331
9B
102
}
 70
     0
280
     1
281
     0
  0
BLOCK_RECORD
  5
9F
330
1
100
AcDbSymbolTableRecord
100
AcDbBlockTableRecord
  2
AVE_GLOBAL
340
0
102
{BLKREFS
331
A2
102
}
 70
     0
280
     1
281
     0
  0
ENDTAB
  0
ENDSEC
  0
SECTION
  2
BLOCKS
  0
BLOCK
  5
20
330
1F
100
AcDbEntity
  8
0
100
AcDbBlockBegin
  2
*Model_Space
 70
     0
 10
0.0
 20
0.0
 30
0.0
  3
*Model_Space
  1

  0
ENDBLK
  5
21
330
1F
100
AcDbEntity
  8
0
100
AcDbBlockEnd
  0
BLOCK
  5
1C
330
1B
100
AcDbEntity
 67
     1
  8
0
100
AcDbBlockBegin
  2
*Paper_Space
 70
     0
 10
0.0
 20
0.0
 30
0.0
  3
*Paper_Space
  1

  0
ENDBLK
  5
1D
330
1B
100
AcDbEntity
 67
     1
  8
0
100
AcDbBlockEnd
  0
BLOCK
  5
24
330
23
100
AcDbEntity
 67
     1
  8
0
100
AcDbBlockBegin
  2
*Paper_Space0
 70
     0
 10
0.0
 20
0.0
 30
0.0
  3
*Paper_Space0
  1

  0
ENDBLK
  5
25
330
23
100
AcDbEntity
 67
     1
  8
0
100
AcDbBlockEnd
  0
BLOCK
  5
40
330
2E
100
AcDbEntity
  8
0
100
AcDbBlockBegin
  2
direct
 70
     2
 10
0.0
 20
0.0
 30
0.0
  3
direct
  1

  0
ATTDEF
  5
2F
330
2E
100
AcDbEntity
  8
ASHADE
  6
Continuous
 62
     1
100
AcDbText
 10
0.0
 20
-0.1
 30
0.0
 40
0.2
  1

  7
ASHADE
 72
     1
 11
0.0
 21
-0.1
 31
0.0
100
AcDbAttributeDefinition
280
     0
  3
Light Name
  2
SNAME
 70
     0
280
     0
  0
ARC
  5
30
330
2E
100
AcDbEntity
  8
ASHADE
  6
Continuous
 62
     7
100
AcDbCircle
 10
0.0
 20
0.0
 30
0.0
 40
0.3
100
AcDbArc
 50
205.6792886194569
 51
334.3207113805431
  0
ARC
  5
31
330
2E
100
AcDbEntity
  8
ASHADE
  6
Continuous
 62
     7
100
AcDbCircle
 10
0.0
 20
0.0
 30
0.0
 40
0.3
100
AcDbArc
 50
25.67928861945685
 51
154.3207113805431
  0
LINE
  5
32
330
2E
100
AcDbEntity
  8
ASHADE
  6
Continuous
 62
     7
100
AcDbLine
 10
-0.21
 20
0.2142428528562855
 30
0.0
 11
-0.21
 21
0.5
 31
0.0
  0
LINE
  5
33
330
2E
100
AcDbEntity
  8
ASHADE
  6
Continuous
 62
     7
100
AcDbLine
 10
-0.11
 20
0.2791057147390572
 30
0.0
 11
-0.11
 21
0.5
 31
0.0
  0
LINE
  5
34
330
2E
100
AcDbEntity
  8
ASHADE
  6
Continuous
 62
     7
100
AcDbLine
 10
0.21
 20
0.2142428528562855
 30
0.0
 11
0.21
 21
0.5
 31
0.0
  0
ATTDEF
  5
35
330
2E
100
AcDbEntity
  8
ASHADE
  6
Continuous
 62
     7
100
AcDbText
 10
0.0
 20
0.25
 30
0.0
 40
0.01
  1

100
AcDbAttributeDefinition
280
     0
  3
Look-at Y
  2
LAY
 70
     1
280
     0
  0
ATTDEF
  5
36
330
2E
100
AcDbEntity
  8
ASHADE
  6
Continuous
 62
     7
100
AcDbText
 10
0.0
 20
0.22
 30
0.0
 40
0.01
  1
1
100
AcDbAttributeDefinition
280
     0
  3
Light Intensity
  2
INTENSITY
 70
     1
280
     0
  0
ATTDEF
  5
37
330
2E
100
AcDbEntity
  8
ASHADE
  6
Continuous
 62
     7
100
AcDbText
 10
0.0
 20
0.16
 30
0.0
 40
0.01
  1
-1
100
AcDbAttributeDefinition
280
     0
  3
*not used*
  2
BEAMD
 70
     1
280
     0
  0
ATTDEF
  5
38
330
2E
100
AcDbEntity
  8
ASHADE
  6
Continuous
 62
     7
100
AcDbText
 10
0.0
 20
0.175
 30
0.0
 40
0.01
  1
-1
100
AcDbAttributeDefinition
280
     0
  3
*not used*
  2
CONED
 70
     1
280
     0
  0
ATTDEF
  5
39
330
2E
100
AcDbEntity
  8
ASHADE
  6
Continuous
 62
     7
100
AcDbText
 10
0.0
 20
0.19
 30
0.0
 40
0.01
  1
0
100
AcDbAttributeDefinition
280
     0
  3
Depth Map Size
  2
CONEA
 70
     1
280
     0
  0
ATTDEF
  5
3A
330
2E
100
AcDbEntity
  8
ASHADE
  6
Continuous
 62
     7
100
AcDbText
 10
0.0
 20
0.2050000000000001
 30
0.0
 40
0.01
  1
1,1,1
100
AcDbAttributeDefinition
280
     0
  3
Light Color (RGB)
  2
COLOR
 70
     1
280
     0
  0
ATTDEF
  5
3B
330
2E
100
AcDbEntity
  8
ASHADE
  6
Continuous
 62
     7
100
AcDbText
 10
0.0
 20
0.235
 30
0.0
 40
0.01
  1

100
AcDbAttributeDefinition
280
     0
  3
Look-at Z
  2
LAZ
 70
     1
280
     0
  0
LINE
  5
3C
330
2E
100
AcDbEntity
  8
ASHADE
  6
Continuous
 62
     7
100
AcDbLine
 10
0.0
 20
0.3
 30
0.0
 11
0.0
 21
0.5
 31
0.0
  0
LINE
  5
3D
330
2E
100
AcDbEntity
  8
ASHADE
  6
Continuous
 62
     7
100
AcDbLine
 10
0.11
 20
0.2791057147390572
 30
0.0
 11
0.11
 21
0.5
 31
0.0
  0
ATTDEF
  5
3E
330
2E
100
AcDbEntity
  8
ASHADE
  6
Continuous
 62
     7
100
AcDbText
 10
0.0
 20
0.265
 30
0.0
 40
0.01
  1

100
AcDbAttributeDefinition
280
     0
  3
Look-at X
  2
LAX
 70
     1
280
     0
  0
ATTDEF
  5
3F
330
2E
100
AcDbEntity
  8
ASHADE
  6
Continuous
 62
     7
100
AcDbText
 10
0.0
 20
0.28
 30
0.0
 40
0.01
  1

100
AcDbAttributeDefinition
280
     0
  3

  2
GNAME
 70
     1
280
     0
  0
ENDBLK
  5
41
330
2E
100
AcDbEntity
  8
0
100
AcDbBlockEnd
  0
BLOCK
  5
5D
330
42
100
AcDbEntity
  8
0
100
AcDbBlockBegin
  2
overhead
 70
     2
 10
0.0
 20
0.0
 30
0.0
  3
overhead
  1

  0
ATTDEF
  5
43
330
42
100
AcDbEntity
  8
ASHADE
  6
Continuous
 62
     1
100
AcDbText
 10
0.0
 20
-0.1
 30
0.0
 40
0.2
  1

  7
ASHADE
 72
     1
 11
0.0
 21
-0.1
 31
0.0
100
AcDbAttributeDefinition
280
     0
  3
Light Name
  2
SNAME
 70
     0
280
     0
  0
ARC
  5
44
330
42
100
AcDbEntity
  8
ASHADE
  6
Continuous
 62
     7
100
AcDbCircle
 10
0.0
 20
0.0
 30
0.0
 40
0.3
100
AcDbArc
 50
205.6792886194569
 51
334.3207113805431
  0
LINE
  5
45
330
42
100
AcDbEntity
  8
ASHADE
  6
Continuous
 62
     7
100
AcDbLine
 10
-0.2041413561583015
 20
-0.2198324514393848
 30
0.0
 11
-0.2721884748777353
 21
-0.2931099352525131
 31
0.0
  0
LINE
  5
46
330
42
100
AcDbEntity
  8
ASHADE
  6
Continuous
 62
     7
100
AcDbLine
 10
-0.1096591641591904
 20
-0.2792398032442862
 30
0.0
 11
-0.1279356915190555
 21
-0.3257797704516673
 31
0.0
  0
LINE
  5
47
330
42
100
AcDbEntity
  8
ASHADE
  6
Continuous
 62
     7
100
AcDbLine
 10
0.0
 20
-0.2999999999999999
 30
0.0
 11
0.0
 21
-0.4
 31
0.0
  0
LINE
  5
48
330
42
100
AcDbEntity
  8
ASHADE
  6
Continuous
 62
     7
100
AcDbLine
 10
0.1096591641591904
 20
-0.2792398032442862
 30
0.0
 11
0.1279356915190555
 21
-0.3257797704516673
 31
0.0
  0
LINE
  5
49
330
42
100
AcDbEntity
  8
ASHADE
  6
Continuous
 62
     7
100
AcDbLine
 10
0.2041413561583015
 20
-0.2198324514393848
 30
0.0
 11
0.2721884748777353
 21
-0.2931099352525131
 31
0.0
  0
ARC
  5
4A
330
42
100
AcDbEntity
  8
ASHADE
  6
Continuous
 62
     7
100
AcDbCircle
 10
0.0
 20
0.0
 30
0.0
 40
0.3
100
AcDbArc
 50
25.67928861945685
 51
154.3207113805431
  0
LINE
  5
4B
330
42
100
AcDbEntity
  8
ASHADE
  6
Continuous
 62
     7
100
AcDbLine
 10
-0.2703701166919155
 20
0.13
 30
0.0
 11
-0.3154318028072347
 21
0.1516666666666666
 31
0.0
  0
LINE
  5
4C
330
42
100
AcDbEntity
  8
ASHADE
  6
Continuous
 62
     7
100
AcDbLine
 10
-0.2703701166919155
 20
-0.13
 30
0.0
 11
-0.3154318028072347
 21
-0.1516666666666666
 31
0.0
  0
LINE
  5
4D
330
42
100
AcDbEntity
  8
ASHADE
  6
Continuous
 62
     7
100
AcDbLine
 10
-0.2041413561583015
 20
0.2198324514393849
 30
0.0
 11
-0.2721884748777353
 21
0.2931099352525131
 31
0.0
  0
LINE
  5
4E
330
42
100
AcDbEntity
  8
ASHADE
  6
Continuous
 62
     7
100
AcDbLine
 10
-0.1096591641591904
 20
0.2792398032442862
 30
0.0
 11
-0.1279356915190555
 21
0.3257797704516674
 31
0.0
  0
LINE
  5
4F
330
42
100
AcDbEntity
  8
ASHADE
  6
Continuous
 62
     7
100
AcDbLine
 10
0.2703701166919155
 20
-0.13
 30
0.0
 11
0.3154318028072347
 21
-0.1516666666666666
 31
0.0
  0
LINE
  5
50
330
42
100
AcDbEntity
  8
ASHADE
  6
Continuous
 62
     7
100
AcDbLine
 10
0.2703701166919155
 20
0.13
 30
0.0
 11
0.3154318028072347
 21
0.1516666666666666
 31
0.0
  0
LINE
  5
51
330
42
100
AcDbEntity
  8
ASHADE
  6
Continuous
 62
     7
100
AcDbLine
 10
0.0
 20
0.3
 30
0.0
 11
0.0
 21
0.4
 31
0.0
  0
ATTDEF
  5
52
330
42
100
AcDbEntity
  8
ASHADE
  6
Continuous
 62
     7
100
AcDbText
 10
0.0
 20
0.22
 30
0.0
 40
0.01
  1
1
100
AcDbAttributeDefinition
280
     0
  3
Light Intensity
  2
INTENSITY
 70
     1
280
     0
  0
ATTDEF
  5
53
330
42
100
AcDbEntity
  8
ASHADE
  6
Continuous
 62
     7
100
AcDbText
 10
0.0
 20
0.16
 30
0.0
 40
0.01
  1
-1
100
AcDbAttributeDefinition
280
     0
  3
*not used*
  2
BEAMD
 70
     1
280
     0
  0
ATTDEF
  5
54
330
42
100
AcDbEntity
  8
ASHADE
  6
Continuous
 62
     7
100
AcDbText
 10
0.0
 20
0.175
 30
0.0
 40
0.01
  1
-1
100
AcDbAttributeDefinition
280
     0
  3
*not used*
  2
CONED
 70
     1
280
     0
  0
ATTDEF
  5
55
330
42
100
AcDbEntity
  8
ASHADE
  6
Continuous
 62
     7
100
AcDbText
 10
0.0
 20
0.19
 30
0.0
 40
0.01
  1
0
100
AcDbAttributeDefinition
280
     0
  3
Depth Map Size
  2
CONEA
 70
     1
280
     0
  0
ATTDEF
  5
56
330
42
100
AcDbEntity
  8
ASHADE
  6
Continuous
 62
     7
100
AcDbText
 10
0.0
 20
0.2050000000000001
 30
0.0
 40
0.01
  1
1,1,1
100
AcDbAttributeDefinition
280
     0
  3
Light Color (RGB)
  2
COLOR
 70
     1
280
     0
  0
ATTDEF
  5
57
330
42
100
AcDbEntity
  8
ASHADE
  6
Continuous
 62
     7
100
AcDbText
 10
0.0
 20
0.235
 30
0.0
 40
0.01
  1

100
AcDbAttributeDefinition
280
     0
  3
Look-at Z
  2
LAZ
 70
     1
280
     0
  0
ATTDEF
  5
58
330
42
100
AcDbEntity
  8
ASHADE
  6
Continuous
 62
     7
100
AcDbText
 10
0.0
 20
0.25
 30
0.0
 40
0.01
  1

100
AcDbAttributeDefinition
280
     0
  3
Look-at Y
  2
LAY
 70
     1
280
     0
  0
ATTDEF
  5
59
330
42
100
AcDbEntity
  8
ASHADE
  6
Continuous
 62
     7
100
AcDbText
 10
0.0
 20
0.265
 30
0.0
 40
0.01
  1

100
AcDbAttributeDefinition
280
     0
  3
Look-at X
  2
LAX
 70
     1
280
     0
  0
ATTDEF
  5
5A
330
42
100
AcDbEntity
  8
ASHADE
  6
Continuous
 62
     7
100
AcDbText
 10
0.0
 20
0.28
 30
0.0
 40
0.01
  1

100
AcDbAttributeDefinition
280
     0
  3

  2
GNAME
 70
     1
280
     0
  0
LINE
  5
5B
330
42
100
AcDbEntity
  8
ASHADE
  6
Continuous
 62
     7
100
AcDbLine
 10
0.1096591641591904
 20
0.2792398032442862
 30
0.0
 11
0.1279356915190555
 21
0.3257797704516674
 31
0.0
  0
LINE
  5
5C
330
42
100
AcDbEntity
  8
ASHADE
  6
Continuous
 62
     7
100
AcDbLine
 10
0.2041413561583015
 20
0.2198324514393849
 30
0.0
 11
0.2721884748777353
 21
0.2931099352525131
 31
0.0
  0
ENDBLK
  5
5E
330
42
100
AcDbEntity
  8
0
100
AcDbBlockEnd
  0
BLOCK
  5
85
330
5F
100
AcDbEntity
  8
0
100
AcDbBlockBegin
  2
sh_spot
 70
     2
 10
0.0
 20
0.0
 30
0.0
  3
sh_spot
  1

  0
LINE
  5
60
330
5F
100
AcDbEntity
  8
ASHADE
  6
Continuous
 62
     7
100
AcDbLine
 10
0.25
 20
0.26
 30
0.0
 11
-0.25
 21
0.26
 31
0.0
  0
LINE
  5
61
330
5F
100
AcDbEntity
  8
ASHADE
  6
Continuous
 62
     7
100
AcDbLine
 10
-0.25
 20
-0.3399999999999999
 30
0.0
 11
0.25
 21
-0.3399999999999999
 31
0.0
  0
ATTDEF
  5
62
330
5F
100
AcDbEntity
  8
ASHADE
  6
Continuous
 62
     1
100
AcDbText
 10
0.0
 20
-0.1
 30
0.0
 40
0.2
  1

  7
ASHADE
 72
     1
 11
0.0
 21
-0.1
 31
0.0
100
AcDbAttributeDefinition
280
     0
  3
Light Name
  2
SNAME
 70
     0
280
     0
  0
LINE
  5
63
330
5F
100
AcDbEntity
  8
ASHADE
  6
Continuous
 62
     7
100
AcDbLine
 10
-0.25
 20
-0.13
 30
0.0
 11
-0.25
 21
-0.3399999999999999
 31
0.0
  0
LINE
  5
64
330
5F
100
AcDbEntity
  8
ASHADE
  6
Continuous
 62
     7
100
AcDbLine
 10
-0.25
 20
-0.18
 30
0.0
 11
-0.29
 21
-0.18
 31
0.0
  0
LINE
  5
65
330
5F
100
AcDbEntity
  8
ASHADE
  6
Continuous
 62
     7
100
AcDbLine
 10
-0.29
 20
-0.22
 30
0.0
 11
-0.25
 21
-0.22
 31
0.0
  0
LINE
  5
66
330
5F
100
AcDbEntity
  8
ASHADE
  6
Continuous
 62
     7
100
AcDbLine
 10
-0.29
 20
-0.18
 30
0.0
 11
-0.29
 21
-0.22
 31
0.0
  0
LINE
  5
67
330
5F
100
AcDbEntity
  8
ASHADE
  6
Continuous
 62
     7
100
AcDbLine
 10
-0.1045454545454545
 20
0.26
 30
0.0
 11
-0.15
 21
0.46
 31
0.0
  0
LINE
  5
68
330
5F
100
AcDbEntity
  8
ASHADE
  6
Continuous
 62
     7
100
AcDbLine
 10
-0.21
 20
0.26
 30
0.0
 11
-0.301304347826087
 21
0.46
 31
0.0
  0
LINE
  5
69
330
5F
100
AcDbEntity
  8
ASHADE
  6
Continuous
 62
     7
100
AcDbLine
 10
-0.25
 20
0.26
 30
0.0
 11
-0.25
 21
0.13
 31
0.0
  0
LINE
  5
6A
330
5F
100
AcDbEntity
  8
ASHADE
  6
Continuous
 62
     7
100
AcDbLine
 10
-0.25
 20
0.22
 30
0.0
 11
-0.29
 21
0.22
 31
0.0
  0
LINE
  5
6B
330
5F
100
AcDbEntity
  8
ASHADE
  6
Continuous
 62
     7
100
AcDbLine
 10
-0.29
 20
0.1799999999999999
 30
0.0
 11
-0.25
 21
0.1799999999999999
 31
0.0
  0
LINE
  5
6C
330
5F
100
AcDbEntity
  8
ASHADE
  6
Continuous
 62
     7
100
AcDbLine
 10
-0.29
 20
0.22
 30
0.0
 11
-0.29
 21
0.1799999999999999
 31
0.0
  0
ATTDEF
  5
6D
330
5F
100
AcDbEntity
  8
ASHADE
  6
Continuous
 62
     7
100
AcDbText
 10
0.0
 20
-0.24
 30
0.0
 40
0.01
  1
0
100
AcDbAttributeDefinition
280
     0
  3
Depth Map Size
  2
ZSIZE
 70
     1
280
     0
  0
ATTDEF
  5
6E
330
5F
100
AcDbEntity
  8
ASHADE
  6
Continuous
 62
     7
100
AcDbText
 10
0.0
 20
-0.3300000000000001
 30
0.0
 40
0.01
  1
0,0,0
100
AcDbAttributeDefinition
280
     0
  3
Look-from XYZ
  2
LFXYZ
 70
     1
280
     0
  0
ATTDEF
  5
6F
330
5F
100
AcDbEntity
  8
ASHADE
  6
Continuous
 62
     7
100
AcDbText
 10
0.0
 20
-0.315
 30
0.0
 40
0.01
  1
0.0
100
AcDbAttributeDefinition
280
     0
  3
Beam Distribution
  2
BEAMDI
 70
     1
280
     0
  0
ATTDEF
  5
70
330
5F
100
AcDbEntity
  8
ASHADE
  6
Continuous
 62
     7
100
AcDbText
 10
0.0
 20
-0.3
 30
0.0
 40
0.01
  1
0.0
100
AcDbAttributeDefinition
280
     0
  3
Cone Delta
  2
CONEDE
 70
     1
280
     0
  0
ATTDEF
  5
71
330
5F
100
AcDbEntity
  8
ASHADE
  6
Continuous
 62
     7
100
AcDbText
 10
0.0
 20
-0.2850000000000001
 30
0.0
 40
0.01
  1
10.0
100
AcDbAttributeDefinition
280
     0
  3
Cone Angle
  2
CONEAN
 70
     1
280
     0
  0
ATTDEF
  5
72
330
5F
100
AcDbEntity
  8
ASHADE
  6
Continuous
 62
     7
100
AcDbText
 10
0.0
 20
-0.27
 30
0.0
 40
0.01
  1
-1
100
AcDbAttributeDefinition
280
     0
  3
*not used*
  2
BIASMAX
 70
     1
280
     0
  0
ATTDEF
  5
73
330
5F
100
AcDbEntity
  8
ASHADE
  6
Continuous
 62
     7
100
AcDbText
 10
0.0
 20
-0.255
 30
0.0
 40
0.01
  1
-1
100
AcDbAttributeDefinition
280
     0
  3
*not used*
  2
BIASMIN
 70
     1
280
     0
  0
ATTDEF
  5
74
330
5F
100
AcDbEntity
  8
ASHADE
  6
Continuous
 62
     7
100
AcDbText
 10
0.0
 20
-0.225
 30
0.0
 40
0.01
  1
1,1,1
100
AcDbAttributeDefinition
280
     0
  3
Light Color (RGB)
  2
COLOR
 70
     1
280
     0
  0
ATTDEF
  5
75
330
5F
100
AcDbEntity
  8
ASHADE
  6
Continuous
 62
     7
100
AcDbText
 10
0.0
 20
-0.21
 30
0.0
 40
0.01
  1
1
100
AcDbAttributeDefinition
280
     0
  3
Light Intensity
  2
INTENSITY
 70
     1
280
     0
  0
ATTDEF
  5
76
330
5F
100
AcDbEntity
  8
ASHADE
  6
Continuous
 62
     7
100
AcDbText
 10
0.0
 20
-0.15
 30
0.0
 40
0.01
  1

100
AcDbAttributeDefinition
280
     0
  3

  2
GNAME
 70
     1
280
     0
  0
ATTDEF
  5
77
330
5F
100
AcDbEntity
  8
ASHADE
  6
Continuous
 62
     7
100
AcDbText
 10
0.0
 20
-0.195
 30
0.0
 40
0.01
  1

100
AcDbAttributeDefinition
280
     0
  3
Look-at Z
  2
LAZ
 70
     1
280
     0
  0
ATTDEF
  5
78
330
5F
100
AcDbEntity
  8
ASHADE
  6
Continuous
 62
     7
100
AcDbText
 10
0.0
 20
-0.18
 30
0.0
 40
0.01
  1

100
AcDbAttributeDefinition
280
     0
  3
Look-at Y
  2
LAY
 70
     1
280
     0
  0
ATTDEF
  5
79
330
5F
100
AcDbEntity
  8
ASHADE
  6
Continuous
 62
     7
100
AcDbText
 10
0.0
 20
-0.165
 30
0.0
 40
0.01
  1

100
AcDbAttributeDefinition
280
     0
  3
Look-at X
  2
LAX
 70
     1
280
     0
  0
LINE
  5
7A
330
5F
100
AcDbEntity
  8
ASHADE
  6
Continuous
 62
     7
100
AcDbLine
 10
0.25
 20
-0.3399999999999999
 30
0.0
 11
0.25
 21
-0.13
 31
0.0
  0
LINE
  5
7B
330
5F
100
AcDbEntity
  8
ASHADE
  6
Continuous
 62
     7
100
AcDbLine
 10
0.25
 20
-0.18
 30
0.0
 11
0.29
 21
-0.18
 31
0.0
  0
LINE
  5
7C
330
5F
100
AcDbEntity
  8
ASHADE
  6
Continuous
 62
     7
100
AcDbLine
 10
0.29
 20
-0.22
 30
0.0
 11
0.25
 21
-0.22
 31
0.0
  0
LINE
  5
7D
330
5F
100
AcDbEntity
  8
ASHADE
  6
Continuous
 62
     7
100
AcDbLine
 10
0.29
 20
-0.18
 30
0.0
 11
0.29
 21
-0.22
 31
0.0
  0
LINE
  5
7E
330
5F
100
AcDbEntity
  8
ASHADE
  6
Continuous
 62
     7
100
AcDbLine
 10
0.21
 20
0.26
 30
0.0
 11
0.301304347826087
 21
0.46
 31
0.0
  0
LINE
  5
7F
330
5F
100
AcDbEntity
  8
ASHADE
  6
Continuous
 62
     7
100
AcDbLine
 10
0.1045454545454545
 20
0.26
 30
0.0
 11
0.15
 21
0.46
 31
0.0
  0
LINE
  5
80
330
5F
100
AcDbEntity
  8
ASHADE
  6
Continuous
 62
     7
100
AcDbLine
 10
0.0
 20
0.26
 30
0.0
 11
0.0
 21
0.46
 31
0.0
  0
LINE
  5
81
330
5F
100
AcDbEntity
  8
ASHADE
  6
Continuous
 62
     7
100
AcDbLine
 10
0.25
 20
0.13
 30
0.0
 11
0.25
 21
0.26
 31
0.0
  0
LINE
  5
82
330
5F
100
AcDbEntity
  8
ASHADE
  6
Continuous
 62
     7
100
AcDbLine
 10
0.25
 20
0.22
 30
0.0
 11
0.29
 21
0.22
 31
0.0
  0
LINE
  5
83
330
5F
100
AcDbEntity
  8
ASHADE
  6
Continuous
 62
     7
100
AcDbLine
 10
0.29
 20
0.1799999999999999
 30
0.0
 11
0.25
 21
0.1799999999999999
 31
0.0
  0
LINE
  5
84
330
5F
100
AcDbEntity
  8
ASHADE
  6
Continuous
 62
     7
100
AcDbLine
 10
0.29
 20
0.22
 30
0.0
 11
0.29
 21
0.1799999999999999
 31
0.0
  0
ENDBLK
  5
86
330
5F
100
AcDbEntity
  8
0
100
AcDbBlockEnd
  0
BLOCK
  5
92
330
91
100
AcDbEntity
  8
ASHADE
100
AcDbBlockBegin
  2
AVE_RENDER
 70
     0
 10
0.0
 20
0.0
 30
0.0
  3
AVE_RENDER
  1
AVE_RENDER
  0
ENDBLK
  5
93
330
91
100
AcDbEntity
  8
0
100
AcDbBlockEnd
  0
BLOCK
  5
A0
330
9F
100
AcDbEntity
  8
ASHADE
100
AcDbBlockBegin
  2
AVE_GLOBAL
 70
     0
 10
0.0
 20
0.0
 30
0.0
  3
AVE_GLOBAL
  1
AVE_GLOBAL
  0
ENDBLK
  5
A1
330
9F
100
AcDbEntity
  8
0
100
AcDbBlockEnd
  0
ENDSEC
  0
SECTION
  2
ENTITIES
  0
INSERT
  5
94
330
1F
100
AcDbEntity
  8
ASHADE
 62
     1
100
AcDbBlockReference
  2
AVE_RENDER
 10
0.0
 20
0.0
 30
0.0
1001
AVE_RENDER
1002
{
1070
     7
1000
Pref
1070
    30
1070
    20
1070
     1
1070
     0
1000

1070
    10
1070
     1
1070
    10
1040
1.0
1070
     1
1040
0.3
1040
0.7
1040
0.0
1040
10.0
1010
-1.0
1020
-1.0
1030
-1.0
1040
0.3
1070
    49
1070
     0
1070
     0
1010
1.0
1020
1.0
1030
1.0
1040
45.0
1070
     1
1070
     0
1000
WCS
1040
0.0
1070
     0
1040
10.0
1002
}
  0
INSERT
  5
95
330
1F
100
AcDbEntity
  8
ASHADE
 62
     3
100
AcDbBlockReference
  2
AVE_RENDER
 10
0.0
 20
0.0
 30
0.0
1001
AVE_RENDER
1002
{
1070
     0
1000
Full Opt
1070
     0
1070
     1
1070
     1
1070
     1
1070
     0
1070
     0
1070
     0
1070
     1
1070
     1
1040
0.0001
1040
0.0001
1002
}
  0
INSERT
  5
96
330
1F
100
AcDbEntity
  8
ASHADE
 62
     4
100
AcDbBlockReference
  2
AVE_RENDER
 10
0.0
 20
0.0
 30
0.0
1001
AVE_RENDER
1002
{
1070
     0
1000
Quick Opt
1070
     0
1070
     1
1070
     1
1070
     1
1070
     0
1070
     0
1070
     1
1002
}
  0
INSERT
  5
97
330
1F
100
AcDbEntity
  8
ASHADE
 62
     5
100
AcDbBlockReference
  2
AVE_RENDER
 10
0.0
 20
0.0
 30
0.0
1001
AVE_RENDER
1002
{
1070
     1
1000
Scanl Opt
1070
     2
1070
     0
1070
     2
1040
2.0
1040
4.0
1070
     0
1070
     1
1070
     0
1040
0.03
1002
}
  0
INSERT
  5
98
330
1F
100
AcDbEntity
  8
ASHADE
 62
     6
100
AcDbBlockReference
  2
AVE_RENDER
 10
0.0
 20
0.0
 30
0.0
1001
AVE_RENDER
1002
{
1070
     2
1000
Raytr Opt
1070
     2
1070
     0
1070
     2
1040
2.0
1040
4.0
1070
     0
1070
     1
1070
     1
1040
0.03
1070
     3
1040
0.03
1002
}
  0
INSERT
  5
99
330
1F
100
AcDbEntity
  8
ASHADE
 62
     7
100
AcDbBlockReference
  2
AVE_RENDER
 10
0.0
 20
0.0
 30
0.0
1001
AVE_RENDER
1002
{
1070
     0
1000
RFile Opt
1070
     1
1070
   640
1070
   480
1070
 10000
1070
     1
1070
     8
1070
     8
1070
     0
1070
     0
1070
     0
1070
     0
1070
     0
1070
     0
1070
     0
1002
}
  0
INSERT
  5
9A
330
1F
100
AcDbEntity
  8
ASHADE
 62
     8
100
AcDbBlockReference
  2
AVE_RENDER
 10
0.0
 20
0.0
 30
0.0
1001
AVE_RENDER
1002
{
1070
     0
1000
Fog Opt
1070
     0
1070
     0
1040
0.0
1040
1.0
1040
0.0
1040
1.0
1010
0.5
1020
0.5
1030
0.5
1002
}
  0
INSERT
  5
9B
330
1F
100
AcDbEntity
  8
ASHADE
 62
     9
100
AcDbBlockReference
  2
AVE_RENDER
 10
0.0
 20
0.0
 30
0.0
1001
AVE_RENDER
1002
{
1070
     0
1000
BG Opt
1070
     0
1070
     1
1010
0.0
1020
0.0
1030
0.0
1010
1.0
1020
0.0
1030
0.0
1010
0.0
1020
1.0
1030
0.0
1010
0.0
1020
0.0
1030
1.0
1040
0.5
1040
0.33
1040
0.0
1000

1070
     1
1000

1070
     1
1070
     1
1040
1.0
1040
1.0
1040
0.0
1040
0.0
1070
     0
1002
}
  0
INSERT
  5
A2
330
1F
100
AcDbEntity
  8
ASHADE
 62
     1
100
AcDbBlockReference
  2
AVE_GLOBAL
 10
0.0
 20
0.0
 30
0.0
1001
AVE_MATERIAL
1002
{
1000
*GLOBAL*
1000
2
1000
Global finish.
1002
{
1002
}
1002
{
1070
    63
1002
{
1002
{
1010
-1.0
1020
-1.0
1030
-1.0
1002
}
1040
0.1000000014901161
1000

1040
0.0
1002
{
1002
}
1040
0.0
1002
{
1002
}
1040
0.0
1002
}
1002
{
1002
{
1010
-1.0
1020
-1.0
1030
-1.0
1002
}
1040
0.6999999880790711
1000

1040
0.0
1002
{
1002
}
1040
0.0
1002
{
1002
}
1040
0.0
1002
}
1002
{
1002
{
1010
-1.0
1020
-1.0
1030
-1.0
1002
}
1040
0.2000000029802322
1000

1040
0.0
1002
{
1002
}
1040
0.0
1002
{
1002
}
1040
0.0
1002
}
1002
{
1070
     0
1002
{
1070
     1
1002
{
1040
1.0
1040
1.0
1000

1040
0.0
1002
{
1002
}
1040
0.0
1002
{
1002
}
1040
0.0
1002
}
1002
}
1040
1.0
1040
0.0
1040
0.0
1002
}
1002
{
1040
1.0
1040
1.0
1000

1040
0.0
1002
{
1002
}
1040
0.0
1002
{
1002
}
1040
0.0
1002
}
1002
{
1040
0.5
1040
1.0
1000

1040
0.0
1002
{
1002
}
1040
0.0
1002
{
1002
}
1040
0.0
1002
}
1002
{
1070
     0
1040
0.0
1002
{
1002
}
1040
1.0
1002
{
1002
}
1040
0.0
1002
}
1002
{
1040
0.0
1002
{
1002
{
1010
0.0
1020
0.0
1030
0.0
1002
}
1040
1.0
1000

1040
0.0
1002
{
1002
}
1040
0.0
1002
{
1002
}
1040
0.0
1002
}
1002
}
1002
{
1002
{
1070
     1
1002
{
1040
0.0
1040
1.0
1000

1040
0.0
1002
{
1002
}
1040
0.0
1002
{
1002
}
1040
0.0
1002
}
1002
}
1040
0.0
1002
{
1002
}
1010
1.0
1020
0.0
1030
0.0
1010
0.0
1020
1.0
1030
0.0
1010
0.0
1020
0.0
1030
1.0
1070
     0
1002
}
1002
{
1002
{
1040
1.0
1040
1.0
1002
{
1070
     1
1002
{
1040
1.0
1040
1.0
1000

1040
0.0
1002
{
1002
}
1040
0.0
1002
{
1002
}
1040
0.0
1002
}
1002
}
1002
}
1070
     0
1040
0.0
1002
{
1002
}
1002
}
1002
{
1002
}
1002
}
1002
{
1071
        3
1070
     3
1070
     0
1002
{
1070
     2
1070
     0
1070
     0
1040
0.0
1002
}
1070
     0
1070
     2
1002
{
1002
}
1002
}
1002
{
1040
8030.0
1040
190.3000030517578
1040
0.3050000071525574
1040
228.0
1040
545.0
1040
14.0
1040
17.39999961853027
1040
0.4560000002384186
1002
}
1002
}
  0
MESH
  5
F9
330
1F
100
AcDbEntity
  8
OracDecor_skirtings
 62
   156
420
   540042
160
             27656
310
086C0000000300000C00000013000000020000003C00000006000000020000000000002000408F400000000000601F3F000000C0838A47400000002000408F400000000000A01F3F00000000E88E48400C000000130000000A0000003C00000006000000020000000000002000408F4000000000E85FB0BF000000C03EAE48
310
400000002000408F400000000000A01F3F00000000E88E48400C00000013000000120000003C00000006000000020000000000002000408F4000000000F85FB0BF000000402D6B47400000002000408F4000000000E85FB0BF000000C03EAE48400C000000130000001A0000003C0000000600000002000000000000200040
310
8F400000000000601F3F000000C0838A47400000002000408F4000000000F85FB0BF000000402D6B47400C00000013000000220000003C00000006000000020000000000002000408F400000000000701F3F00000000004055400000002000408F400000000000901F3F000000A02FC452400C000000130000002A0000003C
310
00000006000000020000000000002000408F4000000040E0FF10C000000000004055400000002000408F400000000000701F3F00000000004055400C00000013000000320000003C00000006000000020000000000002000408F4000000080538611C000000040E3BE54400000002000408F4000000040E0FF10C000000000
310
004055400C000000130000003A0000003C00000006000000020000000000002000408F4000000080538611C000000040E3BE54400000002000408F400000000000901F3F000000A02FC452400C00000013000000420000003C00000006000000020000000000002000408F400000000000901F3F000000A02FC45240000000
310
2000408F40000000000C5EB3BF0000000041B352400C000000130000004A0000003C00000006000000020000000000002000408F40000000002ACA12C000000020E35254400000002000408F4000000080538611C000000040E3BE54400C00000013000000520000003C00000006000000020000000000002000408F400000
310
00002ACA12C000000020E35254400000002000408F40000000000C5EB3BF0000000041B352400C000000130000005A0000003C00000006000000020000000000002000408F40000000000C5EB3BF0000000041B352400000002000408F400000000092E9D1BF0000002073A752400C00000013000000620000003C00000006
310
000000020000000000002000408F400000000091B214C000000080C9F653400000002000408F40000000002ACA12C000000020E35254400C000000130000006A0000003C00000006000000020000000000002000408F400000000091B214C000000080C9F653400000002000408F400000000092E9D1BF0000002073A75240
310
0C00000013000000720000003C00000006000000020000000000002000408F400000000092E9D1BF0000002073A752400000002000408F4000000000E4CFE7BF000000E07C8F52400C000000130000007A0000003C00000006000000020000000000002000408F40000000C0686917C000000040CC9E53400000002000408F
310
400000000091B214C000000080C9F653400C00000013000000820000003C00000006000000020000000000002000408F40000000C0686917C000000040CC9E53400000002000408F4000000000E4CFE7BF000000E07C8F52400C000000130000008A0000003C00000006000000020000000000002000408F4000000080FE8D
310
EFBF00000060E77B52400000002000408F4000000000E4CFE7BF000000E07C8F52400C00000013000000920000003C00000006000000020000000000002000408F40000000601D531BC000000060674153400000002000408F40000000C0686917C000000040CC9E53400C000000130000009A0000003C0000000600000002
310
0000000000002000408F40000000601D531BC000000060674153400000002000408F4000000080FE8DEFBF00000060E77B52400C00000013000000A20000003C00000006000000020000000000002000408F4000000080FE8DEFBF00000060E77B52400000002000408F40000000401283F2BF00000020076552400C000000
310
13000000AA0000003C00000006000000020000000000002000408F40000000C0024A20C0000000A03CD952400000002000408F40000000601D531BC000000060674153400C00000013000000B20000003C00000006000000020000000000002000408F40000000C0024A20C0000000A03CD952400000002000408F40000000
310
401283F2BF00000020076552400C00000013000000BA0000003C00000006000000020000000000002000408F400000004075E4F3BF000000E0AD4C52400000002000408F40000000401283F2BF00000020076552400C00000013000000C20000003C00000006000000020000000000002000408F4000000040F9FE22C00000
310
00E0D86D52400000002000408F40000000C0024A20C0000000A03CD952400C00000013000000CA0000003C00000006000000020000000000002000408F4000000040F9FE22C0000000E0D86D52400000002000408F400000004075E4F3BF000000E0AD4C52400C00000013000000D20000003C000000060000000200000000
310
00002000408F400000004075E4F3BF000000E0AD4C52400000002000408F400000004075E4F3BF00000020523352400C00000013000000DA0000003C00000006000000020000000000002000408F4000000080630E25C000000040420B52400000002000408F4000000040F9FE22C0000000E0D86D52400C00000013000000
310
E20000003C00000006000000020000000000002000408F4000000080630E25C000000040420B52400000002000408F400000004075E4F3BF00000020523352400C00000013000000EA0000003C00000006000000020000000000002000408F40000000401283F2BF00000020F91A52400000002000408F400000004075E4F3
310
BF00000020523352400C00000013000000F20000003C00000006000000020000000000002000408F40000000C0247A26C00000006050AF51400000002000408F4000000080630E25C000000040420B52400C00000013000000FA0000003C00000006000000020000000000002000408F40000000C0247A26C00000006050AF
310
51400000002000408F40000000401283F2BF00000020F91A52400C00000013000000020100003C00000006000000020000000000002000408F40000000401283F2BF00000020F91A52400000002000408F4000000000FC8DEFBF000000A0180452400C000000130000000A0100003C00000006000000020000000000002000
310
408F40000000807C7327C0000000A02C5251400000002000408F40000000C0247A26C00000006050AF51400C00000013000000120100003C00000006000000020000000000002000408F40000000807C7327C0000000A02C5251400000002000408F4000000000FC8DEFBF000000A0180452400C000000130000001A010000
310
3C00000006000000020000000000002000408F4000000000E2CFE7BF0000006083F051400000002000408F4000000000FC8DEFBF000000A0180452400C00000013000000220100003C00000006000000020000000000002000408F40000000C08B1028C000000080EEEA50400000002000408F40000000807C7327C0000000
310
A02C5251400C000000130000002A0100003C00000006000000020000000000002000408F40000000C08B1028C000000080EEEA50400000002000408F4000000000E2CFE7BF0000006083F051400C00000013000000320100003C00000006000000020000000000002000408F4000000000E2CFE7BF0000006083F051400000
310
002000408F40000000008FE9D1BF000000208DD851400C000000130000003A0100003C00000006000000020000000000002000408F40000000C02D4A28C000000000007050400000002000408F40000000C08B1028C000000080EEEA50400C00000013000000420100003C00000006000000020000000000002000408F4000
310
0000C02D4A28C000000000007050400000002000408F40000000008FE9D1BF000000208DD851400C000000130000004A0100003C00000006000000020000000000002000408F400000000000701F3F000000C0D1BD4F400000002000408F400000000088ECA7BF00000080C5A24F400C00000013000000520100003C000000
310
06000000020000000000002000408F400000000000A01F3F000000A0D0BB51400000002000408F400000000000701F3F000000C0D1BD4F400C000000130000005A0100003C00000006000000020000000000002000408F4000000000F85DB3BF00000000BFCC51400000002000408F400000000000A01F3F000000A0D0BB51
310
400C00000013000000620100003C00000006000000020000000000002000408F4000000000F85DB3BF00000000BFCC51400000002000408F400000000088ECA7BF00000080C5A24F400C000000130000006A0100003C00000006000000020000000000002000408F400000000088ECA7BF00000080C5A24F40000000200040
310
8F4000000000A0D8C6BF00000040CB8C4F400C00000013000000720100003C00000006000000020000000000002000408F40000000008FE9D1BF000000208DD851400000002000408F4000000000F85DB3BF00000000BFCC51400C000000130000007A0100003C00000006000000020000000000002000408F40000000C02D
310
4A28C000000000007050400000002000408F4000000000A0D8C6BF00000040CB8C4F400C00000013000000820100003C00000006000000020000000000002000408F4000000000A0D8C6BF00000040CB8C4F400000002000408F4000000000C8B5D7BF0000000000804F400C000000130000008A0100003C00000006000000
310
020000000000002000408F40000000C0535B28C000000000006850400000002000408F40000000C02D4A28C000000000007050400C00000013000000920100003C00000006000000020000000000002000408F40000000C0535B28C000000000006850400000002000408F4000000000C8B5D7BF0000000000804F400C0000
310
00130000009A0100003C00000006000000020000000000002000408F4000000000C8B5D7BF0000000000804F400000002000408F4000000000F01112C000000040C4F14E400C00000013000000A20100003C00000006000000020000000000002000408F40000000C02D8A28C0000000C0246250400000002000408F400000
310
00C0535B28C000000000006850400C00000013000000AA0100003C00000006000000020000000000002000408F40000000C02D8A28C0000000C0246250400000002000408F4000000000F01112C000000040C4F14E400C00000013000000B20100003C00000006000000020000000000002000408F4000000000F01112C000
310
000040C4F14E400000002000408F4000000080532415C00000004098BE4E400C00000013000000BA0100003C00000006000000020000000000002000408F40000000C02DCA28C000000000006050400000002000408F40000000C02D8A28C0000000C0246250400C00000013000000C20100003C0000000600000002000000
310
0000002000408F40000000C02DCA28C000000000006050400000002000408F4000000080532415C00000004098BE4E400C00000013000000CA0100003C00000006000000020000000000002000408F4000000080532415C00000004098BE4E400000002000408F4000000080FB3F17C000000040AF664E400C000000130000
310
00D20100003C00000006000000020000000000002000408F4000000000F0FF2AC000000000006050400000002000408F40000000C02DCA28C000000000006050400C00000013000000DA0100003C00000006000000020000000000002000408F4000000000F0FF2AC000000000006050400000002000408F4000000080FB3F
310
17C000000040AF664E400C00000013000000E20100003C00000006000000020000000000002000408F4000000080E07F2BC0000000E0B65B50400000002000408F4000000000F0FF2AC000000000006050400C00000013000000EA0100003C00000006000000020000000000002000408F4000000080E07F2BC0000000E0B6
310
5B50400000002000408F4000000080FB3F17C000000040AF664E400C00000013000000F20100003C00000006000000020000000000002000408F4000000080FB3F17C000000040AF664E400000002000408F4000000040E0FF17C0000000407DFA4D400C00000013000000FA0100003C000000060000000200000000000020
310
00408F4000000080A7DD2BC000000020FE4F50400000002000408F4000000080E07F2BC0000000E0B65B50400C00000013000000020200003C00000006000000020000000000002000408F4000000080A7DD2BC000000020FE4F50400000002000408F4000000040E0FF17C0000000407DFA4D400C000000130000000A0200
310
003C00000006000000020000000000002000408F4000000000F0FF2BC000000000004050400000002000408F4000000080A7DD2BC000000020FE4F50400C00000013000000120200003C00000006000000020000000000002000408F4000000000F0FF2BC000000000004050400000002000408F4000000040E0FF17C00000
310
00407DFA4D400C000000130000001A0200003C00000006000000020000000000002000408F40000000C09C2314C00000004037E348400000002000408F400000000023E0DEBF00000000DECE48400C00000013000000220200003C00000006000000020000000000002000408F40000000009D2314C0000000803436474000
310
00002000408F40000000C09C2314C00000004037E348400C000000130000002A0200003C00000006000000020000000000002000408F400000000026E0DEBF000000C08D4A47400000002000408F40000000009D2314C000000080343647400C00000013000000320200003C00000006000000020000000000002000408F40
310
0000000026E0DEBF000000C08D4A47400000002000408F400000000023E0DEBF00000000DECE48400C000000130000003A0200003C00000006000000020000000000002000408F400000000023E0DEBF00000000DECE48400000002000408F4000000000CEB7CEBF000000C093C548400C00000013000000420200003C0000
310
0006000000020000000000002000408F4000000000D4B7CEBF00000040D85347400000002000408F400000000026E0DEBF000000C08D4A47400C000000130000004A0200003C00000006000000020000000000002000408F4000000000D4B7CEBF00000040D85347400000002000408F4000000000CEB7CEBF000000C093C5
310
48400C00000013000000520200003C00000006000000020000000000002000408F4000000000CEB7CEBF000000C093C548400000002000408F4000000000E85FB0BF000000C03EAE48400C000000130000005A0200003C00000006000000020000000000002000408F4000000000F85FB0BF000000402D6B47400000002000
310
408F4000000000D4B7CEBF00000040D85347400C00000013000000620200003C00000006000000020000000000002000408F40000000C0371416C000000040CBF548400000002000408F40000000C09C2314C00000004037E348400C000000130000006A0200003C00000006000000020000000000002000408F40000000C0
310
371416C000000080A02347400000002000408F40000000C0371416C000000040CBF548400C00000013000000720200003C00000006000000020000000000002000408F40000000009D2314C000000080343647400000002000408F40000000C0371416C000000080A02347400C000000130000007A0200003C000000060000
310
00020000000000002000408F4000000000AC7C17C0000000C0732449400000002000408F40000000C0371416C000000040CBF548400C00000013000000820200003C00000006000000020000000000002000408F4000000000AC7C17C000000040F8F446400000002000408F4000000000AC7C17C0000000C0732449400C00
310
0000130000008A0200003C00000006000000020000000000002000408F40000000C0371416C000000080A02347400000002000408F4000000000AC7C17C000000040F8F446400C00000013000000920200003C00000006000000020000000000002000408F4000000040E0FF17C000000040236349400000002000408F4000
310
000000AC7C17C0000000C0732449400C000000130000009A0200003C00000006000000020000000000002000408F4000000040E0FF17C00000008048B646400000002000408F4000000040E0FF17C000000040236349400C00000013000000A20200003C00000006000000020000000000002000408F4000000000AC7C17C0
310
00000040F8F446400000002000408F4000000040E0FF17C00000008048B646400C00000013000000AA0200003C00000006000000020000000000002000408F4000000000F0FF2BC000000000004050400000002000408F4000000040E0FF17C000000040236349400C00000013000000B20200003C00000006000000020000
310
000000002000408F4000000040E0FF17C00000008048B646400000002000408F4000000000F0FF2BC000000000004050400C00000013000000BA0200003C00000006000000020000000000002000408F4000000040E0FF17C0000000407DFA4D400000002000408F4000000040E0FF17C000000040236349400C0000001300
310
0000C20200003C00000006000000020000000000002000408F4000000040F0FF2BC0000000000000D03E0000002000408F4000000000F0FF2BC000000000004050400C00000013000000CA0200003C00000006000000020000000000002000408F4000000040E0FF17C0000000A0F67030400000002000408F4000000040F0
310
FF2BC0000000000000D03E0C00000013000000D20200003C00000006000000020000000000002000408F4000000040E0FF17C00000008048B646400000002000408F4000000040E0FF17C0000000A0F67030400C00000013000000DA0200003C00000006000000020000000000002000408F400000000000E01F3F00000040
310
7B2128400000002000408F4000000000E85DB3BF00000000089A27400C00000013000000E20200003C00000006000000020000000000002000408F400000000000A01F3F000000406B152D400000002000408F400000000000E01F3F000000407B2128400C00000013000000EA0200003C0000000600000002000000000000
310
2000408F40000000007098AEBF00000040DD8E2D400000002000408F400000000000A01F3F000000406B152D400C00000013000000F20200003C00000006000000020000000000002000408F40000000007098AEBF00000040DD8E2D400000002000408F4000000000E85DB3BF00000000089A27400C00000013000000FA02
310
00003C00000006000000020000000000002000408F4000000000E85DB3BF00000000089A27400000002000408F40000000008BE9D1BF00000000983B27400C00000013000000020300003C00000006000000020000000000002000408F40000000002AD4CCBF0000004052EB2D400000002000408F40000000007098AEBF00
310
000040DD8E2D400C000000130000000A0300003C00000006000000020000000000002000408F40000000002AD4CCBF0000004052EB2D400000002000408F40000000008BE9D1BF00000000983B27400C00000013000000120300003C00000006000000020000000000002000408F40000000008BE9D1BF00000000983B2740
310
0000002000408F4000000080E2CFE7BF00000000E67B26400C000000130000001A0300003C00000006000000020000000000002000408F40000000000934DDBF0000004072142E400000002000408F40000000002AD4CCBF0000004052EB2D400C00000013000000220300003C00000006000000020000000000002000408F
310
40000000000934DDBF0000004072142E400000002000408F4000000080E2CFE7BF00000000E67B26400C000000130000002A0300003C00000006000000020000000000002000408F40000000C01F5914C000000000403812400000002000408F40000000C075E4F3BF00000000909A23400C00000013000000320300003C00
310
000006000000020000000000002000408F40000000C075E4F3BF00000000706524400000002000408F40000000C075E4F3BF00000000909A23400C000000130000003A0300003C00000006000000020000000000002000408F40000000C01F5914C000000040E0E32E400000002000408F40000000C075E4F3BF0000000070
310
6524400C00000013000000420300003C00000006000000020000000000002000408F40000000C01F5914C000000040E0E32E400000002000408F40000000C01F5914C000000000403812400C000000130000004A0300003C00000006000000020000000000002000408F40000000C01F5914C0000000004038124000000020
310
00408F40000000C0A03216C000000000A19311400C00000013000000520300003C00000006000000020000000000002000408F4000000000A13216C00000004030362F400000002000408F40000000C01F5914C000000040E0E32E400C000000130000005A0300003C00000006000000020000000000002000408F40000000
310
00A13216C00000004030362F400000002000408F40000000C0A03216C000000000A19311400C00000013000000620300003C00000006000000020000000000002000408F40000000C0A03216C000000000A19311400000002000408F4000000000258517C000000000332210400C000000130000006A0300003C0000000600
310
0000020000000000002000408F4000000000258517C000000040E7EE2F400000002000408F4000000000A13216C00000004030362F400C00000013000000720300003C00000006000000020000000000002000408F4000000000258517C000000040E7EE2F400000002000408F4000000000258517C000000000332210400C
310
000000130000007A0300003C00000006000000020000000000002000408F4000000000258517C000000000332210400000002000408F4000000040E0FF17C0000000004E780C400C00000013000000820300003C00000006000000020000000000002000408F4000000040E0FF17C0000000A0F67030400000002000408F40
310
00000000258517C000000040E7EE2F400C000000130000008A0300003C00000006000000020000000000002000408F4000000040E0FF17C0000000A0F67030400000002000408F4000000040E0FF17C0000000004E780C400C00000013000000920300003C00000006000000020000000000002000408F4000000040E0FF17
310
C0000000000800E03F0000002000408F4000000040F0FF2BC0000000000000D03E0C000000130000009A0300003C00000006000000020000000000002000408F4000000040E0FF17C0000000004E780C400000002000408F4000000040E0FF17C0000000000800E03F0C00000013000000A20300003C000000060000000200
310
00000000002000408F4000000040E0FF17C0000000004E780C400000002000408F4000000040F0FF2BC0000000000000D03E0C00000013000000AA0300003C00000006000000020000000000002000408F4000000060E0FF19C0000000000000D03E0000002000408F4000000040F0FF2BC0000000000000D03E0C00000013
310
000000B20300003C00000006000000020000000000002000408F4000000060000019C000000000C024B13F0000002000408F4000000060E0FF19C0000000000000D03E0C00000013000000BA0300003C00000006000000020000000000002000408F4000000060000019C000000000C024B13F0000002000408F4000000040
310
F0FF2BC0000000000000D03E0C00000013000000C20300003C00000006000000020000000000002000408F40000000C0714418C0000000001002D03F0000002000408F4000000060000019C000000000C024B13F0C00000013000000CA0300003C00000006000000020000000000002000408F40000000C0714418C0000000
310
001002D03F0000002000408F4000000040F0FF2BC0000000000000D03E0C00000013000000D20300003C00000006000000020000000000002000408F4000000040E0FF17C0000000000800E03F0000002000408F40000000C0714418C0000000001002D03F0C00000013000000DA0300003C00000006000000020000000000
310
002000408F400000000000A01F3F000000002AD515400000002000408F40000000007098AEBF0000000046E214400C00000013000000E20300003C00000006000000020000000000002000408F400000000000901F3F000000000ABD1F400000002000408F400000000000A01F3F000000002AD515400C00000013000000EA
310
0300003C00000006000000020000000000002000408F4000000000FC5DB3BF00000000F86520400000002000408F400000000000901F3F000000000ABD1F400C00000013000000F20300003C00000006000000020000000000002000408F4000000000FC5DB3BF00000000F86520400000002000408F40000000007098AEBF
310
0000000046E214400C00000013000000FA0300003C00000006000000020000000000002000408F40000000007098AEBF0000000046E214400000002000408F40000000002ED4CCBF000000005C2914400C00000013000000020400003C00000006000000020000000000002000408F400000000091E9D1BF0000000068C420
310
400000002000408F4000000000FC5DB3BF00000000F86520400C000000130000000A0400003C00000006000000020000000000002000408F400000000091E9D1BF0000000068C420400000002000408F40000000002ED4CCBF000000005C2914400C00000013000000120400003C0000000600000002000000000000200040
310
8F40000000002ED4CCBF000000005C2914400000002000408F40000000000B34DDBF000000001CD713400C000000130000001A0400003C00000006000000020000000000002000408F4000000000E3CFE7BF000000001A8421400000002000408F400000000091E9D1BF0000000068C420400C00000013000000220400003C
310
00000006000000020000000000002000408F4000000000E3CFE7BF000000001A8421400000002000408F40000000000B34DDBF000000001CD713400C000000130000002A0400003C00000006000000020000000000002000408F40000000000B34DDBF000000001CD713400000002000408F40000000C01F5914C000000000
310
403812400C00000013000000320400003C00000006000000020000000000002000408F4000000000E3CFE7BF000000001A8421400000002000408F4000000000FE8DEFBF00000000C52022400C000000130000003A0400003C00000006000000020000000000002000408F40000000C01F5914C00000000040381240000000
310
2000408F4000000000FE8DEFBF00000000C52022400C00000013000000420400003C00000006000000020000000000002000408F40000000801283F2BF00000000C8D722400000002000408F4000000000FE8DEFBF00000000C52022400C000000130000004A0400003C00000006000000020000000000002000408F400000
310
00801283F2BF00000000C8D722400000002000408F40000000C01F5914C000000000403812400C00000013000000520400003C00000006000000020000000000002000408F40000000801283F2BF00000000C8D722400000002000408F40000000C075E4F3BF00000000909A23400C000000130000005A0400003C00000006
310
000000020000000000002000408F40000000C075E4F3BF00000000706524400000002000408F40000000401283F2BF00000000382825400C00000013000000620400003C00000006000000020000000000002000408F40000000C01F5914C000000040E0E32E400000002000408F40000000401283F2BF0000000038282540
310
0C000000130000006A0400003C00000006000000020000000000002000408F4000000080FE8DEFBF000000003BDF25400000002000408F40000000401283F2BF00000000382825400C00000013000000720400003C00000006000000020000000000002000408F40000000C01F5914C000000040E0E32E400000002000408F
310
4000000080FE8DEFBF000000003BDF25400C000000130000007A0400003C00000006000000020000000000002000408F4000000080FE8DEFBF000000003BDF25400000002000408F4000000080E2CFE7BF00000000E67B26400C00000013000000820400003C00000006000000020000000000002000408F40000000C01F59
310
14C000000040E0E32E400000002000408F40000000000934DDBF0000004072142E400C000000130000008A0400003C00000006000000020000000000002000408F4000000040F0FF2BC0000000000000D03E000000E0FF3F8FC000000000EEFF2BC0000000000000D03E0C00000013000000920400003C0000000600000002
310
000000000000E0FF3F8FC000000060DBFF19C0000000000000D03E000000E0FF3F8FC000000000EEFF2BC0000000000000D03E0C000000130000009A0400003C00000006000000020000000000002000408F4000000060E0FF19C0000000000000D03E000000E0FF3F8FC000000060DBFF19C0000000000000D03E0C000000
310
13000000A20400003C00000006000000020000000000002000408F4000000000F0FF2BC00000000000405040000000E0FF3F8FC000000000EEFF2BC000000000004050400C00000013000000AA0400003C0000000600000002000000000000E0FF3F8FC000000000EEFF2BC00000000000405040000000E0FF3F8FC0000000
310
00EEFF2BC0000000000000D03E0C00000013000000B20400003C00000006000000020000000000002000408F4000000080A7DD2BC000000020FE4F5040000000E0FF3F8FC000000000A5DD2BC000000020FE4F50400C00000013000000BA0400003C0000000600000002000000000000E0FF3F8FC000000000A5DD2BC00000
310
0020FE4F5040000000E0FF3F8FC000000000EEFF2BC000000000004050400C00000013000000C20400003C00000006000000020000000000002000408F4000000080E07F2BC0000000E0B65B5040000000E0FF3F8FC000000080DE7F2BC0000000E0B65B50400C00000013000000CA0400003C000000060000000200000000
310
0000E0FF3F8FC000000080DE7F2BC0000000E0B65B5040000000E0FF3F8FC000000000A5DD2BC000000020FE4F50400C00000013000000D20400003C00000006000000020000000000002000408F4000000000F0FF2AC00000000000605040000000E0FF3F8FC000000000EEFF2AC000000000006050400C00000013000000
310
DA0400003C0000000600000002000000000000E0FF3F8FC000000080DE7F2BC0000000E0B65B5040000000E0FF3F8FC000000000EEFF2AC000000000006050400C00000013000000E20400003C00000006000000020000000000002000408F40000000C02DCA28C00000000000605040000000E0FF3F8FC0000000402BCA28
310
C000000000006050400C00000013000000EA0400003C0000000600000002000000000000E0FF3F8FC0000000402BCA28C00000000000605040000000E0FF3F8FC000000000EEFF2AC000000000006050400C00000013000000F20400003C00000006000000020000000000002000408F40000000C02D8A28C0000000C02462
310
5040000000E0FF3F8FC0000000402B8A28C0000000C0246250400C00000013000000FA0400003C0000000600000002000000000000E0FF3F8FC0000000402B8A28C0000000C024625040000000E0FF3F8FC0000000402BCA28C000000000006050400C00000013000000020500003C00000006000000020000000000002000
310
408F40000000C0535B28C00000000000685040000000E0FF3F8FC000000040515B28C000000000006850400C000000130000000A0500003C0000000600000002000000000000E0FF3F8FC000000040515B28C00000000000685040000000E0FF3F8FC0000000402B8A28C0000000C0246250400C0000001300000012050000
310
3C00000006000000020000000000002000408F40000000C02D4A28C00000000000705040000000E0FF3F8FC0000000402B4A28C000000000007050400C000000130000001A0500003C0000000600000002000000000000E0FF3F8FC0000000402B4A28C00000000000705040000000E0FF3F8FC000000040515B28C0000000
310
00006850400C00000013000000220500003C00000006000000020000000000002000408F40000000C08B1028C000000080EEEA5040000000E0FF3F8FC000000040891028C000000080EEEA50400C000000130000002A0500003C0000000600000002000000000000E0FF3F8FC0000000402B4A28C000000000007050400000
310
00E0FF3F8FC000000040891028C000000080EEEA50400C00000013000000320500003C00000006000000020000000000002000408F40000000807C7327C0000000A02C525140000000E0FF3F8FC0000000007A7327C0000000A02C5251400C000000130000003A0500003C0000000600000002000000000000E0FF3F8FC000
310
0000007A7327C0000000A02C525140000000E0FF3F8FC000000040891028C000000080EEEA50400C00000013000000420500003C00000006000000020000000000002000408F40000000C0247A26C00000006050AF5140000000E0FF3F8FC000000040227A26C00000006050AF51400C000000130000004A0500003C000000
310
0600000002000000000000E0FF3F8FC000000040227A26C00000006050AF5140000000E0FF3F8FC0000000007A7327C0000000A02C5251400C00000013000000520500003C00000006000000020000000000002000408F4000000080630E25C000000040420B5240000000E0FF3F8FC000000000610E25C000000040420B52
310
400C000000130000005A0500003C0000000600000002000000000000E0FF3F8FC000000000610E25C000000040420B5240000000E0FF3F8FC000000040227A26C00000006050AF51400C00000013000000620500003C00000006000000020000000000002000408F4000000040F9FE22C0000000E0D86D5240000000E0FF3F
310
8FC0000000C0F6FE22C0000000E0D86D52400C000000130000006A0500003C0000000600000002000000000000E0FF3F8FC0000000C0F6FE22C0000000E0D86D5240000000E0FF3F8FC000000000610E25C000000040420B52400C00000013000000720500003C00000006000000020000000000002000408F40000000C002
310
4A20C0000000A03CD95240000000E0FF3F8FC000000000004A20C0000000A03CD952400C000000130000007A0500003C0000000600000002000000000000E0FF3F8FC000000000004A20C0000000A03CD95240000000E0FF3F8FC0000000C0F6FE22C0000000E0D86D52400C00000013000000820500003C00000006000000
310
020000000000002000408F40000000601D531BC00000006067415340000000E0FF3F8FC00000006018531BC000000060674153400C000000130000008A0500003C0000000600000002000000000000E0FF3F8FC00000006018531BC00000006067415340000000E0FF3F8FC000000000004A20C0000000A03CD952400C0000
310
0013000000920500003C00000006000000020000000000002000408F40000000C0686917C000000040CC9E5340000000E0FF3F8FC0000000C0636917C000000040CC9E53400C000000130000009A0500003C0000000600000002000000000000E0FF3F8FC0000000C0636917C000000040CC9E5340000000E0FF3F8FC00000
310
006018531BC000000060674153400C00000013000000A20500003C00000006000000020000000000002000408F400000000091B214C000000080C9F65340000000E0FF3F8FC0000000008CB214C000000080C9F653400C00000013000000AA0500003C0000000600000002000000000000E0FF3F8FC0000000C0636917C000
310
000040CC9E5340000000E0FF3F8FC0000000008CB214C000000080C9F653400C00000013000000B20500003C00000006000000020000000000002000408F40000000002ACA12C000000020E3525440000000E0FF3F8FC00000006025CA12C000000020E35254400C00000013000000BA0500003C0000000600000002000000
310
000000E0FF3F8FC00000006025CA12C000000020E3525440000000E0FF3F8FC0000000008CB214C000000080C9F653400C00000013000000C20500003C00000006000000020000000000002000408F4000000080538611C000000040E3BE5440000000E0FF3F8FC0000000C04E8611C000000040E3BE54400C000000130000
310
00CA0500003C0000000600000002000000000000E0FF3F8FC0000000C04E8611C000000040E3BE5440000000E0FF3F8FC00000006025CA12C000000020E35254400C00000013000000D20500003C00000006000000020000000000002000408F4000000040E0FF10C00000000000405540000000E0FF3F8FC000000040DBFF
310
10C000000000004055400C00000013000000DA0500003C0000000600000002000000000000E0FF3F8FC000000040DBFF10C00000000000405540000000E0FF3F8FC0000000C04E8611C000000040E3BE54400C00000013000000E20500003C00000006000000020000000000002000408F400000000000701F3F0000000000
310
405540000000E0FF3F8FC0000000000058223F00000000004055400C00000013000000EA0500003C0000000600000002000000000000E0FF3F8FC0000000000058223F0000000000405540000000E0FF3F8FC000000040DBFF10C000000000004055400C00000013000000F20500003C000000060000000200000000000020
310
00408F400000000000901F3F000000A02FC45240000000E0FF3F8FC0000000000048223F000000A02FC452400C00000013000000FA0500003C0000000600000002000000000000E0FF3F8FC0000000000058223F0000000000405540000000E0FF3F8FC0000000000048223F000000A02FC452400C00000013000000020600
310
003C00000006000000020000000000002000408F40000000000C5EB3BF0000000041B35240000000E0FF3F8FC000000000BC5CB3BF0000000041B352400C000000130000000A0600003C0000000600000002000000000000E0FF3F8FC000000000BC5CB3BF0000000041B35240000000E0FF3F8FC0000000000048223F0000
310
00A02FC452400C00000013000000120600003C00000006000000020000000000002000408F400000000092E9D1BF0000002073A75240000000E0FF3F8FC0000000003BE9D1BF0000002073A752400C000000130000001A0600003C0000000600000002000000000000E0FF3F8FC000000000BC5CB3BF0000000041B3524000
310
0000E0FF3F8FC0000000003BE9D1BF0000002073A752400C00000013000000220600003C00000006000000020000000000002000408F4000000000E4CFE7BF000000E07C8F5240000000E0FF3F8FC000000080BACFE7BF000000E07C8F52400C000000130000002A0600003C0000000600000002000000000000E0FF3F8FC0
310
000000003BE9D1BF0000002073A75240000000E0FF3F8FC000000080BACFE7BF000000E07C8F52400C00000013000000320600003C00000006000000020000000000002000408F4000000080FE8DEFBF00000060E77B5240000000E0FF3F8FC000000080D48DEFBF00000060E77B52400C000000130000003A0600003C0000
310
000600000002000000000000E0FF3F8FC000000080BACFE7BF000000E07C8F5240000000E0FF3F8FC000000080D48DEFBF00000060E77B52400C00000013000000420600003C00000006000000020000000000002000408F40000000401283F2BF0000002007655240000000E0FF3F8FC000000040FE82F2BF000000200765
310
52400C000000130000004A0600003C0000000600000002000000000000E0FF3F8FC000000040FE82F2BF0000002007655240000000E0FF3F8FC000000080D48DEFBF00000060E77B52400C00000013000000520600003C00000006000000020000000000002000408F400000004075E4F3BF000000E0AD4C5240000000E0FF
310
3F8FC00000004061E4F3BF000000E0AD4C52400C000000130000005A0600003C0000000600000002000000000000E0FF3F8FC000000040FE82F2BF0000002007655240000000E0FF3F8FC00000004061E4F3BF000000E0AD4C52400C00000013000000620600003C00000006000000020000000000002000408F4000000040
310
75E4F3BF0000002052335240000000E0FF3F8FC00000004061E4F3BF00000020523352400C000000130000006A0600003C0000000600000002000000000000E0FF3F8FC00000004061E4F3BF000000E0AD4C5240000000E0FF3F8FC00000004061E4F3BF00000020523352400C00000013000000720600003C000000060000
310
00020000000000002000408F40000000401283F2BF00000020F91A5240000000E0FF3F8FC000000040FE82F2BF00000020F91A52400C000000130000007A0600003C0000000600000002000000000000E0FF3F8FC000000040FE82F2BF00000020F91A5240000000E0FF3F8FC00000004061E4F3BF00000020523352400C00
310
000013000000820600003C00000006000000020000000000002000408F4000000000FC8DEFBF000000A018045240000000E0FF3F8FC000000080D38DEFBF000000A0180452400C000000130000008A0600003C0000000600000002000000000000E0FF3F8FC000000040FE82F2BF00000020F91A5240000000E0FF3F8FC000
310
000080D38DEFBF000000A0180452400C00000013000000920600003C00000006000000020000000000002000408F4000000000E2CFE7BF0000006083F05140000000E0FF3F8FC000000080B9CFE7BF0000006083F051400C000000130000009A0600003C0000000600000002000000000000E0FF3F8FC000000080D38DEFBF
310
000000A018045240000000E0FF3F8FC000000080B9CFE7BF0000006083F051400C00000013000000A20600003C00000006000000020000000000002000408F40000000008FE9D1BF000000208DD85140000000E0FF3F8FC0000000003AE9D1BF000000208DD851400C00000013000000AA0600003C00000006000000020000
310
00000000E0FF3F8FC000000080B9CFE7BF0000006083F05140000000E0FF3F8FC0000000003AE9D1BF000000208DD851400C00000013000000B20600003C00000006000000020000000000002000408F4000000000F85DB3BF00000000BFCC5140000000E0FF3F8FC000000000B85CB3BF00000000BFCC51400C0000001300
310
0000BA0600003C0000000600000002000000000000E0FF3F8FC000000000B85CB3BF00000000BFCC5140000000E0FF3F8FC0000000003AE9D1BF000000208DD851400C00000013000000C20600003C00000006000000020000000000002000408F400000000000A01F3F000000A0D0BB5140000000E0FF3F8FC00000000000
310
50223F000000A0D0BB51400C00000013000000CA0600003C0000000600000002000000000000E0FF3F8FC0000000000050223F000000A0D0BB5140000000E0FF3F8FC000000000B85CB3BF00000000BFCC51400C00000013000000D20600003C00000006000000020000000000002000408F400000000000701F3F000000C0
310
D1BD4F40000000E0FF3F8FC0000000000058223F000000C0D1BD4F400C00000013000000DA0600003C0000000600000002000000000000E0FF3F8FC0000000000050223F000000A0D0BB5140000000E0FF3F8FC0000000000058223F000000C0D1BD4F400C00000013000000E20600003C0000000600000002000000000000
310
2000408F400000000088ECA7BF00000080C5A24F40000000E0FF3F8FC000000000E8E9A7BF00000080C5A24F400C00000013000000EA0600003C0000000600000002000000000000E0FF3F8FC000000000E8E9A7BF00000080C5A24F40000000E0FF3F8FC0000000000058223F000000C0D1BD4F400C00000013000000F206
310
00003C00000006000000020000000000002000408F4000000000A0D8C6BF00000040CB8C4F40000000E0FF3F8FC000000000FAD7C6BF00000040CB8C4F400C00000013000000FA0600003C0000000600000002000000000000E0FF3F8FC000000000E8E9A7BF00000080C5A24F40000000E0FF3F8FC000000000FAD7C6BF00
310
000040CB8C4F400C00000013000000020700003C00000006000000020000000000002000408F4000000000C8B5D7BF0000000000804F40000000E0FF3F8FC00000000075B5D7BF0000000000804F400C000000130000000A0700003C0000000600000002000000000000E0FF3F8FC000000000FAD7C6BF00000040CB8C4F40
310
000000E0FF3F8FC00000000075B5D7BF0000000000804F400C00000013000000120700003C00000006000000020000000000002000408F4000000000F01112C000000040C4F14E40000000E0FF3F8FC000000000EB1112C000000040C4F14E400C000000130000001A0700003C0000000600000002000000000000E0FF3F8F
310
C00000000075B5D7BF0000000000804F40000000E0FF3F8FC000000000EB1112C000000040C4F14E400C00000013000000220700003C00000006000000020000000000002000408F4000000080532415C00000004098BE4E40000000E0FF3F8FC0000000804E2415C00000004098BE4E400C000000130000002A0700003C00
310
00000600000002000000000000E0FF3F8FC0000000804E2415C00000004098BE4E40000000E0FF3F8FC000000000EB1112C000000040C4F14E400C00000013000000320700003C00000006000000020000000000002000408F4000000080FB3F17C000000040AF664E40000000E0FF3F8FC000000080F63F17C000000040AF
310
664E400C000000130000003A0700003C0000000600000002000000000000E0FF3F8FC0000000804E2415C00000004098BE4E40000000E0FF3F8FC000000080F63F17C000000040AF664E400C00000013000000420700003C00000006000000020000000000002000408F4000000040E0FF17C0000000407DFA4D40000000E0
310
FF3F8FC000000040DBFF17C0000000407DFA4D400C000000130000004A0700003C0000000600000002000000000000E0FF3F8FC000000080F63F17C000000040AF664E40000000E0FF3F8FC000000040DBFF17C0000000407DFA4D400C00000013000000520700003C00000006000000020000000000002000408F40000000
310
40E0FF17C00000004023634940000000E0FF3F8FC000000040DBFF17C000000040236349400C000000130000005A0700003C0000000600000002000000000000E0FF3F8FC000000040DBFF17C0000000407DFA4D40000000E0FF3F8FC000000040DBFF17C000000040236349400C00000013000000620700003C0000000600
310
0000020000000000002000408F4000000000AC7C17C0000000C073244940000000E0FF3F8FC000000000A77C17C0000000C0732449400C000000130000006A0700003C0000000600000002000000000000E0FF3F8FC000000000A77C17C0000000C073244940000000E0FF3F8FC000000040DBFF17C000000040236349400C
310
00000013000000720700003C00000006000000020000000000002000408F40000000C0371416C000000040CBF54840000000E0FF3F8FC0000000C0321416C000000040CBF548400C000000130000007A0700003C0000000600000002000000000000E0FF3F8FC0000000C0321416C000000040CBF54840000000E0FF3F8FC0
310
00000000A77C17C0000000C0732449400C00000013000000820700003C00000006000000020000000000002000408F40000000C09C2314C00000004037E34840000000E0FF3F8FC0000000C0972314C00000004037E348400C000000130000008A0700003C0000000600000002000000000000E0FF3F8FC0000000C0972314
310
C00000004037E34840000000E0FF3F8FC0000000C0321416C000000040CBF548400C00000013000000920700003C00000006000000020000000000002000408F400000000023E0DEBF00000000DECE4840000000E0FF3F8FC000000000CEDFDEBF00000000DECE48400C000000130000009A0700003C000000060000000200
310
0000000000E0FF3F8FC0000000C0972314C00000004037E34840000000E0FF3F8FC000000000CEDFDEBF00000000DECE48400C00000013000000A20700003C00000006000000020000000000002000408F4000000000CEB7CEBF000000C093C54840000000E0FF3F8FC0000000002CB7CEBF000000C093C548400C00000013
310
000000AA0700003C0000000600000002000000000000E0FF3F8FC000000000CEDFDEBF00000000DECE4840000000E0FF3F8FC0000000002CB7CEBF000000C093C548400C00000013000000B20700003C00000006000000020000000000002000408F4000000000E85FB0BF000000C03EAE4840000000E0FF3F8FC000000000
310
A85EB0BF000000C03EAE48400C00000013000000BA0700003C0000000600000002000000000000E0FF3F8FC000000000A85EB0BF000000C03EAE4840000000E0FF3F8FC0000000002CB7CEBF000000C093C548400C00000013000000C20700003C00000006000000020000000000002000408F400000000000A01F3F000000
310
00E88E4840000000E0FF3F8FC0000000000050223F00000000E88E48400C00000013000000CA0700003C0000000600000002000000000000E0FF3F8FC000000000A85EB0BF000000C03EAE4840000000E0FF3F8FC0000000000050223F00000000E88E48400C00000013000000D20700003C00000006000000020000000000
310
002000408F400000000000601F3F000000C0838A4740000000E0FF3F8FC0000000000050223F000000C0838A47400C00000013000000DA0700003C0000000600000002000000000000E0FF3F8FC0000000000050223F000000C0838A4740000000E0FF3F8FC0000000000050223F00000000E88E48400C00000013000000E2
310
0700003C00000006000000020000000000002000408F4000000000F85FB0BF000000402D6B4740000000E0FF3F8FC000000000A85EB0BF000000402D6B47400C00000013000000EA0700003C0000000600000002000000000000E0FF3F8FC000000000A85EB0BF000000402D6B4740000000E0FF3F8FC0000000000050223F
310
000000C0838A47400C00000013000000F20700003C00000006000000020000000000002000408F4000000000D4B7CEBF00000040D8534740000000E0FF3F8FC0000000002EB7CEBF00000040D85347400C00000013000000FA0700003C0000000600000002000000000000E0FF3F8FC000000000A85EB0BF000000402D6B47
310
40000000E0FF3F8FC0000000002EB7CEBF00000040D85347400C00000013000000020800003C00000006000000020000000000002000408F400000000026E0DEBF000000C08D4A4740000000E0FF3F8FC000000000CFDFDEBF000000C08D4A47400C000000130000000A0800003C0000000600000002000000000000E0FF3F
310
8FC000000000CFDFDEBF000000C08D4A4740000000E0FF3F8FC0000000002EB7CEBF00000040D85347400C00000013000000120800003C00000006000000020000000000002000408F40000000009D2314C00000008034364740000000E0FF3F8FC000000000982314C000000080343647400C000000130000001A0800003C
310
0000000600000002000000000000E0FF3F8FC000000000CFDFDEBF000000C08D4A4740000000E0FF3F8FC000000000982314C000000080343647400C00000013000000220800003C00000006000000020000000000002000408F40000000C0371416C000000080A0234740000000E0FF3F8FC0000000C0321416C000000080
310
A02347400C000000130000002A0800003C0000000600000002000000000000E0FF3F8FC0000000C0321416C000000080A0234740000000E0FF3F8FC000000000982314C000000080343647400C00000013000000320800003C00000006000000020000000000002000408F4000000000AC7C17C000000040F8F44640000000
310
E0FF3F8FC000000000A77C17C000000040F8F446400C000000130000003A0800003C0000000600000002000000000000E0FF3F8FC0000000C0321416C000000080A0234740000000E0FF3F8FC000000000A77C17C000000040F8F446400C00000013000000420800003C00000006000000020000000000002000408F400000
310
0040E0FF17C00000008048B64640000000E0FF3F8FC000000040DBFF17C00000008048B646400C000000130000004A0800003C0000000600000002000000000000E0FF3F8FC000000000A77C17C000000040F8F44640000000E0FF3F8FC000000040DBFF17C00000008048B646400C00000013000000520800003C00000006
310
000000020000000000002000408F4000000040E0FF17C0000000A0F6703040000000E0FF3F8FC000000040DBFF17C0000000A0F67030400C000000130000005A0800003C0000000600000002000000000000E0FF3F8FC000000040DBFF17C0000000A0F6703040000000E0FF3F8FC000000040DBFF17C00000008048B64640
310
0C00000013000000620800003C00000006000000020000000000002000408F4000000000258517C000000040E7EE2F40000000E0FF3F8FC000000000208517C000000040E7EE2F400C000000130000006A0800003C0000000600000002000000000000E0FF3F8FC000000040DBFF17C0000000A0F6703040000000E0FF3F8F
310
C000000000208517C000000040E7EE2F400C00000013000000720800003C00000006000000020000000000002000408F4000000000A13216C00000004030362F40000000E0FF3F8FC0000000009C3216C00000004030362F400C000000130000007A0800003C0000000600000002000000000000E0FF3F8FC0000000009C32
310
16C00000004030362F40000000E0FF3F8FC000000000208517C000000040E7EE2F400C00000013000000820800003C00000006000000020000000000002000408F40000000C01F5914C000000040E0E32E40000000E0FF3F8FC0000000C01A5914C000000040E0E32E400C000000130000008A0800003C0000000600000002
310
000000000000E0FF3F8FC0000000009C3216C00000004030362F40000000E0FF3F8FC0000000C01A5914C000000040E0E32E400C00000013000000920800003C00000006000000020000000000002000408F40000000000934DDBF0000004072142E40000000E0FF3F8FC000000000B633DDBF0000004072142E400C000000
310
130000009A0800003C0000000600000002000000000000E0FF3F8FC000000000B633DDBF0000004072142E40000000E0FF3F8FC0000000C01A5914C000000040E0E32E400C00000013000000A20800003C00000006000000020000000000002000408F40000000002AD4CCBF0000004052EB2D40000000E0FF3F8FC0000000
310
0084D3CCBF0000004052EB2D400C00000013000000AA0800003C0000000600000002000000000000E0FF3F8FC00000000084D3CCBF0000004052EB2D40000000E0FF3F8FC000000000B633DDBF0000004072142E400C00000013000000B20800003C00000006000000020000000000002000408F40000000007098AEBF0000
310
0040DD8E2D40000000E0FF3F8FC000000000D095AEBF00000040DD8E2D400C00000013000000BA0800003C0000000600000002000000000000E0FF3F8FC000000000D095AEBF00000040DD8E2D40000000E0FF3F8FC00000000084D3CCBF0000004052EB2D400C00000013000000C20800003C000000060000000200000000
310
00002000408F400000000000A01F3F000000406B152D40000000E0FF3F8FC0000000000070223F000000406B152D400C00000013000000CA0800003C0000000600000002000000000000E0FF3F8FC0000000000070223F000000406B152D40000000E0FF3F8FC000000000D095AEBF00000040DD8E2D400C00000013000000
310
D20800003C00000006000000020000000000002000408F400000000000E01F3F000000407B212840000000E0FF3F8FC0000000000070223F000000407B2128400C00000013000000DA0800003C0000000600000002000000000000E0FF3F8FC0000000000070223F000000406B152D40000000E0FF3F8FC000000000007022
310
3F000000407B2128400C00000013000000E20800003C00000006000000020000000000002000408F4000000000E85DB3BF00000000089A2740000000E0FF3F8FC000000000A85CB3BF00000000089A27400C00000013000000EA0800003C0000000600000002000000000000E0FF3F8FC000000000A85CB3BF00000000089A
310
2740000000E0FF3F8FC0000000000070223F000000407B2128400C00000013000000F20800003C00000006000000020000000000002000408F40000000008BE9D1BF00000000983B2740000000E0FF3F8FC00000000036E9D1BF00000000983B27400C00000013000000FA0800003C0000000600000002000000000000E0FF
310
3F8FC000000000A85CB3BF00000000089A2740000000E0FF3F8FC00000000036E9D1BF00000000983B27400C00000013000000020900003C00000006000000020000000000002000408F4000000080E2CFE7BF00000000E67B2640000000E0FF3F8FC000000000BACFE7BF00000000E67B26400C000000130000000A090000
310
3C0000000600000002000000000000E0FF3F8FC00000000036E9D1BF00000000983B2740000000E0FF3F8FC000000000BACFE7BF00000000E67B26400C00000013000000120900003C00000006000000020000000000002000408F4000000080FE8DEFBF000000003BDF2540000000E0FF3F8FC000000000D68DEFBF000000
310
003BDF25400C000000130000001A0900003C0000000600000002000000000000E0FF3F8FC000000000D68DEFBF000000003BDF2540000000E0FF3F8FC000000000BACFE7BF00000000E67B26400C00000013000000220900003C00000006000000020000000000002000408F40000000401283F2BF00000000382825400000
310
00E0FF3F8FC000000040FE82F2BF00000000382825400C000000130000002A0900003C0000000600000002000000000000E0FF3F8FC000000040FE82F2BF0000000038282540000000E0FF3F8FC000000000D68DEFBF000000003BDF25400C00000013000000320900003C00000006000000020000000000002000408F4000
310
0000C075E4F3BF0000000070652440000000E0FF3F8FC0000000C061E4F3BF00000000706524400C000000130000003A0900003C0000000600000002000000000000E0FF3F8FC0000000C061E4F3BF0000000070652440000000E0FF3F8FC000000040FE82F2BF00000000382825400C00000013000000420900003C000000
310
06000000020000000000002000408F40000000C075E4F3BF00000000909A2340000000E0FF3F8FC0000000C061E4F3BF00000000909A23400C000000130000004A0900003C0000000600000002000000000000E0FF3F8FC0000000C061E4F3BF0000000070652440000000E0FF3F8FC0000000C061E4F3BF00000000909A23
310
400C00000013000000520900003C00000006000000020000000000002000408F40000000801283F2BF00000000C8D72240000000E0FF3F8FC000000080FE82F2BF00000000C8D722400C000000130000005A0900003C0000000600000002000000000000E0FF3F8FC000000080FE82F2BF00000000C8D72240000000E0FF3F
310
8FC0000000C061E4F3BF00000000909A23400C00000013000000620900003C00000006000000020000000000002000408F4000000000FE8DEFBF00000000C5202240000000E0FF3F8FC000000000D58DEFBF00000000C52022400C000000130000006A0900003C0000000600000002000000000000E0FF3F8FC000000000D5
310
8DEFBF00000000C5202240000000E0FF3F8FC000000080FE82F2BF00000000C8D722400C00000013000000720900003C00000006000000020000000000002000408F4000000000E3CFE7BF000000001A842140000000E0FF3F8FC000000080B9CFE7BF000000001A8421400C000000130000007A0900003C00000006000000
310
02000000000000E0FF3F8FC000000000D58DEFBF00000000C5202240000000E0FF3F8FC000000080B9CFE7BF000000001A8421400C00000013000000820900003C00000006000000020000000000002000408F400000000091E9D1BF0000000068C42040000000E0FF3F8FC0000000003AE9D1BF0000000068C420400C0000
310
00130000008A0900003C0000000600000002000000000000E0FF3F8FC0000000003AE9D1BF0000000068C42040000000E0FF3F8FC000000080B9CFE7BF000000001A8421400C00000013000000920900003C00000006000000020000000000002000408F4000000000FC5DB3BF00000000F8652040000000E0FF3F8FC00000
310
0000AC5CB3BF00000000F86520400C000000130000009A0900003C0000000600000002000000000000E0FF3F8FC000000000AC5CB3BF00000000F8652040000000E0FF3F8FC0000000003AE9D1BF0000000068C420400C00000013000000A20900003C00000006000000020000000000002000408F400000000000901F3F00
310
0000000ABD1F40000000E0FF3F8FC0000000000068223F000000000ABD1F400C00000013000000AA0900003C0000000600000002000000000000E0FF3F8FC0000000000068223F000000000ABD1F40000000E0FF3F8FC000000000AC5CB3BF00000000F86520400C00000013000000B20900003C0000000600000002000000
310
0000002000408F400000000000A01F3F000000002AD51540000000E0FF3F8FC0000000000050223F000000002AD515400C00000013000000BA0900003C0000000600000002000000000000E0FF3F8FC0000000000050223F000000002AD51540000000E0FF3F8FC0000000000068223F000000000ABD1F400C000000130000
310
00C20900003C00000006000000020000000000002000408F40000000007098AEBF0000000046E21440000000E0FF3F8FC000000000F095AEBF0000000046E214400C00000013000000CA0900003C0000000600000002000000000000E0FF3F8FC0000000000050223F000000002AD51540000000E0FF3F8FC000000000F095
310
AEBF0000000046E214400C00000013000000D20900003C00000006000000020000000000002000408F40000000002ED4CCBF000000005C291440000000E0FF3F8FC0000000008CD3CCBF000000005C2914400C00000013000000DA0900003C0000000600000002000000000000E0FF3F8FC0000000008CD3CCBF000000005C
310
291440000000E0FF3F8FC000000000F095AEBF0000000046E214400C00000013000000E20900003C00000006000000020000000000002000408F40000000000B34DDBF000000001CD71340000000E0FF3F8FC000000000BA33DDBF000000001CD713400C00000013000000EA0900003C0000000600000002000000000000E0
310
FF3F8FC0000000008CD3CCBF000000005C291440000000E0FF3F8FC000000000BA33DDBF000000001CD713400C00000013000000F20900003C00000006000000020000000000002000408F40000000C01F5914C00000000040381240000000E0FF3F8FC0000000C01A5914C000000000403812400C00000013000000FA0900
310
003C0000000600000002000000000000E0FF3F8FC0000000C01A5914C00000000040381240000000E0FF3F8FC000000000BA33DDBF000000001CD713400C00000013000000020A00003C00000006000000020000000000002000408F40000000C0A03216C000000000A1931140000000E0FF3F8FC0000000C09B3216C00000
310
0000A19311400C000000130000000A0A00003C0000000600000002000000000000E0FF3F8FC0000000C09B3216C000000000A1931140000000E0FF3F8FC0000000C01A5914C000000000403812400C00000013000000120A00003C00000006000000020000000000002000408F4000000000258517C0000000003322104000
310
0000E0FF3F8FC000000000208517C000000000332210400C000000130000001A0A00003C0000000600000002000000000000E0FF3F8FC0000000C09B3216C000000000A1931140000000E0FF3F8FC000000000208517C000000000332210400C00000013000000220A00003C00000006000000020000000000002000408F40
310
00000040E0FF17C0000000004E780C40000000E0FF3F8FC000000040DBFF17C0000000004E780C400C000000130000002A0A00003C0000000600000002000000000000E0FF3F8FC000000000208517C00000000033221040000000E0FF3F8FC000000040DBFF17C0000000004E780C400C00000013000000320A00003C0000
310
0006000000020000000000002000408F4000000040E0FF17C0000000000800E03F000000E0FF3F8FC000000040DBFF17C0000000000800E03F0C000000130000003A0A00003C0000000600000002000000000000E0FF3F8FC000000040DBFF17C0000000004E780C40000000E0FF3F8FC000000040DBFF17C0000000000800
310
E03F0C00000013000000420A00003C00000006000000020000000000002000408F40000000C0714418C0000000001002D03F000000E0FF3F8FC0000000C06C4418C0000000001002D03F0C000000130000004A0A00003C0000000600000002000000000000E0FF3F8FC000000040DBFF17C0000000000800E03F000000E0FF
310
3F8FC0000000C06C4418C0000000001002D03F0C00000013000000520A00003C00000006000000020000000000002000408F4000000060000019C000000000C024B13F000000E0FF3F8FC000000060FBFF18C000000000C024B13F0C000000130000005A0A00003C0000000600000002000000000000E0FF3F8FC000000060
310
FBFF18C000000000C024B13F000000E0FF3F8FC0000000C06C4418C0000000001002D03F0C00000013000000620A00003C0000000600000002000000000000E0FF3F8FC000000060DBFF19C0000000000000D03E000000E0FF3F8FC000000060FBFF18C000000000C024B13F0C000000130000006A0A00003C000000060000
310
0002000000000000E0FF3F8FC000000000A85EB0BF000000C03EAE4840000000E0FF3F8FC000000000A85EB0BF000000402D6B47400C00000013000000720A00003C0000000600000002000000000000E0FF3F8FC0000000C04E8611C000000040E3BE5440000000E0FF3F8FC0000000000048223F000000A02FC452400C00
310
0000130000007A0A00003C0000000600000002000000000000E0FF3F8FC000000000BC5CB3BF0000000041B35240000000E0FF3F8FC00000006025CA12C000000020E35254400C00000013000000820A00003C0000000600000002000000000000E0FF3F8FC0000000003BE9D1BF0000002073A75240000000E0FF3F8FC000
310
0000008CB214C000000080C9F653400C000000130000008A0A00003C0000000600000002000000000000E0FF3F8FC0000000C0636917C000000040CC9E5340000000E0FF3F8FC000000080BACFE7BF000000E07C8F52400C00000013000000920A00003C0000000600000002000000000000E0FF3F8FC00000006018531BC0
310
0000006067415340000000E0FF3F8FC000000080D48DEFBF00000060E77B52400C000000130000009A0A00003C0000000600000002000000000000E0FF3F8FC000000040FE82F2BF0000002007655240000000E0FF3F8FC000000000004A20C0000000A03CD952400C00000013000000A20A00003C00000006000000020000
310
00000000E0FF3F8FC0000000C0F6FE22C0000000E0D86D5240000000E0FF3F8FC00000004061E4F3BF000000E0AD4C52400C00000013000000AA0A00003C0000000600000002000000000000E0FF3F8FC00000004061E4F3BF0000002052335240000000E0FF3F8FC000000000610E25C000000040420B52400C0000001300
310
0000B20A00003C0000000600000002000000000000E0FF3F8FC000000040FE82F2BF00000020F91A5240000000E0FF3F8FC000000040227A26C00000006050AF51400C00000013000000BA0A00003C0000000600000002000000000000E0FF3F8FC000000080D38DEFBF000000A018045240000000E0FF3F8FC0000000007A
310
7327C0000000A02C5251400C00000013000000C20A00003C0000000600000002000000000000E0FF3F8FC000000080B9CFE7BF0000006083F05140000000E0FF3F8FC000000040891028C000000080EEEA50400C00000013000000CA0A00003C0000000600000002000000000000E0FF3F8FC0000000402B4A28C000000000
310
00705040000000E0FF3F8FC0000000003AE9D1BF000000208DD851400C00000013000000D20A00003C0000000600000002000000000000E0FF3F8FC000000000B85CB3BF00000000BFCC5140000000E0FF3F8FC000000000E8E9A7BF00000080C5A24F400C00000013000000DA0A00003C0000000600000002000000000000
310
E0FF3F8FC0000000402B4A28C00000000000705040000000E0FF3F8FC000000000FAD7C6BF00000040CB8C4F400C00000013000000E20A00003C0000000600000002000000000000E0FF3F8FC000000040515B28C00000000000685040000000E0FF3F8FC00000000075B5D7BF0000000000804F400C00000013000000EA0A
310
00003C0000000600000002000000000000E0FF3F8FC0000000402B8A28C0000000C024625040000000E0FF3F8FC000000000EB1112C000000040C4F14E400C00000013000000F20A00003C0000000600000002000000000000E0FF3F8FC0000000804E2415C00000004098BE4E40000000E0FF3F8FC0000000402BCA28C000
310
000000006050400C00000013000000FA0A00003C0000000600000002000000000000E0FF3F8FC000000080F63F17C000000040AF664E40000000E0FF3F8FC000000000EEFF2AC000000000006050400C00000013000000020B00003C0000000600000002000000000000E0FF3F8FC000000080F63F17C000000040AF664E40
310
000000E0FF3F8FC000000080DE7F2BC0000000E0B65B50400C000000130000000A0B00003C0000000600000002000000000000E0FF3F8FC000000000A5DD2BC000000020FE4F5040000000E0FF3F8FC000000040DBFF17C0000000407DFA4D400C00000013000000120B00003C0000000600000002000000000000E0FF3F8F
310
C000000000EEFF2BC00000000000405040000000E0FF3F8FC000000040DBFF17C0000000407DFA4D400C000000130000001A0B00003C0000000600000002000000000000E0FF3F8FC000000000CFDFDEBF000000C08D4A4740000000E0FF3F8FC000000000CEDFDEBF00000000DECE48400C00000013000000220B00003C00
310
00000600000002000000000000E0FF3F8FC0000000C0972314C00000004037E34840000000E0FF3F8FC000000000982314C000000080343647400C000000130000002A0B00003C0000000600000002000000000000E0FF3F8FC0000000002EB7CEBF00000040D8534740000000E0FF3F8FC0000000002CB7CEBF000000C093
310
C548400C00000013000000320B00003C0000000600000002000000000000E0FF3F8FC0000000C0321416C000000080A0234740000000E0FF3F8FC0000000C0321416C000000040CBF548400C000000130000003A0B00003C0000000600000002000000000000E0FF3F8FC000000000A77C17C000000040F8F44640000000E0
310
FF3F8FC000000000A77C17C0000000C0732449400C00000013000000420B00003C0000000600000002000000000000E0FF3F8FC000000040DBFF17C00000004023634940000000E0FF3F8FC000000040DBFF17C00000008048B646400C000000130000004A0B00003C0000000600000002000000000000E0FF3F8FC0000000
310
00EEFF2BC00000000000405040000000E0FF3F8FC000000040DBFF17C00000008048B646400C00000013000000520B00003C0000000600000002000000000000E0FF3F8FC000000000EEFF2BC00000000000405040000000E0FF3F8FC000000040DBFF17C000000040236349400C000000130000005A0B00003C0000000600
310
000002000000000000E0FF3F8FC000000040DBFF17C0000000A0F6703040000000E0FF3F8FC000000000EEFF2BC0000000000000D03E0C00000013000000620B00003C0000000600000002000000000000E0FF3F8FC000000000D095AEBF00000040DD8E2D40000000E0FF3F8FC000000000A85CB3BF00000000089A27400C
310
000000130000006A0B00003C0000000600000002000000000000E0FF3F8FC00000000036E9D1BF00000000983B2740000000E0FF3F8FC00000000084D3CCBF0000004052EB2D400C00000013000000720B00003C0000000600000002000000000000E0FF3F8FC000000000BACFE7BF00000000E67B2640000000E0FF3F8FC0
310
00000000B633DDBF0000004072142E400C000000130000007A0B00003C0000000600000002000000000000E0FF3F8FC0000000C01A5914C00000000040381240000000E0FF3F8FC0000000C01A5914C000000040E0E32E400C00000013000000820B00003C0000000600000002000000000000E0FF3F8FC0000000C061E4F3
310
BF0000000070652440000000E0FF3F8FC0000000C01A5914C000000040E0E32E400C000000130000008A0B00003C0000000600000002000000000000E0FF3F8FC0000000C01A5914C00000000040381240000000E0FF3F8FC0000000C061E4F3BF00000000909A23400C00000013000000920B00003C000000060000000200
310
0000000000E0FF3F8FC0000000C09B3216C000000000A1931140000000E0FF3F8FC0000000009C3216C00000004030362F400C000000130000009A0B00003C0000000600000002000000000000E0FF3F8FC000000000208517C00000000033221040000000E0FF3F8FC000000000208517C000000040E7EE2F400C00000013
310
000000A20B00003C0000000600000002000000000000E0FF3F8FC000000040DBFF17C0000000A0F6703040000000E0FF3F8FC000000040DBFF17C0000000004E780C400C00000013000000AA0B00003C0000000600000002000000000000E0FF3F8FC000000040DBFF17C0000000004E780C40000000E0FF3F8FC000000000
310
EEFF2BC0000000000000D03E0C00000013000000B20B00003C0000000600000002000000000000E0FF3F8FC000000040DBFF17C0000000000800E03F000000E0FF3F8FC000000000EEFF2BC0000000000000D03E0C00000013000000BA0B00003C0000000600000002000000000000E0FF3F8FC000000060FBFF18C0000000
310
00C024B13F000000E0FF3F8FC000000000EEFF2BC0000000000000D03E0C00000013000000C20B00003C0000000600000002000000000000E0FF3F8FC0000000C06C4418C0000000001002D03F000000E0FF3F8FC000000000EEFF2BC0000000000000D03E0C00000013000000CA0B00003C00000006000000020000000000
310
00E0FF3F8FC000000000F095AEBF0000000046E21440000000E0FF3F8FC000000000AC5CB3BF00000000F86520400C00000013000000D20B00003C0000000600000002000000000000E0FF3F8FC0000000008CD3CCBF000000005C291440000000E0FF3F8FC0000000003AE9D1BF0000000068C420400C00000013000000DA
310
0B00003C0000000600000002000000000000E0FF3F8FC000000000BA33DDBF000000001CD71340000000E0FF3F8FC000000080B9CFE7BF000000001A8421400C00000013000000E20B00003C0000000600000002000000000000E0FF3F8FC000000000D58DEFBF00000000C5202240000000E0FF3F8FC0000000C01A5914C0
310
00000000403812400C00000013000000EA0B00003C0000000600000002000000000000E0FF3F8FC000000080FE82F2BF00000000C8D72240000000E0FF3F8FC0000000C01A5914C000000000403812400C00000013000000F20B00003C0000000600000002000000000000E0FF3F8FC000000040FE82F2BF00000000382825
310
40000000E0FF3F8FC0000000C01A5914C000000040E0E32E400C00000013000000FA0B00003C0000000600000002000000000000E0FF3F8FC000000000D68DEFBF000000003BDF2540000000E0FF3F8FC0000000C01A5914C000000040E0E32E40
100
AcDbSubDMesh
 71
     2
 72
     0
 91
        0
 92
      188
 10
1000.000061035156
 20
0.000119686126709
 30
47.08214569091796
 10
1000.000061035156
 20
-0.0639643669128418
 30
46.83731842041015
 10
1000.000061035156
 20
-0.2399849891662598
 30
46.65503692626953
 10
1000.000061035156
 20
-0.4824309349060059
 30
46.58245086669921
 10
1000.000061035156
 20
-5.034778594970703
 30
46.42347717285156
 10
1000.000061035156
 20
-5.519743919372558
 30
46.27833557128906
 10
1000.000061035156
 20
-5.871749877929687
 30
45.91382598876953
 10
1000.000061035156
 20
-5.999878883361816
 30
45.42408752441406
 10
1000.000061035156
 20
-5.999878883361816
 30
16.44126319885254
 10
1000.000061035156
 20
-5.880023956298828
 30
15.96660804748535
 10
1000.000061035156
 20
-5.549442291259765
 30
15.60583686828613
 10
1000.000061035156
 20
-5.087035179138183
 30
15.44507026672363
 10
1000.000061035156
 20
-0.456300973892212
 30
15.03993415832519
 10
1000.000061035156
 20
-0.2252247333526611
 30
14.95961189270019
 10
1000.000061035156
 20
-0.0597567558288574
 30
14.77903175354004
 10
1000.000061035156
 20
0.0001206398010254
 30
14.54183387756347
 10
1000.000061035156
 20
0.0001215934753418
 30
12.06539344787598
 10
1000.000061035156
 20
-0.0756516456604004
 30
11.80084228515625
 10
1000.000061035156
 20
-0.2798793315887451
 30
11.61639404296875
 10
1000.000061035156
 20
-0.9860832691192626
 30
10.93599700927734
 10
1000.000061035156
 20
-1.243276357650756
 30
10.1981201171875
 10
1000.000061035156
 20
-1.157000064849853
 30
9.42144775390625
 10
1000.000061035156
 20
-0.7441267967224121
 30
8.758010864257812
 10
1000.000061035156
 20
-0.2798807621002197
 30
8.38360595703125
 10
1000.000061035156
 20
-0.0756528377532959
 30
8.19915771484375
 10
1000.000061035156
 20
0.0001204013824463
 30
7.934608459472656
 10
1000.000061035156
 20
0.0001206398010254
 30
5.458168029785156
 10
1000.000061035156
 20
-0.0597567558288574
 30
5.220970153808593
 10
1000.000061035156
 20
-0.2252252101898193
 30
5.040390014648437
 10
1000.000061035156
 20
-0.4563014507293702
 30
4.960067749023437
 10
1000.000061035156
 20
-5.087035179138183
 30
4.554931640625
 10
1000.000061035156
 20
-5.549441337585449
 30
4.394168853759765
 10
1000.000061035156
 20
-5.880023956298828
 30
4.033397674560546
 10
1000.000061035156
 20
-5.999878883361816
 30
3.558742523193359
 10
1000.000061035156
 20
-5.999878883361816
 30
0.5000038146972657
 10
1000.000061035156
 20
-6.066840171813964
 30
0.2501258850097656
 10
1000.000061035156
 20
-6.250001430511474
 30
0.0669670104980469
 10
1000.000061035156
 20
-6.499879360198974
 30
0.0000038146972656
 10
1000.000061035156
 20
-13.99987983703613
 30
0.0000038146972656
 10
1000.000061035156
 20
-13.9998779296875
 30
65.0
 10
1000.000061035156
 20
-13.93291854858398
 30
65.24988555908203
 10
1000.000061035156
 20
-13.74975967407226
 30
65.43303680419922
 10
1000.000061035156
 20
-13.4998779296875
 30
65.5
 10
1000.000061035156
 20
-12.3948802947998
 30
65.5
 10
1000.000061035156
 20
-12.2698802947998
 30
65.53349304199219
 10
1000.000061035156
 20
-12.17837333679199
 30
65.625
 10
1000.000061035156
 20
-12.1448802947998
 30
65.75
 10
1000.000061035156
 20
-12.03231620788574
 30
67.67080688476562
 10
1000.000061035156
 20
-11.72555923461914
 30
69.28397369384765
 10
1000.000061035156
 20
-11.23856163024902
 30
70.73928070068359
 10
1000.000061035156
 20
-10.52810287475586
 30
72.17591857910156
 10
1000.000061035156
 20
-9.497995376586914
 30
73.71636199951172
 10
1000.000061035156
 20
-8.14455223083496
 30
75.39432525634765
 10
1000.000061035156
 20
-6.831166744232177
 30
77.02193450927734
 10
1000.000061035156
 20
-5.852938652038574
 30
78.48121643066406
 10
1000.000061035156
 20
-5.174381256103515
 30
79.85604858398438
 10
1000.000061035156
 20
-4.697425842285156
 30
81.29511260986328
 10
1000.000061035156
 20
-4.381177902221679
 30
82.98262023925781
 10
1000.000061035156
 20
-4.249878883361816
 30
85.0
 10
1000.000061035156
 20
0.0001199245452881
 30
85.0
 10
1000.000061035156
 20
0.0001204013824463
 30
75.0654067993164
 10
1000.000061035156
 20
-0.0756537914276123
 30
74.80084228515625
 10
1000.000061035156
 20
-0.2798810005187988
 30
74.61640167236328
 10
1000.000061035156
 20
-0.9860832691192626
 30
73.93599700927734
 10
1000.000061035156
 20
-1.243275880813598
 30
73.19811248779297
 10
1000.000061035156
 20
-1.156999826431274
 30
72.42145538330078
 10
1000.000061035156
 20
-0.7441263198852539
 30
71.75801849365234
 10
1000.000061035156
 20
-0.2798802852630615
 30
71.38361358642578
 10
1000.000061035156
 20
-0.0756525993347168
 30
71.19915771484375
 10
1000.000061035156
 20
0.0001206398010254
 30
70.93460845947266
 10
1000.000061035156
 20
0.0001199245452881
 30
63.48296356201172
 10
1000.000061035156
 20
-0.0467264652252197
 30
63.27165222167969
 10
1000.000061035156
 20
-0.1784858703613281
 30
63.09995269775391
 10
1000.000061035156
 20
-0.3704700469970703
 30
63.0
 10
1000.000061035156
 20
-4.51751708984375
 30
61.88880157470703
 10
1000.000061035156
 20
-5.285474777221679
 30
61.48902130126953
 10
1000.000061035156
 20
-5.812482833862304
 30
60.8022232055664
 10
1000.000061035156
 20
-5.999878883361816
 30
59.95694732666016
 10
1000.000061035156
 20
-5.999878883361816
 30
50.77451324462891
 10
1000.000061035156
 20
-5.871749877929687
 30
50.28478240966797
 10
1000.000061035156
 20
-5.519743919372558
 30
49.9202651977539
 10
1000.000061035156
 20
-5.034777641296386
 30
49.7751235961914
 10
1000.000061035156
 20
-0.4824302196502686
 30
49.61614990234375
 10
1000.000061035156
 20
-0.2399842739105225
 30
49.54357147216796
 10
1000.000061035156
 20
-0.0639634132385254
 30
49.36128997802734
 10
1000.000061035156
 20
0.0001206398010254
 30
49.116455078125
 10
1000.000061035156
 20
-0.7441272735595704
 30
74.24199676513672
 10
1000.000061035156
 20
-1.156999826431274
 30
73.57855987548828
 10
1000.000061035156
 20
-1.243275880813598
 30
72.80188751220703
 10
1000.000061035156
 20
-0.9860820770263671
 30
72.06400299072265
 10
1000.000061035156
 20
-0.744126558303833
 30
11.24198913574218
 10
1000.000061035156
 20
-1.156999826431274
 30
10.57855224609375
 10
1000.000061035156
 20
-1.243276357650756
 30
9.8018798828125
 10
1000.000061035156
 20
-0.9860830307006835
 30
9.064002990722656
 10
-999.9999389648436
 20
-0.0639443397521973
 30
49.36128997802734
 10
-999.9999389648436
 20
-0.0639443397521973
 30
46.83731842041015
 10
-999.9999389648436
 20
0.0001399517059326
 30
85.0
 10
-999.9999389648436
 20
-4.249859809875488
 30
85.0
 10
-999.9999389648436
 20
-4.381159782409667
 30
82.98262023925781
 10
-999.9999389648436
 20
-0.0756337642669678
 30
74.80084228515625
 10
-999.9999389648436
 20
-4.697408199310302
 30
81.29511260986328
 10
-999.9999389648436
 20
-0.279860258102417
 30
74.61640167236328
 10
-999.9999389648436
 20
-5.852919578552246
 30
78.48121643066406
 10
-999.9999389648436
 20
-6.831147670745849
 30
77.02193450927734
 10
-999.9999389648436
 20
-1.156980752944946
 30
73.57855987548828
 10
-999.9999389648436
 20
-8.14453125
 30
75.39432525634765
 10
-999.9999389648436
 20
-9.497976303100585
 30
73.71636199951172
 10
-999.9999389648436
 20
-1.156980752944946
 30
72.42145538330078
 10
-999.9999389648436
 20
-0.9860627651214599
 30
72.06400299072265
 10
-999.9999389648436
 20
-12.14486122131347
 30
65.75
 10
-999.9999389648436
 20
0.0001397132873535
 30
70.93460845947266
 10
-999.9999389648436
 20
-0.0756335258483887
 30
71.19915771484375
 10
-999.9999389648436
 20
-12.17835426330566
 30
65.625
 10
-999.9999389648436
 20
-12.26986122131348
 30
65.53349304199219
 10
-999.9999389648436
 20
-5.285455703735351
 30
61.48902130126953
 10
-999.9999389648436
 20
-5.812463760375976
 30
60.8022232055664
 10
-999.9999389648436
 20
-13.7497444152832
 30
65.43303680419922
 10
-999.9999389648436
 20
-13.93289947509765
 30
65.24988555908203
 10
-999.9999389648436
 20
-13.99986267089843
 30
65.0
 10
-999.9999389648436
 20
-5.034758567810058
 30
49.7751235961914
 10
-999.9999389648436
 20
-0.4824101924896241
 30
46.58245086669921
 10
-999.9999389648436
 20
-0.2399652004241943
 30
46.65503692626953
 10
-999.9999389648436
 20
-5.51972484588623
 30
46.27833557128906
 10
-999.9999389648436
 20
-5.871730804443359
 30
45.91382598876953
 10
-999.9999389648436
 20
-5.999859809875488
 30
16.44126319885254
 10
-999.9999389648436
 20
0.0001406669616699
 30
14.54183387756347
 10
-999.9999389648436
 20
-0.0597367286682129
 30
14.77903175354004
 10
-999.9999389648436
 20
-1.243257284164428
 30
10.1981201171875
 10
-999.9999389648436
 20
-5.549422264099121
 30
4.394168853759765
 10
-999.9999389648436
 20
-5.549423217773437
 30
15.60583686828613
 10
-999.9999389648436
 20
-5.8800048828125
 30
4.033397674560546
 10
-999.9999389648436
 20
-5.999859809875488
 30
3.558742523193359
 10
-999.9999389648436
 20
-5.999859809875488
 30
0.5000038146972657
 10
-999.9999389648436
 20
-6.499860286712646
 30
0.0000038146972656
 10
-999.9999389648436
 20
-6.249982357025146
 30
0.0669670104980469
 10
-999.9999389648436
 20
-6.066821098327636
 30
0.2501258850097656
 10
-999.9999389648436
 20
0.0001397132873535
 30
5.458168029785156
 10
-999.9999389648436
 20
-0.2252058982849121
 30
5.040390014648437
 10
-999.9999389648436
 20
-0.9860634803771972
 30
9.064002990722656
 10
-999.9999389648436
 20
-1.156980991363525
 30
9.42144775390625
 10
-999.9999389648436
 20
-1.156980752944946
 30
10.57855224609375
 10
-999.9999389648436
 20
-0.9860639572143554
 30
10.93599700927734
 10
-999.9999389648436
 20
0.0001397132873535
 30
47.08214569091796
 10
-999.9999389648436
 20
0.0001397132873535
 30
49.116455078125
 10
-999.9999389648436
 20
0.0001394748687744
 30
75.0654067993164
 10
-999.9999389648436
 20
-5.174362182617187
 30
79.85604858398438
 10
-999.9999389648436
 20
-0.7441074848175049
 30
74.24199676513672
 10
-999.9999389648436
 20
-0.9860632419586181
 30
73.93599700927734
 10
-999.9999389648436
 20
-1.24325680732727
 30
73.19811248779297
 10
-999.9999389648436
 20
-1.24325680732727
 30
72.80188751220703
 10
-999.9999389648436
 20
-10.52808380126953
 30
72.17591857910156
 10
-999.9999389648436
 20
-11.23854255676269
 30
70.73928070068359
 10
-999.9999389648436
 20
-11.72554016113281
 30
69.28397369384765
 10
-999.9999389648436
 20
-0.7441070079803467
 30
71.75801849365234
 10
-999.9999389648436
 20
-12.03229713439941
 30
67.67080688476562
 10
-999.9999389648436
 20
-0.2798600196838379
 30
71.38361358642578
 10
-999.9999389648436
 20
-0.0467064380645752
 30
63.27165222167969
 10
-999.9999389648436
 20
0.0001399517059326
 30
63.48296356201172
 10
-999.9999389648436
 20
-0.1784660816192627
 30
63.09995269775391
 10
-999.9999389648436
 20
-0.3704502582550049
 30
63.0
 10
-999.9999389648436
 20
-4.517498016357421
 30
61.88880157470703
 10
-999.9999389648436
 20
-12.39486122131348
 30
65.5
 10
-999.9999389648436
 20
-13.49986267089844
 30
65.5
 10
-999.9999389648436
 20
-5.999859809875488
 30
59.95694732666016
 10
-999.9999389648436
 20
-0.482409954071045
 30
49.61614990234375
 10
-999.9999389648436
 20
-5.034759521484375
 30
46.42347717285156
 10
-999.9999389648436
 20
-0.2399649620056152
 30
49.54357147216796
 10
-999.9999389648436
 20
-5.51972484588623
 30
49.9202651977539
 10
-999.9999389648436
 20
-5.871730804443359
 30
50.28478240966797
 10
-999.9999389648436
 20
-5.999859809875488
 30
50.77451324462891
 10
-999.9999389648436
 20
-5.999859809875488
 30
45.42408752441406
 10
-999.9999389648436
 20
-13.99986267089843
 30
0.0000038146972656
 10
-999.9999389648436
 20
-0.0756325721740723
 30
11.80084228515625
 10
-999.9999389648436
 20
0.0001406669616699
 30
12.06539344787598
 10
-999.9999389648436
 20
-0.2798590660095215
 30
11.61639404296875
 10
-999.9999389648436
 20
-0.2252049446105957
 30
14.95961189270019
 10
-999.9999389648436
 20
-0.7441072463989258
 30
11.24198913574218
 10
-999.9999389648436
 20
-0.4562811851501465
 30
15.03993415832519
 10
-999.9999389648436
 20
-5.087016105651855
 30
4.554931640625
 10
-999.9999389648436
 20
-1.243257284164428
 30
9.8018798828125
 10
-999.9999389648436
 20
-5.087016105651855
 30
15.44507026672363
 10
-999.9999389648436
 20
-5.8800048828125
 30
15.96660804748535
 10
-999.9999389648436
 20
-0.0597376823425293
 30
5.220970153808593
 10
-999.9999389648436
 20
0.0001404285430908
 30
7.934608459472656
 10
-999.9999389648436
 20
-0.0756328105926514
 30
8.19915771484375
 10
-999.9999389648436
 20
-0.2798600196838379
 30
8.38360595703125
 10
-999.9999389648436
 20
-0.4562821388244629
 30
4.960067749023437
 10
-999.9999389648436
 20
-0.7441070079803467
 30
8.758010864257812
 93
      966
 90
        4
 90
        0
 90
       85
 90
       84
 90
        1
 90
        4
 90
       60
 90
       59
 90
       58
 90
       57
 90
        4
 90
       61
 90
       60
 90
       57
 90
       56
 90
        4
 90
       62
 90
       61
 90
       56
 90
       55
 90
        4
 90
       86
 90
       62
 90
       55
 90
       54
 90
        4
 90
       63
 90
       86
 90
       54
 90
       53
 90
        4
 90
       87
 90
       63
 90
       53
 90
       52
 90
        4
 90
       64
 90
       87
 90
       52
 90
       51
 90
        4
 90
       88
 90
       64
 90
       51
 90
       50
 90
        4
 90
       65
 90
       88
 90
       50
 90
       49
 90
        4
 90
       89
 90
       65
 90
       49
 90
       48
 90
        4
 90
       66
 90
       89
 90
       48
 90
       47
 90
        4
 90
       67
 90
       66
 90
       47
 90
       46
 90
        4
 90
       71
 90
       70
 90
       69
 90
       68
 90
        5
 90
       72
 90
       71
 90
       68
 90
       67
 90
       46
 90
        4
 90
       73
 90
       72
 90
       46
 90
       45
 90
        4
 90
       74
 90
       73
 90
       45
 90
       44
 90
        4
 90
       75
 90
       74
 90
       44
 90
       43
 90
        4
 90
       76
 90
       75
 90
       43
 90
       42
 90
        3
 90
       76
 90
       42
 90
       41
 90
        4
 90
       77
 90
       76
 90
       41
 90
       40
 90
        3
 90
       77
 90
       40
 90
       39
 90
        4
 90
       82
 90
       81
 90
        4
 90
        3
 90
        4
 90
       83
 90
       82
 90
        3
 90
        2
 90
        4
 90
       84
 90
       83
 90
        2
 90
        1
 90
        4
 90
       81
 90
       80
 90
        5
 90
        4
 90
        4
 90
       80
 90
       79
 90
        6
 90
        5
 90
        4
 90
       79
 90
       78
 90
        7
 90
        6
 90
        3
 90
       78
 90
       39
 90
        7
 90
        3
 90
       78
 90
       77
 90
       39
 90
        4
 90
       39
 90
       38
 90
        8
 90
        7
 90
        4
 90
       17
 90
       16
 90
       15
 90
       14
 90
        4
 90
       18
 90
       17
 90
       14
 90
       13
 90
        4
 90
       90
 90
       18
 90
       13
 90
       12
 90
        4
 90
       30
 90
       92
 90
       20
 90
       11
 90
        4
 90
       31
 90
       30
 90
       11
 90
       10
 90
        4
 90
       32
 90
       31
 90
       10
 90
        9
 90
        4
 90
       33
 90
       32
 90
        9
 90
        8
 90
        3
 90
       38
 90
       34
 90
       33
 90
        3
 90
       38
 90
       33
 90
        8
 90
        3
 90
       38
 90
       37
 90
       36
 90
        3
 90
       38
 90
       36
 90
       35
 90
        3
 90
       38
 90
       35
 90
       34
 90
        4
 90
       27
 90
       26
 90
       25
 90
       24
 90
        4
 90
       28
 90
       27
 90
       24
 90
       23
 90
        4
 90
       29
 90
       28
 90
       23
 90
       22
 90
        4
 90
       30
 90
       29
 90
       22
 90
       93
 90
        3
 90
       30
 90
       93
 90
       21
 90
        3
 90
       30
 90
       21
 90
       92
 90
        3
 90
       20
 90
       91
 90
       11
 90
        3
 90
       91
 90
       19
 90
       11
 90
        4
 90
       19
 90
       90
 90
       12
 90
       11
 90
        4
 90
       37
 90
       38
 90
      171
 90
      133
 90
        4
 90
       38
 90
       39
 90
      118
 90
      171
 90
        4
 90
       39
 90
       40
 90
      117
 90
      118
 90
        4
 90
       40
 90
       41
 90
      116
 90
      117
 90
        4
 90
       41
 90
       42
 90
      162
 90
      116
 90
        4
 90
       42
 90
       43
 90
      161
 90
      162
 90
        4
 90
       43
 90
       44
 90
      113
 90
      161
 90
        4
 90
       44
 90
       45
 90
      112
 90
      113
 90
        4
 90
       45
 90
       46
 90
      109
 90
      112
 90
        4
 90
       46
 90
       47
 90
      154
 90
      109
 90
        4
 90
       47
 90
       48
 90
      152
 90
      154
 90
        4
 90
       48
 90
       49
 90
      151
 90
      152
 90
        4
 90
       49
 90
       50
 90
      150
 90
      151
 90
        4
 90
       50
 90
       51
 90
      106
 90
      150
 90
        4
 90
       51
 90
       52
 90
      105
 90
      106
 90
        4
 90
       52
 90
       53
 90
      103
 90
      105
 90
        4
 90
       53
 90
       54
 90
      102
 90
      103
 90
        4
 90
       54
 90
       55
 90
      145
 90
      102
 90
        4
 90
       55
 90
       56
 90
      100
 90
      145
 90
        4
 90
       56
 90
       57
 90
       98
 90
      100
 90
        4
 90
       57
 90
       58
 90
       97
 90
       98
 90
        4
 90
       58
 90
       59
 90
       96
 90
       97
 90
        4
 90
       59
 90
       60
 90
      144
 90
       96
 90
        4
 90
       60
 90
       61
 90
       99
 90
      144
 90
        4
 90
       61
 90
       62
 90
      101
 90
       99
 90
        4
 90
       62
 90
       86
 90
      146
 90
      101
 90
        4
 90
       86
 90
       63
 90
      147
 90
      146
 90
        4
 90
       63
 90
       87
 90
      104
 90
      147
 90
        4
 90
       87
 90
       64
 90
      148
 90
      104
 90
        4
 90
       64
 90
       88
 90
      149
 90
      148
 90
        4
 90
       88
 90
       65
 90
      107
 90
      149
 90
        4
 90
       65
 90
       89
 90
      108
 90
      107
 90
        4
 90
       89
 90
       66
 90
      153
 90
      108
 90
        4
 90
       66
 90
       67
 90
      155
 90
      153
 90
        4
 90
       67
 90
       68
 90
      111
 90
      155
 90
        4
 90
       68
 90
       69
 90
      110
 90
      111
 90
        4
 90
       69
 90
       70
 90
      157
 90
      110
 90
        4
 90
       70
 90
       71
 90
      156
 90
      157
 90
        4
 90
       71
 90
       72
 90
      158
 90
      156
 90
        4
 90
       72
 90
       73
 90
      159
 90
      158
 90
        4
 90
       73
 90
       74
 90
      160
 90
      159
 90
        4
 90
       74
 90
       75
 90
      114
 90
      160
 90
        4
 90
       75
 90
       76
 90
      115
 90
      114
 90
        4
 90
       76
 90
       77
 90
      163
 90
      115
 90
        4
 90
       77
 90
       78
 90
      169
 90
      163
 90
        4
 90
       78
 90
       79
 90
      168
 90
      169
 90
        4
 90
       79
 90
       80
 90
      167
 90
      168
 90
        4
 90
       80
 90
       81
 90
      119
 90
      167
 90
        4
 90
       81
 90
       82
 90
      164
 90
      119
 90
        4
 90
       82
 90
       83
 90
      166
 90
      164
 90
        4
 90
       83
 90
       84
 90
       94
 90
      166
 90
        4
 90
       84
 90
       85
 90
      143
 90
       94
 90
        4
 90
       85
 90
        0
 90
      142
 90
      143
 90
        4
 90
        0
 90
        1
 90
       95
 90
      142
 90
        4
 90
        1
 90
        2
 90
      121
 90
       95
 90
        4
 90
        2
 90
        3
 90
      120
 90
      121
 90
        4
 90
        3
 90
        4
 90
      165
 90
      120
 90
        4
 90
        4
 90
        5
 90
      122
 90
      165
 90
        4
 90
        5
 90
        6
 90
      123
 90
      122
 90
        4
 90
        6
 90
        7
 90
      170
 90
      123
 90
        4
 90
        7
 90
        8
 90
      124
 90
      170
 90
        4
 90
        8
 90
        9
 90
      181
 90
      124
 90
        4
 90
        9
 90
       10
 90
      129
 90
      181
 90
        4
 90
       10
 90
       11
 90
      180
 90
      129
 90
        4
 90
       11
 90
       12
 90
      177
 90
      180
 90
        4
 90
       12
 90
       13
 90
      175
 90
      177
 90
        4
 90
       13
 90
       14
 90
      126
 90
      175
 90
        4
 90
       14
 90
       15
 90
      125
 90
      126
 90
        4
 90
       15
 90
       16
 90
      173
 90
      125
 90
        4
 90
       16
 90
       17
 90
      172
 90
      173
 90
        4
 90
       17
 90
       18
 90
      174
 90
      172
 90
        4
 90
       18
 90
       90
 90
      176
 90
      174
 90
        4
 90
       90
 90
       19
 90
      141
 90
      176
 90
        4
 90
       19
 90
       91
 90
      140
 90
      141
 90
        4
 90
       91
 90
       20
 90
      127
 90
      140
 90
        4
 90
       20
 90
       92
 90
      179
 90
      127
 90
        4
 90
       92
 90
       21
 90
      139
 90
      179
 90
        4
 90
       21
 90
       93
 90
      138
 90
      139
 90
        4
 90
       93
 90
       22
 90
      187
 90
      138
 90
        4
 90
       22
 90
       23
 90
      185
 90
      187
 90
        4
 90
       23
 90
       24
 90
      184
 90
      185
 90
        4
 90
       24
 90
       25
 90
      183
 90
      184
 90
        4
 90
       25
 90
       26
 90
      136
 90
      183
 90
        4
 90
       26
 90
       27
 90
      182
 90
      136
 90
        4
 90
       27
 90
       28
 90
      137
 90
      182
 90
        4
 90
       28
 90
       29
 90
      186
 90
      137
 90
        4
 90
       29
 90
       30
 90
      178
 90
      186
 90
        4
 90
       30
 90
       31
 90
      128
 90
      178
 90
        4
 90
       31
 90
       32
 90
      130
 90
      128
 90
        4
 90
       32
 90
       33
 90
      131
 90
      130
 90
        4
 90
       33
 90
       34
 90
      132
 90
      131
 90
        4
 90
       34
 90
       35
 90
      135
 90
      132
 90
        4
 90
       35
 90
       36
 90
      134
 90
      135
 90
        4
 90
       36
 90
       37
 90
      133
 90
      134
 90
        4
 90
      142
 90
       95
 90
       94
 90
      143
 90
        4
 90
      144
 90
       98
 90
       97
 90
       96
 90
        4
 90
       99
 90
      100
 90
       98
 90
      144
 90
        4
 90
      101
 90
      145
 90
      100
 90
       99
 90
        4
 90
      146
 90
      102
 90
      145
 90
      101
 90
        4
 90
      147
 90
      103
 90
      102
 90
      146
 90
        4
 90
      104
 90
      105
 90
      103
 90
      147
 90
        4
 90
      148
 90
      106
 90
      105
 90
      104
 90
        4
 90
      149
 90
      150
 90
      106
 90
      148
 90
        4
 90
      107
 90
      151
 90
      150
 90
      149
 90
        4
 90
      108
 90
      152
 90
      151
 90
      107
 90
        4
 90
      153
 90
      154
 90
      152
 90
      108
 90
        4
 90
      155
 90
      109
 90
      154
 90
      153
 90
        4
 90
      156
 90
      111
 90
      110
 90
      157
 90
        5
 90
      158
 90
      109
 90
      155
 90
      111
 90
      156
 90
        4
 90
      159
 90
      112
 90
      109
 90
      158
 90
        4
 90
      160
 90
      113
 90
      112
 90
      159
 90
        4
 90
      114
 90
      161
 90
      113
 90
      160
 90
        4
 90
      115
 90
      162
 90
      161
 90
      114
 90
        3
 90
      115
 90
      116
 90
      162
 90
        4
 90
      163
 90
      117
 90
      116
 90
      115
 90
        3
 90
      163
 90
      118
 90
      117
 90
        4
 90
      164
 90
      120
 90
      165
 90
      119
 90
        4
 90
      166
 90
      121
 90
      120
 90
      164
 90
        4
 90
       94
 90
       95
 90
      121
 90
      166
 90
        4
 90
      119
 90
      165
 90
      122
 90
      167
 90
        4
 90
      167
 90
      122
 90
      123
 90
      168
 90
        4
 90
      168
 90
      123
 90
      170
 90
      169
 90
        3
 90
      169
 90
      170
 90
      118
 90
        3
 90
      169
 90
      118
 90
      163
 90
        4
 90
      118
 90
      170
 90
      124
 90
      171
 90
        4
 90
      172
 90
      126
 90
      125
 90
      173
 90
        4
 90
      174
 90
      175
 90
      126
 90
      172
 90
        4
 90
      176
 90
      177
 90
      175
 90
      174
 90
        4
 90
      178
 90
      180
 90
      127
 90
      179
 90
        4
 90
      128
 90
      129
 90
      180
 90
      178
 90
        4
 90
      130
 90
      181
 90
      129
 90
      128
 90
        4
 90
      131
 90
      124
 90
      181
 90
      130
 90
        3
 90
      171
 90
      131
 90
      132
 90
        3
 90
      171
 90
      124
 90
      131
 90
        3
 90
      171
 90
      134
 90
      133
 90
        3
 90
      171
 90
      135
 90
      134
 90
        3
 90
      171
 90
      132
 90
      135
 90
        4
 90
      182
 90
      184
 90
      183
 90
      136
 90
        4
 90
      137
 90
      185
 90
      184
 90
      182
 90
        4
 90
      186
 90
      187
 90
      185
 90
      137
 90
        4
 90
      178
 90
      138
 90
      187
 90
      186
 90
        3
 90
      178
 90
      139
 90
      138
 90
        3
 90
      178
 90
      179
 90
      139
 90
        3
 90
      127
 90
      180
 90
      140
 90
        3
 90
      140
 90
      180
 90
      141
 90
        4
 90
      141
 90
      180
 90
      177
 90
      176
 94
      384
 90
        0
 90
       85
 90
       84
 90
       85
 90
        1
 90
       84
 90
        0
 90
        1
 90
       59
 90
       60
 90
       58
 90
       59
 90
       57
 90
       58
 90
       57
 90
       60
 90
       60
 90
       61
 90
       56
 90
       57
 90
       56
 90
       61
 90
       61
 90
       62
 90
       55
 90
       56
 90
       55
 90
       62
 90
       62
 90
       86
 90
       54
 90
       55
 90
       54
 90
       86
 90
       63
 90
       86
 90
       53
 90
       54
 90
       53
 90
       63
 90
       63
 90
       87
 90
       52
 90
       53
 90
       52
 90
       87
 90
       64
 90
       87
 90
       51
 90
       52
 90
       51
 90
       64
 90
       64
 90
       88
 90
       50
 90
       51
 90
       50
 90
       88
 90
       65
 90
       88
 90
       49
 90
       50
 90
       49
 90
       65
 90
       65
 90
       89
 90
       48
 90
       49
 90
       48
 90
       89
 90
       66
 90
       89
 90
       47
 90
       48
 90
       47
 90
       66
 90
       66
 90
       67
 90
       46
 90
       47
 90
       46
 90
       67
 90
       70
 90
       71
 90
       69
 90
       70
 90
       68
 90
       69
 90
       68
 90
       71
 90
       71
 90
       72
 90
       67
 90
       68
 90
       46
 90
       72
 90
       72
 90
       73
 90
       45
 90
       46
 90
       45
 90
       73
 90
       73
 90
       74
 90
       44
 90
       45
 90
       44
 90
       74
 90
       74
 90
       75
 90
       43
 90
       44
 90
       43
 90
       75
 90
       75
 90
       76
 90
       42
 90
       43
 90
       42
 90
       76
 90
       41
 90
       42
 90
       41
 90
       76
 90
       76
 90
       77
 90
       40
 90
       41
 90
       40
 90
       77
 90
       39
 90
       40
 90
       39
 90
       77
 90
       81
 90
       82
 90
        4
 90
       81
 90
        3
 90
        4
 90
        3
 90
       82
 90
       82
 90
       83
 90
        2
 90
        3
 90
        2
 90
       83
 90
       83
 90
       84
 90
        1
 90
        2
 90
       80
 90
       81
 90
        5
 90
       80
 90
        4
 90
        5
 90
       79
 90
       80
 90
        6
 90
       79
 90
        5
 90
        6
 90
       78
 90
       79
 90
        7
 90
       78
 90
        6
 90
        7
 90
       39
 90
       78
 90
        7
 90
       39
 90
       77
 90
       78
 90
       38
 90
       39
 90
        8
 90
       38
 90
        7
 90
        8
 90
       16
 90
       17
 90
       15
 90
       16
 90
       14
 90
       15
 90
       14
 90
       17
 90
       17
 90
       18
 90
       13
 90
       14
 90
       13
 90
       18
 90
       18
 90
       90
 90
       12
 90
       13
 90
       12
 90
       90
 90
       30
 90
       92
 90
       20
 90
       92
 90
       11
 90
       20
 90
       11
 90
       30
 90
       30
 90
       31
 90
       10
 90
       11
 90
       10
 90
       31
 90
       31
 90
       32
 90
        9
 90
       10
 90
        9
 90
       32
 90
       32
 90
       33
 90
        8
 90
        9
 90
        8
 90
       33
 90
       34
 90
       38
 90
       33
 90
       34
 90
       33
 90
       38
 90
       37
 90
       38
 90
       36
 90
       37
 90
       36
 90
       38
 90
       35
 90
       36
 90
       35
 90
       38
 90
       34
 90
       35
 90
       26
 90
       27
 90
       25
 90
       26
 90
       24
 90
       25
 90
       24
 90
       27
 90
       27
 90
       28
 90
       23
 90
       24
 90
       23
 90
       28
 90
       28
 90
       29
 90
       22
 90
       23
 90
       22
 90
       29
 90
       29
 90
       30
 90
       22
 90
       93
 90
       30
 90
       93
 90
       21
 90
       93
 90
       21
 90
       30
 90
       21
 90
       92
 90
       20
 90
       91
 90
       11
 90
       91
 90
       19
 90
       91
 90
       11
 90
       19
 90
       19
 90
       90
 90
       11
 90
       12
 90
       38
 90
      171
 90
      133
 90
      171
 90
       37
 90
      133
 90
       39
 90
      118
 90
      118
 90
      171
 90
       40
 90
      117
 90
      117
 90
      118
 90
       41
 90
      116
 90
      116
 90
      117
 90
       42
 90
      162
 90
      116
 90
      162
 90
       43
 90
      161
 90
      161
 90
      162
 90
       44
 90
      113
 90
      113
 90
      161
 90
       45
 90
      112
 90
      112
 90
      113
 90
       46
 90
      109
 90
      109
 90
      112
 90
       47
 90
      154
 90
      109
 90
      154
 90
       48
 90
      152
 90
      152
 90
      154
 90
       49
 90
      151
 90
      151
 90
      152
 90
       50
 90
      150
 90
      150
 90
      151
 90
       51
 90
      106
 90
      106
 90
      150
 90
       52
 90
      105
 90
      105
 90
      106
 90
       53
 90
      103
 90
      103
 90
      105
 90
       54
 90
      102
 90
      102
 90
      103
 90
       55
 90
      145
 90
      102
 90
      145
 90
       56
 90
      100
 90
      100
 90
      145
 90
       57
 90
       98
 90
       98
 90
      100
 90
       58
 90
       97
 90
       97
 90
       98
 90
       59
 90
       96
 90
       96
 90
       97
 90
       60
 90
      144
 90
       96
 90
      144
 90
       61
 90
       99
 90
       99
 90
      144
 90
       62
 90
      101
 90
       99
 90
      101
 90
       86
 90
      146
 90
      101
 90
      146
 90
       63
 90
      147
 90
      146
 90
      147
 90
       87
 90
      104
 90
      104
 90
      147
 90
       64
 90
      148
 90
      104
 90
      148
 90
       88
 90
      149
 90
      148
 90
      149
 90
       65
 90
      107
 90
      107
 90
      149
 90
       89
 90
      108
 90
      107
 90
      108
 90
       66
 90
      153
 90
      108
 90
      153
 90
       67
 90
      155
 90
      153
 90
      155
 90
       68
 90
      111
 90
      111
 90
      155
 90
       69
 90
      110
 90
      110
 90
      111
 90
       70
 90
      157
 90
      110
 90
      157
 90
       71
 90
      156
 90
      156
 90
      157
 90
       72
 90
      158
 90
      156
 90
      158
 90
       73
 90
      159
 90
      158
 90
      159
 90
       74
 90
      160
 90
      159
 90
      160
 90
       75
 90
      114
 90
      114
 90
      160
 90
       76
 90
      115
 90
      114
 90
      115
 90
       77
 90
      163
 90
      115
 90
      163
 90
       78
 90
      169
 90
      163
 90
      169
 90
       79
 90
      168
 90
      168
 90
      169
 90
       80
 90
      167
 90
      167
 90
      168
 90
       81
 90
      119
 90
      119
 90
      167
 90
       82
 90
      164
 90
      119
 90
      164
 90
       83
 90
      166
 90
      164
 90
      166
 90
       84
 90
       94
 90
       94
 90
      166
 90
       85
 90
      143
 90
       94
 90
      143
 90
        0
 90
      142
 90
      142
 90
      143
 90
        1
 90
       95
 90
       95
 90
      142
 90
        2
 90
      121
 90
       95
 90
      121
 90
        3
 90
      120
 90
      120
 90
      121
 90
        4
 90
      165
 90
      120
 90
      165
 90
        5
 90
      122
 90
      122
 90
      165
 90
        6
 90
      123
 90
      122
 90
      123
 90
        7
 90
      170
 90
      123
 90
      170
 90
        8
 90
      124
 90
      124
 90
      170
 90
        9
 90
      181
 90
      124
 90
      181
 90
       10
 90
      129
 90
      129
 90
      181
 90
       11
 90
      180
 90
      129
 90
      180
 90
       12
 90
      177
 90
      177
 90
      180
 90
       13
 90
      175
 90
      175
 90
      177
 90
       14
 90
      126
 90
      126
 90
      175
 90
       15
 90
      125
 90
      125
 90
      126
 90
       16
 90
      173
 90
      125
 90
      173
 90
       17
 90
      172
 90
      172
 90
      173
 90
       18
 90
      174
 90
      172
 90
      174
 90
       90
 90
      176
 90
      174
 90
      176
 90
       19
 90
      141
 90
      141
 90
      176
 90
       91
 90
      140
 90
      140
 90
      141
 90
       20
 90
      127
 90
      127
 90
      140
 90
       92
 90
      179
 90
      127
 90
      179
 90
       21
 90
      139
 90
      139
 90
      179
 90
       93
 90
      138
 90
      138
 90
      139
 90
       22
 90
      187
 90
      138
 90
      187
 90
       23
 90
      185
 90
      185
 90
      187
 90
       24
 90
      184
 90
      184
 90
      185
 90
       25
 90
      183
 90
      183
 90
      184
 90
       26
 90
      136
 90
      136
 90
      183
 90
       27
 90
      182
 90
      136
 90
      182
 90
       28
 90
      137
 90
      137
 90
      182
 90
       29
 90
      186
 90
      137
 90
      186
 90
       30
 90
      178
 90
      178
 90
      186
 90
       31
 90
      128
 90
      128
 90
      178
 90
       32
 90
      130
 90
      128
 90
      130
 90
       33
 90
      131
 90
      130
 90
      131
 90
       34
 90
      132
 90
      131
 90
      132
 90
       35
 90
      135
 90
      132
 90
      135
 90
       36
 90
      134
 90
      134
 90
      135
 90
      133
 90
      134
 90
       94
 90
       95
 90
       98
 90
      144
 90
       99
 90
      100
 90
      101
 90
      145
 90
      102
 90
      146
 90
      103
 90
      147
 90
      104
 90
      105
 90
      106
 90
      148
 90
      149
 90
      150
 90
      107
 90
      151
 90
      108
 90
      152
 90
      153
 90
      154
 90
      109
 90
      155
 90
      111
 90
      156
 90
      109
 90
      158
 90
      112
 90
      159
 90
      113
 90
      160
 90
      114
 90
      161
 90
      115
 90
      162
 90
      115
 90
      116
 90
      117
 90
      163
 90
      118
 90
      163
 90
      120
 90
      164
 90
      119
 90
      165
 90
      121
 90
      166
 90
      122
 90
      167
 90
      123
 90
      168
 90
      169
 90
      170
 90
      118
 90
      170
 90
      118
 90
      169
 90
      124
 90
      171
 90
      126
 90
      172
 90
      174
 90
      175
 90
      176
 90
      177
 90
      178
 90
      180
 90
      127
 90
      180
 90
      178
 90
      179
 90
      128
 90
      129
 90
      130
 90
      181
 90
      124
 90
      131
 90
      131
 90
      171
 90
      132
 90
      171
 90
      134
 90
      171
 90
      135
 90
      171
 90
      182
 90
      184
 90
      137
 90
      185
 90
      186
 90
      187
 90
      138
 90
      178
 90
      139
 90
      178
 90
      140
 90
      180
 90
      141
 90
      180
 95
      384
140
0.0
140
0.0
140
0.0
140
0.0
140
0.0
140
0.0
140
0.0
140
0.0
140
0.0
140
0.0
140
0.0
140
0.0
140
0.0
140
0.0
140
0.0
140
0.0
140
0.0
140
0.0
140
0.0
140
0.0
140
0.0
140
0.0
140
0.0
140
0.0
140
0.0
140
0.0
140
0.0
140
0.0
140
0.0
140
0.0
140
0.0
140
0.0
140
0.0
140
0.0
140
0.0
140
0.0
140
0.0
140
0.0
140
0.0
140
0.0
140
0.0
140
0.0
140
0.0
140
0.0
140
0.0
140
0.0
140
0.0
140
0.0
140
0.0
140
0.0
140
0.0
140
0.0
140
0.0
140
0.0
140
0.0
140
0.0
140
0.0
140
0.0
140
0.0
140
0.0
140
0.0
140
0.0
140
0.0
140
0.0
140
0.0
140
0.0
140
0.0
140
0.0
140
0.0
140
0.0
140
0.0
140
0.0
140
0.0
140
0.0
140
0.0
140
0.0
140
0.0
140
0.0
140
0.0
140
0.0
140
0.0
140
0.0
140
0.0
140
0.0
140
0.0
140
0.0
140
0.0
140
0.0
140
0.0
140
0.0
140
0.0
140
0.0
140
0.0
140
0.0
140
0.0
140
0.0
140
0.0
140
0.0
140
0.0
140
0.0
140
0.0
140
0.0
140
0.0
140
0.0
140
0.0
140
0.0
140
0.0
140
0.0
140
0.0
140
0.0
140
0.0
140
0.0
140
0.0
140
0.0
140
0.0
140
0.0
140
0.0
140
0.0
140
0.0
140
0.0
140
0.0
140
0.0
140
0.0
140
0.0
140
0.0
140
0.0
140
0.0
140
0.0
140
0.0
140
0.0
140
0.0
140
0.0
140
0.0
140
0.0
140
0.0
140
0.0
140
0.0
140
0.0
140
0.0
140
0.0
140
0.0
140
0.0
140
0.0
140
0.0
140
0.0
140
0.0
140
0.0
140
0.0
140
0.0
140
0.0
140
0.0
140
0.0
140
0.0
140
0.0
140
0.0
140
0.0
140
0.0
140
0.0
140
0.0
140
0.0
140
0.0
140
0.0
140
0.0
140
0.0
140
0.0
140
0.0
140
0.0
140
0.0
140
0.0
140
0.0
140
0.0
140
0.0
140
0.0
140
0.0
140
0.0
140
0.0
140
0.0
140
0.0
140
0.0
140
0.0
140
0.0
140
0.0
140
0.0
140
0.0
140
0.0
140
0.0
140
0.0
140
0.0
140
0.0
140
0.0
140
0.0
140
0.0
140
0.0
140
0.0
140
0.0
140
0.0
140
0.0
140
0.0
140
0.0
140
0.0
140
0.0
140
0.0
140
0.0
140
0.0
140
0.0
140
0.0
140
0.0
140
0.0
140
0.0
140
0.0
140
0.0
140
0.0
140
0.0
140
0.0
140
0.0
140
0.0
140
0.0
140
0.0
140
0.0
140
0.0
140
0.0
140
0.0
140
0.0
140
0.0
140
0.0
140
0.0
140
0.0
140
0.0
140
0.0
140
0.0
140
0.0
140
0.0
140
0.0
140
0.0
140
0.0
140
0.0
140
0.0
140
0.0
140
0.0
140
0.0
140
0.0
140
0.0
140
0.0
140
0.0
140
0.0
140
0.0
140
0.0
140
0.0
140
0.0
140
0.0
140
0.0
140
0.0
140
0.0
140
0.0
140
0.0
140
0.0
140
0.0
140
0.0
140
0.0
140
0.0
140
0.0
140
0.0
140
0.0
140
0.0
140
0.0
140
0.0
140
0.0
140
0.0
140
0.0
140
0.0
140
0.0
140
0.0
140
0.0
140
0.0
140
0.0
140
0.0
140
0.0
140
0.0
140
0.0
140
0.0
140
0.0
140
0.0
140
0.0
140
0.0
140
0.0
140
0.0
140
0.0
140
0.0
140
0.0
140
0.0
140
0.0
140
0.0
140
0.0
140
0.0
140
0.0
140
0.0
140
0.0
140
0.0
140
0.0
140
0.0
140
0.0
140
0.0
140
0.0
140
0.0
140
0.0
140
0.0
140
0.0
140
0.0
140
0.0
140
0.0
140
0.0
140
0.0
140
0.0
140
0.0
140
0.0
140
0.0
140
0.0
140
0.0
140
0.0
140
0.0
140
0.0
140
0.0
140
0.0
140
0.0
140
0.0
140
0.0
140
0.0
140
0.0
140
0.0
140
0.0
140
0.0
140
0.0
140
0.0
140
0.0
140
0.0
140
0.0
140
0.0
140
0.0
140
0.0
140
0.0
140
0.0
140
0.0
140
0.0
140
0.0
140
0.0
140
0.0
140
0.0
140
0.0
140
0.0
140
0.0
140
0.0
140
0.0
140
0.0
140
0.0
140
0.0
140
0.0
140
0.0
140
0.0
140
0.0
140
0.0
140
0.0
140
0.0
140
0.0
140
0.0
140
0.0
140
0.0
140
0.0
140
0.0
140
0.0
140
0.0
140
0.0
140
0.0
140
0.0
140
0.0
140
0.0
140
0.0
140
0.0
140
0.0
140
0.0
140
0.0
140
0.0
140
0.0
140
0.0
140
0.0
 90
        0
  0
POLYLINE
  5
FA
330
1F
100
AcDbEntity
  8
OracDecor_skirtings
 62
   213
420
 12867809
100
AcDb2dPolyline
 66
     1
 10
0.0
 20
0.0
 30
-0.0000048643551054
 70
     1
210
-0.9999999999999769
220
0.0000001788139343
230
-0.0000001192092896
  0
VERTEX
  5
FB
330
FA
100
AcDbEntity
  8
OracDecor_skirtings
 62
   213
420
 12867809
100
AcDbVertex
100
AcDb2dVertex
 10
0.0001397132873535
 20
47.08214569091796
 30
-0.0000048643551054
  0
VERTEX
  5
FC
330
FA
100
AcDbEntity
  8
OracDecor_skirtings
 62
   213
420
 12867809
100
AcDbVertex
100
AcDb2dVertex
 10
0.0001397132873535
 20
49.116455078125
 30
-0.0000048643551054
  0
VERTEX
  5
FD
330
FA
100
AcDbEntity
  8
OracDecor_skirtings
 62
   213
420
 12867809
100
AcDbVertex
100
AcDb2dVertex
 10
-0.0639443397521973
 20
49.36128997802734
 30
-0.0000048643551054
  0
VERTEX
  5
FE
330
FA
100
AcDbEntity
  8
OracDecor_skirtings
 62
   213
420
 12867809
100
AcDbVertex
100
AcDb2dVertex
 10
-0.2399649620056152
 20
49.54357147216796
 30
-0.0000048643551054
  0
VERTEX
  5
FF
330
FA
100
AcDbEntity
  8
OracDecor_skirtings
 62
   213
420
 12867809
100
AcDbVertex
100
AcDb2dVertex
 10
-0.482409954071045
 20
49.61614990234375
 30
-0.0000048643551054
  0
VERTEX
  5
100
330
FA
100
AcDbEntity
  8
OracDecor_skirtings
 62
   213
420
 12867809
100
AcDbVertex
100
AcDb2dVertex
 10
-5.034758567810058
 20
49.7751235961914
 30
-0.0000048643551054
  0
VERTEX
  5
101
330
FA
100
AcDbEntity
  8
OracDecor_skirtings
 62
   213
420
 12867809
100
AcDbVertex
100
AcDb2dVertex
 10
-5.51972484588623
 20
49.9202651977539
 30
-0.0000048643551054
  0
VERTEX
  5
102
330
FA
100
AcDbEntity
  8
OracDecor_skirtings
 62
   213
420
 12867809
100
AcDbVertex
100
AcDb2dVertex
 10
-5.871730804443359
 20
50.28478240966797
 30
-0.0000048643551054
  0
VERTEX
  5
103
330
FA
100
AcDbEntity
  8
OracDecor_skirtings
 62
   213
420
 12867809
100
AcDbVertex
100
AcDb2dVertex
 10
-5.999859809875488
 20
50.77451324462891
 30
-0.0000048643551054
  0
VERTEX
  5
104
330
FA
100
AcDbEntity
  8
OracDecor_skirtings
 62
   213
420
 12867809
100
AcDbVertex
100
AcDb2dVertex
 10
-5.999859809875488
 20
59.95694732666016
 30
-0.0000048643551054
  0
VERTEX
  5
105
330
FA
100
AcDbEntity
  8
OracDecor_skirtings
 62
   213
420
 12867809
100
AcDbVertex
100
AcDb2dVertex
 10
-5.812463760375976
 20
60.8022232055664
 30
-0.0000048643551054
  0
VERTEX
  5
106
330
FA
100
AcDbEntity
  8
OracDecor_skirtings
 62
   213
420
 12867809
100
AcDbVertex
100
AcDb2dVertex
 10
-5.285455703735351
 20
61.48902130126953
 30
-0.0000048643551054
  0
VERTEX
  5
107
330
FA
100
AcDbEntity
  8
OracDecor_skirtings
 62
   213
420
 12867809
100
AcDbVertex
100
AcDb2dVertex
 10
-4.517498016357421
 20
61.88880157470703
 30
-0.0000048643551054
  0
VERTEX
  5
108
330
FA
100
AcDbEntity
  8
OracDecor_skirtings
 62
   213
420
 12867809
100
AcDbVertex
100
AcDb2dVertex
 10
-0.3704502582550049
 20
63.0
 30
-0.0000048643551054
  0
VERTEX
  5
109
330
FA
100
AcDbEntity
  8
OracDecor_skirtings
 62
   213
420
 12867809
100
AcDbVertex
100
AcDb2dVertex
 10
-0.1784660816192627
 20
63.09995269775391
 30
-0.0000048643551054
  0
VERTEX
  5
10A
330
FA
100
AcDbEntity
  8
OracDecor_skirtings
 62
   213
420
 12867809
100
AcDbVertex
100
AcDb2dVertex
 10
-0.0467064380645752
 20
63.27165222167969
 30
-0.0000048643551054
  0
VERTEX
  5
10B
330
FA
100
AcDbEntity
  8
OracDecor_skirtings
 62
   213
420
 12867809
100
AcDbVertex
100
AcDb2dVertex
 10
0.0001399517059326
 20
63.48296356201172
 30
-0.0000048643551054
  0
VERTEX
  5
10C
330
FA
100
AcDbEntity
  8
OracDecor_skirtings
 62
   213
420
 12867809
100
AcDbVertex
100
AcDb2dVertex
 10
0.0001397132873535
 20
70.93460845947266
 30
-0.0000048643551054
  0
VERTEX
  5
10D
330
FA
100
AcDbEntity
  8
OracDecor_skirtings
 62
   213
420
 12867809
100
AcDbVertex
100
AcDb2dVertex
 10
-0.0756335258483887
 20
71.19915771484375
 30
-0.0000048643551054
  0
VERTEX
  5
10E
330
FA
100
AcDbEntity
  8
OracDecor_skirtings
 62
   213
420
 12867809
100
AcDbVertex
100
AcDb2dVertex
 10
-0.2798600196838379
 20
71.38361358642578
 30
-0.0000048643551054
  0
VERTEX
  5
10F
330
FA
100
AcDbEntity
  8
OracDecor_skirtings
 62
   213
420
 12867809
100
AcDbVertex
100
AcDb2dVertex
 10
-0.7441070079803467
 20
71.75801849365234
 30
-0.0000048643551054
  0
VERTEX
  5
110
330
FA
100
AcDbEntity
  8
OracDecor_skirtings
 62
   213
420
 12867809
100
AcDbVertex
100
AcDb2dVertex
 10
-0.9860627651214599
 20
72.06400299072265
 30
-0.0000048643551054
  0
VERTEX
  5
111
330
FA
100
AcDbEntity
  8
OracDecor_skirtings
 62
   213
420
 12867809
100
AcDbVertex
100
AcDb2dVertex
 10
-1.156980752944946
 20
72.42145538330078
 30
-0.0000048643551054
  0
VERTEX
  5
112
330
FA
100
AcDbEntity
  8
OracDecor_skirtings
 62
   213
420
 12867809
100
AcDbVertex
100
AcDb2dVertex
 10
-1.24325680732727
 20
72.80188751220703
 30
-0.0000048643551054
  0
VERTEX
  5
113
330
FA
100
AcDbEntity
  8
OracDecor_skirtings
 62
   213
420
 12867809
100
AcDbVertex
100
AcDb2dVertex
 10
-1.24325680732727
 20
73.19811248779297
 30
-0.0000048643551054
  0
VERTEX
  5
114
330
FA
100
AcDbEntity
  8
OracDecor_skirtings
 62
   213
420
 12867809
100
AcDbVertex
100
AcDb2dVertex
 10
-1.156980752944946
 20
73.57855987548828
 30
-0.0000048643551054
  0
VERTEX
  5
115
330
FA
100
AcDbEntity
  8
OracDecor_skirtings
 62
   213
420
 12867809
100
AcDbVertex
100
AcDb2dVertex
 10
-0.9860632419586181
 20
73.93599700927734
 30
-0.0000048643551054
  0
VERTEX
  5
116
330
FA
100
AcDbEntity
  8
OracDecor_skirtings
 62
   213
420
 12867809
100
AcDbVertex
100
AcDb2dVertex
 10
-0.7441074848175049
 20
74.24199676513672
 30
-0.0000048643551054
  0
VERTEX
  5
117
330
FA
100
AcDbEntity
  8
OracDecor_skirtings
 62
   213
420
 12867809
100
AcDbVertex
100
AcDb2dVertex
 10
-0.279860258102417
 20
74.61640167236328
 30
-0.0000048643551054
  0
VERTEX
  5
118
330
FA
100
AcDbEntity
  8
OracDecor_skirtings
 62
   213
420
 12867809
100
AcDbVertex
100
AcDb2dVertex
 10
-0.0756337642669678
 20
74.80084228515625
 30
-0.0000048643551054
  0
VERTEX
  5
119
330
FA
100
AcDbEntity
  8
OracDecor_skirtings
 62
   213
420
 12867809
100
AcDbVertex
100
AcDb2dVertex
 10
0.0001394748687744
 20
75.0654067993164
 30
-0.0000048643551054
  0
VERTEX
  5
11A
330
FA
100
AcDbEntity
  8
OracDecor_skirtings
 62
   213
420
 12867809
100
AcDbVertex
100
AcDb2dVertex
 10
0.0001399517059326
 20
85.0
 30
-0.0000048643551054
  0
VERTEX
  5
11B
330
FA
100
AcDbEntity
  8
OracDecor_skirtings
 62
   213
420
 12867809
100
AcDbVertex
100
AcDb2dVertex
 10
-4.249859809875488
 20
85.0
 30
-0.0000048643551054
  0
VERTEX
  5
11C
330
FA
100
AcDbEntity
  8
OracDecor_skirtings
 62
   213
420
 12867809
100
AcDbVertex
100
AcDb2dVertex
 10
-4.381159782409667
 20
82.98262023925781
 30
-0.0000048643551054
  0
VERTEX
  5
11D
330
FA
100
AcDbEntity
  8
OracDecor_skirtings
 62
   213
420
 12867809
100
AcDbVertex
100
AcDb2dVertex
 10
-4.697408199310302
 20
81.29511260986328
 30
-0.0000048643551054
  0
VERTEX
  5
11E
330
FA
100
AcDbEntity
  8
OracDecor_skirtings
 62
   213
420
 12867809
100
AcDbVertex
100
AcDb2dVertex
 10
-5.174362182617187
 20
79.85604858398438
 30
-0.0000048643551054
  0
VERTEX
  5
11F
330
FA
100
AcDbEntity
  8
OracDecor_skirtings
 62
   213
420
 12867809
100
AcDbVertex
100
AcDb2dVertex
 10
-5.852919578552246
 20
78.48121643066406
 30
-0.0000048643551054
  0
VERTEX
  5
120
330
FA
100
AcDbEntity
  8
OracDecor_skirtings
 62
   213
420
 12867809
100
AcDbVertex
100
AcDb2dVertex
 10
-6.831147670745849
 20
77.02193450927734
 30
-0.0000048643551054
  0
VERTEX
  5
121
330
FA
100
AcDbEntity
  8
OracDecor_skirtings
 62
   213
420
 12867809
100
AcDbVertex
100
AcDb2dVertex
 10
-8.14453125
 20
75.39432525634765
 30
-0.0000048643551054
  0
VERTEX
  5
122
330
FA
100
AcDbEntity
  8
OracDecor_skirtings
 62
   213
420
 12867809
100
AcDbVertex
100
AcDb2dVertex
 10
-9.497976303100585
 20
73.71636199951172
 30
-0.0000048643551054
  0
VERTEX
  5
123
330
FA
100
AcDbEntity
  8
OracDecor_skirtings
 62
   213
420
 12867809
100
AcDbVertex
100
AcDb2dVertex
 10
-10.52808380126953
 20
72.17591857910156
 30
-0.0000048643551054
  0
VERTEX
  5
124
330
FA
100
AcDbEntity
  8
OracDecor_skirtings
 62
   213
420
 12867809
100
AcDbVertex
100
AcDb2dVertex
 10
-11.23854255676269
 20
70.73928070068359
 30
-0.0000048643551054
  0
VERTEX
  5
125
330
FA
100
AcDbEntity
  8
OracDecor_skirtings
 62
   213
420
 12867809
100
AcDbVertex
100
AcDb2dVertex
 10
-11.72554016113281
 20
69.28397369384765
 30
-0.0000048643551054
  0
VERTEX
  5
126
330
FA
100
AcDbEntity
  8
OracDecor_skirtings
 62
   213
420
 12867809
100
AcDbVertex
100
AcDb2dVertex
 10
-12.03229713439941
 20
67.67080688476562
 30
-0.0000048643551054
  0
VERTEX
  5
127
330
FA
100
AcDbEntity
  8
OracDecor_skirtings
 62
   213
420
 12867809
100
AcDbVertex
100
AcDb2dVertex
 10
-12.14486122131347
 20
65.75
 30
-0.0000048643551054
  0
VERTEX
  5
128
330
FA
100
AcDbEntity
  8
OracDecor_skirtings
 62
   213
420
 12867809
100
AcDbVertex
100
AcDb2dVertex
 10
-12.17835426330566
 20
65.625
 30
-0.0000048643551054
  0
VERTEX
  5
129
330
FA
100
AcDbEntity
  8
OracDecor_skirtings
 62
   213
420
 12867809
100
AcDbVertex
100
AcDb2dVertex
 10
-12.26986122131348
 20
65.53349304199219
 30
-0.0000048643551054
  0
VERTEX
  5
12A
330
FA
100
AcDbEntity
  8
OracDecor_skirtings
 62
   213
420
 12867809
100
AcDbVertex
100
AcDb2dVertex
 10
-12.39486122131348
 20
65.5
 30
-0.0000048643551054
  0
VERTEX
  5
12B
330
FA
100
AcDbEntity
  8
OracDecor_skirtings
 62
   213
420
 12867809
100
AcDbVertex
100
AcDb2dVertex
 10
-13.49986267089844
 20
65.5
 30
-0.0000048643551054
  0
VERTEX
  5
12C
330
FA
100
AcDbEntity
  8
OracDecor_skirtings
 62
   213
420
 12867809
100
AcDbVertex
100
AcDb2dVertex
 10
-13.7497444152832
 20
65.43303680419922
 30
-0.0000048643551054
  0
VERTEX
  5
12D
330
FA
100
AcDbEntity
  8
OracDecor_skirtings
 62
   213
420
 12867809
100
AcDbVertex
100
AcDb2dVertex
 10
-13.93289947509765
 20
65.24988555908203
 30
-0.0000048643551054
  0
VERTEX
  5
12E
330
FA
100
AcDbEntity
  8
OracDecor_skirtings
 62
   213
420
 12867809
100
AcDbVertex
100
AcDb2dVertex
 10
-13.99986267089843
 20
65.0
 30
-0.0000048643551054
  0
VERTEX
  5
12F
330
FA
100
AcDbEntity
  8
OracDecor_skirtings
 62
   213
420
 12867809
100
AcDbVertex
100
AcDb2dVertex
 10
-13.99986267089843
 20
0.0000029802404242
 30
-0.0000048643551054
  0
VERTEX
  5
130
330
FA
100
AcDbEntity
  8
OracDecor_skirtings
 62
   213
420
 12867809
100
AcDbVertex
100
AcDb2dVertex
 10
-6.499860286712646
 20
0.00000342727526
 30
-0.0000048643551054
  0
VERTEX
  5
131
330
FA
100
AcDbEntity
  8
OracDecor_skirtings
 62
   213
420
 12867809
100
AcDbVertex
100
AcDb2dVertex
 10
-6.249982357025146
 20
0.066966637969017
 30
-0.0000048643551054
  0
VERTEX
  5
132
330
FA
100
AcDbEntity
  8
OracDecor_skirtings
 62
   213
420
 12867809
100
AcDbVertex
100
AcDb2dVertex
 10
-6.066821098327636
 20
0.250125527381897
 30
-0.0000048643551054
  0
VERTEX
  5
133
330
FA
100
AcDbEntity
  8
OracDecor_skirtings
 62
   213
420
 12867809
100
AcDbVertex
100
AcDb2dVertex
 10
-5.999859809875488
 20
0.500003457069397
 30
-0.0000048643551054
  0
VERTEX
  5
134
330
FA
100
AcDbEntity
  8
OracDecor_skirtings
 62
   213
420
 12867809
100
AcDbVertex
100
AcDb2dVertex
 10
-5.999859809875488
 20
3.55874228477478
 30
-0.0000048643551054
  0
VERTEX
  5
135
330
FA
100
AcDbEntity
  8
OracDecor_skirtings
 62
   213
420
 12867809
100
AcDbVertex
100
AcDb2dVertex
 10
-5.8800048828125
 20
4.033397197723388
 30
-0.0000048643551054
  0
VERTEX
  5
136
330
FA
100
AcDbEntity
  8
OracDecor_skirtings
 62
   213
420
 12867809
100
AcDbVertex
100
AcDb2dVertex
 10
-5.549422264099121
 20
4.394168376922607
 30
-0.0000048643551054
  0
VERTEX
  5
137
330
FA
100
AcDbEntity
  8
OracDecor_skirtings
 62
   213
420
 12867809
100
AcDbVertex
100
AcDb2dVertex
 10
-5.087016105651855
 20
4.554931163787841
 30
-0.0000048643551054
  0
VERTEX
  5
138
330
FA
100
AcDbEntity
  8
OracDecor_skirtings
 62
   213
420
 12867809
100
AcDbVertex
100
AcDb2dVertex
 10
-0.4562821388244629
 20
4.960067749023437
 30
-0.0000048643551054
  0
VERTEX
  5
139
330
FA
100
AcDbEntity
  8
OracDecor_skirtings
 62
   213
420
 12867809
100
AcDbVertex
100
AcDb2dVertex
 10
-0.2252058982849121
 20
5.040390014648437
 30
-0.0000048643551054
  0
VERTEX
  5
13A
330
FA
100
AcDbEntity
  8
OracDecor_skirtings
 62
   213
420
 12867809
100
AcDbVertex
100
AcDb2dVertex
 10
-0.0597376823425293
 20
5.220970153808593
 30
-0.0000048643551054
  0
VERTEX
  5
13B
330
FA
100
AcDbEntity
  8
OracDecor_skirtings
 62
   213
420
 12867809
100
AcDbVertex
100
AcDb2dVertex
 10
0.0001397132873535
 20
5.458168029785156
 30
-0.0000048643551054
  0
VERTEX
  5
13C
330
FA
100
AcDbEntity
  8
OracDecor_skirtings
 62
   213
420
 12867809
100
AcDbVertex
100
AcDb2dVertex
 10
0.0001404285430908
 20
7.934608459472656
 30
-0.0000048643551054
  0
VERTEX
  5
13D
330
FA
100
AcDbEntity
  8
OracDecor_skirtings
 62
   213
420
 12867809
100
AcDbVertex
100
AcDb2dVertex
 10
-0.0756328105926514
 20
8.19915771484375
 30
-0.0000048643551054
  0
VERTEX
  5
13E
330
FA
100
AcDbEntity
  8
OracDecor_skirtings
 62
   213
420
 12867809
100
AcDbVertex
100
AcDb2dVertex
 10
-0.2798600196838379
 20
8.38360595703125
 30
-0.0000048643551054
  0
VERTEX
  5
13F
330
FA
100
AcDbEntity
  8
OracDecor_skirtings
 62
   213
420
 12867809
100
AcDbVertex
100
AcDb2dVertex
 10
-0.7441070079803467
 20
8.758010864257812
 30
-0.0000048643551054
  0
VERTEX
  5
140
330
FA
100
AcDbEntity
  8
OracDecor_skirtings
 62
   213
420
 12867809
100
AcDbVertex
100
AcDb2dVertex
 10
-0.9860634803771972
 20
9.064002990722656
 30
-0.0000048643551054
  0
VERTEX
  5
141
330
FA
100
AcDbEntity
  8
OracDecor_skirtings
 62
   213
420
 12867809
100
AcDbVertex
100
AcDb2dVertex
 10
-1.156980991363525
 20
9.42144775390625
 30
-0.0000048643551054
  0
VERTEX
  5
142
330
FA
100
AcDbEntity
  8
OracDecor_skirtings
 62
   213
420
 12867809
100
AcDbVertex
100
AcDb2dVertex
 10
-1.243257284164428
 20
9.8018798828125
 30
-0.0000048643551054
  0
VERTEX
  5
143
330
FA
100
AcDbEntity
  8
OracDecor_skirtings
 62
   213
420
 12867809
100
AcDbVertex
100
AcDb2dVertex
 10
-1.243257284164428
 20
10.1981201171875
 30
-0.0000048643551054
  0
VERTEX
  5
144
330
FA
100
AcDbEntity
  8
OracDecor_skirtings
 62
   213
420
 12867809
100
AcDbVertex
100
AcDb2dVertex
 10
-1.156980752944946
 20
10.57855224609375
 30
-0.0000048643551054
  0
VERTEX
  5
145
330
FA
100
AcDbEntity
  8
OracDecor_skirtings
 62
   213
420
 12867809
100
AcDbVertex
100
AcDb2dVertex
 10
-0.9860639572143554
 20
10.93599700927734
 30
-0.0000048643551054
  0
VERTEX
  5
146
330
FA
100
AcDbEntity
  8
OracDecor_skirtings
 62
   213
420
 12867809
100
AcDbVertex
100
AcDb2dVertex
 10
-0.7441072463989258
 20
11.24198913574218
 30
-0.0000048643551054
  0
VERTEX
  5
147
330
FA
100
AcDbEntity
  8
OracDecor_skirtings
 62
   213
420
 12867809
100
AcDbVertex
100
AcDb2dVertex
 10
-0.2798590660095215
 20
11.61639404296875
 30
-0.0000048643551054
  0
VERTEX
  5
148
330
FA
100
AcDbEntity
  8
OracDecor_skirtings
 62
   213
420
 12867809
100
AcDbVertex
100
AcDb2dVertex
 10
-0.0756325721740723
 20
11.80084228515625
 30
-0.0000048643551054
  0
VERTEX
  5
149
330
FA
100
AcDbEntity
  8
OracDecor_skirtings
 62
   213
420
 12867809
100
AcDbVertex
100
AcDb2dVertex
 10
0.0001406669616699
 20
12.06539344787598
 30
-0.0000048643551054
  0
VERTEX
  5
14A
330
FA
100
AcDbEntity
  8
OracDecor_skirtings
 62
   213
420
 12867809
100
AcDbVertex
100
AcDb2dVertex
 10
0.0001406669616699
 20
14.54183387756347
 30
-0.0000048643551054
  0
VERTEX
  5
14B
330
FA
100
AcDbEntity
  8
OracDecor_skirtings
 62
   213
420
 12867809
100
AcDbVertex
100
AcDb2dVertex
 10
-0.0597367286682129
 20
14.77903175354004
 30
-0.0000048643551054
  0
VERTEX
  5
14C
330
FA
100
AcDbEntity
  8
OracDecor_skirtings
 62
   213
420
 12867809
100
AcDbVertex
100
AcDb2dVertex
 10
-0.2252049446105957
 20
14.95961189270019
 30
-0.0000048643551054
  0
VERTEX
  5
14D
330
FA
100
AcDbEntity
  8
OracDecor_skirtings
 62
   213
420
 12867809
100
AcDbVertex
100
AcDb2dVertex
 10
-0.4562811851501465
 20
15.03993415832519
 30
-0.0000048643551054
  0
VERTEX
  5
14E
330
FA
100
AcDbEntity
  8
OracDecor_skirtings
 62
   213
420
 12867809
100
AcDbVertex
100
AcDb2dVertex
 10
-5.087016105651855
 20
15.44507026672363
 30
-0.0000048643551054
  0
VERTEX
  5
14F
330
FA
100
AcDbEntity
  8
OracDecor_skirtings
 62
   213
420
 12867809
100
AcDbVertex
100
AcDb2dVertex
 10
-5.549423217773437
 20
15.60583686828613
 30
-0.0000048643551054
  0
VERTEX
  5
150
330
FA
100
AcDbEntity
  8
OracDecor_skirtings
 62
   213
420
 12867809
100
AcDbVertex
100
AcDb2dVertex
 10
-5.8800048828125
 20
15.96660804748535
 30
-0.0000048643551054
  0
VERTEX
  5
151
330
FA
100
AcDbEntity
  8
OracDecor_skirtings
 62
   213
420
 12867809
100
AcDbVertex
100
AcDb2dVertex
 10
-5.999859809875488
 20
16.44126319885254
 30
-0.0000048643551054
  0
VERTEX
  5
152
330
FA
100
AcDbEntity
  8
OracDecor_skirtings
 62
   213
420
 12867809
100
AcDbVertex
100
AcDb2dVertex
 10
-5.999859809875488
 20
45.42408752441406
 30
-0.0000048643551054
  0
VERTEX
  5
153
330
FA
100
AcDbEntity
  8
OracDecor_skirtings
 62
   213
420
 12867809
100
AcDbVertex
100
AcDb2dVertex
 10
-5.871730804443359
 20
45.91382598876953
 30
-0.0000048643551054
  0
VERTEX
  5
154
330
FA
100
AcDbEntity
  8
OracDecor_skirtings
 62
   213
420
 12867809
100
AcDbVertex
100
AcDb2dVertex
 10
-5.51972484588623
 20
46.27833557128906
 30
-0.0000048643551054
  0
VERTEX
  5
155
330
FA
100
AcDbEntity
  8
OracDecor_skirtings
 62
   213
420
 12867809
100
AcDbVertex
100
AcDb2dVertex
 10
-5.034759521484375
 20
46.42347717285156
 30
-0.0000048643551054
  0
VERTEX
  5
156
330
FA
100
AcDbEntity
  8
OracDecor_skirtings
 62
   213
420
 12867809
100
AcDbVertex
100
AcDb2dVertex
 10
-0.4824101924896241
 20
46.58245086669921
 30
-0.0000048643551054
  0
VERTEX
  5
157
330
FA
100
AcDbEntity
  8
OracDecor_skirtings
 62
   213
420
 12867809
100
AcDbVertex
100
AcDb2dVertex
 10
-0.2399652004241943
 20
46.65503692626953
 30
-0.0000048643551054
  0
VERTEX
  5
158
330
FA
100
AcDbEntity
  8
OracDecor_skirtings
 62
   213
420
 12867809
100
AcDbVertex
100
AcDb2dVertex
 10
-0.0639443397521973
 20
46.83731842041015
 30
-0.0000048643551054
  0
SEQEND
  5
159
330
FA
100
AcDbEntity
  8
OracDecor_skirtings
 62
   213
420
 12867809
  0
ENDSEC
  0
SECTION
  2
OBJECTS
  0
DICTIONARY
  5
C
330
0
100
AcDbDictionary
281
     1
  3
ACAD_COLOR
350
DC
  3
ACAD_DETAILVIEWSTYLE
350
F5
  3
ACAD_GROUP
350
D
  3
ACAD_LAYOUT
350
1A
  3
ACAD_MATERIAL
350
AA
  3
ACAD_MLEADERSTYLE
350
F1
  3
ACAD_MLINESTYLE
350
17
  3
ACAD_PLOTSETTINGS
350
19
  3
ACAD_PLOTSTYLENAME
350
E
  3
ACAD_SCALELIST
350
DF
  3
ACAD_SECTIONVIEWSTYLE
350
F3
  3
ACAD_TABLESTYLE
350
DD
  3
ACAD_VISUALSTYLE
350
C3
  3
ACDB_RECOMPOSE_DATA
350
166
  3
AcDbVariableDictionary
350
15A
  0
DICTIONARY
  5
DC
102
{ACAD_REACTORS
330
C
102
}
330
C
100
AcDbDictionary
281
     1
  0
DICTIONARY
  5
F5
102
{ACAD_REACTORS
330
C
102
}
330
C
100
AcDbDictionary
281
     1
  3
Imperial24
350
F6
  0
DICTIONARY
  5
D
102
{ACAD_REACTORS
330
C
102
}
330
C
100
AcDbDictionary
281
     1
  0
DICTIONARY
  5
1A
102
{ACAD_REACTORS
330
C
102
}
330
C
100
AcDbDictionary
281
     1
  3
Layout1
350
1E
  3
Layout2
350
26
  3
Model
350
22
  0
DICTIONARY
  5
AA
102
{ACAD_REACTORS
330
C
102
}
330
C
100
AcDbDictionary
281
     1
  3
ByBlock
350
B3
  3
ByLayer
350
AB
  3
Global
350
BB
  0
DICTIONARY
  5
F1
102
{ACAD_REACTORS
330
C
102
}
330
C
100
AcDbDictionary
281
     1
  3
Standard
350
F2
  0
DICTIONARY
  5
17
102
{ACAD_REACTORS
330
C
102
}
330
C
100
AcDbDictionary
281
     1
  3
Standard
350
18
  0
DICTIONARY
  5
19
102
{ACAD_REACTORS
330
C
102
}
330
C
100
AcDbDictionary
281
     1
  0
ACDBDICTIONARYWDFLT
  5
E
102
{ACAD_REACTORS
330
C
102
}
330
C
100
AcDbDictionary
281
     1
  3
ByLayer
350
2D
  3
Normal
350
F
100
AcDbDictionaryWithDefault
340
F
  0
DICTIONARY
  5
DF
102
{ACAD_REACTORS
330
C
102
}
330
C
100
AcDbDictionary
281
     1
  3
A0
350
E0
  3
A1
350
E1
  3
A2
350
E2
  3
A3
350
E3
  3
A4
350
E4
  3
A5
350
E5
  3
A6
350
E6
  3
A7
350
E7
  3
A8
350
E8
  3
A9
350
E9
  3
B0
350
EA
  3
B1
350
EB
  3
B2
350
EC
  3
B3
350
ED
  3
B4
350
EE
  3
B5
350
EF
  3
B6
350
F0
  0
DICTIONARY
  5
F3
102
{ACAD_REACTORS
330
C
102
}
330
C
100
AcDbDictionary
281
     1
  3
Imperial24
350
F4
  0
DICTIONARY
  5
DD
102
{ACAD_REACTORS
330
C
102
}
330
C
100
AcDbDictionary
281
     1
  3
Standard
350
DE
  0
DICTIONARY
  5
C3
102
{ACAD_REACTORS
330
C
102
}
330
C
100
AcDbDictionary
281
     1
  3
2dWireframe
350
C9
  3
Basic
350
C8
  3
Brighten
350
CF
  3
ColorChange
350
D3
  3
Conceptual
350
CC
  3
Dim
350
CE
  3
EdgeColorOff
350
DB
  3
Facepattern
350
D2
  3
Flat
350
C4
  3
FlatWithEdges
350
C5
  3
Gouraud
350
C6
  3
GouraudWithEdges
350
C7
  3
Hidden
350
CB
  3
JitterOff
350
D9
  3
Linepattern
350
D1
  3
OverhangOff
350
DA
  3
Realistic
350
CD
  3
Shaded
350
D8
  3
Shaded with edges
350
D7
  3
Shades of Gray
350
D4
  3
Sketchy
350
D5
  3
Thicken
350
D0
  3
Wireframe
350
CA
  3
X-Ray
350
D6
  0
XRECORD
  5
166
102
{ACAD_REACTORS
330
C
102
}
330
C
100
AcDbXrecord
280
     1
 90
        1
330
DE
  0
DICTIONARY
  5
15A
102
{ACAD_REACTORS
330
C
102
}
330
C
100
AcDbDictionary
281
     1
  3
CANNOSCALE
350
160
  3
CMLEADERSTYLE
350
15C
  3
CTABLESTYLE
350
15B
  3
CVIEWDETAILSTYLE
350
15D
  3
CVIEWSECTIONSTYLE
350
15E
  3
LAYEREVAL
350
162
  3
LAYERNOTIFY
350
163
  3
LIGHTINGUNITS
350
161
  3
MSLTSCALE
350
15F
  0
ACDBDETAILVIEWSTYLE
  5
F6
102
{ACAD_XDICTIONARY
360
19B
102
}
102
{ACAD_REACTORS
330
F5
102
}
330
F5
100
AcDbModelDocViewStyle
 70
     0
  3
Imperial24
290
     0
100
AcDbDetailViewStyle
 70
     0
 71
     0
 90
        3
 71
     1
340
11
 62
   256
 40
0.24
340
0
 62
   256
 40
0.24
300

 40
0.36
280
     3
 71
     2
340
16
 90
       25
 62
   256
 71
     3
340
11
 62
   256
 40
0.24
 90
        1
 40
0.75
 90
        1
300
%<\AcVar ViewType \f "%tc1">% %<\AcVar ViewDetailId>%\PSCALE %<\AcVar ViewScale \f "%sn">%
 71
     4
340
16
 90
       25
 62
   256
340
16
 90
       25
 62
   256
280
     0
  0
LAYOUT
  5
1E
102
{ACAD_REACTORS
330
1A
102
}
330
1A
100
AcDbPlotSettings
  1

  2
\\KTXNTBDC\CASF2PN1
  4

  6

 40
0.0
 41
0.0
 42
0.0
 43
0.0
 44
0.0
 45
0.0
 46
0.0
 47
0.0
 48
0.0
 49
0.0
140
0.0
141
0.0
142
1.0
143
1.0
 70
   688
 72
     0
 73
     0
 74
     5
  7

 75
    16
147
1.0
 76
     0
 77
     2
 78
   300
148
0.0
149
0.0
100
AcDbLayout
  1
Layout1
 70
     1
 71
     1
 10
0.0
 20
0.0
 11
12.0
 21
9.0
 12
0.0
 22
0.0
 32
0.0
 14
1.000000000000000E+20
 24
1.000000000000000E+20
 34
1.000000000000000E+20
 15
-1.000000000000000E+20
 25
-1.000000000000000E+20
 35
-1.000000000000000E+20
146
0.0
 13
0.0
 23
0.0
 33
0.0
 16
1.0
 26
0.0
 36
0.0
 17
0.0
 27
1.0
 37
0.0
 76
     0
330
1B
  0
LAYOUT
  5
26
102
{ACAD_REACTORS
330
1A
102
}
330
1A
100
AcDbPlotSettings
  1

  2
\\KTXNTBDC\CASF2PN1
  4

  6

 40
0.0
 41
0.0
 42
0.0
 43
0.0
 44
0.0
 45
0.0
 46
0.0
 47
0.0
 48
0.0
 49
0.0
140
0.0
141
0.0
142
1.0
143
1.0
 70
   688
 72
     0
 73
     0
 74
     5
  7

 75
    16
147
1.0
 76
     0
 77
     2
 78
   300
148
0.0
149
0.0
100
AcDbLayout
  1
Layout2
 70
     1
 71
     2
 10
0.0
 20
0.0
 11
12.0
 21
9.0
 12
0.0
 22
0.0
 32
0.0
 14
0.0
 24
0.0
 34
0.0
 15
0.0
 25
0.0
 35
0.0
146
0.0
 13
0.0
 23
0.0
 33
0.0
 16
1.0
 26
0.0
 36
0.0
 17
0.0
 27
1.0
 37
0.0
 76
     0
330
23
  0
LAYOUT
  5
22
102
{ACAD_REACTORS
330
1A
102
}
330
1A
100
AcDbPlotSettings
  1

  2
\\KTXNTBDC\CASF2PN1
  4

  6

 40
0.0
 41
0.0
 42
0.0
 43
0.0
 44
0.0
 45
0.0
 46
0.0
 47
0.0
 48
0.0
 49
0.0
140
0.0
141
0.0
142
1.0
143
1.0
 70
  1712
 72
     0
 73
     0
 74
     0
  7

 75
     0
147
1.0
 76
     0
 77
     2
 78
   300
148
0.0
149
0.0
100
AcDbLayout
  1
Model
 70
     1
 71
     0
 10
0.0
 20
0.0
 11
12.0
 21
9.0
 12
0.0
 22
0.0
 32
0.0
 14
0.0
 24
0.0
 34
0.0
 15
0.0
 25
0.0
 35
0.0
146
0.0
 13
0.0
 23
0.0
 33
0.0
 16
1.0
 26
0.0
 36
0.0
 17
0.0
 27
1.0
 37
0.0
 76
     0
330
1F
  0
MATERIAL
  5
B3
102
{ACAD_XDICTIONARY
360
B4
102
}
102
{ACAD_REACTORS
330
AA
102
}
330
AA
100
AcDbMaterial
  1
ByBlock
 72
     0
 43
0.0208333333333333
 43
0.0
 43
0.0
 43
0.0
 43
0.0
 43
0.0208333333333333
 43
0.0
 43
0.0
 43
0.0
 43
0.0
 43
1.0
 43
0.0
 43
0.0
 43
0.0
 43
0.0
 43
1.0
 77
     0
 47
0.0208333333333333
 47
0.0
 47
0.0
 47
0.0
 47
0.0
 47
0.0208333333333333
 47
0.0
 47
0.0
 47
0.0
 47
0.0
 47
1.0
 47
0.0
 47
0.0
 47
0.0
 47
0.0
 47
1.0
171
     0
 49
0.0208333333333333
 49
0.0
 49
0.0
 49
0.0
 49
0.0
 49
0.0208333333333333
 49
0.0
 49
0.0
 49
0.0
 49
0.0
 49
1.0
 49
0.0
 49
0.0
 49
0.0
 49
0.0
 49
1.0
175
     0
142
0.0208333333333333
142
0.0
142
0.0
142
0.0
142
0.0
142
0.0208333333333333
142
0.0
142
0.0
142
0.0
142
0.0
142
1.0
142
0.0
142
0.0
142
0.0
142
0.0
142
1.0
179
     0
144
0.0208333333333333
144
0.0
144
0.0
144
0.0
144
0.0
144
0.0208333333333333
144
0.0
144
0.0
144
0.0
144
0.0
144
1.0
144
0.0
144
0.0
144
0.0
144
0.0
144
1.0
147
0.0208333333333333
147
0.0
147
0.0
147
0.0
147
0.0
147
0.0208333333333333
147
0.0
147
0.0
147
0.0
147
0.0
147
1.0
147
0.0
147
0.0
147
0.0
147
0.0
147
1.0
  0
MATERIAL
  5
AB
102
{ACAD_XDICTIONARY
360
AC
102
}
102
{ACAD_REACTORS
330
AA
102
}
330
AA
100
AcDbMaterial
  1
ByLayer
 72
     0
 43
0.0208333333333333
 43
0.0
 43
0.0
 43
0.0
 43
0.0
 43
0.0208333333333333
 43
0.0
 43
0.0
 43
0.0
 43
0.0
 43
1.0
 43
0.0
 43
0.0
 43
0.0
 43
0.0
 43
1.0
 77
     0
 47
0.0208333333333333
 47
0.0
 47
0.0
 47
0.0
 47
0.0
 47
0.0208333333333333
 47
0.0
 47
0.0
 47
0.0
 47
0.0
 47
1.0
 47
0.0
 47
0.0
 47
0.0
 47
0.0
 47
1.0
171
     0
 49
0.0208333333333333
 49
0.0
 49
0.0
 49
0.0
 49
0.0
 49
0.0208333333333333
 49
0.0
 49
0.0
 49
0.0
 49
0.0
 49
1.0
 49
0.0
 49
0.0
 49
0.0
 49
0.0
 49
1.0
175
     0
142
0.0208333333333333
142
0.0
142
0.0
142
0.0
142
0.0
142
0.0208333333333333
142
0.0
142
0.0
142
0.0
142
0.0
142
1.0
142
0.0
142
0.0
142
0.0
142
0.0
142
1.0
179
     0
144
0.0208333333333333
144
0.0
144
0.0
144
0.0
144
0.0
144
0.0208333333333333
144
0.0
144
0.0
144
0.0
144
0.0
144
1.0
144
0.0
144
0.0
144
0.0
144
0.0
144
1.0
147
0.0208333333333333
147
0.0
147
0.0
147
0.0
147
0.0
147
0.0208333333333333
147
0.0
147
0.0
147
0.0
147
0.0
147
1.0
147
0.0
147
0.0
147
0.0
147
0.0
147
1.0
  0
MATERIAL
  5
BB
102
{ACAD_XDICTIONARY
360
BC
102
}
102
{ACAD_REACTORS
330
AA
102
}
330
AA
100
AcDbMaterial
  1
Global
 72
     0
 43
0.0208333333333333
 43
0.0
 43
0.0
 43
0.0
 43
0.0
 43
0.0208333333333333
 43
0.0
 43
0.0
 43
0.0
 43
0.0
 43
1.0
 43
0.0
 43
0.0
 43
0.0
 43
0.0
 43
1.0
 77
     0
 47
0.0208333333333333
 47
0.0
 47
0.0
 47
0.0
 47
0.0
 47
0.0208333333333333
 47
0.0
 47
0.0
 47
0.0
 47
0.0
 47
1.0
 47
0.0
 47
0.0
 47
0.0
 47
0.0
 47
1.0
171
     0
 49
0.0208333333333333
 49
0.0
 49
0.0
 49
0.0
 49
0.0
 49
0.0208333333333333
 49
0.0
 49
0.0
 49
0.0
 49
0.0
 49
1.0
 49
0.0
 49
0.0
 49
0.0
 49
0.0
 49
1.0
175
     0
142
0.0208333333333333
142
0.0
142
0.0
142
0.0
142
0.0
142
0.0208333333333333
142
0.0
142
0.0
142
0.0
142
0.0
142
1.0
142
0.0
142
0.0
142
0.0
142
0.0
142
1.0
179
     0
144
0.0208333333333333
144
0.0
144
0.0
144
0.0
144
0.0
144
0.0208333333333333
144
0.0
144
0.0
144
0.0
144
0.0
144
1.0
144
0.0
144
0.0
144
0.0
144
0.0
144
1.0
147
0.0208333333333333
147
0.0
147
0.0
147
0.0
147
0.0
147
0.0208333333333333
147
0.0
147
0.0
147
0.0
147
0.0
147
1.0
147
0.0
147
0.0
147
0.0
147
0.0
147
1.0
  0
MLEADERSTYLE
  5
F2
102
{ACAD_XDICTIONARY
360
197
102
}
102
{ACAD_REACTORS
330
F1
102
}
330
F1
100
AcDbMLeaderStyle
179
     2
170
     2
171
     1
172
     0
 90
        2
 40
0.0
 41
0.0
173
     1
 91
-1056964608
340
14
 92
       -2
290
     1
 42
0.09
291
     1
 43
0.36
  3
Standard
 44
0.18
300

342
11
174
     1
178
     6
175
     1
176
     0
 93
-1056964608
 45
0.18
292
     0
297
     0
 46
0.18
 94
-1056964608
 47
1.0
 49
1.0
140
1.0
293
     1
141
0.0
294
     1
177
     0
142
1.0
295
     0
296
     0
143
0.125
271
     0
272
     9
273
     9
  0
MLINESTYLE
  5
18
102
{ACAD_REACTORS
330
17
102
}
330
17
100
AcDbMlineStyle
  2
STANDARD
 70
     0
  3

 62
   256
 51
90.0
 52
90.0
 71
     2
 49
0.5
 62
   256
  6
BYLAYER
 49
-0.5
 62
   256
  6
BYLAYER
  0
ACDBPLACEHOLDER
  5
2D
102
{ACAD_REACTORS
330
E
102
}
330
E
  0
ACDBPLACEHOLDER
  5
F
102
{ACAD_REACTORS
330
E
102
}
330
E
  0
SCALE
  5
E0
102
{ACAD_REACTORS
330
DF
102
}
330
DF
100
AcDbScale
 70
     0
300
1:1
140
1.0
141
1.0
290
     1
  0
SCALE
  5
E1
102
{ACAD_REACTORS
330
DF
102
}
330
DF
100
AcDbScale
 70
     0
300
1/128" = 1'-0"
140
0.0078125
141
12.0
290
     0
  0
SCALE
  5
E2
102
{ACAD_REACTORS
330
DF
102
}
330
DF
100
AcDbScale
 70
     0
300
1/64" = 1'-0"
140
0.015625
141
12.0
290
     0
  0
SCALE
  5
E3
102
{ACAD_REACTORS
330
DF
102
}
330
DF
100
AcDbScale
 70
     0
300
1/32" = 1'-0"
140
0.03125
141
12.0
290
     0
  0
SCALE
  5
E4
102
{ACAD_REACTORS
330
DF
102
}
330
DF
100
AcDbScale
 70
     0
300
1/16" = 1'-0"
140
0.0625
141
12.0
290
     0
  0
SCALE
  5
E5
102
{ACAD_REACTORS
330
DF
102
}
330
DF
100
AcDbScale
 70
     0
300
3/32" = 1'-0"
140
0.09375
141
12.0
290
     0
  0
SCALE
  5
E6
102
{ACAD_REACTORS
330
DF
102
}
330
DF
100
AcDbScale
 70
     0
300
1/8" = 1'-0"
140
0.125
141
12.0
290
     0
  0
SCALE
  5
E7
102
{ACAD_REACTORS
330
DF
102
}
330
DF
100
AcDbScale
 70
     0
300
3/16" = 1'-0"
140
0.1875
141
12.0
290
     0
  0
SCALE
  5
E8
102
{ACAD_REACTORS
330
DF
102
}
330
DF
100
AcDbScale
 70
     0
300
1/4" = 1'-0"
140
0.25
141
12.0
290
     0
  0
SCALE
  5
E9
102
{ACAD_REACTORS
330
DF
102
}
330
DF
100
AcDbScale
 70
     0
300
3/8" = 1'-0"
140
0.375
141
12.0
290
     0
  0
SCALE
  5
EA
102
{ACAD_REACTORS
330
DF
102
}
330
DF
100
AcDbScale
 70
     0
300
1/2" = 1'-0"
140
0.5
141
12.0
290
     0
  0
SCALE
  5
EB
102
{ACAD_REACTORS
330
DF
102
}
330
DF
100
AcDbScale
 70
     0
300
3/4" = 1'-0"
140
0.75
141
12.0
290
     0
  0
SCALE
  5
EC
102
{ACAD_REACTORS
330
DF
102
}
330
DF
100
AcDbScale
 70
     0
300
1" = 1'-0"
140
1.0
141
12.0
290
     0
  0
SCALE
  5
ED
102
{ACAD_REACTORS
330
DF
102
}
330
DF
100
AcDbScale
 70
     0
300
1-1/2" = 1'-0"
140
1.5
141
12.0
290
     0
  0
SCALE
  5
EE
102
{ACAD_REACTORS
330
DF
102
}
330
DF
100
AcDbScale
 70
     0
300
3" = 1'-0"
140
3.0
141
12.0
290
     0
  0
SCALE
  5
EF
102
{ACAD_REACTORS
330
DF
102
}
330
DF
100
AcDbScale
 70
     0
300
6" = 1'-0"
140
6.0
141
12.0
290
     0
  0
SCALE
  5
F0
102
{ACAD_REACTORS
330
DF
102
}
330
DF
100
AcDbScale
 70
     0
300
1'-0" = 1'-0"
140
12.0
141
12.0
290
     0
  0
ACDBSECTIONVIEWSTYLE
  5
F4
102
{ACAD_XDICTIONARY
360
199
102
}
102
{ACAD_REACTORS
330
F3
102
}
330
F3
100
AcDbModelDocViewStyle
 70
     0
  3
Imperial24
290
     0
100
AcDbSectionViewStyle
 70
     0
 71
     0
 90
       78
 71
     1
340
11
 62
   256
 40
0.24
340
0
340
0
 62
   256
 40
0.24
300
I, O, Q, S, X, Z
 40
0.48
 90
        3
 40
0.18
 90
        1
 71
     2
340
16
 90
       25
 62
   256
340
16
 90
       50
 62
   256
 40
0.24
 40
0.0
 40
0.24
 71
     3
340
11
 62
   256
 40
0.24
 90
        1
 40
0.75
 90
        1
300
%<\AcVar ViewType \f "%tc1">% %<\AcVar ViewSectionStartId>%-%<\AcVar ViewSectionEndId>%\PSCALE %<\AcVar ViewScale \f "%sn">%
 71
     4
 62
   256
 62
   257
300
ANSI31
 40
1.0
 90
        0
290
     0
290
     0
 90
        6
 40
0.0
 40
1.570796326794896
 40
0.2617993877991494
 40
1.308996938995747
 40
-0.2617993877991494
 40
1.832595714594046
  0
TABLESTYLE
  5
DE
102
{ACAD_XDICTIONARY
360
164
102
}
102
{ACAD_REACTORS
330
DD
102
}
330
DD
100
AcDbTableStyle
280
     0
  3
Standard
 70
     0
 71
     0
 40
0.06
 41
0.06
280
     0
281
     0
  7
Standard
140
0.18
170
     2
 62
     0
 63
     7
283
     0
 90
      512
 91
        0
  1

274
    -2
284
     1
 64
     0
275
    -2
285
     1
 65
     0
276
    -2
286
     1
 66
     0
277
    -2
287
     1
 67
     0
278
    -2
288
     1
 68
     0
279
    -2
289
     1
 69
     0
  7
Standard
140
0.25
170
     5
 62
     0
 63
     7
283
     0
 90
      512
 91
        0
  1

274
    -2
284
     1
 64
     0
275
    -2
285
     1
 65
     0
276
    -2
286
     1
 66
     0
277
    -2
287
     1
 67
     0
278
    -2
288
     1
 68
     0
279
    -2
289
     1
 69
     0
  7
Standard
140
0.18
170
     5
 62
     0
 63
     7
283
     0
 90
      512
 91
        0
  1

274
    -2
284
     1
 64
     0
275
    -2
285
     1
 65
     0
276
    -2
286
     1
 66
     0
277
    -2
287
     1
 67
     0
278
    -2
288
     1
 68
     0
279
    -2
289
     1
 69
     0
  0
VISUALSTYLE
  5
C9
102
{ACAD_XDICTIONARY
360
171
102
}
102
{ACAD_REACTORS
330
C3
102
}
330
C3
100
AcDbVisualStyle
  2
2dWireframe
 70
     4
177
     2
291
     0
 71
     0
176
     1
 72
     2
176
     1
 73
     0
176
     1
 90
        0
176
     1
 40
0.6
176
     1
 41
30.0
176
     1
 63
     7
421
 16777215
176
     1
 74
     1
176
     1
 91
        4
176
     1
 64
     7
176
     1
 65
   257
176
     1
 75
     1
176
     1
175
     1
176
     1
 42
1.0
176
     1
 92
        0
176
     1
 66
   257
176
     1
 43
1.0
176
     1
 76
     1
176
     1
 77
     6
176
     1
 78
     2
176
     1
 67
     7
176
     1
 79
     5
176
     1
170
     0
176
     1
171
     0
176
     1
290
     0
176
     1
 93
        1
176
     1
 44
0.0
176
     1
173
     0
176
     1
1001
ACAD
1000
AcDbSavedByObjectVersion
1070
     0
  0
VISUALSTYLE
  5
C8
102
{ACAD_XDICTIONARY
360
16F
102
}
102
{ACAD_REACTORS
330
C3
102
}
330
C3
100
AcDbVisualStyle
  2
Basic
 70
     7
177
     2
291
     1
 71
     1
176
     1
 72
     0
176
     1
 73
     1
176
     1
 90
        0
176
     1
 40
0.6
176
     1
 41
30.0
176
     1
 63
     7
421
 16777215
176
     1
 74
     0
176
     1
 91
        4
176
     1
 64
     7
176
     1
 65
   257
176
     1
 75
     1
176
     1
175
     1
176
     1
 42
1.0
176
     1
 92
        8
176
     1
 66
     7
176
     1
 43
1.0
176
     1
 76
     1
176
     1
 77
     6
176
     1
 78
     2
176
     1
 67
     7
176
     1
 79
     5
176
     1
170
     0
176
     1
171
     0
176
     1
290
     0
176
     1
 93
        1
176
     1
 44
0.0
176
     1
173
     0
176
     1
1001
ACAD
1000
AcDbSavedByObjectVersion
1070
     0
  0
VISUALSTYLE
  5
CF
102
{ACAD_XDICTIONARY
360
17D
102
}
102
{ACAD_REACTORS
330
C3
102
}
330
C3
100
AcDbVisualStyle
  2
Brighten
 70
    12
177
     2
291
     1
 71
     2
176
     1
 72
     2
176
     1
 73
     0
176
     1
 90
        0
176
     1
 40
0.6
176
     1
 41
30.0
176
     1
 63
     7
421
 16777215
176
     1
 74
     1
176
     1
 91
        4
176
     1
 64
     7
176
     1
 65
   257
176
     1
 75
     1
176
     1
175
     1
176
     1
 42
1.0
176
     1
 92
        8
176
     1
 66
     7
176
     1
 43
1.0
176
     1
 76
     1
176
     1
 77
     6
176
     1
 78
     2
176
     1
 67
     7
176
     1
 79
     5
176
     1
170
     0
176
     1
171
     0
176
     1
290
     0
176
     1
 93
        1
176
     1
 44
50.0
176
     1
173
     0
176
     1
1001
ACAD
1000
AcDbSavedByObjectVersion
1070
     0
  0
VISUALSTYLE
  5
D3
102
{ACAD_XDICTIONARY
360
185
102
}
102
{ACAD_REACTORS
330
C3
102
}
330
C3
100
AcDbVisualStyle
  2
ColorChange
 70
    16
177
     2
291
     1
 71
     2
176
     1
 72
     2
176
     1
 73
     3
176
     1
 90
        0
176
     1
 40
0.6
176
     1
 41
30.0
176
     1
 63
     8
421
  8421504
176
     1
 74
     1
176
     1
 91
        4
176
     1
 64
     7
176
     1
 65
   257
176
     1
 75
     1
176
     1
175
     1
176
     1
 42
1.0
176
     1
 92
        8
176
     1
 66
     8
424
  8421504
176
     1
 43
1.0
176
     1
 76
     1
176
     1
 77
     6
176
     1
 78
     2
176
     1
 67
     7
176
     1
 79
     5
176
     1
170
     0
176
     1
171
     0
176
     1
290
     0
176
     1
 93
        1
176
     1
 44
0.0
176
     1
173
     0
176
     1
1001
ACAD
1000
AcDbSavedByObjectVersion
1070
     0
  0
VISUALSTYLE
  5
CC
102
{ACAD_XDICTIONARY
360
177
102
}
102
{ACAD_REACTORS
330
C3
102
}
330
C3
100
AcDbVisualStyle
  2
Conceptual
 70
     9
177
     2
291
     0
 71
     3
176
     1
 72
     2
176
     1
 73
     0
176
     1
 90
        0
176
     1
 40
0.6
176
     1
 41
30.0
176
     1
 63
     7
421
 16777215
176
     1
 74
     2
176
     1
 91
        2
176
     1
 64
     7
176
     1
 65
   257
176
     1
 75
     1
176
     1
175
     1
176
     1
 42
179.0
176
     1
 92
        8
176
     1
 66
     7
176
     1
 43
1.0
176
     1
 76
     1
176
     1
 77
     6
176
     1
 78
     2
176
     1
 67
     7
176
     1
 79
     3
176
     1
170
     0
176
     1
171
     0
176
     1
290
     0
176
     1
 93
        1
176
     1
 44
0.0
176
     1
173
     0
176
     1
1001
ACAD
1000
AcDbSavedByObjectVersion
1070
     0
  0
VISUALSTYLE
  5
CE
102
{ACAD_XDICTIONARY
360
17B
102
}
102
{ACAD_REACTORS
330
C3
102
}
330
C3
100
AcDbVisualStyle
  2
Dim
 70
    11
177
     2
291
     1
 71
     2
176
     1
 72
     2
176
     1
 73
     0
176
     1
 90
        0
176
     1
 40
0.6
176
     1
 41
30.0
176
     1
 63
     7
421
 16777215
176
     1
 74
     1
176
     1
 91
        4
176
     1
 64
     7
176
     1
 65
   257
176
     1
 75
     1
176
     1
175
     1
176
     1
 42
1.0
176
     1
 92
        8
176
     1
 66
     7
176
     1
 43
1.0
176
     1
 76
     1
176
     1
 77
     6
176
     1
 78
     2
176
     1
 67
     7
176
     1
 79
     5
176
     1
170
     0
176
     1
171
     0
176
     1
290
     0
176
     1
 93
        1
176
     1
 44
-50.0
176
     1
173
     0
176
     1
1001
ACAD
1000
AcDbSavedByObjectVersion
1070
     0
  0
VISUALSTYLE
  5
DB
102
{ACAD_XDICTIONARY
360
195
102
}
102
{ACAD_REACTORS
330
C3
102
}
330
C3
100
AcDbVisualStyle
  2
EdgeColorOff
 70
    22
177
     2
291
     1
 71
     2
176
     0
 72
     2
176
     0
 73
     0
176
     0
 90
        0
176
     0
 40
0.6
176
     0
 41
30.0
176
     0
 63
     7
421
 16777215
176
     0
 74
     1
176
     0
 91
        4
176
     0
 64
     7
176
     0
 65
   257
176
     0
 75
     1
176
     0
175
     1
176
     0
 42
1.0
176
     0
 92
        8
176
     2
 66
     7
176
     0
 43
1.0
176
     0
 76
     1
176
     0
 77
     6
176
     0
 78
     2
176
     0
 67
     7
176
     0
 79
     5
176
     0
170
     0
176
     0
171
     0
176
     0
290
     0
176
     0
 93
        1
176
     0
 44
0.0
176
     0
173
     0
176
     0
1001
ACAD
1000
AcDbSavedByObjectVersion
1070
     0
  0
VISUALSTYLE
  5
D2
102
{ACAD_XDICTIONARY
360
183
102
}
102
{ACAD_REACTORS
330
C3
102
}
330
C3
100
AcDbVisualStyle
  2
Facepattern
 70
    15
177
     2
291
     1
 71
     2
176
     1
 72
     2
176
     1
 73
     0
176
     1
 90
        0
176
     1
 40
0.6
176
     1
 41
30.0
176
     1
 63
     7
421
 16777215
176
     1
 74
     1
176
     1
 91
        4
176
     1
 64
     7
176
     1
 65
   257
176
     1
 75
     1
176
     1
175
     1
176
     1
 42
1.0
176
     1
 92
        8
176
     1
 66
     7
176
     1
 43
1.0
176
     1
 76
     1
176
     1
 77
     6
176
     1
 78
     2
176
     1
 67
     7
176
     1
 79
     5
176
     1
170
     0
176
     1
171
     0
176
     1
290
     0
176
     1
 93
        1
176
     1
 44
0.0
176
     1
173
     0
176
     1
1001
ACAD
1000
AcDbSavedByObjectVersion
1070
     0
  0
VISUALSTYLE
  5
C4
102
{ACAD_XDICTIONARY
360
167
102
}
102
{ACAD_REACTORS
330
C3
102
}
330
C3
100
AcDbVisualStyle
  2
Flat
 70
     0
177
     2
291
     1
 71
     2
176
     1
 72
     1
176
     1
 73
     1
176
     1
 90
        2
176
     1
 40
0.6
176
     1
 41
30.0
176
     1
 63
     7
421
 16777215
176
     1
 74
     0
176
     1
 91
        0
176
     1
 64
     7
176
     1
 65
   257
176
     1
 75
     1
176
     1
175
     1
176
     1
 42
1.0
176
     1
 92
        8
176
     1
 66
     7
176
     1
 43
1.0
176
     1
 76
     1
176
     1
 77
     6
176
     1
 78
     2
176
     1
 67
     7
176
     1
 79
     5
176
     1
170
     0
176
     1
171
     0
176
     1
290
     0
176
     1
 93
       13
176
     1
 44
0.0
176
     1
173
     0
176
     1
1001
ACAD
1000
AcDbSavedByObjectVersion
1070
     0
  0
VISUALSTYLE
  5
C5
102
{ACAD_XDICTIONARY
360
169
102
}
102
{ACAD_REACTORS
330
C3
102
}
330
C3
100
AcDbVisualStyle
  2
FlatWithEdges
 70
     1
177
     2
291
     1
 71
     2
176
     1
 72
     1
176
     1
 73
     1
176
     1
 90
        2
176
     1
 40
0.6
176
     1
 41
30.0
176
     1
 63
     7
421
 16777215
176
     1
 74
     1
176
     1
 91
        0
176
     1
 64
     7
176
     1
 65
   257
176
     1
 75
     1
176
     1
175
     1
176
     1
 42
1.0
176
     1
 92
        0
176
     1
 66
   257
176
     1
 43
1.0
176
     1
 76
     1
176
     1
 77
     6
176
     1
 78
     2
176
     1
 67
     7
176
     1
 79
     5
176
     1
170
     0
176
     1
171
     0
176
     1
290
     0
176
     1
 93
       13
176
     1
 44
0.0
176
     1
173
     0
176
     1
1001
ACAD
1000
AcDbSavedByObjectVersion
1070
     0
  0
VISUALSTYLE
  5
C6
102
{ACAD_XDICTIONARY
360
16B
102
}
102
{ACAD_REACTORS
330
C3
102
}
330
C3
100
AcDbVisualStyle
  2
Gouraud
 70
     2
177
     2
291
     1
 71
     2
176
     1
 72
     2
176
     1
 73
     1
176
     1
 90
        2
176
     1
 40
0.6
176
     1
 41
30.0
176
     1
 63
     7
421
 16777215
176
     1
 74
     0
176
     1
 91
        0
176
     1
 64
     7
176
     1
 65
   257
176
     1
 75
     1
176
     1
175
     1
176
     1
 42
1.0
176
     1
 92
        0
176
     1
 66
     7
176
     1
 43
1.0
176
     1
 76
     1
176
     1
 77
     6
176
     1
 78
     2
176
     1
 67
     7
176
     1
 79
     5
176
     1
170
     0
176
     1
171
     0
176
     1
290
     0
176
     1
 93
       13
176
     1
 44
0.0
176
     1
173
     0
176
     1
1001
ACAD
1000
AcDbSavedByObjectVersion
1070
     0
  0
VISUALSTYLE
  5
C7
102
{ACAD_XDICTIONARY
360
16D
102
}
102
{ACAD_REACTORS
330
C3
102
}
330
C3
100
AcDbVisualStyle
  2
GouraudWithEdges
 70
     3
177
     2
291
     1
 71
     2
176
     1
 72
     2
176
     1
 73
     1
176
     1
 90
        2
176
     1
 40
0.6
176
     1
 41
30.0
176
     1
 63
     7
421
 16777215
176
     1
 74
     1
176
     1
 91
        0
176
     1
 64
     7
176
     1
 65
   257
176
     1
 75
     1
176
     1
175
     1
176
     1
 42
1.0
176
     1
 92
        0
176
     1
 66
   257
176
     1
 43
1.0
176
     1
 76
     1
176
     1
 77
     6
176
     1
 78
     2
176
     1
 67
     7
176
     1
 79
     5
176
     1
170
     0
176
     1
171
     0
176
     1
290
     0
176
     1
 93
       13
176
     1
 44
0.0
176
     1
173
     0
176
     1
1001
ACAD
1000
AcDbSavedByObjectVersion
1070
     0
  0
VISUALSTYLE
  5
CB
102
{ACAD_XDICTIONARY
360
175
102
}
102
{ACAD_REACTORS
330
C3
102
}
330
C3
100
AcDbVisualStyle
  2
Hidden
 70
     6
177
     2
291
     0
 71
     1
176
     1
 72
     2
176
     1
 73
     2
176
     1
 90
        0
176
     1
 40
0.6
176
     1
 41
30.0
176
     1
 63
     7
421
 16777215
176
     1
 74
     2
176
     1
 91
        2
176
     1
 64
     7
176
     1
 65
   257
176
     1
 75
     2
176
     1
175
     1
176
     1
 42
40.0
176
     1
 92
        0
176
     1
 66
   257
176
     1
 43
1.0
176
     1
 76
     1
176
     1
 77
     6
176
     1
 78
     2
176
     1
 67
     7
176
     1
 79
     3
176
     1
170
     0
176
     1
171
     0
176
     1
290
     0
176
     1
 93
        1
176
     1
 44
0.0
176
     1
173
     0
176
     1
1001
ACAD
1000
AcDbSavedByObjectVersion
1070
     0
  0
VISUALSTYLE
  5
D9
102
{ACAD_XDICTIONARY
360
191
102
}
102
{ACAD_REACTORS
330
C3
102
}
330
C3
100
AcDbVisualStyle
  2
JitterOff
 70
    20
177
     2
291
     1
 71
     2
176
     0
 72
     2
176
     0
 73
     0
176
     0
 90
        0
176
     0
 40
0.6
176
     0
 41
30.0
176
     0
 63
     7
421
 16777215
176
     0
 74
     1
176
     0
 91
        4
176
     0
 64
     7
176
     0
 65
   257
176
     0
 75
     1
176
     0
175
     1
176
     0
 42
1.0
176
     0
 92
       10
176
     2
 66
     7
176
     0
 43
1.0
176
     0
 76
     1
176
     0
 77
     6
176
     0
 78
     2
176
     0
 67
     7
176
     0
 79
     5
176
     0
170
     0
176
     0
171
     0
176
     0
290
     0
176
     0
 93
        1
176
     0
 44
0.0
176
     0
173
     0
176
     0
1001
ACAD
1000
AcDbSavedByObjectVersion
1070
     0
  0
VISUALSTYLE
  5
D1
102
{ACAD_XDICTIONARY
360
181
102
}
102
{ACAD_REACTORS
330
C3
102
}
330
C3
100
AcDbVisualStyle
  2
Linepattern
 70
    14
177
     2
291
     1
 71
     2
176
     1
 72
     2
176
     1
 73
     0
176
     1
 90
        0
176
     1
 40
0.6
176
     1
 41
30.0
176
     1
 63
     7
421
 16777215
176
     1
 74
     1
176
     1
 91
        4
176
     1
 64
     7
176
     1
 65
   257
176
     1
 75
     7
176
     1
175
     7
176
     1
 42
1.0
176
     1
 92
        8
176
     1
 66
     7
176
     1
 43
1.0
176
     1
 76
     1
176
     1
 77
     6
176
     1
 78
     2
176
     1
 67
     7
176
     1
 79
     5
176
     1
170
     0
176
     1
171
     0
176
     1
290
     0
176
     1
 93
        1
176
     1
 44
0.0
176
     1
173
     0
176
     1
1001
ACAD
1000
AcDbSavedByObjectVersion
1070
     0
  0
VISUALSTYLE
  5
DA
102
{ACAD_XDICTIONARY
360
193
102
}
102
{ACAD_REACTORS
330
C3
102
}
330
C3
100
AcDbVisualStyle
  2
OverhangOff
 70
    21
177
     2
291
     1
 71
     2
176
     0
 72
     2
176
     0
 73
     0
176
     0
 90
        0
176
     0
 40
0.6
176
     0
 41
30.0
176
     0
 63
     7
421
 16777215
176
     0
 74
     1
176
     0
 91
        4
176
     0
 64
     7
176
     0
 65
   257
176
     0
 75
     1
176
     0
175
     1
176
     0
 42
1.0
176
     0
 92
        9
176
     2
 66
     7
176
     0
 43
1.0
176
     0
 76
     1
176
     0
 77
     6
176
     0
 78
     2
176
     0
 67
     7
176
     0
 79
     5
176
     0
170
     0
176
     0
171
     0
176
     0
290
     0
176
     0
 93
        1
176
     0
 44
0.0
176
     0
173
     0
176
     0
1001
ACAD
1000
AcDbSavedByObjectVersion
1070
     0
  0
VISUALSTYLE
  5
CD
102
{ACAD_XDICTIONARY
360
179
102
}
102
{ACAD_REACTORS
330
C3
102
}
330
C3
100
AcDbVisualStyle
  2
Realistic
 70
     8
177
     2
291
     0
 71
     2
176
     1
 72
     3
176
     1
 73
     0
176
     1
 90
        2
176
     1
 40
0.6
176
     1
 41
30.0
176
     1
 63
     7
421
 16777215
176
     1
 74
     0
176
     1
 91
        0
176
     1
 64
     7
176
     1
 65
   257
176
     1
 75
     1
176
     1
175
     1
176
     1
 42
1.0
176
     1
 92
        8
176
     1
 66
   257
176
     1
 43
1.0
176
     1
 76
     1
176
     1
 77
     6
176
     1
 78
     2
176
     1
 67
     7
176
     1
 79
     3
176
     1
170
     0
176
     1
171
     0
176
     1
290
     0
176
     1
 93
       13
176
     1
 44
0.0
176
     1
173
     0
176
     1
1001
ACAD
1000
AcDbSavedByObjectVersion
1070
     0
  0
VISUALSTYLE
  5
D8
102
{ACAD_XDICTIONARY
360
18F
102
}
102
{ACAD_REACTORS
330
C3
102
}
330
C3
100
AcDbVisualStyle
  2
Shaded
 70
    27
177
     2
291
     0
 71
     2
176
     1
 72
     2
176
     1
 73
     1
176
     1
 90
        2
176
     1
 40
0.6
176
     1
 41
30.0
176
     1
 63
     7
421
 16777215
176
     1
 74
     0
176
     1
 91
        4
176
     1
 64
     7
176
     1
 65
   257
176
     1
 75
     1
176
     1
175
     1
176
     1
 42
1.0
176
     1
 92
        8
176
     1
 66
   257
176
     1
 43
1.0
176
     1
 76
     1
176
     1
 77
     6
176
     1
 78
     2
176
     1
 67
     8
425
  7895160
176
     1
 79
     3
176
     1
170
     0
176
     1
171
     0
176
     1
290
     0
176
     1
 93
        5
176
     1
 44
0.0
176
     1
173
     0
176
     1
1001
ACAD
1000
AcDbSavedByObjectVersion
1070
     0
  0
VISUALSTYLE
  5
D7
102
{ACAD_XDICTIONARY
360
18D
102
}
102
{ACAD_REACTORS
330
C3
102
}
330
C3
100
AcDbVisualStyle
  2
Shaded with edges
 70
    26
177
     2
291
     0
 71
     2
176
     1
 72
     2
176
     1
 73
     1
176
     1
 90
        2
176
     1
 40
0.6
176
     1
 41
30.0
176
     1
 63
     7
421
 16777215
176
     1
 74
     1
176
     1
 91
       10
176
     1
 64
     7
176
     1
 65
   257
176
     1
 75
     2
176
     1
175
     1
176
     1
 42
1.0
176
     1
 92
        8
176
     1
 66
   257
176
     1
 43
1.0
176
     1
 76
     1
176
     1
 77
     6
176
     1
 78
     2
176
     1
 67
     7
176
     1
 79
     3
176
     1
170
     0
176
     1
171
     0
176
     1
290
     0
176
     1
 93
        5
176
     1
 44
0.0
176
     1
173
     0
176
     1
1001
ACAD
1000
AcDbSavedByObjectVersion
1070
     0
  0
VISUALSTYLE
  5
D4
102
{ACAD_XDICTIONARY
360
187
102
}
102
{ACAD_REACTORS
330
C3
102
}
330
C3
100
AcDbVisualStyle
  2
Shades of Gray
 70
    23
177
     2
291
     0
 71
     2
176
     1
 72
     2
176
     1
 73
     3
176
     1
 90
        0
176
     1
 40
0.6
176
     1
 41
30.0
176
     1
 63
     7
421
 16777215
176
     1
 74
     2
176
     1
 91
        2
176
     1
 64
     7
176
     1
 65
     7
176
     1
 75
     1
176
     1
175
     1
176
     1
 42
40.0
176
     1
 92
        8
176
     1
 66
     7
176
     1
 43
1.0
176
     1
 76
     1
176
     1
 77
     6
176
     1
 78
     2
176
     1
 67
     7
176
     1
 79
     3
176
     1
170
     0
176
     1
171
     0
176
     1
290
     0
176
     1
 93
        1
176
     1
 44
0.0
176
     1
173
     0
176
     1
1001
ACAD
1000
AcDbSavedByObjectVersion
1070
     0
  0
VISUALSTYLE
  5
D5
102
{ACAD_XDICTIONARY
360
189
102
}
102
{ACAD_REACTORS
330
C3
102
}
330
C3
100
AcDbVisualStyle
  2
Sketchy
 70
    24
177
     2
291
     0
 71
     1
176
     1
 72
     2
176
     1
 73
     2
176
     1
 90
        0
176
     1
 40
0.6
176
     1
 41
30.0
176
     1
 63
     7
421
 16777215
176
     1
 74
     2
176
     1
 91
        2
176
     1
 64
     7
176
     1
 65
     7
176
     1
 75
     1
176
     1
175
     1
176
     1
 42
40.0
176
     1
 92
       11
176
     1
 66
     7
176
     1
 43
1.0
176
     1
 76
     1
176
     1
 77
     6
176
     1
 78
     2
176
     1
 67
     7
176
     1
 79
     6
176
     1
170
     0
176
     1
171
     0
176
     1
290
     0
176
     1
 93
        1
176
     1
 44
0.0
176
     1
173
     0
176
     1
1001
ACAD
1000
AcDbSavedByObjectVersion
1070
     0
  0
VISUALSTYLE
  5
D0
102
{ACAD_XDICTIONARY
360
17F
102
}
102
{ACAD_REACTORS
330
C3
102
}
330
C3
100
AcDbVisualStyle
  2
Thicken
 70
    13
177
     2
291
     1
 71
     2
176
     1
 72
     2
176
     1
 73
     0
176
     1
 90
        0
176
     1
 40
0.6
176
     1
 41
30.0
176
     1
 63
     7
421
 16777215
176
     1
 74
     1
176
     1
 91
        4
176
     1
 64
     7
176
     1
 65
   257
176
     1
 75
     1
176
     1
175
     1
176
     1
 42
1.0
176
     1
 92
       12
176
     1
 66
     7
176
     1
 43
1.0
176
     1
 76
     1
176
     1
 77
     6
176
     1
 78
     2
176
     1
 67
     7
176
     1
 79
     5
176
     1
170
     0
176
     1
171
     0
176
     1
290
     0
176
     1
 93
        1
176
     1
 44
0.0
176
     1
173
     0
176
     1
1001
ACAD
1000
AcDbSavedByObjectVersion
1070
     0
  0
VISUALSTYLE
  5
CA
102
{ACAD_XDICTIONARY
360
173
102
}
102
{ACAD_REACTORS
330
C3
102
}
330
C3
100
AcDbVisualStyle
  2
Wireframe
 70
     5
177
     2
291
     0
 71
     0
176
     1
 72
     2
176
     1
 73
     0
176
     1
 90
        0
176
     1
 40
0.6
176
     1
 41
30.0
176
     1
 63
     7
421
 16777215
176
     1
 74
     1
176
     1
 91
        4
176
     1
 64
     7
176
     1
 65
   257
176
     1
 75
     1
176
     1
175
     1
176
     1
 42
1.0
176
     1
 92
        0
176
     1
 66
   257
176
     1
 43
1.0
176
     1
 76
     1
176
     1
 77
     6
176
     1
 78
     2
176
     1
 67
     7
176
     1
 79
     3
176
     1
170
     0
176
     1
171
     0
176
     1
290
     0
176
     1
 93
        1
176
     1
 44
0.0
176
     1
173
     0
176
     1
1001
ACAD
1000
AcDbSavedByObjectVersion
1070
     0
  0
VISUALSTYLE
  5
D6
102
{ACAD_XDICTIONARY
360
18B
102
}
102
{ACAD_REACTORS
330
C3
102
}
330
C3
100
AcDbVisualStyle
  2
X-Ray
 70
    25
177
     2
291
     0
 71
     2
176
     1
 72
     2
176
     1
 73
     1
176
     1
 90
        1
176
     1
 40
0.5
176
     1
 41
30.0
176
     1
 63
     7
421
 16777215
176
     1
 74
     1
176
     1
 91
        0
176
     1
 64
     7
176
     1
 65
   257
176
     1
 75
     1
176
     1
175
     1
176
     1
 42
1.0
176
     1
 92
        8
176
     1
 66
     7
176
     1
 43
1.0
176
     1
 76
     1
176
     1
 77
     6
176
     1
 78
     2
176
     1
 67
     7
176
     1
 79
     3
176
     1
170
     0
176
     1
171
     0
176
     1
290
     0
176
     1
 93
       13
176
     1
 44
0.0
176
     1
173
     0
176
     1
1001
ACAD
1000
AcDbSavedByObjectVersion
1070
     0
  0
DICTIONARYVAR
  5
160
102
{ACAD_REACTORS
330
15A
102
}
330
15A
100
DictionaryVariables
280
     0
  1
1:1
  0
DICTIONARYVAR
  5
15C
102
{ACAD_REACTORS
330
15A
102
}
330
15A
100
DictionaryVariables
280
     0
  1
STANDARD
  0
DICTIONARYVAR
  5
15B
102
{ACAD_REACTORS
330
15A
102
}
330
15A
100
DictionaryVariables
280
     0
  1
STANDARD
  0
DICTIONARYVAR
  5
15D
102
{ACAD_REACTORS
330
15A
102
}
330
15A
100
DictionaryVariables
280
     0
  1
Imperial24
  0
DICTIONARYVAR
  5
15E
102
{ACAD_REACTORS
330
15A
102
}
330
15A
100
DictionaryVariables
280
     0
  1
Imperial24
  0
DICTIONARYVAR
  5
162
102
{ACAD_REACTORS
330
15A
102
}
330
15A
100
DictionaryVariables
280
     0
  1
1
  0
DICTIONARYVAR
  5
163
102
{ACAD_REACTORS
330
15A
102
}
330
15A
100
DictionaryVariables
280
     0
  1
15
  0
DICTIONARYVAR
  5
161
102
{ACAD_REACTORS
330
15A
102
}
330
15A
100
DictionaryVariables
280
     0
  1
0
  0
DICTIONARYVAR
  5
15F
102
{ACAD_REACTORS
330
15A
102
}
330
15A
100
DictionaryVariables
280
     0
  1
0
  0
DICTIONARY
  5
19B
330
F6
100
AcDbDictionary
280
     1
281
     1
  3
ACAD_XREC_ROUNDTRIP
360
19C
  0
DICTIONARY
  5
B4
330
B3
100
AcDbDictionary
280
     1
281
     1
  3
BUMPTILE
360
B6
  3
DIFFUSETILE
360
B5
  3
OPACITYTILE
360
B9
  3
REFLECTIONTILE
360
B8
  3
REFRACTIONTILE
360
BA
  3
SPECULARTILE
360
B7
  0
DICTIONARY
  5
AC
330
AB
100
AcDbDictionary
280
     1
281
     1
  3
BUMPTILE
360
AE
  3
DIFFUSETILE
360
AD
  3
OPACITYTILE
360
B1
  3
REFLECTIONTILE
360
B0
  3
REFRACTIONTILE
360
B2
  3
SPECULARTILE
360
AF
  0
DICTIONARY
  5
BC
330
BB
100
AcDbDictionary
280
     1
281
     1
  3
BUMPTILE
360
BE
  3
DIFFUSETILE
360
BD
  3
OPACITYTILE
360
C1
  3
REFLECTIONTILE
360
C0
  3
REFRACTIONTILE
360
C2
  3
SPECULARTILE
360
BF
  0
DICTIONARY
  5
197
330
F2
100
AcDbDictionary
280
     1
281
     1
  3
ACAD_XREC_ROUNDTRIP
360
198
  0
DICTIONARY
  5
199
330
F4
100
AcDbDictionary
280
     1
281
     1
  3
ACAD_XREC_ROUNDTRIP
360
19A
  0
DICTIONARY
  5
164
330
DE
100
AcDbDictionary
280
     1
281
     1
  3
ACAD_ROUNDTRIP_2008_TABLESTYLE_CELLSTYLEMAP
360
165
  0
DICTIONARY
  5
171
330
C9
100
AcDbDictionary
280
     1
281
     1
  3
ACAD_XREC_ROUNDTRIP
360
172
  0
DICTIONARY
  5
16F
330
C8
100
AcDbDictionary
280
     1
281
     1
  3
ACAD_XREC_ROUNDTRIP
360
170
  0
DICTIONARY
  5
17D
330
CF
100
AcDbDictionary
280
     1
281
     1
  3
ACAD_XREC_ROUNDTRIP
360
17E
  0
DICTIONARY
  5
185
330
D3
100
AcDbDictionary
280
     1
281
     1
  3
ACAD_XREC_ROUNDTRIP
360
186
  0
DICTIONARY
  5
177
330
CC
100
AcDbDictionary
280
     1
281
     1
  3
ACAD_XREC_ROUNDTRIP
360
178
  0
DICTIONARY
  5
17B
330
CE
100
AcDbDictionary
280
     1
281
     1
  3
ACAD_XREC_ROUNDTRIP
360
17C
  0
DICTIONARY
  5
195
330
DB
100
AcDbDictionary
280
     1
281
     1
  3
ACAD_XREC_ROUNDTRIP
360
196
  0
DICTIONARY
  5
183
330
D2
100
AcDbDictionary
280
     1
281
     1
  3
ACAD_XREC_ROUNDTRIP
360
184
  0
DICTIONARY
  5
167
330
C4
100
AcDbDictionary
280
     1
281
     1
  3
ACAD_XREC_ROUNDTRIP
360
168
  0
DICTIONARY
  5
169
330
C5
100
AcDbDictionary
280
     1
281
     1
  3
ACAD_XREC_ROUNDTRIP
360
16A
  0
DICTIONARY
  5
16B
330
C6
100
AcDbDictionary
280
     1
281
     1
  3
ACAD_XREC_ROUNDTRIP
360
16C
  0
DICTIONARY
  5
16D
330
C7
100
AcDbDictionary
280
     1
281
     1
  3
ACAD_XREC_ROUNDTRIP
360
16E
  0
DICTIONARY
  5
175
330
CB
100
AcDbDictionary
280
     1
281
     1
  3
ACAD_XREC_ROUNDTRIP
360
176
  0
DICTIONARY
  5
191
330
D9
100
AcDbDictionary
280
     1
281
     1
  3
ACAD_XREC_ROUNDTRIP
360
192
  0
DICTIONARY
  5
181
330
D1
100
AcDbDictionary
280
     1
281
     1
  3
ACAD_XREC_ROUNDTRIP
360
182
  0
DICTIONARY
  5
193
330
DA
100
AcDbDictionary
280
     1
281
     1
  3
ACAD_XREC_ROUNDTRIP
360
194
  0
DICTIONARY
  5
179
330
CD
100
AcDbDictionary
280
     1
281
     1
  3
ACAD_XREC_ROUNDTRIP
360
17A
  0
DICTIONARY
  5
18F
330
D8
100
AcDbDictionary
280
     1
281
     1
  3
ACAD_XREC_ROUNDTRIP
360
190
  0
DICTIONARY
  5
18D
330
D7
100
AcDbDictionary
280
     1
281
     1
  3
ACAD_XREC_ROUNDTRIP
360
18E
  0
DICTIONARY
  5
187
330
D4
100
AcDbDictionary
280
     1
281
     1
  3
ACAD_XREC_ROUNDTRIP
360
188
  0
DICTIONARY
  5
189
330
D5
100
AcDbDictionary
280
     1
281
     1
  3
ACAD_XREC_ROUNDTRIP
360
18A
  0
DICTIONARY
  5
17F
330
D0
100
AcDbDictionary
280
     1
281
     1
  3
ACAD_XREC_ROUNDTRIP
360
180
  0
DICTIONARY
  5
173
330
CA
100
AcDbDictionary
280
     1
281
     1
  3
ACAD_XREC_ROUNDTRIP
360
174
  0
DICTIONARY
  5
18B
330
D6
100
AcDbDictionary
280
     1
281
     1
  3
ACAD_XREC_ROUNDTRIP
360
18C
  0
XRECORD
  5
19C
102
{ACAD_REACTORS
330
19B
102
}
330
19B
100
AcDbXrecord
280
     1
102
DISPLAYNAME
  1
Imperial24
102
FLAGS
 90
        0
  0
XRECORD
  5
B6
102
{ACAD_REACTORS
330
B4
102
}
330
B4
100
AcDbXrecord
280
     1
270
     1
271
     1
  0
XRECORD
  5
B5
102
{ACAD_REACTORS
330
B4
102
}
330
B4
100
AcDbXrecord
280
     1
270
     1
271
     1
  0
XRECORD
  5
B9
102
{ACAD_REACTORS
330
B4
102
}
330
B4
100
AcDbXrecord
280
     1
270
     1
271
     1
  0
XRECORD
  5
B8
102
{ACAD_REACTORS
330
B4
102
}
330
B4
100
AcDbXrecord
280
     1
270
     1
271
     1
  0
XRECORD
  5
BA
102
{ACAD_REACTORS
330
B4
102
}
330
B4
100
AcDbXrecord
280
     1
270
     1
271
     1
  0
XRECORD
  5
B7
102
{ACAD_REACTORS
330
B4
102
}
330
B4
100
AcDbXrecord
280
     1
270
     1
271
     1
  0
XRECORD
  5
AE
102
{ACAD_REACTORS
330
AC
102
}
330
AC
100
AcDbXrecord
280
     1
270
     1
271
     1
  0
XRECORD
  5
AD
102
{ACAD_REACTORS
330
AC
102
}
330
AC
100
AcDbXrecord
280
     1
270
     1
271
     1
  0
XRECORD
  5
B1
102
{ACAD_REACTORS
330
AC
102
}
330
AC
100
AcDbXrecord
280
     1
270
     1
271
     1
  0
XRECORD
  5
B0
102
{ACAD_REACTORS
330
AC
102
}
330
AC
100
AcDbXrecord
280
     1
270
     1
271
     1
  0
XRECORD
  5
B2
102
{ACAD_REACTORS
330
AC
102
}
330
AC
100
AcDbXrecord
280
     1
270
     1
271
     1
  0
XRECORD
  5
AF
102
{ACAD_REACTORS
330
AC
102
}
330
AC
100
AcDbXrecord
280
     1
270
     1
271
     1
  0
XRECORD
  5
BE
102
{ACAD_REACTORS
330
BC
102
}
330
BC
100
AcDbXrecord
280
     1
270
     1
271
     1
  0
XRECORD
  5
BD
102
{ACAD_REACTORS
330
BC
102
}
330
BC
100
AcDbXrecord
280
     1
270
     1
271
     1
  0
XRECORD
  5
C1
102
{ACAD_REACTORS
330
BC
102
}
330
BC
100
AcDbXrecord
280
     1
270
     1
271
     1
  0
XRECORD
  5
C0
102
{ACAD_REACTORS
330
BC
102
}
330
BC
100
AcDbXrecord
280
     1
270
     1
271
     1
  0
XRECORD
  5
C2
102
{ACAD_REACTORS
330
BC
102
}
330
BC
100
AcDbXrecord
280
     1
270
     1
271
     1
  0
XRECORD
  5
BF
102
{ACAD_REACTORS
330
BC
102
}
330
BC
100
AcDbXrecord
280
     1
270
     1
271
     1
  0
XRECORD
  5
198
102
{ACAD_REACTORS
330
197
102
}
330
197
100
AcDbXrecord
280
     1
102
ACAD_ROUNDTRIP_2012_MLEADER_STYLE
298
     1
  0
XRECORD
  5
19A
102
{ACAD_REACTORS
330
199
102
}
330
199
100
AcDbXrecord
280
     1
102
DISPLAYNAME
  1
Imperial24
102
FLAGS
 90
        0
  0
CELLSTYLEMAP
  5
165
102
{ACAD_REACTORS
330
164
102
}
330
164
100
AcDbCellStyleMap
 90
        3
300
CELLSTYLE
  1
TABLEFORMAT_BEGIN
 90
        5
170
     1
 91
        0
 92
    32768
 62
   257
 93
        1
300
CONTENTFORMAT
  1
CONTENTFORMAT_BEGIN
 90
        0
 91
        0
 92
      512
 93
        0
300

 40
0.0
140
1.0
 94
        5
 62
     0
340
11
144
0.25
309
CONTENTFORMAT_END
171
     0
 94
        0
309
TABLEFORMAT_END
  1
CELLSTYLE_BEGIN
 90
        1
 91
        1
300
_TITLE
309
CELLSTYLE_END
300
CELLSTYLE
  1
TABLEFORMAT_BEGIN
 90
        5
170
     1
 91
        0
 92
        0
 62
   257
 93
        1
300
CONTENTFORMAT
  1
CONTENTFORMAT_BEGIN
 90
        0
 91
        0
 92
      512
 93
        0
300

 40
0.0
140
1.0
 94
        5
 62
     0
340
11
144
0.18
309
CONTENTFORMAT_END
171
     0
 94
        0
309
TABLEFORMAT_END
  1
CELLSTYLE_BEGIN
 90
        2
 91
        1
300
_HEADER
309
CELLSTYLE_END
300
CELLSTYLE
  1
TABLEFORMAT_BEGIN
 90
        5
170
     1
 91
        0
 92
        0
 62
   257
 93
        1
300
CONTENTFORMAT
  1
CONTENTFORMAT_BEGIN
 90
        0
 91
        0
 92
      512
 93
        0
300

 40
0.0
140
1.0
 94
        2
 62
     0
340
11
144
0.18
309
CONTENTFORMAT_END
171
     0
 94
        0
309
TABLEFORMAT_END
  1
CELLSTYLE_BEGIN
 90
        3
 91
        2
300
_DATA
309
CELLSTYLE_END
  0
XRECORD
  5
172
102
{ACAD_REACTORS
330
171
102
}
330
171
100
AcDbXrecord
280
     1
102
RTVSPost2010Prop28
280
     1
102
RTVSPost2010PropOp28
 70
     1
102
RTVSPost2010Prop29
280
     1
102
RTVSPost2010PropOp29
 70
     1
102
RTVSPost2010Prop30
280
     0
102
RTVSPost2010PropOp30
 70
     1
102
RTVSPost2010Prop31
280
     0
102
RTVSPost2010PropOp31
 70
     1
102
RTVSPost2010Prop32
280
     0
102
RTVSPost2010PropOp32
 70
     1
102
RTVSPost2010Prop33
280
     0
102
RTVSPost2010PropOp33
 70
     1
102
RTVSPost2010Prop34
280
     0
102
RTVSPost2010PropOp34
 70
     1
102
RTVSPost2010Prop35
280
     0
102
RTVSPost2010PropOp35
 70
     1
102
RTVSPost2010Prop36
280
     0
102
RTVSPost2010PropOp36
 70
     1
102
RTVSPost2010Prop37
 90
       50
102
RTVSPost2010PropOp37
 70
     1
102
RTVSPost2010Prop38
140
0.0
102
RTVSPost2010PropOp38
 70
     1
102
RTVSPost2010Prop39
140
1.0
102
RTVSPost2010PropOp39
 70
     1
102
RTVSPost2010Prop40
 90
        0
102
RTVSPost2010PropOp40
 70
     1
102
RTVSPost2010Prop41ColorIndex
 90
       18
102
RTVSPost2010Prop41ColorRGB
 90
        0
102
RTVSPost2010PropOp41
 70
     1
102
RTVSPost2010Prop42
 90
       50
102
RTVSPost2010PropOp42
 70
     1
102
RTVSPost2010Prop43
 90
        3
102
RTVSPost2010PropOp43
 70
     1
102
RTVSPost2010Prop44ColorIndex
 90
        5
102
RTVSPost2010Prop44ColorRGB
 90
      255
102
RTVSPost2010PropOp44
 70
     1
102
RTVSPost2010Prop45
280
     0
102
RTVSPost2010PropOp45
 70
     1
102
RTVSPost2010Prop46
 90
       50
102
RTVSPost2010PropOp46
 70
     1
102
RTVSPost2010Prop47
 90
       50
102
RTVSPost2010PropOp47
 70
     1
102
RTVSPost2010Prop48
 90
       50
102
RTVSPost2010PropOp48
 70
     1
102
RTVSPost2010Prop49
280
     0
102
RTVSPost2010PropOp49
 70
     1
102
RTVSPost2010Prop50
 90
       50
102
RTVSPost2010PropOp50
 70
     1
102
RTVSPost2010Prop51ColorIndex
 90
      256
102
RTVSPost2010Prop51ColorRGB
 90
-16777216
102
RTVSPost2010PropOp51
 70
     0
102
RTVSPost2010Prop52
140
1.0
102
RTVSPost2010PropOp52
 70
     0
102
RTVSPost2010Prop53
 90
        2
102
RTVSPost2010PropOp53
 70
     1
102
RTVSPost2010Prop54
  1
strokes_ogs.tif
102
RTVSPost2010PropOp54
 70
     1
102
RTVSPost2010Prop55
280
     0
102
RTVSPost2010PropOp55
 70
     1
102
RTVSPost2010Prop56
140
1.0
102
RTVSPost2010PropOp56
 70
     1
102
RTVSPost2010Prop57
140
1.0
102
RTVSPost2010PropOp57
 70
     1
  0
XRECORD
  5
170
102
{ACAD_REACTORS
330
16F
102
}
330
16F
100
AcDbXrecord
280
     1
102
RTVSPost2010Prop28
280
     0
102
RTVSPost2010PropOp28
 70
     1
102
RTVSPost2010Prop29
280
     1
102
RTVSPost2010PropOp29
 70
     1
102
RTVSPost2010Prop30
280
     1
102
RTVSPost2010PropOp30
 70
     1
102
RTVSPost2010Prop31
280
     0
102
RTVSPost2010PropOp31
 70
     1
102
RTVSPost2010Prop32
280
     0
102
RTVSPost2010PropOp32
 70
     1
102
RTVSPost2010Prop33
280
     0
102
RTVSPost2010PropOp33
 70
     1
102
RTVSPost2010Prop34
280
     0
102
RTVSPost2010PropOp34
 70
     1
102
RTVSPost2010Prop35
280
     0
102
RTVSPost2010PropOp35
 70
     1
102
RTVSPost2010Prop36
280
     0
102
RTVSPost2010PropOp36
 70
     1
102
RTVSPost2010Prop37
 90
       50
102
RTVSPost2010PropOp37
 70
     1
102
RTVSPost2010Prop38
140
0.0
102
RTVSPost2010PropOp38
 70
     1
102
RTVSPost2010Prop39
140
1.0
102
RTVSPost2010PropOp39
 70
     1
102
RTVSPost2010Prop40
 90
        0
102
RTVSPost2010PropOp40
 70
     1
102
RTVSPost2010Prop41ColorIndex
 90
       18
102
RTVSPost2010Prop41ColorRGB
 90
        0
102
RTVSPost2010PropOp41
 70
     1
102
RTVSPost2010Prop42
 90
       50
102
RTVSPost2010PropOp42
 70
     1
102
RTVSPost2010Prop43
 90
        3
102
RTVSPost2010PropOp43
 70
     1
102
RTVSPost2010Prop44ColorIndex
 90
        5
102
RTVSPost2010Prop44ColorRGB
 90
      255
102
RTVSPost2010PropOp44
 70
     1
102
RTVSPost2010Prop45
280
     0
102
RTVSPost2010PropOp45
 70
     1
102
RTVSPost2010Prop46
 90
       50
102
RTVSPost2010PropOp46
 70
     1
102
RTVSPost2010Prop47
 90
       50
102
RTVSPost2010PropOp47
 70
     1
102
RTVSPost2010Prop48
 90
       50
102
RTVSPost2010PropOp48
 70
     1
102
RTVSPost2010Prop49
280
     0
102
RTVSPost2010PropOp49
 70
     1
102
RTVSPost2010Prop50
 90
       50
102
RTVSPost2010PropOp50
 70
     1
102
RTVSPost2010Prop51ColorIndex
 90
      256
102
RTVSPost2010Prop51ColorRGB
 90
-16777216
102
RTVSPost2010PropOp51
 70
     0
102
RTVSPost2010Prop52
140
1.0
102
RTVSPost2010PropOp52
 70
     0
102
RTVSPost2010Prop53
 90
        2
102
RTVSPost2010PropOp53
 70
     1
102
RTVSPost2010Prop54
  1
strokes_ogs.tif
102
RTVSPost2010PropOp54
 70
     1
102
RTVSPost2010Prop55
280
     0
102
RTVSPost2010PropOp55
 70
     1
102
RTVSPost2010Prop56
140
1.0
102
RTVSPost2010PropOp56
 70
     1
102
RTVSPost2010Prop57
140
1.0
102
RTVSPost2010PropOp57
 70
     1
  0
XRECORD
  5
17E
102
{ACAD_REACTORS
330
17D
102
}
330
17D
100
AcDbXrecord
280
     1
102
RTVSPost2010Prop28
280
     0
102
RTVSPost2010PropOp28
 70
     1
102
RTVSPost2010Prop29
280
     1
102
RTVSPost2010PropOp29
 70
     1
102
RTVSPost2010Prop30
280
     1
102
RTVSPost2010PropOp30
 70
     1
102
RTVSPost2010Prop31
280
     0
102
RTVSPost2010PropOp31
 70
     1
102
RTVSPost2010Prop32
280
     0
102
RTVSPost2010PropOp32
 70
     1
102
RTVSPost2010Prop33
280
     0
102
RTVSPost2010PropOp33
 70
     1
102
RTVSPost2010Prop34
280
     0
102
RTVSPost2010PropOp34
 70
     1
102
RTVSPost2010Prop35
280
     0
102
RTVSPost2010PropOp35
 70
     1
102
RTVSPost2010Prop36
280
     0
102
RTVSPost2010PropOp36
 70
     1
102
RTVSPost2010Prop37
 90
       50
102
RTVSPost2010PropOp37
 70
     1
102
RTVSPost2010Prop38
140
0.0
102
RTVSPost2010PropOp38
 70
     1
102
RTVSPost2010Prop39
140
1.0
102
RTVSPost2010PropOp39
 70
     1
102
RTVSPost2010Prop40
 90
        0
102
RTVSPost2010PropOp40
 70
     1
102
RTVSPost2010Prop41ColorIndex
 90
       18
102
RTVSPost2010Prop41ColorRGB
 90
        0
102
RTVSPost2010PropOp41
 70
     1
102
RTVSPost2010Prop42
 90
       50
102
RTVSPost2010PropOp42
 70
     1
102
RTVSPost2010Prop43
 90
        3
102
RTVSPost2010PropOp43
 70
     1
102
RTVSPost2010Prop44ColorIndex
 90
        5
102
RTVSPost2010Prop44ColorRGB
 90
      255
102
RTVSPost2010PropOp44
 70
     1
102
RTVSPost2010Prop45
280
     0
102
RTVSPost2010PropOp45
 70
     1
102
RTVSPost2010Prop46
 90
       50
102
RTVSPost2010PropOp46
 70
     1
102
RTVSPost2010Prop47
 90
       50
102
RTVSPost2010PropOp47
 70
     1
102
RTVSPost2010Prop48
 90
       50
102
RTVSPost2010PropOp48
 70
     1
102
RTVSPost2010Prop49
280
     0
102
RTVSPost2010PropOp49
 70
     1
102
RTVSPost2010Prop50
 90
       50
102
RTVSPost2010PropOp50
 70
     1
102
RTVSPost2010Prop51ColorIndex
 90
      256
102
RTVSPost2010Prop51ColorRGB
 90
-16777216
102
RTVSPost2010PropOp51
 70
     0
102
RTVSPost2010Prop52
140
1.0
102
RTVSPost2010PropOp52
 70
     0
102
RTVSPost2010Prop53
 90
        2
102
RTVSPost2010PropOp53
 70
     1
102
RTVSPost2010Prop54
  1
strokes_ogs.tif
102
RTVSPost2010PropOp54
 70
     1
102
RTVSPost2010Prop55
280
     0
102
RTVSPost2010PropOp55
 70
     1
102
RTVSPost2010Prop56
140
1.0
102
RTVSPost2010PropOp56
 70
     1
102
RTVSPost2010Prop57
140
1.0
102
RTVSPost2010PropOp57
 70
     1
  0
XRECORD
  5
186
102
{ACAD_REACTORS
330
185
102
}
330
185
100
AcDbXrecord
280
     1
102
RTVSPost2010Prop28
280
     0
102
RTVSPost2010PropOp28
 70
     1
102
RTVSPost2010Prop29
280
     1
102
RTVSPost2010PropOp29
 70
     1
102
RTVSPost2010Prop30
280
     1
102
RTVSPost2010PropOp30
 70
     1
102
RTVSPost2010Prop31
280
     0
102
RTVSPost2010PropOp31
 70
     1
102
RTVSPost2010Prop32
280
     0
102
RTVSPost2010PropOp32
 70
     1
102
RTVSPost2010Prop33
280
     0
102
RTVSPost2010PropOp33
 70
     1
102
RTVSPost2010Prop34
280
     0
102
RTVSPost2010PropOp34
 70
     1
102
RTVSPost2010Prop35
280
     0
102
RTVSPost2010PropOp35
 70
     1
102
RTVSPost2010Prop36
280
     0
102
RTVSPost2010PropOp36
 70
     1
102
RTVSPost2010Prop37
 90
       50
102
RTVSPost2010PropOp37
 70
     1
102
RTVSPost2010Prop38
140
0.0
102
RTVSPost2010PropOp38
 70
     1
102
RTVSPost2010Prop39
140
1.0
102
RTVSPost2010PropOp39
 70
     1
102
RTVSPost2010Prop40
 90
        0
102
RTVSPost2010PropOp40
 70
     1
102
RTVSPost2010Prop41ColorIndex
 90
       18
102
RTVSPost2010Prop41ColorRGB
 90
        0
102
RTVSPost2010PropOp41
 70
     1
102
RTVSPost2010Prop42
 90
       50
102
RTVSPost2010PropOp42
 70
     1
102
RTVSPost2010Prop43
 90
        3
102
RTVSPost2010PropOp43
 70
     1
102
RTVSPost2010Prop44ColorIndex
 90
        5
102
RTVSPost2010Prop44ColorRGB
 90
      255
102
RTVSPost2010PropOp44
 70
     1
102
RTVSPost2010Prop45
280
     0
102
RTVSPost2010PropOp45
 70
     1
102
RTVSPost2010Prop46
 90
       50
102
RTVSPost2010PropOp46
 70
     1
102
RTVSPost2010Prop47
 90
       50
102
RTVSPost2010PropOp47
 70
     1
102
RTVSPost2010Prop48
 90
       50
102
RTVSPost2010PropOp48
 70
     1
102
RTVSPost2010Prop49
280
     0
102
RTVSPost2010PropOp49
 70
     1
102
RTVSPost2010Prop50
 90
       50
102
RTVSPost2010PropOp50
 70
     1
102
RTVSPost2010Prop51ColorIndex
 90
      256
102
RTVSPost2010Prop51ColorRGB
 90
-16777216
102
RTVSPost2010PropOp51
 70
     0
102
RTVSPost2010Prop52
140
1.0
102
RTVSPost2010PropOp52
 70
     0
102
RTVSPost2010Prop53
 90
        2
102
RTVSPost2010PropOp53
 70
     1
102
RTVSPost2010Prop54
  1
strokes_ogs.tif
102
RTVSPost2010PropOp54
 70
     1
102
RTVSPost2010Prop55
280
     0
102
RTVSPost2010PropOp55
 70
     1
102
RTVSPost2010Prop56
140
1.0
102
RTVSPost2010PropOp56
 70
     1
102
RTVSPost2010Prop57
140
1.0
102
RTVSPost2010PropOp57
 70
     1
  0
XRECORD
  5
178
102
{ACAD_REACTORS
330
177
102
}
330
177
100
AcDbXrecord
280
     1
102
RTVSPost2010Prop28
280
     0
102
RTVSPost2010PropOp28
 70
     1
102
RTVSPost2010Prop29
280
     1
102
RTVSPost2010PropOp29
 70
     1
102
RTVSPost2010Prop30
280
     1
102
RTVSPost2010PropOp30
 70
     1
102
RTVSPost2010Prop31
280
     0
102
RTVSPost2010PropOp31
 70
     1
102
RTVSPost2010Prop32
280
     0
102
RTVSPost2010PropOp32
 70
     1
102
RTVSPost2010Prop33
280
     0
102
RTVSPost2010PropOp33
 70
     1
102
RTVSPost2010Prop34
280
     0
102
RTVSPost2010PropOp34
 70
     1
102
RTVSPost2010Prop35
280
     0
102
RTVSPost2010PropOp35
 70
     1
102
RTVSPost2010Prop36
280
     0
102
RTVSPost2010PropOp36
 70
     1
102
RTVSPost2010Prop37
 90
       50
102
RTVSPost2010PropOp37
 70
     1
102
RTVSPost2010Prop38
140
0.0
102
RTVSPost2010PropOp38
 70
     1
102
RTVSPost2010Prop39
140
1.0
102
RTVSPost2010PropOp39
 70
     1
102
RTVSPost2010Prop40
 90
        0
102
RTVSPost2010PropOp40
 70
     1
102
RTVSPost2010Prop41ColorIndex
 90
       18
102
RTVSPost2010Prop41ColorRGB
 90
        0
102
RTVSPost2010PropOp41
 70
     1
102
RTVSPost2010Prop42
 90
       50
102
RTVSPost2010PropOp42
 70
     1
102
RTVSPost2010Prop43
 90
        3
102
RTVSPost2010PropOp43
 70
     1
102
RTVSPost2010Prop44ColorIndex
 90
        5
102
RTVSPost2010Prop44ColorRGB
 90
      255
102
RTVSPost2010PropOp44
 70
     1
102
RTVSPost2010Prop45
280
     0
102
RTVSPost2010PropOp45
 70
     1
102
RTVSPost2010Prop46
 90
       50
102
RTVSPost2010PropOp46
 70
     1
102
RTVSPost2010Prop47
 90
       50
102
RTVSPost2010PropOp47
 70
     1
102
RTVSPost2010Prop48
 90
       50
102
RTVSPost2010PropOp48
 70
     1
102
RTVSPost2010Prop49
280
     0
102
RTVSPost2010PropOp49
 70
     1
102
RTVSPost2010Prop50
 90
       50
102
RTVSPost2010PropOp50
 70
     1
102
RTVSPost2010Prop51ColorIndex
 90
      256
102
RTVSPost2010Prop51ColorRGB
 90
-16777216
102
RTVSPost2010PropOp51
 70
     0
102
RTVSPost2010Prop52
140
1.0
102
RTVSPost2010PropOp52
 70
     0
102
RTVSPost2010Prop53
 90
        2
102
RTVSPost2010PropOp53
 70
     1
102
RTVSPost2010Prop54
  1
strokes_ogs.tif
102
RTVSPost2010PropOp54
 70
     1
102
RTVSPost2010Prop55
280
     0
102
RTVSPost2010PropOp55
 70
     1
102
RTVSPost2010Prop56
140
1.0
102
RTVSPost2010PropOp56
 70
     1
102
RTVSPost2010Prop57
140
1.0
102
RTVSPost2010PropOp57
 70
     1
  0
XRECORD
  5
17C
102
{ACAD_REACTORS
330
17B
102
}
330
17B
100
AcDbXrecord
280
     1
102
RTVSPost2010Prop28
280
     0
102
RTVSPost2010PropOp28
 70
     1
102
RTVSPost2010Prop29
280
     1
102
RTVSPost2010PropOp29
 70
     1
102
RTVSPost2010Prop30
280
     1
102
RTVSPost2010PropOp30
 70
     1
102
RTVSPost2010Prop31
280
     0
102
RTVSPost2010PropOp31
 70
     1
102
RTVSPost2010Prop32
280
     0
102
RTVSPost2010PropOp32
 70
     1
102
RTVSPost2010Prop33
280
     0
102
RTVSPost2010PropOp33
 70
     1
102
RTVSPost2010Prop34
280
     0
102
RTVSPost2010PropOp34
 70
     1
102
RTVSPost2010Prop35
280
     0
102
RTVSPost2010PropOp35
 70
     1
102
RTVSPost2010Prop36
280
     0
102
RTVSPost2010PropOp36
 70
     1
102
RTVSPost2010Prop37
 90
       50
102
RTVSPost2010PropOp37
 70
     1
102
RTVSPost2010Prop38
140
0.0
102
RTVSPost2010PropOp38
 70
     1
102
RTVSPost2010Prop39
140
1.0
102
RTVSPost2010PropOp39
 70
     1
102
RTVSPost2010Prop40
 90
        0
102
RTVSPost2010PropOp40
 70
     1
102
RTVSPost2010Prop41ColorIndex
 90
       18
102
RTVSPost2010Prop41ColorRGB
 90
        0
102
RTVSPost2010PropOp41
 70
     1
102
RTVSPost2010Prop42
 90
       50
102
RTVSPost2010PropOp42
 70
     1
102
RTVSPost2010Prop43
 90
        3
102
RTVSPost2010PropOp43
 70
     1
102
RTVSPost2010Prop44ColorIndex
 90
        5
102
RTVSPost2010Prop44ColorRGB
 90
      255
102
RTVSPost2010PropOp44
 70
     1
102
RTVSPost2010Prop45
280
     0
102
RTVSPost2010PropOp45
 70
     1
102
RTVSPost2010Prop46
 90
       50
102
RTVSPost2010PropOp46
 70
     1
102
RTVSPost2010Prop47
 90
       50
102
RTVSPost2010PropOp47
 70
     1
102
RTVSPost2010Prop48
 90
       50
102
RTVSPost2010PropOp48
 70
     1
102
RTVSPost2010Prop49
280
     0
102
RTVSPost2010PropOp49
 70
     1
102
RTVSPost2010Prop50
 90
       50
102
RTVSPost2010PropOp50
 70
     1
102
RTVSPost2010Prop51ColorIndex
 90
      256
102
RTVSPost2010Prop51ColorRGB
 90
-16777216
102
RTVSPost2010PropOp51
 70
     0
102
RTVSPost2010Prop52
140
1.0
102
RTVSPost2010PropOp52
 70
     0
102
RTVSPost2010Prop53
 90
        2
102
RTVSPost2010PropOp53
 70
     1
102
RTVSPost2010Prop54
  1
strokes_ogs.tif
102
RTVSPost2010PropOp54
 70
     1
102
RTVSPost2010Prop55
280
     0
102
RTVSPost2010PropOp55
 70
     1
102
RTVSPost2010Prop56
140
1.0
102
RTVSPost2010PropOp56
 70
     1
102
RTVSPost2010Prop57
140
1.0
102
RTVSPost2010PropOp57
 70
     1
  0
XRECORD
  5
196
102
{ACAD_REACTORS
330
195
102
}
330
195
100
AcDbXrecord
280
     1
102
RTVSPost2010Prop28
280
     0
102
RTVSPost2010PropOp28
 70
     0
102
RTVSPost2010Prop29
280
     1
102
RTVSPost2010PropOp29
 70
     0
102
RTVSPost2010Prop30
280
     1
102
RTVSPost2010PropOp30
 70
     0
102
RTVSPost2010Prop31
280
     0
102
RTVSPost2010PropOp31
 70
     0
102
RTVSPost2010Prop32
280
     0
102
RTVSPost2010PropOp32
 70
     0
102
RTVSPost2010Prop33
280
     0
102
RTVSPost2010PropOp33
 70
     0
102
RTVSPost2010Prop34
280
     0
102
RTVSPost2010PropOp34
 70
     0
102
RTVSPost2010Prop35
280
     0
102
RTVSPost2010PropOp35
 70
     0
102
RTVSPost2010Prop36
280
     0
102
RTVSPost2010PropOp36
 70
     0
102
RTVSPost2010Prop37
 90
       50
102
RTVSPost2010PropOp37
 70
     0
102
RTVSPost2010Prop38
140
0.0
102
RTVSPost2010PropOp38
 70
     0
102
RTVSPost2010Prop39
140
1.0
102
RTVSPost2010PropOp39
 70
     0
102
RTVSPost2010Prop40
 90
        0
102
RTVSPost2010PropOp40
 70
     0
102
RTVSPost2010Prop41ColorIndex
 90
       18
102
RTVSPost2010Prop41ColorRGB
 90
        0
102
RTVSPost2010PropOp41
 70
     0
102
RTVSPost2010Prop42
 90
       50
102
RTVSPost2010PropOp42
 70
     0
102
RTVSPost2010Prop43
 90
        3
102
RTVSPost2010PropOp43
 70
     0
102
RTVSPost2010Prop44ColorIndex
 90
        5
102
RTVSPost2010Prop44ColorRGB
 90
      255
102
RTVSPost2010PropOp44
 70
     0
102
RTVSPost2010Prop45
280
     0
102
RTVSPost2010PropOp45
 70
     0
102
RTVSPost2010Prop46
 90
       50
102
RTVSPost2010PropOp46
 70
     0
102
RTVSPost2010Prop47
 90
       50
102
RTVSPost2010PropOp47
 70
     0
102
RTVSPost2010Prop48
 90
       50
102
RTVSPost2010PropOp48
 70
     0
102
RTVSPost2010Prop49
280
     0
102
RTVSPost2010PropOp49
 70
     0
102
RTVSPost2010Prop50
 90
       50
102
RTVSPost2010PropOp50
 70
     0
102
RTVSPost2010Prop51ColorIndex
 90
      256
102
RTVSPost2010Prop51ColorRGB
 90
-16777216
102
RTVSPost2010PropOp51
 70
     0
102
RTVSPost2010Prop52
140
1.0
102
RTVSPost2010PropOp52
 70
     0
102
RTVSPost2010Prop53
 90
        2
102
RTVSPost2010PropOp53
 70
     0
102
RTVSPost2010Prop54
  1
strokes_ogs.tif
102
RTVSPost2010PropOp54
 70
     0
102
RTVSPost2010Prop55
280
     0
102
RTVSPost2010PropOp55
 70
     0
102
RTVSPost2010Prop56
140
1.0
102
RTVSPost2010PropOp56
 70
     0
102
RTVSPost2010Prop57
140
1.0
102
RTVSPost2010PropOp57
 70
     0
  0
XRECORD
  5
184
102
{ACAD_REACTORS
330
183
102
}
330
183
100
AcDbXrecord
280
     1
102
RTVSPost2010Prop28
280
     0
102
RTVSPost2010PropOp28
 70
     1
102
RTVSPost2010Prop29
280
     1
102
RTVSPost2010PropOp29
 70
     1
102
RTVSPost2010Prop30
280
     1
102
RTVSPost2010PropOp30
 70
     1
102
RTVSPost2010Prop31
280
     0
102
RTVSPost2010PropOp31
 70
     1
102
RTVSPost2010Prop32
280
     0
102
RTVSPost2010PropOp32
 70
     1
102
RTVSPost2010Prop33
280
     0
102
RTVSPost2010PropOp33
 70
     1
102
RTVSPost2010Prop34
280
     0
102
RTVSPost2010PropOp34
 70
     1
102
RTVSPost2010Prop35
280
     0
102
RTVSPost2010PropOp35
 70
     1
102
RTVSPost2010Prop36
280
     0
102
RTVSPost2010PropOp36
 70
     1
102
RTVSPost2010Prop37
 90
       50
102
RTVSPost2010PropOp37
 70
     1
102
RTVSPost2010Prop38
140
0.0
102
RTVSPost2010PropOp38
 70
     1
102
RTVSPost2010Prop39
140
1.0
102
RTVSPost2010PropOp39
 70
     1
102
RTVSPost2010Prop40
 90
        0
102
RTVSPost2010PropOp40
 70
     1
102
RTVSPost2010Prop41ColorIndex
 90
       18
102
RTVSPost2010Prop41ColorRGB
 90
        0
102
RTVSPost2010PropOp41
 70
     1
102
RTVSPost2010Prop42
 90
       50
102
RTVSPost2010PropOp42
 70
     1
102
RTVSPost2010Prop43
 90
        3
102
RTVSPost2010PropOp43
 70
     1
102
RTVSPost2010Prop44ColorIndex
 90
        5
102
RTVSPost2010Prop44ColorRGB
 90
      255
102
RTVSPost2010PropOp44
 70
     1
102
RTVSPost2010Prop45
280
     0
102
RTVSPost2010PropOp45
 70
     1
102
RTVSPost2010Prop46
 90
       50
102
RTVSPost2010PropOp46
 70
     1
102
RTVSPost2010Prop47
 90
       50
102
RTVSPost2010PropOp47
 70
     1
102
RTVSPost2010Prop48
 90
       50
102
RTVSPost2010PropOp48
 70
     1
102
RTVSPost2010Prop49
280
     0
102
RTVSPost2010PropOp49
 70
     1
102
RTVSPost2010Prop50
 90
       50
102
RTVSPost2010PropOp50
 70
     1
102
RTVSPost2010Prop51ColorIndex
 90
      256
102
RTVSPost2010Prop51ColorRGB
 90
-16777216
102
RTVSPost2010PropOp51
 70
     0
102
RTVSPost2010Prop52
140
1.0
102
RTVSPost2010PropOp52
 70
     0
102
RTVSPost2010Prop53
 90
        2
102
RTVSPost2010PropOp53
 70
     1
102
RTVSPost2010Prop54
  1
strokes_ogs.tif
102
RTVSPost2010PropOp54
 70
     1
102
RTVSPost2010Prop55
280
     0
102
RTVSPost2010PropOp55
 70
     1
102
RTVSPost2010Prop56
140
1.0
102
RTVSPost2010PropOp56
 70
     1
102
RTVSPost2010Prop57
140
1.0
102
RTVSPost2010PropOp57
 70
     1
  0
XRECORD
  5
168
102
{ACAD_REACTORS
330
167
102
}
330
167
100
AcDbXrecord
280
     1
102
RTVSPost2010Prop28
280
     0
102
RTVSPost2010PropOp28
 70
     1
102
RTVSPost2010Prop29
280
     1
102
RTVSPost2010PropOp29
 70
     1
102
RTVSPost2010Prop30
280
     1
102
RTVSPost2010PropOp30
 70
     1
102
RTVSPost2010Prop31
280
     0
102
RTVSPost2010PropOp31
 70
     1
102
RTVSPost2010Prop32
280
     0
102
RTVSPost2010PropOp32
 70
     1
102
RTVSPost2010Prop33
280
     0
102
RTVSPost2010PropOp33
 70
     1
102
RTVSPost2010Prop34
280
     0
102
RTVSPost2010PropOp34
 70
     1
102
RTVSPost2010Prop35
280
     0
102
RTVSPost2010PropOp35
 70
     1
102
RTVSPost2010Prop36
280
     0
102
RTVSPost2010PropOp36
 70
     1
102
RTVSPost2010Prop37
 90
       50
102
RTVSPost2010PropOp37
 70
     1
102
RTVSPost2010Prop38
140
0.0
102
RTVSPost2010PropOp38
 70
     1
102
RTVSPost2010Prop39
140
1.0
102
RTVSPost2010PropOp39
 70
     1
102
RTVSPost2010Prop40
 90
        0
102
RTVSPost2010PropOp40
 70
     1
102
RTVSPost2010Prop41ColorIndex
 90
       18
102
RTVSPost2010Prop41ColorRGB
 90
        0
102
RTVSPost2010PropOp41
 70
     1
102
RTVSPost2010Prop42
 90
       50
102
RTVSPost2010PropOp42
 70
     1
102
RTVSPost2010Prop43
 90
        3
102
RTVSPost2010PropOp43
 70
     1
102
RTVSPost2010Prop44ColorIndex
 90
        5
102
RTVSPost2010Prop44ColorRGB
 90
      255
102
RTVSPost2010PropOp44
 70
     1
102
RTVSPost2010Prop45
280
     0
102
RTVSPost2010PropOp45
 70
     1
102
RTVSPost2010Prop46
 90
       50
102
RTVSPost2010PropOp46
 70
     1
102
RTVSPost2010Prop47
 90
       50
102
RTVSPost2010PropOp47
 70
     1
102
RTVSPost2010Prop48
 90
       50
102
RTVSPost2010PropOp48
 70
     1
102
RTVSPost2010Prop49
280
     0
102
RTVSPost2010PropOp49
 70
     1
102
RTVSPost2010Prop50
 90
       50
102
RTVSPost2010PropOp50
 70
     1
102
RTVSPost2010Prop51ColorIndex
 90
      256
102
RTVSPost2010Prop51ColorRGB
 90
-16777216
102
RTVSPost2010PropOp51
 70
     0
102
RTVSPost2010Prop52
140
1.0
102
RTVSPost2010PropOp52
 70
     0
102
RTVSPost2010Prop53
 90
        2
102
RTVSPost2010PropOp53
 70
     1
102
RTVSPost2010Prop54
  1
strokes_ogs.tif
102
RTVSPost2010PropOp54
 70
     1
102
RTVSPost2010Prop55
280
     0
102
RTVSPost2010PropOp55
 70
     1
102
RTVSPost2010Prop56
140
1.0
102
RTVSPost2010PropOp56
 70
     1
102
RTVSPost2010Prop57
140
1.0
102
RTVSPost2010PropOp57
 70
     1
  0
XRECORD
  5
16A
102
{ACAD_REACTORS
330
169
102
}
330
169
100
AcDbXrecord
280
     1
102
RTVSPost2010Prop28
280
     0
102
RTVSPost2010PropOp28
 70
     1
102
RTVSPost2010Prop29
280
     1
102
RTVSPost2010PropOp29
 70
     1
102
RTVSPost2010Prop30
280
     1
102
RTVSPost2010PropOp30
 70
     1
102
RTVSPost2010Prop31
280
     0
102
RTVSPost2010PropOp31
 70
     1
102
RTVSPost2010Prop32
280
     0
102
RTVSPost2010PropOp32
 70
     1
102
RTVSPost2010Prop33
280
     0
102
RTVSPost2010PropOp33
 70
     1
102
RTVSPost2010Prop34
280
     0
102
RTVSPost2010PropOp34
 70
     1
102
RTVSPost2010Prop35
280
     0
102
RTVSPost2010PropOp35
 70
     1
102
RTVSPost2010Prop36
280
     0
102
RTVSPost2010PropOp36
 70
     1
102
RTVSPost2010Prop37
 90
       50
102
RTVSPost2010PropOp37
 70
     1
102
RTVSPost2010Prop38
140
0.0
102
RTVSPost2010PropOp38
 70
     1
102
RTVSPost2010Prop39
140
1.0
102
RTVSPost2010PropOp39
 70
     1
102
RTVSPost2010Prop40
 90
        0
102
RTVSPost2010PropOp40
 70
     1
102
RTVSPost2010Prop41ColorIndex
 90
       18
102
RTVSPost2010Prop41ColorRGB
 90
        0
102
RTVSPost2010PropOp41
 70
     1
102
RTVSPost2010Prop42
 90
       50
102
RTVSPost2010PropOp42
 70
     1
102
RTVSPost2010Prop43
 90
        3
102
RTVSPost2010PropOp43
 70
     1
102
RTVSPost2010Prop44ColorIndex
 90
        5
102
RTVSPost2010Prop44ColorRGB
 90
      255
102
RTVSPost2010PropOp44
 70
     1
102
RTVSPost2010Prop45
280
     0
102
RTVSPost2010PropOp45
 70
     1
102
RTVSPost2010Prop46
 90
       50
102
RTVSPost2010PropOp46
 70
     1
102
RTVSPost2010Prop47
 90
       50
102
RTVSPost2010PropOp47
 70
     1
102
RTVSPost2010Prop48
 90
       50
102
RTVSPost2010PropOp48
 70
     1
102
RTVSPost2010Prop49
280
     0
102
RTVSPost2010PropOp49
 70
     1
102
RTVSPost2010Prop50
 90
       50
102
RTVSPost2010PropOp50
 70
     1
102
RTVSPost2010Prop51ColorIndex
 90
      256
102
RTVSPost2010Prop51ColorRGB
 90
-16777216
102
RTVSPost2010PropOp51
 70
     0
102
RTVSPost2010Prop52
140
1.0
102
RTVSPost2010PropOp52
 70
     0
102
RTVSPost2010Prop53
 90
        2
102
RTVSPost2010PropOp53
 70
     1
102
RTVSPost2010Prop54
  1
strokes_ogs.tif
102
RTVSPost2010PropOp54
 70
     1
102
RTVSPost2010Prop55
280
     0
102
RTVSPost2010PropOp55
 70
     1
102
RTVSPost2010Prop56
140
1.0
102
RTVSPost2010PropOp56
 70
     1
102
RTVSPost2010Prop57
140
1.0
102
RTVSPost2010PropOp57
 70
     1
  0
XRECORD
  5
16C
102
{ACAD_REACTORS
330
16B
102
}
330
16B
100
AcDbXrecord
280
     1
102
RTVSPost2010Prop28
280
     0
102
RTVSPost2010PropOp28
 70
     1
102
RTVSPost2010Prop29
280
     1
102
RTVSPost2010PropOp29
 70
     1
102
RTVSPost2010Prop30
280
     1
102
RTVSPost2010PropOp30
 70
     1
102
RTVSPost2010Prop31
280
     0
102
RTVSPost2010PropOp31
 70
     1
102
RTVSPost2010Prop32
280
     0
102
RTVSPost2010PropOp32
 70
     1
102
RTVSPost2010Prop33
280
     0
102
RTVSPost2010PropOp33
 70
     1
102
RTVSPost2010Prop34
280
     0
102
RTVSPost2010PropOp34
 70
     1
102
RTVSPost2010Prop35
280
     0
102
RTVSPost2010PropOp35
 70
     1
102
RTVSPost2010Prop36
280
     0
102
RTVSPost2010PropOp36
 70
     1
102
RTVSPost2010Prop37
 90
       50
102
RTVSPost2010PropOp37
 70
     1
102
RTVSPost2010Prop38
140
0.0
102
RTVSPost2010PropOp38
 70
     1
102
RTVSPost2010Prop39
140
1.0
102
RTVSPost2010PropOp39
 70
     1
102
RTVSPost2010Prop40
 90
        0
102
RTVSPost2010PropOp40
 70
     1
102
RTVSPost2010Prop41ColorIndex
 90
       18
102
RTVSPost2010Prop41ColorRGB
 90
        0
102
RTVSPost2010PropOp41
 70
     1
102
RTVSPost2010Prop42
 90
       50
102
RTVSPost2010PropOp42
 70
     1
102
RTVSPost2010Prop43
 90
        3
102
RTVSPost2010PropOp43
 70
     1
102
RTVSPost2010Prop44ColorIndex
 90
        5
102
RTVSPost2010Prop44ColorRGB
 90
      255
102
RTVSPost2010PropOp44
 70
     1
102
RTVSPost2010Prop45
280
     0
102
RTVSPost2010PropOp45
 70
     1
102
RTVSPost2010Prop46
 90
       50
102
RTVSPost2010PropOp46
 70
     1
102
RTVSPost2010Prop47
 90
       50
102
RTVSPost2010PropOp47
 70
     1
102
RTVSPost2010Prop48
 90
       50
102
RTVSPost2010PropOp48
 70
     1
102
RTVSPost2010Prop49
280
     0
102
RTVSPost2010PropOp49
 70
     1
102
RTVSPost2010Prop50
 90
       50
102
RTVSPost2010PropOp50
 70
     1
102
RTVSPost2010Prop51ColorIndex
 90
      256
102
RTVSPost2010Prop51ColorRGB
 90
-16777216
102
RTVSPost2010PropOp51
 70
     0
102
RTVSPost2010Prop52
140
1.0
102
RTVSPost2010PropOp52
 70
     0
102
RTVSPost2010Prop53
 90
        2
102
RTVSPost2010PropOp53
 70
     1
102
RTVSPost2010Prop54
  1
strokes_ogs.tif
102
RTVSPost2010PropOp54
 70
     1
102
RTVSPost2010Prop55
280
     0
102
RTVSPost2010PropOp55
 70
     1
102
RTVSPost2010Prop56
140
1.0
102
RTVSPost2010PropOp56
 70
     1
102
RTVSPost2010Prop57
140
1.0
102
RTVSPost2010PropOp57
 70
     1
  0
XRECORD
  5
16E
102
{ACAD_REACTORS
330
16D
102
}
330
16D
100
AcDbXrecord
280
     1
102
RTVSPost2010Prop28
280
     0
102
RTVSPost2010PropOp28
 70
     1
102
RTVSPost2010Prop29
280
     1
102
RTVSPost2010PropOp29
 70
     1
102
RTVSPost2010Prop30
280
     1
102
RTVSPost2010PropOp30
 70
     1
102
RTVSPost2010Prop31
280
     0
102
RTVSPost2010PropOp31
 70
     1
102
RTVSPost2010Prop32
280
     0
102
RTVSPost2010PropOp32
 70
     1
102
RTVSPost2010Prop33
280
     0
102
RTVSPost2010PropOp33
 70
     1
102
RTVSPost2010Prop34
280
     0
102
RTVSPost2010PropOp34
 70
     1
102
RTVSPost2010Prop35
280
     0
102
RTVSPost2010PropOp35
 70
     1
102
RTVSPost2010Prop36
280
     0
102
RTVSPost2010PropOp36
 70
     1
102
RTVSPost2010Prop37
 90
       50
102
RTVSPost2010PropOp37
 70
     1
102
RTVSPost2010Prop38
140
0.0
102
RTVSPost2010PropOp38
 70
     1
102
RTVSPost2010Prop39
140
1.0
102
RTVSPost2010PropOp39
 70
     1
102
RTVSPost2010Prop40
 90
        0
102
RTVSPost2010PropOp40
 70
     1
102
RTVSPost2010Prop41ColorIndex
 90
       18
102
RTVSPost2010Prop41ColorRGB
 90
        0
102
RTVSPost2010PropOp41
 70
     1
102
RTVSPost2010Prop42
 90
       50
102
RTVSPost2010PropOp42
 70
     1
102
RTVSPost2010Prop43
 90
        3
102
RTVSPost2010PropOp43
 70
     1
102
RTVSPost2010Prop44ColorIndex
 90
        5
102
RTVSPost2010Prop44ColorRGB
 90
      255
102
RTVSPost2010PropOp44
 70
     1
102
RTVSPost2010Prop45
280
     0
102
RTVSPost2010PropOp45
 70
     1
102
RTVSPost2010Prop46
 90
       50
102
RTVSPost2010PropOp46
 70
     1
102
RTVSPost2010Prop47
 90
       50
102
RTVSPost2010PropOp47
 70
     1
102
RTVSPost2010Prop48
 90
       50
102
RTVSPost2010PropOp48
 70
     1
102
RTVSPost2010Prop49
280
     0
102
RTVSPost2010PropOp49
 70
     1
102
RTVSPost2010Prop50
 90
       50
102
RTVSPost2010PropOp50
 70
     1
102
RTVSPost2010Prop51ColorIndex
 90
      256
102
RTVSPost2010Prop51ColorRGB
 90
-16777216
102
RTVSPost2010PropOp51
 70
     0
102
RTVSPost2010Prop52
140
1.0
102
RTVSPost2010PropOp52
 70
     0
102
RTVSPost2010Prop53
 90
        2
102
RTVSPost2010PropOp53
 70
     1
102
RTVSPost2010Prop54
  1
strokes_ogs.tif
102
RTVSPost2010PropOp54
 70
     1
102
RTVSPost2010Prop55
280
     0
102
RTVSPost2010PropOp55
 70
     1
102
RTVSPost2010Prop56
140
1.0
102
RTVSPost2010PropOp56
 70
     1
102
RTVSPost2010Prop57
140
1.0
102
RTVSPost2010PropOp57
 70
     1
  0
XRECORD
  5
176
102
{ACAD_REACTORS
330
175
102
}
330
175
100
AcDbXrecord
280
     1
102
RTVSPost2010Prop28
280
     0
102
RTVSPost2010PropOp28
 70
     1
102
RTVSPost2010Prop29
280
     1
102
RTVSPost2010PropOp29
 70
     1
102
RTVSPost2010Prop30
280
     1
102
RTVSPost2010PropOp30
 70
     1
102
RTVSPost2010Prop31
280
     0
102
RTVSPost2010PropOp31
 70
     1
102
RTVSPost2010Prop32
280
     0
102
RTVSPost2010PropOp32
 70
     1
102
RTVSPost2010Prop33
280
     0
102
RTVSPost2010PropOp33
 70
     1
102
RTVSPost2010Prop34
280
     0
102
RTVSPost2010PropOp34
 70
     1
102
RTVSPost2010Prop35
280
     0
102
RTVSPost2010PropOp35
 70
     1
102
RTVSPost2010Prop36
280
     0
102
RTVSPost2010PropOp36
 70
     1
102
RTVSPost2010Prop37
 90
       50
102
RTVSPost2010PropOp37
 70
     1
102
RTVSPost2010Prop38
140
0.0
102
RTVSPost2010PropOp38
 70
     1
102
RTVSPost2010Prop39
140
1.0
102
RTVSPost2010PropOp39
 70
     1
102
RTVSPost2010Prop40
 90
        0
102
RTVSPost2010PropOp40
 70
     1
102
RTVSPost2010Prop41ColorIndex
 90
       18
102
RTVSPost2010Prop41ColorRGB
 90
        0
102
RTVSPost2010PropOp41
 70
     1
102
RTVSPost2010Prop42
 90
       50
102
RTVSPost2010PropOp42
 70
     1
102
RTVSPost2010Prop43
 90
        3
102
RTVSPost2010PropOp43
 70
     1
102
RTVSPost2010Prop44ColorIndex
 90
        5
102
RTVSPost2010Prop44ColorRGB
 90
      255
102
RTVSPost2010PropOp44
 70
     1
102
RTVSPost2010Prop45
280
     0
102
RTVSPost2010PropOp45
 70
     1
102
RTVSPost2010Prop46
 90
       50
102
RTVSPost2010PropOp46
 70
     1
102
RTVSPost2010Prop47
 90
       50
102
RTVSPost2010PropOp47
 70
     1
102
RTVSPost2010Prop48
 90
       50
102
RTVSPost2010PropOp48
 70
     1
102
RTVSPost2010Prop49
280
     0
102
RTVSPost2010PropOp49
 70
     1
102
RTVSPost2010Prop50
 90
       50
102
RTVSPost2010PropOp50
 70
     1
102
RTVSPost2010Prop51ColorIndex
 90
      256
102
RTVSPost2010Prop51ColorRGB
 90
-16777216
102
RTVSPost2010PropOp51
 70
     0
102
RTVSPost2010Prop52
140
1.0
102
RTVSPost2010PropOp52
 70
     0
102
RTVSPost2010Prop53
 90
        2
102
RTVSPost2010PropOp53
 70
     1
102
RTVSPost2010Prop54
  1
strokes_ogs.tif
102
RTVSPost2010PropOp54
 70
     1
102
RTVSPost2010Prop55
280
     0
102
RTVSPost2010PropOp55
 70
     1
102
RTVSPost2010Prop56
140
1.0
102
RTVSPost2010PropOp56
 70
     1
102
RTVSPost2010Prop57
140
1.0
102
RTVSPost2010PropOp57
 70
     1
  0
XRECORD
  5
192
102
{ACAD_REACTORS
330
191
102
}
330
191
100
AcDbXrecord
280
     1
102
RTVSPost2010Prop28
280
     0
102
RTVSPost2010PropOp28
 70
     0
102
RTVSPost2010Prop29
280
     1
102
RTVSPost2010PropOp29
 70
     0
102
RTVSPost2010Prop30
280
     1
102
RTVSPost2010PropOp30
 70
     0
102
RTVSPost2010Prop31
280
     0
102
RTVSPost2010PropOp31
 70
     0
102
RTVSPost2010Prop32
280
     0
102
RTVSPost2010PropOp32
 70
     0
102
RTVSPost2010Prop33
280
     0
102
RTVSPost2010PropOp33
 70
     0
102
RTVSPost2010Prop34
280
     0
102
RTVSPost2010PropOp34
 70
     0
102
RTVSPost2010Prop35
280
     0
102
RTVSPost2010PropOp35
 70
     0
102
RTVSPost2010Prop36
280
     0
102
RTVSPost2010PropOp36
 70
     0
102
RTVSPost2010Prop37
 90
       50
102
RTVSPost2010PropOp37
 70
     0
102
RTVSPost2010Prop38
140
0.0
102
RTVSPost2010PropOp38
 70
     0
102
RTVSPost2010Prop39
140
1.0
102
RTVSPost2010PropOp39
 70
     0
102
RTVSPost2010Prop40
 90
        0
102
RTVSPost2010PropOp40
 70
     0
102
RTVSPost2010Prop41ColorIndex
 90
       18
102
RTVSPost2010Prop41ColorRGB
 90
        0
102
RTVSPost2010PropOp41
 70
     0
102
RTVSPost2010Prop42
 90
       50
102
RTVSPost2010PropOp42
 70
     0
102
RTVSPost2010Prop43
 90
        3
102
RTVSPost2010PropOp43
 70
     0
102
RTVSPost2010Prop44ColorIndex
 90
        5
102
RTVSPost2010Prop44ColorRGB
 90
      255
102
RTVSPost2010PropOp44
 70
     0
102
RTVSPost2010Prop45
280
     0
102
RTVSPost2010PropOp45
 70
     0
102
RTVSPost2010Prop46
 90
       50
102
RTVSPost2010PropOp46
 70
     0
102
RTVSPost2010Prop47
 90
       50
102
RTVSPost2010PropOp47
 70
     0
102
RTVSPost2010Prop48
 90
       50
102
RTVSPost2010PropOp48
 70
     0
102
RTVSPost2010Prop49
280
     0
102
RTVSPost2010PropOp49
 70
     0
102
RTVSPost2010Prop50
 90
       50
102
RTVSPost2010PropOp50
 70
     0
102
RTVSPost2010Prop51ColorIndex
 90
      256
102
RTVSPost2010Prop51ColorRGB
 90
-16777216
102
RTVSPost2010PropOp51
 70
     0
102
RTVSPost2010Prop52
140
1.0
102
RTVSPost2010PropOp52
 70
     0
102
RTVSPost2010Prop53
 90
        2
102
RTVSPost2010PropOp53
 70
     0
102
RTVSPost2010Prop54
  1
strokes_ogs.tif
102
RTVSPost2010PropOp54
 70
     0
102
RTVSPost2010Prop55
280
     0
102
RTVSPost2010PropOp55
 70
     0
102
RTVSPost2010Prop56
140
1.0
102
RTVSPost2010PropOp56
 70
     0
102
RTVSPost2010Prop57
140
1.0
102
RTVSPost2010PropOp57
 70
     0
  0
XRECORD
  5
182
102
{ACAD_REACTORS
330
181
102
}
330
181
100
AcDbXrecord
280
     1
102
RTVSPost2010Prop28
280
     0
102
RTVSPost2010PropOp28
 70
     1
102
RTVSPost2010Prop29
280
     1
102
RTVSPost2010PropOp29
 70
     1
102
RTVSPost2010Prop30
280
     1
102
RTVSPost2010PropOp30
 70
     1
102
RTVSPost2010Prop31
280
     0
102
RTVSPost2010PropOp31
 70
     1
102
RTVSPost2010Prop32
280
     0
102
RTVSPost2010PropOp32
 70
     1
102
RTVSPost2010Prop33
280
     0
102
RTVSPost2010PropOp33
 70
     1
102
RTVSPost2010Prop34
280
     0
102
RTVSPost2010PropOp34
 70
     1
102
RTVSPost2010Prop35
280
     0
102
RTVSPost2010PropOp35
 70
     1
102
RTVSPost2010Prop36
280
     0
102
RTVSPost2010PropOp36
 70
     1
102
RTVSPost2010Prop37
 90
       50
102
RTVSPost2010PropOp37
 70
     1
102
RTVSPost2010Prop38
140
0.0
102
RTVSPost2010PropOp38
 70
     1
102
RTVSPost2010Prop39
140
1.0
102
RTVSPost2010PropOp39
 70
     1
102
RTVSPost2010Prop40
 90
        0
102
RTVSPost2010PropOp40
 70
     1
102
RTVSPost2010Prop41ColorIndex
 90
       18
102
RTVSPost2010Prop41ColorRGB
 90
        0
102
RTVSPost2010PropOp41
 70
     1
102
RTVSPost2010Prop42
 90
       50
102
RTVSPost2010PropOp42
 70
     1
102
RTVSPost2010Prop43
 90
        3
102
RTVSPost2010PropOp43
 70
     1
102
RTVSPost2010Prop44ColorIndex
 90
        5
102
RTVSPost2010Prop44ColorRGB
 90
      255
102
RTVSPost2010PropOp44
 70
     1
102
RTVSPost2010Prop45
280
     0
102
RTVSPost2010PropOp45
 70
     1
102
RTVSPost2010Prop46
 90
       50
102
RTVSPost2010PropOp46
 70
     1
102
RTVSPost2010Prop47
 90
       50
102
RTVSPost2010PropOp47
 70
     1
102
RTVSPost2010Prop48
 90
       50
102
RTVSPost2010PropOp48
 70
     1
102
RTVSPost2010Prop49
280
     0
102
RTVSPost2010PropOp49
 70
     1
102
RTVSPost2010Prop50
 90
       50
102
RTVSPost2010PropOp50
 70
     1
102
RTVSPost2010Prop51ColorIndex
 90
      256
102
RTVSPost2010Prop51ColorRGB
 90
-16777216
102
RTVSPost2010PropOp51
 70
     0
102
RTVSPost2010Prop52
140
1.0
102
RTVSPost2010PropOp52
 70
     0
102
RTVSPost2010Prop53
 90
        2
102
RTVSPost2010PropOp53
 70
     1
102
RTVSPost2010Prop54
  1
strokes_ogs.tif
102
RTVSPost2010PropOp54
 70
     1
102
RTVSPost2010Prop55
280
     0
102
RTVSPost2010PropOp55
 70
     1
102
RTVSPost2010Prop56
140
1.0
102
RTVSPost2010PropOp56
 70
     1
102
RTVSPost2010Prop57
140
1.0
102
RTVSPost2010PropOp57
 70
     1
  0
XRECORD
  5
194
102
{ACAD_REACTORS
330
193
102
}
330
193
100
AcDbXrecord
280
     1
102
RTVSPost2010Prop28
280
     0
102
RTVSPost2010PropOp28
 70
     0
102
RTVSPost2010Prop29
280
     1
102
RTVSPost2010PropOp29
 70
     0
102
RTVSPost2010Prop30
280
     1
102
RTVSPost2010PropOp30
 70
     0
102
RTVSPost2010Prop31
280
     0
102
RTVSPost2010PropOp31
 70
     0
102
RTVSPost2010Prop32
280
     0
102
RTVSPost2010PropOp32
 70
     0
102
RTVSPost2010Prop33
280
     0
102
RTVSPost2010PropOp33
 70
     0
102
RTVSPost2010Prop34
280
     0
102
RTVSPost2010PropOp34
 70
     0
102
RTVSPost2010Prop35
280
     0
102
RTVSPost2010PropOp35
 70
     0
102
RTVSPost2010Prop36
280
     0
102
RTVSPost2010PropOp36
 70
     0
102
RTVSPost2010Prop37
 90
       50
102
RTVSPost2010PropOp37
 70
     0
102
RTVSPost2010Prop38
140
0.0
102
RTVSPost2010PropOp38
 70
     0
102
RTVSPost2010Prop39
140
1.0
102
RTVSPost2010PropOp39
 70
     0
102
RTVSPost2010Prop40
 90
        0
102
RTVSPost2010PropOp40
 70
     0
102
RTVSPost2010Prop41ColorIndex
 90
       18
102
RTVSPost2010Prop41ColorRGB
 90
        0
102
RTVSPost2010PropOp41
 70
     0
102
RTVSPost2010Prop42
 90
       50
102
RTVSPost2010PropOp42
 70
     0
102
RTVSPost2010Prop43
 90
        3
102
RTVSPost2010PropOp43
 70
     0
102
RTVSPost2010Prop44ColorIndex
 90
        5
102
RTVSPost2010Prop44ColorRGB
 90
      255
102
RTVSPost2010PropOp44
 70
     0
102
RTVSPost2010Prop45
280
     0
102
RTVSPost2010PropOp45
 70
     0
102
RTVSPost2010Prop46
 90
       50
102
RTVSPost2010PropOp46
 70
     0
102
RTVSPost2010Prop47
 90
       50
102
RTVSPost2010PropOp47
 70
     0
102
RTVSPost2010Prop48
 90
       50
102
RTVSPost2010PropOp48
 70
     0
102
RTVSPost2010Prop49
280
     0
102
RTVSPost2010PropOp49
 70
     0
102
RTVSPost2010Prop50
 90
       50
102
RTVSPost2010PropOp50
 70
     0
102
RTVSPost2010Prop51ColorIndex
 90
      256
102
RTVSPost2010Prop51ColorRGB
 90
-16777216
102
RTVSPost2010PropOp51
 70
     0
102
RTVSPost2010Prop52
140
1.0
102
RTVSPost2010PropOp52
 70
     0
102
RTVSPost2010Prop53
 90
        2
102
RTVSPost2010PropOp53
 70
     0
102
RTVSPost2010Prop54
  1
strokes_ogs.tif
102
RTVSPost2010PropOp54
 70
     0
102
RTVSPost2010Prop55
280
     0
102
RTVSPost2010PropOp55
 70
     0
102
RTVSPost2010Prop56
140
1.0
102
RTVSPost2010PropOp56
 70
     0
102
RTVSPost2010Prop57
140
1.0
102
RTVSPost2010PropOp57
 70
     0
  0
XRECORD
  5
17A
102
{ACAD_REACTORS
330
179
102
}
330
179
100
AcDbXrecord
280
     1
102
RTVSPost2010Prop28
280
     0
102
RTVSPost2010PropOp28
 70
     1
102
RTVSPost2010Prop29
280
     1
102
RTVSPost2010PropOp29
 70
     1
102
RTVSPost2010Prop30
280
     1
102
RTVSPost2010PropOp30
 70
     1
102
RTVSPost2010Prop31
280
     0
102
RTVSPost2010PropOp31
 70
     1
102
RTVSPost2010Prop32
280
     0
102
RTVSPost2010PropOp32
 70
     1
102
RTVSPost2010Prop33
280
     0
102
RTVSPost2010PropOp33
 70
     1
102
RTVSPost2010Prop34
280
     0
102
RTVSPost2010PropOp34
 70
     1
102
RTVSPost2010Prop35
280
     0
102
RTVSPost2010PropOp35
 70
     1
102
RTVSPost2010Prop36
280
     0
102
RTVSPost2010PropOp36
 70
     1
102
RTVSPost2010Prop37
 90
       50
102
RTVSPost2010PropOp37
 70
     1
102
RTVSPost2010Prop38
140
0.0
102
RTVSPost2010PropOp38
 70
     1
102
RTVSPost2010Prop39
140
1.0
102
RTVSPost2010PropOp39
 70
     1
102
RTVSPost2010Prop40
 90
        0
102
RTVSPost2010PropOp40
 70
     1
102
RTVSPost2010Prop41ColorIndex
 90
       18
102
RTVSPost2010Prop41ColorRGB
 90
        0
102
RTVSPost2010PropOp41
 70
     1
102
RTVSPost2010Prop42
 90
       50
102
RTVSPost2010PropOp42
 70
     1
102
RTVSPost2010Prop43
 90
        3
102
RTVSPost2010PropOp43
 70
     1
102
RTVSPost2010Prop44ColorIndex
 90
        5
102
RTVSPost2010Prop44ColorRGB
 90
      255
102
RTVSPost2010PropOp44
 70
     1
102
RTVSPost2010Prop45
280
     0
102
RTVSPost2010PropOp45
 70
     1
102
RTVSPost2010Prop46
 90
       50
102
RTVSPost2010PropOp46
 70
     1
102
RTVSPost2010Prop47
 90
       50
102
RTVSPost2010PropOp47
 70
     1
102
RTVSPost2010Prop48
 90
       50
102
RTVSPost2010PropOp48
 70
     1
102
RTVSPost2010Prop49
280
     0
102
RTVSPost2010PropOp49
 70
     1
102
RTVSPost2010Prop50
 90
       50
102
RTVSPost2010PropOp50
 70
     1
102
RTVSPost2010Prop51ColorIndex
 90
      256
102
RTVSPost2010Prop51ColorRGB
 90
-16777216
102
RTVSPost2010PropOp51
 70
     0
102
RTVSPost2010Prop52
140
1.0
102
RTVSPost2010PropOp52
 70
     0
102
RTVSPost2010Prop53
 90
        2
102
RTVSPost2010PropOp53
 70
     1
102
RTVSPost2010Prop54
  1
strokes_ogs.tif
102
RTVSPost2010PropOp54
 70
     1
102
RTVSPost2010Prop55
280
     0
102
RTVSPost2010PropOp55
 70
     1
102
RTVSPost2010Prop56
140
1.0
102
RTVSPost2010PropOp56
 70
     1
102
RTVSPost2010Prop57
140
1.0
102
RTVSPost2010PropOp57
 70
     1
  0
XRECORD
  5
190
102
{ACAD_REACTORS
330
18F
102
}
330
18F
100
AcDbXrecord
280
     1
102
RTVSPost2010Prop28
280
     0
102
RTVSPost2010PropOp28
 70
     1
102
RTVSPost2010Prop29
280
     1
102
RTVSPost2010PropOp29
 70
     1
102
RTVSPost2010Prop30
280
     1
102
RTVSPost2010PropOp30
 70
     1
102
RTVSPost2010Prop31
280
     0
102
RTVSPost2010PropOp31
 70
     1
102
RTVSPost2010Prop32
280
     0
102
RTVSPost2010PropOp32
 70
     1
102
RTVSPost2010Prop33
280
     0
102
RTVSPost2010PropOp33
 70
     1
102
RTVSPost2010Prop34
280
     0
102
RTVSPost2010PropOp34
 70
     1
102
RTVSPost2010Prop35
280
     0
102
RTVSPost2010PropOp35
 70
     1
102
RTVSPost2010Prop36
280
     0
102
RTVSPost2010PropOp36
 70
     1
102
RTVSPost2010Prop37
 90
       50
102
RTVSPost2010PropOp37
 70
     1
102
RTVSPost2010Prop38
140
0.0
102
RTVSPost2010PropOp38
 70
     1
102
RTVSPost2010Prop39
140
1.0
102
RTVSPost2010PropOp39
 70
     1
102
RTVSPost2010Prop40
 90
        0
102
RTVSPost2010PropOp40
 70
     1
102
RTVSPost2010Prop41ColorIndex
 90
       18
102
RTVSPost2010Prop41ColorRGB
 90
        0
102
RTVSPost2010PropOp41
 70
     1
102
RTVSPost2010Prop42
 90
       50
102
RTVSPost2010PropOp42
 70
     1
102
RTVSPost2010Prop43
 90
        3
102
RTVSPost2010PropOp43
 70
     1
102
RTVSPost2010Prop44ColorIndex
 90
        5
102
RTVSPost2010Prop44ColorRGB
 90
      255
102
RTVSPost2010PropOp44
 70
     1
102
RTVSPost2010Prop45
280
     0
102
RTVSPost2010PropOp45
 70
     1
102
RTVSPost2010Prop46
 90
       50
102
RTVSPost2010PropOp46
 70
     1
102
RTVSPost2010Prop47
 90
       50
102
RTVSPost2010PropOp47
 70
     1
102
RTVSPost2010Prop48
 90
       50
102
RTVSPost2010PropOp48
 70
     1
102
RTVSPost2010Prop49
280
     0
102
RTVSPost2010PropOp49
 70
     1
102
RTVSPost2010Prop50
 90
       50
102
RTVSPost2010PropOp50
 70
     1
102
RTVSPost2010Prop51ColorIndex
 90
      256
102
RTVSPost2010Prop51ColorRGB
 90
-16777216
102
RTVSPost2010PropOp51
 70
     0
102
RTVSPost2010Prop52
140
1.0
102
RTVSPost2010PropOp52
 70
     0
102
RTVSPost2010Prop53
 90
        2
102
RTVSPost2010PropOp53
 70
     1
102
RTVSPost2010Prop54
  1
strokes_ogs.tif
102
RTVSPost2010PropOp54
 70
     1
102
RTVSPost2010Prop55
280
     0
102
RTVSPost2010PropOp55
 70
     1
102
RTVSPost2010Prop56
140
1.0
102
RTVSPost2010PropOp56
 70
     1
102
RTVSPost2010Prop57
140
1.0
102
RTVSPost2010PropOp57
 70
     1
  0
XRECORD
  5
18E
102
{ACAD_REACTORS
330
18D
102
}
330
18D
100
AcDbXrecord
280
     1
102
RTVSPost2010Prop28
280
     0
102
RTVSPost2010PropOp28
 70
     1
102
RTVSPost2010Prop29
280
     1
102
RTVSPost2010PropOp29
 70
     1
102
RTVSPost2010Prop30
280
     1
102
RTVSPost2010PropOp30
 70
     1
102
RTVSPost2010Prop31
280
     0
102
RTVSPost2010PropOp31
 70
     1
102
RTVSPost2010Prop32
280
     0
102
RTVSPost2010PropOp32
 70
     1
102
RTVSPost2010Prop33
280
     0
102
RTVSPost2010PropOp33
 70
     1
102
RTVSPost2010Prop34
280
     0
102
RTVSPost2010PropOp34
 70
     1
102
RTVSPost2010Prop35
280
     0
102
RTVSPost2010PropOp35
 70
     1
102
RTVSPost2010Prop36
280
     0
102
RTVSPost2010PropOp36
 70
     1
102
RTVSPost2010Prop37
 90
       50
102
RTVSPost2010PropOp37
 70
     1
102
RTVSPost2010Prop38
140
0.0
102
RTVSPost2010PropOp38
 70
     1
102
RTVSPost2010Prop39
140
1.0
102
RTVSPost2010PropOp39
 70
     1
102
RTVSPost2010Prop40
 90
        0
102
RTVSPost2010PropOp40
 70
     1
102
RTVSPost2010Prop41ColorIndex
 90
       18
102
RTVSPost2010Prop41ColorRGB
 90
        0
102
RTVSPost2010PropOp41
 70
     1
102
RTVSPost2010Prop42
 90
       50
102
RTVSPost2010PropOp42
 70
     1
102
RTVSPost2010Prop43
 90
        3
102
RTVSPost2010PropOp43
 70
     1
102
RTVSPost2010Prop44ColorIndex
 90
        5
102
RTVSPost2010Prop44ColorRGB
 90
      255
102
RTVSPost2010PropOp44
 70
     1
102
RTVSPost2010Prop45
280
     0
102
RTVSPost2010PropOp45
 70
     1
102
RTVSPost2010Prop46
 90
       50
102
RTVSPost2010PropOp46
 70
     1
102
RTVSPost2010Prop47
 90
       50
102
RTVSPost2010PropOp47
 70
     1
102
RTVSPost2010Prop48
 90
       50
102
RTVSPost2010PropOp48
 70
     1
102
RTVSPost2010Prop49
280
     0
102
RTVSPost2010PropOp49
 70
     1
102
RTVSPost2010Prop50
 90
       50
102
RTVSPost2010PropOp50
 70
     1
102
RTVSPost2010Prop51ColorIndex
 90
      256
102
RTVSPost2010Prop51ColorRGB
 90
-16777216
102
RTVSPost2010PropOp51
 70
     0
102
RTVSPost2010Prop52
140
1.0
102
RTVSPost2010PropOp52
 70
     0
102
RTVSPost2010Prop53
 90
        2
102
RTVSPost2010PropOp53
 70
     1
102
RTVSPost2010Prop54
  1
strokes_ogs.tif
102
RTVSPost2010PropOp54
 70
     1
102
RTVSPost2010Prop55
280
     0
102
RTVSPost2010PropOp55
 70
     1
102
RTVSPost2010Prop56
140
1.0
102
RTVSPost2010PropOp56
 70
     1
102
RTVSPost2010Prop57
140
1.0
102
RTVSPost2010PropOp57
 70
     1
  0
XRECORD
  5
188
102
{ACAD_REACTORS
330
187
102
}
330
187
100
AcDbXrecord
280
     1
102
RTVSPost2010Prop28
280
     0
102
RTVSPost2010PropOp28
 70
     1
102
RTVSPost2010Prop29
280
     1
102
RTVSPost2010PropOp29
 70
     1
102
RTVSPost2010Prop30
280
     1
102
RTVSPost2010PropOp30
 70
     1
102
RTVSPost2010Prop31
280
     0
102
RTVSPost2010PropOp31
 70
     1
102
RTVSPost2010Prop32
280
     0
102
RTVSPost2010PropOp32
 70
     1
102
RTVSPost2010Prop33
280
     0
102
RTVSPost2010PropOp33
 70
     1
102
RTVSPost2010Prop34
280
     0
102
RTVSPost2010PropOp34
 70
     1
102
RTVSPost2010Prop35
280
     0
102
RTVSPost2010PropOp35
 70
     1
102
RTVSPost2010Prop36
280
     0
102
RTVSPost2010PropOp36
 70
     1
102
RTVSPost2010Prop37
 90
       50
102
RTVSPost2010PropOp37
 70
     1
102
RTVSPost2010Prop38
140
0.0
102
RTVSPost2010PropOp38
 70
     1
102
RTVSPost2010Prop39
140
1.0
102
RTVSPost2010PropOp39
 70
     1
102
RTVSPost2010Prop40
 90
        0
102
RTVSPost2010PropOp40
 70
     1
102
RTVSPost2010Prop41ColorIndex
 90
       18
102
RTVSPost2010Prop41ColorRGB
 90
        0
102
RTVSPost2010PropOp41
 70
     1
102
RTVSPost2010Prop42
 90
       50
102
RTVSPost2010PropOp42
 70
     1
102
RTVSPost2010Prop43
 90
        3
102
RTVSPost2010PropOp43
 70
     1
102
RTVSPost2010Prop44ColorIndex
 90
        5
102
RTVSPost2010Prop44ColorRGB
 90
      255
102
RTVSPost2010PropOp44
 70
     1
102
RTVSPost2010Prop45
280
     0
102
RTVSPost2010PropOp45
 70
     1
102
RTVSPost2010Prop46
 90
       50
102
RTVSPost2010PropOp46
 70
     1
102
RTVSPost2010Prop47
 90
       50
102
RTVSPost2010PropOp47
 70
     1
102
RTVSPost2010Prop48
 90
       50
102
RTVSPost2010PropOp48
 70
     1
102
RTVSPost2010Prop49
280
     0
102
RTVSPost2010PropOp49
 70
     1
102
RTVSPost2010Prop50
 90
       50
102
RTVSPost2010PropOp50
 70
     1
102
RTVSPost2010Prop51ColorIndex
 90
      256
102
RTVSPost2010Prop51ColorRGB
 90
-16777216
102
RTVSPost2010PropOp51
 70
     0
102
RTVSPost2010Prop52
140
1.0
102
RTVSPost2010PropOp52
 70
     0
102
RTVSPost2010Prop53
 90
        2
102
RTVSPost2010PropOp53
 70
     1
102
RTVSPost2010Prop54
  1
strokes_ogs.tif
102
RTVSPost2010PropOp54
 70
     1
102
RTVSPost2010Prop55
280
     0
102
RTVSPost2010PropOp55
 70
     1
102
RTVSPost2010Prop56
140
1.0
102
RTVSPost2010PropOp56
 70
     1
102
RTVSPost2010Prop57
140
1.0
102
RTVSPost2010PropOp57
 70
     1
  0
XRECORD
  5
18A
102
{ACAD_REACTORS
330
189
102
}
330
189
100
AcDbXrecord
280
     1
102
RTVSPost2010Prop28
280
     0
102
RTVSPost2010PropOp28
 70
     1
102
RTVSPost2010Prop29
280
     1
102
RTVSPost2010PropOp29
 70
     1
102
RTVSPost2010Prop30
280
     1
102
RTVSPost2010PropOp30
 70
     1
102
RTVSPost2010Prop31
280
     0
102
RTVSPost2010PropOp31
 70
     1
102
RTVSPost2010Prop32
280
     0
102
RTVSPost2010PropOp32
 70
     1
102
RTVSPost2010Prop33
280
     0
102
RTVSPost2010PropOp33
 70
     1
102
RTVSPost2010Prop34
280
     0
102
RTVSPost2010PropOp34
 70
     1
102
RTVSPost2010Prop35
280
     0
102
RTVSPost2010PropOp35
 70
     1
102
RTVSPost2010Prop36
280
     0
102
RTVSPost2010PropOp36
 70
     1
102
RTVSPost2010Prop37
 90
       50
102
RTVSPost2010PropOp37
 70
     1
102
RTVSPost2010Prop38
140
0.0
102
RTVSPost2010PropOp38
 70
     1
102
RTVSPost2010Prop39
140
1.0
102
RTVSPost2010PropOp39
 70
     1
102
RTVSPost2010Prop40
 90
        0
102
RTVSPost2010PropOp40
 70
     1
102
RTVSPost2010Prop41ColorIndex
 90
       18
102
RTVSPost2010Prop41ColorRGB
 90
        0
102
RTVSPost2010PropOp41
 70
     1
102
RTVSPost2010Prop42
 90
       50
102
RTVSPost2010PropOp42
 70
     1
102
RTVSPost2010Prop43
 90
        3
102
RTVSPost2010PropOp43
 70
     1
102
RTVSPost2010Prop44ColorIndex
 90
        5
102
RTVSPost2010Prop44ColorRGB
 90
      255
102
RTVSPost2010PropOp44
 70
     1
102
RTVSPost2010Prop45
280
     0
102
RTVSPost2010PropOp45
 70
     1
102
RTVSPost2010Prop46
 90
       50
102
RTVSPost2010PropOp46
 70
     1
102
RTVSPost2010Prop47
 90
       50
102
RTVSPost2010PropOp47
 70
     1
102
RTVSPost2010Prop48
 90
       50
102
RTVSPost2010PropOp48
 70
     1
102
RTVSPost2010Prop49
280
     0
102
RTVSPost2010PropOp49
 70
     1
102
RTVSPost2010Prop50
 90
       50
102
RTVSPost2010PropOp50
 70
     1
102
RTVSPost2010Prop51ColorIndex
 90
      256
102
RTVSPost2010Prop51ColorRGB
 90
-16777216
102
RTVSPost2010PropOp51
 70
     0
102
RTVSPost2010Prop52
140
1.0
102
RTVSPost2010PropOp52
 70
     0
102
RTVSPost2010Prop53
 90
        2
102
RTVSPost2010PropOp53
 70
     1
102
RTVSPost2010Prop54
  1
strokes_ogs.tif
102
RTVSPost2010PropOp54
 70
     1
102
RTVSPost2010Prop55
280
     0
102
RTVSPost2010PropOp55
 70
     1
102
RTVSPost2010Prop56
140
1.0
102
RTVSPost2010PropOp56
 70
     1
102
RTVSPost2010Prop57
140
1.0
102
RTVSPost2010PropOp57
 70
     1
  0
XRECORD
  5
180
102
{ACAD_REACTORS
330
17F
102
}
330
17F
100
AcDbXrecord
280
     1
102
RTVSPost2010Prop28
280
     0
102
RTVSPost2010PropOp28
 70
     1
102
RTVSPost2010Prop29
280
     1
102
RTVSPost2010PropOp29
 70
     1
102
RTVSPost2010Prop30
280
     1
102
RTVSPost2010PropOp30
 70
     1
102
RTVSPost2010Prop31
280
     0
102
RTVSPost2010PropOp31
 70
     1
102
RTVSPost2010Prop32
280
     0
102
RTVSPost2010PropOp32
 70
     1
102
RTVSPost2010Prop33
280
     0
102
RTVSPost2010PropOp33
 70
     1
102
RTVSPost2010Prop34
280
     0
102
RTVSPost2010PropOp34
 70
     1
102
RTVSPost2010Prop35
280
     0
102
RTVSPost2010PropOp35
 70
     1
102
RTVSPost2010Prop36
280
     0
102
RTVSPost2010PropOp36
 70
     1
102
RTVSPost2010Prop37
 90
       50
102
RTVSPost2010PropOp37
 70
     1
102
RTVSPost2010Prop38
140
0.0
102
RTVSPost2010PropOp38
 70
     1
102
RTVSPost2010Prop39
140
1.0
102
RTVSPost2010PropOp39
 70
     1
102
RTVSPost2010Prop40
 90
        0
102
RTVSPost2010PropOp40
 70
     1
102
RTVSPost2010Prop41ColorIndex
 90
       18
102
RTVSPost2010Prop41ColorRGB
 90
        0
102
RTVSPost2010PropOp41
 70
     1
102
RTVSPost2010Prop42
 90
       50
102
RTVSPost2010PropOp42
 70
     1
102
RTVSPost2010Prop43
 90
        3
102
RTVSPost2010PropOp43
 70
     1
102
RTVSPost2010Prop44ColorIndex
 90
        5
102
RTVSPost2010Prop44ColorRGB
 90
      255
102
RTVSPost2010PropOp44
 70
     1
102
RTVSPost2010Prop45
280
     0
102
RTVSPost2010PropOp45
 70
     1
102
RTVSPost2010Prop46
 90
       50
102
RTVSPost2010PropOp46
 70
     1
102
RTVSPost2010Prop47
 90
       50
102
RTVSPost2010PropOp47
 70
     1
102
RTVSPost2010Prop48
 90
       50
102
RTVSPost2010PropOp48
 70
     1
102
RTVSPost2010Prop49
280
     0
102
RTVSPost2010PropOp49
 70
     1
102
RTVSPost2010Prop50
 90
       50
102
RTVSPost2010PropOp50
 70
     1
102
RTVSPost2010Prop51ColorIndex
 90
      256
102
RTVSPost2010Prop51ColorRGB
 90
-16777216
102
RTVSPost2010PropOp51
 70
     0
102
RTVSPost2010Prop52
140
1.0
102
RTVSPost2010PropOp52
 70
     0
102
RTVSPost2010Prop53
 90
        2
102
RTVSPost2010PropOp53
 70
     1
102
RTVSPost2010Prop54
  1
strokes_ogs.tif
102
RTVSPost2010PropOp54
 70
     1
102
RTVSPost2010Prop55
280
     0
102
RTVSPost2010PropOp55
 70
     1
102
RTVSPost2010Prop56
140
1.0
102
RTVSPost2010PropOp56
 70
     1
102
RTVSPost2010Prop57
140
1.0
102
RTVSPost2010PropOp57
 70
     1
  0
XRECORD
  5
174
102
{ACAD_REACTORS
330
173
102
}
330
173
100
AcDbXrecord
280
     1
102
RTVSPost2010Prop28
280
     0
102
RTVSPost2010PropOp28
 70
     1
102
RTVSPost2010Prop29
280
     1
102
RTVSPost2010PropOp29
 70
     1
102
RTVSPost2010Prop30
280
     1
102
RTVSPost2010PropOp30
 70
     1
102
RTVSPost2010Prop31
280
     0
102
RTVSPost2010PropOp31
 70
     1
102
RTVSPost2010Prop32
280
     0
102
RTVSPost2010PropOp32
 70
     1
102
RTVSPost2010Prop33
280
     0
102
RTVSPost2010PropOp33
 70
     1
102
RTVSPost2010Prop34
280
     0
102
RTVSPost2010PropOp34
 70
     1
102
RTVSPost2010Prop35
280
     0
102
RTVSPost2010PropOp35
 70
     1
102
RTVSPost2010Prop36
280
     0
102
RTVSPost2010PropOp36
 70
     1
102
RTVSPost2010Prop37
 90
       50
102
RTVSPost2010PropOp37
 70
     1
102
RTVSPost2010Prop38
140
0.0
102
RTVSPost2010PropOp38
 70
     1
102
RTVSPost2010Prop39
140
1.0
102
RTVSPost2010PropOp39
 70
     1
102
RTVSPost2010Prop40
 90
        0
102
RTVSPost2010PropOp40
 70
     1
102
RTVSPost2010Prop41ColorIndex
 90
       18
102
RTVSPost2010Prop41ColorRGB
 90
        0
102
RTVSPost2010PropOp41
 70
     1
102
RTVSPost2010Prop42
 90
       50
102
RTVSPost2010PropOp42
 70
     1
102
RTVSPost2010Prop43
 90
        3
102
RTVSPost2010PropOp43
 70
     1
102
RTVSPost2010Prop44ColorIndex
 90
        5
102
RTVSPost2010Prop44ColorRGB
 90
      255
102
RTVSPost2010PropOp44
 70
     1
102
RTVSPost2010Prop45
280
     0
102
RTVSPost2010PropOp45
 70
     1
102
RTVSPost2010Prop46
 90
       50
102
RTVSPost2010PropOp46
 70
     1
102
RTVSPost2010Prop47
 90
       50
102
RTVSPost2010PropOp47
 70
     1
102
RTVSPost2010Prop48
 90
       50
102
RTVSPost2010PropOp48
 70
     1
102
RTVSPost2010Prop49
280
     0
102
RTVSPost2010PropOp49
 70
     1
102
RTVSPost2010Prop50
 90
       50
102
RTVSPost2010PropOp50
 70
     1
102
RTVSPost2010Prop51ColorIndex
 90
      256
102
RTVSPost2010Prop51ColorRGB
 90
-16777216
102
RTVSPost2010PropOp51
 70
     0
102
RTVSPost2010Prop52
140
1.0
102
RTVSPost2010PropOp52
 70
     0
102
RTVSPost2010Prop53
 90
        2
102
RTVSPost2010PropOp53
 70
     1
102
RTVSPost2010Prop54
  1
strokes_ogs.tif
102
RTVSPost2010PropOp54
 70
     1
102
RTVSPost2010Prop55
280
     0
102
RTVSPost2010PropOp55
 70
     1
102
RTVSPost2010Prop56
140
1.0
102
RTVSPost2010PropOp56
 70
     1
102
RTVSPost2010Prop57
140
1.0
102
RTVSPost2010PropOp57
 70
     1
  0
XRECORD
  5
18C
102
{ACAD_REACTORS
330
18B
102
}
330
18B
100
AcDbXrecord
280
     1
102
RTVSPost2010Prop28
280
     0
102
RTVSPost2010PropOp28
 70
     1
102
RTVSPost2010Prop29
280
     1
102
RTVSPost2010PropOp29
 70
     1
102
RTVSPost2010Prop30
280
     1
102
RTVSPost2010PropOp30
 70
     1
102
RTVSPost2010Prop31
280
     0
102
RTVSPost2010PropOp31
 70
     1
102
RTVSPost2010Prop32
280
     0
102
RTVSPost2010PropOp32
 70
     1
102
RTVSPost2010Prop33
280
     0
102
RTVSPost2010PropOp33
 70
     1
102
RTVSPost2010Prop34
280
     0
102
RTVSPost2010PropOp34
 70
     1
102
RTVSPost2010Prop35
280
     0
102
RTVSPost2010PropOp35
 70
     1
102
RTVSPost2010Prop36
280
     0
102
RTVSPost2010PropOp36
 70
     1
102
RTVSPost2010Prop37
 90
       50
102
RTVSPost2010PropOp37
 70
     1
102
RTVSPost2010Prop38
140
0.0
102
RTVSPost2010PropOp38
 70
     1
102
RTVSPost2010Prop39
140
1.0
102
RTVSPost2010PropOp39
 70
     1
102
RTVSPost2010Prop40
 90
        0
102
RTVSPost2010PropOp40
 70
     1
102
RTVSPost2010Prop41ColorIndex
 90
       18
102
RTVSPost2010Prop41ColorRGB
 90
        0
102
RTVSPost2010PropOp41
 70
     1
102
RTVSPost2010Prop42
 90
       50
102
RTVSPost2010PropOp42
 70
     1
102
RTVSPost2010Prop43
 90
        3
102
RTVSPost2010PropOp43
 70
     1
102
RTVSPost2010Prop44ColorIndex
 90
        5
102
RTVSPost2010Prop44ColorRGB
 90
      255
102
RTVSPost2010PropOp44
 70
     1
102
RTVSPost2010Prop45
280
     0
102
RTVSPost2010PropOp45
 70
     1
102
RTVSPost2010Prop46
 90
       50
102
RTVSPost2010PropOp46
 70
     1
102
RTVSPost2010Prop47
 90
       50
102
RTVSPost2010PropOp47
 70
     1
102
RTVSPost2010Prop48
 90
       50
102
RTVSPost2010PropOp48
 70
     1
102
RTVSPost2010Prop49
280
     0
102
RTVSPost2010PropOp49
 70
     1
102
RTVSPost2010Prop50
 90
       50
102
RTVSPost2010PropOp50
 70
     1
102
RTVSPost2010Prop51ColorIndex
 90
      256
102
RTVSPost2010Prop51ColorRGB
 90
-16777216
102
RTVSPost2010PropOp51
 70
     0
102
RTVSPost2010Prop52
140
1.0
102
RTVSPost2010PropOp52
 70
     0
102
RTVSPost2010Prop53
 90
        2
102
RTVSPost2010PropOp53
 70
     1
102
RTVSPost2010Prop54
  1
strokes_ogs.tif
102
RTVSPost2010PropOp54
 70
     1
102
RTVSPost2010Prop55
280
     0
102
RTVSPost2010PropOp55
 70
     1
102
RTVSPost2010Prop56
140
1.0
102
RTVSPost2010PropOp56
 70
     1
102
RTVSPost2010Prop57
140
1.0
102
RTVSPost2010PropOp57
 70
     1
  0
ENDSEC
  0
EOF
