  0
SECTION
  2
HEADER
  9
$ACADVER
  1
AC1024
  9
$ACADMAINTVER
 70
   205
  9
$DWGCODEPAGE
  3
ANSI_1251
  9
$INSBASE
 10
0.0
 20
0.0
 30
0.0
  9
$EXTMIN
 10
1.000000000000000E+20
 20
1.000000000000000E+20
 30
1.000000000000000E+20
  9
$EXTMAX
 10
-1.000000000000000E+20
 20
-1.000000000000000E+20
 30
-1.000000000000000E+20
  9
$LIMMIN
 10
0.0
 20
0.0
  9
$LIMMAX
 10
12.0
 20
9.0
  9
$ORTHOMODE
 70
     0
  9
$REGENMODE
 70
     1
  9
$FILLMODE
 70
     1
  9
$QTEXTMODE
 70
     0
  9
$MIRRTEXT
 70
     1
  9
$LTSCALE
 40
1.0
  9
$ATTMODE
 70
     1
  9
$TEXTSIZE
 40
0.2
  9
$TRACEWID
 40
0.05
  9
$TEXTSTYLE
  7
Standard
  9
$CLAYER
  8
OracDecor_skirtings
  9
$CELTYPE
  6
ByLayer
  9
$CECOLOR
 62
   256
  9
$CELTSCALE
 40
1.0
  9
$DISPSILH
 70
     0
  9
$DIMSCALE
 40
1.0
  9
$DIMASZ
 40
0.18
  9
$DIMEXO
 40
0.0625
  9
$DIMDLI
 40
0.38
  9
$DIMRND
 40
0.0
  9
$DIMDLE
 40
0.0
  9
$DIMEXE
 40
0.18
  9
$DIMTP
 40
0.0
  9
$DIMTM
 40
0.0
  9
$DIMTXT
 40
0.18
  9
$DIMCEN
 40
0.09
  9
$DIMTSZ
 40
0.0
  9
$DIMTOL
 70
     0
  9
$DIMLIM
 70
     0
  9
$DIMTIH
 70
     1
  9
$DIMTOH
 70
     1
  9
$DIMSE1
 70
     0
  9
$DIMSE2
 70
     0
  9
$DIMTAD
 70
     0
  9
$DIMZIN
 70
     0
  9
$DIMBLK
  1

  9
$DIMASO
 70
     1
  9
$DIMSHO
 70
     1
  9
$DIMPOST
  1

  9
$DIMAPOST
  1

  9
$DIMALT
 70
     0
  9
$DIMALTD
 70
     2
  9
$DIMALTF
 40
25.4
  9
$DIMLFAC
 40
1.0
  9
$DIMTOFL
 70
     0
  9
$DIMTVP
 40
0.0
  9
$DIMTIX
 70
     0
  9
$DIMSOXD
 70
     0
  9
$DIMSAH
 70
     0
  9
$DIMBLK1
  1

  9
$DIMBLK2
  1

  9
$DIMSTYLE
  2
Standard
  9
$DIMCLRD
 70
     0
  9
$DIMCLRE
 70
     0
  9
$DIMCLRT
 70
     0
  9
$DIMTFAC
 40
1.0
  9
$DIMGAP
 40
0.09
  9
$DIMJUST
 70
     0
  9
$DIMSD1
 70
     0
  9
$DIMSD2
 70
     0
  9
$DIMTOLJ
 70
     1
  9
$DIMTZIN
 70
     0
  9
$DIMALTZ
 70
     0
  9
$DIMALTTZ
 70
     0
  9
$DIMUPT
 70
     0
  9
$DIMDEC
 70
     4
  9
$DIMTDEC
 70
     4
  9
$DIMALTU
 70
     2
  9
$DIMALTTD
 70
     2
  9
$DIMTXSTY
  7
Standard
  9
$DIMAUNIT
 70
     0
  9
$DIMADEC
 70
     0
  9
$DIMALTRND
 40
0.0
  9
$DIMAZIN
 70
     0
  9
$DIMDSEP
 70
    46
  9
$DIMATFIT
 70
     3
  9
$DIMFRAC
 70
     0
  9
$DIMLDRBLK
  1

  9
$DIMLUNIT
 70
     2
  9
$DIMLWD
 70
    -2
  9
$DIMLWE
 70
    -2
  9
$DIMTMOVE
 70
     0
  9
$DIMFXL
 40
1.0
  9
$DIMFXLON
 70
     0
  9
$DIMJOGANG
 40
0.7853981633974483
  9
$DIMTFILL
 70
     0
  9
$DIMTFILLCLR
 70
     0
  9
$DIMARCSYM
 70
     0
  9
$DIMLTYPE
  6

  9
$DIMLTEX1
  6

  9
$DIMLTEX2
  6

  9
$DIMTXTDIRECTION
 70
     0
  9
$LUNITS
 70
     2
  9
$LUPREC
 70
     4
  9
$SKETCHINC
 40
0.1
  9
$FILLETRAD
 40
0.5
  9
$AUNITS
 70
     0
  9
$AUPREC
 70
     0
  9
$MENU
  1
.
  9
$ELEVATION
 40
0.0
  9
$PELEVATION
 40
0.0
  9
$THICKNESS
 40
0.0
  9
$LIMCHECK
 70
     0
  9
$CHAMFERA
 40
0.5
  9
$CHAMFERB
 40
0.5
  9
$CHAMFERC
 40
1.0
  9
$CHAMFERD
 40
0.0
  9
$SKPOLY
 70
     0
  9
$TDCREATE
 40
2451380.930432396
  9
$TDUCREATE
 40
2451380.805432396
  9
$TDUPDATE
 40
2451380.966180555
  9
$TDUUPDATE
 40
2451380.841180556
  9
$TDINDWG
 40
0.0075634954
  9
$TDUSRTIMER
 40
0.0075544560
  9
$USRTIMER
 70
     1
  9
$ANGBASE
 50
0.0
  9
$ANGDIR
 70
     0
  9
$PDMODE
 70
     0
  9
$PDSIZE
 40
0.0
  9
$PLINEWID
 40
0.0
  9
$SPLFRAME
 70
     0
  9
$SPLINETYPE
 70
     6
  9
$SPLINESEGS
 70
     8
  9
$HANDSEED
  5
18C
  9
$SURFTAB1
 70
     6
  9
$SURFTAB2
 70
     6
  9
$SURFTYPE
 70
     6
  9
$SURFU
 70
     6
  9
$SURFV
 70
     6
  9
$UCSBASE
  2

  9
$UCSNAME
  2

  9
$UCSORG
 10
0.0
 20
0.0
 30
0.0
  9
$UCSXDIR
 10
1.0
 20
0.0
 30
0.0
  9
$UCSYDIR
 10
0.0
 20
1.0
 30
0.0
  9
$UCSORTHOREF
  2

  9
$UCSORTHOVIEW
 70
     0
  9
$UCSORGTOP
 10
0.0
 20
0.0
 30
0.0
  9
$UCSORGBOTTOM
 10
0.0
 20
0.0
 30
0.0
  9
$UCSORGLEFT
 10
0.0
 20
0.0
 30
0.0
  9
$UCSORGRIGHT
 10
0.0
 20
0.0
 30
0.0
  9
$UCSORGFRONT
 10
0.0
 20
0.0
 30
0.0
  9
$UCSORGBACK
 10
0.0
 20
0.0
 30
0.0
  9
$PUCSBASE
  2

  9
$PUCSNAME
  2

  9
$PUCSORG
 10
0.0
 20
0.0
 30
0.0
  9
$PUCSXDIR
 10
1.0
 20
0.0
 30
0.0
  9
$PUCSYDIR
 10
0.0
 20
1.0
 30
0.0
  9
$PUCSORTHOREF
  2

  9
$PUCSORTHOVIEW
 70
     0
  9
$PUCSORGTOP
 10
0.0
 20
0.0
 30
0.0
  9
$PUCSORGBOTTOM
 10
0.0
 20
0.0
 30
0.0
  9
$PUCSORGLEFT
 10
0.0
 20
0.0
 30
0.0
  9
$PUCSORGRIGHT
 10
0.0
 20
0.0
 30
0.0
  9
$PUCSORGFRONT
 10
0.0
 20
0.0
 30
0.0
  9
$PUCSORGBACK
 10
0.0
 20
0.0
 30
0.0
  9
$USERI1
 70
     0
  9
$USERI2
 70
     0
  9
$USERI3
 70
     0
  9
$USERI4
 70
     0
  9
$USERI5
 70
     0
  9
$USERR1
 40
0.0
  9
$USERR2
 40
0.0
  9
$USERR3
 40
0.0
  9
$USERR4
 40
0.0
  9
$USERR5
 40
0.0
  9
$WORLDVIEW
 70
     1
  9
$SHADEDGE
 70
     3
  9
$SHADEDIF
 70
    70
  9
$TILEMODE
 70
     1
  9
$MAXACTVP
 70
    64
  9
$PINSBASE
 10
0.0
 20
0.0
 30
0.0
  9
$PLIMCHECK
 70
     0
  9
$PEXTMIN
 10
1.000000000000000E+20
 20
1.000000000000000E+20
 30
1.000000000000000E+20
  9
$PEXTMAX
 10
-1.000000000000000E+20
 20
-1.000000000000000E+20
 30
-1.000000000000000E+20
  9
$PLIMMIN
 10
0.0
 20
0.0
  9
$PLIMMAX
 10
12.0
 20
9.0
  9
$UNITMODE
 70
     0
  9
$VISRETAIN
 70
     1
  9
$PLINEGEN
 70
     0
  9
$PSLTSCALE
 70
     1
  9
$TREEDEPTH
 70
  3020
  9
$CMLSTYLE
  2
Standard
  9
$CMLJUST
 70
     0
  9
$CMLSCALE
 40
1.0
  9
$PROXYGRAPHICS
 70
     1
  9
$MEASUREMENT
 70
     1
  9
$CELWEIGHT
370
    -1
  9
$ENDCAPS
280
     0
  9
$JOINSTYLE
280
     0
  9
$LWDISPLAY
290
     0
  9
$INSUNITS
 70
     4
  9
$HYPERLINKBASE
  1

  9
$STYLESHEET
  1

  9
$XEDIT
290
     1
  9
$CEPSNTYPE
380
     0
  9
$PSTYLEMODE
290
     1
  9
$FINGERPRINTGUID
  2
{12F50282-3ED8-11D3-A8B7-0060B0F84BC6}
  9
$VERSIONGUID
  2
{12F50293-3ED8-11D3-A8B7-0060B0F84BC6}
  9
$EXTNAMES
290
     1
  9
$PSVPSCALE
 40
0.0
  9
$OLESTARTUP
290
     0
  9
$SORTENTS
280
   127
  9
$INDEXCTL
280
     0
  9
$HIDETEXT
280
     0
  9
$XCLIPFRAME
280
     2
  9
$HALOGAP
280
     0
  9
$OBSCOLOR
 70
   257
  9
$OBSLTYPE
280
     0
  9
$INTERSECTIONDISPLAY
280
     0
  9
$INTERSECTIONCOLOR
 70
   257
  9
$DIMASSOC
280
     1
  9
$PROJECTNAME
  1

  9
$CAMERADISPLAY
290
     0
  9
$LENSLENGTH
 40
50.0
  9
$CAMERAHEIGHT
 40
0.0
  9
$STEPSPERSEC
 40
2.0
  9
$STEPSIZE
 40
6.0
  9
$3DDWFPREC
 40
2.0
  9
$PSOLWIDTH
 40
0.25
  9
$PSOLHEIGHT
 40
4.0
  9
$LOFTANG1
 40
1.570796326794896
  9
$LOFTANG2
 40
1.570796326794896
  9
$LOFTMAG1
 40
0.0
  9
$LOFTMAG2
 40
0.0
  9
$LOFTPARAM
 70
     7
  9
$LOFTNORMALS
280
     1
  9
$LATITUDE
 40
37.795
  9
$LONGITUDE
 40
-122.394
  9
$NORTHDIRECTION
 40
0.0
  9
$TIMEZONE
 70
 -8000
  9
$LIGHTGLYPHDISPLAY
280
     1
  9
$TILEMODELIGHTSYNCH
280
     1
  9
$CMATERIAL
347
AB
  9
$SOLIDHIST
280
     0
  9
$SHOWHIST
280
     1
  9
$DWFFRAME
280
     2
  9
$DGNFRAME
280
     0
  9
$REALWORLDSCALE
290
     1
  9
$INTERFERECOLOR
 62
     1
  9
$INTERFEREOBJVS
345
CD
  9
$INTERFEREVPVS
346
CA
  9
$CSHADOW
280
     0
  9
$SHADOWPLANELOCATION
 40
0.0
  0
ENDSEC
  0
SECTION
  2
CLASSES
  0
CLASS
  1
ACDBDICTIONARYWDFLT
  2
AcDbDictionaryWithDefault
  3
ObjectDBX Classes
 90
        0
 91
        1
280
     0
281
     0
  0
CLASS
  1
ACDBPLACEHOLDER
  2
AcDbPlaceHolder
  3
ObjectDBX Classes
 90
        0
 91
        2
280
     0
281
     0
  0
CLASS
  1
LAYOUT
  2
AcDbLayout
  3
ObjectDBX Classes
 90
        0
 91
        3
280
     0
281
     0
  0
CLASS
  1
MATERIAL
  2
AcDbMaterial
  3
ObjectDBX Classes
 90
     1153
 91
        3
280
     0
281
     0
  0
CLASS
  1
VISUALSTYLE
  2
AcDbVisualStyle
  3
ObjectDBX Classes
 90
     4095
 91
       24
280
     0
281
     0
  0
CLASS
  1
TABLESTYLE
  2
AcDbTableStyle
  3
ObjectDBX Classes
 90
     4095
 91
        1
280
     0
281
     0
  0
CLASS
  1
SCALE
  2
AcDbScale
  3
ObjectDBX Classes
 90
     1153
 91
       17
280
     0
281
     0
  0
CLASS
  1
MLEADERSTYLE
  2
AcDbMLeaderStyle
  3
ACDB_MLEADERSTYLE_CLASS
 90
     4095
 91
        1
280
     0
281
     0
  0
CLASS
  1
ACDBSECTIONVIEWSTYLE
  2
AcDbSectionViewStyle
  3
ObjectDBX Classes
 90
     1025
 91
        1
280
     0
281
     0
  0
CLASS
  1
ACDBDETAILVIEWSTYLE
  2
AcDbDetailViewStyle
  3
ObjectDBX Classes
 90
     1025
 91
        1
280
     0
281
     0
  0
CLASS
  1
MESH
  2
AcDbSubDMesh
  3
ObjectDBX Classes
 90
        0
 91
        1
280
     0
281
     1
  0
CLASS
  1
DICTIONARYVAR
  2
AcDbDictionaryVar
  3
ObjectDBX Classes
 90
        0
 91
        9
280
     0
281
     0
  0
CLASS
  1
CELLSTYLEMAP
  2
AcDbCellStyleMap
  3
ObjectDBX Classes
 90
     1152
 91
        1
280
     0
281
     0
  0
ENDSEC
  0
SECTION
  2
TABLES
  0
TABLE
  2
VPORT
  5
8
330
0
100
AcDbSymbolTable
 70
     1
  0
VPORT
  5
A8
330
8
100
AcDbSymbolTableRecord
100
AcDbViewportTableRecord
  2
*Active
 70
     0
 10
0.0
 20
0.0
 11
1.0
 21
1.0
 12
-0.0000209048394026
 22
40.8248176574707
 13
0.0
 23
0.0
 14
0.5
 24
0.5
 15
0.5
 25
0.5
 16
-1.0
 26
-1.0
 36
1.0
 17
0.0
 27
0.0
 37
0.0
 40
1122.00005469855
 41
1.577679076021711
 42
50.0
 43
0.0
 44
0.0
 50
0.0
 51
0.0
 71
     0
 72
   100
 73
     1
 74
     3
 75
     0
 76
     0
 77
     0
 78
     0
281
     0
 65
     1
110
0.0
120
0.0
130
0.0
111
1.0
121
0.0
131
0.0
112
0.0
122
1.0
132
0.0
 79
     0
146
0.0
348
C9
 60
     3
 61
     5
292
     1
282
     1
141
0.0
142
0.0
 63
   250
421
  3355443
  0
ENDTAB
  0
TABLE
  2
LTYPE
  5
5
330
0
100
AcDbSymbolTable
 70
     1
  0
LTYPE
  5
14
330
5
100
AcDbSymbolTableRecord
100
AcDbLinetypeTableRecord
  2
ByBlock
 70
     0
  3

 72
    65
 73
     0
 40
0.0
  0
LTYPE
  5
15
330
5
100
AcDbSymbolTableRecord
100
AcDbLinetypeTableRecord
  2
ByLayer
 70
     0
  3

 72
    65
 73
     0
 40
0.0
  0
LTYPE
  5
16
330
5
100
AcDbSymbolTableRecord
100
AcDbLinetypeTableRecord
  2
Continuous
 70
     0
  3
Solid line
 72
    65
 73
     0
 40
0.0
  0
ENDTAB
  0
TABLE
  2
LAYER
  5
2
330
0
100
AcDbSymbolTable
 70
     3
  0
LAYER
  5
10
330
2
100
AcDbSymbolTableRecord
100
AcDbLayerTableRecord
  2
0
 70
     0
 62
     7
  6
Continuous
370
    -3
390
F
347
BB
  0
LAYER
  5
2B
330
2
100
AcDbSymbolTableRecord
100
AcDbLayerTableRecord
  2
ASHADE
 70
     4
 62
     7
  6
Continuous
370
    -3
390
2D
347
BB
  0
LAYER
  5
F8
330
2
100
AcDbSymbolTableRecord
100
AcDbLayerTableRecord
  2
OracDecor_skirtings
 70
     0
 62
    54
420
  9744667
  6
Continuous
370
    -3
390
F
347
BB
  0
ENDTAB
  0
TABLE
  2
STYLE
  5
3
330
0
100
AcDbSymbolTable
 70
     2
  0
STYLE
  5
11
330
3
100
AcDbSymbolTableRecord
100
AcDbTextStyleTableRecord
  2
Standard
 70
     0
 40
0.0
 41
1.0
 50
0.0
 71
     0
 42
0.2
  3
txt
  4

  0
STYLE
  5
2C
330
3
100
AcDbSymbolTableRecord
100
AcDbTextStyleTableRecord
  2
ASHADE
 70
     0
 40
0.2
 41
1.0
 50
0.0
 71
     0
 42
0.2
  3
simplex
  4

  0
ENDTAB
  0
TABLE
  2
VIEW
  5
6
330
0
100
AcDbSymbolTable
 70
     0
  0
ENDTAB
  0
TABLE
  2
UCS
  5
7
330
0
100
AcDbSymbolTable
 70
     0
  0
ENDTAB
  0
TABLE
  2
APPID
  5
9
330
0
100
AcDbSymbolTable
 70
     6
  0
APPID
  5
12
330
9
100
AcDbSymbolTableRecord
100
AcDbRegAppTableRecord
  2
ACAD
 70
     0
  0
APPID
  5
8F
330
9
100
AcDbSymbolTableRecord
100
AcDbRegAppTableRecord
  2
AVE_RENDER
 70
     0
  0
APPID
  5
90
330
9
100
AcDbSymbolTableRecord
100
AcDbRegAppTableRecord
  2
AVE_ENTITY_MATERIAL
 70
     0
  0
APPID
  5
9C
330
9
100
AcDbSymbolTableRecord
100
AcDbRegAppTableRecord
  2
AVE_FINISH
 70
     0
  0
APPID
  5
9D
330
9
100
AcDbSymbolTableRecord
100
AcDbRegAppTableRecord
  2
AVE_MATERIAL
 70
     0
  0
APPID
  5
9E
330
9
100
AcDbSymbolTableRecord
100
AcDbRegAppTableRecord
  2
AVE_GLOBAL
 70
     0
  0
ENDTAB
  0
TABLE
  2
DIMSTYLE
  5
A
330
0
100
AcDbSymbolTable
 70
     1
100
AcDbDimStyleTable
 71
     0
  0
DIMSTYLE
105
27
330
A
100
AcDbSymbolTableRecord
100
AcDbDimStyleTableRecord
  2
Standard
 70
     0
340
11
  0
ENDTAB
  0
TABLE
  2
BLOCK_RECORD
  5
1
330
0
100
AcDbSymbolTable
 70
     6
  0
BLOCK_RECORD
  5
1F
330
1
100
AcDbSymbolTableRecord
100
AcDbBlockTableRecord
  2
*Model_Space
340
22
 70
     0
280
     1
281
     0
  0
BLOCK_RECORD
  5
1B
330
1
100
AcDbSymbolTableRecord
100
AcDbBlockTableRecord
  2
*Paper_Space
340
1E
 70
     0
280
     1
281
     0
  0
BLOCK_RECORD
  5
23
330
1
100
AcDbSymbolTableRecord
100
AcDbBlockTableRecord
  2
*Paper_Space0
340
26
 70
     0
280
     1
281
     0
  0
BLOCK_RECORD
  5
2E
330
1
100
AcDbSymbolTableRecord
100
AcDbBlockTableRecord
  2
direct
340
0
 70
     0
280
     1
281
     0
  0
BLOCK_RECORD
  5
42
330
1
100
AcDbSymbolTableRecord
100
AcDbBlockTableRecord
  2
overhead
340
0
 70
     0
280
     1
281
     0
  0
BLOCK_RECORD
  5
5F
330
1
100
AcDbSymbolTableRecord
100
AcDbBlockTableRecord
  2
sh_spot
340
0
 70
     0
280
     1
281
     0
  0
BLOCK_RECORD
  5
91
330
1
100
AcDbSymbolTableRecord
100
AcDbBlockTableRecord
  2
AVE_RENDER
340
0
102
{BLKREFS
331
94
331
95
331
96
331
97
331
98
331
99
331
9A
331
9B
102
}
 70
     0
280
     1
281
     0
  0
BLOCK_RECORD
  5
9F
330
1
100
AcDbSymbolTableRecord
100
AcDbBlockTableRecord
  2
AVE_GLOBAL
340
0
102
{BLKREFS
331
A2
102
}
 70
     0
280
     1
281
     0
  0
ENDTAB
  0
ENDSEC
  0
SECTION
  2
BLOCKS
  0
BLOCK
  5
20
330
1F
100
AcDbEntity
  8
0
100
AcDbBlockBegin
  2
*Model_Space
 70
     0
 10
0.0
 20
0.0
 30
0.0
  3
*Model_Space
  1

  0
ENDBLK
  5
21
330
1F
100
AcDbEntity
  8
0
100
AcDbBlockEnd
  0
BLOCK
  5
1C
330
1B
100
AcDbEntity
 67
     1
  8
0
100
AcDbBlockBegin
  2
*Paper_Space
 70
     0
 10
0.0
 20
0.0
 30
0.0
  3
*Paper_Space
  1

  0
ENDBLK
  5
1D
330
1B
100
AcDbEntity
 67
     1
  8
0
100
AcDbBlockEnd
  0
BLOCK
  5
24
330
23
100
AcDbEntity
 67
     1
  8
0
100
AcDbBlockBegin
  2
*Paper_Space0
 70
     0
 10
0.0
 20
0.0
 30
0.0
  3
*Paper_Space0
  1

  0
ENDBLK
  5
25
330
23
100
AcDbEntity
 67
     1
  8
0
100
AcDbBlockEnd
  0
BLOCK
  5
40
330
2E
100
AcDbEntity
  8
0
100
AcDbBlockBegin
  2
direct
 70
     2
 10
0.0
 20
0.0
 30
0.0
  3
direct
  1

  0
ATTDEF
  5
2F
330
2E
100
AcDbEntity
  8
ASHADE
  6
Continuous
 62
     1
100
AcDbText
 10
0.0
 20
-0.1
 30
0.0
 40
0.2
  1

  7
ASHADE
 72
     1
 11
0.0
 21
-0.1
 31
0.0
100
AcDbAttributeDefinition
280
     0
  3
Light Name
  2
SNAME
 70
     0
280
     0
  0
ARC
  5
30
330
2E
100
AcDbEntity
  8
ASHADE
  6
Continuous
 62
     7
100
AcDbCircle
 10
0.0
 20
0.0
 30
0.0
 40
0.3
100
AcDbArc
 50
205.6792886194569
 51
334.3207113805431
  0
ARC
  5
31
330
2E
100
AcDbEntity
  8
ASHADE
  6
Continuous
 62
     7
100
AcDbCircle
 10
0.0
 20
0.0
 30
0.0
 40
0.3
100
AcDbArc
 50
25.67928861945685
 51
154.3207113805431
  0
LINE
  5
32
330
2E
100
AcDbEntity
  8
ASHADE
  6
Continuous
 62
     7
100
AcDbLine
 10
-0.21
 20
0.2142428528562855
 30
0.0
 11
-0.21
 21
0.5
 31
0.0
  0
LINE
  5
33
330
2E
100
AcDbEntity
  8
ASHADE
  6
Continuous
 62
     7
100
AcDbLine
 10
-0.11
 20
0.2791057147390572
 30
0.0
 11
-0.11
 21
0.5
 31
0.0
  0
LINE
  5
34
330
2E
100
AcDbEntity
  8
ASHADE
  6
Continuous
 62
     7
100
AcDbLine
 10
0.21
 20
0.2142428528562855
 30
0.0
 11
0.21
 21
0.5
 31
0.0
  0
ATTDEF
  5
35
330
2E
100
AcDbEntity
  8
ASHADE
  6
Continuous
 62
     7
100
AcDbText
 10
0.0
 20
0.25
 30
0.0
 40
0.01
  1

100
AcDbAttributeDefinition
280
     0
  3
Look-at Y
  2
LAY
 70
     1
280
     0
  0
ATTDEF
  5
36
330
2E
100
AcDbEntity
  8
ASHADE
  6
Continuous
 62
     7
100
AcDbText
 10
0.0
 20
0.22
 30
0.0
 40
0.01
  1
1
100
AcDbAttributeDefinition
280
     0
  3
Light Intensity
  2
INTENSITY
 70
     1
280
     0
  0
ATTDEF
  5
37
330
2E
100
AcDbEntity
  8
ASHADE
  6
Continuous
 62
     7
100
AcDbText
 10
0.0
 20
0.16
 30
0.0
 40
0.01
  1
-1
100
AcDbAttributeDefinition
280
     0
  3
*not used*
  2
BEAMD
 70
     1
280
     0
  0
ATTDEF
  5
38
330
2E
100
AcDbEntity
  8
ASHADE
  6
Continuous
 62
     7
100
AcDbText
 10
0.0
 20
0.175
 30
0.0
 40
0.01
  1
-1
100
AcDbAttributeDefinition
280
     0
  3
*not used*
  2
CONED
 70
     1
280
     0
  0
ATTDEF
  5
39
330
2E
100
AcDbEntity
  8
ASHADE
  6
Continuous
 62
     7
100
AcDbText
 10
0.0
 20
0.19
 30
0.0
 40
0.01
  1
0
100
AcDbAttributeDefinition
280
     0
  3
Depth Map Size
  2
CONEA
 70
     1
280
     0
  0
ATTDEF
  5
3A
330
2E
100
AcDbEntity
  8
ASHADE
  6
Continuous
 62
     7
100
AcDbText
 10
0.0
 20
0.2050000000000001
 30
0.0
 40
0.01
  1
1,1,1
100
AcDbAttributeDefinition
280
     0
  3
Light Color (RGB)
  2
COLOR
 70
     1
280
     0
  0
ATTDEF
  5
3B
330
2E
100
AcDbEntity
  8
ASHADE
  6
Continuous
 62
     7
100
AcDbText
 10
0.0
 20
0.235
 30
0.0
 40
0.01
  1

100
AcDbAttributeDefinition
280
     0
  3
Look-at Z
  2
LAZ
 70
     1
280
     0
  0
LINE
  5
3C
330
2E
100
AcDbEntity
  8
ASHADE
  6
Continuous
 62
     7
100
AcDbLine
 10
0.0
 20
0.3
 30
0.0
 11
0.0
 21
0.5
 31
0.0
  0
LINE
  5
3D
330
2E
100
AcDbEntity
  8
ASHADE
  6
Continuous
 62
     7
100
AcDbLine
 10
0.11
 20
0.2791057147390572
 30
0.0
 11
0.11
 21
0.5
 31
0.0
  0
ATTDEF
  5
3E
330
2E
100
AcDbEntity
  8
ASHADE
  6
Continuous
 62
     7
100
AcDbText
 10
0.0
 20
0.265
 30
0.0
 40
0.01
  1

100
AcDbAttributeDefinition
280
     0
  3
Look-at X
  2
LAX
 70
     1
280
     0
  0
ATTDEF
  5
3F
330
2E
100
AcDbEntity
  8
ASHADE
  6
Continuous
 62
     7
100
AcDbText
 10
0.0
 20
0.28
 30
0.0
 40
0.01
  1

100
AcDbAttributeDefinition
280
     0
  3

  2
GNAME
 70
     1
280
     0
  0
ENDBLK
  5
41
330
2E
100
AcDbEntity
  8
0
100
AcDbBlockEnd
  0
BLOCK
  5
5D
330
42
100
AcDbEntity
  8
0
100
AcDbBlockBegin
  2
overhead
 70
     2
 10
0.0
 20
0.0
 30
0.0
  3
overhead
  1

  0
ATTDEF
  5
43
330
42
100
AcDbEntity
  8
ASHADE
  6
Continuous
 62
     1
100
AcDbText
 10
0.0
 20
-0.1
 30
0.0
 40
0.2
  1

  7
ASHADE
 72
     1
 11
0.0
 21
-0.1
 31
0.0
100
AcDbAttributeDefinition
280
     0
  3
Light Name
  2
SNAME
 70
     0
280
     0
  0
ARC
  5
44
330
42
100
AcDbEntity
  8
ASHADE
  6
Continuous
 62
     7
100
AcDbCircle
 10
0.0
 20
0.0
 30
0.0
 40
0.3
100
AcDbArc
 50
205.6792886194569
 51
334.3207113805431
  0
LINE
  5
45
330
42
100
AcDbEntity
  8
ASHADE
  6
Continuous
 62
     7
100
AcDbLine
 10
-0.2041413561583015
 20
-0.2198324514393848
 30
0.0
 11
-0.2721884748777353
 21
-0.2931099352525131
 31
0.0
  0
LINE
  5
46
330
42
100
AcDbEntity
  8
ASHADE
  6
Continuous
 62
     7
100
AcDbLine
 10
-0.1096591641591904
 20
-0.2792398032442862
 30
0.0
 11
-0.1279356915190555
 21
-0.3257797704516673
 31
0.0
  0
LINE
  5
47
330
42
100
AcDbEntity
  8
ASHADE
  6
Continuous
 62
     7
100
AcDbLine
 10
0.0
 20
-0.2999999999999999
 30
0.0
 11
0.0
 21
-0.4
 31
0.0
  0
LINE
  5
48
330
42
100
AcDbEntity
  8
ASHADE
  6
Continuous
 62
     7
100
AcDbLine
 10
0.1096591641591904
 20
-0.2792398032442862
 30
0.0
 11
0.1279356915190555
 21
-0.3257797704516673
 31
0.0
  0
LINE
  5
49
330
42
100
AcDbEntity
  8
ASHADE
  6
Continuous
 62
     7
100
AcDbLine
 10
0.2041413561583015
 20
-0.2198324514393848
 30
0.0
 11
0.2721884748777353
 21
-0.2931099352525131
 31
0.0
  0
ARC
  5
4A
330
42
100
AcDbEntity
  8
ASHADE
  6
Continuous
 62
     7
100
AcDbCircle
 10
0.0
 20
0.0
 30
0.0
 40
0.3
100
AcDbArc
 50
25.67928861945685
 51
154.3207113805431
  0
LINE
  5
4B
330
42
100
AcDbEntity
  8
ASHADE
  6
Continuous
 62
     7
100
AcDbLine
 10
-0.2703701166919155
 20
0.13
 30
0.0
 11
-0.3154318028072347
 21
0.1516666666666666
 31
0.0
  0
LINE
  5
4C
330
42
100
AcDbEntity
  8
ASHADE
  6
Continuous
 62
     7
100
AcDbLine
 10
-0.2703701166919155
 20
-0.13
 30
0.0
 11
-0.3154318028072347
 21
-0.1516666666666666
 31
0.0
  0
LINE
  5
4D
330
42
100
AcDbEntity
  8
ASHADE
  6
Continuous
 62
     7
100
AcDbLine
 10
-0.2041413561583015
 20
0.2198324514393849
 30
0.0
 11
-0.2721884748777353
 21
0.2931099352525131
 31
0.0
  0
LINE
  5
4E
330
42
100
AcDbEntity
  8
ASHADE
  6
Continuous
 62
     7
100
AcDbLine
 10
-0.1096591641591904
 20
0.2792398032442862
 30
0.0
 11
-0.1279356915190555
 21
0.3257797704516674
 31
0.0
  0
LINE
  5
4F
330
42
100
AcDbEntity
  8
ASHADE
  6
Continuous
 62
     7
100
AcDbLine
 10
0.2703701166919155
 20
-0.13
 30
0.0
 11
0.3154318028072347
 21
-0.1516666666666666
 31
0.0
  0
LINE
  5
50
330
42
100
AcDbEntity
  8
ASHADE
  6
Continuous
 62
     7
100
AcDbLine
 10
0.2703701166919155
 20
0.13
 30
0.0
 11
0.3154318028072347
 21
0.1516666666666666
 31
0.0
  0
LINE
  5
51
330
42
100
AcDbEntity
  8
ASHADE
  6
Continuous
 62
     7
100
AcDbLine
 10
0.0
 20
0.3
 30
0.0
 11
0.0
 21
0.4
 31
0.0
  0
ATTDEF
  5
52
330
42
100
AcDbEntity
  8
ASHADE
  6
Continuous
 62
     7
100
AcDbText
 10
0.0
 20
0.22
 30
0.0
 40
0.01
  1
1
100
AcDbAttributeDefinition
280
     0
  3
Light Intensity
  2
INTENSITY
 70
     1
280
     0
  0
ATTDEF
  5
53
330
42
100
AcDbEntity
  8
ASHADE
  6
Continuous
 62
     7
100
AcDbText
 10
0.0
 20
0.16
 30
0.0
 40
0.01
  1
-1
100
AcDbAttributeDefinition
280
     0
  3
*not used*
  2
BEAMD
 70
     1
280
     0
  0
ATTDEF
  5
54
330
42
100
AcDbEntity
  8
ASHADE
  6
Continuous
 62
     7
100
AcDbText
 10
0.0
 20
0.175
 30
0.0
 40
0.01
  1
-1
100
AcDbAttributeDefinition
280
     0
  3
*not used*
  2
CONED
 70
     1
280
     0
  0
ATTDEF
  5
55
330
42
100
AcDbEntity
  8
ASHADE
  6
Continuous
 62
     7
100
AcDbText
 10
0.0
 20
0.19
 30
0.0
 40
0.01
  1
0
100
AcDbAttributeDefinition
280
     0
  3
Depth Map Size
  2
CONEA
 70
     1
280
     0
  0
ATTDEF
  5
56
330
42
100
AcDbEntity
  8
ASHADE
  6
Continuous
 62
     7
100
AcDbText
 10
0.0
 20
0.2050000000000001
 30
0.0
 40
0.01
  1
1,1,1
100
AcDbAttributeDefinition
280
     0
  3
Light Color (RGB)
  2
COLOR
 70
     1
280
     0
  0
ATTDEF
  5
57
330
42
100
AcDbEntity
  8
ASHADE
  6
Continuous
 62
     7
100
AcDbText
 10
0.0
 20
0.235
 30
0.0
 40
0.01
  1

100
AcDbAttributeDefinition
280
     0
  3
Look-at Z
  2
LAZ
 70
     1
280
     0
  0
ATTDEF
  5
58
330
42
100
AcDbEntity
  8
ASHADE
  6
Continuous
 62
     7
100
AcDbText
 10
0.0
 20
0.25
 30
0.0
 40
0.01
  1

100
AcDbAttributeDefinition
280
     0
  3
Look-at Y
  2
LAY
 70
     1
280
     0
  0
ATTDEF
  5
59
330
42
100
AcDbEntity
  8
ASHADE
  6
Continuous
 62
     7
100
AcDbText
 10
0.0
 20
0.265
 30
0.0
 40
0.01
  1

100
AcDbAttributeDefinition
280
     0
  3
Look-at X
  2
LAX
 70
     1
280
     0
  0
ATTDEF
  5
5A
330
42
100
AcDbEntity
  8
ASHADE
  6
Continuous
 62
     7
100
AcDbText
 10
0.0
 20
0.28
 30
0.0
 40
0.01
  1

100
AcDbAttributeDefinition
280
     0
  3

  2
GNAME
 70
     1
280
     0
  0
LINE
  5
5B
330
42
100
AcDbEntity
  8
ASHADE
  6
Continuous
 62
     7
100
AcDbLine
 10
0.1096591641591904
 20
0.2792398032442862
 30
0.0
 11
0.1279356915190555
 21
0.3257797704516674
 31
0.0
  0
LINE
  5
5C
330
42
100
AcDbEntity
  8
ASHADE
  6
Continuous
 62
     7
100
AcDbLine
 10
0.2041413561583015
 20
0.2198324514393849
 30
0.0
 11
0.2721884748777353
 21
0.2931099352525131
 31
0.0
  0
ENDBLK
  5
5E
330
42
100
AcDbEntity
  8
0
100
AcDbBlockEnd
  0
BLOCK
  5
85
330
5F
100
AcDbEntity
  8
0
100
AcDbBlockBegin
  2
sh_spot
 70
     2
 10
0.0
 20
0.0
 30
0.0
  3
sh_spot
  1

  0
LINE
  5
60
330
5F
100
AcDbEntity
  8
ASHADE
  6
Continuous
 62
     7
100
AcDbLine
 10
0.25
 20
0.26
 30
0.0
 11
-0.25
 21
0.26
 31
0.0
  0
LINE
  5
61
330
5F
100
AcDbEntity
  8
ASHADE
  6
Continuous
 62
     7
100
AcDbLine
 10
-0.25
 20
-0.3399999999999999
 30
0.0
 11
0.25
 21
-0.3399999999999999
 31
0.0
  0
ATTDEF
  5
62
330
5F
100
AcDbEntity
  8
ASHADE
  6
Continuous
 62
     1
100
AcDbText
 10
0.0
 20
-0.1
 30
0.0
 40
0.2
  1

  7
ASHADE
 72
     1
 11
0.0
 21
-0.1
 31
0.0
100
AcDbAttributeDefinition
280
     0
  3
Light Name
  2
SNAME
 70
     0
280
     0
  0
LINE
  5
63
330
5F
100
AcDbEntity
  8
ASHADE
  6
Continuous
 62
     7
100
AcDbLine
 10
-0.25
 20
-0.13
 30
0.0
 11
-0.25
 21
-0.3399999999999999
 31
0.0
  0
LINE
  5
64
330
5F
100
AcDbEntity
  8
ASHADE
  6
Continuous
 62
     7
100
AcDbLine
 10
-0.25
 20
-0.18
 30
0.0
 11
-0.29
 21
-0.18
 31
0.0
  0
LINE
  5
65
330
5F
100
AcDbEntity
  8
ASHADE
  6
Continuous
 62
     7
100
AcDbLine
 10
-0.29
 20
-0.22
 30
0.0
 11
-0.25
 21
-0.22
 31
0.0
  0
LINE
  5
66
330
5F
100
AcDbEntity
  8
ASHADE
  6
Continuous
 62
     7
100
AcDbLine
 10
-0.29
 20
-0.18
 30
0.0
 11
-0.29
 21
-0.22
 31
0.0
  0
LINE
  5
67
330
5F
100
AcDbEntity
  8
ASHADE
  6
Continuous
 62
     7
100
AcDbLine
 10
-0.1045454545454545
 20
0.26
 30
0.0
 11
-0.15
 21
0.46
 31
0.0
  0
LINE
  5
68
330
5F
100
AcDbEntity
  8
ASHADE
  6
Continuous
 62
     7
100
AcDbLine
 10
-0.21
 20
0.26
 30
0.0
 11
-0.301304347826087
 21
0.46
 31
0.0
  0
LINE
  5
69
330
5F
100
AcDbEntity
  8
ASHADE
  6
Continuous
 62
     7
100
AcDbLine
 10
-0.25
 20
0.26
 30
0.0
 11
-0.25
 21
0.13
 31
0.0
  0
LINE
  5
6A
330
5F
100
AcDbEntity
  8
ASHADE
  6
Continuous
 62
     7
100
AcDbLine
 10
-0.25
 20
0.22
 30
0.0
 11
-0.29
 21
0.22
 31
0.0
  0
LINE
  5
6B
330
5F
100
AcDbEntity
  8
ASHADE
  6
Continuous
 62
     7
100
AcDbLine
 10
-0.29
 20
0.1799999999999999
 30
0.0
 11
-0.25
 21
0.1799999999999999
 31
0.0
  0
LINE
  5
6C
330
5F
100
AcDbEntity
  8
ASHADE
  6
Continuous
 62
     7
100
AcDbLine
 10
-0.29
 20
0.22
 30
0.0
 11
-0.29
 21
0.1799999999999999
 31
0.0
  0
ATTDEF
  5
6D
330
5F
100
AcDbEntity
  8
ASHADE
  6
Continuous
 62
     7
100
AcDbText
 10
0.0
 20
-0.24
 30
0.0
 40
0.01
  1
0
100
AcDbAttributeDefinition
280
     0
  3
Depth Map Size
  2
ZSIZE
 70
     1
280
     0
  0
ATTDEF
  5
6E
330
5F
100
AcDbEntity
  8
ASHADE
  6
Continuous
 62
     7
100
AcDbText
 10
0.0
 20
-0.3300000000000001
 30
0.0
 40
0.01
  1
0,0,0
100
AcDbAttributeDefinition
280
     0
  3
Look-from XYZ
  2
LFXYZ
 70
     1
280
     0
  0
ATTDEF
  5
6F
330
5F
100
AcDbEntity
  8
ASHADE
  6
Continuous
 62
     7
100
AcDbText
 10
0.0
 20
-0.315
 30
0.0
 40
0.01
  1
0.0
100
AcDbAttributeDefinition
280
     0
  3
Beam Distribution
  2
BEAMDI
 70
     1
280
     0
  0
ATTDEF
  5
70
330
5F
100
AcDbEntity
  8
ASHADE
  6
Continuous
 62
     7
100
AcDbText
 10
0.0
 20
-0.3
 30
0.0
 40
0.01
  1
0.0
100
AcDbAttributeDefinition
280
     0
  3
Cone Delta
  2
CONEDE
 70
     1
280
     0
  0
ATTDEF
  5
71
330
5F
100
AcDbEntity
  8
ASHADE
  6
Continuous
 62
     7
100
AcDbText
 10
0.0
 20
-0.2850000000000001
 30
0.0
 40
0.01
  1
10.0
100
AcDbAttributeDefinition
280
     0
  3
Cone Angle
  2
CONEAN
 70
     1
280
     0
  0
ATTDEF
  5
72
330
5F
100
AcDbEntity
  8
ASHADE
  6
Continuous
 62
     7
100
AcDbText
 10
0.0
 20
-0.27
 30
0.0
 40
0.01
  1
-1
100
AcDbAttributeDefinition
280
     0
  3
*not used*
  2
BIASMAX
 70
     1
280
     0
  0
ATTDEF
  5
73
330
5F
100
AcDbEntity
  8
ASHADE
  6
Continuous
 62
     7
100
AcDbText
 10
0.0
 20
-0.255
 30
0.0
 40
0.01
  1
-1
100
AcDbAttributeDefinition
280
     0
  3
*not used*
  2
BIASMIN
 70
     1
280
     0
  0
ATTDEF
  5
74
330
5F
100
AcDbEntity
  8
ASHADE
  6
Continuous
 62
     7
100
AcDbText
 10
0.0
 20
-0.225
 30
0.0
 40
0.01
  1
1,1,1
100
AcDbAttributeDefinition
280
     0
  3
Light Color (RGB)
  2
COLOR
 70
     1
280
     0
  0
ATTDEF
  5
75
330
5F
100
AcDbEntity
  8
ASHADE
  6
Continuous
 62
     7
100
AcDbText
 10
0.0
 20
-0.21
 30
0.0
 40
0.01
  1
1
100
AcDbAttributeDefinition
280
     0
  3
Light Intensity
  2
INTENSITY
 70
     1
280
     0
  0
ATTDEF
  5
76
330
5F
100
AcDbEntity
  8
ASHADE
  6
Continuous
 62
     7
100
AcDbText
 10
0.0
 20
-0.15
 30
0.0
 40
0.01
  1

100
AcDbAttributeDefinition
280
     0
  3

  2
GNAME
 70
     1
280
     0
  0
ATTDEF
  5
77
330
5F
100
AcDbEntity
  8
ASHADE
  6
Continuous
 62
     7
100
AcDbText
 10
0.0
 20
-0.195
 30
0.0
 40
0.01
  1

100
AcDbAttributeDefinition
280
     0
  3
Look-at Z
  2
LAZ
 70
     1
280
     0
  0
ATTDEF
  5
78
330
5F
100
AcDbEntity
  8
ASHADE
  6
Continuous
 62
     7
100
AcDbText
 10
0.0
 20
-0.18
 30
0.0
 40
0.01
  1

100
AcDbAttributeDefinition
280
     0
  3
Look-at Y
  2
LAY
 70
     1
280
     0
  0
ATTDEF
  5
79
330
5F
100
AcDbEntity
  8
ASHADE
  6
Continuous
 62
     7
100
AcDbText
 10
0.0
 20
-0.165
 30
0.0
 40
0.01
  1

100
AcDbAttributeDefinition
280
     0
  3
Look-at X
  2
LAX
 70
     1
280
     0
  0
LINE
  5
7A
330
5F
100
AcDbEntity
  8
ASHADE
  6
Continuous
 62
     7
100
AcDbLine
 10
0.25
 20
-0.3399999999999999
 30
0.0
 11
0.25
 21
-0.13
 31
0.0
  0
LINE
  5
7B
330
5F
100
AcDbEntity
  8
ASHADE
  6
Continuous
 62
     7
100
AcDbLine
 10
0.25
 20
-0.18
 30
0.0
 11
0.29
 21
-0.18
 31
0.0
  0
LINE
  5
7C
330
5F
100
AcDbEntity
  8
ASHADE
  6
Continuous
 62
     7
100
AcDbLine
 10
0.29
 20
-0.22
 30
0.0
 11
0.25
 21
-0.22
 31
0.0
  0
LINE
  5
7D
330
5F
100
AcDbEntity
  8
ASHADE
  6
Continuous
 62
     7
100
AcDbLine
 10
0.29
 20
-0.18
 30
0.0
 11
0.29
 21
-0.22
 31
0.0
  0
LINE
  5
7E
330
5F
100
AcDbEntity
  8
ASHADE
  6
Continuous
 62
     7
100
AcDbLine
 10
0.21
 20
0.26
 30
0.0
 11
0.301304347826087
 21
0.46
 31
0.0
  0
LINE
  5
7F
330
5F
100
AcDbEntity
  8
ASHADE
  6
Continuous
 62
     7
100
AcDbLine
 10
0.1045454545454545
 20
0.26
 30
0.0
 11
0.15
 21
0.46
 31
0.0
  0
LINE
  5
80
330
5F
100
AcDbEntity
  8
ASHADE
  6
Continuous
 62
     7
100
AcDbLine
 10
0.0
 20
0.26
 30
0.0
 11
0.0
 21
0.46
 31
0.0
  0
LINE
  5
81
330
5F
100
AcDbEntity
  8
ASHADE
  6
Continuous
 62
     7
100
AcDbLine
 10
0.25
 20
0.13
 30
0.0
 11
0.25
 21
0.26
 31
0.0
  0
LINE
  5
82
330
5F
100
AcDbEntity
  8
ASHADE
  6
Continuous
 62
     7
100
AcDbLine
 10
0.25
 20
0.22
 30
0.0
 11
0.29
 21
0.22
 31
0.0
  0
LINE
  5
83
330
5F
100
AcDbEntity
  8
ASHADE
  6
Continuous
 62
     7
100
AcDbLine
 10
0.29
 20
0.1799999999999999
 30
0.0
 11
0.25
 21
0.1799999999999999
 31
0.0
  0
LINE
  5
84
330
5F
100
AcDbEntity
  8
ASHADE
  6
Continuous
 62
     7
100
AcDbLine
 10
0.29
 20
0.22
 30
0.0
 11
0.29
 21
0.1799999999999999
 31
0.0
  0
ENDBLK
  5
86
330
5F
100
AcDbEntity
  8
0
100
AcDbBlockEnd
  0
BLOCK
  5
92
330
91
100
AcDbEntity
  8
ASHADE
100
AcDbBlockBegin
  2
AVE_RENDER
 70
     0
 10
0.0
 20
0.0
 30
0.0
  3
AVE_RENDER
  1
AVE_RENDER
  0
ENDBLK
  5
93
330
91
100
AcDbEntity
  8
0
100
AcDbBlockEnd
  0
BLOCK
  5
A0
330
9F
100
AcDbEntity
  8
ASHADE
100
AcDbBlockBegin
  2
AVE_GLOBAL
 70
     0
 10
0.0
 20
0.0
 30
0.0
  3
AVE_GLOBAL
  1
AVE_GLOBAL
  0
ENDBLK
  5
A1
330
9F
100
AcDbEntity
  8
0
100
AcDbBlockEnd
  0
ENDSEC
  0
SECTION
  2
ENTITIES
  0
INSERT
  5
94
330
1F
100
AcDbEntity
  8
ASHADE
 62
     1
100
AcDbBlockReference
  2
AVE_RENDER
 10
0.0
 20
0.0
 30
0.0
1001
AVE_RENDER
1002
{
1070
     7
1000
Pref
1070
    30
1070
    20
1070
     1
1070
     0
1000

1070
    10
1070
     1
1070
    10
1040
1.0
1070
     1
1040
0.3
1040
0.7
1040
0.0
1040
10.0
1010
-1.0
1020
-1.0
1030
-1.0
1040
0.3
1070
    49
1070
     0
1070
     0
1010
1.0
1020
1.0
1030
1.0
1040
45.0
1070
     1
1070
     0
1000
WCS
1040
0.0
1070
     0
1040
10.0
1002
}
  0
INSERT
  5
95
330
1F
100
AcDbEntity
  8
ASHADE
 62
     3
100
AcDbBlockReference
  2
AVE_RENDER
 10
0.0
 20
0.0
 30
0.0
1001
AVE_RENDER
1002
{
1070
     0
1000
Full Opt
1070
     0
1070
     1
1070
     1
1070
     1
1070
     0
1070
     0
1070
     0
1070
     1
1070
     1
1040
0.0001
1040
0.0001
1002
}
  0
INSERT
  5
96
330
1F
100
AcDbEntity
  8
ASHADE
 62
     4
100
AcDbBlockReference
  2
AVE_RENDER
 10
0.0
 20
0.0
 30
0.0
1001
AVE_RENDER
1002
{
1070
     0
1000
Quick Opt
1070
     0
1070
     1
1070
     1
1070
     1
1070
     0
1070
     0
1070
     1
1002
}
  0
INSERT
  5
97
330
1F
100
AcDbEntity
  8
ASHADE
 62
     5
100
AcDbBlockReference
  2
AVE_RENDER
 10
0.0
 20
0.0
 30
0.0
1001
AVE_RENDER
1002
{
1070
     1
1000
Scanl Opt
1070
     2
1070
     0
1070
     2
1040
2.0
1040
4.0
1070
     0
1070
     1
1070
     0
1040
0.03
1002
}
  0
INSERT
  5
98
330
1F
100
AcDbEntity
  8
ASHADE
 62
     6
100
AcDbBlockReference
  2
AVE_RENDER
 10
0.0
 20
0.0
 30
0.0
1001
AVE_RENDER
1002
{
1070
     2
1000
Raytr Opt
1070
     2
1070
     0
1070
     2
1040
2.0
1040
4.0
1070
     0
1070
     1
1070
     1
1040
0.03
1070
     3
1040
0.03
1002
}
  0
INSERT
  5
99
330
1F
100
AcDbEntity
  8
ASHADE
 62
     7
100
AcDbBlockReference
  2
AVE_RENDER
 10
0.0
 20
0.0
 30
0.0
1001
AVE_RENDER
1002
{
1070
     0
1000
RFile Opt
1070
     1
1070
   640
1070
   480
1070
 10000
1070
     1
1070
     8
1070
     8
1070
     0
1070
     0
1070
     0
1070
     0
1070
     0
1070
     0
1070
     0
1002
}
  0
INSERT
  5
9A
330
1F
100
AcDbEntity
  8
ASHADE
 62
     8
100
AcDbBlockReference
  2
AVE_RENDER
 10
0.0
 20
0.0
 30
0.0
1001
AVE_RENDER
1002
{
1070
     0
1000
Fog Opt
1070
     0
1070
     0
1040
0.0
1040
1.0
1040
0.0
1040
1.0
1010
0.5
1020
0.5
1030
0.5
1002
}
  0
INSERT
  5
9B
330
1F
100
AcDbEntity
  8
ASHADE
 62
     9
100
AcDbBlockReference
  2
AVE_RENDER
 10
0.0
 20
0.0
 30
0.0
1001
AVE_RENDER
1002
{
1070
     0
1000
BG Opt
1070
     0
1070
     1
1010
0.0
1020
0.0
1030
0.0
1010
1.0
1020
0.0
1030
0.0
1010
0.0
1020
1.0
1030
0.0
1010
0.0
1020
0.0
1030
1.0
1040
0.5
1040
0.33
1040
0.0
1000

1070
     1
1000

1070
     1
1070
     1
1040
1.0
1040
1.0
1040
0.0
1040
0.0
1070
     0
1002
}
  0
INSERT
  5
A2
330
1F
100
AcDbEntity
  8
ASHADE
 62
     1
100
AcDbBlockReference
  2
AVE_GLOBAL
 10
0.0
 20
0.0
 30
0.0
1001
AVE_MATERIAL
1002
{
1000
*GLOBAL*
1000
2
1000
Global finish.
1002
{
1002
}
1002
{
1070
    63
1002
{
1002
{
1010
-1.0
1020
-1.0
1030
-1.0
1002
}
1040
0.1000000014901161
1000

1040
0.0
1002
{
1002
}
1040
0.0
1002
{
1002
}
1040
0.0
1002
}
1002
{
1002
{
1010
-1.0
1020
-1.0
1030
-1.0
1002
}
1040
0.6999999880790711
1000

1040
0.0
1002
{
1002
}
1040
0.0
1002
{
1002
}
1040
0.0
1002
}
1002
{
1002
{
1010
-1.0
1020
-1.0
1030
-1.0
1002
}
1040
0.2000000029802322
1000

1040
0.0
1002
{
1002
}
1040
0.0
1002
{
1002
}
1040
0.0
1002
}
1002
{
1070
     0
1002
{
1070
     1
1002
{
1040
1.0
1040
1.0
1000

1040
0.0
1002
{
1002
}
1040
0.0
1002
{
1002
}
1040
0.0
1002
}
1002
}
1040
1.0
1040
0.0
1040
0.0
1002
}
1002
{
1040
1.0
1040
1.0
1000

1040
0.0
1002
{
1002
}
1040
0.0
1002
{
1002
}
1040
0.0
1002
}
1002
{
1040
0.5
1040
1.0
1000

1040
0.0
1002
{
1002
}
1040
0.0
1002
{
1002
}
1040
0.0
1002
}
1002
{
1070
     0
1040
0.0
1002
{
1002
}
1040
1.0
1002
{
1002
}
1040
0.0
1002
}
1002
{
1040
0.0
1002
{
1002
{
1010
0.0
1020
0.0
1030
0.0
1002
}
1040
1.0
1000

1040
0.0
1002
{
1002
}
1040
0.0
1002
{
1002
}
1040
0.0
1002
}
1002
}
1002
{
1002
{
1070
     1
1002
{
1040
0.0
1040
1.0
1000

1040
0.0
1002
{
1002
}
1040
0.0
1002
{
1002
}
1040
0.0
1002
}
1002
}
1040
0.0
1002
{
1002
}
1010
1.0
1020
0.0
1030
0.0
1010
0.0
1020
1.0
1030
0.0
1010
0.0
1020
0.0
1030
1.0
1070
     0
1002
}
1002
{
1002
{
1040
1.0
1040
1.0
1002
{
1070
     1
1002
{
1040
1.0
1040
1.0
1000

1040
0.0
1002
{
1002
}
1040
0.0
1002
{
1002
}
1040
0.0
1002
}
1002
}
1002
}
1070
     0
1040
0.0
1002
{
1002
}
1002
}
1002
{
1002
}
1002
}
1002
{
1071
        3
1070
     3
1070
     0
1002
{
1070
     2
1070
     0
1070
     0
1040
0.0
1002
}
1070
     0
1070
     2
1002
{
1002
}
1002
}
1002
{
1040
8030.0
1040
190.3000030517578
1040
0.3050000071525574
1040
228.0
1040
545.0
1040
14.0
1040
17.39999961853027
1040
0.4560000002384186
1002
}
1002
}
  0
MESH
  5
F9
330
1F
100
AcDbEntity
  8
OracDecor_skirtings
 62
   224
420
  9046126
160
             23408
310
705B00008A0200000C00000013000000020000003C00000006000000020000000000000000408F4000000040010036C000000000000059400000000000408F400000006002002CC00000000000D055400C000000130000000A0000003C00000006000000020000000000000000408F4000000040010036C000000000000059
310
400000000000408F400000002002002CC0000000A00A7145400C00000013000000120000003C00000006000000020000000000000000408F400000006002002CC00000000000D055400000000000408F400000002002002CC0000000A00A7145400C000000130000001A0000003C0000000600000002000000000000000040
310
8F400000002074332CC000000000F0FFD73F0000000000408F400000000002002CC000000000F8FFE73F0C00000013000000220000003C00000006000000020000000000000000408F400000000002002CC000000000F8FFE73F0000000000408F40000000E001002CC000000000A9771C400C000000130000002A0000003C
310
00000006000000020000000000000000408F40000000E001002CC000000000A9771C400000000000408F40000000E07F212CC000000000A5E31D400C00000013000000320000003C00000006000000020000000000000000408F400000002074332CC000000000F0FFD73F0000000000408F40000000E07F212CC000000000
310
A5E31D400C000000130000003A0000003C00000006000000020000000000000000408F40000000E001C02CC000000000C0B8B93F0000000000408F400000002074332CC000000000F0FFD73F0C00000013000000420000003C00000006000000020000000000000000408F40000000E07F212CC000000000A5E31D40000000
310
0000408F40000000A0B5812CC000000000A7201F400C000000130000004A0000003C00000006000000020000000000000000408F40000000E001C02CC000000000C0B8B93F0000000000408F40000000A0B5812CC000000000A7201F400C00000013000000520000003C00000006000000020000000000000000408F400000
310
00E001802DC0000000000000D0BE0000000000408F40000000E001C02CC000000000C0B8B93F0C000000130000005A0000003C00000006000000020000000000000000408F4000000040B3132DC000000080090220400000000000408F40000000A0B5812CC000000000A7201F400C00000013000000620000003C00000006
310
000000020000000000000000408F40000000E001802DC0000000000000D0BE0000000000408F4000000040B3132DC000000080090220400C000000130000006A0000003C00000006000000020000000000000000408F40000000E0000036C0000000000000D0BE0000000000408F40000000E001802DC0000000000000D0BE
310
0C00000013000000720000003C00000006000000020000000000000000408F40000000E0385C2EC000000080D60121400000000000408F4000000040B3132DC000000080090220400C000000130000007A0000003C00000006000000020000000000000000408F40000000E0000036C0000000000000D0BE0000000000408F
310
40000000E0385C2EC000000080D60121400C00000013000000820000003C00000006000000020000000000000000408F40000000A07B342FC000000080E26522400000000000408F40000000E0385C2EC000000080D60121400C000000130000008A0000003C00000006000000020000000000000000408F40000000E00000
310
36C0000000000000D0BE0000000000408F40000000A07B342FC000000080E26522400C00000013000000920000003C00000006000000020000000000000000408F40000000E001802FC000000080FFFF23400000000000408F40000000A07B342FC0000000801C9A25400C000000130000009A0000003C0000000600000002
310
0000000000000000408F40000000A07B342FC0000000801C9A25400000000000408F40000000A07B342FC000000040F13233400C00000013000000A20000003C00000006000000020000000000000000408F40000000E001802FC0000000C0FFFF33400000000000408F40000000A07B342FC000000040F13233400C000000
310
13000000AA0000003C00000006000000020000000000000000408F40000000E001802FC000000080FFFF23400000000000408F40000000E001802FC0000000C0FFFF33400C00000013000000B20000003C00000006000000020000000000000000408F40000000A07B342FC0000000801C9A25400000000000408F40000000
310
E0385C2EC00000008028FE26400C00000013000000BA0000003C00000006000000020000000000000000408F40000000E0385C2EC00000008028FE26400000000000408F40000000E0385C2EC000000040EB8032400C00000013000000C20000003C00000006000000020000000000000000408F40000000A07B342FC00000
310
0040F13233400000000000408F40000000E0385C2EC000000040EB8032400C00000013000000CA0000003C00000006000000020000000000000000408F40000000E0385C2EC00000008028FE26400000000000408F4000000020B3132DC000000080F5FD27400C00000013000000D20000003C000000060000000200000000
310
00000000408F4000000020B3132DC000000080F5FD27400000000000408F4000000020B3132DC0000000C0040132400C00000013000000DA0000003C00000006000000020000000000000000408F40000000E0385C2EC000000040EB8032400000000000408F4000000020B3132DC0000000C0040132400C00000013000000
310
E20000003C00000006000000020000000000000000408F4000000020B3132DC000000080F5FD27400000000000408F40000000A0B5812CC000000080AB6F28400C00000013000000EA0000003C00000006000000020000000000000000408F40000000A0B5812CC000000080AB6F28400000000000408F4000000080B5812C
310
C0000000C029C831400C00000013000000F20000003C00000006000000020000000000000000408F4000000020B3132DC0000000C0040132400000000000408F4000000080B5812CC0000000C029C831400C00000013000000FA0000003C00000006000000020000000000000000408F40000000A0B5812CC000000080AB6F
310
28400000000000408F40000000E07F212CC0000000802C0E29400C00000013000000020100003C00000006000000020000000000000000408F40000000E07F212CC0000000802C0E29400000000000408F40000000E07F212CC000000040E97831400C000000130000000A0100003C00000006000000020000000000000000
310
408F40000000E07F212CC000000040E97831400000000000408F4000000080B5812CC0000000C029C831400C00000013000000120100003C00000006000000020000000000000000408F40000000E07F212CC0000000802C0E29400000000000408F40000000C001002CC0000000802AC429400C000000130000001A010000
310
3C00000006000000020000000000000000408F40000000C001002CC0000000802AC429400000000000408F40000000E001002CC000000040EA1D31400C00000013000000220100003C00000006000000020000000000000000408F40000000E001002CC000000040EA1D31400000000000408F40000000E07F212CC0000000
310
40E97831400C000000130000002A0100003C00000006000000020000000000000000408F40000000E001802FC0000000C0FFFF33400000000000408F40000000C07B342FC0000000400ECD34400C00000013000000320100003C00000006000000020000000000000000408F40000000C07B342FC0000000400ECD34400000
310
000000408F40000000C07B342FC000000040F1323D400C000000130000003A0100003C00000006000000020000000000000000408F400000000002802FC0000000C0FFFF3D400000000000408F40000000C07B342FC000000040F1323D400C00000013000000420100003C00000006000000020000000000000000408F4000
310
0000E001802FC0000000C0FFFF33400000000000408F400000000002802FC0000000C0FFFF3D400C000000130000004A0100003C00000006000000020000000000000000408F40000000C07B342FC0000000400ECD34400000000000408F4000000000395C2EC000000040147F35400C00000013000000520100003C000000
310
06000000020000000000000000408F4000000000395C2EC000000040147F35400000000000408F4000000000395C2EC000000040EB803C400C000000130000005A0100003C00000006000000020000000000000000408F40000000C07B342FC000000040F1323D400000000000408F4000000000395C2EC000000040EB803C
310
400C00000013000000620100003C00000006000000020000000000000000408F4000000000395C2EC000000040147F35400000000000408F4000000040B3132DC0000000C0FAFE35400C000000130000006A0100003C00000006000000020000000000000000408F4000000040B3132DC0000000C0FAFE3540000000000040
310
8F4000000060B3132DC0000000C004013C400C00000013000000720100003C00000006000000020000000000000000408F4000000000395C2EC000000040EB803C400000000000408F4000000060B3132DC0000000C004013C400C000000130000007A0100003C00000006000000020000000000000000408F4000000040B3
310
132DC0000000C0FAFE35400000000000408F40000000C0B5812CC0000000C0D53736400C00000013000000820100003C00000006000000020000000000000000408F40000000C0B5812CC0000000C0D53736400000000000408F40000000C0B5812CC0000000C029C83B400C000000130000008A0100003C00000006000000
310
020000000000000000408F4000000060B3132DC0000000C004013C400000000000408F40000000C0B5812CC0000000C029C83B400C00000013000000920100003C00000006000000020000000000000000408F40000000C0B5812CC0000000C0D53736400000000000408F400000000080212CC000000040168736400C0000
310
00130000009A0100003C00000006000000020000000000000000408F400000000080212CC000000040168736400000000000408F400000002080212CC000000040E9783B400C00000013000000A20100003C00000006000000020000000000000000408F400000002080212CC000000040E9783B400000000000408F400000
310
00C0B5812CC0000000C029C83B400C00000013000000AA0100003C00000006000000020000000000000000408F400000000080212CC000000040168736400000000000408F400000000002002CC00000004015E236400C00000013000000B20100003C00000006000000020000000000000000408F400000000002002CC000
310
00004015E236400000000000408F400000000002002CC000000040EA1D3B400C00000013000000BA0100003C00000006000000020000000000000000408F400000000002002CC000000040EA1D3B400000000000408F400000002080212CC000000040E9783B400C00000013000000C20100003C0000000600000002000000
310
0000000000408F40000000E001802FC000000080FFFF23400000000000408F40000000A07B342FC000000080E26522400C00000013000000CA0100003C00000006000000020000000000000000408F40000000E001802FC000000080FFFF23400000000000408F40000000E0000036C0000000000000D0BE0C000000130000
310
00D20100003C00000006000000020000000000000000408F40000000E0000036C0000000000000D0BE0000000000408F40000000E001802FC0000000C0FFFF33400C00000013000000DA0100003C00000006000000020000000000000000408F40000000E0000036C0000000000000D0BE0000000000408F40000000000280
310
2FC0000000C0FFFF3D400C00000013000000E20100003C00000006000000020000000000000000408F400000000002802FC0000000C0FFFF3D400000000000408F40000000C07B342FC0000000400ECD3E400C00000013000000EA0100003C00000006000000020000000000000000408F40000000C07B342FC0000000400E
310
CD3E400000000000408F40000000E07B342FC0000000A0789943400C00000013000000F20100003C00000006000000020000000000000000408F400000000002802FC0000000E0FFFF43400000000000408F40000000E07B342FC0000000A0789943400C00000013000000FA0100003C000000060000000200000000000000
310
00408F400000000002802FC0000000C0FFFF3D400000000000408F400000000002802FC0000000E0FFFF43400C00000013000000020200003C00000006000000020000000000000000408F40000000C07B342FC0000000400ECD3E400000000000408F4000000000395C2EC000000040147F3F400C000000130000000A0200
310
003C00000006000000020000000000000000408F4000000000395C2EC000000040147F3F400000000000408F4000000000395C2EC000000040754043400C00000013000000120200003C00000006000000020000000000000000408F40000000E07B342FC0000000A0789943400000000000408F4000000000395C2EC00000
310
0040754043400C000000130000001A0200003C00000006000000020000000000000000408F4000000000395C2EC000000040147F3F400000000000408F4000000040B3132DC0000000C0FAFE3F400C00000013000000220200003C00000006000000020000000000000000408F4000000040B3132DC0000000C0FAFE3F4000
310
00000000408F4000000040B3132DC000000040820043400C000000130000002A0200003C00000006000000020000000000000000408F4000000000395C2EC000000040754043400000000000408F4000000040B3132DC000000040820043400C00000013000000320200003C00000006000000020000000000000000408F40
310
00000040B3132DC0000000C0FAFE3F400000000000408F40000000C0B5812CC0000000E0EA1B40400C000000130000003A0200003C00000006000000020000000000000000408F40000000C0B5812CC0000000E0EA1B40400000000000408F40000000A0B5812CC0000000C014E442400C00000013000000420200003C0000
310
0006000000020000000000000000408F4000000040B3132DC000000040820043400000000000408F40000000A0B5812CC0000000C014E442400C000000130000004A0200003C00000006000000020000000000000000408F40000000C0B5812CC0000000E0EA1B40400000000000408F400000000080212CC0000000208B43
310
40400C00000013000000520200003C00000006000000020000000000000000408F400000000080212CC0000000208B4340400000000000408F400000000080212CC0000000A074BC42400C000000130000005A0200003C00000006000000020000000000000000408F400000000080212CC0000000A074BC42400000000000
310
408F40000000A0B5812CC0000000C014E442400C00000013000000620200003C00000006000000020000000000000000408F400000000080212CC0000000208B4340400000000000408F40000000E001002CC0000000A00A7140400C000000130000006A0200003C00000006000000020000000000000000408F40000000E0
310
01002CC0000000A00A7140400000000000408F400000000002002CC000000020F58E42400C00000013000000720200003C00000006000000020000000000000000408F400000000002002CC000000020F58E42400000000000408F400000000080212CC0000000A074BC42400C000000130000007A0200003C000000060000
310
00020000000000000000408F4000000040010036C000000000000059400000000000408F40000000E0000036C0000000000000D0BE0C00000013000000820200003C00000006000000020000000000000000408F4000000040010036C000000000000059400000000000408F400000000002802FC0000000E0FFFF43400C00
310
0000130000008A0200003C00000006000000020000000000000000408F400000000002802FC0000000E0FFFF43400000000000408F40000000C07B342FC000000020876644400C00000013000000920200003C00000006000000020000000000000000408F4000000040010036C000000000000059400000000000408F4000
310
0000C07B342FC000000020876644400C000000130000009A0200003C00000006000000020000000000000000408F40000000C07B342FC000000020876644400000000000408F4000000000395C2EC0000000408ABF44400C00000013000000A20200003C00000006000000020000000000000000408F4000000040010036C0
310
00000000000059400000000000408F4000000000395C2EC0000000408ABF44400C00000013000000AA0200003C00000006000000020000000000000000408F4000000000395C2EC0000000408ABF44400000000000408F4000000040B3132DC0000000407DFF44400C00000013000000B20200003C00000006000000020000
310
000000000000408F4000000040010036C000000000000059400000000000408F4000000040B3132DC0000000407DFF44400C00000013000000BA0200003C00000006000000020000000000000000408F4000000040B3132DC0000000407DFF44400000000000408F40000000C0B5812CC0000000C0EA1B45400C0000001300
310
0000C20200003C00000006000000020000000000000000408F4000000040010036C000000000000059400000000000408F40000000C0B5812CC0000000C0EA1B45400C00000013000000CA0200003C00000006000000020000000000000000408F400000002080212CC0000000208B4345400000000000408F40000000C0B5
310
812CC0000000C0EA1B45400C00000013000000D20200003C00000006000000020000000000000000408F4000000040010036C000000000000059400000000000408F400000002080212CC0000000208B4345400C00000013000000DA0200003C00000006000000020000000000000000408F400000002002002CC0000000A0
310
0A7145400000000000408F400000002080212CC0000000208B4345400C00000013000000E20200003C00000006000000020000000000000000408F400000004090CC2BC00000000000E855400000000000408F400000008002402BC0000000C091F955400C00000013000000EA0200003C0000000600000002000000000000
310
0000408F4000000040010036C000000000000059400000000000408F400000008002402BC0000000C091F955400C00000013000000F20200003C00000006000000020000000000000000408F4000000040010036C000000000000059400000000000408F400000004090CC2BC00000000000E855400C00000013000000FA02
310
00003C00000006000000020000000000000000408F400000006002002CC00000000000D055400000000000408F400000004090CC2BC00000000000E855400C00000013000000020300003C00000006000000020000000000000000408F400000008002402BC0000000C091F955400000000000408F400000006002802AC000
310
000000000056400C000000130000000A0300003C00000006000000020000000000000000408F4000000040010036C000000000000059400000000000408F400000006002802AC000000000000056400C00000013000000120300003C00000006000000020000000000000000408F400000006002802AC00000000000005640
310
0000000000408F40000000008613F4BF000000405A6657400C000000130000001A0300003C00000006000000020000000000000000408F40000000008613F4BF000000405A6657400000000000408F40000000008613F4BF000000C0A59957400C00000013000000220300003C00000006000000020000000000000000408F
310
4000000040010036C000000000000059400000000000408F40000000008613F4BF000000C0A59957400C000000130000002A0300003C00000006000000020000000000000000408F40000000008613F4BF000000C0A59957400000000000408F40000000006C07EDBF00000000D6C757400C00000013000000320300003C00
310
000006000000020000000000000000408F4000000040010036C000000000000059400000000000408F40000000006C07EDBF00000000D6C757400C000000130000003A0300003C00000006000000020000000000000000408F40000000006C07EDBF00000000D6C757400000000000408F40000000008816D2BF000000C0BD
310
E757400C00000013000000420300003C00000006000000020000000000000000408F4000000040010036C000000000000059400000000000408F40000000008816D2BF000000C0BDE757400C000000130000004A0300003C00000006000000020000000000000000408F40000000008816D2BF000000C0BDE7574000000000
310
00408F4000000000E096B3BF000000408CF357400C00000013000000520300003C00000006000000020000000000000000408F4000000040010036C000000000000059400000000000408F4000000000E096B3BF000000408CF357400C000000130000005A0300003C00000006000000020000000000000000408F40000000
310
00E096B3BF000000408CF357400000000000408F40000000000000F2BE000000008F0458400C00000013000000620300003C00000006000000020000000000000000408F4000000040010036C000000000000059400000000000408F40000000000000F2BE000000008F0458400C000000130000006A0300003C0000000600
310
0000020000000000000000408F40000000000000F2BE000000008F0458400000000000408F40000000000000F2BE00000000000059400C00000013000000720300003C00000006000000020000000000000000408F4000000040010036C000000000000059400000000000408F40000000000000F2BE00000000000059400C
310
000000130000007A0300003C00000006000000020000000000000000408F400000006002802AC000000000000056400000000000408F40000000001C00E8BF00000000000056400C00000013000000820300003C00000006000000020000000000000000408F40000000001C00E8BF00000000000056400000000000408F40
310
000000006C07EDBF000000002A3857400C000000130000008A0300003C00000006000000020000000000000000408F400000006002802AC000000000000056400000000000408F40000000006C07EDBF000000002A3857400C00000013000000920300003C00000006000000020000000000000000408F40000000006C07ED
310
BF000000002A3857400000000000408F40000000008613F4BF000000405A6657400C000000130000009A0300003C00000006000000020000000000000000408F400000000020BAB9BF00000000001856400000000000408F40000000000000ECBE00000000003056400C00000013000000A20300003C000000060000000200
310
00000000000000408F40000000000000ECBE00000000003056400000000000408F40000000000000F2BE0000000071FB56400C00000013000000AA0300003C00000006000000020000000000000000408F40000000000000F2BE0000000071FB56400000000000408F4000000000E096B3BF000000C0730C57400C00000013
310
000000B20300003C00000006000000020000000000000000408F400000000020BAB9BF00000000001856400000000000408F4000000000E096B3BF000000C0730C57400C00000013000000BA0300003C00000006000000020000000000000000408F40000000003800D8BF000000406E0656400000000000408F4000000000
310
20BAB9BF00000000001856400C00000013000000C20300003C00000006000000020000000000000000408F4000000000E096B3BF000000C0730C57400000000000408F40000000008816D2BF00000040421857400C00000013000000CA0300003C00000006000000020000000000000000408F40000000003800D8BF000000
310
406E0656400000000000408F40000000008816D2BF00000040421857400C00000013000000D20300003C00000006000000020000000000000000408F40000000001C00E8BF00000000000056400000000000408F40000000003800D8BF000000406E0656400C00000013000000DA0300003C00000006000000020000000000
310
000000408F40000000008816D2BF00000040421857400000000000408F40000000006C07EDBF000000002A3857400C00000013000000E20300003C00000006000000020000000000000000408F40000000000000F2BE00000000000059400000002000408FC0000000000000F3BE00000000000059400C00000013000000EA
310
0300003C00000006000000020000000000002000408FC000000020010036C000000000000059400000002000408FC0000000000000F3BE00000000000059400C00000013000000F20300003C00000006000000020000000000000000408F4000000040010036C000000000000059400000002000408FC000000020010036C0
310
00000000000059400C00000013000000FA0300003C00000006000000020000000000000000408F40000000000000F2BE000000008F0458400000002000408FC0000000000000F1BE000000008F0458400C00000013000000020400003C00000006000000020000000000002000408FC0000000000000F1BE000000008F0458
310
400000002000408FC0000000000000F3BE00000000000059400C000000130000000A0400003C00000006000000020000000000000000408F4000000000E096B3BF000000408CF357400000002000408FC000000000D096B3BF000000408CF357400C00000013000000120400003C0000000600000002000000000000200040
310
8FC000000000D096B3BF000000408CF357400000002000408FC0000000000000F1BE000000008F0458400C000000130000001A0400003C00000006000000020000000000000000408F40000000008816D2BF000000C0BDE757400000002000408FC0000000008416D2BF000000C0BDE757400C00000013000000220400003C
310
00000006000000020000000000002000408FC0000000008416D2BF000000C0BDE757400000002000408FC000000000D096B3BF000000408CF357400C000000130000002A0400003C00000006000000020000000000000000408F40000000006C07EDBF00000000D6C757400000002000408FC0000000006A07EDBF00000000
310
D6C757400C00000013000000320400003C00000006000000020000000000002000408FC0000000006A07EDBF00000000D6C757400000002000408FC0000000008416D2BF000000C0BDE757400C000000130000003A0400003C00000006000000020000000000000000408F40000000008613F4BF000000C0A5995740000000
310
2000408FC0000000008513F4BF000000C0A59957400C00000013000000420400003C00000006000000020000000000002000408FC0000000006A07EDBF00000000D6C757400000002000408FC0000000008513F4BF000000C0A59957400C000000130000004A0400003C00000006000000020000000000000000408F400000
310
00008613F4BF000000405A6657400000002000408FC0000000008513F4BF000000405A6657400C00000013000000520400003C00000006000000020000000000002000408FC0000000008513F4BF000000405A6657400000002000408FC0000000008513F4BF000000C0A59957400C000000130000005A0400003C00000006
310
000000020000000000000000408F40000000006C07EDBF000000002A3857400000002000408FC0000000006A07EDBF000000002A3857400C00000013000000620400003C00000006000000020000000000002000408FC0000000008513F4BF000000405A6657400000002000408FC0000000006A07EDBF000000002A385740
310
0C000000130000006A0400003C00000006000000020000000000000000408F40000000008816D2BF00000040421857400000002000408FC0000000008416D2BF00000040421857400C00000013000000720400003C00000006000000020000000000002000408FC0000000006A07EDBF000000002A3857400000002000408F
310
C0000000008416D2BF00000040421857400C000000130000007A0400003C00000006000000020000000000000000408F4000000000E096B3BF000000C0730C57400000002000408FC000000000D096B3BF000000C0730C57400C00000013000000820400003C00000006000000020000000000002000408FC000000000D096
310
B3BF000000C0730C57400000002000408FC0000000008416D2BF00000040421857400C000000130000008A0400003C00000006000000020000000000000000408F40000000000000F2BE0000000071FB56400000002000408FC0000000000000F1BE0000000071FB56400C00000013000000920400003C0000000600000002
310
0000000000002000408FC0000000000000F1BE0000000071FB56400000002000408FC000000000D096B3BF000000C0730C57400C000000130000009A0400003C00000006000000020000000000000000408F40000000000000ECBE00000000003056400000002000408FC0000000000000EABE00000000003056400C000000
310
13000000A20400003C00000006000000020000000000002000408FC0000000000000EABE00000000003056400000002000408FC0000000000000F1BE0000000071FB56400C00000013000000AA0400003C00000006000000020000000000000000408F400000000020BAB9BF00000000001856400000002000408FC0000000
310
0000BAB9BF00000000001856400C00000013000000B20400003C00000006000000020000000000002000408FC0000000000000EABE00000000003056400000002000408FC00000000000BAB9BF00000000001856400C00000013000000BA0400003C00000006000000020000000000000000408F40000000003800D8BF0000
310
00406E0656400000002000408FC0000000003000D8BF000000406E0656400C00000013000000C20400003C00000006000000020000000000002000408FC0000000003000D8BF000000406E0656400000002000408FC00000000000BAB9BF00000000001856400C00000013000000CA0400003C000000060000000200000000
310
00000000408F40000000001C00E8BF00000000000056400000002000408FC0000000001800E8BF00000000000056400C00000013000000D20400003C00000006000000020000000000002000408FC0000000003000D8BF000000406E0656400000002000408FC0000000001800E8BF00000000000056400C00000013000000
310
DA0400003C00000006000000020000000000000000408F400000006002802AC000000000000056400000002000408FC00000004002802AC000000000000056400C00000013000000E20400003C00000006000000020000000000002000408FC00000004002802AC000000000000056400000002000408FC0000000001800E8
310
BF00000000000056400C00000013000000EA0400003C00000006000000020000000000000000408F400000008002402BC0000000C091F955400000002000408FC00000006002402BC0000000C091F955400C00000013000000F20400003C00000006000000020000000000002000408FC00000006002402BC0000000C091F9
310
55400000002000408FC00000004002802AC000000000000056400C00000013000000FA0400003C00000006000000020000000000000000408F400000004090CC2BC00000000000E855400000002000408FC00000002090CC2BC00000000000E855400C00000013000000020500003C00000006000000020000000000002000
310
408FC00000002090CC2BC00000000000E855400000002000408FC00000006002402BC0000000C091F955400C000000130000000A0500003C00000006000000020000000000000000408F400000006002002CC00000000000D055400000002000408FC00000004002002CC00000000000D055400C0000001300000012050000
310
3C00000006000000020000000000002000408FC00000004002002CC00000000000D055400000002000408FC00000002090CC2BC00000000000E855400C000000130000001A0500003C00000006000000020000000000000000408F400000002002002CC0000000A00A7145400000002000408FC00000000002002CC0000000
310
A00A7145400C00000013000000220500003C00000006000000020000000000002000408FC00000004002002CC00000000000D055400000002000408FC00000000002002CC0000000A00A7145400C000000130000002A0500003C00000006000000020000000000000000408F400000002080212CC0000000208B4345400000
310
002000408FC00000002080212CC0000000208B4345400C00000013000000320500003C00000006000000020000000000002000408FC00000000002002CC0000000A00A7145400000002000408FC00000002080212CC0000000208B4345400C000000130000003A0500003C00000006000000020000000000000000408F4000
310
0000C0B5812CC0000000C0EA1B45400000002000408FC0000000E0B5812CC0000000C0EA1B45400C00000013000000420500003C00000006000000020000000000002000408FC0000000E0B5812CC0000000C0EA1B45400000002000408FC00000002080212CC0000000208B4345400C000000130000004A0500003C000000
310
06000000020000000000000000408F4000000040B3132DC0000000407DFF44400000002000408FC000000060B3132DC0000000407DFF44400C00000013000000520500003C00000006000000020000000000002000408FC000000060B3132DC0000000407DFF44400000002000408FC0000000E0B5812CC0000000C0EA1B45
310
400C000000130000005A0500003C00000006000000020000000000000000408F4000000000395C2EC0000000408ABF44400000002000408FC000000020395C2EC0000000408ABF44400C00000013000000620500003C00000006000000020000000000002000408FC000000020395C2EC0000000408ABF4440000000200040
310
8FC000000060B3132DC0000000407DFF44400C000000130000006A0500003C00000006000000020000000000000000408F40000000C07B342FC000000020876644400000002000408FC0000000E07B342FC000000020876644400C00000013000000720500003C00000006000000020000000000002000408FC0000000E07B
310
342FC000000020876644400000002000408FC000000020395C2EC0000000408ABF44400C000000130000007A0500003C00000006000000020000000000000000408F400000000002802FC0000000E0FFFF43400000002000408FC00000000002802FC0000000E0FFFF43400C00000013000000820500003C00000006000000
310
020000000000002000408FC00000000002802FC0000000E0FFFF43400000002000408FC0000000E07B342FC000000020876644400C000000130000008A0500003C00000006000000020000000000000000408F40000000E07B342FC0000000A0789943400000002000408FC0000000E07B342FC0000000A0789943400C0000
310
0013000000920500003C00000006000000020000000000002000408FC00000000002802FC0000000E0FFFF43400000002000408FC0000000E07B342FC0000000A0789943400C000000130000009A0500003C00000006000000020000000000000000408F4000000000395C2EC000000040754043400000002000408FC00000
310
0000395C2EC000000040754043400C00000013000000A20500003C00000006000000020000000000002000408FC000000000395C2EC000000040754043400000002000408FC0000000E07B342FC0000000A0789943400C00000013000000AA0500003C00000006000000020000000000000000408F4000000040B3132DC000
310
000040820043400000002000408FC000000060B3132DC000000040820043400C00000013000000B20500003C00000006000000020000000000002000408FC000000000395C2EC000000040754043400000002000408FC000000060B3132DC000000040820043400C00000013000000BA0500003C0000000600000002000000
310
0000000000408F40000000A0B5812CC0000000C014E442400000002000408FC0000000C0B5812CC0000000C014E442400C00000013000000C20500003C00000006000000020000000000002000408FC000000060B3132DC000000040820043400000002000408FC0000000C0B5812CC0000000C014E442400C000000130000
310
00CA0500003C00000006000000020000000000000000408F400000000080212CC0000000A074BC42400000002000408FC00000002080212CC0000000A074BC42400C00000013000000D20500003C00000006000000020000000000002000408FC00000002080212CC0000000A074BC42400000002000408FC0000000C0B581
310
2CC0000000C014E442400C00000013000000DA0500003C00000006000000020000000000000000408F400000000002002CC000000020F58E42400000002000408FC00000000002002CC000000020F58E42400C00000013000000E20500003C00000006000000020000000000002000408FC00000002080212CC0000000A074
310
BC42400000002000408FC00000000002002CC000000020F58E42400C00000013000000EA0500003C00000006000000020000000000000000408F40000000E001002CC0000000A00A7140400000002000408FC00000002002002CC0000000A00A7140400C00000013000000F20500003C000000060000000200000000000020
310
00408FC00000002002002CC0000000A00A7140400000002000408FC00000000002002CC000000020F58E42400C00000013000000FA0500003C00000006000000020000000000000000408F400000000080212CC0000000208B4340400000002000408FC00000002080212CC0000000208B4340400C00000013000000020600
310
003C00000006000000020000000000002000408FC00000002002002CC0000000A00A7140400000002000408FC00000002080212CC0000000208B4340400C000000130000000A0600003C00000006000000020000000000000000408F40000000C0B5812CC0000000E0EA1B40400000002000408FC0000000E0B5812CC00000
310
00E0EA1B40400C00000013000000120600003C00000006000000020000000000002000408FC0000000E0B5812CC0000000E0EA1B40400000002000408FC00000002080212CC0000000208B4340400C000000130000001A0600003C00000006000000020000000000000000408F4000000040B3132DC0000000C0FAFE3F4000
310
00002000408FC000000060B3132DC0000000C0FAFE3F400C00000013000000220600003C00000006000000020000000000002000408FC0000000E0B5812CC0000000E0EA1B40400000002000408FC000000060B3132DC0000000C0FAFE3F400C000000130000002A0600003C00000006000000020000000000000000408F40
310
00000000395C2EC000000040147F3F400000002000408FC000000020395C2EC000000040147F3F400C00000013000000320600003C00000006000000020000000000002000408FC000000020395C2EC000000040147F3F400000002000408FC000000060B3132DC0000000C0FAFE3F400C000000130000003A0600003C0000
310
0006000000020000000000000000408F40000000C07B342FC0000000400ECD3E400000002000408FC0000000E07B342FC0000000400ECD3E400C00000013000000420600003C00000006000000020000000000002000408FC000000020395C2EC000000040147F3F400000002000408FC0000000E07B342FC0000000400ECD
310
3E400C000000130000004A0600003C00000006000000020000000000000000408F400000000002802FC0000000C0FFFF3D400000002000408FC00000000002802FC0000000C0FFFF3D400C00000013000000520600003C00000006000000020000000000002000408FC00000000002802FC0000000C0FFFF3D400000002000
310
408FC0000000E07B342FC0000000400ECD3E400C000000130000005A0600003C00000006000000020000000000000000408F40000000C07B342FC000000040F1323D400000002000408FC0000000C07B342FC000000040F1323D400C00000013000000620600003C00000006000000020000000000002000408FC0000000C0
310
7B342FC000000040F1323D400000002000408FC00000000002802FC0000000C0FFFF3D400C000000130000006A0600003C00000006000000020000000000000000408F4000000000395C2EC000000040EB803C400000002000408FC000000000395C2EC000000040EB803C400C00000013000000720600003C000000060000
310
00020000000000002000408FC0000000C07B342FC000000040F1323D400000002000408FC000000000395C2EC000000040EB803C400C000000130000007A0600003C00000006000000020000000000000000408F4000000060B3132DC0000000C004013C400000002000408FC000000060B3132DC0000000C004013C400C00
310
000013000000820600003C00000006000000020000000000002000408FC000000060B3132DC0000000C004013C400000002000408FC000000000395C2EC000000040EB803C400C000000130000008A0600003C00000006000000020000000000000000408F40000000C0B5812CC0000000C029C83B400000002000408FC000
310
0000E0B5812CC0000000C029C83B400C00000013000000920600003C00000006000000020000000000002000408FC000000060B3132DC0000000C004013C400000002000408FC0000000E0B5812CC0000000C029C83B400C000000130000009A0600003C00000006000000020000000000000000408F400000002080212CC0
310
00000040E9783B400000002000408FC00000002080212CC000000040E9783B400C00000013000000A20600003C00000006000000020000000000002000408FC00000002080212CC000000040E9783B400000002000408FC0000000E0B5812CC0000000C029C83B400C00000013000000AA0600003C00000006000000020000
310
000000000000408F400000000002002CC000000040EA1D3B400000002000408FC00000002002002CC000000040EA1D3B400C00000013000000B20600003C00000006000000020000000000002000408FC00000002080212CC000000040E9783B400000002000408FC00000002002002CC000000040EA1D3B400C0000001300
310
0000BA0600003C00000006000000020000000000000000408F400000000002002CC00000004015E236400000002000408FC0000000E001002CC00000004015E236400C00000013000000C20600003C00000006000000020000000000002000408FC0000000E001002CC00000004015E236400000002000408FC00000002002
310
002CC000000040EA1D3B400C00000013000000CA0600003C00000006000000020000000000000000408F400000000080212CC000000040168736400000002000408FC00000000080212CC000000040168736400C00000013000000D20600003C00000006000000020000000000002000408FC00000000080212CC000000040
310
168736400000002000408FC0000000E001002CC00000004015E236400C00000013000000DA0600003C00000006000000020000000000000000408F40000000C0B5812CC0000000C0D53736400000002000408FC0000000A0B5812CC0000000C0D53736400C00000013000000E20600003C0000000600000002000000000000
310
2000408FC00000000080212CC000000040168736400000002000408FC0000000A0B5812CC0000000C0D53736400C00000013000000EA0600003C00000006000000020000000000000000408F4000000040B3132DC0000000C0FAFE35400000002000408FC000000040B3132DC0000000C0FAFE35400C00000013000000F206
310
00003C00000006000000020000000000002000408FC000000040B3132DC0000000C0FAFE35400000002000408FC0000000A0B5812CC0000000C0D53736400C00000013000000FA0600003C00000006000000020000000000000000408F4000000000395C2EC000000040147F35400000002000408FC000000000395C2EC000
310
000040147F35400C00000013000000020700003C00000006000000020000000000002000408FC000000000395C2EC000000040147F35400000002000408FC000000040B3132DC0000000C0FAFE35400C000000130000000A0700003C00000006000000020000000000000000408F40000000C07B342FC0000000400ECD3440
310
0000002000408FC0000000C07B342FC0000000400ECD34400C00000013000000120700003C00000006000000020000000000002000408FC000000000395C2EC000000040147F35400000002000408FC0000000C07B342FC0000000400ECD34400C000000130000001A0700003C00000006000000020000000000000000408F
310
40000000E001802FC0000000C0FFFF33400000002000408FC00000000002802FC0000000C0FFFF33400C00000013000000220700003C00000006000000020000000000002000408FC00000000002802FC0000000C0FFFF33400000002000408FC0000000C07B342FC0000000400ECD34400C000000130000002A0700003C00
310
000006000000020000000000000000408F40000000A07B342FC000000040F13233400000002000408FC0000000C07B342FC000000040F13233400C00000013000000320700003C00000006000000020000000000002000408FC00000000002802FC0000000C0FFFF33400000002000408FC0000000C07B342FC000000040F1
310
3233400C000000130000003A0700003C00000006000000020000000000000000408F40000000E0385C2EC000000040EB8032400000002000408FC0000000E0385C2EC000000040EB8032400C00000013000000420700003C00000006000000020000000000002000408FC0000000E0385C2EC000000040EB80324000000020
310
00408FC0000000C07B342FC000000040F13233400C000000130000004A0700003C00000006000000020000000000000000408F4000000020B3132DC0000000C0040132400000002000408FC000000040B3132DC0000000C0040132400C00000013000000520700003C00000006000000020000000000002000408FC0000000
310
E0385C2EC000000040EB8032400000002000408FC000000040B3132DC0000000C0040132400C000000130000005A0700003C00000006000000020000000000000000408F4000000080B5812CC0000000C029C831400000002000408FC0000000A0B5812CC0000000C029C831400C00000013000000620700003C0000000600
310
0000020000000000002000408FC000000040B3132DC0000000C0040132400000002000408FC0000000A0B5812CC0000000C029C831400C000000130000006A0700003C00000006000000020000000000000000408F40000000E07F212CC000000040E97831400000002000408FC00000000080212CC000000040E97831400C
310
00000013000000720700003C00000006000000020000000000002000408FC00000000080212CC000000040E97831400000002000408FC0000000A0B5812CC0000000C029C831400C000000130000007A0700003C00000006000000020000000000000000408F40000000E001002CC000000040EA1D31400000002000408FC0
310
000000E001002CC000000040EA1D31400C00000013000000820700003C00000006000000020000000000002000408FC00000000080212CC000000040E97831400000002000408FC0000000E001002CC000000040EA1D31400C000000130000008A0700003C00000006000000020000000000000000408F40000000C001002C
310
C0000000802AC429400000002000408FC0000000E001002CC0000000802AC429400C00000013000000920700003C00000006000000020000000000002000408FC0000000E001002CC0000000802AC429400000002000408FC0000000E001002CC000000040EA1D31400C000000130000009A0700003C000000060000000200
310
00000000000000408F40000000E07F212CC0000000802C0E29400000002000408FC00000000080212CC0000000802C0E29400C00000013000000A20700003C00000006000000020000000000002000408FC00000000080212CC0000000802C0E29400000002000408FC0000000E001002CC0000000802AC429400C00000013
310
000000AA0700003C00000006000000020000000000000000408F40000000A0B5812CC000000080AB6F28400000002000408FC0000000A0B5812CC000000080AB6F28400C00000013000000B20700003C00000006000000020000000000002000408FC0000000A0B5812CC000000080AB6F28400000002000408FC000000000
310
80212CC0000000802C0E29400C00000013000000BA0700003C00000006000000020000000000000000408F4000000020B3132DC000000080F5FD27400000002000408FC000000040B3132DC000000080F5FD27400C00000013000000C20700003C00000006000000020000000000002000408FC000000040B3132DC0000000
310
80F5FD27400000002000408FC0000000A0B5812CC000000080AB6F28400C00000013000000CA0700003C00000006000000020000000000000000408F40000000E0385C2EC00000008028FE26400000002000408FC000000000395C2EC00000008028FE26400C00000013000000D20700003C00000006000000020000000000
310
002000408FC000000000395C2EC00000008028FE26400000002000408FC000000040B3132DC000000080F5FD27400C00000013000000DA0700003C00000006000000020000000000000000408F40000000A07B342FC0000000801C9A25400000002000408FC0000000C07B342FC0000000801C9A25400C00000013000000E2
310
0700003C00000006000000020000000000002000408FC000000000395C2EC00000008028FE26400000002000408FC0000000C07B342FC0000000801C9A25400C00000013000000EA0700003C00000006000000020000000000000000408F40000000E001802FC000000080FFFF23400000002000408FC00000000002802FC0
310
00000080FFFF23400C00000013000000F20700003C00000006000000020000000000002000408FC00000000002802FC000000080FFFF23400000002000408FC0000000C07B342FC0000000801C9A25400C00000013000000FA0700003C00000006000000020000000000000000408F40000000A07B342FC000000080E26522
310
400000002000408FC0000000C07B342FC000000080E26522400C00000013000000020800003C00000006000000020000000000002000408FC0000000C07B342FC000000080E26522400000002000408FC00000000002802FC000000080FFFF23400C000000130000000A0800003C0000000600000002000000000000000040
310
8F40000000E0385C2EC000000080D60121400000002000408FC000000000395C2EC000000080D60121400C00000013000000120800003C00000006000000020000000000002000408FC0000000C07B342FC000000080E26522400000002000408FC000000000395C2EC000000080D60121400C000000130000001A0800003C
310
00000006000000020000000000000000408F4000000040B3132DC000000080090220400000002000408FC000000060B3132DC000000080090220400C00000013000000220800003C00000006000000020000000000002000408FC000000060B3132DC000000080090220400000002000408FC000000000395C2EC000000080
310
D60121400C000000130000002A0800003C00000006000000020000000000000000408F40000000A0B5812CC000000000A7201F400000002000408FC0000000C0B5812CC000000000A7201F400C00000013000000320800003C00000006000000020000000000002000408FC000000060B3132DC00000008009022040000000
310
2000408FC0000000C0B5812CC000000000A7201F400C000000130000003A0800003C00000006000000020000000000000000408F40000000E07F212CC000000000A5E31D400000002000408FC00000000080212CC000000000A5E31D400C00000013000000420800003C00000006000000020000000000002000408FC00000
310
000080212CC000000000A5E31D400000002000408FC0000000C0B5812CC000000000A7201F400C000000130000004A0800003C00000006000000020000000000000000408F40000000E001002CC000000000A9771C400000002000408FC00000000002002CC000000000A9771C400C00000013000000520800003C00000006
310
000000020000000000002000408FC00000000002002CC000000000A9771C400000002000408FC00000000080212CC000000000A5E31D400C000000130000005A0800003C00000006000000020000000000000000408F400000000002002CC000000000F8FFE73F0000002000408FC0000000E001002CC000000000F8FFE73F
310
0C00000013000000620800003C00000006000000020000000000002000408FC00000000002002CC000000000A9771C400000002000408FC0000000E001002CC000000000F8FFE73F0C000000130000006A0800003C00000006000000020000000000000000408F400000002074332CC000000000F0FFD73F0000002000408F
310
C00000002074332CC000000000F0FFD73F0C00000013000000720800003C00000006000000020000000000002000408FC00000002074332CC000000000F0FFD73F0000002000408FC0000000E001002CC000000000F8FFE73F0C000000130000007A0800003C00000006000000020000000000000000408F40000000E001C0
310
2CC000000000C0B8B93F0000002000408FC0000000E001C02CC000000000C0B8B93F0C00000013000000820800003C00000006000000020000000000002000408FC00000002074332CC000000000F0FFD73F0000002000408FC0000000E001C02CC000000000C0B8B93F0C000000130000008A0800003C0000000600000002
310
0000000000000000408F40000000E001802DC0000000000000D0BE0000002000408FC0000000E001802DC0000000000000D0BE0C00000013000000920800003C00000006000000020000000000002000408FC0000000E001C02CC000000000C0B8B93F0000002000408FC0000000E001802DC0000000000000D0BE0C000000
310
130000009A0800003C00000006000000020000000000000000408F40000000E0000036C0000000000000D0BE0000002000408FC0000000E0000036C0000000000000D0BE0C00000013000000A20800003C00000006000000020000000000002000408FC0000000E0000036C0000000000000D0BE0000002000408FC0000000
310
E001802DC0000000000000D0BE0C00000013000000AA0800003C00000006000000020000000000002000408FC000000020010036C000000000000059400000002000408FC0000000E0000036C0000000000000D0BE0C00000013000000B20800003C00000006000000020000000000002000408FC000000020010036C00000
310
0000000059400000002000408FC00000000002002CC0000000A00A7145400C00000013000000BA0800003C00000006000000020000000000002000408FC00000004002002CC00000000000D055400000002000408FC000000020010036C000000000000059400C00000013000000C20800003C000000060000000200000000
310
00002000408FC00000002074332CC000000000F0FFD73F0000002000408FC00000000080212CC000000000A5E31D400C00000013000000CA0800003C00000006000000020000000000002000408FC0000000E001C02CC000000000C0B8B93F0000002000408FC0000000C0B5812CC000000000A7201F400C00000013000000
310
D20800003C00000006000000020000000000002000408FC000000060B3132DC000000080090220400000002000408FC0000000E001802DC0000000000000D0BE0C00000013000000DA0800003C00000006000000020000000000002000408FC0000000E0000036C0000000000000D0BE0000002000408FC000000000395C2E
310
C000000080D60121400C00000013000000E20800003C00000006000000020000000000002000408FC0000000E0000036C0000000000000D0BE0000002000408FC0000000C07B342FC000000080E26522400C00000013000000EA0800003C00000006000000020000000000002000408FC00000000002802FC000000080FFFF
310
23400000002000408FC00000000002802FC0000000C0FFFF33400C00000013000000F20800003C00000006000000020000000000002000408FC0000000C07B342FC0000000801C9A25400000002000408FC0000000C07B342FC000000040F13233400C00000013000000FA0800003C00000006000000020000000000002000
310
408FC000000000395C2EC00000008028FE26400000002000408FC0000000E0385C2EC000000040EB8032400C00000013000000020900003C00000006000000020000000000002000408FC000000040B3132DC0000000C0040132400000002000408FC000000040B3132DC000000080F5FD27400C000000130000000A090000
310
3C00000006000000020000000000002000408FC0000000A0B5812CC000000080AB6F28400000002000408FC0000000A0B5812CC0000000C029C831400C00000013000000120900003C00000006000000020000000000002000408FC00000000080212CC000000040E97831400000002000408FC00000000080212CC0000000
310
802C0E29400C000000130000001A0900003C00000006000000020000000000002000408FC00000000002802FC0000000C0FFFF33400000002000408FC00000000002802FC0000000C0FFFF3D400C00000013000000220900003C00000006000000020000000000002000408FC0000000C07B342FC0000000400ECD34400000
310
002000408FC0000000C07B342FC000000040F1323D400C000000130000002A0900003C00000006000000020000000000002000408FC000000000395C2EC000000040147F35400000002000408FC000000000395C2EC000000040EB803C400C00000013000000320900003C00000006000000020000000000002000408FC000
310
000040B3132DC0000000C0FAFE35400000002000408FC000000060B3132DC0000000C004013C400C000000130000003A0900003C00000006000000020000000000002000408FC0000000A0B5812CC0000000C0D53736400000002000408FC0000000E0B5812CC0000000C029C83B400C00000013000000420900003C000000
310
06000000020000000000002000408FC00000000080212CC000000040168736400000002000408FC00000002080212CC000000040E9783B400C000000130000004A0900003C00000006000000020000000000002000408FC0000000E0000036C0000000000000D0BE0000002000408FC00000000002802FC000000080FFFF23
310
400C00000013000000520900003C00000006000000020000000000002000408FC0000000E0000036C0000000000000D0BE0000002000408FC00000000002802FC0000000C0FFFF33400C000000130000005A0900003C00000006000000020000000000002000408FC0000000E0000036C0000000000000D0BE000000200040
310
8FC00000000002802FC0000000C0FFFF3D400C00000013000000620900003C00000006000000020000000000002000408FC00000000002802FC0000000E0FFFF43400000002000408FC00000000002802FC0000000C0FFFF3D400C000000130000006A0900003C00000006000000020000000000002000408FC0000000E07B
310
342FC0000000400ECD3E400000002000408FC0000000E07B342FC0000000A0789943400C00000013000000720900003C00000006000000020000000000002000408FC000000020395C2EC000000040147F3F400000002000408FC000000000395C2EC000000040754043400C000000130000007A0900003C00000006000000
310
020000000000002000408FC000000060B3132DC000000040820043400000002000408FC000000060B3132DC0000000C0FAFE3F400C00000013000000820900003C00000006000000020000000000002000408FC0000000E0B5812CC0000000E0EA1B40400000002000408FC0000000C0B5812CC0000000C014E442400C0000
310
00130000008A0900003C00000006000000020000000000002000408FC00000002080212CC0000000A074BC42400000002000408FC00000002080212CC0000000208B4340400C00000013000000920900003C00000006000000020000000000002000408FC000000020010036C000000000000059400000002000408FC00000
310
000002802FC0000000E0FFFF43400C000000130000009A0900003C00000006000000020000000000002000408FC000000020010036C000000000000059400000002000408FC0000000E07B342FC000000020876644400C00000013000000A20900003C00000006000000020000000000002000408FC000000020010036C000
310
000000000059400000002000408FC000000020395C2EC0000000408ABF44400C00000013000000AA0900003C00000006000000020000000000002000408FC000000020010036C000000000000059400000002000408FC000000060B3132DC0000000407DFF44400C00000013000000B20900003C0000000600000002000000
310
0000002000408FC000000020010036C000000000000059400000002000408FC0000000E0B5812CC0000000C0EA1B45400C00000013000000BA0900003C00000006000000020000000000002000408FC000000020010036C000000000000059400000002000408FC00000002080212CC0000000208B4345400C000000130000
310
00C20900003C00000006000000020000000000002000408FC000000020010036C000000000000059400000002000408FC00000002090CC2BC00000000000E855400C00000013000000CA0900003C00000006000000020000000000002000408FC000000020010036C000000000000059400000002000408FC0000000600240
310
2BC0000000C091F955400C00000013000000D20900003C00000006000000020000000000002000408FC000000020010036C000000000000059400000002000408FC00000004002802AC000000000000056400C00000013000000DA0900003C00000006000000020000000000002000408FC000000020010036C00000000000
310
0059400000002000408FC0000000008513F4BF000000C0A59957400C00000013000000E20900003C00000006000000020000000000002000408FC0000000008513F4BF000000405A6657400000002000408FC00000004002802AC000000000000056400C00000013000000EA0900003C000000060000000200000000000020
310
00408FC000000020010036C000000000000059400000002000408FC0000000006A07EDBF00000000D6C757400C00000013000000F20900003C00000006000000020000000000002000408FC000000020010036C000000000000059400000002000408FC0000000008416D2BF000000C0BDE757400C00000013000000FA0900
310
003C00000006000000020000000000002000408FC000000020010036C000000000000059400000002000408FC000000000D096B3BF000000408CF357400C00000013000000020A00003C00000006000000020000000000002000408FC000000020010036C000000000000059400000002000408FC0000000000000F1BE0000
310
00008F0458400C000000130000000A0A00003C00000006000000020000000000002000408FC00000004002802AC000000000000056400000002000408FC0000000006A07EDBF000000002A3857400C00000013000000120A00003C00000006000000020000000000002000408FC0000000001800E8BF000000000000564000
310
00002000408FC0000000006A07EDBF000000002A3857400C000000130000001A0A00003C00000006000000020000000000002000408FC00000000000BAB9BF00000000001856400000002000408FC000000000D096B3BF000000C0730C57400C00000013000000220A00003C00000006000000020000000000002000408FC0
310
000000003000D8BF000000406E0656400000002000408FC0000000008416D2BF0000004042185740
100
AcDbSubDMesh
 71
     2
 72
     0
 91
        0
 92
      154
 10
1000.0
 20
-22.00001907348633
 30
100.0
 10
1000.0
 20
-14.00001811981201
 30
87.24999999999999
 10
1000.0
 20
-14.00001621246338
 30
42.88313674926757
 10
1000.0
 20
-14.06543064117431
 30
42.52768325805663
 10
1000.0
 20
-13.89953804016113
 30
87.62500000000001
 10
1000.0
 20
-13.62501907348633
 30
87.89952087402344
 10
1000.0
 20
-13.25001811981201
 30
88.0
 10
1000.0
 20
-0.7500133514404297
 30
88.0
 10
1000.0
 20
-0.3750133514404297
 30
88.10047912597656
 10
1000.0
 20
-0.1004962921142578
 30
88.375
 10
1000.0
 20
-0.0000133514404297
 30
88.75
 10
1000.0
 20
-0.0000171661376953
 30
91.92877197265625
 10
1000.0
 20
-0.0765209197998047
 30
92.19456481933594
 10
1000.0
 20
-0.2826251983642578
 30
92.37904357910156
 10
1000.0
 20
-0.9071559906005859
 30
92.8775634765625
 10
1000.0
 20
-1.254766464233398
 30
93.59925842285155
 10
1000.0
 20
-1.254766464233398
 30
94.40074157714844
 10
1000.0
 20
-0.9071559906005859
 30
95.1224365234375
 10
1000.0
 20
-0.2826251983642578
 30
95.62095642089843
 10
1000.0
 20
-0.0765209197998047
 30
95.80543518066406
 10
1000.0
 20
-0.0000171661376953
 30
96.07122802734375
 10
1000.0
 20
-0.0000171661376953
 30
100.0
 10
1000.0
 20
-15.75001430511474
 30
9.999996185302734
 10
1000.0
 20
-22.00001335144043
 30
-0.0000038146972656
 10
1000.0
 20
-15.60250568389892
 30
10.80099868774414
 10
1000.0
 20
-15.18012142181396
 30
11.49640274047851
 10
1000.0
 20
-15.75001430511474
 30
19.99999618530273
 10
1000.0
 20
-15.60250663757324
 30
20.80099868774414
 10
1000.0
 20
-15.18012237548828
 30
21.49640274047852
 10
1000.0
 20
-15.75001525878906
 30
29.99999618530273
 10
1000.0
 20
-15.60250663757324
 30
30.80099868774414
 10
1000.0
 20
-15.18012237548828
 30
31.49640274047852
 10
1000.0
 20
-15.75001525878906
 30
39.99999618530273
 10
1000.0
 20
-15.60250663757324
 30
40.80099868774413
 10
1000.0
 20
-15.18012237548828
 30
41.49640655517578
 10
1000.0
 20
-14.53847694396972
 30
41.99600982666015
 10
1000.0
 20
-14.25333976745605
 30
42.21810150146484
 10
1000.0
 20
-14.75001430511474
 30
-0.0000038146972656
 10
1000.0
 20
-14.37501430511474
 30
0.1004753112792969
 10
1000.0
 20
-14.10049533843994
 30
0.3749961853027344
 10
1000.0
 20
-15.60250568389892
 30
9.198993682861328
 10
1000.0
 20
-14.00001525878906
 30
0.7499961853027344
 10
1000.0
 20
-15.18012142181396
 30
8.503589630126953
 10
1000.0
 20
-14.00001430511474
 30
7.11685562133789
 10
1000.0
 20
-14.06542873382568
 30
7.472309112548828
 10
1000.0
 20
-14.53847694396972
 30
8.003978729248046
 10
1000.0
 20
-14.25333881378174
 30
7.781887054443359
 10
1000.0
 20
-14.53847599029541
 30
11.99601364135742
 10
1000.0
 20
-15.60250568389892
 30
19.19899368286133
 10
1000.0
 20
-14.25333881378174
 30
12.21810531616211
 10
1000.0
 20
-14.06542873382568
 30
12.52768325805664
 10
1000.0
 20
-14.00001335144043
 30
12.88313674926758
 10
1000.0
 20
-15.18012142181396
 30
18.50358963012695
 10
1000.0
 20
-14.00001430511474
 30
17.11685562133789
 10
1000.0
 20
-14.06542873382568
 30
17.47230911254883
 10
1000.0
 20
-14.53847599029541
 30
18.00397872924804
 10
1000.0
 20
-14.25333786010742
 30
17.78188705444336
 10
1000.0
 20
-14.53847694396972
 30
21.99601364135742
 10
1000.0
 20
-15.60250663757324
 30
29.19899368286133
 10
1000.0
 20
-14.25333976745605
 30
22.21810531616211
 10
1000.0
 20
-14.0654296875
 30
22.52768325805664
 10
1000.0
 20
-14.00001525878906
 30
22.88313674926758
 10
1000.0
 20
-15.18012237548828
 30
28.50358963012695
 10
1000.0
 20
-14.00001525878906
 30
27.11685562133789
 10
1000.0
 20
-14.06543064117431
 30
27.47230911254883
 10
1000.0
 20
-14.53847789764404
 30
28.00397872924805
 10
1000.0
 20
-14.25333976745605
 30
27.78188705444336
 10
1000.0
 20
-14.53847694396972
 30
31.99601364135742
 10
1000.0
 20
-15.60250759124756
 30
39.19899368286133
 10
1000.0
 20
-14.25333976745605
 30
32.21810531616211
 10
1000.0
 20
-14.0654296875
 30
32.52768325805664
 10
1000.0
 20
-14.00001430511474
 30
32.88313674926758
 10
1000.0
 20
-15.18012237548828
 30
38.50357818603516
 10
1000.0
 20
-14.00001525878906
 30
37.11685562133789
 10
1000.0
 20
-14.0654296875
 30
37.47230911254883
 10
1000.0
 20
-14.53847694396972
 30
38.00397491455078
 10
1000.0
 20
-14.25333881378174
 30
37.78188323974609
 10
-1000.000061035156
 20
-14.00001716613769
 30
87.24999999999999
 10
-1000.000061035156
 20
-22.00001716613769
 30
100.0
 10
-1000.000061035156
 20
-14.00001525878906
 30
42.88313674926757
 10
-1000.000061035156
 20
-14.10049533843994
 30
0.3749961853027344
 10
-1000.000061035156
 20
-14.00001525878906
 30
7.11685562133789
 10
-1000.000061035156
 20
-14.0654296875
 30
7.472309112548828
 10
-1000.000061035156
 20
-14.53847789764404
 30
8.003978729248046
 10
-1000.000061035156
 20
-22.00001335144043
 30
-0.0000038146972656
 10
-1000.000061035156
 20
-15.60250663757324
 30
9.198993682861328
 10
-1000.000061035156
 20
-15.75001525878906
 30
9.999996185302734
 10
-1000.000061035156
 20
-15.75001525878906
 30
19.99999618530273
 10
-1000.000061035156
 20
-15.18012237548828
 30
11.49640274047851
 10
-1000.000061035156
 20
-15.18012142181396
 30
18.50358963012695
 10
-1000.000061035156
 20
-14.53847694396972
 30
18.00397872924804
 10
-1000.000061035156
 20
-14.0654296875
 30
17.47230911254883
 10
-1000.000061035156
 20
-15.18012237548828
 30
21.49640274047852
 10
-1000.000061035156
 20
-14.53847694396972
 30
21.99601364135742
 10
-1000.000061035156
 20
-14.53847789764404
 30
28.00397872924805
 10
-1000.000061035156
 20
-14.0654296875
 30
22.52768325805664
 10
-1000.000061035156
 20
-14.06543064117431
 30
27.47230911254883
 10
-1000.000061035156
 20
-15.75001525878906
 30
39.99999618530273
 10
-1000.000061035156
 20
-15.1801233291626
 30
31.49640274047852
 10
-1000.000061035156
 20
-15.18012237548828
 30
38.50357818603516
 10
-1000.000061035156
 20
-14.53847789764404
 30
38.00397491455078
 10
-1000.000061035156
 20
-14.25334072113037
 30
32.21810531616211
 10
-1000.000061035156
 20
-14.06543064117431
 30
37.47230911254883
 10
-1000.000061035156
 20
-14.00001621246338
 30
32.88313674926758
 10
-1000.000061035156
 20
-14.00001525878906
 30
37.11685562133789
 10
-1000.000061035156
 20
-15.60250759124756
 30
40.80099868774413
 10
-1000.000061035156
 20
-1.254765510559082
 30
93.59925842285155
 10
-1000.000061035156
 20
-0.9071550369262695
 30
95.1224365234375
 10
-1000.000061035156
 20
-0.2826242446899414
 30
95.62095642089843
 10
-1000.000061035156
 20
-0.0765199661254883
 30
95.80543518066406
 10
-1000.000061035156
 20
-0.0000162124633789
 30
96.07122802734375
 10
-1000.000061035156
 20
-0.0000181198120117
 30
100.0
 10
-1000.000061035156
 20
-0.0000123977661133
 30
88.75
 10
-1000.000061035156
 20
-0.0000162124633789
 30
91.92877197265625
 10
-1000.000061035156
 20
-0.3750114440917969
 30
88.10047912597656
 10
-1000.000061035156
 20
-14.00001430511474
 30
0.7499961853027344
 10
-1000.000061035156
 20
-14.37501430511474
 30
0.1004753112792969
 10
-1000.000061035156
 20
-14.25333976745605
 30
7.781887054443359
 10
-1000.000061035156
 20
-14.75001430511474
 30
-0.0000038146972656
 10
-1000.000061035156
 20
-15.18012237548828
 30
8.503589630126953
 10
-1000.000061035156
 20
-15.60250663757324
 30
10.80099868774414
 10
-1000.000061035156
 20
-15.60250663757324
 30
19.19899368286133
 10
-1000.000061035156
 20
-14.53847694396972
 30
11.99601364135742
 10
-1000.000061035156
 20
-14.25333881378174
 30
12.21810531616211
 10
-1000.000061035156
 20
-14.25333881378174
 30
17.78188705444336
 10
-1000.000061035156
 20
-14.0654296875
 30
12.52768325805664
 10
-1000.000061035156
 20
-14.00001430511474
 30
12.88313674926758
 10
-1000.000061035156
 20
-14.00001430511474
 30
17.11685562133789
 10
-1000.000061035156
 20
-15.60250663757324
 30
20.80099868774414
 10
-1000.000061035156
 20
-15.60250663757324
 30
29.19899368286133
 10
-1000.000061035156
 20
-15.75001525878906
 30
29.99999618530273
 10
-1000.000061035156
 20
-15.18012237548828
 30
28.50358963012695
 10
-1000.000061035156
 20
-14.25333881378174
 30
22.21810531616211
 10
-1000.000061035156
 20
-14.25334072113037
 30
27.78188705444336
 10
-1000.000061035156
 20
-14.00001430511474
 30
22.88313674926758
 10
-1000.000061035156
 20
-14.00001621246338
 30
27.11685562133789
 10
-1000.000061035156
 20
-15.60250759124756
 30
30.80099868774414
 10
-1000.000061035156
 20
-15.60250759124756
 30
39.19899368286133
 10
-1000.000061035156
 20
-14.53847789764404
 30
31.99601364135742
 10
-1000.000061035156
 20
-14.25333976745605
 30
37.78188323974609
 10
-1000.000061035156
 20
-14.06543064117431
 30
32.52768325805664
 10
-1000.000061035156
 20
-15.1801233291626
 30
41.49640655517578
 10
-1000.000061035156
 20
-14.53847789764404
 30
41.99600982666015
 10
-1000.000061035156
 20
-14.25334072113037
 30
42.21810150146484
 10
-1000.000061035156
 20
-14.06543064117431
 30
42.52768325805663
 10
-1000.000061035156
 20
-13.89953708648681
 30
87.62500000000001
 10
-1000.000061035156
 20
-13.62501811981201
 30
87.89952087402344
 10
-1000.000061035156
 20
-13.25001716613769
 30
88.0
 10
-1000.000061035156
 20
-1.254765510559082
 30
94.40074157714844
 10
-1000.000061035156
 20
-0.7500114440917969
 30
88.0
 10
-1000.000061035156
 20
-0.9071550369262695
 30
92.8775634765625
 10
-1000.000061035156
 20
-0.100494384765625
 30
88.375
 10
-1000.000061035156
 20
-0.0765199661254883
 30
92.19456481933594
 10
-1000.000061035156
 20
-0.2826242446899414
 30
92.37904357910156
 93
      823
 90
        3
 90
        1
 90
        0
 90
        2
 90
        4
 90
       39
 90
       41
 90
       43
 90
       44
 90
        4
 90
       38
 90
       39
 90
       44
 90
       46
 90
        4
 90
       37
 90
       38
 90
       46
 90
       45
 90
        4
 90
       23
 90
       37
 90
       45
 90
       42
 90
        3
 90
       23
 90
       42
 90
       40
 90
        4
 90
       22
 90
       24
 90
       48
 90
       26
 90
        4
 90
       24
 90
       25
 90
       52
 90
       48
 90
        4
 90
       25
 90
       47
 90
       55
 90
       52
 90
        4
 90
       47
 90
       49
 90
       56
 90
       55
 90
        4
 90
       49
 90
       50
 90
       54
 90
       56
 90
        4
 90
       50
 90
       51
 90
       53
 90
       54
 90
        4
 90
       26
 90
       27
 90
       58
 90
       29
 90
        4
 90
       27
 90
       28
 90
       62
 90
       58
 90
        4
 90
       28
 90
       57
 90
       65
 90
       62
 90
        4
 90
       57
 90
       59
 90
       66
 90
       65
 90
        4
 90
       59
 90
       60
 90
       64
 90
       66
 90
        4
 90
       60
 90
       61
 90
       63
 90
       64
 90
        3
 90
       23
 90
       40
 90
       22
 90
        3
 90
       23
 90
       22
 90
       26
 90
        3
 90
       23
 90
       26
 90
       29
 90
        4
 90
       29
 90
       30
 90
       68
 90
       32
 90
        4
 90
       30
 90
       31
 90
       72
 90
       68
 90
        4
 90
       31
 90
       67
 90
       75
 90
       72
 90
        4
 90
       67
 90
       69
 90
       76
 90
       75
 90
        4
 90
       69
 90
       70
 90
       74
 90
       76
 90
        4
 90
       70
 90
       71
 90
       73
 90
       74
 90
        4
 90
        0
 90
       23
 90
       29
 90
       32
 90
        3
 90
        0
 90
       32
 90
       33
 90
        3
 90
        0
 90
       33
 90
       34
 90
        3
 90
        0
 90
       34
 90
       35
 90
        3
 90
        0
 90
       35
 90
       36
 90
        3
 90
        0
 90
       36
 90
        3
 90
        3
 90
        0
 90
        3
 90
        2
 90
        3
 90
        4
 90
        5
 90
        0
 90
        3
 90
        1
 90
        4
 90
        0
 90
        3
 90
        5
 90
        6
 90
        0
 90
        4
 90
        6
 90
       15
 90
       16
 90
        0
 90
        3
 90
       16
 90
       17
 90
        0
 90
        3
 90
       17
 90
       18
 90
        0
 90
        3
 90
       18
 90
       19
 90
        0
 90
        3
 90
       19
 90
       20
 90
        0
 90
        3
 90
       20
 90
       21
 90
        0
 90
        3
 90
        6
 90
        7
 90
       14
 90
        3
 90
        6
 90
       14
 90
       15
 90
        4
 90
        9
 90
       10
 90
       11
 90
       12
 90
        4
 90
        8
 90
        9
 90
       12
 90
       13
 90
        4
 90
        7
 90
        8
 90
       13
 90
       14
 90
        4
 90
        0
 90
       21
 90
      111
 90
       78
 90
        4
 90
       21
 90
       20
 90
      110
 90
      111
 90
        4
 90
       20
 90
       19
 90
      109
 90
      110
 90
        4
 90
       19
 90
       18
 90
      108
 90
      109
 90
        4
 90
       18
 90
       17
 90
      107
 90
      108
 90
        4
 90
       17
 90
       16
 90
      148
 90
      107
 90
        4
 90
       16
 90
       15
 90
      106
 90
      148
 90
        4
 90
       15
 90
       14
 90
      150
 90
      106
 90
        4
 90
       14
 90
       13
 90
      153
 90
      150
 90
        4
 90
       13
 90
       12
 90
      152
 90
      153
 90
        4
 90
       12
 90
       11
 90
      113
 90
      152
 90
        4
 90
       11
 90
       10
 90
      112
 90
      113
 90
        4
 90
       10
 90
        9
 90
      151
 90
      112
 90
        4
 90
        9
 90
        8
 90
      114
 90
      151
 90
        4
 90
        8
 90
        7
 90
      149
 90
      114
 90
        4
 90
        7
 90
        6
 90
      147
 90
      149
 90
        4
 90
        6
 90
        5
 90
      146
 90
      147
 90
        4
 90
        5
 90
        4
 90
      145
 90
      146
 90
        4
 90
        4
 90
        1
 90
       77
 90
      145
 90
        4
 90
        1
 90
        2
 90
       79
 90
       77
 90
        4
 90
        2
 90
        3
 90
      144
 90
       79
 90
        4
 90
        3
 90
       36
 90
      143
 90
      144
 90
        4
 90
       36
 90
       35
 90
      142
 90
      143
 90
        4
 90
       35
 90
       34
 90
      141
 90
      142
 90
        4
 90
       34
 90
       33
 90
      105
 90
      141
 90
        4
 90
       33
 90
       32
 90
       97
 90
      105
 90
        4
 90
       32
 90
       68
 90
      137
 90
       97
 90
        4
 90
       68
 90
       72
 90
       99
 90
      137
 90
        4
 90
       72
 90
       75
 90
      100
 90
       99
 90
        4
 90
       75
 90
       76
 90
      139
 90
      100
 90
        4
 90
       76
 90
       74
 90
      102
 90
      139
 90
        4
 90
       74
 90
       73
 90
      104
 90
      102
 90
        4
 90
       73
 90
       71
 90
      103
 90
      104
 90
        4
 90
       71
 90
       70
 90
      140
 90
      103
 90
        4
 90
       70
 90
       69
 90
      101
 90
      140
 90
        4
 90
       69
 90
       67
 90
      138
 90
      101
 90
        4
 90
       67
 90
       31
 90
       98
 90
      138
 90
        4
 90
       31
 90
       30
 90
      136
 90
       98
 90
        4
 90
       30
 90
       29
 90
      130
 90
      136
 90
        4
 90
       29
 90
       58
 90
      129
 90
      130
 90
        4
 90
       58
 90
       62
 90
      131
 90
      129
 90
        4
 90
       62
 90
       65
 90
       94
 90
      131
 90
        4
 90
       65
 90
       66
 90
      133
 90
       94
 90
        4
 90
       66
 90
       64
 90
       96
 90
      133
 90
        4
 90
       64
 90
       63
 90
      135
 90
       96
 90
        4
 90
       63
 90
       61
 90
      134
 90
      135
 90
        4
 90
       61
 90
       60
 90
       95
 90
      134
 90
        4
 90
       60
 90
       59
 90
      132
 90
       95
 90
        4
 90
       59
 90
       57
 90
       93
 90
      132
 90
        4
 90
       57
 90
       28
 90
       92
 90
       93
 90
        4
 90
       28
 90
       27
 90
      128
 90
       92
 90
        4
 90
       27
 90
       26
 90
       87
 90
      128
 90
        4
 90
       26
 90
       48
 90
      121
 90
       87
 90
        4
 90
       48
 90
       52
 90
       89
 90
      121
 90
        4
 90
       52
 90
       55
 90
       90
 90
       89
 90
        4
 90
       55
 90
       56
 90
      124
 90
       90
 90
        4
 90
       56
 90
       54
 90
       91
 90
      124
 90
        4
 90
       54
 90
       53
 90
      127
 90
       91
 90
        4
 90
       53
 90
       51
 90
      126
 90
      127
 90
        4
 90
       51
 90
       50
 90
      125
 90
      126
 90
        4
 90
       50
 90
       49
 90
      123
 90
      125
 90
        4
 90
       49
 90
       47
 90
      122
 90
      123
 90
        4
 90
       47
 90
       25
 90
       88
 90
      122
 90
        4
 90
       25
 90
       24
 90
      120
 90
       88
 90
        4
 90
       24
 90
       22
 90
       86
 90
      120
 90
        4
 90
       22
 90
       40
 90
       85
 90
       86
 90
        4
 90
       40
 90
       42
 90
      119
 90
       85
 90
        4
 90
       42
 90
       45
 90
       83
 90
      119
 90
        4
 90
       45
 90
       46
 90
      117
 90
       83
 90
        4
 90
       46
 90
       44
 90
       82
 90
      117
 90
        4
 90
       44
 90
       43
 90
       81
 90
       82
 90
        4
 90
       43
 90
       41
 90
      115
 90
       81
 90
        4
 90
       41
 90
       39
 90
       80
 90
      115
 90
        4
 90
       39
 90
       38
 90
      116
 90
       80
 90
        4
 90
       38
 90
       37
 90
      118
 90
      116
 90
        4
 90
       37
 90
       23
 90
       84
 90
      118
 90
        4
 90
       23
 90
        0
 90
       78
 90
       84
 90
        3
 90
       77
 90
       79
 90
       78
 90
        4
 90
       80
 90
       82
 90
       81
 90
      115
 90
        4
 90
      116
 90
      117
 90
       82
 90
       80
 90
        4
 90
      118
 90
       83
 90
      117
 90
      116
 90
        4
 90
       84
 90
      119
 90
       83
 90
      118
 90
        3
 90
       84
 90
       85
 90
      119
 90
        4
 90
       86
 90
       87
 90
      121
 90
      120
 90
        4
 90
      120
 90
      121
 90
       89
 90
       88
 90
        4
 90
       88
 90
       89
 90
       90
 90
      122
 90
        4
 90
      122
 90
       90
 90
      124
 90
      123
 90
        4
 90
      123
 90
      124
 90
       91
 90
      125
 90
        4
 90
      125
 90
       91
 90
      127
 90
      126
 90
        4
 90
       87
 90
      130
 90
      129
 90
      128
 90
        4
 90
      128
 90
      129
 90
      131
 90
       92
 90
        4
 90
       92
 90
      131
 90
       94
 90
       93
 90
        4
 90
       93
 90
       94
 90
      133
 90
      132
 90
        4
 90
      132
 90
      133
 90
       96
 90
       95
 90
        4
 90
       95
 90
       96
 90
      135
 90
      134
 90
        3
 90
       84
 90
       86
 90
       85
 90
        3
 90
       84
 90
       87
 90
       86
 90
        3
 90
       84
 90
      130
 90
       87
 90
        4
 90
      130
 90
       97
 90
      137
 90
      136
 90
        4
 90
      136
 90
      137
 90
       99
 90
       98
 90
        4
 90
       98
 90
       99
 90
      100
 90
      138
 90
        4
 90
      138
 90
      100
 90
      139
 90
      101
 90
        4
 90
      101
 90
      139
 90
      102
 90
      140
 90
        4
 90
      140
 90
      102
 90
      104
 90
      103
 90
        4
 90
       78
 90
       97
 90
      130
 90
       84
 90
        3
 90
       78
 90
      105
 90
       97
 90
        3
 90
       78
 90
      141
 90
      105
 90
        3
 90
       78
 90
      142
 90
      141
 90
        3
 90
       78
 90
      143
 90
      142
 90
        3
 90
       78
 90
      144
 90
      143
 90
        3
 90
       78
 90
       79
 90
      144
 90
        3
 90
      145
 90
       78
 90
      146
 90
        3
 90
       77
 90
       78
 90
      145
 90
        3
 90
      146
 90
       78
 90
      147
 90
        4
 90
      147
 90
       78
 90
      148
 90
      106
 90
        3
 90
      148
 90
       78
 90
      107
 90
        3
 90
      107
 90
       78
 90
      108
 90
        3
 90
      108
 90
       78
 90
      109
 90
        3
 90
      109
 90
       78
 90
      110
 90
        3
 90
      110
 90
       78
 90
      111
 90
        3
 90
      147
 90
      150
 90
      149
 90
        3
 90
      147
 90
      106
 90
      150
 90
        4
 90
      151
 90
      152
 90
      113
 90
      112
 90
        4
 90
      114
 90
      153
 90
      152
 90
      151
 90
        4
 90
      149
 90
      150
 90
      153
 90
      114
 94
      325
 90
        0
 90
        1
 90
        0
 90
        2
 90
        1
 90
        2
 90
       39
 90
       41
 90
       41
 90
       43
 90
       43
 90
       44
 90
       39
 90
       44
 90
       38
 90
       39
 90
       44
 90
       46
 90
       38
 90
       46
 90
       37
 90
       38
 90
       45
 90
       46
 90
       37
 90
       45
 90
       23
 90
       37
 90
       42
 90
       45
 90
       23
 90
       42
 90
       40
 90
       42
 90
       23
 90
       40
 90
       22
 90
       24
 90
       24
 90
       48
 90
       26
 90
       48
 90
       22
 90
       26
 90
       24
 90
       25
 90
       25
 90
       52
 90
       48
 90
       52
 90
       25
 90
       47
 90
       47
 90
       55
 90
       52
 90
       55
 90
       47
 90
       49
 90
       49
 90
       56
 90
       55
 90
       56
 90
       49
 90
       50
 90
       50
 90
       54
 90
       54
 90
       56
 90
       50
 90
       51
 90
       51
 90
       53
 90
       53
 90
       54
 90
       26
 90
       27
 90
       27
 90
       58
 90
       29
 90
       58
 90
       26
 90
       29
 90
       27
 90
       28
 90
       28
 90
       62
 90
       58
 90
       62
 90
       28
 90
       57
 90
       57
 90
       65
 90
       62
 90
       65
 90
       57
 90
       59
 90
       59
 90
       66
 90
       65
 90
       66
 90
       59
 90
       60
 90
       60
 90
       64
 90
       64
 90
       66
 90
       60
 90
       61
 90
       61
 90
       63
 90
       63
 90
       64
 90
       22
 90
       40
 90
       22
 90
       23
 90
       23
 90
       26
 90
       23
 90
       29
 90
       29
 90
       30
 90
       30
 90
       68
 90
       32
 90
       68
 90
       29
 90
       32
 90
       30
 90
       31
 90
       31
 90
       72
 90
       68
 90
       72
 90
       31
 90
       67
 90
       67
 90
       75
 90
       72
 90
       75
 90
       67
 90
       69
 90
       69
 90
       76
 90
       75
 90
       76
 90
       69
 90
       70
 90
       70
 90
       74
 90
       74
 90
       76
 90
       70
 90
       71
 90
       71
 90
       73
 90
       73
 90
       74
 90
        0
 90
       23
 90
        0
 90
       32
 90
       32
 90
       33
 90
        0
 90
       33
 90
       33
 90
       34
 90
        0
 90
       34
 90
       34
 90
       35
 90
        0
 90
       35
 90
       35
 90
       36
 90
        0
 90
       36
 90
        3
 90
       36
 90
        0
 90
        3
 90
        2
 90
        3
 90
        4
 90
        5
 90
        0
 90
        5
 90
        0
 90
        4
 90
        1
 90
        4
 90
        5
 90
        6
 90
        0
 90
        6
 90
        6
 90
       15
 90
       15
 90
       16
 90
        0
 90
       16
 90
       16
 90
       17
 90
        0
 90
       17
 90
       17
 90
       18
 90
        0
 90
       18
 90
       18
 90
       19
 90
        0
 90
       19
 90
       19
 90
       20
 90
        0
 90
       20
 90
       20
 90
       21
 90
        0
 90
       21
 90
        6
 90
        7
 90
        7
 90
       14
 90
        6
 90
       14
 90
       14
 90
       15
 90
        9
 90
       10
 90
       10
 90
       11
 90
       11
 90
       12
 90
        9
 90
       12
 90
        8
 90
        9
 90
       12
 90
       13
 90
        8
 90
       13
 90
        7
 90
        8
 90
       13
 90
       14
 90
       21
 90
      111
 90
       78
 90
      111
 90
        0
 90
       78
 90
       20
 90
      110
 90
      110
 90
      111
 90
       19
 90
      109
 90
      109
 90
      110
 90
       18
 90
      108
 90
      108
 90
      109
 90
       17
 90
      107
 90
      107
 90
      108
 90
       16
 90
      148
 90
      107
 90
      148
 90
       15
 90
      106
 90
      106
 90
      148
 90
       14
 90
      150
 90
      106
 90
      150
 90
       13
 90
      153
 90
      150
 90
      153
 90
       12
 90
      152
 90
      152
 90
      153
 90
       11
 90
      113
 90
      113
 90
      152
 90
       10
 90
      112
 90
      112
 90
      113
 90
        9
 90
      151
 90
      112
 90
      151
 90
        8
 90
      114
 90
      114
 90
      151
 90
        7
 90
      149
 90
      114
 90
      149
 90
        6
 90
      147
 90
      147
 90
      149
 90
        5
 90
      146
 90
      146
 90
      147
 90
        4
 90
      145
 90
      145
 90
      146
 90
        1
 90
       77
 90
       77
 90
      145
 90
        2
 90
       79
 90
       77
 90
       79
 90
        3
 90
      144
 90
       79
 90
      144
 90
       36
 90
      143
 90
      143
 90
      144
 90
       35
 90
      142
 90
      142
 90
      143
 90
       34
 90
      141
 90
      141
 90
      142
 90
       33
 90
      105
 90
      105
 90
      141
 90
       32
 90
       97
 90
       97
 90
      105
 90
       68
 90
      137
 90
       97
 90
      137
 90
       72
 90
       99
 90
       99
 90
      137
 90
       75
 90
      100
 90
       99
 90
      100
 90
       76
 90
      139
 90
      100
 90
      139
 90
       74
 90
      102
 90
      102
 90
      139
 90
       73
 90
      104
 90
      102
 90
      104
 90
       71
 90
      103
 90
      103
 90
      104
 90
       70
 90
      140
 90
      103
 90
      140
 90
       69
 90
      101
 90
      101
 90
      140
 90
       67
 90
      138
 90
      101
 90
      138
 90
       31
 90
       98
 90
       98
 90
      138
 90
       30
 90
      136
 90
       98
 90
      136
 90
       29
 90
      130
 90
      130
 90
      136
 90
       58
 90
      129
 90
      129
 90
      130
 90
       62
 90
      131
 90
      129
 90
      131
 90
       65
 90
       94
 90
       94
 90
      131
 90
       66
 90
      133
 90
       94
 90
      133
 90
       64
 90
       96
 90
       96
 90
      133
 90
       63
 90
      135
 90
       96
 90
      135
 90
       61
 90
      134
 90
      134
 90
      135
 90
       60
 90
       95
 90
       95
 90
      134
 90
       59
 90
      132
 90
       95
 90
      132
 90
       57
 90
       93
 90
       93
 90
      132
 90
       28
 90
       92
 90
       92
 90
       93
 90
       27
 90
      128
 90
       92
 90
      128
 90
       26
 90
       87
 90
       87
 90
      128
 90
       48
 90
      121
 90
       87
 90
      121
 90
       52
 90
       89
 90
       89
 90
      121
 90
       55
 90
       90
 90
       89
 90
       90
 90
       56
 90
      124
 90
       90
 90
      124
 90
       54
 90
       91
 90
       91
 90
      124
 90
       53
 90
      127
 90
       91
 90
      127
 90
       51
 90
      126
 90
      126
 90
      127
 90
       50
 90
      125
 90
      125
 90
      126
 90
       49
 90
      123
 90
      123
 90
      125
 90
       47
 90
      122
 90
      122
 90
      123
 90
       25
 90
       88
 90
       88
 90
      122
 90
       24
 90
      120
 90
       88
 90
      120
 90
       22
 90
       86
 90
       86
 90
      120
 90
       40
 90
       85
 90
       85
 90
       86
 90
       42
 90
      119
 90
       85
 90
      119
 90
       45
 90
       83
 90
       83
 90
      119
 90
       46
 90
      117
 90
       83
 90
      117
 90
       44
 90
       82
 90
       82
 90
      117
 90
       43
 90
       81
 90
       81
 90
       82
 90
       41
 90
      115
 90
       81
 90
      115
 90
       39
 90
       80
 90
       80
 90
      115
 90
       38
 90
      116
 90
       80
 90
      116
 90
       37
 90
      118
 90
      116
 90
      118
 90
       23
 90
       84
 90
       84
 90
      118
 90
       78
 90
       84
 90
       78
 90
       79
 90
       77
 90
       78
 90
       80
 90
       82
 90
      116
 90
      117
 90
       83
 90
      118
 90
       84
 90
      119
 90
       84
 90
       85
 90
       86
 90
       87
 90
      120
 90
      121
 90
       88
 90
       89
 90
       90
 90
      122
 90
      123
 90
      124
 90
       91
 90
      125
 90
       87
 90
      130
 90
      128
 90
      129
 90
       92
 90
      131
 90
       93
 90
       94
 90
      132
 90
      133
 90
       95
 90
       96
 90
       84
 90
       86
 90
       84
 90
       87
 90
       84
 90
      130
 90
       97
 90
      130
 90
      136
 90
      137
 90
       98
 90
       99
 90
      100
 90
      138
 90
      101
 90
      139
 90
      102
 90
      140
 90
       78
 90
       97
 90
       78
 90
      105
 90
       78
 90
      141
 90
       78
 90
      142
 90
       78
 90
      143
 90
       78
 90
      144
 90
       78
 90
      145
 90
       78
 90
      146
 90
       78
 90
      147
 90
       78
 90
      148
 90
      106
 90
      147
 90
       78
 90
      107
 90
       78
 90
      108
 90
       78
 90
      109
 90
       78
 90
      110
 90
      147
 90
      150
 90
      149
 90
      150
 90
      151
 90
      152
 90
      114
 90
      153
 95
      325
140
0.0
140
0.0
140
0.0
140
0.0
140
0.0
140
0.0
140
0.0
140
0.0
140
0.0
140
0.0
140
0.0
140
0.0
140
0.0
140
0.0
140
0.0
140
0.0
140
0.0
140
0.0
140
0.0
140
0.0
140
0.0
140
0.0
140
0.0
140
0.0
140
0.0
140
0.0
140
0.0
140
0.0
140
0.0
140
0.0
140
0.0
140
0.0
140
0.0
140
0.0
140
0.0
140
0.0
140
0.0
140
0.0
140
0.0
140
0.0
140
0.0
140
0.0
140
0.0
140
0.0
140
0.0
140
0.0
140
0.0
140
0.0
140
0.0
140
0.0
140
0.0
140
0.0
140
0.0
140
0.0
140
0.0
140
0.0
140
0.0
140
0.0
140
0.0
140
0.0
140
0.0
140
0.0
140
0.0
140
0.0
140
0.0
140
0.0
140
0.0
140
0.0
140
0.0
140
0.0
140
0.0
140
0.0
140
0.0
140
0.0
140
0.0
140
0.0
140
0.0
140
0.0
140
0.0
140
0.0
140
0.0
140
0.0
140
0.0
140
0.0
140
0.0
140
0.0
140
0.0
140
0.0
140
0.0
140
0.0
140
0.0
140
0.0
140
0.0
140
0.0
140
0.0
140
0.0
140
0.0
140
0.0
140
0.0
140
0.0
140
0.0
140
0.0
140
0.0
140
0.0
140
0.0
140
0.0
140
0.0
140
0.0
140
0.0
140
0.0
140
0.0
140
0.0
140
0.0
140
0.0
140
0.0
140
0.0
140
0.0
140
0.0
140
0.0
140
0.0
140
0.0
140
0.0
140
0.0
140
0.0
140
0.0
140
0.0
140
0.0
140
0.0
140
0.0
140
0.0
140
0.0
140
0.0
140
0.0
140
0.0
140
0.0
140
0.0
140
0.0
140
0.0
140
0.0
140
0.0
140
0.0
140
0.0
140
0.0
140
0.0
140
0.0
140
0.0
140
0.0
140
0.0
140
0.0
140
0.0
140
0.0
140
0.0
140
0.0
140
0.0
140
0.0
140
0.0
140
0.0
140
0.0
140
0.0
140
0.0
140
0.0
140
0.0
140
0.0
140
0.0
140
0.0
140
0.0
140
0.0
140
0.0
140
0.0
140
0.0
140
0.0
140
0.0
140
0.0
140
0.0
140
0.0
140
0.0
140
0.0
140
0.0
140
0.0
140
0.0
140
0.0
140
0.0
140
0.0
140
0.0
140
0.0
140
0.0
140
0.0
140
0.0
140
0.0
140
0.0
140
0.0
140
0.0
140
0.0
140
0.0
140
0.0
140
0.0
140
0.0
140
0.0
140
0.0
140
0.0
140
0.0
140
0.0
140
0.0
140
0.0
140
0.0
140
0.0
140
0.0
140
0.0
140
0.0
140
0.0
140
0.0
140
0.0
140
0.0
140
0.0
140
0.0
140
0.0
140
0.0
140
0.0
140
0.0
140
0.0
140
0.0
140
0.0
140
0.0
140
0.0
140
0.0
140
0.0
140
0.0
140
0.0
140
0.0
140
0.0
140
0.0
140
0.0
140
0.0
140
0.0
140
0.0
140
0.0
140
0.0
140
0.0
140
0.0
140
0.0
140
0.0
140
0.0
140
0.0
140
0.0
140
0.0
140
0.0
140
0.0
140
0.0
140
0.0
140
0.0
140
0.0
140
0.0
140
0.0
140
0.0
140
0.0
140
0.0
140
0.0
140
0.0
140
0.0
140
0.0
140
0.0
140
0.0
140
0.0
140
0.0
140
0.0
140
0.0
140
0.0
140
0.0
140
0.0
140
0.0
140
0.0
140
0.0
140
0.0
140
0.0
140
0.0
140
0.0
140
0.0
140
0.0
140
0.0
140
0.0
140
0.0
140
0.0
140
0.0
140
0.0
140
0.0
140
0.0
140
0.0
140
0.0
140
0.0
140
0.0
140
0.0
140
0.0
140
0.0
140
0.0
140
0.0
140
0.0
140
0.0
140
0.0
140
0.0
140
0.0
140
0.0
140
0.0
140
0.0
140
0.0
140
0.0
140
0.0
140
0.0
140
0.0
140
0.0
140
0.0
140
0.0
140
0.0
140
0.0
140
0.0
140
0.0
140
0.0
140
0.0
140
0.0
140
0.0
140
0.0
140
0.0
140
0.0
140
0.0
140
0.0
140
0.0
 90
        0
  0
POLYLINE
  5
FA
330
1F
100
AcDbEntity
  8
OracDecor_skirtings
 62
   114
420
  1814872
100
AcDb2dPolyline
 66
     1
 10
0.0
 20
0.0
 30
-0.0000029840891784
 70
     1
210
-0.9999999999999769
220
0.0000001788139343
230
-0.0000001192092896
  0
VERTEX
  5
FB
330
FA
100
AcDbEntity
  8
OracDecor_skirtings
 62
   114
420
  1814872
100
AcDbVertex
100
AcDb2dVertex
 10
-14.00001525878906
 20
42.88313674926757
 30
-0.0000029840891784
  0
VERTEX
  5
FC
330
FA
100
AcDbEntity
  8
OracDecor_skirtings
 62
   114
420
  1814872
100
AcDbVertex
100
AcDb2dVertex
 10
-14.00001716613769
 20
87.24999999999999
 30
-0.0000029840891784
  0
VERTEX
  5
FD
330
FA
100
AcDbEntity
  8
OracDecor_skirtings
 62
   114
420
  1814872
100
AcDbVertex
100
AcDb2dVertex
 10
-13.89953708648681
 20
87.62500000000001
 30
-0.0000029840891784
  0
VERTEX
  5
FE
330
FA
100
AcDbEntity
  8
OracDecor_skirtings
 62
   114
420
  1814872
100
AcDbVertex
100
AcDb2dVertex
 10
-13.62501811981201
 20
87.89952087402344
 30
-0.0000029840891784
  0
VERTEX
  5
FF
330
FA
100
AcDbEntity
  8
OracDecor_skirtings
 62
   114
420
  1814872
100
AcDbVertex
100
AcDb2dVertex
 10
-13.25001716613769
 20
88.0
 30
-0.0000029840891784
  0
VERTEX
  5
100
330
FA
100
AcDbEntity
  8
OracDecor_skirtings
 62
   114
420
  1814872
100
AcDbVertex
100
AcDb2dVertex
 10
-0.7500119209289551
 20
88.0
 30
-0.0000029840891784
  0
VERTEX
  5
101
330
FA
100
AcDbEntity
  8
OracDecor_skirtings
 62
   114
420
  1814872
100
AcDbVertex
100
AcDb2dVertex
 10
-0.3750118911266327
 20
88.10047912597656
 30
-0.0000029840891784
  0
VERTEX
  5
102
330
FA
100
AcDbEntity
  8
OracDecor_skirtings
 62
   114
420
  1814872
100
AcDbVertex
100
AcDb2dVertex
 10
-0.100494846701622
 20
88.375
 30
-0.0000029840891784
  0
VERTEX
  5
103
330
FA
100
AcDbEntity
  8
OracDecor_skirtings
 62
   114
420
  1814872
100
AcDbVertex
100
AcDb2dVertex
 10
-0.0000119253745652
 20
88.75
 30
-0.0000029840891784
  0
VERTEX
  5
104
330
FA
100
AcDbEntity
  8
OracDecor_skirtings
 62
   114
420
  1814872
100
AcDbVertex
100
AcDb2dVertex
 10
-0.0000158790189744
 20
91.92877197265625
 30
-0.0000029840891784
  0
VERTEX
  5
105
330
FA
100
AcDbEntity
  8
OracDecor_skirtings
 62
   114
420
  1814872
100
AcDbVertex
100
AcDb2dVertex
 10
-0.0765196457505226
 20
92.19456481933594
 30
-0.0000029840891784
  0
VERTEX
  5
106
330
FA
100
AcDbEntity
  8
OracDecor_skirtings
 62
   114
420
  1814872
100
AcDbVertex
100
AcDb2dVertex
 10
-0.2826239168643951
 20
92.37904357910156
 30
-0.0000029840891784
  0
VERTEX
  5
107
330
FA
100
AcDbEntity
  8
OracDecor_skirtings
 62
   114
420
  1814872
100
AcDbVertex
100
AcDb2dVertex
 10
-0.9071547389030456
 20
92.8775634765625
 30
-0.0000029840891784
  0
VERTEX
  5
108
330
FA
100
AcDbEntity
  8
OracDecor_skirtings
 62
   114
420
  1814872
100
AcDbVertex
100
AcDb2dVertex
 10
-1.254765272140502
 20
93.59925842285155
 30
-0.0000029840891784
  0
VERTEX
  5
109
330
FA
100
AcDbEntity
  8
OracDecor_skirtings
 62
   114
420
  1814872
100
AcDbVertex
100
AcDb2dVertex
 10
-1.254765272140502
 20
94.40074157714844
 30
-0.0000029840891784
  0
VERTEX
  5
10A
330
FA
100
AcDbEntity
  8
OracDecor_skirtings
 62
   114
420
  1814872
100
AcDbVertex
100
AcDb2dVertex
 10
-0.9071548581123352
 20
95.1224365234375
 30
-0.0000029840891784
  0
VERTEX
  5
10B
330
FA
100
AcDbEntity
  8
OracDecor_skirtings
 62
   114
420
  1814872
100
AcDbVertex
100
AcDb2dVertex
 10
-0.2826240658760071
 20
95.62095642089843
 30
-0.0000029840891784
  0
VERTEX
  5
10C
330
FA
100
AcDbEntity
  8
OracDecor_skirtings
 62
   114
420
  1814872
100
AcDbVertex
100
AcDb2dVertex
 10
-0.0765198022127152
 20
95.80543518066406
 30
-0.0000029840891784
  0
VERTEX
  5
10D
330
FA
100
AcDbEntity
  8
OracDecor_skirtings
 62
   114
420
  1814872
100
AcDbVertex
100
AcDb2dVertex
 10
-0.0000160600920935
 20
96.07122802734375
 30
-0.0000029840891784
  0
VERTEX
  5
10E
330
FA
100
AcDbEntity
  8
OracDecor_skirtings
 62
   114
420
  1814872
100
AcDbVertex
100
AcDb2dVertex
 10
-0.0000181391733349
 20
100.0
 30
-0.0000029840891784
  0
VERTEX
  5
10F
330
FA
100
AcDbEntity
  8
OracDecor_skirtings
 62
   114
420
  1814872
100
AcDbVertex
100
AcDb2dVertex
 10
-22.00001716613769
 20
100.0
 30
-0.0000029840891784
  0
VERTEX
  5
110
330
FA
100
AcDbEntity
  8
OracDecor_skirtings
 62
   114
420
  1814872
100
AcDbVertex
100
AcDb2dVertex
 10
-22.00001335144043
 20
-0.0000060876513999
 30
-0.0000029840891784
  0
VERTEX
  5
111
330
FA
100
AcDbEntity
  8
OracDecor_skirtings
 62
   114
420
  1814872
100
AcDbVertex
100
AcDb2dVertex
 10
-14.75001430511474
 20
-0.0000053386102081
 30
-0.0000029840891784
  0
VERTEX
  5
112
330
FA
100
AcDbEntity
  8
OracDecor_skirtings
 62
   114
420
  1814872
100
AcDbVertex
100
AcDb2dVertex
 10
-14.37501430511474
 20
0.1004738286137581
 30
-0.0000029840891784
  0
VERTEX
  5
113
330
FA
100
AcDbEntity
  8
OracDecor_skirtings
 62
   114
420
  1814872
100
AcDbVertex
100
AcDb2dVertex
 10
-14.10049533843994
 20
0.3749947249889374
 30
-0.0000029840891784
  0
VERTEX
  5
114
330
FA
100
AcDbEntity
  8
OracDecor_skirtings
 62
   114
420
  1814872
100
AcDbVertex
100
AcDb2dVertex
 10
-14.00001430511474
 20
0.7499947547912598
 30
-0.0000029840891784
  0
VERTEX
  5
115
330
FA
100
AcDbEntity
  8
OracDecor_skirtings
 62
   114
420
  1814872
100
AcDbVertex
100
AcDb2dVertex
 10
-14.00001525878906
 20
7.116854190826416
 30
-0.0000029840891784
  0
VERTEX
  5
116
330
FA
100
AcDbEntity
  8
OracDecor_skirtings
 62
   114
420
  1814872
100
AcDbVertex
100
AcDb2dVertex
 10
-14.0654296875
 20
7.472307682037353
 30
-0.0000029840891784
  0
VERTEX
  5
117
330
FA
100
AcDbEntity
  8
OracDecor_skirtings
 62
   114
420
  1814872
100
AcDbVertex
100
AcDb2dVertex
 10
-14.25333976745605
 20
7.781885623931884
 30
-0.0000029840891784
  0
VERTEX
  5
118
330
FA
100
AcDbEntity
  8
OracDecor_skirtings
 62
   114
420
  1814872
100
AcDbVertex
100
AcDb2dVertex
 10
-14.53847789764404
 20
8.003976821899414
 30
-0.0000029840891784
  0
VERTEX
  5
119
330
FA
100
AcDbEntity
  8
OracDecor_skirtings
 62
   114
420
  1814872
100
AcDbVertex
100
AcDb2dVertex
 10
-15.18012237548828
 20
8.50358772277832
 30
-0.0000029840891784
  0
VERTEX
  5
11A
330
FA
100
AcDbEntity
  8
OracDecor_skirtings
 62
   114
420
  1814872
100
AcDbVertex
100
AcDb2dVertex
 10
-15.60250663757324
 20
9.198991775512695
 30
-0.0000029840891784
  0
VERTEX
  5
11B
330
FA
100
AcDbEntity
  8
OracDecor_skirtings
 62
   114
420
  1814872
100
AcDbVertex
100
AcDb2dVertex
 10
-15.75001525878906
 20
9.999994277954101
 30
-0.0000029840891784
  0
VERTEX
  5
11C
330
FA
100
AcDbEntity
  8
OracDecor_skirtings
 62
   114
420
  1814872
100
AcDbVertex
100
AcDb2dVertex
 10
-15.60250663757324
 20
10.80099678039551
 30
-0.0000029840891784
  0
VERTEX
  5
11D
330
FA
100
AcDbEntity
  8
OracDecor_skirtings
 62
   114
420
  1814872
100
AcDbVertex
100
AcDb2dVertex
 10
-15.18012237548828
 20
11.49640083312988
 30
-0.0000029840891784
  0
VERTEX
  5
11E
330
FA
100
AcDbEntity
  8
OracDecor_skirtings
 62
   114
420
  1814872
100
AcDbVertex
100
AcDb2dVertex
 10
-14.53847694396972
 20
11.99601173400879
 30
-0.0000029840891784
  0
VERTEX
  5
11F
330
FA
100
AcDbEntity
  8
OracDecor_skirtings
 62
   114
420
  1814872
100
AcDbVertex
100
AcDb2dVertex
 10
-14.25333881378174
 20
12.21810340881347
 30
-0.0000029840891784
  0
VERTEX
  5
120
330
FA
100
AcDbEntity
  8
OracDecor_skirtings
 62
   114
420
  1814872
100
AcDbVertex
100
AcDb2dVertex
 10
-14.0654296875
 20
12.52768135070801
 30
-0.0000029840891784
  0
VERTEX
  5
121
330
FA
100
AcDbEntity
  8
OracDecor_skirtings
 62
   114
420
  1814872
100
AcDbVertex
100
AcDb2dVertex
 10
-14.00001430511474
 20
12.88313484191894
 30
-0.0000029840891784
  0
VERTEX
  5
122
330
FA
100
AcDbEntity
  8
OracDecor_skirtings
 62
   114
420
  1814872
100
AcDbVertex
100
AcDb2dVertex
 10
-14.00001430511474
 20
17.11685562133789
 30
-0.0000029840891784
  0
VERTEX
  5
123
330
FA
100
AcDbEntity
  8
OracDecor_skirtings
 62
   114
420
  1814872
100
AcDbVertex
100
AcDb2dVertex
 10
-14.0654296875
 20
17.47230911254883
 30
-0.0000029840891784
  0
VERTEX
  5
124
330
FA
100
AcDbEntity
  8
OracDecor_skirtings
 62
   114
420
  1814872
100
AcDbVertex
100
AcDb2dVertex
 10
-14.25333881378174
 20
17.78188705444336
 30
-0.0000029840891784
  0
VERTEX
  5
125
330
FA
100
AcDbEntity
  8
OracDecor_skirtings
 62
   114
420
  1814872
100
AcDbVertex
100
AcDb2dVertex
 10
-14.53847694396972
 20
18.00397872924804
 30
-0.0000029840891784
  0
VERTEX
  5
126
330
FA
100
AcDbEntity
  8
OracDecor_skirtings
 62
   114
420
  1814872
100
AcDbVertex
100
AcDb2dVertex
 10
-15.18012142181396
 20
18.50358963012695
 30
-0.0000029840891784
  0
VERTEX
  5
127
330
FA
100
AcDbEntity
  8
OracDecor_skirtings
 62
   114
420
  1814872
100
AcDbVertex
100
AcDb2dVertex
 10
-15.60250663757324
 20
19.19899368286133
 30
-0.0000029840891784
  0
VERTEX
  5
128
330
FA
100
AcDbEntity
  8
OracDecor_skirtings
 62
   114
420
  1814872
100
AcDbVertex
100
AcDb2dVertex
 10
-15.75001525878906
 20
19.99999618530273
 30
-0.0000029840891784
  0
VERTEX
  5
129
330
FA
100
AcDbEntity
  8
OracDecor_skirtings
 62
   114
420
  1814872
100
AcDbVertex
100
AcDb2dVertex
 10
-15.60250663757324
 20
20.80099868774414
 30
-0.0000029840891784
  0
VERTEX
  5
12A
330
FA
100
AcDbEntity
  8
OracDecor_skirtings
 62
   114
420
  1814872
100
AcDbVertex
100
AcDb2dVertex
 10
-15.18012237548828
 20
21.49640274047852
 30
-0.0000029840891784
  0
VERTEX
  5
12B
330
FA
100
AcDbEntity
  8
OracDecor_skirtings
 62
   114
420
  1814872
100
AcDbVertex
100
AcDb2dVertex
 10
-14.53847694396972
 20
21.99601364135742
 30
-0.0000029840891784
  0
VERTEX
  5
12C
330
FA
100
AcDbEntity
  8
OracDecor_skirtings
 62
   114
420
  1814872
100
AcDbVertex
100
AcDb2dVertex
 10
-14.25333881378174
 20
22.21810531616211
 30
-0.0000029840891784
  0
VERTEX
  5
12D
330
FA
100
AcDbEntity
  8
OracDecor_skirtings
 62
   114
420
  1814872
100
AcDbVertex
100
AcDb2dVertex
 10
-14.0654296875
 20
22.52768325805664
 30
-0.0000029840891784
  0
VERTEX
  5
12E
330
FA
100
AcDbEntity
  8
OracDecor_skirtings
 62
   114
420
  1814872
100
AcDbVertex
100
AcDb2dVertex
 10
-14.00001430511474
 20
22.88313674926758
 30
-0.0000029840891784
  0
VERTEX
  5
12F
330
FA
100
AcDbEntity
  8
OracDecor_skirtings
 62
   114
420
  1814872
100
AcDbVertex
100
AcDb2dVertex
 10
-14.00001621246338
 20
27.11685562133789
 30
-0.0000029840891784
  0
VERTEX
  5
130
330
FA
100
AcDbEntity
  8
OracDecor_skirtings
 62
   114
420
  1814872
100
AcDbVertex
100
AcDb2dVertex
 10
-14.06543064117431
 20
27.47230911254883
 30
-0.0000029840891784
  0
VERTEX
  5
131
330
FA
100
AcDbEntity
  8
OracDecor_skirtings
 62
   114
420
  1814872
100
AcDbVertex
100
AcDb2dVertex
 10
-14.25334072113037
 20
27.78188705444336
 30
-0.0000029840891784
  0
VERTEX
  5
132
330
FA
100
AcDbEntity
  8
OracDecor_skirtings
 62
   114
420
  1814872
100
AcDbVertex
100
AcDb2dVertex
 10
-14.53847789764404
 20
28.00397872924805
 30
-0.0000029840891784
  0
VERTEX
  5
133
330
FA
100
AcDbEntity
  8
OracDecor_skirtings
 62
   114
420
  1814872
100
AcDbVertex
100
AcDb2dVertex
 10
-15.18012237548828
 20
28.50358963012695
 30
-0.0000029840891784
  0
VERTEX
  5
134
330
FA
100
AcDbEntity
  8
OracDecor_skirtings
 62
   114
420
  1814872
100
AcDbVertex
100
AcDb2dVertex
 10
-15.60250663757324
 20
29.19899368286133
 30
-0.0000029840891784
  0
VERTEX
  5
135
330
FA
100
AcDbEntity
  8
OracDecor_skirtings
 62
   114
420
  1814872
100
AcDbVertex
100
AcDb2dVertex
 10
-15.75001525878906
 20
29.99999618530273
 30
-0.0000029840891784
  0
VERTEX
  5
136
330
FA
100
AcDbEntity
  8
OracDecor_skirtings
 62
   114
420
  1814872
100
AcDbVertex
100
AcDb2dVertex
 10
-15.60250759124756
 20
30.80099868774414
 30
-0.0000029840891784
  0
VERTEX
  5
137
330
FA
100
AcDbEntity
  8
OracDecor_skirtings
 62
   114
420
  1814872
100
AcDbVertex
100
AcDb2dVertex
 10
-15.1801233291626
 20
31.49640274047852
 30
-0.0000029840891784
  0
VERTEX
  5
138
330
FA
100
AcDbEntity
  8
OracDecor_skirtings
 62
   114
420
  1814872
100
AcDbVertex
100
AcDb2dVertex
 10
-14.53847789764404
 20
31.99601364135742
 30
-0.0000029840891784
  0
VERTEX
  5
139
330
FA
100
AcDbEntity
  8
OracDecor_skirtings
 62
   114
420
  1814872
100
AcDbVertex
100
AcDb2dVertex
 10
-14.25334072113037
 20
32.21810531616211
 30
-0.0000029840891784
  0
VERTEX
  5
13A
330
FA
100
AcDbEntity
  8
OracDecor_skirtings
 62
   114
420
  1814872
100
AcDbVertex
100
AcDb2dVertex
 10
-14.06543064117431
 20
32.52768325805664
 30
-0.0000029840891784
  0
VERTEX
  5
13B
330
FA
100
AcDbEntity
  8
OracDecor_skirtings
 62
   114
420
  1814872
100
AcDbVertex
100
AcDb2dVertex
 10
-14.00001621246338
 20
32.88313674926758
 30
-0.0000029840891784
  0
VERTEX
  5
13C
330
FA
100
AcDbEntity
  8
OracDecor_skirtings
 62
   114
420
  1814872
100
AcDbVertex
100
AcDb2dVertex
 10
-14.00001525878906
 20
37.11685562133789
 30
-0.0000029840891784
  0
VERTEX
  5
13D
330
FA
100
AcDbEntity
  8
OracDecor_skirtings
 62
   114
420
  1814872
100
AcDbVertex
100
AcDb2dVertex
 10
-14.06543064117431
 20
37.47230911254883
 30
-0.0000029840891784
  0
VERTEX
  5
13E
330
FA
100
AcDbEntity
  8
OracDecor_skirtings
 62
   114
420
  1814872
100
AcDbVertex
100
AcDb2dVertex
 10
-14.25333976745605
 20
37.78188323974609
 30
-0.0000029840891784
  0
VERTEX
  5
13F
330
FA
100
AcDbEntity
  8
OracDecor_skirtings
 62
   114
420
  1814872
100
AcDbVertex
100
AcDb2dVertex
 10
-14.53847789764404
 20
38.00397491455078
 30
-0.0000029840891784
  0
VERTEX
  5
140
330
FA
100
AcDbEntity
  8
OracDecor_skirtings
 62
   114
420
  1814872
100
AcDbVertex
100
AcDb2dVertex
 10
-15.18012237548828
 20
38.50357818603516
 30
-0.0000029840891784
  0
VERTEX
  5
141
330
FA
100
AcDbEntity
  8
OracDecor_skirtings
 62
   114
420
  1814872
100
AcDbVertex
100
AcDb2dVertex
 10
-15.60250759124756
 20
39.19899368286133
 30
-0.0000029840891784
  0
VERTEX
  5
142
330
FA
100
AcDbEntity
  8
OracDecor_skirtings
 62
   114
420
  1814872
100
AcDbVertex
100
AcDb2dVertex
 10
-15.75001525878906
 20
39.99999618530273
 30
-0.0000029840891784
  0
VERTEX
  5
143
330
FA
100
AcDbEntity
  8
OracDecor_skirtings
 62
   114
420
  1814872
100
AcDbVertex
100
AcDb2dVertex
 10
-15.60250759124756
 20
40.80099868774413
 30
-0.0000029840891784
  0
VERTEX
  5
144
330
FA
100
AcDbEntity
  8
OracDecor_skirtings
 62
   114
420
  1814872
100
AcDbVertex
100
AcDb2dVertex
 10
-15.1801233291626
 20
41.49640655517578
 30
-0.0000029840891784
  0
VERTEX
  5
145
330
FA
100
AcDbEntity
  8
OracDecor_skirtings
 62
   114
420
  1814872
100
AcDbVertex
100
AcDb2dVertex
 10
-14.53847789764404
 20
41.99600982666015
 30
-0.0000029840891784
  0
VERTEX
  5
146
330
FA
100
AcDbEntity
  8
OracDecor_skirtings
 62
   114
420
  1814872
100
AcDbVertex
100
AcDb2dVertex
 10
-14.25334072113037
 20
42.21810150146484
 30
-0.0000029840891784
  0
VERTEX
  5
147
330
FA
100
AcDbEntity
  8
OracDecor_skirtings
 62
   114
420
  1814872
100
AcDbVertex
100
AcDb2dVertex
 10
-14.06543064117431
 20
42.52768325805663
 30
-0.0000029840891784
  0
SEQEND
  5
148
330
FA
100
AcDbEntity
  8
OracDecor_skirtings
 62
   114
420
  1814872
  0
ENDSEC
  0
SECTION
  2
OBJECTS
  0
DICTIONARY
  5
C
330
0
100
AcDbDictionary
281
     1
  3
ACAD_COLOR
350
DC
  3
ACAD_DETAILVIEWSTYLE
350
F5
  3
ACAD_GROUP
350
D
  3
ACAD_LAYOUT
350
1A
  3
ACAD_MATERIAL
350
AA
  3
ACAD_MLEADERSTYLE
350
F1
  3
ACAD_MLINESTYLE
350
17
  3
ACAD_PLOTSETTINGS
350
19
  3
ACAD_PLOTSTYLENAME
350
E
  3
ACAD_SCALELIST
350
DF
  3
ACAD_SECTIONVIEWSTYLE
350
F3
  3
ACAD_TABLESTYLE
350
DD
  3
ACAD_VISUALSTYLE
350
C3
  3
ACDB_RECOMPOSE_DATA
350
155
  3
AcDbVariableDictionary
350
149
  0
DICTIONARY
  5
DC
102
{ACAD_REACTORS
330
C
102
}
330
C
100
AcDbDictionary
281
     1
  0
DICTIONARY
  5
F5
102
{ACAD_REACTORS
330
C
102
}
330
C
100
AcDbDictionary
281
     1
  3
Imperial24
350
F6
  0
DICTIONARY
  5
D
102
{ACAD_REACTORS
330
C
102
}
330
C
100
AcDbDictionary
281
     1
  0
DICTIONARY
  5
1A
102
{ACAD_REACTORS
330
C
102
}
330
C
100
AcDbDictionary
281
     1
  3
Layout1
350
1E
  3
Layout2
350
26
  3
Model
350
22
  0
DICTIONARY
  5
AA
102
{ACAD_REACTORS
330
C
102
}
330
C
100
AcDbDictionary
281
     1
  3
ByBlock
350
B3
  3
ByLayer
350
AB
  3
Global
350
BB
  0
DICTIONARY
  5
F1
102
{ACAD_REACTORS
330
C
102
}
330
C
100
AcDbDictionary
281
     1
  3
Standard
350
F2
  0
DICTIONARY
  5
17
102
{ACAD_REACTORS
330
C
102
}
330
C
100
AcDbDictionary
281
     1
  3
Standard
350
18
  0
DICTIONARY
  5
19
102
{ACAD_REACTORS
330
C
102
}
330
C
100
AcDbDictionary
281
     1
  0
ACDBDICTIONARYWDFLT
  5
E
102
{ACAD_REACTORS
330
C
102
}
330
C
100
AcDbDictionary
281
     1
  3
ByLayer
350
2D
  3
Normal
350
F
100
AcDbDictionaryWithDefault
340
F
  0
DICTIONARY
  5
DF
102
{ACAD_REACTORS
330
C
102
}
330
C
100
AcDbDictionary
281
     1
  3
A0
350
E0
  3
A1
350
E1
  3
A2
350
E2
  3
A3
350
E3
  3
A4
350
E4
  3
A5
350
E5
  3
A6
350
E6
  3
A7
350
E7
  3
A8
350
E8
  3
A9
350
E9
  3
B0
350
EA
  3
B1
350
EB
  3
B2
350
EC
  3
B3
350
ED
  3
B4
350
EE
  3
B5
350
EF
  3
B6
350
F0
  0
DICTIONARY
  5
F3
102
{ACAD_REACTORS
330
C
102
}
330
C
100
AcDbDictionary
281
     1
  3
Imperial24
350
F4
  0
DICTIONARY
  5
DD
102
{ACAD_REACTORS
330
C
102
}
330
C
100
AcDbDictionary
281
     1
  3
Standard
350
DE
  0
DICTIONARY
  5
C3
102
{ACAD_REACTORS
330
C
102
}
330
C
100
AcDbDictionary
281
     1
  3
2dWireframe
350
C9
  3
Basic
350
C8
  3
Brighten
350
CF
  3
ColorChange
350
D3
  3
Conceptual
350
CC
  3
Dim
350
CE
  3
EdgeColorOff
350
DB
  3
Facepattern
350
D2
  3
Flat
350
C4
  3
FlatWithEdges
350
C5
  3
Gouraud
350
C6
  3
GouraudWithEdges
350
C7
  3
Hidden
350
CB
  3
JitterOff
350
D9
  3
Linepattern
350
D1
  3
OverhangOff
350
DA
  3
Realistic
350
CD
  3
Shaded
350
D8
  3
Shaded with edges
350
D7
  3
Shades of Gray
350
D4
  3
Sketchy
350
D5
  3
Thicken
350
D0
  3
Wireframe
350
CA
  3
X-Ray
350
D6
  0
XRECORD
  5
155
102
{ACAD_REACTORS
330
C
102
}
330
C
100
AcDbXrecord
280
     1
 90
        1
330
DE
  0
DICTIONARY
  5
149
102
{ACAD_REACTORS
330
C
102
}
330
C
100
AcDbDictionary
281
     1
  3
CANNOSCALE
350
14F
  3
CMLEADERSTYLE
350
14B
  3
CTABLESTYLE
350
14A
  3
CVIEWDETAILSTYLE
350
14C
  3
CVIEWSECTIONSTYLE
350
14D
  3
LAYEREVAL
350
151
  3
LAYERNOTIFY
350
152
  3
LIGHTINGUNITS
350
150
  3
MSLTSCALE
350
14E
  0
ACDBDETAILVIEWSTYLE
  5
F6
102
{ACAD_XDICTIONARY
360
18A
102
}
102
{ACAD_REACTORS
330
F5
102
}
330
F5
100
AcDbModelDocViewStyle
 70
     0
  3
Imperial24
290
     0
100
AcDbDetailViewStyle
 70
     0
 71
     0
 90
        3
 71
     1
340
11
 62
   256
 40
0.24
340
0
 62
   256
 40
0.24
300

 40
0.36
280
     3
 71
     2
340
16
 90
       25
 62
   256
 71
     3
340
11
 62
   256
 40
0.24
 90
        1
 40
0.75
 90
        1
300
%<\AcVar ViewType \f "%tc1">% %<\AcVar ViewDetailId>%\PSCALE %<\AcVar ViewScale \f "%sn">%
 71
     4
340
16
 90
       25
 62
   256
340
16
 90
       25
 62
   256
280
     0
  0
LAYOUT
  5
1E
102
{ACAD_REACTORS
330
1A
102
}
330
1A
100
AcDbPlotSettings
  1

  2
\\KTXNTBDC\CASF2PN1
  4

  6

 40
0.0
 41
0.0
 42
0.0
 43
0.0
 44
0.0
 45
0.0
 46
0.0
 47
0.0
 48
0.0
 49
0.0
140
0.0
141
0.0
142
1.0
143
1.0
 70
   688
 72
     0
 73
     0
 74
     5
  7

 75
    16
147
1.0
 76
     0
 77
     2
 78
   300
148
0.0
149
0.0
100
AcDbLayout
  1
Layout1
 70
     1
 71
     1
 10
0.0
 20
0.0
 11
12.0
 21
9.0
 12
0.0
 22
0.0
 32
0.0
 14
1.000000000000000E+20
 24
1.000000000000000E+20
 34
1.000000000000000E+20
 15
-1.000000000000000E+20
 25
-1.000000000000000E+20
 35
-1.000000000000000E+20
146
0.0
 13
0.0
 23
0.0
 33
0.0
 16
1.0
 26
0.0
 36
0.0
 17
0.0
 27
1.0
 37
0.0
 76
     0
330
1B
  0
LAYOUT
  5
26
102
{ACAD_REACTORS
330
1A
102
}
330
1A
100
AcDbPlotSettings
  1

  2
\\KTXNTBDC\CASF2PN1
  4

  6

 40
0.0
 41
0.0
 42
0.0
 43
0.0
 44
0.0
 45
0.0
 46
0.0
 47
0.0
 48
0.0
 49
0.0
140
0.0
141
0.0
142
1.0
143
1.0
 70
   688
 72
     0
 73
     0
 74
     5
  7

 75
    16
147
1.0
 76
     0
 77
     2
 78
   300
148
0.0
149
0.0
100
AcDbLayout
  1
Layout2
 70
     1
 71
     2
 10
0.0
 20
0.0
 11
12.0
 21
9.0
 12
0.0
 22
0.0
 32
0.0
 14
0.0
 24
0.0
 34
0.0
 15
0.0
 25
0.0
 35
0.0
146
0.0
 13
0.0
 23
0.0
 33
0.0
 16
1.0
 26
0.0
 36
0.0
 17
0.0
 27
1.0
 37
0.0
 76
     0
330
23
  0
LAYOUT
  5
22
102
{ACAD_REACTORS
330
1A
102
}
330
1A
100
AcDbPlotSettings
  1

  2
\\KTXNTBDC\CASF2PN1
  4

  6

 40
0.0
 41
0.0
 42
0.0
 43
0.0
 44
0.0
 45
0.0
 46
0.0
 47
0.0
 48
0.0
 49
0.0
140
0.0
141
0.0
142
1.0
143
1.0
 70
  1712
 72
     0
 73
     0
 74
     0
  7

 75
     0
147
1.0
 76
     0
 77
     2
 78
   300
148
0.0
149
0.0
100
AcDbLayout
  1
Model
 70
     1
 71
     0
 10
0.0
 20
0.0
 11
12.0
 21
9.0
 12
0.0
 22
0.0
 32
0.0
 14
0.0
 24
0.0
 34
0.0
 15
0.0
 25
0.0
 35
0.0
146
0.0
 13
0.0
 23
0.0
 33
0.0
 16
1.0
 26
0.0
 36
0.0
 17
0.0
 27
1.0
 37
0.0
 76
     0
330
1F
  0
MATERIAL
  5
B3
102
{ACAD_XDICTIONARY
360
B4
102
}
102
{ACAD_REACTORS
330
AA
102
}
330
AA
100
AcDbMaterial
  1
ByBlock
 72
     0
 43
0.0208333333333333
 43
0.0
 43
0.0
 43
0.0
 43
0.0
 43
0.0208333333333333
 43
0.0
 43
0.0
 43
0.0
 43
0.0
 43
1.0
 43
0.0
 43
0.0
 43
0.0
 43
0.0
 43
1.0
 77
     0
 47
0.0208333333333333
 47
0.0
 47
0.0
 47
0.0
 47
0.0
 47
0.0208333333333333
 47
0.0
 47
0.0
 47
0.0
 47
0.0
 47
1.0
 47
0.0
 47
0.0
 47
0.0
 47
0.0
 47
1.0
171
     0
 49
0.0208333333333333
 49
0.0
 49
0.0
 49
0.0
 49
0.0
 49
0.0208333333333333
 49
0.0
 49
0.0
 49
0.0
 49
0.0
 49
1.0
 49
0.0
 49
0.0
 49
0.0
 49
0.0
 49
1.0
175
     0
142
0.0208333333333333
142
0.0
142
0.0
142
0.0
142
0.0
142
0.0208333333333333
142
0.0
142
0.0
142
0.0
142
0.0
142
1.0
142
0.0
142
0.0
142
0.0
142
0.0
142
1.0
179
     0
144
0.0208333333333333
144
0.0
144
0.0
144
0.0
144
0.0
144
0.0208333333333333
144
0.0
144
0.0
144
0.0
144
0.0
144
1.0
144
0.0
144
0.0
144
0.0
144
0.0
144
1.0
147
0.0208333333333333
147
0.0
147
0.0
147
0.0
147
0.0
147
0.0208333333333333
147
0.0
147
0.0
147
0.0
147
0.0
147
1.0
147
0.0
147
0.0
147
0.0
147
0.0
147
1.0
  0
MATERIAL
  5
AB
102
{ACAD_XDICTIONARY
360
AC
102
}
102
{ACAD_REACTORS
330
AA
102
}
330
AA
100
AcDbMaterial
  1
ByLayer
 72
     0
 43
0.0208333333333333
 43
0.0
 43
0.0
 43
0.0
 43
0.0
 43
0.0208333333333333
 43
0.0
 43
0.0
 43
0.0
 43
0.0
 43
1.0
 43
0.0
 43
0.0
 43
0.0
 43
0.0
 43
1.0
 77
     0
 47
0.0208333333333333
 47
0.0
 47
0.0
 47
0.0
 47
0.0
 47
0.0208333333333333
 47
0.0
 47
0.0
 47
0.0
 47
0.0
 47
1.0
 47
0.0
 47
0.0
 47
0.0
 47
0.0
 47
1.0
171
     0
 49
0.0208333333333333
 49
0.0
 49
0.0
 49
0.0
 49
0.0
 49
0.0208333333333333
 49
0.0
 49
0.0
 49
0.0
 49
0.0
 49
1.0
 49
0.0
 49
0.0
 49
0.0
 49
0.0
 49
1.0
175
     0
142
0.0208333333333333
142
0.0
142
0.0
142
0.0
142
0.0
142
0.0208333333333333
142
0.0
142
0.0
142
0.0
142
0.0
142
1.0
142
0.0
142
0.0
142
0.0
142
0.0
142
1.0
179
     0
144
0.0208333333333333
144
0.0
144
0.0
144
0.0
144
0.0
144
0.0208333333333333
144
0.0
144
0.0
144
0.0
144
0.0
144
1.0
144
0.0
144
0.0
144
0.0
144
0.0
144
1.0
147
0.0208333333333333
147
0.0
147
0.0
147
0.0
147
0.0
147
0.0208333333333333
147
0.0
147
0.0
147
0.0
147
0.0
147
1.0
147
0.0
147
0.0
147
0.0
147
0.0
147
1.0
  0
MATERIAL
  5
BB
102
{ACAD_XDICTIONARY
360
BC
102
}
102
{ACAD_REACTORS
330
AA
102
}
330
AA
100
AcDbMaterial
  1
Global
 72
     0
 43
0.0208333333333333
 43
0.0
 43
0.0
 43
0.0
 43
0.0
 43
0.0208333333333333
 43
0.0
 43
0.0
 43
0.0
 43
0.0
 43
1.0
 43
0.0
 43
0.0
 43
0.0
 43
0.0
 43
1.0
 77
     0
 47
0.0208333333333333
 47
0.0
 47
0.0
 47
0.0
 47
0.0
 47
0.0208333333333333
 47
0.0
 47
0.0
 47
0.0
 47
0.0
 47
1.0
 47
0.0
 47
0.0
 47
0.0
 47
0.0
 47
1.0
171
     0
 49
0.0208333333333333
 49
0.0
 49
0.0
 49
0.0
 49
0.0
 49
0.0208333333333333
 49
0.0
 49
0.0
 49
0.0
 49
0.0
 49
1.0
 49
0.0
 49
0.0
 49
0.0
 49
0.0
 49
1.0
175
     0
142
0.0208333333333333
142
0.0
142
0.0
142
0.0
142
0.0
142
0.0208333333333333
142
0.0
142
0.0
142
0.0
142
0.0
142
1.0
142
0.0
142
0.0
142
0.0
142
0.0
142
1.0
179
     0
144
0.0208333333333333
144
0.0
144
0.0
144
0.0
144
0.0
144
0.0208333333333333
144
0.0
144
0.0
144
0.0
144
0.0
144
1.0
144
0.0
144
0.0
144
0.0
144
0.0
144
1.0
147
0.0208333333333333
147
0.0
147
0.0
147
0.0
147
0.0
147
0.0208333333333333
147
0.0
147
0.0
147
0.0
147
0.0
147
1.0
147
0.0
147
0.0
147
0.0
147
0.0
147
1.0
  0
MLEADERSTYLE
  5
F2
102
{ACAD_XDICTIONARY
360
186
102
}
102
{ACAD_REACTORS
330
F1
102
}
330
F1
100
AcDbMLeaderStyle
179
     2
170
     2
171
     1
172
     0
 90
        2
 40
0.0
 41
0.0
173
     1
 91
-1056964608
340
14
 92
       -2
290
     1
 42
0.09
291
     1
 43
0.36
  3
Standard
 44
0.18
300

342
11
174
     1
178
     6
175
     1
176
     0
 93
-1056964608
 45
0.18
292
     0
297
     0
 46
0.18
 94
-1056964608
 47
1.0
 49
1.0
140
1.0
293
     1
141
0.0
294
     1
177
     0
142
1.0
295
     0
296
     0
143
0.125
271
     0
272
     9
273
     9
  0
MLINESTYLE
  5
18
102
{ACAD_REACTORS
330
17
102
}
330
17
100
AcDbMlineStyle
  2
STANDARD
 70
     0
  3

 62
   256
 51
90.0
 52
90.0
 71
     2
 49
0.5
 62
   256
  6
BYLAYER
 49
-0.5
 62
   256
  6
BYLAYER
  0
ACDBPLACEHOLDER
  5
2D
102
{ACAD_REACTORS
330
E
102
}
330
E
  0
ACDBPLACEHOLDER
  5
F
102
{ACAD_REACTORS
330
E
102
}
330
E
  0
SCALE
  5
E0
102
{ACAD_REACTORS
330
DF
102
}
330
DF
100
AcDbScale
 70
     0
300
1:1
140
1.0
141
1.0
290
     1
  0
SCALE
  5
E1
102
{ACAD_REACTORS
330
DF
102
}
330
DF
100
AcDbScale
 70
     0
300
1/128" = 1'-0"
140
0.0078125
141
12.0
290
     0
  0
SCALE
  5
E2
102
{ACAD_REACTORS
330
DF
102
}
330
DF
100
AcDbScale
 70
     0
300
1/64" = 1'-0"
140
0.015625
141
12.0
290
     0
  0
SCALE
  5
E3
102
{ACAD_REACTORS
330
DF
102
}
330
DF
100
AcDbScale
 70
     0
300
1/32" = 1'-0"
140
0.03125
141
12.0
290
     0
  0
SCALE
  5
E4
102
{ACAD_REACTORS
330
DF
102
}
330
DF
100
AcDbScale
 70
     0
300
1/16" = 1'-0"
140
0.0625
141
12.0
290
     0
  0
SCALE
  5
E5
102
{ACAD_REACTORS
330
DF
102
}
330
DF
100
AcDbScale
 70
     0
300
3/32" = 1'-0"
140
0.09375
141
12.0
290
     0
  0
SCALE
  5
E6
102
{ACAD_REACTORS
330
DF
102
}
330
DF
100
AcDbScale
 70
     0
300
1/8" = 1'-0"
140
0.125
141
12.0
290
     0
  0
SCALE
  5
E7
102
{ACAD_REACTORS
330
DF
102
}
330
DF
100
AcDbScale
 70
     0
300
3/16" = 1'-0"
140
0.1875
141
12.0
290
     0
  0
SCALE
  5
E8
102
{ACAD_REACTORS
330
DF
102
}
330
DF
100
AcDbScale
 70
     0
300
1/4" = 1'-0"
140
0.25
141
12.0
290
     0
  0
SCALE
  5
E9
102
{ACAD_REACTORS
330
DF
102
}
330
DF
100
AcDbScale
 70
     0
300
3/8" = 1'-0"
140
0.375
141
12.0
290
     0
  0
SCALE
  5
EA
102
{ACAD_REACTORS
330
DF
102
}
330
DF
100
AcDbScale
 70
     0
300
1/2" = 1'-0"
140
0.5
141
12.0
290
     0
  0
SCALE
  5
EB
102
{ACAD_REACTORS
330
DF
102
}
330
DF
100
AcDbScale
 70
     0
300
3/4" = 1'-0"
140
0.75
141
12.0
290
     0
  0
SCALE
  5
EC
102
{ACAD_REACTORS
330
DF
102
}
330
DF
100
AcDbScale
 70
     0
300
1" = 1'-0"
140
1.0
141
12.0
290
     0
  0
SCALE
  5
ED
102
{ACAD_REACTORS
330
DF
102
}
330
DF
100
AcDbScale
 70
     0
300
1-1/2" = 1'-0"
140
1.5
141
12.0
290
     0
  0
SCALE
  5
EE
102
{ACAD_REACTORS
330
DF
102
}
330
DF
100
AcDbScale
 70
     0
300
3" = 1'-0"
140
3.0
141
12.0
290
     0
  0
SCALE
  5
EF
102
{ACAD_REACTORS
330
DF
102
}
330
DF
100
AcDbScale
 70
     0
300
6" = 1'-0"
140
6.0
141
12.0
290
     0
  0
SCALE
  5
F0
102
{ACAD_REACTORS
330
DF
102
}
330
DF
100
AcDbScale
 70
     0
300
1'-0" = 1'-0"
140
12.0
141
12.0
290
     0
  0
ACDBSECTIONVIEWSTYLE
  5
F4
102
{ACAD_XDICTIONARY
360
188
102
}
102
{ACAD_REACTORS
330
F3
102
}
330
F3
100
AcDbModelDocViewStyle
 70
     0
  3
Imperial24
290
     0
100
AcDbSectionViewStyle
 70
     0
 71
     0
 90
       78
 71
     1
340
11
 62
   256
 40
0.24
340
0
340
0
 62
   256
 40
0.24
300
I, O, Q, S, X, Z
 40
0.48
 90
        3
 40
0.18
 90
        1
 71
     2
340
16
 90
       25
 62
   256
340
16
 90
       50
 62
   256
 40
0.24
 40
0.0
 40
0.24
 71
     3
340
11
 62
   256
 40
0.24
 90
        1
 40
0.75
 90
        1
300
%<\AcVar ViewType \f "%tc1">% %<\AcVar ViewSectionStartId>%-%<\AcVar ViewSectionEndId>%\PSCALE %<\AcVar ViewScale \f "%sn">%
 71
     4
 62
   256
 62
   257
300
ANSI31
 40
1.0
 90
        0
290
     0
290
     0
 90
        6
 40
0.0
 40
1.570796326794896
 40
0.2617993877991494
 40
1.308996938995747
 40
-0.2617993877991494
 40
1.832595714594046
  0
TABLESTYLE
  5
DE
102
{ACAD_XDICTIONARY
360
153
102
}
102
{ACAD_REACTORS
330
DD
102
}
330
DD
100
AcDbTableStyle
280
     0
  3
Standard
 70
     0
 71
     0
 40
0.06
 41
0.06
280
     0
281
     0
  7
Standard
140
0.18
170
     2
 62
     0
 63
     7
283
     0
 90
      512
 91
        0
  1

274
    -2
284
     1
 64
     0
275
    -2
285
     1
 65
     0
276
    -2
286
     1
 66
     0
277
    -2
287
     1
 67
     0
278
    -2
288
     1
 68
     0
279
    -2
289
     1
 69
     0
  7
Standard
140
0.25
170
     5
 62
     0
 63
     7
283
     0
 90
      512
 91
        0
  1

274
    -2
284
     1
 64
     0
275
    -2
285
     1
 65
     0
276
    -2
286
     1
 66
     0
277
    -2
287
     1
 67
     0
278
    -2
288
     1
 68
     0
279
    -2
289
     1
 69
     0
  7
Standard
140
0.18
170
     5
 62
     0
 63
     7
283
     0
 90
      512
 91
        0
  1

274
    -2
284
     1
 64
     0
275
    -2
285
     1
 65
     0
276
    -2
286
     1
 66
     0
277
    -2
287
     1
 67
     0
278
    -2
288
     1
 68
     0
279
    -2
289
     1
 69
     0
  0
VISUALSTYLE
  5
C9
102
{ACAD_XDICTIONARY
360
160
102
}
102
{ACAD_REACTORS
330
C3
102
}
330
C3
100
AcDbVisualStyle
  2
2dWireframe
 70
     4
177
     2
291
     0
 71
     0
176
     1
 72
     2
176
     1
 73
     0
176
     1
 90
        0
176
     1
 40
0.6
176
     1
 41
30.0
176
     1
 63
     7
421
 16777215
176
     1
 74
     1
176
     1
 91
        4
176
     1
 64
     7
176
     1
 65
   257
176
     1
 75
     1
176
     1
175
     1
176
     1
 42
1.0
176
     1
 92
        0
176
     1
 66
   257
176
     1
 43
1.0
176
     1
 76
     1
176
     1
 77
     6
176
     1
 78
     2
176
     1
 67
     7
176
     1
 79
     5
176
     1
170
     0
176
     1
171
     0
176
     1
290
     0
176
     1
 93
        1
176
     1
 44
0.0
176
     1
173
     0
176
     1
1001
ACAD
1000
AcDbSavedByObjectVersion
1070
     0
  0
VISUALSTYLE
  5
C8
102
{ACAD_XDICTIONARY
360
15E
102
}
102
{ACAD_REACTORS
330
C3
102
}
330
C3
100
AcDbVisualStyle
  2
Basic
 70
     7
177
     2
291
     1
 71
     1
176
     1
 72
     0
176
     1
 73
     1
176
     1
 90
        0
176
     1
 40
0.6
176
     1
 41
30.0
176
     1
 63
     7
421
 16777215
176
     1
 74
     0
176
     1
 91
        4
176
     1
 64
     7
176
     1
 65
   257
176
     1
 75
     1
176
     1
175
     1
176
     1
 42
1.0
176
     1
 92
        8
176
     1
 66
     7
176
     1
 43
1.0
176
     1
 76
     1
176
     1
 77
     6
176
     1
 78
     2
176
     1
 67
     7
176
     1
 79
     5
176
     1
170
     0
176
     1
171
     0
176
     1
290
     0
176
     1
 93
        1
176
     1
 44
0.0
176
     1
173
     0
176
     1
1001
ACAD
1000
AcDbSavedByObjectVersion
1070
     0
  0
VISUALSTYLE
  5
CF
102
{ACAD_XDICTIONARY
360
16C
102
}
102
{ACAD_REACTORS
330
C3
102
}
330
C3
100
AcDbVisualStyle
  2
Brighten
 70
    12
177
     2
291
     1
 71
     2
176
     1
 72
     2
176
     1
 73
     0
176
     1
 90
        0
176
     1
 40
0.6
176
     1
 41
30.0
176
     1
 63
     7
421
 16777215
176
     1
 74
     1
176
     1
 91
        4
176
     1
 64
     7
176
     1
 65
   257
176
     1
 75
     1
176
     1
175
     1
176
     1
 42
1.0
176
     1
 92
        8
176
     1
 66
     7
176
     1
 43
1.0
176
     1
 76
     1
176
     1
 77
     6
176
     1
 78
     2
176
     1
 67
     7
176
     1
 79
     5
176
     1
170
     0
176
     1
171
     0
176
     1
290
     0
176
     1
 93
        1
176
     1
 44
50.0
176
     1
173
     0
176
     1
1001
ACAD
1000
AcDbSavedByObjectVersion
1070
     0
  0
VISUALSTYLE
  5
D3
102
{ACAD_XDICTIONARY
360
174
102
}
102
{ACAD_REACTORS
330
C3
102
}
330
C3
100
AcDbVisualStyle
  2
ColorChange
 70
    16
177
     2
291
     1
 71
     2
176
     1
 72
     2
176
     1
 73
     3
176
     1
 90
        0
176
     1
 40
0.6
176
     1
 41
30.0
176
     1
 63
     8
421
  8421504
176
     1
 74
     1
176
     1
 91
        4
176
     1
 64
     7
176
     1
 65
   257
176
     1
 75
     1
176
     1
175
     1
176
     1
 42
1.0
176
     1
 92
        8
176
     1
 66
     8
424
  8421504
176
     1
 43
1.0
176
     1
 76
     1
176
     1
 77
     6
176
     1
 78
     2
176
     1
 67
     7
176
     1
 79
     5
176
     1
170
     0
176
     1
171
     0
176
     1
290
     0
176
     1
 93
        1
176
     1
 44
0.0
176
     1
173
     0
176
     1
1001
ACAD
1000
AcDbSavedByObjectVersion
1070
     0
  0
VISUALSTYLE
  5
CC
102
{ACAD_XDICTIONARY
360
166
102
}
102
{ACAD_REACTORS
330
C3
102
}
330
C3
100
AcDbVisualStyle
  2
Conceptual
 70
     9
177
     2
291
     0
 71
     3
176
     1
 72
     2
176
     1
 73
     0
176
     1
 90
        0
176
     1
 40
0.6
176
     1
 41
30.0
176
     1
 63
     7
421
 16777215
176
     1
 74
     2
176
     1
 91
        2
176
     1
 64
     7
176
     1
 65
   257
176
     1
 75
     1
176
     1
175
     1
176
     1
 42
179.0
176
     1
 92
        8
176
     1
 66
     7
176
     1
 43
1.0
176
     1
 76
     1
176
     1
 77
     6
176
     1
 78
     2
176
     1
 67
     7
176
     1
 79
     3
176
     1
170
     0
176
     1
171
     0
176
     1
290
     0
176
     1
 93
        1
176
     1
 44
0.0
176
     1
173
     0
176
     1
1001
ACAD
1000
AcDbSavedByObjectVersion
1070
     0
  0
VISUALSTYLE
  5
CE
102
{ACAD_XDICTIONARY
360
16A
102
}
102
{ACAD_REACTORS
330
C3
102
}
330
C3
100
AcDbVisualStyle
  2
Dim
 70
    11
177
     2
291
     1
 71
     2
176
     1
 72
     2
176
     1
 73
     0
176
     1
 90
        0
176
     1
 40
0.6
176
     1
 41
30.0
176
     1
 63
     7
421
 16777215
176
     1
 74
     1
176
     1
 91
        4
176
     1
 64
     7
176
     1
 65
   257
176
     1
 75
     1
176
     1
175
     1
176
     1
 42
1.0
176
     1
 92
        8
176
     1
 66
     7
176
     1
 43
1.0
176
     1
 76
     1
176
     1
 77
     6
176
     1
 78
     2
176
     1
 67
     7
176
     1
 79
     5
176
     1
170
     0
176
     1
171
     0
176
     1
290
     0
176
     1
 93
        1
176
     1
 44
-50.0
176
     1
173
     0
176
     1
1001
ACAD
1000
AcDbSavedByObjectVersion
1070
     0
  0
VISUALSTYLE
  5
DB
102
{ACAD_XDICTIONARY
360
184
102
}
102
{ACAD_REACTORS
330
C3
102
}
330
C3
100
AcDbVisualStyle
  2
EdgeColorOff
 70
    22
177
     2
291
     1
 71
     2
176
     0
 72
     2
176
     0
 73
     0
176
     0
 90
        0
176
     0
 40
0.6
176
     0
 41
30.0
176
     0
 63
     7
421
 16777215
176
     0
 74
     1
176
     0
 91
        4
176
     0
 64
     7
176
     0
 65
   257
176
     0
 75
     1
176
     0
175
     1
176
     0
 42
1.0
176
     0
 92
        8
176
     2
 66
     7
176
     0
 43
1.0
176
     0
 76
     1
176
     0
 77
     6
176
     0
 78
     2
176
     0
 67
     7
176
     0
 79
     5
176
     0
170
     0
176
     0
171
     0
176
     0
290
     0
176
     0
 93
        1
176
     0
 44
0.0
176
     0
173
     0
176
     0
1001
ACAD
1000
AcDbSavedByObjectVersion
1070
     0
  0
VISUALSTYLE
  5
D2
102
{ACAD_XDICTIONARY
360
172
102
}
102
{ACAD_REACTORS
330
C3
102
}
330
C3
100
AcDbVisualStyle
  2
Facepattern
 70
    15
177
     2
291
     1
 71
     2
176
     1
 72
     2
176
     1
 73
     0
176
     1
 90
        0
176
     1
 40
0.6
176
     1
 41
30.0
176
     1
 63
     7
421
 16777215
176
     1
 74
     1
176
     1
 91
        4
176
     1
 64
     7
176
     1
 65
   257
176
     1
 75
     1
176
     1
175
     1
176
     1
 42
1.0
176
     1
 92
        8
176
     1
 66
     7
176
     1
 43
1.0
176
     1
 76
     1
176
     1
 77
     6
176
     1
 78
     2
176
     1
 67
     7
176
     1
 79
     5
176
     1
170
     0
176
     1
171
     0
176
     1
290
     0
176
     1
 93
        1
176
     1
 44
0.0
176
     1
173
     0
176
     1
1001
ACAD
1000
AcDbSavedByObjectVersion
1070
     0
  0
VISUALSTYLE
  5
C4
102
{ACAD_XDICTIONARY
360
156
102
}
102
{ACAD_REACTORS
330
C3
102
}
330
C3
100
AcDbVisualStyle
  2
Flat
 70
     0
177
     2
291
     1
 71
     2
176
     1
 72
     1
176
     1
 73
     1
176
     1
 90
        2
176
     1
 40
0.6
176
     1
 41
30.0
176
     1
 63
     7
421
 16777215
176
     1
 74
     0
176
     1
 91
        0
176
     1
 64
     7
176
     1
 65
   257
176
     1
 75
     1
176
     1
175
     1
176
     1
 42
1.0
176
     1
 92
        8
176
     1
 66
     7
176
     1
 43
1.0
176
     1
 76
     1
176
     1
 77
     6
176
     1
 78
     2
176
     1
 67
     7
176
     1
 79
     5
176
     1
170
     0
176
     1
171
     0
176
     1
290
     0
176
     1
 93
       13
176
     1
 44
0.0
176
     1
173
     0
176
     1
1001
ACAD
1000
AcDbSavedByObjectVersion
1070
     0
  0
VISUALSTYLE
  5
C5
102
{ACAD_XDICTIONARY
360
158
102
}
102
{ACAD_REACTORS
330
C3
102
}
330
C3
100
AcDbVisualStyle
  2
FlatWithEdges
 70
     1
177
     2
291
     1
 71
     2
176
     1
 72
     1
176
     1
 73
     1
176
     1
 90
        2
176
     1
 40
0.6
176
     1
 41
30.0
176
     1
 63
     7
421
 16777215
176
     1
 74
     1
176
     1
 91
        0
176
     1
 64
     7
176
     1
 65
   257
176
     1
 75
     1
176
     1
175
     1
176
     1
 42
1.0
176
     1
 92
        0
176
     1
 66
   257
176
     1
 43
1.0
176
     1
 76
     1
176
     1
 77
     6
176
     1
 78
     2
176
     1
 67
     7
176
     1
 79
     5
176
     1
170
     0
176
     1
171
     0
176
     1
290
     0
176
     1
 93
       13
176
     1
 44
0.0
176
     1
173
     0
176
     1
1001
ACAD
1000
AcDbSavedByObjectVersion
1070
     0
  0
VISUALSTYLE
  5
C6
102
{ACAD_XDICTIONARY
360
15A
102
}
102
{ACAD_REACTORS
330
C3
102
}
330
C3
100
AcDbVisualStyle
  2
Gouraud
 70
     2
177
     2
291
     1
 71
     2
176
     1
 72
     2
176
     1
 73
     1
176
     1
 90
        2
176
     1
 40
0.6
176
     1
 41
30.0
176
     1
 63
     7
421
 16777215
176
     1
 74
     0
176
     1
 91
        0
176
     1
 64
     7
176
     1
 65
   257
176
     1
 75
     1
176
     1
175
     1
176
     1
 42
1.0
176
     1
 92
        0
176
     1
 66
     7
176
     1
 43
1.0
176
     1
 76
     1
176
     1
 77
     6
176
     1
 78
     2
176
     1
 67
     7
176
     1
 79
     5
176
     1
170
     0
176
     1
171
     0
176
     1
290
     0
176
     1
 93
       13
176
     1
 44
0.0
176
     1
173
     0
176
     1
1001
ACAD
1000
AcDbSavedByObjectVersion
1070
     0
  0
VISUALSTYLE
  5
C7
102
{ACAD_XDICTIONARY
360
15C
102
}
102
{ACAD_REACTORS
330
C3
102
}
330
C3
100
AcDbVisualStyle
  2
GouraudWithEdges
 70
     3
177
     2
291
     1
 71
     2
176
     1
 72
     2
176
     1
 73
     1
176
     1
 90
        2
176
     1
 40
0.6
176
     1
 41
30.0
176
     1
 63
     7
421
 16777215
176
     1
 74
     1
176
     1
 91
        0
176
     1
 64
     7
176
     1
 65
   257
176
     1
 75
     1
176
     1
175
     1
176
     1
 42
1.0
176
     1
 92
        0
176
     1
 66
   257
176
     1
 43
1.0
176
     1
 76
     1
176
     1
 77
     6
176
     1
 78
     2
176
     1
 67
     7
176
     1
 79
     5
176
     1
170
     0
176
     1
171
     0
176
     1
290
     0
176
     1
 93
       13
176
     1
 44
0.0
176
     1
173
     0
176
     1
1001
ACAD
1000
AcDbSavedByObjectVersion
1070
     0
  0
VISUALSTYLE
  5
CB
102
{ACAD_XDICTIONARY
360
164
102
}
102
{ACAD_REACTORS
330
C3
102
}
330
C3
100
AcDbVisualStyle
  2
Hidden
 70
     6
177
     2
291
     0
 71
     1
176
     1
 72
     2
176
     1
 73
     2
176
     1
 90
        0
176
     1
 40
0.6
176
     1
 41
30.0
176
     1
 63
     7
421
 16777215
176
     1
 74
     2
176
     1
 91
        2
176
     1
 64
     7
176
     1
 65
   257
176
     1
 75
     2
176
     1
175
     1
176
     1
 42
40.0
176
     1
 92
        0
176
     1
 66
   257
176
     1
 43
1.0
176
     1
 76
     1
176
     1
 77
     6
176
     1
 78
     2
176
     1
 67
     7
176
     1
 79
     3
176
     1
170
     0
176
     1
171
     0
176
     1
290
     0
176
     1
 93
        1
176
     1
 44
0.0
176
     1
173
     0
176
     1
1001
ACAD
1000
AcDbSavedByObjectVersion
1070
     0
  0
VISUALSTYLE
  5
D9
102
{ACAD_XDICTIONARY
360
180
102
}
102
{ACAD_REACTORS
330
C3
102
}
330
C3
100
AcDbVisualStyle
  2
JitterOff
 70
    20
177
     2
291
     1
 71
     2
176
     0
 72
     2
176
     0
 73
     0
176
     0
 90
        0
176
     0
 40
0.6
176
     0
 41
30.0
176
     0
 63
     7
421
 16777215
176
     0
 74
     1
176
     0
 91
        4
176
     0
 64
     7
176
     0
 65
   257
176
     0
 75
     1
176
     0
175
     1
176
     0
 42
1.0
176
     0
 92
       10
176
     2
 66
     7
176
     0
 43
1.0
176
     0
 76
     1
176
     0
 77
     6
176
     0
 78
     2
176
     0
 67
     7
176
     0
 79
     5
176
     0
170
     0
176
     0
171
     0
176
     0
290
     0
176
     0
 93
        1
176
     0
 44
0.0
176
     0
173
     0
176
     0
1001
ACAD
1000
AcDbSavedByObjectVersion
1070
     0
  0
VISUALSTYLE
  5
D1
102
{ACAD_XDICTIONARY
360
170
102
}
102
{ACAD_REACTORS
330
C3
102
}
330
C3
100
AcDbVisualStyle
  2
Linepattern
 70
    14
177
     2
291
     1
 71
     2
176
     1
 72
     2
176
     1
 73
     0
176
     1
 90
        0
176
     1
 40
0.6
176
     1
 41
30.0
176
     1
 63
     7
421
 16777215
176
     1
 74
     1
176
     1
 91
        4
176
     1
 64
     7
176
     1
 65
   257
176
     1
 75
     7
176
     1
175
     7
176
     1
 42
1.0
176
     1
 92
        8
176
     1
 66
     7
176
     1
 43
1.0
176
     1
 76
     1
176
     1
 77
     6
176
     1
 78
     2
176
     1
 67
     7
176
     1
 79
     5
176
     1
170
     0
176
     1
171
     0
176
     1
290
     0
176
     1
 93
        1
176
     1
 44
0.0
176
     1
173
     0
176
     1
1001
ACAD
1000
AcDbSavedByObjectVersion
1070
     0
  0
VISUALSTYLE
  5
DA
102
{ACAD_XDICTIONARY
360
182
102
}
102
{ACAD_REACTORS
330
C3
102
}
330
C3
100
AcDbVisualStyle
  2
OverhangOff
 70
    21
177
     2
291
     1
 71
     2
176
     0
 72
     2
176
     0
 73
     0
176
     0
 90
        0
176
     0
 40
0.6
176
     0
 41
30.0
176
     0
 63
     7
421
 16777215
176
     0
 74
     1
176
     0
 91
        4
176
     0
 64
     7
176
     0
 65
   257
176
     0
 75
     1
176
     0
175
     1
176
     0
 42
1.0
176
     0
 92
        9
176
     2
 66
     7
176
     0
 43
1.0
176
     0
 76
     1
176
     0
 77
     6
176
     0
 78
     2
176
     0
 67
     7
176
     0
 79
     5
176
     0
170
     0
176
     0
171
     0
176
     0
290
     0
176
     0
 93
        1
176
     0
 44
0.0
176
     0
173
     0
176
     0
1001
ACAD
1000
AcDbSavedByObjectVersion
1070
     0
  0
VISUALSTYLE
  5
CD
102
{ACAD_XDICTIONARY
360
168
102
}
102
{ACAD_REACTORS
330
C3
102
}
330
C3
100
AcDbVisualStyle
  2
Realistic
 70
     8
177
     2
291
     0
 71
     2
176
     1
 72
     3
176
     1
 73
     0
176
     1
 90
        2
176
     1
 40
0.6
176
     1
 41
30.0
176
     1
 63
     7
421
 16777215
176
     1
 74
     0
176
     1
 91
        0
176
     1
 64
     7
176
     1
 65
   257
176
     1
 75
     1
176
     1
175
     1
176
     1
 42
1.0
176
     1
 92
        8
176
     1
 66
   257
176
     1
 43
1.0
176
     1
 76
     1
176
     1
 77
     6
176
     1
 78
     2
176
     1
 67
     7
176
     1
 79
     3
176
     1
170
     0
176
     1
171
     0
176
     1
290
     0
176
     1
 93
       13
176
     1
 44
0.0
176
     1
173
     0
176
     1
1001
ACAD
1000
AcDbSavedByObjectVersion
1070
     0
  0
VISUALSTYLE
  5
D8
102
{ACAD_XDICTIONARY
360
17E
102
}
102
{ACAD_REACTORS
330
C3
102
}
330
C3
100
AcDbVisualStyle
  2
Shaded
 70
    27
177
     2
291
     0
 71
     2
176
     1
 72
     2
176
     1
 73
     1
176
     1
 90
        2
176
     1
 40
0.6
176
     1
 41
30.0
176
     1
 63
     7
421
 16777215
176
     1
 74
     0
176
     1
 91
        4
176
     1
 64
     7
176
     1
 65
   257
176
     1
 75
     1
176
     1
175
     1
176
     1
 42
1.0
176
     1
 92
        8
176
     1
 66
   257
176
     1
 43
1.0
176
     1
 76
     1
176
     1
 77
     6
176
     1
 78
     2
176
     1
 67
     8
425
  7895160
176
     1
 79
     3
176
     1
170
     0
176
     1
171
     0
176
     1
290
     0
176
     1
 93
        5
176
     1
 44
0.0
176
     1
173
     0
176
     1
1001
ACAD
1000
AcDbSavedByObjectVersion
1070
     0
  0
VISUALSTYLE
  5
D7
102
{ACAD_XDICTIONARY
360
17C
102
}
102
{ACAD_REACTORS
330
C3
102
}
330
C3
100
AcDbVisualStyle
  2
Shaded with edges
 70
    26
177
     2
291
     0
 71
     2
176
     1
 72
     2
176
     1
 73
     1
176
     1
 90
        2
176
     1
 40
0.6
176
     1
 41
30.0
176
     1
 63
     7
421
 16777215
176
     1
 74
     1
176
     1
 91
       10
176
     1
 64
     7
176
     1
 65
   257
176
     1
 75
     2
176
     1
175
     1
176
     1
 42
1.0
176
     1
 92
        8
176
     1
 66
   257
176
     1
 43
1.0
176
     1
 76
     1
176
     1
 77
     6
176
     1
 78
     2
176
     1
 67
     7
176
     1
 79
     3
176
     1
170
     0
176
     1
171
     0
176
     1
290
     0
176
     1
 93
        5
176
     1
 44
0.0
176
     1
173
     0
176
     1
1001
ACAD
1000
AcDbSavedByObjectVersion
1070
     0
  0
VISUALSTYLE
  5
D4
102
{ACAD_XDICTIONARY
360
176
102
}
102
{ACAD_REACTORS
330
C3
102
}
330
C3
100
AcDbVisualStyle
  2
Shades of Gray
 70
    23
177
     2
291
     0
 71
     2
176
     1
 72
     2
176
     1
 73
     3
176
     1
 90
        0
176
     1
 40
0.6
176
     1
 41
30.0
176
     1
 63
     7
421
 16777215
176
     1
 74
     2
176
     1
 91
        2
176
     1
 64
     7
176
     1
 65
     7
176
     1
 75
     1
176
     1
175
     1
176
     1
 42
40.0
176
     1
 92
        8
176
     1
 66
     7
176
     1
 43
1.0
176
     1
 76
     1
176
     1
 77
     6
176
     1
 78
     2
176
     1
 67
     7
176
     1
 79
     3
176
     1
170
     0
176
     1
171
     0
176
     1
290
     0
176
     1
 93
        1
176
     1
 44
0.0
176
     1
173
     0
176
     1
1001
ACAD
1000
AcDbSavedByObjectVersion
1070
     0
  0
VISUALSTYLE
  5
D5
102
{ACAD_XDICTIONARY
360
178
102
}
102
{ACAD_REACTORS
330
C3
102
}
330
C3
100
AcDbVisualStyle
  2
Sketchy
 70
    24
177
     2
291
     0
 71
     1
176
     1
 72
     2
176
     1
 73
     2
176
     1
 90
        0
176
     1
 40
0.6
176
     1
 41
30.0
176
     1
 63
     7
421
 16777215
176
     1
 74
     2
176
     1
 91
        2
176
     1
 64
     7
176
     1
 65
     7
176
     1
 75
     1
176
     1
175
     1
176
     1
 42
40.0
176
     1
 92
       11
176
     1
 66
     7
176
     1
 43
1.0
176
     1
 76
     1
176
     1
 77
     6
176
     1
 78
     2
176
     1
 67
     7
176
     1
 79
     6
176
     1
170
     0
176
     1
171
     0
176
     1
290
     0
176
     1
 93
        1
176
     1
 44
0.0
176
     1
173
     0
176
     1
1001
ACAD
1000
AcDbSavedByObjectVersion
1070
     0
  0
VISUALSTYLE
  5
D0
102
{ACAD_XDICTIONARY
360
16E
102
}
102
{ACAD_REACTORS
330
C3
102
}
330
C3
100
AcDbVisualStyle
  2
Thicken
 70
    13
177
     2
291
     1
 71
     2
176
     1
 72
     2
176
     1
 73
     0
176
     1
 90
        0
176
     1
 40
0.6
176
     1
 41
30.0
176
     1
 63
     7
421
 16777215
176
     1
 74
     1
176
     1
 91
        4
176
     1
 64
     7
176
     1
 65
   257
176
     1
 75
     1
176
     1
175
     1
176
     1
 42
1.0
176
     1
 92
       12
176
     1
 66
     7
176
     1
 43
1.0
176
     1
 76
     1
176
     1
 77
     6
176
     1
 78
     2
176
     1
 67
     7
176
     1
 79
     5
176
     1
170
     0
176
     1
171
     0
176
     1
290
     0
176
     1
 93
        1
176
     1
 44
0.0
176
     1
173
     0
176
     1
1001
ACAD
1000
AcDbSavedByObjectVersion
1070
     0
  0
VISUALSTYLE
  5
CA
102
{ACAD_XDICTIONARY
360
162
102
}
102
{ACAD_REACTORS
330
C3
102
}
330
C3
100
AcDbVisualStyle
  2
Wireframe
 70
     5
177
     2
291
     0
 71
     0
176
     1
 72
     2
176
     1
 73
     0
176
     1
 90
        0
176
     1
 40
0.6
176
     1
 41
30.0
176
     1
 63
     7
421
 16777215
176
     1
 74
     1
176
     1
 91
        4
176
     1
 64
     7
176
     1
 65
   257
176
     1
 75
     1
176
     1
175
     1
176
     1
 42
1.0
176
     1
 92
        0
176
     1
 66
   257
176
     1
 43
1.0
176
     1
 76
     1
176
     1
 77
     6
176
     1
 78
     2
176
     1
 67
     7
176
     1
 79
     3
176
     1
170
     0
176
     1
171
     0
176
     1
290
     0
176
     1
 93
        1
176
     1
 44
0.0
176
     1
173
     0
176
     1
1001
ACAD
1000
AcDbSavedByObjectVersion
1070
     0
  0
VISUALSTYLE
  5
D6
102
{ACAD_XDICTIONARY
360
17A
102
}
102
{ACAD_REACTORS
330
C3
102
}
330
C3
100
AcDbVisualStyle
  2
X-Ray
 70
    25
177
     2
291
     0
 71
     2
176
     1
 72
     2
176
     1
 73
     1
176
     1
 90
        1
176
     1
 40
0.5
176
     1
 41
30.0
176
     1
 63
     7
421
 16777215
176
     1
 74
     1
176
     1
 91
        0
176
     1
 64
     7
176
     1
 65
   257
176
     1
 75
     1
176
     1
175
     1
176
     1
 42
1.0
176
     1
 92
        8
176
     1
 66
     7
176
     1
 43
1.0
176
     1
 76
     1
176
     1
 77
     6
176
     1
 78
     2
176
     1
 67
     7
176
     1
 79
     3
176
     1
170
     0
176
     1
171
     0
176
     1
290
     0
176
     1
 93
       13
176
     1
 44
0.0
176
     1
173
     0
176
     1
1001
ACAD
1000
AcDbSavedByObjectVersion
1070
     0
  0
DICTIONARYVAR
  5
14F
102
{ACAD_REACTORS
330
149
102
}
330
149
100
DictionaryVariables
280
     0
  1
1:1
  0
DICTIONARYVAR
  5
14B
102
{ACAD_REACTORS
330
149
102
}
330
149
100
DictionaryVariables
280
     0
  1
STANDARD
  0
DICTIONARYVAR
  5
14A
102
{ACAD_REACTORS
330
149
102
}
330
149
100
DictionaryVariables
280
     0
  1
STANDARD
  0
DICTIONARYVAR
  5
14C
102
{ACAD_REACTORS
330
149
102
}
330
149
100
DictionaryVariables
280
     0
  1
Imperial24
  0
DICTIONARYVAR
  5
14D
102
{ACAD_REACTORS
330
149
102
}
330
149
100
DictionaryVariables
280
     0
  1
Imperial24
  0
DICTIONARYVAR
  5
151
102
{ACAD_REACTORS
330
149
102
}
330
149
100
DictionaryVariables
280
     0
  1
1
  0
DICTIONARYVAR
  5
152
102
{ACAD_REACTORS
330
149
102
}
330
149
100
DictionaryVariables
280
     0
  1
15
  0
DICTIONARYVAR
  5
150
102
{ACAD_REACTORS
330
149
102
}
330
149
100
DictionaryVariables
280
     0
  1
0
  0
DICTIONARYVAR
  5
14E
102
{ACAD_REACTORS
330
149
102
}
330
149
100
DictionaryVariables
280
     0
  1
0
  0
DICTIONARY
  5
18A
330
F6
100
AcDbDictionary
280
     1
281
     1
  3
ACAD_XREC_ROUNDTRIP
360
18B
  0
DICTIONARY
  5
B4
330
B3
100
AcDbDictionary
280
     1
281
     1
  3
BUMPTILE
360
B6
  3
DIFFUSETILE
360
B5
  3
OPACITYTILE
360
B9
  3
REFLECTIONTILE
360
B8
  3
REFRACTIONTILE
360
BA
  3
SPECULARTILE
360
B7
  0
DICTIONARY
  5
AC
330
AB
100
AcDbDictionary
280
     1
281
     1
  3
BUMPTILE
360
AE
  3
DIFFUSETILE
360
AD
  3
OPACITYTILE
360
B1
  3
REFLECTIONTILE
360
B0
  3
REFRACTIONTILE
360
B2
  3
SPECULARTILE
360
AF
  0
DICTIONARY
  5
BC
330
BB
100
AcDbDictionary
280
     1
281
     1
  3
BUMPTILE
360
BE
  3
DIFFUSETILE
360
BD
  3
OPACITYTILE
360
C1
  3
REFLECTIONTILE
360
C0
  3
REFRACTIONTILE
360
C2
  3
SPECULARTILE
360
BF
  0
DICTIONARY
  5
186
330
F2
100
AcDbDictionary
280
     1
281
     1
  3
ACAD_XREC_ROUNDTRIP
360
187
  0
DICTIONARY
  5
188
330
F4
100
AcDbDictionary
280
     1
281
     1
  3
ACAD_XREC_ROUNDTRIP
360
189
  0
DICTIONARY
  5
153
330
DE
100
AcDbDictionary
280
     1
281
     1
  3
ACAD_ROUNDTRIP_2008_TABLESTYLE_CELLSTYLEMAP
360
154
  0
DICTIONARY
  5
160
330
C9
100
AcDbDictionary
280
     1
281
     1
  3
ACAD_XREC_ROUNDTRIP
360
161
  0
DICTIONARY
  5
15E
330
C8
100
AcDbDictionary
280
     1
281
     1
  3
ACAD_XREC_ROUNDTRIP
360
15F
  0
DICTIONARY
  5
16C
330
CF
100
AcDbDictionary
280
     1
281
     1
  3
ACAD_XREC_ROUNDTRIP
360
16D
  0
DICTIONARY
  5
174
330
D3
100
AcDbDictionary
280
     1
281
     1
  3
ACAD_XREC_ROUNDTRIP
360
175
  0
DICTIONARY
  5
166
330
CC
100
AcDbDictionary
280
     1
281
     1
  3
ACAD_XREC_ROUNDTRIP
360
167
  0
DICTIONARY
  5
16A
330
CE
100
AcDbDictionary
280
     1
281
     1
  3
ACAD_XREC_ROUNDTRIP
360
16B
  0
DICTIONARY
  5
184
330
DB
100
AcDbDictionary
280
     1
281
     1
  3
ACAD_XREC_ROUNDTRIP
360
185
  0
DICTIONARY
  5
172
330
D2
100
AcDbDictionary
280
     1
281
     1
  3
ACAD_XREC_ROUNDTRIP
360
173
  0
DICTIONARY
  5
156
330
C4
100
AcDbDictionary
280
     1
281
     1
  3
ACAD_XREC_ROUNDTRIP
360
157
  0
DICTIONARY
  5
158
330
C5
100
AcDbDictionary
280
     1
281
     1
  3
ACAD_XREC_ROUNDTRIP
360
159
  0
DICTIONARY
  5
15A
330
C6
100
AcDbDictionary
280
     1
281
     1
  3
ACAD_XREC_ROUNDTRIP
360
15B
  0
DICTIONARY
  5
15C
330
C7
100
AcDbDictionary
280
     1
281
     1
  3
ACAD_XREC_ROUNDTRIP
360
15D
  0
DICTIONARY
  5
164
330
CB
100
AcDbDictionary
280
     1
281
     1
  3
ACAD_XREC_ROUNDTRIP
360
165
  0
DICTIONARY
  5
180
330
D9
100
AcDbDictionary
280
     1
281
     1
  3
ACAD_XREC_ROUNDTRIP
360
181
  0
DICTIONARY
  5
170
330
D1
100
AcDbDictionary
280
     1
281
     1
  3
ACAD_XREC_ROUNDTRIP
360
171
  0
DICTIONARY
  5
182
330
DA
100
AcDbDictionary
280
     1
281
     1
  3
ACAD_XREC_ROUNDTRIP
360
183
  0
DICTIONARY
  5
168
330
CD
100
AcDbDictionary
280
     1
281
     1
  3
ACAD_XREC_ROUNDTRIP
360
169
  0
DICTIONARY
  5
17E
330
D8
100
AcDbDictionary
280
     1
281
     1
  3
ACAD_XREC_ROUNDTRIP
360
17F
  0
DICTIONARY
  5
17C
330
D7
100
AcDbDictionary
280
     1
281
     1
  3
ACAD_XREC_ROUNDTRIP
360
17D
  0
DICTIONARY
  5
176
330
D4
100
AcDbDictionary
280
     1
281
     1
  3
ACAD_XREC_ROUNDTRIP
360
177
  0
DICTIONARY
  5
178
330
D5
100
AcDbDictionary
280
     1
281
     1
  3
ACAD_XREC_ROUNDTRIP
360
179
  0
DICTIONARY
  5
16E
330
D0
100
AcDbDictionary
280
     1
281
     1
  3
ACAD_XREC_ROUNDTRIP
360
16F
  0
DICTIONARY
  5
162
330
CA
100
AcDbDictionary
280
     1
281
     1
  3
ACAD_XREC_ROUNDTRIP
360
163
  0
DICTIONARY
  5
17A
330
D6
100
AcDbDictionary
280
     1
281
     1
  3
ACAD_XREC_ROUNDTRIP
360
17B
  0
XRECORD
  5
18B
102
{ACAD_REACTORS
330
18A
102
}
330
18A
100
AcDbXrecord
280
     1
102
DISPLAYNAME
  1
Imperial24
102
FLAGS
 90
        0
  0
XRECORD
  5
B6
102
{ACAD_REACTORS
330
B4
102
}
330
B4
100
AcDbXrecord
280
     1
270
     1
271
     1
  0
XRECORD
  5
B5
102
{ACAD_REACTORS
330
B4
102
}
330
B4
100
AcDbXrecord
280
     1
270
     1
271
     1
  0
XRECORD
  5
B9
102
{ACAD_REACTORS
330
B4
102
}
330
B4
100
AcDbXrecord
280
     1
270
     1
271
     1
  0
XRECORD
  5
B8
102
{ACAD_REACTORS
330
B4
102
}
330
B4
100
AcDbXrecord
280
     1
270
     1
271
     1
  0
XRECORD
  5
BA
102
{ACAD_REACTORS
330
B4
102
}
330
B4
100
AcDbXrecord
280
     1
270
     1
271
     1
  0
XRECORD
  5
B7
102
{ACAD_REACTORS
330
B4
102
}
330
B4
100
AcDbXrecord
280
     1
270
     1
271
     1
  0
XRECORD
  5
AE
102
{ACAD_REACTORS
330
AC
102
}
330
AC
100
AcDbXrecord
280
     1
270
     1
271
     1
  0
XRECORD
  5
AD
102
{ACAD_REACTORS
330
AC
102
}
330
AC
100
AcDbXrecord
280
     1
270
     1
271
     1
  0
XRECORD
  5
B1
102
{ACAD_REACTORS
330
AC
102
}
330
AC
100
AcDbXrecord
280
     1
270
     1
271
     1
  0
XRECORD
  5
B0
102
{ACAD_REACTORS
330
AC
102
}
330
AC
100
AcDbXrecord
280
     1
270
     1
271
     1
  0
XRECORD
  5
B2
102
{ACAD_REACTORS
330
AC
102
}
330
AC
100
AcDbXrecord
280
     1
270
     1
271
     1
  0
XRECORD
  5
AF
102
{ACAD_REACTORS
330
AC
102
}
330
AC
100
AcDbXrecord
280
     1
270
     1
271
     1
  0
XRECORD
  5
BE
102
{ACAD_REACTORS
330
BC
102
}
330
BC
100
AcDbXrecord
280
     1
270
     1
271
     1
  0
XRECORD
  5
BD
102
{ACAD_REACTORS
330
BC
102
}
330
BC
100
AcDbXrecord
280
     1
270
     1
271
     1
  0
XRECORD
  5
C1
102
{ACAD_REACTORS
330
BC
102
}
330
BC
100
AcDbXrecord
280
     1
270
     1
271
     1
  0
XRECORD
  5
C0
102
{ACAD_REACTORS
330
BC
102
}
330
BC
100
AcDbXrecord
280
     1
270
     1
271
     1
  0
XRECORD
  5
C2
102
{ACAD_REACTORS
330
BC
102
}
330
BC
100
AcDbXrecord
280
     1
270
     1
271
     1
  0
XRECORD
  5
BF
102
{ACAD_REACTORS
330
BC
102
}
330
BC
100
AcDbXrecord
280
     1
270
     1
271
     1
  0
XRECORD
  5
187
102
{ACAD_REACTORS
330
186
102
}
330
186
100
AcDbXrecord
280
     1
102
ACAD_ROUNDTRIP_2012_MLEADER_STYLE
298
     1
  0
XRECORD
  5
189
102
{ACAD_REACTORS
330
188
102
}
330
188
100
AcDbXrecord
280
     1
102
DISPLAYNAME
  1
Imperial24
102
FLAGS
 90
        0
  0
CELLSTYLEMAP
  5
154
102
{ACAD_REACTORS
330
153
102
}
330
153
100
AcDbCellStyleMap
 90
        3
300
CELLSTYLE
  1
TABLEFORMAT_BEGIN
 90
        5
170
     1
 91
        0
 92
    32768
 62
   257
 93
        1
300
CONTENTFORMAT
  1
CONTENTFORMAT_BEGIN
 90
        0
 91
        0
 92
      512
 93
        0
300

 40
0.0
140
1.0
 94
        5
 62
     0
340
11
144
0.25
309
CONTENTFORMAT_END
171
     0
 94
        0
309
TABLEFORMAT_END
  1
CELLSTYLE_BEGIN
 90
        1
 91
        1
300
_TITLE
309
CELLSTYLE_END
300
CELLSTYLE
  1
TABLEFORMAT_BEGIN
 90
        5
170
     1
 91
        0
 92
        0
 62
   257
 93
        1
300
CONTENTFORMAT
  1
CONTENTFORMAT_BEGIN
 90
        0
 91
        0
 92
      512
 93
        0
300

 40
0.0
140
1.0
 94
        5
 62
     0
340
11
144
0.18
309
CONTENTFORMAT_END
171
     0
 94
        0
309
TABLEFORMAT_END
  1
CELLSTYLE_BEGIN
 90
        2
 91
        1
300
_HEADER
309
CELLSTYLE_END
300
CELLSTYLE
  1
TABLEFORMAT_BEGIN
 90
        5
170
     1
 91
        0
 92
        0
 62
   257
 93
        1
300
CONTENTFORMAT
  1
CONTENTFORMAT_BEGIN
 90
        0
 91
        0
 92
      512
 93
        0
300

 40
0.0
140
1.0
 94
        2
 62
     0
340
11
144
0.18
309
CONTENTFORMAT_END
171
     0
 94
        0
309
TABLEFORMAT_END
  1
CELLSTYLE_BEGIN
 90
        3
 91
        2
300
_DATA
309
CELLSTYLE_END
  0
XRECORD
  5
161
102
{ACAD_REACTORS
330
160
102
}
330
160
100
AcDbXrecord
280
     1
102
RTVSPost2010Prop28
280
     1
102
RTVSPost2010PropOp28
 70
     1
102
RTVSPost2010Prop29
280
     1
102
RTVSPost2010PropOp29
 70
     1
102
RTVSPost2010Prop30
280
     0
102
RTVSPost2010PropOp30
 70
     1
102
RTVSPost2010Prop31
280
     0
102
RTVSPost2010PropOp31
 70
     1
102
RTVSPost2010Prop32
280
     0
102
RTVSPost2010PropOp32
 70
     1
102
RTVSPost2010Prop33
280
     0
102
RTVSPost2010PropOp33
 70
     1
102
RTVSPost2010Prop34
280
     0
102
RTVSPost2010PropOp34
 70
     1
102
RTVSPost2010Prop35
280
     0
102
RTVSPost2010PropOp35
 70
     1
102
RTVSPost2010Prop36
280
     0
102
RTVSPost2010PropOp36
 70
     1
102
RTVSPost2010Prop37
 90
       50
102
RTVSPost2010PropOp37
 70
     1
102
RTVSPost2010Prop38
140
0.0
102
RTVSPost2010PropOp38
 70
     1
102
RTVSPost2010Prop39
140
1.0
102
RTVSPost2010PropOp39
 70
     1
102
RTVSPost2010Prop40
 90
        0
102
RTVSPost2010PropOp40
 70
     1
102
RTVSPost2010Prop41ColorIndex
 90
       18
102
RTVSPost2010Prop41ColorRGB
 90
        0
102
RTVSPost2010PropOp41
 70
     1
102
RTVSPost2010Prop42
 90
       50
102
RTVSPost2010PropOp42
 70
     1
102
RTVSPost2010Prop43
 90
        3
102
RTVSPost2010PropOp43
 70
     1
102
RTVSPost2010Prop44ColorIndex
 90
        5
102
RTVSPost2010Prop44ColorRGB
 90
      255
102
RTVSPost2010PropOp44
 70
     1
102
RTVSPost2010Prop45
280
     0
102
RTVSPost2010PropOp45
 70
     1
102
RTVSPost2010Prop46
 90
       50
102
RTVSPost2010PropOp46
 70
     1
102
RTVSPost2010Prop47
 90
       50
102
RTVSPost2010PropOp47
 70
     1
102
RTVSPost2010Prop48
 90
       50
102
RTVSPost2010PropOp48
 70
     1
102
RTVSPost2010Prop49
280
     0
102
RTVSPost2010PropOp49
 70
     1
102
RTVSPost2010Prop50
 90
       50
102
RTVSPost2010PropOp50
 70
     1
102
RTVSPost2010Prop51ColorIndex
 90
      256
102
RTVSPost2010Prop51ColorRGB
 90
-16777216
102
RTVSPost2010PropOp51
 70
     0
102
RTVSPost2010Prop52
140
1.0
102
RTVSPost2010PropOp52
 70
     0
102
RTVSPost2010Prop53
 90
        2
102
RTVSPost2010PropOp53
 70
     1
102
RTVSPost2010Prop54
  1
strokes_ogs.tif
102
RTVSPost2010PropOp54
 70
     1
102
RTVSPost2010Prop55
280
     0
102
RTVSPost2010PropOp55
 70
     1
102
RTVSPost2010Prop56
140
1.0
102
RTVSPost2010PropOp56
 70
     1
102
RTVSPost2010Prop57
140
1.0
102
RTVSPost2010PropOp57
 70
     1
  0
XRECORD
  5
15F
102
{ACAD_REACTORS
330
15E
102
}
330
15E
100
AcDbXrecord
280
     1
102
RTVSPost2010Prop28
280
     0
102
RTVSPost2010PropOp28
 70
     1
102
RTVSPost2010Prop29
280
     1
102
RTVSPost2010PropOp29
 70
     1
102
RTVSPost2010Prop30
280
     1
102
RTVSPost2010PropOp30
 70
     1
102
RTVSPost2010Prop31
280
     0
102
RTVSPost2010PropOp31
 70
     1
102
RTVSPost2010Prop32
280
     0
102
RTVSPost2010PropOp32
 70
     1
102
RTVSPost2010Prop33
280
     0
102
RTVSPost2010PropOp33
 70
     1
102
RTVSPost2010Prop34
280
     0
102
RTVSPost2010PropOp34
 70
     1
102
RTVSPost2010Prop35
280
     0
102
RTVSPost2010PropOp35
 70
     1
102
RTVSPost2010Prop36
280
     0
102
RTVSPost2010PropOp36
 70
     1
102
RTVSPost2010Prop37
 90
       50
102
RTVSPost2010PropOp37
 70
     1
102
RTVSPost2010Prop38
140
0.0
102
RTVSPost2010PropOp38
 70
     1
102
RTVSPost2010Prop39
140
1.0
102
RTVSPost2010PropOp39
 70
     1
102
RTVSPost2010Prop40
 90
        0
102
RTVSPost2010PropOp40
 70
     1
102
RTVSPost2010Prop41ColorIndex
 90
       18
102
RTVSPost2010Prop41ColorRGB
 90
        0
102
RTVSPost2010PropOp41
 70
     1
102
RTVSPost2010Prop42
 90
       50
102
RTVSPost2010PropOp42
 70
     1
102
RTVSPost2010Prop43
 90
        3
102
RTVSPost2010PropOp43
 70
     1
102
RTVSPost2010Prop44ColorIndex
 90
        5
102
RTVSPost2010Prop44ColorRGB
 90
      255
102
RTVSPost2010PropOp44
 70
     1
102
RTVSPost2010Prop45
280
     0
102
RTVSPost2010PropOp45
 70
     1
102
RTVSPost2010Prop46
 90
       50
102
RTVSPost2010PropOp46
 70
     1
102
RTVSPost2010Prop47
 90
       50
102
RTVSPost2010PropOp47
 70
     1
102
RTVSPost2010Prop48
 90
       50
102
RTVSPost2010PropOp48
 70
     1
102
RTVSPost2010Prop49
280
     0
102
RTVSPost2010PropOp49
 70
     1
102
RTVSPost2010Prop50
 90
       50
102
RTVSPost2010PropOp50
 70
     1
102
RTVSPost2010Prop51ColorIndex
 90
      256
102
RTVSPost2010Prop51ColorRGB
 90
-16777216
102
RTVSPost2010PropOp51
 70
     0
102
RTVSPost2010Prop52
140
1.0
102
RTVSPost2010PropOp52
 70
     0
102
RTVSPost2010Prop53
 90
        2
102
RTVSPost2010PropOp53
 70
     1
102
RTVSPost2010Prop54
  1
strokes_ogs.tif
102
RTVSPost2010PropOp54
 70
     1
102
RTVSPost2010Prop55
280
     0
102
RTVSPost2010PropOp55
 70
     1
102
RTVSPost2010Prop56
140
1.0
102
RTVSPost2010PropOp56
 70
     1
102
RTVSPost2010Prop57
140
1.0
102
RTVSPost2010PropOp57
 70
     1
  0
XRECORD
  5
16D
102
{ACAD_REACTORS
330
16C
102
}
330
16C
100
AcDbXrecord
280
     1
102
RTVSPost2010Prop28
280
     0
102
RTVSPost2010PropOp28
 70
     1
102
RTVSPost2010Prop29
280
     1
102
RTVSPost2010PropOp29
 70
     1
102
RTVSPost2010Prop30
280
     1
102
RTVSPost2010PropOp30
 70
     1
102
RTVSPost2010Prop31
280
     0
102
RTVSPost2010PropOp31
 70
     1
102
RTVSPost2010Prop32
280
     0
102
RTVSPost2010PropOp32
 70
     1
102
RTVSPost2010Prop33
280
     0
102
RTVSPost2010PropOp33
 70
     1
102
RTVSPost2010Prop34
280
     0
102
RTVSPost2010PropOp34
 70
     1
102
RTVSPost2010Prop35
280
     0
102
RTVSPost2010PropOp35
 70
     1
102
RTVSPost2010Prop36
280
     0
102
RTVSPost2010PropOp36
 70
     1
102
RTVSPost2010Prop37
 90
       50
102
RTVSPost2010PropOp37
 70
     1
102
RTVSPost2010Prop38
140
0.0
102
RTVSPost2010PropOp38
 70
     1
102
RTVSPost2010Prop39
140
1.0
102
RTVSPost2010PropOp39
 70
     1
102
RTVSPost2010Prop40
 90
        0
102
RTVSPost2010PropOp40
 70
     1
102
RTVSPost2010Prop41ColorIndex
 90
       18
102
RTVSPost2010Prop41ColorRGB
 90
        0
102
RTVSPost2010PropOp41
 70
     1
102
RTVSPost2010Prop42
 90
       50
102
RTVSPost2010PropOp42
 70
     1
102
RTVSPost2010Prop43
 90
        3
102
RTVSPost2010PropOp43
 70
     1
102
RTVSPost2010Prop44ColorIndex
 90
        5
102
RTVSPost2010Prop44ColorRGB
 90
      255
102
RTVSPost2010PropOp44
 70
     1
102
RTVSPost2010Prop45
280
     0
102
RTVSPost2010PropOp45
 70
     1
102
RTVSPost2010Prop46
 90
       50
102
RTVSPost2010PropOp46
 70
     1
102
RTVSPost2010Prop47
 90
       50
102
RTVSPost2010PropOp47
 70
     1
102
RTVSPost2010Prop48
 90
       50
102
RTVSPost2010PropOp48
 70
     1
102
RTVSPost2010Prop49
280
     0
102
RTVSPost2010PropOp49
 70
     1
102
RTVSPost2010Prop50
 90
       50
102
RTVSPost2010PropOp50
 70
     1
102
RTVSPost2010Prop51ColorIndex
 90
      256
102
RTVSPost2010Prop51ColorRGB
 90
-16777216
102
RTVSPost2010PropOp51
 70
     0
102
RTVSPost2010Prop52
140
1.0
102
RTVSPost2010PropOp52
 70
     0
102
RTVSPost2010Prop53
 90
        2
102
RTVSPost2010PropOp53
 70
     1
102
RTVSPost2010Prop54
  1
strokes_ogs.tif
102
RTVSPost2010PropOp54
 70
     1
102
RTVSPost2010Prop55
280
     0
102
RTVSPost2010PropOp55
 70
     1
102
RTVSPost2010Prop56
140
1.0
102
RTVSPost2010PropOp56
 70
     1
102
RTVSPost2010Prop57
140
1.0
102
RTVSPost2010PropOp57
 70
     1
  0
XRECORD
  5
175
102
{ACAD_REACTORS
330
174
102
}
330
174
100
AcDbXrecord
280
     1
102
RTVSPost2010Prop28
280
     0
102
RTVSPost2010PropOp28
 70
     1
102
RTVSPost2010Prop29
280
     1
102
RTVSPost2010PropOp29
 70
     1
102
RTVSPost2010Prop30
280
     1
102
RTVSPost2010PropOp30
 70
     1
102
RTVSPost2010Prop31
280
     0
102
RTVSPost2010PropOp31
 70
     1
102
RTVSPost2010Prop32
280
     0
102
RTVSPost2010PropOp32
 70
     1
102
RTVSPost2010Prop33
280
     0
102
RTVSPost2010PropOp33
 70
     1
102
RTVSPost2010Prop34
280
     0
102
RTVSPost2010PropOp34
 70
     1
102
RTVSPost2010Prop35
280
     0
102
RTVSPost2010PropOp35
 70
     1
102
RTVSPost2010Prop36
280
     0
102
RTVSPost2010PropOp36
 70
     1
102
RTVSPost2010Prop37
 90
       50
102
RTVSPost2010PropOp37
 70
     1
102
RTVSPost2010Prop38
140
0.0
102
RTVSPost2010PropOp38
 70
     1
102
RTVSPost2010Prop39
140
1.0
102
RTVSPost2010PropOp39
 70
     1
102
RTVSPost2010Prop40
 90
        0
102
RTVSPost2010PropOp40
 70
     1
102
RTVSPost2010Prop41ColorIndex
 90
       18
102
RTVSPost2010Prop41ColorRGB
 90
        0
102
RTVSPost2010PropOp41
 70
     1
102
RTVSPost2010Prop42
 90
       50
102
RTVSPost2010PropOp42
 70
     1
102
RTVSPost2010Prop43
 90
        3
102
RTVSPost2010PropOp43
 70
     1
102
RTVSPost2010Prop44ColorIndex
 90
        5
102
RTVSPost2010Prop44ColorRGB
 90
      255
102
RTVSPost2010PropOp44
 70
     1
102
RTVSPost2010Prop45
280
     0
102
RTVSPost2010PropOp45
 70
     1
102
RTVSPost2010Prop46
 90
       50
102
RTVSPost2010PropOp46
 70
     1
102
RTVSPost2010Prop47
 90
       50
102
RTVSPost2010PropOp47
 70
     1
102
RTVSPost2010Prop48
 90
       50
102
RTVSPost2010PropOp48
 70
     1
102
RTVSPost2010Prop49
280
     0
102
RTVSPost2010PropOp49
 70
     1
102
RTVSPost2010Prop50
 90
       50
102
RTVSPost2010PropOp50
 70
     1
102
RTVSPost2010Prop51ColorIndex
 90
      256
102
RTVSPost2010Prop51ColorRGB
 90
-16777216
102
RTVSPost2010PropOp51
 70
     0
102
RTVSPost2010Prop52
140
1.0
102
RTVSPost2010PropOp52
 70
     0
102
RTVSPost2010Prop53
 90
        2
102
RTVSPost2010PropOp53
 70
     1
102
RTVSPost2010Prop54
  1
strokes_ogs.tif
102
RTVSPost2010PropOp54
 70
     1
102
RTVSPost2010Prop55
280
     0
102
RTVSPost2010PropOp55
 70
     1
102
RTVSPost2010Prop56
140
1.0
102
RTVSPost2010PropOp56
 70
     1
102
RTVSPost2010Prop57
140
1.0
102
RTVSPost2010PropOp57
 70
     1
  0
XRECORD
  5
167
102
{ACAD_REACTORS
330
166
102
}
330
166
100
AcDbXrecord
280
     1
102
RTVSPost2010Prop28
280
     0
102
RTVSPost2010PropOp28
 70
     1
102
RTVSPost2010Prop29
280
     1
102
RTVSPost2010PropOp29
 70
     1
102
RTVSPost2010Prop30
280
     1
102
RTVSPost2010PropOp30
 70
     1
102
RTVSPost2010Prop31
280
     0
102
RTVSPost2010PropOp31
 70
     1
102
RTVSPost2010Prop32
280
     0
102
RTVSPost2010PropOp32
 70
     1
102
RTVSPost2010Prop33
280
     0
102
RTVSPost2010PropOp33
 70
     1
102
RTVSPost2010Prop34
280
     0
102
RTVSPost2010PropOp34
 70
     1
102
RTVSPost2010Prop35
280
     0
102
RTVSPost2010PropOp35
 70
     1
102
RTVSPost2010Prop36
280
     0
102
RTVSPost2010PropOp36
 70
     1
102
RTVSPost2010Prop37
 90
       50
102
RTVSPost2010PropOp37
 70
     1
102
RTVSPost2010Prop38
140
0.0
102
RTVSPost2010PropOp38
 70
     1
102
RTVSPost2010Prop39
140
1.0
102
RTVSPost2010PropOp39
 70
     1
102
RTVSPost2010Prop40
 90
        0
102
RTVSPost2010PropOp40
 70
     1
102
RTVSPost2010Prop41ColorIndex
 90
       18
102
RTVSPost2010Prop41ColorRGB
 90
        0
102
RTVSPost2010PropOp41
 70
     1
102
RTVSPost2010Prop42
 90
       50
102
RTVSPost2010PropOp42
 70
     1
102
RTVSPost2010Prop43
 90
        3
102
RTVSPost2010PropOp43
 70
     1
102
RTVSPost2010Prop44ColorIndex
 90
        5
102
RTVSPost2010Prop44ColorRGB
 90
      255
102
RTVSPost2010PropOp44
 70
     1
102
RTVSPost2010Prop45
280
     0
102
RTVSPost2010PropOp45
 70
     1
102
RTVSPost2010Prop46
 90
       50
102
RTVSPost2010PropOp46
 70
     1
102
RTVSPost2010Prop47
 90
       50
102
RTVSPost2010PropOp47
 70
     1
102
RTVSPost2010Prop48
 90
       50
102
RTVSPost2010PropOp48
 70
     1
102
RTVSPost2010Prop49
280
     0
102
RTVSPost2010PropOp49
 70
     1
102
RTVSPost2010Prop50
 90
       50
102
RTVSPost2010PropOp50
 70
     1
102
RTVSPost2010Prop51ColorIndex
 90
      256
102
RTVSPost2010Prop51ColorRGB
 90
-16777216
102
RTVSPost2010PropOp51
 70
     0
102
RTVSPost2010Prop52
140
1.0
102
RTVSPost2010PropOp52
 70
     0
102
RTVSPost2010Prop53
 90
        2
102
RTVSPost2010PropOp53
 70
     1
102
RTVSPost2010Prop54
  1
strokes_ogs.tif
102
RTVSPost2010PropOp54
 70
     1
102
RTVSPost2010Prop55
280
     0
102
RTVSPost2010PropOp55
 70
     1
102
RTVSPost2010Prop56
140
1.0
102
RTVSPost2010PropOp56
 70
     1
102
RTVSPost2010Prop57
140
1.0
102
RTVSPost2010PropOp57
 70
     1
  0
XRECORD
  5
16B
102
{ACAD_REACTORS
330
16A
102
}
330
16A
100
AcDbXrecord
280
     1
102
RTVSPost2010Prop28
280
     0
102
RTVSPost2010PropOp28
 70
     1
102
RTVSPost2010Prop29
280
     1
102
RTVSPost2010PropOp29
 70
     1
102
RTVSPost2010Prop30
280
     1
102
RTVSPost2010PropOp30
 70
     1
102
RTVSPost2010Prop31
280
     0
102
RTVSPost2010PropOp31
 70
     1
102
RTVSPost2010Prop32
280
     0
102
RTVSPost2010PropOp32
 70
     1
102
RTVSPost2010Prop33
280
     0
102
RTVSPost2010PropOp33
 70
     1
102
RTVSPost2010Prop34
280
     0
102
RTVSPost2010PropOp34
 70
     1
102
RTVSPost2010Prop35
280
     0
102
RTVSPost2010PropOp35
 70
     1
102
RTVSPost2010Prop36
280
     0
102
RTVSPost2010PropOp36
 70
     1
102
RTVSPost2010Prop37
 90
       50
102
RTVSPost2010PropOp37
 70
     1
102
RTVSPost2010Prop38
140
0.0
102
RTVSPost2010PropOp38
 70
     1
102
RTVSPost2010Prop39
140
1.0
102
RTVSPost2010PropOp39
 70
     1
102
RTVSPost2010Prop40
 90
        0
102
RTVSPost2010PropOp40
 70
     1
102
RTVSPost2010Prop41ColorIndex
 90
       18
102
RTVSPost2010Prop41ColorRGB
 90
        0
102
RTVSPost2010PropOp41
 70
     1
102
RTVSPost2010Prop42
 90
       50
102
RTVSPost2010PropOp42
 70
     1
102
RTVSPost2010Prop43
 90
        3
102
RTVSPost2010PropOp43
 70
     1
102
RTVSPost2010Prop44ColorIndex
 90
        5
102
RTVSPost2010Prop44ColorRGB
 90
      255
102
RTVSPost2010PropOp44
 70
     1
102
RTVSPost2010Prop45
280
     0
102
RTVSPost2010PropOp45
 70
     1
102
RTVSPost2010Prop46
 90
       50
102
RTVSPost2010PropOp46
 70
     1
102
RTVSPost2010Prop47
 90
       50
102
RTVSPost2010PropOp47
 70
     1
102
RTVSPost2010Prop48
 90
       50
102
RTVSPost2010PropOp48
 70
     1
102
RTVSPost2010Prop49
280
     0
102
RTVSPost2010PropOp49
 70
     1
102
RTVSPost2010Prop50
 90
       50
102
RTVSPost2010PropOp50
 70
     1
102
RTVSPost2010Prop51ColorIndex
 90
      256
102
RTVSPost2010Prop51ColorRGB
 90
-16777216
102
RTVSPost2010PropOp51
 70
     0
102
RTVSPost2010Prop52
140
1.0
102
RTVSPost2010PropOp52
 70
     0
102
RTVSPost2010Prop53
 90
        2
102
RTVSPost2010PropOp53
 70
     1
102
RTVSPost2010Prop54
  1
strokes_ogs.tif
102
RTVSPost2010PropOp54
 70
     1
102
RTVSPost2010Prop55
280
     0
102
RTVSPost2010PropOp55
 70
     1
102
RTVSPost2010Prop56
140
1.0
102
RTVSPost2010PropOp56
 70
     1
102
RTVSPost2010Prop57
140
1.0
102
RTVSPost2010PropOp57
 70
     1
  0
XRECORD
  5
185
102
{ACAD_REACTORS
330
184
102
}
330
184
100
AcDbXrecord
280
     1
102
RTVSPost2010Prop28
280
     0
102
RTVSPost2010PropOp28
 70
     0
102
RTVSPost2010Prop29
280
     1
102
RTVSPost2010PropOp29
 70
     0
102
RTVSPost2010Prop30
280
     1
102
RTVSPost2010PropOp30
 70
     0
102
RTVSPost2010Prop31
280
     0
102
RTVSPost2010PropOp31
 70
     0
102
RTVSPost2010Prop32
280
     0
102
RTVSPost2010PropOp32
 70
     0
102
RTVSPost2010Prop33
280
     0
102
RTVSPost2010PropOp33
 70
     0
102
RTVSPost2010Prop34
280
     0
102
RTVSPost2010PropOp34
 70
     0
102
RTVSPost2010Prop35
280
     0
102
RTVSPost2010PropOp35
 70
     0
102
RTVSPost2010Prop36
280
     0
102
RTVSPost2010PropOp36
 70
     0
102
RTVSPost2010Prop37
 90
       50
102
RTVSPost2010PropOp37
 70
     0
102
RTVSPost2010Prop38
140
0.0
102
RTVSPost2010PropOp38
 70
     0
102
RTVSPost2010Prop39
140
1.0
102
RTVSPost2010PropOp39
 70
     0
102
RTVSPost2010Prop40
 90
        0
102
RTVSPost2010PropOp40
 70
     0
102
RTVSPost2010Prop41ColorIndex
 90
       18
102
RTVSPost2010Prop41ColorRGB
 90
        0
102
RTVSPost2010PropOp41
 70
     0
102
RTVSPost2010Prop42
 90
       50
102
RTVSPost2010PropOp42
 70
     0
102
RTVSPost2010Prop43
 90
        3
102
RTVSPost2010PropOp43
 70
     0
102
RTVSPost2010Prop44ColorIndex
 90
        5
102
RTVSPost2010Prop44ColorRGB
 90
      255
102
RTVSPost2010PropOp44
 70
     0
102
RTVSPost2010Prop45
280
     0
102
RTVSPost2010PropOp45
 70
     0
102
RTVSPost2010Prop46
 90
       50
102
RTVSPost2010PropOp46
 70
     0
102
RTVSPost2010Prop47
 90
       50
102
RTVSPost2010PropOp47
 70
     0
102
RTVSPost2010Prop48
 90
       50
102
RTVSPost2010PropOp48
 70
     0
102
RTVSPost2010Prop49
280
     0
102
RTVSPost2010PropOp49
 70
     0
102
RTVSPost2010Prop50
 90
       50
102
RTVSPost2010PropOp50
 70
     0
102
RTVSPost2010Prop51ColorIndex
 90
      256
102
RTVSPost2010Prop51ColorRGB
 90
-16777216
102
RTVSPost2010PropOp51
 70
     0
102
RTVSPost2010Prop52
140
1.0
102
RTVSPost2010PropOp52
 70
     0
102
RTVSPost2010Prop53
 90
        2
102
RTVSPost2010PropOp53
 70
     0
102
RTVSPost2010Prop54
  1
strokes_ogs.tif
102
RTVSPost2010PropOp54
 70
     0
102
RTVSPost2010Prop55
280
     0
102
RTVSPost2010PropOp55
 70
     0
102
RTVSPost2010Prop56
140
1.0
102
RTVSPost2010PropOp56
 70
     0
102
RTVSPost2010Prop57
140
1.0
102
RTVSPost2010PropOp57
 70
     0
  0
XRECORD
  5
173
102
{ACAD_REACTORS
330
172
102
}
330
172
100
AcDbXrecord
280
     1
102
RTVSPost2010Prop28
280
     0
102
RTVSPost2010PropOp28
 70
     1
102
RTVSPost2010Prop29
280
     1
102
RTVSPost2010PropOp29
 70
     1
102
RTVSPost2010Prop30
280
     1
102
RTVSPost2010PropOp30
 70
     1
102
RTVSPost2010Prop31
280
     0
102
RTVSPost2010PropOp31
 70
     1
102
RTVSPost2010Prop32
280
     0
102
RTVSPost2010PropOp32
 70
     1
102
RTVSPost2010Prop33
280
     0
102
RTVSPost2010PropOp33
 70
     1
102
RTVSPost2010Prop34
280
     0
102
RTVSPost2010PropOp34
 70
     1
102
RTVSPost2010Prop35
280
     0
102
RTVSPost2010PropOp35
 70
     1
102
RTVSPost2010Prop36
280
     0
102
RTVSPost2010PropOp36
 70
     1
102
RTVSPost2010Prop37
 90
       50
102
RTVSPost2010PropOp37
 70
     1
102
RTVSPost2010Prop38
140
0.0
102
RTVSPost2010PropOp38
 70
     1
102
RTVSPost2010Prop39
140
1.0
102
RTVSPost2010PropOp39
 70
     1
102
RTVSPost2010Prop40
 90
        0
102
RTVSPost2010PropOp40
 70
     1
102
RTVSPost2010Prop41ColorIndex
 90
       18
102
RTVSPost2010Prop41ColorRGB
 90
        0
102
RTVSPost2010PropOp41
 70
     1
102
RTVSPost2010Prop42
 90
       50
102
RTVSPost2010PropOp42
 70
     1
102
RTVSPost2010Prop43
 90
        3
102
RTVSPost2010PropOp43
 70
     1
102
RTVSPost2010Prop44ColorIndex
 90
        5
102
RTVSPost2010Prop44ColorRGB
 90
      255
102
RTVSPost2010PropOp44
 70
     1
102
RTVSPost2010Prop45
280
     0
102
RTVSPost2010PropOp45
 70
     1
102
RTVSPost2010Prop46
 90
       50
102
RTVSPost2010PropOp46
 70
     1
102
RTVSPost2010Prop47
 90
       50
102
RTVSPost2010PropOp47
 70
     1
102
RTVSPost2010Prop48
 90
       50
102
RTVSPost2010PropOp48
 70
     1
102
RTVSPost2010Prop49
280
     0
102
RTVSPost2010PropOp49
 70
     1
102
RTVSPost2010Prop50
 90
       50
102
RTVSPost2010PropOp50
 70
     1
102
RTVSPost2010Prop51ColorIndex
 90
      256
102
RTVSPost2010Prop51ColorRGB
 90
-16777216
102
RTVSPost2010PropOp51
 70
     0
102
RTVSPost2010Prop52
140
1.0
102
RTVSPost2010PropOp52
 70
     0
102
RTVSPost2010Prop53
 90
        2
102
RTVSPost2010PropOp53
 70
     1
102
RTVSPost2010Prop54
  1
strokes_ogs.tif
102
RTVSPost2010PropOp54
 70
     1
102
RTVSPost2010Prop55
280
     0
102
RTVSPost2010PropOp55
 70
     1
102
RTVSPost2010Prop56
140
1.0
102
RTVSPost2010PropOp56
 70
     1
102
RTVSPost2010Prop57
140
1.0
102
RTVSPost2010PropOp57
 70
     1
  0
XRECORD
  5
157
102
{ACAD_REACTORS
330
156
102
}
330
156
100
AcDbXrecord
280
     1
102
RTVSPost2010Prop28
280
     0
102
RTVSPost2010PropOp28
 70
     1
102
RTVSPost2010Prop29
280
     1
102
RTVSPost2010PropOp29
 70
     1
102
RTVSPost2010Prop30
280
     1
102
RTVSPost2010PropOp30
 70
     1
102
RTVSPost2010Prop31
280
     0
102
RTVSPost2010PropOp31
 70
     1
102
RTVSPost2010Prop32
280
     0
102
RTVSPost2010PropOp32
 70
     1
102
RTVSPost2010Prop33
280
     0
102
RTVSPost2010PropOp33
 70
     1
102
RTVSPost2010Prop34
280
     0
102
RTVSPost2010PropOp34
 70
     1
102
RTVSPost2010Prop35
280
     0
102
RTVSPost2010PropOp35
 70
     1
102
RTVSPost2010Prop36
280
     0
102
RTVSPost2010PropOp36
 70
     1
102
RTVSPost2010Prop37
 90
       50
102
RTVSPost2010PropOp37
 70
     1
102
RTVSPost2010Prop38
140
0.0
102
RTVSPost2010PropOp38
 70
     1
102
RTVSPost2010Prop39
140
1.0
102
RTVSPost2010PropOp39
 70
     1
102
RTVSPost2010Prop40
 90
        0
102
RTVSPost2010PropOp40
 70
     1
102
RTVSPost2010Prop41ColorIndex
 90
       18
102
RTVSPost2010Prop41ColorRGB
 90
        0
102
RTVSPost2010PropOp41
 70
     1
102
RTVSPost2010Prop42
 90
       50
102
RTVSPost2010PropOp42
 70
     1
102
RTVSPost2010Prop43
 90
        3
102
RTVSPost2010PropOp43
 70
     1
102
RTVSPost2010Prop44ColorIndex
 90
        5
102
RTVSPost2010Prop44ColorRGB
 90
      255
102
RTVSPost2010PropOp44
 70
     1
102
RTVSPost2010Prop45
280
     0
102
RTVSPost2010PropOp45
 70
     1
102
RTVSPost2010Prop46
 90
       50
102
RTVSPost2010PropOp46
 70
     1
102
RTVSPost2010Prop47
 90
       50
102
RTVSPost2010PropOp47
 70
     1
102
RTVSPost2010Prop48
 90
       50
102
RTVSPost2010PropOp48
 70
     1
102
RTVSPost2010Prop49
280
     0
102
RTVSPost2010PropOp49
 70
     1
102
RTVSPost2010Prop50
 90
       50
102
RTVSPost2010PropOp50
 70
     1
102
RTVSPost2010Prop51ColorIndex
 90
      256
102
RTVSPost2010Prop51ColorRGB
 90
-16777216
102
RTVSPost2010PropOp51
 70
     0
102
RTVSPost2010Prop52
140
1.0
102
RTVSPost2010PropOp52
 70
     0
102
RTVSPost2010Prop53
 90
        2
102
RTVSPost2010PropOp53
 70
     1
102
RTVSPost2010Prop54
  1
strokes_ogs.tif
102
RTVSPost2010PropOp54
 70
     1
102
RTVSPost2010Prop55
280
     0
102
RTVSPost2010PropOp55
 70
     1
102
RTVSPost2010Prop56
140
1.0
102
RTVSPost2010PropOp56
 70
     1
102
RTVSPost2010Prop57
140
1.0
102
RTVSPost2010PropOp57
 70
     1
  0
XRECORD
  5
159
102
{ACAD_REACTORS
330
158
102
}
330
158
100
AcDbXrecord
280
     1
102
RTVSPost2010Prop28
280
     0
102
RTVSPost2010PropOp28
 70
     1
102
RTVSPost2010Prop29
280
     1
102
RTVSPost2010PropOp29
 70
     1
102
RTVSPost2010Prop30
280
     1
102
RTVSPost2010PropOp30
 70
     1
102
RTVSPost2010Prop31
280
     0
102
RTVSPost2010PropOp31
 70
     1
102
RTVSPost2010Prop32
280
     0
102
RTVSPost2010PropOp32
 70
     1
102
RTVSPost2010Prop33
280
     0
102
RTVSPost2010PropOp33
 70
     1
102
RTVSPost2010Prop34
280
     0
102
RTVSPost2010PropOp34
 70
     1
102
RTVSPost2010Prop35
280
     0
102
RTVSPost2010PropOp35
 70
     1
102
RTVSPost2010Prop36
280
     0
102
RTVSPost2010PropOp36
 70
     1
102
RTVSPost2010Prop37
 90
       50
102
RTVSPost2010PropOp37
 70
     1
102
RTVSPost2010Prop38
140
0.0
102
RTVSPost2010PropOp38
 70
     1
102
RTVSPost2010Prop39
140
1.0
102
RTVSPost2010PropOp39
 70
     1
102
RTVSPost2010Prop40
 90
        0
102
RTVSPost2010PropOp40
 70
     1
102
RTVSPost2010Prop41ColorIndex
 90
       18
102
RTVSPost2010Prop41ColorRGB
 90
        0
102
RTVSPost2010PropOp41
 70
     1
102
RTVSPost2010Prop42
 90
       50
102
RTVSPost2010PropOp42
 70
     1
102
RTVSPost2010Prop43
 90
        3
102
RTVSPost2010PropOp43
 70
     1
102
RTVSPost2010Prop44ColorIndex
 90
        5
102
RTVSPost2010Prop44ColorRGB
 90
      255
102
RTVSPost2010PropOp44
 70
     1
102
RTVSPost2010Prop45
280
     0
102
RTVSPost2010PropOp45
 70
     1
102
RTVSPost2010Prop46
 90
       50
102
RTVSPost2010PropOp46
 70
     1
102
RTVSPost2010Prop47
 90
       50
102
RTVSPost2010PropOp47
 70
     1
102
RTVSPost2010Prop48
 90
       50
102
RTVSPost2010PropOp48
 70
     1
102
RTVSPost2010Prop49
280
     0
102
RTVSPost2010PropOp49
 70
     1
102
RTVSPost2010Prop50
 90
       50
102
RTVSPost2010PropOp50
 70
     1
102
RTVSPost2010Prop51ColorIndex
 90
      256
102
RTVSPost2010Prop51ColorRGB
 90
-16777216
102
RTVSPost2010PropOp51
 70
     0
102
RTVSPost2010Prop52
140
1.0
102
RTVSPost2010PropOp52
 70
     0
102
RTVSPost2010Prop53
 90
        2
102
RTVSPost2010PropOp53
 70
     1
102
RTVSPost2010Prop54
  1
strokes_ogs.tif
102
RTVSPost2010PropOp54
 70
     1
102
RTVSPost2010Prop55
280
     0
102
RTVSPost2010PropOp55
 70
     1
102
RTVSPost2010Prop56
140
1.0
102
RTVSPost2010PropOp56
 70
     1
102
RTVSPost2010Prop57
140
1.0
102
RTVSPost2010PropOp57
 70
     1
  0
XRECORD
  5
15B
102
{ACAD_REACTORS
330
15A
102
}
330
15A
100
AcDbXrecord
280
     1
102
RTVSPost2010Prop28
280
     0
102
RTVSPost2010PropOp28
 70
     1
102
RTVSPost2010Prop29
280
     1
102
RTVSPost2010PropOp29
 70
     1
102
RTVSPost2010Prop30
280
     1
102
RTVSPost2010PropOp30
 70
     1
102
RTVSPost2010Prop31
280
     0
102
RTVSPost2010PropOp31
 70
     1
102
RTVSPost2010Prop32
280
     0
102
RTVSPost2010PropOp32
 70
     1
102
RTVSPost2010Prop33
280
     0
102
RTVSPost2010PropOp33
 70
     1
102
RTVSPost2010Prop34
280
     0
102
RTVSPost2010PropOp34
 70
     1
102
RTVSPost2010Prop35
280
     0
102
RTVSPost2010PropOp35
 70
     1
102
RTVSPost2010Prop36
280
     0
102
RTVSPost2010PropOp36
 70
     1
102
RTVSPost2010Prop37
 90
       50
102
RTVSPost2010PropOp37
 70
     1
102
RTVSPost2010Prop38
140
0.0
102
RTVSPost2010PropOp38
 70
     1
102
RTVSPost2010Prop39
140
1.0
102
RTVSPost2010PropOp39
 70
     1
102
RTVSPost2010Prop40
 90
        0
102
RTVSPost2010PropOp40
 70
     1
102
RTVSPost2010Prop41ColorIndex
 90
       18
102
RTVSPost2010Prop41ColorRGB
 90
        0
102
RTVSPost2010PropOp41
 70
     1
102
RTVSPost2010Prop42
 90
       50
102
RTVSPost2010PropOp42
 70
     1
102
RTVSPost2010Prop43
 90
        3
102
RTVSPost2010PropOp43
 70
     1
102
RTVSPost2010Prop44ColorIndex
 90
        5
102
RTVSPost2010Prop44ColorRGB
 90
      255
102
RTVSPost2010PropOp44
 70
     1
102
RTVSPost2010Prop45
280
     0
102
RTVSPost2010PropOp45
 70
     1
102
RTVSPost2010Prop46
 90
       50
102
RTVSPost2010PropOp46
 70
     1
102
RTVSPost2010Prop47
 90
       50
102
RTVSPost2010PropOp47
 70
     1
102
RTVSPost2010Prop48
 90
       50
102
RTVSPost2010PropOp48
 70
     1
102
RTVSPost2010Prop49
280
     0
102
RTVSPost2010PropOp49
 70
     1
102
RTVSPost2010Prop50
 90
       50
102
RTVSPost2010PropOp50
 70
     1
102
RTVSPost2010Prop51ColorIndex
 90
      256
102
RTVSPost2010Prop51ColorRGB
 90
-16777216
102
RTVSPost2010PropOp51
 70
     0
102
RTVSPost2010Prop52
140
1.0
102
RTVSPost2010PropOp52
 70
     0
102
RTVSPost2010Prop53
 90
        2
102
RTVSPost2010PropOp53
 70
     1
102
RTVSPost2010Prop54
  1
strokes_ogs.tif
102
RTVSPost2010PropOp54
 70
     1
102
RTVSPost2010Prop55
280
     0
102
RTVSPost2010PropOp55
 70
     1
102
RTVSPost2010Prop56
140
1.0
102
RTVSPost2010PropOp56
 70
     1
102
RTVSPost2010Prop57
140
1.0
102
RTVSPost2010PropOp57
 70
     1
  0
XRECORD
  5
15D
102
{ACAD_REACTORS
330
15C
102
}
330
15C
100
AcDbXrecord
280
     1
102
RTVSPost2010Prop28
280
     0
102
RTVSPost2010PropOp28
 70
     1
102
RTVSPost2010Prop29
280
     1
102
RTVSPost2010PropOp29
 70
     1
102
RTVSPost2010Prop30
280
     1
102
RTVSPost2010PropOp30
 70
     1
102
RTVSPost2010Prop31
280
     0
102
RTVSPost2010PropOp31
 70
     1
102
RTVSPost2010Prop32
280
     0
102
RTVSPost2010PropOp32
 70
     1
102
RTVSPost2010Prop33
280
     0
102
RTVSPost2010PropOp33
 70
     1
102
RTVSPost2010Prop34
280
     0
102
RTVSPost2010PropOp34
 70
     1
102
RTVSPost2010Prop35
280
     0
102
RTVSPost2010PropOp35
 70
     1
102
RTVSPost2010Prop36
280
     0
102
RTVSPost2010PropOp36
 70
     1
102
RTVSPost2010Prop37
 90
       50
102
RTVSPost2010PropOp37
 70
     1
102
RTVSPost2010Prop38
140
0.0
102
RTVSPost2010PropOp38
 70
     1
102
RTVSPost2010Prop39
140
1.0
102
RTVSPost2010PropOp39
 70
     1
102
RTVSPost2010Prop40
 90
        0
102
RTVSPost2010PropOp40
 70
     1
102
RTVSPost2010Prop41ColorIndex
 90
       18
102
RTVSPost2010Prop41ColorRGB
 90
        0
102
RTVSPost2010PropOp41
 70
     1
102
RTVSPost2010Prop42
 90
       50
102
RTVSPost2010PropOp42
 70
     1
102
RTVSPost2010Prop43
 90
        3
102
RTVSPost2010PropOp43
 70
     1
102
RTVSPost2010Prop44ColorIndex
 90
        5
102
RTVSPost2010Prop44ColorRGB
 90
      255
102
RTVSPost2010PropOp44
 70
     1
102
RTVSPost2010Prop45
280
     0
102
RTVSPost2010PropOp45
 70
     1
102
RTVSPost2010Prop46
 90
       50
102
RTVSPost2010PropOp46
 70
     1
102
RTVSPost2010Prop47
 90
       50
102
RTVSPost2010PropOp47
 70
     1
102
RTVSPost2010Prop48
 90
       50
102
RTVSPost2010PropOp48
 70
     1
102
RTVSPost2010Prop49
280
     0
102
RTVSPost2010PropOp49
 70
     1
102
RTVSPost2010Prop50
 90
       50
102
RTVSPost2010PropOp50
 70
     1
102
RTVSPost2010Prop51ColorIndex
 90
      256
102
RTVSPost2010Prop51ColorRGB
 90
-16777216
102
RTVSPost2010PropOp51
 70
     0
102
RTVSPost2010Prop52
140
1.0
102
RTVSPost2010PropOp52
 70
     0
102
RTVSPost2010Prop53
 90
        2
102
RTVSPost2010PropOp53
 70
     1
102
RTVSPost2010Prop54
  1
strokes_ogs.tif
102
RTVSPost2010PropOp54
 70
     1
102
RTVSPost2010Prop55
280
     0
102
RTVSPost2010PropOp55
 70
     1
102
RTVSPost2010Prop56
140
1.0
102
RTVSPost2010PropOp56
 70
     1
102
RTVSPost2010Prop57
140
1.0
102
RTVSPost2010PropOp57
 70
     1
  0
XRECORD
  5
165
102
{ACAD_REACTORS
330
164
102
}
330
164
100
AcDbXrecord
280
     1
102
RTVSPost2010Prop28
280
     0
102
RTVSPost2010PropOp28
 70
     1
102
RTVSPost2010Prop29
280
     1
102
RTVSPost2010PropOp29
 70
     1
102
RTVSPost2010Prop30
280
     1
102
RTVSPost2010PropOp30
 70
     1
102
RTVSPost2010Prop31
280
     0
102
RTVSPost2010PropOp31
 70
     1
102
RTVSPost2010Prop32
280
     0
102
RTVSPost2010PropOp32
 70
     1
102
RTVSPost2010Prop33
280
     0
102
RTVSPost2010PropOp33
 70
     1
102
RTVSPost2010Prop34
280
     0
102
RTVSPost2010PropOp34
 70
     1
102
RTVSPost2010Prop35
280
     0
102
RTVSPost2010PropOp35
 70
     1
102
RTVSPost2010Prop36
280
     0
102
RTVSPost2010PropOp36
 70
     1
102
RTVSPost2010Prop37
 90
       50
102
RTVSPost2010PropOp37
 70
     1
102
RTVSPost2010Prop38
140
0.0
102
RTVSPost2010PropOp38
 70
     1
102
RTVSPost2010Prop39
140
1.0
102
RTVSPost2010PropOp39
 70
     1
102
RTVSPost2010Prop40
 90
        0
102
RTVSPost2010PropOp40
 70
     1
102
RTVSPost2010Prop41ColorIndex
 90
       18
102
RTVSPost2010Prop41ColorRGB
 90
        0
102
RTVSPost2010PropOp41
 70
     1
102
RTVSPost2010Prop42
 90
       50
102
RTVSPost2010PropOp42
 70
     1
102
RTVSPost2010Prop43
 90
        3
102
RTVSPost2010PropOp43
 70
     1
102
RTVSPost2010Prop44ColorIndex
 90
        5
102
RTVSPost2010Prop44ColorRGB
 90
      255
102
RTVSPost2010PropOp44
 70
     1
102
RTVSPost2010Prop45
280
     0
102
RTVSPost2010PropOp45
 70
     1
102
RTVSPost2010Prop46
 90
       50
102
RTVSPost2010PropOp46
 70
     1
102
RTVSPost2010Prop47
 90
       50
102
RTVSPost2010PropOp47
 70
     1
102
RTVSPost2010Prop48
 90
       50
102
RTVSPost2010PropOp48
 70
     1
102
RTVSPost2010Prop49
280
     0
102
RTVSPost2010PropOp49
 70
     1
102
RTVSPost2010Prop50
 90
       50
102
RTVSPost2010PropOp50
 70
     1
102
RTVSPost2010Prop51ColorIndex
 90
      256
102
RTVSPost2010Prop51ColorRGB
 90
-16777216
102
RTVSPost2010PropOp51
 70
     0
102
RTVSPost2010Prop52
140
1.0
102
RTVSPost2010PropOp52
 70
     0
102
RTVSPost2010Prop53
 90
        2
102
RTVSPost2010PropOp53
 70
     1
102
RTVSPost2010Prop54
  1
strokes_ogs.tif
102
RTVSPost2010PropOp54
 70
     1
102
RTVSPost2010Prop55
280
     0
102
RTVSPost2010PropOp55
 70
     1
102
RTVSPost2010Prop56
140
1.0
102
RTVSPost2010PropOp56
 70
     1
102
RTVSPost2010Prop57
140
1.0
102
RTVSPost2010PropOp57
 70
     1
  0
XRECORD
  5
181
102
{ACAD_REACTORS
330
180
102
}
330
180
100
AcDbXrecord
280
     1
102
RTVSPost2010Prop28
280
     0
102
RTVSPost2010PropOp28
 70
     0
102
RTVSPost2010Prop29
280
     1
102
RTVSPost2010PropOp29
 70
     0
102
RTVSPost2010Prop30
280
     1
102
RTVSPost2010PropOp30
 70
     0
102
RTVSPost2010Prop31
280
     0
102
RTVSPost2010PropOp31
 70
     0
102
RTVSPost2010Prop32
280
     0
102
RTVSPost2010PropOp32
 70
     0
102
RTVSPost2010Prop33
280
     0
102
RTVSPost2010PropOp33
 70
     0
102
RTVSPost2010Prop34
280
     0
102
RTVSPost2010PropOp34
 70
     0
102
RTVSPost2010Prop35
280
     0
102
RTVSPost2010PropOp35
 70
     0
102
RTVSPost2010Prop36
280
     0
102
RTVSPost2010PropOp36
 70
     0
102
RTVSPost2010Prop37
 90
       50
102
RTVSPost2010PropOp37
 70
     0
102
RTVSPost2010Prop38
140
0.0
102
RTVSPost2010PropOp38
 70
     0
102
RTVSPost2010Prop39
140
1.0
102
RTVSPost2010PropOp39
 70
     0
102
RTVSPost2010Prop40
 90
        0
102
RTVSPost2010PropOp40
 70
     0
102
RTVSPost2010Prop41ColorIndex
 90
       18
102
RTVSPost2010Prop41ColorRGB
 90
        0
102
RTVSPost2010PropOp41
 70
     0
102
RTVSPost2010Prop42
 90
       50
102
RTVSPost2010PropOp42
 70
     0
102
RTVSPost2010Prop43
 90
        3
102
RTVSPost2010PropOp43
 70
     0
102
RTVSPost2010Prop44ColorIndex
 90
        5
102
RTVSPost2010Prop44ColorRGB
 90
      255
102
RTVSPost2010PropOp44
 70
     0
102
RTVSPost2010Prop45
280
     0
102
RTVSPost2010PropOp45
 70
     0
102
RTVSPost2010Prop46
 90
       50
102
RTVSPost2010PropOp46
 70
     0
102
RTVSPost2010Prop47
 90
       50
102
RTVSPost2010PropOp47
 70
     0
102
RTVSPost2010Prop48
 90
       50
102
RTVSPost2010PropOp48
 70
     0
102
RTVSPost2010Prop49
280
     0
102
RTVSPost2010PropOp49
 70
     0
102
RTVSPost2010Prop50
 90
       50
102
RTVSPost2010PropOp50
 70
     0
102
RTVSPost2010Prop51ColorIndex
 90
      256
102
RTVSPost2010Prop51ColorRGB
 90
-16777216
102
RTVSPost2010PropOp51
 70
     0
102
RTVSPost2010Prop52
140
1.0
102
RTVSPost2010PropOp52
 70
     0
102
RTVSPost2010Prop53
 90
        2
102
RTVSPost2010PropOp53
 70
     0
102
RTVSPost2010Prop54
  1
strokes_ogs.tif
102
RTVSPost2010PropOp54
 70
     0
102
RTVSPost2010Prop55
280
     0
102
RTVSPost2010PropOp55
 70
     0
102
RTVSPost2010Prop56
140
1.0
102
RTVSPost2010PropOp56
 70
     0
102
RTVSPost2010Prop57
140
1.0
102
RTVSPost2010PropOp57
 70
     0
  0
XRECORD
  5
171
102
{ACAD_REACTORS
330
170
102
}
330
170
100
AcDbXrecord
280
     1
102
RTVSPost2010Prop28
280
     0
102
RTVSPost2010PropOp28
 70
     1
102
RTVSPost2010Prop29
280
     1
102
RTVSPost2010PropOp29
 70
     1
102
RTVSPost2010Prop30
280
     1
102
RTVSPost2010PropOp30
 70
     1
102
RTVSPost2010Prop31
280
     0
102
RTVSPost2010PropOp31
 70
     1
102
RTVSPost2010Prop32
280
     0
102
RTVSPost2010PropOp32
 70
     1
102
RTVSPost2010Prop33
280
     0
102
RTVSPost2010PropOp33
 70
     1
102
RTVSPost2010Prop34
280
     0
102
RTVSPost2010PropOp34
 70
     1
102
RTVSPost2010Prop35
280
     0
102
RTVSPost2010PropOp35
 70
     1
102
RTVSPost2010Prop36
280
     0
102
RTVSPost2010PropOp36
 70
     1
102
RTVSPost2010Prop37
 90
       50
102
RTVSPost2010PropOp37
 70
     1
102
RTVSPost2010Prop38
140
0.0
102
RTVSPost2010PropOp38
 70
     1
102
RTVSPost2010Prop39
140
1.0
102
RTVSPost2010PropOp39
 70
     1
102
RTVSPost2010Prop40
 90
        0
102
RTVSPost2010PropOp40
 70
     1
102
RTVSPost2010Prop41ColorIndex
 90
       18
102
RTVSPost2010Prop41ColorRGB
 90
        0
102
RTVSPost2010PropOp41
 70
     1
102
RTVSPost2010Prop42
 90
       50
102
RTVSPost2010PropOp42
 70
     1
102
RTVSPost2010Prop43
 90
        3
102
RTVSPost2010PropOp43
 70
     1
102
RTVSPost2010Prop44ColorIndex
 90
        5
102
RTVSPost2010Prop44ColorRGB
 90
      255
102
RTVSPost2010PropOp44
 70
     1
102
RTVSPost2010Prop45
280
     0
102
RTVSPost2010PropOp45
 70
     1
102
RTVSPost2010Prop46
 90
       50
102
RTVSPost2010PropOp46
 70
     1
102
RTVSPost2010Prop47
 90
       50
102
RTVSPost2010PropOp47
 70
     1
102
RTVSPost2010Prop48
 90
       50
102
RTVSPost2010PropOp48
 70
     1
102
RTVSPost2010Prop49
280
     0
102
RTVSPost2010PropOp49
 70
     1
102
RTVSPost2010Prop50
 90
       50
102
RTVSPost2010PropOp50
 70
     1
102
RTVSPost2010Prop51ColorIndex
 90
      256
102
RTVSPost2010Prop51ColorRGB
 90
-16777216
102
RTVSPost2010PropOp51
 70
     0
102
RTVSPost2010Prop52
140
1.0
102
RTVSPost2010PropOp52
 70
     0
102
RTVSPost2010Prop53
 90
        2
102
RTVSPost2010PropOp53
 70
     1
102
RTVSPost2010Prop54
  1
strokes_ogs.tif
102
RTVSPost2010PropOp54
 70
     1
102
RTVSPost2010Prop55
280
     0
102
RTVSPost2010PropOp55
 70
     1
102
RTVSPost2010Prop56
140
1.0
102
RTVSPost2010PropOp56
 70
     1
102
RTVSPost2010Prop57
140
1.0
102
RTVSPost2010PropOp57
 70
     1
  0
XRECORD
  5
183
102
{ACAD_REACTORS
330
182
102
}
330
182
100
AcDbXrecord
280
     1
102
RTVSPost2010Prop28
280
     0
102
RTVSPost2010PropOp28
 70
     0
102
RTVSPost2010Prop29
280
     1
102
RTVSPost2010PropOp29
 70
     0
102
RTVSPost2010Prop30
280
     1
102
RTVSPost2010PropOp30
 70
     0
102
RTVSPost2010Prop31
280
     0
102
RTVSPost2010PropOp31
 70
     0
102
RTVSPost2010Prop32
280
     0
102
RTVSPost2010PropOp32
 70
     0
102
RTVSPost2010Prop33
280
     0
102
RTVSPost2010PropOp33
 70
     0
102
RTVSPost2010Prop34
280
     0
102
RTVSPost2010PropOp34
 70
     0
102
RTVSPost2010Prop35
280
     0
102
RTVSPost2010PropOp35
 70
     0
102
RTVSPost2010Prop36
280
     0
102
RTVSPost2010PropOp36
 70
     0
102
RTVSPost2010Prop37
 90
       50
102
RTVSPost2010PropOp37
 70
     0
102
RTVSPost2010Prop38
140
0.0
102
RTVSPost2010PropOp38
 70
     0
102
RTVSPost2010Prop39
140
1.0
102
RTVSPost2010PropOp39
 70
     0
102
RTVSPost2010Prop40
 90
        0
102
RTVSPost2010PropOp40
 70
     0
102
RTVSPost2010Prop41ColorIndex
 90
       18
102
RTVSPost2010Prop41ColorRGB
 90
        0
102
RTVSPost2010PropOp41
 70
     0
102
RTVSPost2010Prop42
 90
       50
102
RTVSPost2010PropOp42
 70
     0
102
RTVSPost2010Prop43
 90
        3
102
RTVSPost2010PropOp43
 70
     0
102
RTVSPost2010Prop44ColorIndex
 90
        5
102
RTVSPost2010Prop44ColorRGB
 90
      255
102
RTVSPost2010PropOp44
 70
     0
102
RTVSPost2010Prop45
280
     0
102
RTVSPost2010PropOp45
 70
     0
102
RTVSPost2010Prop46
 90
       50
102
RTVSPost2010PropOp46
 70
     0
102
RTVSPost2010Prop47
 90
       50
102
RTVSPost2010PropOp47
 70
     0
102
RTVSPost2010Prop48
 90
       50
102
RTVSPost2010PropOp48
 70
     0
102
RTVSPost2010Prop49
280
     0
102
RTVSPost2010PropOp49
 70
     0
102
RTVSPost2010Prop50
 90
       50
102
RTVSPost2010PropOp50
 70
     0
102
RTVSPost2010Prop51ColorIndex
 90
      256
102
RTVSPost2010Prop51ColorRGB
 90
-16777216
102
RTVSPost2010PropOp51
 70
     0
102
RTVSPost2010Prop52
140
1.0
102
RTVSPost2010PropOp52
 70
     0
102
RTVSPost2010Prop53
 90
        2
102
RTVSPost2010PropOp53
 70
     0
102
RTVSPost2010Prop54
  1
strokes_ogs.tif
102
RTVSPost2010PropOp54
 70
     0
102
RTVSPost2010Prop55
280
     0
102
RTVSPost2010PropOp55
 70
     0
102
RTVSPost2010Prop56
140
1.0
102
RTVSPost2010PropOp56
 70
     0
102
RTVSPost2010Prop57
140
1.0
102
RTVSPost2010PropOp57
 70
     0
  0
XRECORD
  5
169
102
{ACAD_REACTORS
330
168
102
}
330
168
100
AcDbXrecord
280
     1
102
RTVSPost2010Prop28
280
     0
102
RTVSPost2010PropOp28
 70
     1
102
RTVSPost2010Prop29
280
     1
102
RTVSPost2010PropOp29
 70
     1
102
RTVSPost2010Prop30
280
     1
102
RTVSPost2010PropOp30
 70
     1
102
RTVSPost2010Prop31
280
     0
102
RTVSPost2010PropOp31
 70
     1
102
RTVSPost2010Prop32
280
     0
102
RTVSPost2010PropOp32
 70
     1
102
RTVSPost2010Prop33
280
     0
102
RTVSPost2010PropOp33
 70
     1
102
RTVSPost2010Prop34
280
     0
102
RTVSPost2010PropOp34
 70
     1
102
RTVSPost2010Prop35
280
     0
102
RTVSPost2010PropOp35
 70
     1
102
RTVSPost2010Prop36
280
     0
102
RTVSPost2010PropOp36
 70
     1
102
RTVSPost2010Prop37
 90
       50
102
RTVSPost2010PropOp37
 70
     1
102
RTVSPost2010Prop38
140
0.0
102
RTVSPost2010PropOp38
 70
     1
102
RTVSPost2010Prop39
140
1.0
102
RTVSPost2010PropOp39
 70
     1
102
RTVSPost2010Prop40
 90
        0
102
RTVSPost2010PropOp40
 70
     1
102
RTVSPost2010Prop41ColorIndex
 90
       18
102
RTVSPost2010Prop41ColorRGB
 90
        0
102
RTVSPost2010PropOp41
 70
     1
102
RTVSPost2010Prop42
 90
       50
102
RTVSPost2010PropOp42
 70
     1
102
RTVSPost2010Prop43
 90
        3
102
RTVSPost2010PropOp43
 70
     1
102
RTVSPost2010Prop44ColorIndex
 90
        5
102
RTVSPost2010Prop44ColorRGB
 90
      255
102
RTVSPost2010PropOp44
 70
     1
102
RTVSPost2010Prop45
280
     0
102
RTVSPost2010PropOp45
 70
     1
102
RTVSPost2010Prop46
 90
       50
102
RTVSPost2010PropOp46
 70
     1
102
RTVSPost2010Prop47
 90
       50
102
RTVSPost2010PropOp47
 70
     1
102
RTVSPost2010Prop48
 90
       50
102
RTVSPost2010PropOp48
 70
     1
102
RTVSPost2010Prop49
280
     0
102
RTVSPost2010PropOp49
 70
     1
102
RTVSPost2010Prop50
 90
       50
102
RTVSPost2010PropOp50
 70
     1
102
RTVSPost2010Prop51ColorIndex
 90
      256
102
RTVSPost2010Prop51ColorRGB
 90
-16777216
102
RTVSPost2010PropOp51
 70
     0
102
RTVSPost2010Prop52
140
1.0
102
RTVSPost2010PropOp52
 70
     0
102
RTVSPost2010Prop53
 90
        2
102
RTVSPost2010PropOp53
 70
     1
102
RTVSPost2010Prop54
  1
strokes_ogs.tif
102
RTVSPost2010PropOp54
 70
     1
102
RTVSPost2010Prop55
280
     0
102
RTVSPost2010PropOp55
 70
     1
102
RTVSPost2010Prop56
140
1.0
102
RTVSPost2010PropOp56
 70
     1
102
RTVSPost2010Prop57
140
1.0
102
RTVSPost2010PropOp57
 70
     1
  0
XRECORD
  5
17F
102
{ACAD_REACTORS
330
17E
102
}
330
17E
100
AcDbXrecord
280
     1
102
RTVSPost2010Prop28
280
     0
102
RTVSPost2010PropOp28
 70
     1
102
RTVSPost2010Prop29
280
     1
102
RTVSPost2010PropOp29
 70
     1
102
RTVSPost2010Prop30
280
     1
102
RTVSPost2010PropOp30
 70
     1
102
RTVSPost2010Prop31
280
     0
102
RTVSPost2010PropOp31
 70
     1
102
RTVSPost2010Prop32
280
     0
102
RTVSPost2010PropOp32
 70
     1
102
RTVSPost2010Prop33
280
     0
102
RTVSPost2010PropOp33
 70
     1
102
RTVSPost2010Prop34
280
     0
102
RTVSPost2010PropOp34
 70
     1
102
RTVSPost2010Prop35
280
     0
102
RTVSPost2010PropOp35
 70
     1
102
RTVSPost2010Prop36
280
     0
102
RTVSPost2010PropOp36
 70
     1
102
RTVSPost2010Prop37
 90
       50
102
RTVSPost2010PropOp37
 70
     1
102
RTVSPost2010Prop38
140
0.0
102
RTVSPost2010PropOp38
 70
     1
102
RTVSPost2010Prop39
140
1.0
102
RTVSPost2010PropOp39
 70
     1
102
RTVSPost2010Prop40
 90
        0
102
RTVSPost2010PropOp40
 70
     1
102
RTVSPost2010Prop41ColorIndex
 90
       18
102
RTVSPost2010Prop41ColorRGB
 90
        0
102
RTVSPost2010PropOp41
 70
     1
102
RTVSPost2010Prop42
 90
       50
102
RTVSPost2010PropOp42
 70
     1
102
RTVSPost2010Prop43
 90
        3
102
RTVSPost2010PropOp43
 70
     1
102
RTVSPost2010Prop44ColorIndex
 90
        5
102
RTVSPost2010Prop44ColorRGB
 90
      255
102
RTVSPost2010PropOp44
 70
     1
102
RTVSPost2010Prop45
280
     0
102
RTVSPost2010PropOp45
 70
     1
102
RTVSPost2010Prop46
 90
       50
102
RTVSPost2010PropOp46
 70
     1
102
RTVSPost2010Prop47
 90
       50
102
RTVSPost2010PropOp47
 70
     1
102
RTVSPost2010Prop48
 90
       50
102
RTVSPost2010PropOp48
 70
     1
102
RTVSPost2010Prop49
280
     0
102
RTVSPost2010PropOp49
 70
     1
102
RTVSPost2010Prop50
 90
       50
102
RTVSPost2010PropOp50
 70
     1
102
RTVSPost2010Prop51ColorIndex
 90
      256
102
RTVSPost2010Prop51ColorRGB
 90
-16777216
102
RTVSPost2010PropOp51
 70
     0
102
RTVSPost2010Prop52
140
1.0
102
RTVSPost2010PropOp52
 70
     0
102
RTVSPost2010Prop53
 90
        2
102
RTVSPost2010PropOp53
 70
     1
102
RTVSPost2010Prop54
  1
strokes_ogs.tif
102
RTVSPost2010PropOp54
 70
     1
102
RTVSPost2010Prop55
280
     0
102
RTVSPost2010PropOp55
 70
     1
102
RTVSPost2010Prop56
140
1.0
102
RTVSPost2010PropOp56
 70
     1
102
RTVSPost2010Prop57
140
1.0
102
RTVSPost2010PropOp57
 70
     1
  0
XRECORD
  5
17D
102
{ACAD_REACTORS
330
17C
102
}
330
17C
100
AcDbXrecord
280
     1
102
RTVSPost2010Prop28
280
     0
102
RTVSPost2010PropOp28
 70
     1
102
RTVSPost2010Prop29
280
     1
102
RTVSPost2010PropOp29
 70
     1
102
RTVSPost2010Prop30
280
     1
102
RTVSPost2010PropOp30
 70
     1
102
RTVSPost2010Prop31
280
     0
102
RTVSPost2010PropOp31
 70
     1
102
RTVSPost2010Prop32
280
     0
102
RTVSPost2010PropOp32
 70
     1
102
RTVSPost2010Prop33
280
     0
102
RTVSPost2010PropOp33
 70
     1
102
RTVSPost2010Prop34
280
     0
102
RTVSPost2010PropOp34
 70
     1
102
RTVSPost2010Prop35
280
     0
102
RTVSPost2010PropOp35
 70
     1
102
RTVSPost2010Prop36
280
     0
102
RTVSPost2010PropOp36
 70
     1
102
RTVSPost2010Prop37
 90
       50
102
RTVSPost2010PropOp37
 70
     1
102
RTVSPost2010Prop38
140
0.0
102
RTVSPost2010PropOp38
 70
     1
102
RTVSPost2010Prop39
140
1.0
102
RTVSPost2010PropOp39
 70
     1
102
RTVSPost2010Prop40
 90
        0
102
RTVSPost2010PropOp40
 70
     1
102
RTVSPost2010Prop41ColorIndex
 90
       18
102
RTVSPost2010Prop41ColorRGB
 90
        0
102
RTVSPost2010PropOp41
 70
     1
102
RTVSPost2010Prop42
 90
       50
102
RTVSPost2010PropOp42
 70
     1
102
RTVSPost2010Prop43
 90
        3
102
RTVSPost2010PropOp43
 70
     1
102
RTVSPost2010Prop44ColorIndex
 90
        5
102
RTVSPost2010Prop44ColorRGB
 90
      255
102
RTVSPost2010PropOp44
 70
     1
102
RTVSPost2010Prop45
280
     0
102
RTVSPost2010PropOp45
 70
     1
102
RTVSPost2010Prop46
 90
       50
102
RTVSPost2010PropOp46
 70
     1
102
RTVSPost2010Prop47
 90
       50
102
RTVSPost2010PropOp47
 70
     1
102
RTVSPost2010Prop48
 90
       50
102
RTVSPost2010PropOp48
 70
     1
102
RTVSPost2010Prop49
280
     0
102
RTVSPost2010PropOp49
 70
     1
102
RTVSPost2010Prop50
 90
       50
102
RTVSPost2010PropOp50
 70
     1
102
RTVSPost2010Prop51ColorIndex
 90
      256
102
RTVSPost2010Prop51ColorRGB
 90
-16777216
102
RTVSPost2010PropOp51
 70
     0
102
RTVSPost2010Prop52
140
1.0
102
RTVSPost2010PropOp52
 70
     0
102
RTVSPost2010Prop53
 90
        2
102
RTVSPost2010PropOp53
 70
     1
102
RTVSPost2010Prop54
  1
strokes_ogs.tif
102
RTVSPost2010PropOp54
 70
     1
102
RTVSPost2010Prop55
280
     0
102
RTVSPost2010PropOp55
 70
     1
102
RTVSPost2010Prop56
140
1.0
102
RTVSPost2010PropOp56
 70
     1
102
RTVSPost2010Prop57
140
1.0
102
RTVSPost2010PropOp57
 70
     1
  0
XRECORD
  5
177
102
{ACAD_REACTORS
330
176
102
}
330
176
100
AcDbXrecord
280
     1
102
RTVSPost2010Prop28
280
     0
102
RTVSPost2010PropOp28
 70
     1
102
RTVSPost2010Prop29
280
     1
102
RTVSPost2010PropOp29
 70
     1
102
RTVSPost2010Prop30
280
     1
102
RTVSPost2010PropOp30
 70
     1
102
RTVSPost2010Prop31
280
     0
102
RTVSPost2010PropOp31
 70
     1
102
RTVSPost2010Prop32
280
     0
102
RTVSPost2010PropOp32
 70
     1
102
RTVSPost2010Prop33
280
     0
102
RTVSPost2010PropOp33
 70
     1
102
RTVSPost2010Prop34
280
     0
102
RTVSPost2010PropOp34
 70
     1
102
RTVSPost2010Prop35
280
     0
102
RTVSPost2010PropOp35
 70
     1
102
RTVSPost2010Prop36
280
     0
102
RTVSPost2010PropOp36
 70
     1
102
RTVSPost2010Prop37
 90
       50
102
RTVSPost2010PropOp37
 70
     1
102
RTVSPost2010Prop38
140
0.0
102
RTVSPost2010PropOp38
 70
     1
102
RTVSPost2010Prop39
140
1.0
102
RTVSPost2010PropOp39
 70
     1
102
RTVSPost2010Prop40
 90
        0
102
RTVSPost2010PropOp40
 70
     1
102
RTVSPost2010Prop41ColorIndex
 90
       18
102
RTVSPost2010Prop41ColorRGB
 90
        0
102
RTVSPost2010PropOp41
 70
     1
102
RTVSPost2010Prop42
 90
       50
102
RTVSPost2010PropOp42
 70
     1
102
RTVSPost2010Prop43
 90
        3
102
RTVSPost2010PropOp43
 70
     1
102
RTVSPost2010Prop44ColorIndex
 90
        5
102
RTVSPost2010Prop44ColorRGB
 90
      255
102
RTVSPost2010PropOp44
 70
     1
102
RTVSPost2010Prop45
280
     0
102
RTVSPost2010PropOp45
 70
     1
102
RTVSPost2010Prop46
 90
       50
102
RTVSPost2010PropOp46
 70
     1
102
RTVSPost2010Prop47
 90
       50
102
RTVSPost2010PropOp47
 70
     1
102
RTVSPost2010Prop48
 90
       50
102
RTVSPost2010PropOp48
 70
     1
102
RTVSPost2010Prop49
280
     0
102
RTVSPost2010PropOp49
 70
     1
102
RTVSPost2010Prop50
 90
       50
102
RTVSPost2010PropOp50
 70
     1
102
RTVSPost2010Prop51ColorIndex
 90
      256
102
RTVSPost2010Prop51ColorRGB
 90
-16777216
102
RTVSPost2010PropOp51
 70
     0
102
RTVSPost2010Prop52
140
1.0
102
RTVSPost2010PropOp52
 70
     0
102
RTVSPost2010Prop53
 90
        2
102
RTVSPost2010PropOp53
 70
     1
102
RTVSPost2010Prop54
  1
strokes_ogs.tif
102
RTVSPost2010PropOp54
 70
     1
102
RTVSPost2010Prop55
280
     0
102
RTVSPost2010PropOp55
 70
     1
102
RTVSPost2010Prop56
140
1.0
102
RTVSPost2010PropOp56
 70
     1
102
RTVSPost2010Prop57
140
1.0
102
RTVSPost2010PropOp57
 70
     1
  0
XRECORD
  5
179
102
{ACAD_REACTORS
330
178
102
}
330
178
100
AcDbXrecord
280
     1
102
RTVSPost2010Prop28
280
     0
102
RTVSPost2010PropOp28
 70
     1
102
RTVSPost2010Prop29
280
     1
102
RTVSPost2010PropOp29
 70
     1
102
RTVSPost2010Prop30
280
     1
102
RTVSPost2010PropOp30
 70
     1
102
RTVSPost2010Prop31
280
     0
102
RTVSPost2010PropOp31
 70
     1
102
RTVSPost2010Prop32
280
     0
102
RTVSPost2010PropOp32
 70
     1
102
RTVSPost2010Prop33
280
     0
102
RTVSPost2010PropOp33
 70
     1
102
RTVSPost2010Prop34
280
     0
102
RTVSPost2010PropOp34
 70
     1
102
RTVSPost2010Prop35
280
     0
102
RTVSPost2010PropOp35
 70
     1
102
RTVSPost2010Prop36
280
     0
102
RTVSPost2010PropOp36
 70
     1
102
RTVSPost2010Prop37
 90
       50
102
RTVSPost2010PropOp37
 70
     1
102
RTVSPost2010Prop38
140
0.0
102
RTVSPost2010PropOp38
 70
     1
102
RTVSPost2010Prop39
140
1.0
102
RTVSPost2010PropOp39
 70
     1
102
RTVSPost2010Prop40
 90
        0
102
RTVSPost2010PropOp40
 70
     1
102
RTVSPost2010Prop41ColorIndex
 90
       18
102
RTVSPost2010Prop41ColorRGB
 90
        0
102
RTVSPost2010PropOp41
 70
     1
102
RTVSPost2010Prop42
 90
       50
102
RTVSPost2010PropOp42
 70
     1
102
RTVSPost2010Prop43
 90
        3
102
RTVSPost2010PropOp43
 70
     1
102
RTVSPost2010Prop44ColorIndex
 90
        5
102
RTVSPost2010Prop44ColorRGB
 90
      255
102
RTVSPost2010PropOp44
 70
     1
102
RTVSPost2010Prop45
280
     0
102
RTVSPost2010PropOp45
 70
     1
102
RTVSPost2010Prop46
 90
       50
102
RTVSPost2010PropOp46
 70
     1
102
RTVSPost2010Prop47
 90
       50
102
RTVSPost2010PropOp47
 70
     1
102
RTVSPost2010Prop48
 90
       50
102
RTVSPost2010PropOp48
 70
     1
102
RTVSPost2010Prop49
280
     0
102
RTVSPost2010PropOp49
 70
     1
102
RTVSPost2010Prop50
 90
       50
102
RTVSPost2010PropOp50
 70
     1
102
RTVSPost2010Prop51ColorIndex
 90
      256
102
RTVSPost2010Prop51ColorRGB
 90
-16777216
102
RTVSPost2010PropOp51
 70
     0
102
RTVSPost2010Prop52
140
1.0
102
RTVSPost2010PropOp52
 70
     0
102
RTVSPost2010Prop53
 90
        2
102
RTVSPost2010PropOp53
 70
     1
102
RTVSPost2010Prop54
  1
strokes_ogs.tif
102
RTVSPost2010PropOp54
 70
     1
102
RTVSPost2010Prop55
280
     0
102
RTVSPost2010PropOp55
 70
     1
102
RTVSPost2010Prop56
140
1.0
102
RTVSPost2010PropOp56
 70
     1
102
RTVSPost2010Prop57
140
1.0
102
RTVSPost2010PropOp57
 70
     1
  0
XRECORD
  5
16F
102
{ACAD_REACTORS
330
16E
102
}
330
16E
100
AcDbXrecord
280
     1
102
RTVSPost2010Prop28
280
     0
102
RTVSPost2010PropOp28
 70
     1
102
RTVSPost2010Prop29
280
     1
102
RTVSPost2010PropOp29
 70
     1
102
RTVSPost2010Prop30
280
     1
102
RTVSPost2010PropOp30
 70
     1
102
RTVSPost2010Prop31
280
     0
102
RTVSPost2010PropOp31
 70
     1
102
RTVSPost2010Prop32
280
     0
102
RTVSPost2010PropOp32
 70
     1
102
RTVSPost2010Prop33
280
     0
102
RTVSPost2010PropOp33
 70
     1
102
RTVSPost2010Prop34
280
     0
102
RTVSPost2010PropOp34
 70
     1
102
RTVSPost2010Prop35
280
     0
102
RTVSPost2010PropOp35
 70
     1
102
RTVSPost2010Prop36
280
     0
102
RTVSPost2010PropOp36
 70
     1
102
RTVSPost2010Prop37
 90
       50
102
RTVSPost2010PropOp37
 70
     1
102
RTVSPost2010Prop38
140
0.0
102
RTVSPost2010PropOp38
 70
     1
102
RTVSPost2010Prop39
140
1.0
102
RTVSPost2010PropOp39
 70
     1
102
RTVSPost2010Prop40
 90
        0
102
RTVSPost2010PropOp40
 70
     1
102
RTVSPost2010Prop41ColorIndex
 90
       18
102
RTVSPost2010Prop41ColorRGB
 90
        0
102
RTVSPost2010PropOp41
 70
     1
102
RTVSPost2010Prop42
 90
       50
102
RTVSPost2010PropOp42
 70
     1
102
RTVSPost2010Prop43
 90
        3
102
RTVSPost2010PropOp43
 70
     1
102
RTVSPost2010Prop44ColorIndex
 90
        5
102
RTVSPost2010Prop44ColorRGB
 90
      255
102
RTVSPost2010PropOp44
 70
     1
102
RTVSPost2010Prop45
280
     0
102
RTVSPost2010PropOp45
 70
     1
102
RTVSPost2010Prop46
 90
       50
102
RTVSPost2010PropOp46
 70
     1
102
RTVSPost2010Prop47
 90
       50
102
RTVSPost2010PropOp47
 70
     1
102
RTVSPost2010Prop48
 90
       50
102
RTVSPost2010PropOp48
 70
     1
102
RTVSPost2010Prop49
280
     0
102
RTVSPost2010PropOp49
 70
     1
102
RTVSPost2010Prop50
 90
       50
102
RTVSPost2010PropOp50
 70
     1
102
RTVSPost2010Prop51ColorIndex
 90
      256
102
RTVSPost2010Prop51ColorRGB
 90
-16777216
102
RTVSPost2010PropOp51
 70
     0
102
RTVSPost2010Prop52
140
1.0
102
RTVSPost2010PropOp52
 70
     0
102
RTVSPost2010Prop53
 90
        2
102
RTVSPost2010PropOp53
 70
     1
102
RTVSPost2010Prop54
  1
strokes_ogs.tif
102
RTVSPost2010PropOp54
 70
     1
102
RTVSPost2010Prop55
280
     0
102
RTVSPost2010PropOp55
 70
     1
102
RTVSPost2010Prop56
140
1.0
102
RTVSPost2010PropOp56
 70
     1
102
RTVSPost2010Prop57
140
1.0
102
RTVSPost2010PropOp57
 70
     1
  0
XRECORD
  5
163
102
{ACAD_REACTORS
330
162
102
}
330
162
100
AcDbXrecord
280
     1
102
RTVSPost2010Prop28
280
     0
102
RTVSPost2010PropOp28
 70
     1
102
RTVSPost2010Prop29
280
     1
102
RTVSPost2010PropOp29
 70
     1
102
RTVSPost2010Prop30
280
     1
102
RTVSPost2010PropOp30
 70
     1
102
RTVSPost2010Prop31
280
     0
102
RTVSPost2010PropOp31
 70
     1
102
RTVSPost2010Prop32
280
     0
102
RTVSPost2010PropOp32
 70
     1
102
RTVSPost2010Prop33
280
     0
102
RTVSPost2010PropOp33
 70
     1
102
RTVSPost2010Prop34
280
     0
102
RTVSPost2010PropOp34
 70
     1
102
RTVSPost2010Prop35
280
     0
102
RTVSPost2010PropOp35
 70
     1
102
RTVSPost2010Prop36
280
     0
102
RTVSPost2010PropOp36
 70
     1
102
RTVSPost2010Prop37
 90
       50
102
RTVSPost2010PropOp37
 70
     1
102
RTVSPost2010Prop38
140
0.0
102
RTVSPost2010PropOp38
 70
     1
102
RTVSPost2010Prop39
140
1.0
102
RTVSPost2010PropOp39
 70
     1
102
RTVSPost2010Prop40
 90
        0
102
RTVSPost2010PropOp40
 70
     1
102
RTVSPost2010Prop41ColorIndex
 90
       18
102
RTVSPost2010Prop41ColorRGB
 90
        0
102
RTVSPost2010PropOp41
 70
     1
102
RTVSPost2010Prop42
 90
       50
102
RTVSPost2010PropOp42
 70
     1
102
RTVSPost2010Prop43
 90
        3
102
RTVSPost2010PropOp43
 70
     1
102
RTVSPost2010Prop44ColorIndex
 90
        5
102
RTVSPost2010Prop44ColorRGB
 90
      255
102
RTVSPost2010PropOp44
 70
     1
102
RTVSPost2010Prop45
280
     0
102
RTVSPost2010PropOp45
 70
     1
102
RTVSPost2010Prop46
 90
       50
102
RTVSPost2010PropOp46
 70
     1
102
RTVSPost2010Prop47
 90
       50
102
RTVSPost2010PropOp47
 70
     1
102
RTVSPost2010Prop48
 90
       50
102
RTVSPost2010PropOp48
 70
     1
102
RTVSPost2010Prop49
280
     0
102
RTVSPost2010PropOp49
 70
     1
102
RTVSPost2010Prop50
 90
       50
102
RTVSPost2010PropOp50
 70
     1
102
RTVSPost2010Prop51ColorIndex
 90
      256
102
RTVSPost2010Prop51ColorRGB
 90
-16777216
102
RTVSPost2010PropOp51
 70
     0
102
RTVSPost2010Prop52
140
1.0
102
RTVSPost2010PropOp52
 70
     0
102
RTVSPost2010Prop53
 90
        2
102
RTVSPost2010PropOp53
 70
     1
102
RTVSPost2010Prop54
  1
strokes_ogs.tif
102
RTVSPost2010PropOp54
 70
     1
102
RTVSPost2010Prop55
280
     0
102
RTVSPost2010PropOp55
 70
     1
102
RTVSPost2010Prop56
140
1.0
102
RTVSPost2010PropOp56
 70
     1
102
RTVSPost2010Prop57
140
1.0
102
RTVSPost2010PropOp57
 70
     1
  0
XRECORD
  5
17B
102
{ACAD_REACTORS
330
17A
102
}
330
17A
100
AcDbXrecord
280
     1
102
RTVSPost2010Prop28
280
     0
102
RTVSPost2010PropOp28
 70
     1
102
RTVSPost2010Prop29
280
     1
102
RTVSPost2010PropOp29
 70
     1
102
RTVSPost2010Prop30
280
     1
102
RTVSPost2010PropOp30
 70
     1
102
RTVSPost2010Prop31
280
     0
102
RTVSPost2010PropOp31
 70
     1
102
RTVSPost2010Prop32
280
     0
102
RTVSPost2010PropOp32
 70
     1
102
RTVSPost2010Prop33
280
     0
102
RTVSPost2010PropOp33
 70
     1
102
RTVSPost2010Prop34
280
     0
102
RTVSPost2010PropOp34
 70
     1
102
RTVSPost2010Prop35
280
     0
102
RTVSPost2010PropOp35
 70
     1
102
RTVSPost2010Prop36
280
     0
102
RTVSPost2010PropOp36
 70
     1
102
RTVSPost2010Prop37
 90
       50
102
RTVSPost2010PropOp37
 70
     1
102
RTVSPost2010Prop38
140
0.0
102
RTVSPost2010PropOp38
 70
     1
102
RTVSPost2010Prop39
140
1.0
102
RTVSPost2010PropOp39
 70
     1
102
RTVSPost2010Prop40
 90
        0
102
RTVSPost2010PropOp40
 70
     1
102
RTVSPost2010Prop41ColorIndex
 90
       18
102
RTVSPost2010Prop41ColorRGB
 90
        0
102
RTVSPost2010PropOp41
 70
     1
102
RTVSPost2010Prop42
 90
       50
102
RTVSPost2010PropOp42
 70
     1
102
RTVSPost2010Prop43
 90
        3
102
RTVSPost2010PropOp43
 70
     1
102
RTVSPost2010Prop44ColorIndex
 90
        5
102
RTVSPost2010Prop44ColorRGB
 90
      255
102
RTVSPost2010PropOp44
 70
     1
102
RTVSPost2010Prop45
280
     0
102
RTVSPost2010PropOp45
 70
     1
102
RTVSPost2010Prop46
 90
       50
102
RTVSPost2010PropOp46
 70
     1
102
RTVSPost2010Prop47
 90
       50
102
RTVSPost2010PropOp47
 70
     1
102
RTVSPost2010Prop48
 90
       50
102
RTVSPost2010PropOp48
 70
     1
102
RTVSPost2010Prop49
280
     0
102
RTVSPost2010PropOp49
 70
     1
102
RTVSPost2010Prop50
 90
       50
102
RTVSPost2010PropOp50
 70
     1
102
RTVSPost2010Prop51ColorIndex
 90
      256
102
RTVSPost2010Prop51ColorRGB
 90
-16777216
102
RTVSPost2010PropOp51
 70
     0
102
RTVSPost2010Prop52
140
1.0
102
RTVSPost2010PropOp52
 70
     0
102
RTVSPost2010Prop53
 90
        2
102
RTVSPost2010PropOp53
 70
     1
102
RTVSPost2010Prop54
  1
strokes_ogs.tif
102
RTVSPost2010PropOp54
 70
     1
102
RTVSPost2010Prop55
280
     0
102
RTVSPost2010PropOp55
 70
     1
102
RTVSPost2010Prop56
140
1.0
102
RTVSPost2010PropOp56
 70
     1
102
RTVSPost2010Prop57
140
1.0
102
RTVSPost2010PropOp57
 70
     1
  0
ENDSEC
  0
EOF
