  0
SECTION
  2
HEADER
  9
$ACADVER
  1
AC1024
  9
$ACADMAINTVER
 70
   205
  9
$DWGCODEPAGE
  3
ANSI_1251
  9
$INSBASE
 10
0.0
 20
0.0
 30
0.0
  9
$EXTMIN
 10
1.000000000000000E+20
 20
1.000000000000000E+20
 30
1.000000000000000E+20
  9
$EXTMAX
 10
-1.000000000000000E+20
 20
-1.000000000000000E+20
 30
-1.000000000000000E+20
  9
$LIMMIN
 10
0.0
 20
0.0
  9
$LIMMAX
 10
12.0
 20
9.0
  9
$ORTHOMODE
 70
     0
  9
$REGENMODE
 70
     1
  9
$FILLMODE
 70
     1
  9
$QTEXTMODE
 70
     0
  9
$MIRRTEXT
 70
     1
  9
$LTSCALE
 40
1.0
  9
$ATTMODE
 70
     1
  9
$TEXTSIZE
 40
0.2
  9
$TRACEWID
 40
0.05
  9
$TEXTSTYLE
  7
Standard
  9
$CLAYER
  8
OracDecor_skirtings
  9
$CELTYPE
  6
ByLayer
  9
$CECOLOR
 62
   256
  9
$CELTSCALE
 40
1.0
  9
$DISPSILH
 70
     0
  9
$DIMSCALE
 40
1.0
  9
$DIMASZ
 40
0.18
  9
$DIMEXO
 40
0.0625
  9
$DIMDLI
 40
0.38
  9
$DIMRND
 40
0.0
  9
$DIMDLE
 40
0.0
  9
$DIMEXE
 40
0.18
  9
$DIMTP
 40
0.0
  9
$DIMTM
 40
0.0
  9
$DIMTXT
 40
0.18
  9
$DIMCEN
 40
0.09
  9
$DIMTSZ
 40
0.0
  9
$DIMTOL
 70
     0
  9
$DIMLIM
 70
     0
  9
$DIMTIH
 70
     1
  9
$DIMTOH
 70
     1
  9
$DIMSE1
 70
     0
  9
$DIMSE2
 70
     0
  9
$DIMTAD
 70
     0
  9
$DIMZIN
 70
     0
  9
$DIMBLK
  1

  9
$DIMASO
 70
     1
  9
$DIMSHO
 70
     1
  9
$DIMPOST
  1

  9
$DIMAPOST
  1

  9
$DIMALT
 70
     0
  9
$DIMALTD
 70
     2
  9
$DIMALTF
 40
25.4
  9
$DIMLFAC
 40
1.0
  9
$DIMTOFL
 70
     0
  9
$DIMTVP
 40
0.0
  9
$DIMTIX
 70
     0
  9
$DIMSOXD
 70
     0
  9
$DIMSAH
 70
     0
  9
$DIMBLK1
  1

  9
$DIMBLK2
  1

  9
$DIMSTYLE
  2
Standard
  9
$DIMCLRD
 70
     0
  9
$DIMCLRE
 70
     0
  9
$DIMCLRT
 70
     0
  9
$DIMTFAC
 40
1.0
  9
$DIMGAP
 40
0.09
  9
$DIMJUST
 70
     0
  9
$DIMSD1
 70
     0
  9
$DIMSD2
 70
     0
  9
$DIMTOLJ
 70
     1
  9
$DIMTZIN
 70
     0
  9
$DIMALTZ
 70
     0
  9
$DIMALTTZ
 70
     0
  9
$DIMUPT
 70
     0
  9
$DIMDEC
 70
     4
  9
$DIMTDEC
 70
     4
  9
$DIMALTU
 70
     2
  9
$DIMALTTD
 70
     2
  9
$DIMTXSTY
  7
Standard
  9
$DIMAUNIT
 70
     0
  9
$DIMADEC
 70
     0
  9
$DIMALTRND
 40
0.0
  9
$DIMAZIN
 70
     0
  9
$DIMDSEP
 70
    46
  9
$DIMATFIT
 70
     3
  9
$DIMFRAC
 70
     0
  9
$DIMLDRBLK
  1

  9
$DIMLUNIT
 70
     2
  9
$DIMLWD
 70
    -2
  9
$DIMLWE
 70
    -2
  9
$DIMTMOVE
 70
     0
  9
$DIMFXL
 40
1.0
  9
$DIMFXLON
 70
     0
  9
$DIMJOGANG
 40
0.7853981633974483
  9
$DIMTFILL
 70
     0
  9
$DIMTFILLCLR
 70
     0
  9
$DIMARCSYM
 70
     0
  9
$DIMLTYPE
  6

  9
$DIMLTEX1
  6

  9
$DIMLTEX2
  6

  9
$DIMTXTDIRECTION
 70
     0
  9
$LUNITS
 70
     2
  9
$LUPREC
 70
     4
  9
$SKETCHINC
 40
0.1
  9
$FILLETRAD
 40
0.5
  9
$AUNITS
 70
     0
  9
$AUPREC
 70
     0
  9
$MENU
  1
.
  9
$ELEVATION
 40
0.0
  9
$PELEVATION
 40
0.0
  9
$THICKNESS
 40
0.0
  9
$LIMCHECK
 70
     0
  9
$CHAMFERA
 40
0.5
  9
$CHAMFERB
 40
0.5
  9
$CHAMFERC
 40
1.0
  9
$CHAMFERD
 40
0.0
  9
$SKPOLY
 70
     0
  9
$TDCREATE
 40
2451380.930432396
  9
$TDUCREATE
 40
2451380.805432396
  9
$TDUPDATE
 40
2451380.966180555
  9
$TDUUPDATE
 40
2451380.841180556
  9
$TDINDWG
 40
0.0075634375
  9
$TDUSRTIMER
 40
0.0075543981
  9
$USRTIMER
 70
     1
  9
$ANGBASE
 50
0.0
  9
$ANGDIR
 70
     0
  9
$PDMODE
 70
     0
  9
$PDSIZE
 40
0.0
  9
$PLINEWID
 40
0.0
  9
$SPLFRAME
 70
     0
  9
$SPLINETYPE
 70
     6
  9
$SPLINESEGS
 70
     8
  9
$HANDSEED
  5
192
  9
$SURFTAB1
 70
     6
  9
$SURFTAB2
 70
     6
  9
$SURFTYPE
 70
     6
  9
$SURFU
 70
     6
  9
$SURFV
 70
     6
  9
$UCSBASE
  2

  9
$UCSNAME
  2

  9
$UCSORG
 10
0.0
 20
0.0
 30
0.0
  9
$UCSXDIR
 10
1.0
 20
0.0
 30
0.0
  9
$UCSYDIR
 10
0.0
 20
1.0
 30
0.0
  9
$UCSORTHOREF
  2

  9
$UCSORTHOVIEW
 70
     0
  9
$UCSORGTOP
 10
0.0
 20
0.0
 30
0.0
  9
$UCSORGBOTTOM
 10
0.0
 20
0.0
 30
0.0
  9
$UCSORGLEFT
 10
0.0
 20
0.0
 30
0.0
  9
$UCSORGRIGHT
 10
0.0
 20
0.0
 30
0.0
  9
$UCSORGFRONT
 10
0.0
 20
0.0
 30
0.0
  9
$UCSORGBACK
 10
0.0
 20
0.0
 30
0.0
  9
$PUCSBASE
  2

  9
$PUCSNAME
  2

  9
$PUCSORG
 10
0.0
 20
0.0
 30
0.0
  9
$PUCSXDIR
 10
1.0
 20
0.0
 30
0.0
  9
$PUCSYDIR
 10
0.0
 20
1.0
 30
0.0
  9
$PUCSORTHOREF
  2

  9
$PUCSORTHOVIEW
 70
     0
  9
$PUCSORGTOP
 10
0.0
 20
0.0
 30
0.0
  9
$PUCSORGBOTTOM
 10
0.0
 20
0.0
 30
0.0
  9
$PUCSORGLEFT
 10
0.0
 20
0.0
 30
0.0
  9
$PUCSORGRIGHT
 10
0.0
 20
0.0
 30
0.0
  9
$PUCSORGFRONT
 10
0.0
 20
0.0
 30
0.0
  9
$PUCSORGBACK
 10
0.0
 20
0.0
 30
0.0
  9
$USERI1
 70
     0
  9
$USERI2
 70
     0
  9
$USERI3
 70
     0
  9
$USERI4
 70
     0
  9
$USERI5
 70
     0
  9
$USERR1
 40
0.0
  9
$USERR2
 40
0.0
  9
$USERR3
 40
0.0
  9
$USERR4
 40
0.0
  9
$USERR5
 40
0.0
  9
$WORLDVIEW
 70
     1
  9
$SHADEDGE
 70
     3
  9
$SHADEDIF
 70
    70
  9
$TILEMODE
 70
     1
  9
$MAXACTVP
 70
    64
  9
$PINSBASE
 10
0.0
 20
0.0
 30
0.0
  9
$PLIMCHECK
 70
     0
  9
$PEXTMIN
 10
1.000000000000000E+20
 20
1.000000000000000E+20
 30
1.000000000000000E+20
  9
$PEXTMAX
 10
-1.000000000000000E+20
 20
-1.000000000000000E+20
 30
-1.000000000000000E+20
  9
$PLIMMIN
 10
0.0
 20
0.0
  9
$PLIMMAX
 10
12.0
 20
9.0
  9
$UNITMODE
 70
     0
  9
$VISRETAIN
 70
     1
  9
$PLINEGEN
 70
     0
  9
$PSLTSCALE
 70
     1
  9
$TREEDEPTH
 70
  3020
  9
$CMLSTYLE
  2
Standard
  9
$CMLJUST
 70
     0
  9
$CMLSCALE
 40
1.0
  9
$PROXYGRAPHICS
 70
     1
  9
$MEASUREMENT
 70
     1
  9
$CELWEIGHT
370
    -1
  9
$ENDCAPS
280
     0
  9
$JOINSTYLE
280
     0
  9
$LWDISPLAY
290
     0
  9
$INSUNITS
 70
     4
  9
$HYPERLINKBASE
  1

  9
$STYLESHEET
  1

  9
$XEDIT
290
     1
  9
$CEPSNTYPE
380
     0
  9
$PSTYLEMODE
290
     1
  9
$FINGERPRINTGUID
  2
{12F50282-3ED8-11D3-A8B7-0060B0F84BC6}
  9
$VERSIONGUID
  2
{12F50293-3ED8-11D3-A8B7-0060B0F84BC6}
  9
$EXTNAMES
290
     1
  9
$PSVPSCALE
 40
0.0
  9
$OLESTARTUP
290
     0
  9
$SORTENTS
280
   127
  9
$INDEXCTL
280
     0
  9
$HIDETEXT
280
     0
  9
$XCLIPFRAME
280
     2
  9
$HALOGAP
280
     0
  9
$OBSCOLOR
 70
   257
  9
$OBSLTYPE
280
     0
  9
$INTERSECTIONDISPLAY
280
     0
  9
$INTERSECTIONCOLOR
 70
   257
  9
$DIMASSOC
280
     1
  9
$PROJECTNAME
  1

  9
$CAMERADISPLAY
290
     0
  9
$LENSLENGTH
 40
50.0
  9
$CAMERAHEIGHT
 40
0.0
  9
$STEPSPERSEC
 40
2.0
  9
$STEPSIZE
 40
6.0
  9
$3DDWFPREC
 40
2.0
  9
$PSOLWIDTH
 40
0.25
  9
$PSOLHEIGHT
 40
4.0
  9
$LOFTANG1
 40
1.570796326794896
  9
$LOFTANG2
 40
1.570796326794896
  9
$LOFTMAG1
 40
0.0
  9
$LOFTMAG2
 40
0.0
  9
$LOFTPARAM
 70
     7
  9
$LOFTNORMALS
280
     1
  9
$LATITUDE
 40
37.795
  9
$LONGITUDE
 40
-122.394
  9
$NORTHDIRECTION
 40
0.0
  9
$TIMEZONE
 70
 -8000
  9
$LIGHTGLYPHDISPLAY
280
     1
  9
$TILEMODELIGHTSYNCH
280
     1
  9
$CMATERIAL
347
AB
  9
$SOLIDHIST
280
     0
  9
$SHOWHIST
280
     1
  9
$DWFFRAME
280
     2
  9
$DGNFRAME
280
     0
  9
$REALWORLDSCALE
290
     1
  9
$INTERFERECOLOR
 62
     1
  9
$INTERFEREOBJVS
345
CD
  9
$INTERFEREVPVS
346
CA
  9
$CSHADOW
280
     0
  9
$SHADOWPLANELOCATION
 40
0.0
  0
ENDSEC
  0
SECTION
  2
CLASSES
  0
CLASS
  1
ACDBDICTIONARYWDFLT
  2
AcDbDictionaryWithDefault
  3
ObjectDBX Classes
 90
        0
 91
        1
280
     0
281
     0
  0
CLASS
  1
ACDBPLACEHOLDER
  2
AcDbPlaceHolder
  3
ObjectDBX Classes
 90
        0
 91
        2
280
     0
281
     0
  0
CLASS
  1
LAYOUT
  2
AcDbLayout
  3
ObjectDBX Classes
 90
        0
 91
        3
280
     0
281
     0
  0
CLASS
  1
MATERIAL
  2
AcDbMaterial
  3
ObjectDBX Classes
 90
     1153
 91
        3
280
     0
281
     0
  0
CLASS
  1
VISUALSTYLE
  2
AcDbVisualStyle
  3
ObjectDBX Classes
 90
     4095
 91
       24
280
     0
281
     0
  0
CLASS
  1
TABLESTYLE
  2
AcDbTableStyle
  3
ObjectDBX Classes
 90
     4095
 91
        1
280
     0
281
     0
  0
CLASS
  1
SCALE
  2
AcDbScale
  3
ObjectDBX Classes
 90
     1153
 91
       17
280
     0
281
     0
  0
CLASS
  1
MLEADERSTYLE
  2
AcDbMLeaderStyle
  3
ACDB_MLEADERSTYLE_CLASS
 90
     4095
 91
        1
280
     0
281
     0
  0
CLASS
  1
ACDBSECTIONVIEWSTYLE
  2
AcDbSectionViewStyle
  3
ObjectDBX Classes
 90
     1025
 91
        1
280
     0
281
     0
  0
CLASS
  1
ACDBDETAILVIEWSTYLE
  2
AcDbDetailViewStyle
  3
ObjectDBX Classes
 90
     1025
 91
        1
280
     0
281
     0
  0
CLASS
  1
MESH
  2
AcDbSubDMesh
  3
ObjectDBX Classes
 90
        0
 91
        1
280
     0
281
     1
  0
CLASS
  1
DICTIONARYVAR
  2
AcDbDictionaryVar
  3
ObjectDBX Classes
 90
        0
 91
        9
280
     0
281
     0
  0
CLASS
  1
CELLSTYLEMAP
  2
AcDbCellStyleMap
  3
ObjectDBX Classes
 90
     1152
 91
        1
280
     0
281
     0
  0
ENDSEC
  0
SECTION
  2
TABLES
  0
TABLE
  2
VPORT
  5
8
330
0
100
AcDbSymbolTable
 70
     1
  0
VPORT
  5
A8
330
8
100
AcDbSymbolTableRecord
100
AcDbViewportTableRecord
  2
*Active
 70
     0
 10
0.0
 20
0.0
 11
1.0
 21
1.0
 12
0.0000219163630391
 22
28.16938400268555
 13
0.0
 23
0.0
 14
0.5
 24
0.5
 15
0.5
 25
0.5
 16
-1.0
 26
-1.0
 36
1.0
 17
0.0
 27
0.0
 37
0.0
 40
1080.000353310128
 41
1.621391375388481
 42
50.0
 43
0.0
 44
0.0
 50
0.0
 51
0.0
 71
     0
 72
   100
 73
     1
 74
     3
 75
     0
 76
     0
 77
     0
 78
     0
281
     0
 65
     1
110
0.0
120
0.0
130
0.0
111
1.0
121
0.0
131
0.0
112
0.0
122
1.0
132
0.0
 79
     0
146
0.0
348
C9
 60
     3
 61
     5
292
     1
282
     1
141
0.0
142
0.0
 63
   250
421
  3355443
  0
ENDTAB
  0
TABLE
  2
LTYPE
  5
5
330
0
100
AcDbSymbolTable
 70
     1
  0
LTYPE
  5
14
330
5
100
AcDbSymbolTableRecord
100
AcDbLinetypeTableRecord
  2
ByBlock
 70
     0
  3

 72
    65
 73
     0
 40
0.0
  0
LTYPE
  5
15
330
5
100
AcDbSymbolTableRecord
100
AcDbLinetypeTableRecord
  2
ByLayer
 70
     0
  3

 72
    65
 73
     0
 40
0.0
  0
LTYPE
  5
16
330
5
100
AcDbSymbolTableRecord
100
AcDbLinetypeTableRecord
  2
Continuous
 70
     0
  3
Solid line
 72
    65
 73
     0
 40
0.0
  0
ENDTAB
  0
TABLE
  2
LAYER
  5
2
330
0
100
AcDbSymbolTable
 70
     3
  0
LAYER
  5
10
330
2
100
AcDbSymbolTableRecord
100
AcDbLayerTableRecord
  2
0
 70
     0
 62
     7
  6
Continuous
370
    -3
390
F
347
BB
  0
LAYER
  5
2B
330
2
100
AcDbSymbolTableRecord
100
AcDbLayerTableRecord
  2
ASHADE
 70
     4
 62
     7
  6
Continuous
370
    -3
390
2D
347
BB
  0
LAYER
  5
F8
330
2
100
AcDbSymbolTableRecord
100
AcDbLayerTableRecord
  2
OracDecor_skirtings
 70
     0
 62
    73
420
  9429335
  6
Continuous
370
    -3
390
F
347
BB
  0
ENDTAB
  0
TABLE
  2
STYLE
  5
3
330
0
100
AcDbSymbolTable
 70
     2
  0
STYLE
  5
11
330
3
100
AcDbSymbolTableRecord
100
AcDbTextStyleTableRecord
  2
Standard
 70
     0
 40
0.0
 41
1.0
 50
0.0
 71
     0
 42
0.2
  3
txt
  4

  0
STYLE
  5
2C
330
3
100
AcDbSymbolTableRecord
100
AcDbTextStyleTableRecord
  2
ASHADE
 70
     0
 40
0.2
 41
1.0
 50
0.0
 71
     0
 42
0.2
  3
simplex
  4

  0
ENDTAB
  0
TABLE
  2
VIEW
  5
6
330
0
100
AcDbSymbolTable
 70
     0
  0
ENDTAB
  0
TABLE
  2
UCS
  5
7
330
0
100
AcDbSymbolTable
 70
     0
  0
ENDTAB
  0
TABLE
  2
APPID
  5
9
330
0
100
AcDbSymbolTable
 70
     6
  0
APPID
  5
12
330
9
100
AcDbSymbolTableRecord
100
AcDbRegAppTableRecord
  2
ACAD
 70
     0
  0
APPID
  5
8F
330
9
100
AcDbSymbolTableRecord
100
AcDbRegAppTableRecord
  2
AVE_RENDER
 70
     0
  0
APPID
  5
90
330
9
100
AcDbSymbolTableRecord
100
AcDbRegAppTableRecord
  2
AVE_ENTITY_MATERIAL
 70
     0
  0
APPID
  5
9C
330
9
100
AcDbSymbolTableRecord
100
AcDbRegAppTableRecord
  2
AVE_FINISH
 70
     0
  0
APPID
  5
9D
330
9
100
AcDbSymbolTableRecord
100
AcDbRegAppTableRecord
  2
AVE_MATERIAL
 70
     0
  0
APPID
  5
9E
330
9
100
AcDbSymbolTableRecord
100
AcDbRegAppTableRecord
  2
AVE_GLOBAL
 70
     0
  0
ENDTAB
  0
TABLE
  2
DIMSTYLE
  5
A
330
0
100
AcDbSymbolTable
 70
     1
100
AcDbDimStyleTable
 71
     0
  0
DIMSTYLE
105
27
330
A
100
AcDbSymbolTableRecord
100
AcDbDimStyleTableRecord
  2
Standard
 70
     0
340
11
  0
ENDTAB
  0
TABLE
  2
BLOCK_RECORD
  5
1
330
0
100
AcDbSymbolTable
 70
     6
  0
BLOCK_RECORD
  5
1F
330
1
100
AcDbSymbolTableRecord
100
AcDbBlockTableRecord
  2
*Model_Space
340
22
 70
     0
280
     1
281
     0
  0
BLOCK_RECORD
  5
1B
330
1
100
AcDbSymbolTableRecord
100
AcDbBlockTableRecord
  2
*Paper_Space
340
1E
 70
     0
280
     1
281
     0
  0
BLOCK_RECORD
  5
23
330
1
100
AcDbSymbolTableRecord
100
AcDbBlockTableRecord
  2
*Paper_Space0
340
26
 70
     0
280
     1
281
     0
  0
BLOCK_RECORD
  5
2E
330
1
100
AcDbSymbolTableRecord
100
AcDbBlockTableRecord
  2
direct
340
0
 70
     0
280
     1
281
     0
  0
BLOCK_RECORD
  5
42
330
1
100
AcDbSymbolTableRecord
100
AcDbBlockTableRecord
  2
overhead
340
0
 70
     0
280
     1
281
     0
  0
BLOCK_RECORD
  5
5F
330
1
100
AcDbSymbolTableRecord
100
AcDbBlockTableRecord
  2
sh_spot
340
0
 70
     0
280
     1
281
     0
  0
BLOCK_RECORD
  5
91
330
1
100
AcDbSymbolTableRecord
100
AcDbBlockTableRecord
  2
AVE_RENDER
340
0
102
{BLKREFS
331
94
331
95
331
96
331
97
331
98
331
99
331
9A
331
9B
102
}
 70
     0
280
     1
281
     0
  0
BLOCK_RECORD
  5
9F
330
1
100
AcDbSymbolTableRecord
100
AcDbBlockTableRecord
  2
AVE_GLOBAL
340
0
102
{BLKREFS
331
A2
102
}
 70
     0
280
     1
281
     0
  0
ENDTAB
  0
ENDSEC
  0
SECTION
  2
BLOCKS
  0
BLOCK
  5
20
330
1F
100
AcDbEntity
  8
0
100
AcDbBlockBegin
  2
*Model_Space
 70
     0
 10
0.0
 20
0.0
 30
0.0
  3
*Model_Space
  1

  0
ENDBLK
  5
21
330
1F
100
AcDbEntity
  8
0
100
AcDbBlockEnd
  0
BLOCK
  5
1C
330
1B
100
AcDbEntity
 67
     1
  8
0
100
AcDbBlockBegin
  2
*Paper_Space
 70
     0
 10
0.0
 20
0.0
 30
0.0
  3
*Paper_Space
  1

  0
ENDBLK
  5
1D
330
1B
100
AcDbEntity
 67
     1
  8
0
100
AcDbBlockEnd
  0
BLOCK
  5
24
330
23
100
AcDbEntity
 67
     1
  8
0
100
AcDbBlockBegin
  2
*Paper_Space0
 70
     0
 10
0.0
 20
0.0
 30
0.0
  3
*Paper_Space0
  1

  0
ENDBLK
  5
25
330
23
100
AcDbEntity
 67
     1
  8
0
100
AcDbBlockEnd
  0
BLOCK
  5
40
330
2E
100
AcDbEntity
  8
0
100
AcDbBlockBegin
  2
direct
 70
     2
 10
0.0
 20
0.0
 30
0.0
  3
direct
  1

  0
ATTDEF
  5
2F
330
2E
100
AcDbEntity
  8
ASHADE
  6
Continuous
 62
     1
100
AcDbText
 10
0.0
 20
-0.1
 30
0.0
 40
0.2
  1

  7
ASHADE
 72
     1
 11
0.0
 21
-0.1
 31
0.0
100
AcDbAttributeDefinition
280
     0
  3
Light Name
  2
SNAME
 70
     0
280
     0
  0
ARC
  5
30
330
2E
100
AcDbEntity
  8
ASHADE
  6
Continuous
 62
     7
100
AcDbCircle
 10
0.0
 20
0.0
 30
0.0
 40
0.3
100
AcDbArc
 50
205.6792886194569
 51
334.3207113805431
  0
ARC
  5
31
330
2E
100
AcDbEntity
  8
ASHADE
  6
Continuous
 62
     7
100
AcDbCircle
 10
0.0
 20
0.0
 30
0.0
 40
0.3
100
AcDbArc
 50
25.67928861945685
 51
154.3207113805431
  0
LINE
  5
32
330
2E
100
AcDbEntity
  8
ASHADE
  6
Continuous
 62
     7
100
AcDbLine
 10
-0.21
 20
0.2142428528562855
 30
0.0
 11
-0.21
 21
0.5
 31
0.0
  0
LINE
  5
33
330
2E
100
AcDbEntity
  8
ASHADE
  6
Continuous
 62
     7
100
AcDbLine
 10
-0.11
 20
0.2791057147390572
 30
0.0
 11
-0.11
 21
0.5
 31
0.0
  0
LINE
  5
34
330
2E
100
AcDbEntity
  8
ASHADE
  6
Continuous
 62
     7
100
AcDbLine
 10
0.21
 20
0.2142428528562855
 30
0.0
 11
0.21
 21
0.5
 31
0.0
  0
ATTDEF
  5
35
330
2E
100
AcDbEntity
  8
ASHADE
  6
Continuous
 62
     7
100
AcDbText
 10
0.0
 20
0.25
 30
0.0
 40
0.01
  1

100
AcDbAttributeDefinition
280
     0
  3
Look-at Y
  2
LAY
 70
     1
280
     0
  0
ATTDEF
  5
36
330
2E
100
AcDbEntity
  8
ASHADE
  6
Continuous
 62
     7
100
AcDbText
 10
0.0
 20
0.22
 30
0.0
 40
0.01
  1
1
100
AcDbAttributeDefinition
280
     0
  3
Light Intensity
  2
INTENSITY
 70
     1
280
     0
  0
ATTDEF
  5
37
330
2E
100
AcDbEntity
  8
ASHADE
  6
Continuous
 62
     7
100
AcDbText
 10
0.0
 20
0.16
 30
0.0
 40
0.01
  1
-1
100
AcDbAttributeDefinition
280
     0
  3
*not used*
  2
BEAMD
 70
     1
280
     0
  0
ATTDEF
  5
38
330
2E
100
AcDbEntity
  8
ASHADE
  6
Continuous
 62
     7
100
AcDbText
 10
0.0
 20
0.175
 30
0.0
 40
0.01
  1
-1
100
AcDbAttributeDefinition
280
     0
  3
*not used*
  2
CONED
 70
     1
280
     0
  0
ATTDEF
  5
39
330
2E
100
AcDbEntity
  8
ASHADE
  6
Continuous
 62
     7
100
AcDbText
 10
0.0
 20
0.19
 30
0.0
 40
0.01
  1
0
100
AcDbAttributeDefinition
280
     0
  3
Depth Map Size
  2
CONEA
 70
     1
280
     0
  0
ATTDEF
  5
3A
330
2E
100
AcDbEntity
  8
ASHADE
  6
Continuous
 62
     7
100
AcDbText
 10
0.0
 20
0.2050000000000001
 30
0.0
 40
0.01
  1
1,1,1
100
AcDbAttributeDefinition
280
     0
  3
Light Color (RGB)
  2
COLOR
 70
     1
280
     0
  0
ATTDEF
  5
3B
330
2E
100
AcDbEntity
  8
ASHADE
  6
Continuous
 62
     7
100
AcDbText
 10
0.0
 20
0.235
 30
0.0
 40
0.01
  1

100
AcDbAttributeDefinition
280
     0
  3
Look-at Z
  2
LAZ
 70
     1
280
     0
  0
LINE
  5
3C
330
2E
100
AcDbEntity
  8
ASHADE
  6
Continuous
 62
     7
100
AcDbLine
 10
0.0
 20
0.3
 30
0.0
 11
0.0
 21
0.5
 31
0.0
  0
LINE
  5
3D
330
2E
100
AcDbEntity
  8
ASHADE
  6
Continuous
 62
     7
100
AcDbLine
 10
0.11
 20
0.2791057147390572
 30
0.0
 11
0.11
 21
0.5
 31
0.0
  0
ATTDEF
  5
3E
330
2E
100
AcDbEntity
  8
ASHADE
  6
Continuous
 62
     7
100
AcDbText
 10
0.0
 20
0.265
 30
0.0
 40
0.01
  1

100
AcDbAttributeDefinition
280
     0
  3
Look-at X
  2
LAX
 70
     1
280
     0
  0
ATTDEF
  5
3F
330
2E
100
AcDbEntity
  8
ASHADE
  6
Continuous
 62
     7
100
AcDbText
 10
0.0
 20
0.28
 30
0.0
 40
0.01
  1

100
AcDbAttributeDefinition
280
     0
  3

  2
GNAME
 70
     1
280
     0
  0
ENDBLK
  5
41
330
2E
100
AcDbEntity
  8
0
100
AcDbBlockEnd
  0
BLOCK
  5
5D
330
42
100
AcDbEntity
  8
0
100
AcDbBlockBegin
  2
overhead
 70
     2
 10
0.0
 20
0.0
 30
0.0
  3
overhead
  1

  0
ATTDEF
  5
43
330
42
100
AcDbEntity
  8
ASHADE
  6
Continuous
 62
     1
100
AcDbText
 10
0.0
 20
-0.1
 30
0.0
 40
0.2
  1

  7
ASHADE
 72
     1
 11
0.0
 21
-0.1
 31
0.0
100
AcDbAttributeDefinition
280
     0
  3
Light Name
  2
SNAME
 70
     0
280
     0
  0
ARC
  5
44
330
42
100
AcDbEntity
  8
ASHADE
  6
Continuous
 62
     7
100
AcDbCircle
 10
0.0
 20
0.0
 30
0.0
 40
0.3
100
AcDbArc
 50
205.6792886194569
 51
334.3207113805431
  0
LINE
  5
45
330
42
100
AcDbEntity
  8
ASHADE
  6
Continuous
 62
     7
100
AcDbLine
 10
-0.2041413561583015
 20
-0.2198324514393848
 30
0.0
 11
-0.2721884748777353
 21
-0.2931099352525131
 31
0.0
  0
LINE
  5
46
330
42
100
AcDbEntity
  8
ASHADE
  6
Continuous
 62
     7
100
AcDbLine
 10
-0.1096591641591904
 20
-0.2792398032442862
 30
0.0
 11
-0.1279356915190555
 21
-0.3257797704516673
 31
0.0
  0
LINE
  5
47
330
42
100
AcDbEntity
  8
ASHADE
  6
Continuous
 62
     7
100
AcDbLine
 10
0.0
 20
-0.2999999999999999
 30
0.0
 11
0.0
 21
-0.4
 31
0.0
  0
LINE
  5
48
330
42
100
AcDbEntity
  8
ASHADE
  6
Continuous
 62
     7
100
AcDbLine
 10
0.1096591641591904
 20
-0.2792398032442862
 30
0.0
 11
0.1279356915190555
 21
-0.3257797704516673
 31
0.0
  0
LINE
  5
49
330
42
100
AcDbEntity
  8
ASHADE
  6
Continuous
 62
     7
100
AcDbLine
 10
0.2041413561583015
 20
-0.2198324514393848
 30
0.0
 11
0.2721884748777353
 21
-0.2931099352525131
 31
0.0
  0
ARC
  5
4A
330
42
100
AcDbEntity
  8
ASHADE
  6
Continuous
 62
     7
100
AcDbCircle
 10
0.0
 20
0.0
 30
0.0
 40
0.3
100
AcDbArc
 50
25.67928861945685
 51
154.3207113805431
  0
LINE
  5
4B
330
42
100
AcDbEntity
  8
ASHADE
  6
Continuous
 62
     7
100
AcDbLine
 10
-0.2703701166919155
 20
0.13
 30
0.0
 11
-0.3154318028072347
 21
0.1516666666666666
 31
0.0
  0
LINE
  5
4C
330
42
100
AcDbEntity
  8
ASHADE
  6
Continuous
 62
     7
100
AcDbLine
 10
-0.2703701166919155
 20
-0.13
 30
0.0
 11
-0.3154318028072347
 21
-0.1516666666666666
 31
0.0
  0
LINE
  5
4D
330
42
100
AcDbEntity
  8
ASHADE
  6
Continuous
 62
     7
100
AcDbLine
 10
-0.2041413561583015
 20
0.2198324514393849
 30
0.0
 11
-0.2721884748777353
 21
0.2931099352525131
 31
0.0
  0
LINE
  5
4E
330
42
100
AcDbEntity
  8
ASHADE
  6
Continuous
 62
     7
100
AcDbLine
 10
-0.1096591641591904
 20
0.2792398032442862
 30
0.0
 11
-0.1279356915190555
 21
0.3257797704516674
 31
0.0
  0
LINE
  5
4F
330
42
100
AcDbEntity
  8
ASHADE
  6
Continuous
 62
     7
100
AcDbLine
 10
0.2703701166919155
 20
-0.13
 30
0.0
 11
0.3154318028072347
 21
-0.1516666666666666
 31
0.0
  0
LINE
  5
50
330
42
100
AcDbEntity
  8
ASHADE
  6
Continuous
 62
     7
100
AcDbLine
 10
0.2703701166919155
 20
0.13
 30
0.0
 11
0.3154318028072347
 21
0.1516666666666666
 31
0.0
  0
LINE
  5
51
330
42
100
AcDbEntity
  8
ASHADE
  6
Continuous
 62
     7
100
AcDbLine
 10
0.0
 20
0.3
 30
0.0
 11
0.0
 21
0.4
 31
0.0
  0
ATTDEF
  5
52
330
42
100
AcDbEntity
  8
ASHADE
  6
Continuous
 62
     7
100
AcDbText
 10
0.0
 20
0.22
 30
0.0
 40
0.01
  1
1
100
AcDbAttributeDefinition
280
     0
  3
Light Intensity
  2
INTENSITY
 70
     1
280
     0
  0
ATTDEF
  5
53
330
42
100
AcDbEntity
  8
ASHADE
  6
Continuous
 62
     7
100
AcDbText
 10
0.0
 20
0.16
 30
0.0
 40
0.01
  1
-1
100
AcDbAttributeDefinition
280
     0
  3
*not used*
  2
BEAMD
 70
     1
280
     0
  0
ATTDEF
  5
54
330
42
100
AcDbEntity
  8
ASHADE
  6
Continuous
 62
     7
100
AcDbText
 10
0.0
 20
0.175
 30
0.0
 40
0.01
  1
-1
100
AcDbAttributeDefinition
280
     0
  3
*not used*
  2
CONED
 70
     1
280
     0
  0
ATTDEF
  5
55
330
42
100
AcDbEntity
  8
ASHADE
  6
Continuous
 62
     7
100
AcDbText
 10
0.0
 20
0.19
 30
0.0
 40
0.01
  1
0
100
AcDbAttributeDefinition
280
     0
  3
Depth Map Size
  2
CONEA
 70
     1
280
     0
  0
ATTDEF
  5
56
330
42
100
AcDbEntity
  8
ASHADE
  6
Continuous
 62
     7
100
AcDbText
 10
0.0
 20
0.2050000000000001
 30
0.0
 40
0.01
  1
1,1,1
100
AcDbAttributeDefinition
280
     0
  3
Light Color (RGB)
  2
COLOR
 70
     1
280
     0
  0
ATTDEF
  5
57
330
42
100
AcDbEntity
  8
ASHADE
  6
Continuous
 62
     7
100
AcDbText
 10
0.0
 20
0.235
 30
0.0
 40
0.01
  1

100
AcDbAttributeDefinition
280
     0
  3
Look-at Z
  2
LAZ
 70
     1
280
     0
  0
ATTDEF
  5
58
330
42
100
AcDbEntity
  8
ASHADE
  6
Continuous
 62
     7
100
AcDbText
 10
0.0
 20
0.25
 30
0.0
 40
0.01
  1

100
AcDbAttributeDefinition
280
     0
  3
Look-at Y
  2
LAY
 70
     1
280
     0
  0
ATTDEF
  5
59
330
42
100
AcDbEntity
  8
ASHADE
  6
Continuous
 62
     7
100
AcDbText
 10
0.0
 20
0.265
 30
0.0
 40
0.01
  1

100
AcDbAttributeDefinition
280
     0
  3
Look-at X
  2
LAX
 70
     1
280
     0
  0
ATTDEF
  5
5A
330
42
100
AcDbEntity
  8
ASHADE
  6
Continuous
 62
     7
100
AcDbText
 10
0.0
 20
0.28
 30
0.0
 40
0.01
  1

100
AcDbAttributeDefinition
280
     0
  3

  2
GNAME
 70
     1
280
     0
  0
LINE
  5
5B
330
42
100
AcDbEntity
  8
ASHADE
  6
Continuous
 62
     7
100
AcDbLine
 10
0.1096591641591904
 20
0.2792398032442862
 30
0.0
 11
0.1279356915190555
 21
0.3257797704516674
 31
0.0
  0
LINE
  5
5C
330
42
100
AcDbEntity
  8
ASHADE
  6
Continuous
 62
     7
100
AcDbLine
 10
0.2041413561583015
 20
0.2198324514393849
 30
0.0
 11
0.2721884748777353
 21
0.2931099352525131
 31
0.0
  0
ENDBLK
  5
5E
330
42
100
AcDbEntity
  8
0
100
AcDbBlockEnd
  0
BLOCK
  5
85
330
5F
100
AcDbEntity
  8
0
100
AcDbBlockBegin
  2
sh_spot
 70
     2
 10
0.0
 20
0.0
 30
0.0
  3
sh_spot
  1

  0
LINE
  5
60
330
5F
100
AcDbEntity
  8
ASHADE
  6
Continuous
 62
     7
100
AcDbLine
 10
0.25
 20
0.26
 30
0.0
 11
-0.25
 21
0.26
 31
0.0
  0
LINE
  5
61
330
5F
100
AcDbEntity
  8
ASHADE
  6
Continuous
 62
     7
100
AcDbLine
 10
-0.25
 20
-0.3399999999999999
 30
0.0
 11
0.25
 21
-0.3399999999999999
 31
0.0
  0
ATTDEF
  5
62
330
5F
100
AcDbEntity
  8
ASHADE
  6
Continuous
 62
     1
100
AcDbText
 10
0.0
 20
-0.1
 30
0.0
 40
0.2
  1

  7
ASHADE
 72
     1
 11
0.0
 21
-0.1
 31
0.0
100
AcDbAttributeDefinition
280
     0
  3
Light Name
  2
SNAME
 70
     0
280
     0
  0
LINE
  5
63
330
5F
100
AcDbEntity
  8
ASHADE
  6
Continuous
 62
     7
100
AcDbLine
 10
-0.25
 20
-0.13
 30
0.0
 11
-0.25
 21
-0.3399999999999999
 31
0.0
  0
LINE
  5
64
330
5F
100
AcDbEntity
  8
ASHADE
  6
Continuous
 62
     7
100
AcDbLine
 10
-0.25
 20
-0.18
 30
0.0
 11
-0.29
 21
-0.18
 31
0.0
  0
LINE
  5
65
330
5F
100
AcDbEntity
  8
ASHADE
  6
Continuous
 62
     7
100
AcDbLine
 10
-0.29
 20
-0.22
 30
0.0
 11
-0.25
 21
-0.22
 31
0.0
  0
LINE
  5
66
330
5F
100
AcDbEntity
  8
ASHADE
  6
Continuous
 62
     7
100
AcDbLine
 10
-0.29
 20
-0.18
 30
0.0
 11
-0.29
 21
-0.22
 31
0.0
  0
LINE
  5
67
330
5F
100
AcDbEntity
  8
ASHADE
  6
Continuous
 62
     7
100
AcDbLine
 10
-0.1045454545454545
 20
0.26
 30
0.0
 11
-0.15
 21
0.46
 31
0.0
  0
LINE
  5
68
330
5F
100
AcDbEntity
  8
ASHADE
  6
Continuous
 62
     7
100
AcDbLine
 10
-0.21
 20
0.26
 30
0.0
 11
-0.301304347826087
 21
0.46
 31
0.0
  0
LINE
  5
69
330
5F
100
AcDbEntity
  8
ASHADE
  6
Continuous
 62
     7
100
AcDbLine
 10
-0.25
 20
0.26
 30
0.0
 11
-0.25
 21
0.13
 31
0.0
  0
LINE
  5
6A
330
5F
100
AcDbEntity
  8
ASHADE
  6
Continuous
 62
     7
100
AcDbLine
 10
-0.25
 20
0.22
 30
0.0
 11
-0.29
 21
0.22
 31
0.0
  0
LINE
  5
6B
330
5F
100
AcDbEntity
  8
ASHADE
  6
Continuous
 62
     7
100
AcDbLine
 10
-0.29
 20
0.1799999999999999
 30
0.0
 11
-0.25
 21
0.1799999999999999
 31
0.0
  0
LINE
  5
6C
330
5F
100
AcDbEntity
  8
ASHADE
  6
Continuous
 62
     7
100
AcDbLine
 10
-0.29
 20
0.22
 30
0.0
 11
-0.29
 21
0.1799999999999999
 31
0.0
  0
ATTDEF
  5
6D
330
5F
100
AcDbEntity
  8
ASHADE
  6
Continuous
 62
     7
100
AcDbText
 10
0.0
 20
-0.24
 30
0.0
 40
0.01
  1
0
100
AcDbAttributeDefinition
280
     0
  3
Depth Map Size
  2
ZSIZE
 70
     1
280
     0
  0
ATTDEF
  5
6E
330
5F
100
AcDbEntity
  8
ASHADE
  6
Continuous
 62
     7
100
AcDbText
 10
0.0
 20
-0.3300000000000001
 30
0.0
 40
0.01
  1
0,0,0
100
AcDbAttributeDefinition
280
     0
  3
Look-from XYZ
  2
LFXYZ
 70
     1
280
     0
  0
ATTDEF
  5
6F
330
5F
100
AcDbEntity
  8
ASHADE
  6
Continuous
 62
     7
100
AcDbText
 10
0.0
 20
-0.315
 30
0.0
 40
0.01
  1
0.0
100
AcDbAttributeDefinition
280
     0
  3
Beam Distribution
  2
BEAMDI
 70
     1
280
     0
  0
ATTDEF
  5
70
330
5F
100
AcDbEntity
  8
ASHADE
  6
Continuous
 62
     7
100
AcDbText
 10
0.0
 20
-0.3
 30
0.0
 40
0.01
  1
0.0
100
AcDbAttributeDefinition
280
     0
  3
Cone Delta
  2
CONEDE
 70
     1
280
     0
  0
ATTDEF
  5
71
330
5F
100
AcDbEntity
  8
ASHADE
  6
Continuous
 62
     7
100
AcDbText
 10
0.0
 20
-0.2850000000000001
 30
0.0
 40
0.01
  1
10.0
100
AcDbAttributeDefinition
280
     0
  3
Cone Angle
  2
CONEAN
 70
     1
280
     0
  0
ATTDEF
  5
72
330
5F
100
AcDbEntity
  8
ASHADE
  6
Continuous
 62
     7
100
AcDbText
 10
0.0
 20
-0.27
 30
0.0
 40
0.01
  1
-1
100
AcDbAttributeDefinition
280
     0
  3
*not used*
  2
BIASMAX
 70
     1
280
     0
  0
ATTDEF
  5
73
330
5F
100
AcDbEntity
  8
ASHADE
  6
Continuous
 62
     7
100
AcDbText
 10
0.0
 20
-0.255
 30
0.0
 40
0.01
  1
-1
100
AcDbAttributeDefinition
280
     0
  3
*not used*
  2
BIASMIN
 70
     1
280
     0
  0
ATTDEF
  5
74
330
5F
100
AcDbEntity
  8
ASHADE
  6
Continuous
 62
     7
100
AcDbText
 10
0.0
 20
-0.225
 30
0.0
 40
0.01
  1
1,1,1
100
AcDbAttributeDefinition
280
     0
  3
Light Color (RGB)
  2
COLOR
 70
     1
280
     0
  0
ATTDEF
  5
75
330
5F
100
AcDbEntity
  8
ASHADE
  6
Continuous
 62
     7
100
AcDbText
 10
0.0
 20
-0.21
 30
0.0
 40
0.01
  1
1
100
AcDbAttributeDefinition
280
     0
  3
Light Intensity
  2
INTENSITY
 70
     1
280
     0
  0
ATTDEF
  5
76
330
5F
100
AcDbEntity
  8
ASHADE
  6
Continuous
 62
     7
100
AcDbText
 10
0.0
 20
-0.15
 30
0.0
 40
0.01
  1

100
AcDbAttributeDefinition
280
     0
  3

  2
GNAME
 70
     1
280
     0
  0
ATTDEF
  5
77
330
5F
100
AcDbEntity
  8
ASHADE
  6
Continuous
 62
     7
100
AcDbText
 10
0.0
 20
-0.195
 30
0.0
 40
0.01
  1

100
AcDbAttributeDefinition
280
     0
  3
Look-at Z
  2
LAZ
 70
     1
280
     0
  0
ATTDEF
  5
78
330
5F
100
AcDbEntity
  8
ASHADE
  6
Continuous
 62
     7
100
AcDbText
 10
0.0
 20
-0.18
 30
0.0
 40
0.01
  1

100
AcDbAttributeDefinition
280
     0
  3
Look-at Y
  2
LAY
 70
     1
280
     0
  0
ATTDEF
  5
79
330
5F
100
AcDbEntity
  8
ASHADE
  6
Continuous
 62
     7
100
AcDbText
 10
0.0
 20
-0.165
 30
0.0
 40
0.01
  1

100
AcDbAttributeDefinition
280
     0
  3
Look-at X
  2
LAX
 70
     1
280
     0
  0
LINE
  5
7A
330
5F
100
AcDbEntity
  8
ASHADE
  6
Continuous
 62
     7
100
AcDbLine
 10
0.25
 20
-0.3399999999999999
 30
0.0
 11
0.25
 21
-0.13
 31
0.0
  0
LINE
  5
7B
330
5F
100
AcDbEntity
  8
ASHADE
  6
Continuous
 62
     7
100
AcDbLine
 10
0.25
 20
-0.18
 30
0.0
 11
0.29
 21
-0.18
 31
0.0
  0
LINE
  5
7C
330
5F
100
AcDbEntity
  8
ASHADE
  6
Continuous
 62
     7
100
AcDbLine
 10
0.29
 20
-0.22
 30
0.0
 11
0.25
 21
-0.22
 31
0.0
  0
LINE
  5
7D
330
5F
100
AcDbEntity
  8
ASHADE
  6
Continuous
 62
     7
100
AcDbLine
 10
0.29
 20
-0.18
 30
0.0
 11
0.29
 21
-0.22
 31
0.0
  0
LINE
  5
7E
330
5F
100
AcDbEntity
  8
ASHADE
  6
Continuous
 62
     7
100
AcDbLine
 10
0.21
 20
0.26
 30
0.0
 11
0.301304347826087
 21
0.46
 31
0.0
  0
LINE
  5
7F
330
5F
100
AcDbEntity
  8
ASHADE
  6
Continuous
 62
     7
100
AcDbLine
 10
0.1045454545454545
 20
0.26
 30
0.0
 11
0.15
 21
0.46
 31
0.0
  0
LINE
  5
80
330
5F
100
AcDbEntity
  8
ASHADE
  6
Continuous
 62
     7
100
AcDbLine
 10
0.0
 20
0.26
 30
0.0
 11
0.0
 21
0.46
 31
0.0
  0
LINE
  5
81
330
5F
100
AcDbEntity
  8
ASHADE
  6
Continuous
 62
     7
100
AcDbLine
 10
0.25
 20
0.13
 30
0.0
 11
0.25
 21
0.26
 31
0.0
  0
LINE
  5
82
330
5F
100
AcDbEntity
  8
ASHADE
  6
Continuous
 62
     7
100
AcDbLine
 10
0.25
 20
0.22
 30
0.0
 11
0.29
 21
0.22
 31
0.0
  0
LINE
  5
83
330
5F
100
AcDbEntity
  8
ASHADE
  6
Continuous
 62
     7
100
AcDbLine
 10
0.29
 20
0.1799999999999999
 30
0.0
 11
0.25
 21
0.1799999999999999
 31
0.0
  0
LINE
  5
84
330
5F
100
AcDbEntity
  8
ASHADE
  6
Continuous
 62
     7
100
AcDbLine
 10
0.29
 20
0.22
 30
0.0
 11
0.29
 21
0.1799999999999999
 31
0.0
  0
ENDBLK
  5
86
330
5F
100
AcDbEntity
  8
0
100
AcDbBlockEnd
  0
BLOCK
  5
92
330
91
100
AcDbEntity
  8
ASHADE
100
AcDbBlockBegin
  2
AVE_RENDER
 70
     0
 10
0.0
 20
0.0
 30
0.0
  3
AVE_RENDER
  1
AVE_RENDER
  0
ENDBLK
  5
93
330
91
100
AcDbEntity
  8
0
100
AcDbBlockEnd
  0
BLOCK
  5
A0
330
9F
100
AcDbEntity
  8
ASHADE
100
AcDbBlockBegin
  2
AVE_GLOBAL
 70
     0
 10
0.0
 20
0.0
 30
0.0
  3
AVE_GLOBAL
  1
AVE_GLOBAL
  0
ENDBLK
  5
A1
330
9F
100
AcDbEntity
  8
0
100
AcDbBlockEnd
  0
ENDSEC
  0
SECTION
  2
ENTITIES
  0
INSERT
  5
94
330
1F
100
AcDbEntity
  8
ASHADE
 62
     1
100
AcDbBlockReference
  2
AVE_RENDER
 10
0.0
 20
0.0
 30
0.0
1001
AVE_RENDER
1002
{
1070
     7
1000
Pref
1070
    30
1070
    20
1070
     1
1070
     0
1000

1070
    10
1070
     1
1070
    10
1040
1.0
1070
     1
1040
0.3
1040
0.7
1040
0.0
1040
10.0
1010
-1.0
1020
-1.0
1030
-1.0
1040
0.3
1070
    49
1070
     0
1070
     0
1010
1.0
1020
1.0
1030
1.0
1040
45.0
1070
     1
1070
     0
1000
WCS
1040
0.0
1070
     0
1040
10.0
1002
}
  0
INSERT
  5
95
330
1F
100
AcDbEntity
  8
ASHADE
 62
     3
100
AcDbBlockReference
  2
AVE_RENDER
 10
0.0
 20
0.0
 30
0.0
1001
AVE_RENDER
1002
{
1070
     0
1000
Full Opt
1070
     0
1070
     1
1070
     1
1070
     1
1070
     0
1070
     0
1070
     0
1070
     1
1070
     1
1040
0.0001
1040
0.0001
1002
}
  0
INSERT
  5
96
330
1F
100
AcDbEntity
  8
ASHADE
 62
     4
100
AcDbBlockReference
  2
AVE_RENDER
 10
0.0
 20
0.0
 30
0.0
1001
AVE_RENDER
1002
{
1070
     0
1000
Quick Opt
1070
     0
1070
     1
1070
     1
1070
     1
1070
     0
1070
     0
1070
     1
1002
}
  0
INSERT
  5
97
330
1F
100
AcDbEntity
  8
ASHADE
 62
     5
100
AcDbBlockReference
  2
AVE_RENDER
 10
0.0
 20
0.0
 30
0.0
1001
AVE_RENDER
1002
{
1070
     1
1000
Scanl Opt
1070
     2
1070
     0
1070
     2
1040
2.0
1040
4.0
1070
     0
1070
     1
1070
     0
1040
0.03
1002
}
  0
INSERT
  5
98
330
1F
100
AcDbEntity
  8
ASHADE
 62
     6
100
AcDbBlockReference
  2
AVE_RENDER
 10
0.0
 20
0.0
 30
0.0
1001
AVE_RENDER
1002
{
1070
     2
1000
Raytr Opt
1070
     2
1070
     0
1070
     2
1040
2.0
1040
4.0
1070
     0
1070
     1
1070
     1
1040
0.03
1070
     3
1040
0.03
1002
}
  0
INSERT
  5
99
330
1F
100
AcDbEntity
  8
ASHADE
 62
     7
100
AcDbBlockReference
  2
AVE_RENDER
 10
0.0
 20
0.0
 30
0.0
1001
AVE_RENDER
1002
{
1070
     0
1000
RFile Opt
1070
     1
1070
   640
1070
   480
1070
 10000
1070
     1
1070
     8
1070
     8
1070
     0
1070
     0
1070
     0
1070
     0
1070
     0
1070
     0
1070
     0
1002
}
  0
INSERT
  5
9A
330
1F
100
AcDbEntity
  8
ASHADE
 62
     8
100
AcDbBlockReference
  2
AVE_RENDER
 10
0.0
 20
0.0
 30
0.0
1001
AVE_RENDER
1002
{
1070
     0
1000
Fog Opt
1070
     0
1070
     0
1040
0.0
1040
1.0
1040
0.0
1040
1.0
1010
0.5
1020
0.5
1030
0.5
1002
}
  0
INSERT
  5
9B
330
1F
100
AcDbEntity
  8
ASHADE
 62
     9
100
AcDbBlockReference
  2
AVE_RENDER
 10
0.0
 20
0.0
 30
0.0
1001
AVE_RENDER
1002
{
1070
     0
1000
BG Opt
1070
     0
1070
     1
1010
0.0
1020
0.0
1030
0.0
1010
1.0
1020
0.0
1030
0.0
1010
0.0
1020
1.0
1030
0.0
1010
0.0
1020
0.0
1030
1.0
1040
0.5
1040
0.33
1040
0.0
1000

1070
     1
1000

1070
     1
1070
     1
1040
1.0
1040
1.0
1040
0.0
1040
0.0
1070
     0
1002
}
  0
INSERT
  5
A2
330
1F
100
AcDbEntity
  8
ASHADE
 62
     1
100
AcDbBlockReference
  2
AVE_GLOBAL
 10
0.0
 20
0.0
 30
0.0
1001
AVE_MATERIAL
1002
{
1000
*GLOBAL*
1000
2
1000
Global finish.
1002
{
1002
}
1002
{
1070
    63
1002
{
1002
{
1010
-1.0
1020
-1.0
1030
-1.0
1002
}
1040
0.1000000014901161
1000

1040
0.0
1002
{
1002
}
1040
0.0
1002
{
1002
}
1040
0.0
1002
}
1002
{
1002
{
1010
-1.0
1020
-1.0
1030
-1.0
1002
}
1040
0.6999999880790711
1000

1040
0.0
1002
{
1002
}
1040
0.0
1002
{
1002
}
1040
0.0
1002
}
1002
{
1002
{
1010
-1.0
1020
-1.0
1030
-1.0
1002
}
1040
0.2000000029802322
1000

1040
0.0
1002
{
1002
}
1040
0.0
1002
{
1002
}
1040
0.0
1002
}
1002
{
1070
     0
1002
{
1070
     1
1002
{
1040
1.0
1040
1.0
1000

1040
0.0
1002
{
1002
}
1040
0.0
1002
{
1002
}
1040
0.0
1002
}
1002
}
1040
1.0
1040
0.0
1040
0.0
1002
}
1002
{
1040
1.0
1040
1.0
1000

1040
0.0
1002
{
1002
}
1040
0.0
1002
{
1002
}
1040
0.0
1002
}
1002
{
1040
0.5
1040
1.0
1000

1040
0.0
1002
{
1002
}
1040
0.0
1002
{
1002
}
1040
0.0
1002
}
1002
{
1070
     0
1040
0.0
1002
{
1002
}
1040
1.0
1002
{
1002
}
1040
0.0
1002
}
1002
{
1040
0.0
1002
{
1002
{
1010
0.0
1020
0.0
1030
0.0
1002
}
1040
1.0
1000

1040
0.0
1002
{
1002
}
1040
0.0
1002
{
1002
}
1040
0.0
1002
}
1002
}
1002
{
1002
{
1070
     1
1002
{
1040
0.0
1040
1.0
1000

1040
0.0
1002
{
1002
}
1040
0.0
1002
{
1002
}
1040
0.0
1002
}
1002
}
1040
0.0
1002
{
1002
}
1010
1.0
1020
0.0
1030
0.0
1010
0.0
1020
1.0
1030
0.0
1010
0.0
1020
0.0
1030
1.0
1070
     0
1002
}
1002
{
1002
{
1040
1.0
1040
1.0
1002
{
1070
     1
1002
{
1040
1.0
1040
1.0
1000

1040
0.0
1002
{
1002
}
1040
0.0
1002
{
1002
}
1040
0.0
1002
}
1002
}
1002
}
1070
     0
1040
0.0
1002
{
1002
}
1002
}
1002
{
1002
}
1002
}
1002
{
1071
        3
1070
     3
1070
     0
1002
{
1070
     2
1070
     0
1070
     0
1040
0.0
1002
}
1070
     0
1070
     2
1002
{
1002
}
1002
}
1002
{
1040
8030.0
1040
190.3000030517578
1040
0.3050000071525574
1040
228.0
1040
545.0
1040
14.0
1040
17.39999961853027
1040
0.4560000002384186
1002
}
1002
}
  0
MESH
  5
F9
330
1F
100
AcDbEntity
  8
OracDecor_skirtings
 62
    34
420
 11622427
160
             24992
310
A0610000B60200000C00000013000000020000003C00000006000000020000000000000000408F4000000080EDFF0FC000000060CD2239400000000000408F4000000020EEFF0FC0000000E0A04C46400C000000130000000A0000003C00000006000000020000000000000000408F4000000040982224C0000000A0BA204A
310
400000000000408F4000000020EEFF0FC0000000E0A04C46400C00000013000000120000003C00000006000000020000000000000000408F400000004054D224C0000000E0D6E249400000000000408F4000000040982224C0000000A0BA204A400C000000130000001A0000003C0000000600000002000000000000000040
310
8F4000000080EDFF0FC000000060CD2239400000000000408F400000004054D224C0000000E0D6E249400C00000013000000220000003C00000006000000020000000000000000408F4000000000C86FB1BF00000000A9572D400000000000408F40000000001026B1BF00000000163524400C000000130000002A0000003C
310
00000006000000020000000000000000408F40000000000040033F0000008046B324400000000000408F40000000001026B1BF00000000163524400C00000013000000320000003C00000006000000020000000000000000408F40000000000000033F000000006A522C400000000000408F40000000000040033F00000080
310
46B324400C000000130000003A0000003C00000006000000020000000000000000408F4000000000C86FB1BF00000000A9572D400000000000408F40000000000000033F000000006A522C400C00000013000000420000003C00000006000000020000000000000000408F4000000000C86FB1BF00000000A9572D40000000
310
0000408F4000000000AAFDCFBF00000080C1D823400C000000130000004A0000003C00000006000000020000000000000000408F40000000001026B1BF00000000163524400000000000408F4000000000AAFDCFBF00000080C1D823400C00000013000000520000003C00000006000000020000000000000000408F400000
310
00007A25D1BF000000001A4B2E400000000000408F400000000064FFDFBF00000000EEB623400C000000130000005A0000003C00000006000000020000000000000000408F4000000000AAFDCFBF00000080C1D823400000000000408F400000000064FFDFBF00000000EEB623400C00000013000000620000003C00000006
310
000000020000000000000000408F4000000000C86FB1BF00000000A9572D400000000000408F40000000007A25D1BF000000001A4B2E400C000000130000006A0000003C00000006000000020000000000000000408F40000000007061F3BF00000040E0C130400000000000408F400000002072B80CC000000000EEB62340
310
0C00000013000000720000003C00000006000000020000000000000000408F400000000064FFDFBF00000000EEB623400000000000408F400000002072B80CC000000000EEB623400C000000130000007A0000003C00000006000000020000000000000000408F40000000007A25D1BF000000001A4B2E400000000000408F
310
40000000007061F3BF00000040E0C130400C00000013000000820000003C00000006000000020000000000000000408F4000000080EDFF0FC000000060CD2239400000000000408F40000000C0475210C00000008012EC22400C000000130000008A0000003C00000006000000020000000000000000408F400000000071E4
310
0FC000000000525423400000000000408F40000000C0475210C00000008012EC22400C00000013000000920000003C00000006000000020000000000000000408F4000000000AA760FC000000020B5E338400000000000408F400000000071E40FC000000000525423400C000000130000009A0000003C0000000600000002
310
0000000000000000408F4000000080EDFF0FC000000060CD2239400000000000408F4000000000AA760FC000000020B5E338400C00000013000000A20000003C00000006000000020000000000000000408F400000000071E40FC000000000525423400000000000408F4000000080EE7C0EC000000000F39C23400C000000
310
13000000AA0000003C00000006000000020000000000000000408F4000000040FFFF0DC0000000208BB538400000000000408F4000000080EE7C0EC000000000F39C23400C00000013000000B20000003C00000006000000020000000000000000408F4000000000AA760FC000000020B5E338400000000000408F40000000
310
40FFFF0DC0000000208BB538400C00000013000000BA0000003C00000006000000020000000000000000408F400000002072B80CC000000000EEB623400000000000408F4000000080EE7C0EC000000000F39C23400C00000013000000C20000003C00000006000000020000000000000000408F400000002072B80CC00000
310
0000EEB623400000000000408F4000000060EDFF0BC000000060A1A438400C00000013000000CA0000003C00000006000000020000000000000000408F4000000040FFFF0DC0000000208BB538400000000000408F4000000060EDFF0BC000000060A1A438400C00000013000000D20000003C000000060000000200000000
310
00000000408F400000002072B80CC000000000EEB623400000000000408F40000000C03186F5BF000000400C4031400C00000013000000DA0000003C00000006000000020000000000000000408F40000000C08AFAF4BF000000C05B8131400000000000408F40000000C03186F5BF000000400C4031400C00000013000000
310
E20000003C00000006000000020000000000000000408F4000000060EDFF0BC000000060A1A438400000000000408F40000000C08AFAF4BF000000C05B8131400C00000013000000EA0000003C00000006000000020000000000000000408F400000002072B80CC000000000EEB623400000000000408F40000000808AFAF4
310
BF000000E0BCFE30400C00000013000000F20000003C00000006000000020000000000000000408F40000000007061F3BF00000040E0C130400000000000408F40000000808AFAF4BF000000E0BCFE30400C00000013000000FA0000003C00000006000000020000000000000000408F40000000C03186F5BF000000400C40
310
31400000000000408F40000000808AFAF4BF000000E0BCFE30400C00000013000000020100003C00000006000000020000000000000000408F4000000060EDFF0BC000000060A1A438400000000000408F40000000407061F3BF0000006038BE31400C000000130000000A0100003C00000006000000020000000000000000
310
408F40000000007B25D1BF000000608B5A33400000000000408F40000000407061F3BF0000006038BE31400C00000013000000120100003C00000006000000020000000000000000408F40000000006AFFDFBF00000060A1A438400000000000408F40000000007B25D1BF000000608B5A33400C000000130000001A010000
310
3C00000006000000020000000000000000408F4000000060EDFF0BC000000060A1A438400000000000408F40000000006AFFDFBF00000060A1A438400C00000013000000220100003C00000006000000020000000000000000408F40000000C08AFAF4BF000000C05B8131400000000000408F40000000407061F3BF000000
310
6038BE31400C000000130000002A0100003C00000006000000020000000000000000408F4000000000B4FDCFBF000000A0B79338400000000000408F4000000000D06FB1BF0000000044D433400C00000013000000320100003C00000006000000020000000000000000408F40000000002026B1BF000000608D6538400000
310
000000408F4000000000D06FB1BF0000000044D433400C000000130000003A0100003C00000006000000020000000000000000408F4000000000B4FDCFBF000000A0B79338400000000000408F40000000002026B1BF000000608D6538400C00000013000000420100003C00000006000000020000000000000000408F4000
310
000000D06FB1BF0000000044D433400000000000408F40000000000080023F00000080E35634400C000000130000004A0100003C00000006000000020000000000000000408F40000000000080023F00000060752638400000000000408F40000000000080023F00000080E35634400C00000013000000520100003C000000
310
06000000020000000000000000408F40000000002026B1BF000000608D6538400000000000408F40000000000080023F00000060752638400C000000130000005A0100003C00000006000000020000000000000000408F40000000007B25D1BF000000608B5A33400000000000408F4000000000D06FB1BF0000000044D433
310
400C00000013000000620100003C00000006000000020000000000000000408F40000000006AFFDFBF00000060A1A438400000000000408F4000000000B4FDCFBF000000A0B79338400C000000130000006A0100003C00000006000000020000000000000000408F4000000040B3A319C0000000000000153F000000000040
310
8F40000000E0FBFF25C000000060B4E348400C00000013000000720100003C00000006000000020000000000000000408F4000000020FBFF25C0000000000000163F0000000000408F40000000E0FBFF25C000000060B4E348400C000000130000007A0100003C00000006000000020000000000000000408F4000000040B3
310
A319C0000000000000153F0000000000408F4000000020FBFF25C0000000000000163F0C00000013000000820100003C00000006000000020000000000000000408F400000004075C118C0000000008005AA3F0000000000408F4000000080E2B825C0000000A0865549400C000000130000008A0100003C00000006000000
310
020000000000000000408F40000000E0FBFF25C000000060B4E348400000000000408F4000000080E2B825C0000000A0865549400C00000013000000920100003C00000006000000020000000000000000408F4000000040B3A319C0000000000000153F0000000000408F400000004075C118C0000000008005AA3F0C0000
310
00130000009A0100003C00000006000000020000000000000000408F4000000000B40D18C000000000C0A9C83F0000000000408F4000000000775C25C0000000E0CE9D49400C00000013000000A20100003C00000006000000020000000000000000408F4000000080E2B825C0000000A0865549400000000000408F400000
310
0000775C25C0000000E0CE9D49400C00000013000000AA0100003C00000006000000020000000000000000408F400000004075C118C0000000008005AA3F0000000000408F4000000000B40D18C000000000C0A9C83F0C00000013000000B20100003C00000006000000020000000000000000408F400000004054D224C000
310
0000E0D6E249400000000000408F40000000C0A4AD17C000000000B05CD93F0C00000013000000BA0100003C00000006000000020000000000000000408F400000004054D224C0000000E0D6E249400000000000408F4000000000775C25C0000000E0CE9D49400C00000013000000C20100003C0000000600000002000000
310
0000000000408F4000000000B40D18C000000000C0A9C83F0000000000408F40000000C0A4AD17C000000000B05CD93F0C00000013000000CA0100003C00000006000000020000000000000000408F40000000C0475210C00000008012EC22400000000000408F40000000C0A4AD17C000000000B05CD93F0C000000130000
310
00D20100003C00000006000000020000000000000000408F4000000020EEFF0FC0000000E0A04C46400000000000408F40000000A0D5FD0EC0000000E02DB946400C00000013000000DA0100003C00000006000000020000000000000000408F40000000C0BB4923C0000000608D584A400000000000408F40000000A0D5FD
310
0EC0000000E02DB946400C00000013000000E20100003C00000006000000020000000000000000408F4000000040982224C0000000A0BA204A400000000000408F40000000C0BB4923C0000000608D584A400C00000013000000EA0100003C00000006000000020000000000000000408F40000000A0D5FD0EC0000000E02D
310
B946400000000000408F40000000A0100D0CC000000020A21C47400C00000013000000F20100003C00000006000000020000000000000000408F40000000009D5722C0000000A05D864A400000000000408F40000000A0100D0CC000000020A21C47400C00000013000000FA0100003C000000060000000200000000000000
310
00408F40000000C0BB4923C0000000608D584A400000000000408F40000000009D5722C0000000A05D864A400C00000013000000020200003C00000006000000020000000000000000408F40000000A0100D0CC000000020A21C47400000000000408F40000000E0376D07C0000000C0966E47400C000000130000000A0200
310
003C00000006000000020000000000000000408F400000000071BC20C0000000E0F4BD4A400000000000408F40000000E0376D07C0000000C0966E47400C00000013000000120200003C00000006000000020000000000000000408F40000000009D5722C0000000A05D864A400000000000408F400000000071BC20C00000
310
00E0F4BD4A400C000000130000001A0200003C00000006000000020000000000000000408F40000000E0376D07C0000000C0966E47400000000000408F40000000004925F1BF000000A0293348400C00000013000000220200003C00000006000000020000000000000000408F4000000040F7FF1FC000000020DCCE4A4000
310
00000000408F40000000004925F1BF000000A0293348400C000000130000002A0200003C00000006000000020000000000000000408F400000000071BC20C0000000E0F4BD4A400000000000408F4000000040F7FF1FC000000020DCCE4A400C00000013000000320200003C00000006000000020000000000000000408F40
310
000000000070B1BF000000003B484C400000000000408F40000000006C20C0BF0000008092E848400C000000130000003A0200003C00000006000000020000000000000000408F400000000000C0013F000000801F5549400000000000408F40000000006C20C0BF0000008092E848400C00000013000000420200003C0000
310
0006000000020000000000000000408F40000000000080013F00000040EB064C400000000000408F400000000000C0013F000000801F5549400C000000130000004A0200003C00000006000000020000000000000000408F40000000000070B1BF000000003B484C400000000000408F40000000000080013F00000040EB06
310
4C400C00000013000000520200003C00000006000000020000000000000000408F40000000008725D1BF000000A017854C400000000000408F40000000006096DFBF000000401E8548400C000000130000005A0200003C00000006000000020000000000000000408F40000000006C20C0BF0000008092E848400000000000
310
408F40000000006096DFBF000000401E8548400C00000013000000620200003C00000006000000020000000000000000408F40000000000070B1BF000000003B484C400000000000408F40000000008725D1BF000000A017854C400C000000130000006A0200003C00000006000000020000000000000000408F4000000000
310
4925F1BF000000A0293348400000000000408F40000000006096DFBF000000401E8548400C00000013000000720200003C00000006000000020000000000000000408F40000000006096DFBF000000401E8548400000000000408F4000000040F7FF1FC000000060084D4B400C000000130000007A0200003C000000060000
310
00020000000000000000408F4000000040F7FF1FC000000020DCCE4A400000000000408F4000000040F7FF1FC000000060084D4B400C00000013000000820200003C00000006000000020000000000000000408F40000000008725D1BF000000A017854C400000000000408F40000000C07361F3BF0000002041534D400C00
310
0000130000008A0200003C00000006000000020000000000000000408F4000000040F7FF1FC000000060084D4B400000000000408F40000000C07361F3BF0000002041534D400C00000013000000920200003C00000006000000020000000000000000408F40000000C07361F3BF0000002041534D400000000000408F4000
310
00008052B721C0000000E0A8AC4B400C000000130000009A0200003C00000006000000020000000000000000408F4000000040F7FF1FC000000060084D4B400000000000408F400000008052B721C0000000E0A8AC4B400C00000013000000A20200003C00000006000000020000000000000000408F40000000C07361F3BF
310
0000002041534D400000000000408F400000004038B522C0000000200AFB4B400C00000013000000AA0200003C00000006000000020000000000000000408F400000008052B721C0000000E0A8AC4B400000000000408F400000004038B522C0000000200AFB4B400C00000013000000B20200003C00000006000000020000
310
000000000000408F40000000C07361F3BF0000002041534D400000000000408F4000000080DC6A23C0000000A0CD4C4C400C00000013000000BA0200003C00000006000000020000000000000000408F400000004038B522C0000000200AFB4B400000000000408F4000000080DC6A23C0000000A0CD4C4C400C0000001300
310
0000C20200003C00000006000000020000000000000000408F40000000C07361F3BF0000002041534D400000000000408F40000000408EFAF4BF00000060AF714D400C00000013000000CA0200003C00000006000000020000000000000000408F400000004047EE23C00000006022AC4C400000000000408F40000000408E
310
FAF4BF00000060AF714D400C00000013000000D20200003C00000006000000020000000000000000408F4000000080DC6A23C0000000A0CD4C4C400000000000408F400000004047EE23C00000006022AC4C400C00000013000000DA0200003C00000006000000020000000000000000408F40000000408EFAF4BF00000060
310
AF714D400000000000408F40000000C0482824C000000020DD074D400C00000013000000E20200003C00000006000000020000000000000000408F400000004047EE23C00000006022AC4C400000000000408F40000000C0482824C000000020DD074D400C00000013000000EA0200003C0000000600000002000000000000
310
0000408F40000000408EFAF4BF00000060AF714D400000000000408F4000000080AF2024C0000000A0AB6C4D400C00000013000000F20200003C00000006000000020000000000000000408F40000000C0482824C000000020DD074D400000000000408F4000000080AF2024C0000000A0AB6C4D400C00000013000000FA02
310
00003C00000006000000020000000000000000408F40000000408EFAF4BF00000060AF714D400000000000408F4000000080DED823C000000020D3C74D400C00000013000000020300003C00000006000000020000000000000000408F4000000080AF2024C0000000A0AB6C4D400000000000408F4000000080DED823C000
310
000020D3C74D400C000000130000000A0300003C00000006000000020000000000000000408F40000000408EFAF4BF00000060AF714D400000000000408F40000000803586F5BF0000002057924D400C00000013000000120300003C00000006000000020000000000000000408F40000000E0384723C0000000A0DB254E40
310
0000000000408F40000000803586F5BF0000002057924D400C000000130000001A0300003C00000006000000020000000000000000408F4000000080DED823C000000020D3C74D400000000000408F40000000E0384723C0000000A0DB254E400C00000013000000220300003C00000006000000020000000000000000408F
310
40000000803586F5BF0000002057924D400000000000408F40000000E0468522C0000000E0F0754E400C000000130000002A0300003C00000006000000020000000000000000408F40000000E0384723C0000000A0DB254E400000000000408F40000000E0468522C0000000E0F0754E400C00000013000000320300003C00
310
000006000000020000000000000000408F40000000803586F5BF0000002057924D400000000000408F40000000A0DD7B21C000000060E7C14E400C000000130000003A0300003C00000006000000020000000000000000408F40000000E0468522C0000000E0F0754E400000000000408F40000000A0DD7B21C000000060E7
310
C14E400C00000013000000420300003C00000006000000020000000000000000408F40000000803586F5BF0000002057924D400000000000408F40000000A0A95520C0000000204BFD4E400C000000130000004A0300003C00000006000000020000000000000000408F40000000A0DD7B21C000000060E7C14E4000000000
310
00408F40000000A0A95520C0000000204BFD4E400C00000013000000520300003C00000006000000020000000000000000408F40000000803586F5BF0000002057924D400000000000408F40000000808EFAF4BF000000E0FEB24D400C000000130000005A0300003C00000006000000020000000000000000408F40000000
310
E01A261EC0000000205E3C4F400000000000408F40000000808EFAF4BF000000E0FEB24D400C00000013000000620300003C00000006000000020000000000000000408F40000000A0A95520C0000000204BFD4E400000000000408F40000000E01A261EC0000000205E3C4F400C000000130000006A0300003C0000000600
310
0000020000000000000000408F40000000808EFAF4BF000000E0FEB24D400000000000408F40000000603D081BC0000000A0E4874F400C00000013000000720300003C00000006000000020000000000000000408F40000000E01A261EC0000000205E3C4F400000000000408F40000000603D081BC0000000A0E4874F400C
310
000000130000007A0300003C00000006000000020000000000000000408F40000000808EFAF4BF000000E0FEB24D400000000000408F40000000007461F3BF000000206DD14D400C00000013000000820300003C00000006000000020000000000000000408F40000000A087CD18C000000020E9CF4F400000000000408F40
310
000000007461F3BF000000206DD14D400C000000130000008A0300003C00000006000000020000000000000000408F40000000603D081BC0000000A0E4874F400000000000408F40000000A087CD18C000000020E9CF4F400C00000013000000920300003C00000006000000020000000000000000408F40000000007461F3
310
BF000000206DD14D400000000000408F40000000201D7D16C0000000E0D21950400C000000130000009A0300003C00000006000000020000000000000000408F40000000007461F3BF000000206DD14D400000000000408F40000000008B25D1BF000000A0969F4E400C00000013000000A20300003C000000060000000200
310
00000000000000408F400000002087FB14C000000060674650400000000000408F40000000008B25D1BF000000A0969F4E400C00000013000000AA0300003C00000006000000020000000000000000408F40000000201D7D16C0000000E0D21950400000000000408F400000002087FB14C000000060674650400C00000013
310
000000B20300003C00000006000000020000000000000000408F40000000A087CD18C000000020E9CF4F400000000000408F40000000201D7D16C0000000E0D21950400C00000013000000BA0300003C00000006000000020000000000000000408F40000000008B25D1BF000000A0969F4E400000000000408F40000000C0
310
9FA613C0000000A0528050400C00000013000000C20300003C00000006000000020000000000000000408F400000002087FB14C000000060674650400000000000408F40000000C09FA613C0000000A0528050400C00000013000000CA0300003C00000006000000020000000000000000408F40000000008B25D1BF000000
310
A0969F4E400000000000408F40000000000070B1BF000000E072DC4E400C00000013000000D20300003C00000006000000020000000000000000408F40000000804FD912C0000000A0A2B150400000000000408F40000000000070B1BF000000E072DC4E400C00000013000000DA0300003C00000006000000020000000000
310
000000408F40000000C09FA613C0000000A0528050400000000000408F40000000804FD912C0000000A0A2B150400C00000013000000E20300003C00000006000000020000000000000000408F40000000000070B1BF000000E072DC4E400000000000408F40000000000000013F000000A0C21D4F400C00000013000000EA
310
0300003C00000006000000020000000000000000408F40000000C05E8612C0000000E074D250400000000000408F40000000000000013F000000A0C21D4F400C00000013000000F20300003C00000006000000020000000000000000408F40000000804FD912C0000000A0A2B150400000000000408F40000000C05E8612C0
310
000000E074D250400C00000013000000FA0300003C00000006000000020000000000000000408F40000000000000013F000000A0C21D4F400000000000408F4000000020163112C0000000E04E0551400C00000013000000020400003C00000006000000020000000000000000408F40000000C05E8612C0000000E074D250
310
400000000000408F4000000020163112C0000000E04E0551400C000000130000000A0400003C00000006000000020000000000000000408F40000000000000013F000000A0C21D4F400000000000408F40000000000080003F00000020084051400C00000013000000120400003C0000000600000002000000000000000040
310
8F40000000E0F7FF11C000000020084051400000000000408F40000000000080003F00000020084051400C000000130000001A0400003C00000006000000020000000000000000408F4000000020163112C0000000E04E0551400000000000408F40000000E0F7FF11C000000020084051400C00000013000000220400003C
310
0000000600000002000000000000E0FF3F8FC000000020FBFF25C0000000000000163F000000E0FF3F8FC000000080B3A319C0000000000000163F0C000000130000002A0400003C00000006000000020000000000000000408F4000000040B3A319C0000000000000153F000000E0FF3F8FC000000080B3A319C000000000
310
0000163F0C00000013000000320400003C00000006000000020000000000000000408F4000000020FBFF25C0000000000000163F000000E0FF3F8FC000000020FBFF25C0000000000000163F0C000000130000003A0400003C0000000600000002000000000000E0FF3F8FC000000080B3A319C0000000000000163F000000
310
E0FF3F8FC00000006075C118C0000000000006AA3F0C00000013000000420400003C00000006000000020000000000000000408F400000004075C118C0000000008005AA3F000000E0FF3F8FC00000006075C118C0000000000006AA3F0C000000130000004A0400003C0000000600000002000000000000E0FF3F8FC00000
310
006075C118C0000000000006AA3F000000E0FF3F8FC000000020B40D18C000000000E0A9C83F0C00000013000000520400003C00000006000000020000000000000000408F4000000000B40D18C000000000C0A9C83F000000E0FF3F8FC000000020B40D18C000000000E0A9C83F0C000000130000005A0400003C00000006
310
00000002000000000000E0FF3F8FC0000000E0A4AD17C000000000C05CD93F000000E0FF3F8FC000000020B40D18C000000000E0A9C83F0C00000013000000620400003C0000000600000002000000000000E0FF3F8FC0000000E0A4AD17C000000000C05CD93F0000000000408F40000000C0A4AD17C000000000B05CD93F
310
0C000000130000006A0400003C0000000600000002000000000000E0FF3F8FC0000000E0A4AD17C000000000C05CD93F000000E0FF3F8FC0000000C0475210C00000000013EC22400C00000013000000720400003C00000006000000020000000000000000408F40000000C0475210C00000008012EC2240000000E0FF3F8F
310
C0000000C0475210C00000000013EC22400C000000130000007A0400003C0000000600000002000000000000E0FF3F8FC0000000C0475210C00000000013EC2240000000E0FF3F8FC00000000071E40FC000000000525423400C00000013000000820400003C00000006000000020000000000000000408F400000000071E4
310
0FC00000000052542340000000E0FF3F8FC00000000071E40FC000000000525423400C000000130000008A0400003C0000000600000002000000000000E0FF3F8FC000000080EE7C0EC000000000F39C2340000000E0FF3F8FC00000000071E40FC000000000525423400C00000013000000920400003C0000000600000002
310
0000000000000000408F4000000080EE7C0EC000000000F39C2340000000E0FF3F8FC000000080EE7C0EC000000000F39C23400C000000130000009A0400003C0000000600000002000000000000E0FF3F8FC00000002072B80CC000000000EEB62340000000E0FF3F8FC000000080EE7C0EC000000000F39C23400C000000
310
13000000A20400003C0000000600000002000000000000E0FF3F8FC00000002072B80CC000000000EEB623400000000000408F400000002072B80CC000000000EEB623400C00000013000000AA0400003C0000000600000002000000000000E0FF3F8FC00000000065FFDFBF00000000EEB62340000000E0FF3F8FC0000000
310
2072B80CC000000000EEB623400C00000013000000B20400003C0000000600000002000000000000E0FF3F8FC00000000065FFDFBF00000000EEB623400000000000408F400000000064FFDFBF00000000EEB623400C00000013000000BA0400003C0000000600000002000000000000E0FF3F8FC00000000065FFDFBF0000
310
0000EEB62340000000E0FF3F8FC000000000ACFDCFBF00000080C1D823400C00000013000000C20400003C0000000600000002000000000000E0FF3F8FC000000000ACFDCFBF00000080C1D823400000000000408F4000000000AAFDCFBF00000080C1D823400C00000013000000CA0400003C000000060000000200000000
310
0000E0FF3F8FC000000000ACFDCFBF00000080C1D82340000000E0FF3F8FC0000000001026B1BF00000000163524400C00000013000000D20400003C00000006000000020000000000000000408F40000000001026B1BF0000000016352440000000E0FF3F8FC0000000001026B1BF00000000163524400C00000013000000
310
DA0400003C0000000600000002000000000000E0FF3F8FC0000000000040033F0000008046B32440000000E0FF3F8FC0000000001026B1BF00000000163524400C00000013000000E20400003C0000000600000002000000000000E0FF3F8FC0000000000040033F0000008046B324400000000000408F4000000000004003
310
3F0000008046B324400C00000013000000EA0400003C0000000600000002000000000000E0FF3F8FC0000000000040033F000000006A522C40000000E0FF3F8FC0000000000040033F0000008046B324400C00000013000000F20400003C0000000600000002000000000000E0FF3F8FC0000000000040033F000000006A52
310
2C400000000000408F40000000000000033F000000006A522C400C00000013000000FA0400003C0000000600000002000000000000E0FF3F8FC0000000000040033F000000006A522C40000000E0FF3F8FC000000000C86FB1BF00000000A9572D400C00000013000000020500003C00000006000000020000000000000000
310
408F4000000000C86FB1BF00000000A9572D40000000E0FF3F8FC000000000C86FB1BF00000000A9572D400C000000130000000A0500003C0000000600000002000000000000E0FF3F8FC0000000007B25D1BF000000001A4B2E40000000E0FF3F8FC000000000C86FB1BF00000000A9572D400C0000001300000012050000
310
3C00000006000000020000000000000000408F40000000007A25D1BF000000001A4B2E40000000E0FF3F8FC0000000007B25D1BF000000001A4B2E400C000000130000001A0500003C0000000600000002000000000000E0FF3F8FC0000000807061F3BF00000020E0C13040000000E0FF3F8FC0000000007B25D1BF000000
310
001A4B2E400C00000013000000220500003C0000000600000002000000000000E0FF3F8FC0000000807061F3BF00000020E0C130400000000000408F40000000007061F3BF00000040E0C130400C000000130000002A0500003C0000000600000002000000000000E0FF3F8FC0000000807061F3BF00000020E0C130400000
310
00E0FF3F8FC0000000808AFAF4BF000000C0BCFE30400C00000013000000320500003C00000006000000020000000000000000408F40000000808AFAF4BF000000E0BCFE3040000000E0FF3F8FC0000000808AFAF4BF000000C0BCFE30400C000000130000003A0500003C0000000600000002000000000000E0FF3F8FC000
310
0000003286F5BF000000200C403140000000E0FF3F8FC0000000808AFAF4BF000000C0BCFE30400C00000013000000420500003C00000006000000020000000000000000408F40000000C03186F5BF000000400C403140000000E0FF3F8FC0000000003286F5BF000000200C4031400C000000130000004A0500003C000000
310
0600000002000000000000E0FF3F8FC0000000008BFAF4BF000000A05B813140000000E0FF3F8FC0000000003286F5BF000000200C4031400C00000013000000520500003C0000000600000002000000000000E0FF3F8FC0000000008BFAF4BF000000A05B8131400000000000408F40000000C08AFAF4BF000000C05B8131
310
400C000000130000005A0500003C0000000600000002000000000000E0FF3F8FC0000000807061F3BF0000004038BE3140000000E0FF3F8FC0000000008BFAF4BF000000A05B8131400C00000013000000620500003C0000000600000002000000000000E0FF3F8FC0000000807061F3BF0000004038BE3140000000000040
310
8F40000000407061F3BF0000006038BE31400C000000130000006A0500003C0000000600000002000000000000E0FF3F8FC0000000007D25D1BF000000408B5A3340000000E0FF3F8FC0000000807061F3BF0000004038BE31400C00000013000000720500003C0000000600000002000000000000E0FF3F8FC0000000007D
310
25D1BF000000408B5A33400000000000408F40000000007B25D1BF000000608B5A33400C000000130000007A0500003C0000000600000002000000000000E0FF3F8FC0000000007D25D1BF000000408B5A3340000000E0FF3F8FC000000000D06FB1BF000000E043D433400C00000013000000820500003C00000006000000
310
02000000000000E0FF3F8FC000000000D06FB1BF000000E043D433400000000000408F4000000000D06FB1BF0000000044D433400C000000130000008A0500003C0000000600000002000000000000E0FF3F8FC000000000D06FB1BF000000E043D43340000000E0FF3F8FC0000000000080023F00000060E35634400C0000
310
0013000000920500003C00000006000000020000000000000000408F40000000000080023F00000080E3563440000000E0FF3F8FC0000000000080023F00000060E35634400C000000130000009A0500003C0000000600000002000000000000E0FF3F8FC00000000000C0023F0000004075263840000000E0FF3F8FC00000
310
00000080023F00000060E35634400C00000013000000A20500003C00000006000000020000000000000000408F40000000000080023F0000006075263840000000E0FF3F8FC00000000000C0023F00000040752638400C00000013000000AA0500003C0000000600000002000000000000E0FF3F8FC00000000000C0023F00
310
00004075263840000000E0FF3F8FC0000000001826B1BF000000408D6538400C00000013000000B20500003C00000006000000020000000000000000408F40000000002026B1BF000000608D653840000000E0FF3F8FC0000000001826B1BF000000408D6538400C00000013000000BA0500003C0000000600000002000000
310
000000E0FF3F8FC000000000B8FDCFBF00000080B7933840000000E0FF3F8FC0000000001826B1BF000000408D6538400C00000013000000C20500003C00000006000000020000000000000000408F4000000000B4FDCFBF000000A0B7933840000000E0FF3F8FC000000000B8FDCFBF00000080B79338400C000000130000
310
00CA0500003C0000000600000002000000000000E0FF3F8FC0000000006CFFDFBF00000040A1A43840000000E0FF3F8FC000000000B8FDCFBF00000080B79338400C00000013000000D20500003C00000006000000020000000000000000408F40000000006AFFDFBF00000060A1A43840000000E0FF3F8FC0000000006CFF
310
DFBF00000040A1A438400C00000013000000DA0500003C0000000600000002000000000000E0FF3F8FC000000080EDFF0BC000000040A1A43840000000E0FF3F8FC0000000006CFFDFBF00000040A1A438400C00000013000000E20500003C0000000600000002000000000000E0FF3F8FC000000080EDFF0BC000000040A1
310
A438400000000000408F4000000060EDFF0BC000000060A1A438400C00000013000000EA0500003C0000000600000002000000000000E0FF3F8FC000000080EDFF0BC000000040A1A43840000000E0FF3F8FC000000060FFFF0DC0000000008BB538400C00000013000000F20500003C0000000600000002000000000000E0
310
FF3F8FC000000060FFFF0DC0000000008BB538400000000000408F4000000040FFFF0DC0000000208BB538400C00000013000000FA0500003C0000000600000002000000000000E0FF3F8FC000000020AA760FC000000000B5E33840000000E0FF3F8FC000000060FFFF0DC0000000008BB538400C00000013000000020600
310
003C0000000600000002000000000000E0FF3F8FC000000020AA760FC000000000B5E338400000000000408F4000000000AA760FC000000020B5E338400C000000130000000A0600003C0000000600000002000000000000E0FF3F8FC000000020AA760FC000000000B5E33840000000E0FF3F8FC0000000A0EDFF0FC00000
310
0040CD2239400C00000013000000120600003C00000006000000020000000000000000408F4000000080EDFF0FC000000060CD223940000000E0FF3F8FC0000000A0EDFF0FC000000040CD2239400C000000130000001A0600003C0000000600000002000000000000E0FF3F8FC000000040EEFF0FC000000020A14C464000
310
0000E0FF3F8FC0000000A0EDFF0FC000000040CD2239400C00000013000000220600003C0000000600000002000000000000E0FF3F8FC000000040EEFF0FC000000020A14C46400000000000408F4000000020EEFF0FC0000000E0A04C46400C000000130000002A0600003C0000000600000002000000000000E0FF3F8FC0
310
00000040EEFF0FC000000020A14C4640000000E0FF3F8FC0000000A0D5FD0EC0000000202EB946400C00000013000000320600003C0000000600000002000000000000E0FF3F8FC0000000A0D5FD0EC0000000202EB946400000000000408F40000000A0D5FD0EC0000000E02DB946400C000000130000003A0600003C0000
310
000600000002000000000000E0FF3F8FC0000000A0D5FD0EC0000000202EB94640000000E0FF3F8FC0000000C0100D0CC000000060A21C47400C00000013000000420600003C00000006000000020000000000000000408F40000000A0100D0CC000000020A21C4740000000E0FF3F8FC0000000C0100D0CC000000060A21C
310
47400C000000130000004A0600003C0000000600000002000000000000E0FF3F8FC000000020386D07C0000000E0966E4740000000E0FF3F8FC0000000C0100D0CC000000060A21C47400C00000013000000520600003C00000006000000020000000000000000408F40000000E0376D07C0000000C0966E4740000000E0FF
310
3F8FC000000020386D07C0000000E0966E47400C000000130000005A0600003C0000000600000002000000000000E0FF3F8FC0000000404925F1BF000000C029334840000000E0FF3F8FC000000020386D07C0000000E0966E47400C00000013000000620600003C00000006000000020000000000000000408F4000000000
310
4925F1BF000000A029334840000000E0FF3F8FC0000000404925F1BF000000C0293348400C000000130000006A0600003C0000000600000002000000000000E0FF3F8FC0000000006296DFBF000000601E854840000000E0FF3F8FC0000000404925F1BF000000C0293348400C00000013000000720600003C000000060000
310
0002000000000000E0FF3F8FC0000000006296DFBF000000601E8548400000000000408F40000000006096DFBF000000401E8548400C000000130000007A0600003C0000000600000002000000000000E0FF3F8FC0000000007020C0BF000000A092E84840000000E0FF3F8FC0000000006296DFBF000000601E8548400C00
310
000013000000820600003C0000000600000002000000000000E0FF3F8FC0000000007020C0BF000000A092E848400000000000408F40000000006C20C0BF0000008092E848400C000000130000008A0600003C0000000600000002000000000000E0FF3F8FC0000000007020C0BF000000A092E84840000000E0FF3F8FC000
310
00000000C0013F000000A01F5549400C00000013000000920600003C00000006000000020000000000000000408F400000000000C0013F000000801F554940000000E0FF3F8FC00000000000C0013F000000A01F5549400C000000130000009A0600003C0000000600000002000000000000E0FF3F8FC0000000000080013F
310
00000060EB064C40000000E0FF3F8FC00000000000C0013F000000A01F5549400C00000013000000A20600003C0000000600000002000000000000E0FF3F8FC0000000000080013F00000060EB064C400000000000408F40000000000080013F00000040EB064C400C00000013000000AA0600003C00000006000000020000
310
00000000E0FF3F8FC0000000000080013F00000060EB064C40000000E0FF3F8FC000000000F86FB1BF000000203B484C400C00000013000000B20600003C00000006000000020000000000000000408F40000000000070B1BF000000003B484C40000000E0FF3F8FC000000000F86FB1BF000000203B484C400C0000001300
310
0000BA0600003C0000000600000002000000000000E0FF3F8FC0000000008A25D1BF000000A017854C40000000E0FF3F8FC000000000F86FB1BF000000203B484C400C00000013000000C20600003C00000006000000020000000000000000408F40000000008725D1BF000000A017854C40000000E0FF3F8FC0000000008A
310
25D1BF000000A017854C400C00000013000000CA0600003C0000000600000002000000000000E0FF3F8FC0000000007461F3BF0000002041534D40000000E0FF3F8FC0000000008A25D1BF000000A017854C400C00000013000000D20600003C00000006000000020000000000000000408F40000000C07361F3BF00000020
310
41534D40000000E0FF3F8FC0000000007461F3BF0000002041534D400C00000013000000DA0600003C0000000600000002000000000000E0FF3F8FC0000000007461F3BF0000002041534D40000000E0FF3F8FC0000000808EFAF4BF00000060AF714D400C00000013000000E20600003C0000000600000002000000000000
310
0000408F40000000408EFAF4BF00000060AF714D40000000E0FF3F8FC0000000808EFAF4BF00000060AF714D400C00000013000000EA0600003C0000000600000002000000000000E0FF3F8FC0000000C03586F5BF0000002057924D40000000E0FF3F8FC0000000808EFAF4BF00000060AF714D400C00000013000000F206
310
00003C0000000600000002000000000000E0FF3F8FC0000000C03586F5BF0000002057924D400000000000408F40000000803586F5BF0000002057924D400C00000013000000FA0600003C0000000600000002000000000000E0FF3F8FC0000000C03586F5BF0000002057924D40000000E0FF3F8FC0000000008FFAF4BF00
310
0000E0FEB24D400C00000013000000020700003C00000006000000020000000000000000408F40000000808EFAF4BF000000E0FEB24D40000000E0FF3F8FC0000000008FFAF4BF000000E0FEB24D400C000000130000000A0700003C0000000600000002000000000000E0FF3F8FC0000000807461F3BF000000206DD14D40
310
000000E0FF3F8FC0000000008FFAF4BF000000E0FEB24D400C00000013000000120700003C00000006000000020000000000000000408F40000000007461F3BF000000206DD14D40000000E0FF3F8FC0000000807461F3BF000000206DD14D400C000000130000001A0700003C0000000600000002000000000000E0FF3F8F
310
C0000000008C25D1BF000000A0969F4E40000000E0FF3F8FC0000000807461F3BF000000206DD14D400C00000013000000220700003C00000006000000020000000000000000408F40000000008B25D1BF000000A0969F4E40000000E0FF3F8FC0000000008C25D1BF000000A0969F4E400C000000130000002A0700003C00
310
00000600000002000000000000E0FF3F8FC0000000008C25D1BF000000A0969F4E40000000E0FF3F8FC0000000000070B1BF000000E072DC4E400C00000013000000320700003C00000006000000020000000000000000408F40000000000070B1BF000000E072DC4E40000000E0FF3F8FC0000000000070B1BF000000E072
310
DC4E400C000000130000003A0700003C0000000600000002000000000000E0FF3F8FC0000000000040013F000000A0C21D4F40000000E0FF3F8FC0000000000070B1BF000000E072DC4E400C00000013000000420700003C0000000600000002000000000000E0FF3F8FC0000000000040013F000000A0C21D4F4000000000
310
00408F40000000000000013F000000A0C21D4F400C000000130000004A0700003C0000000600000002000000000000E0FF3F8FC0000000000080003F0000000008405140000000E0FF3F8FC0000000000040013F000000A0C21D4F400C00000013000000520700003C0000000600000002000000000000E0FF3F8FC0000000
310
000080003F00000000084051400000000000408F40000000000080003F00000020084051400C000000130000005A0700003C0000000600000002000000000000E0FF3F8FC0000000000080003F0000000008405140000000E0FF3F8FC0000000E0F7FF11C000000000084051400C00000013000000620700003C0000000600
310
0000020000000000000000408F40000000E0F7FF11C00000002008405140000000E0FF3F8FC0000000E0F7FF11C000000000084051400C000000130000006A0700003C0000000600000002000000000000E0FF3F8FC0000000E0F7FF11C00000000008405140000000E0FF3F8FC000000040163112C0000000E04E0551400C
310
00000013000000720700003C00000006000000020000000000000000408F4000000020163112C0000000E04E055140000000E0FF3F8FC000000040163112C0000000E04E0551400C000000130000007A0700003C0000000600000002000000000000E0FF3F8FC0000000005F8612C0000000E074D25040000000E0FF3F8FC0
310
00000040163112C0000000E04E0551400C00000013000000820700003C00000006000000020000000000000000408F40000000C05E8612C0000000E074D25040000000E0FF3F8FC0000000005F8612C0000000E074D250400C000000130000008A0700003C0000000600000002000000000000E0FF3F8FC0000000005F8612
310
C0000000E074D25040000000E0FF3F8FC0000000C04FD912C0000000A0A2B150400C00000013000000920700003C00000006000000020000000000000000408F40000000804FD912C0000000A0A2B15040000000E0FF3F8FC0000000C04FD912C0000000A0A2B150400C000000130000009A0700003C000000060000000200
310
0000000000E0FF3F8FC0000000E09FA613C0000000A052805040000000E0FF3F8FC0000000C04FD912C0000000A0A2B150400C00000013000000A20700003C00000006000000020000000000000000408F40000000C09FA613C0000000A052805040000000E0FF3F8FC0000000E09FA613C0000000A0528050400C00000013
310
000000AA0700003C0000000600000002000000000000E0FF3F8FC00000002087FB14C00000006067465040000000E0FF3F8FC0000000E09FA613C0000000A0528050400C00000013000000B20700003C0000000600000002000000000000E0FF3F8FC00000002087FB14C000000060674650400000000000408F4000000020
310
87FB14C000000060674650400C00000013000000BA0700003C0000000600000002000000000000E0FF3F8FC0000000401D7D16C0000000E0D2195040000000E0FF3F8FC00000002087FB14C000000060674650400C00000013000000C20700003C0000000600000002000000000000E0FF3F8FC0000000401D7D16C0000000
310
E0D21950400000000000408F40000000201D7D16C0000000E0D21950400C00000013000000CA0700003C0000000600000002000000000000E0FF3F8FC0000000401D7D16C0000000E0D2195040000000E0FF3F8FC0000000C087CD18C000000060E9CF4F400C00000013000000D20700003C00000006000000020000000000
310
000000408F40000000A087CD18C000000020E9CF4F40000000E0FF3F8FC0000000C087CD18C000000060E9CF4F400C00000013000000DA0700003C0000000600000002000000000000E0FF3F8FC0000000803D081BC0000000E0E4874F40000000E0FF3F8FC0000000C087CD18C000000060E9CF4F400C00000013000000E2
310
0700003C00000006000000020000000000000000408F40000000603D081BC0000000A0E4874F40000000E0FF3F8FC0000000803D081BC0000000E0E4874F400C00000013000000EA0700003C0000000600000002000000000000E0FF3F8FC0000000803D081BC0000000E0E4874F40000000E0FF3F8FC0000000201B261EC0
310
000000605E3C4F400C00000013000000F20700003C00000006000000020000000000000000408F40000000E01A261EC0000000205E3C4F40000000E0FF3F8FC0000000201B261EC0000000605E3C4F400C00000013000000FA0700003C0000000600000002000000000000E0FF3F8FC0000000A0A95520C0000000204BFD4E
310
40000000E0FF3F8FC0000000201B261EC0000000605E3C4F400C00000013000000020800003C00000006000000020000000000000000408F40000000A0A95520C0000000204BFD4E40000000E0FF3F8FC0000000A0A95520C0000000204BFD4E400C000000130000000A0800003C0000000600000002000000000000E0FF3F
310
8FC0000000A0A95520C0000000204BFD4E40000000E0FF3F8FC0000000A0DD7B21C000000060E7C14E400C00000013000000120800003C00000006000000020000000000000000408F40000000A0DD7B21C000000060E7C14E40000000E0FF3F8FC0000000A0DD7B21C000000060E7C14E400C000000130000001A0800003C
310
0000000600000002000000000000E0FF3F8FC0000000E0468522C0000000E0F0754E40000000E0FF3F8FC0000000A0DD7B21C000000060E7C14E400C00000013000000220800003C0000000600000002000000000000E0FF3F8FC0000000E0468522C0000000E0F0754E400000000000408F40000000E0468522C0000000E0
310
F0754E400C000000130000002A0800003C0000000600000002000000000000E0FF3F8FC0000000E0468522C0000000E0F0754E40000000E0FF3F8FC0000000E0384723C0000000A0DB254E400C00000013000000320800003C0000000600000002000000000000E0FF3F8FC0000000E0384723C0000000A0DB254E40000000
310
0000408F40000000E0384723C0000000A0DB254E400C000000130000003A0800003C0000000600000002000000000000E0FF3F8FC000000080DED823C000000060D3C74D40000000E0FF3F8FC0000000E0384723C0000000A0DB254E400C00000013000000420800003C0000000600000002000000000000E0FF3F8FC00000
310
0080DED823C000000060D3C74D400000000000408F4000000080DED823C000000020D3C74D400C000000130000004A0800003C0000000600000002000000000000E0FF3F8FC000000080DED823C000000060D3C74D40000000E0FF3F8FC000000080AF2024C0000000E0AB6C4D400C00000013000000520800003C00000006
310
000000020000000000000000408F4000000080AF2024C0000000A0AB6C4D40000000E0FF3F8FC000000080AF2024C0000000E0AB6C4D400C000000130000005A0800003C0000000600000002000000000000E0FF3F8FC0000000C0482824C000000060DD074D40000000E0FF3F8FC000000080AF2024C0000000E0AB6C4D40
310
0C00000013000000620800003C0000000600000002000000000000E0FF3F8FC0000000C0482824C000000060DD074D400000000000408F40000000C0482824C000000020DD074D400C000000130000006A0800003C0000000600000002000000000000E0FF3F8FC0000000C0482824C000000060DD074D40000000E0FF3F8F
310
C00000004047EE23C0000000A022AC4C400C00000013000000720800003C00000006000000020000000000000000408F400000004047EE23C00000006022AC4C40000000E0FF3F8FC00000004047EE23C0000000A022AC4C400C000000130000007A0800003C0000000600000002000000000000E0FF3F8FC000000080DC6A
310
23C0000000A0CD4C4C40000000E0FF3F8FC00000004047EE23C0000000A022AC4C400C00000013000000820800003C00000006000000020000000000000000408F4000000080DC6A23C0000000A0CD4C4C40000000E0FF3F8FC000000080DC6A23C0000000A0CD4C4C400C000000130000008A0800003C0000000600000002
310
000000000000E0FF3F8FC00000004038B522C0000000200AFB4B40000000E0FF3F8FC000000080DC6A23C0000000A0CD4C4C400C00000013000000920800003C0000000600000002000000000000E0FF3F8FC00000004038B522C0000000200AFB4B400000000000408F400000004038B522C0000000200AFB4B400C000000
310
130000009A0800003C0000000600000002000000000000E0FF3F8FC00000004038B522C0000000200AFB4B40000000E0FF3F8FC00000008052B721C0000000E0A8AC4B400C00000013000000A20800003C00000006000000020000000000000000408F400000008052B721C0000000E0A8AC4B40000000E0FF3F8FC0000000
310
8052B721C0000000E0A8AC4B400C00000013000000AA0800003C0000000600000002000000000000E0FF3F8FC000000080F7FF1FC000000060084D4B40000000E0FF3F8FC00000008052B721C0000000E0A8AC4B400C00000013000000B20800003C0000000600000002000000000000E0FF3F8FC000000080F7FF1FC00000
310
0060084D4B400000000000408F4000000040F7FF1FC000000060084D4B400C00000013000000BA0800003C0000000600000002000000000000E0FF3F8FC000000080F7FF1FC000000060084D4B40000000E0FF3F8FC000000080F7FF1FC000000020DCCE4A400C00000013000000C20800003C000000060000000200000000
310
00000000408F4000000040F7FF1FC000000020DCCE4A40000000E0FF3F8FC000000080F7FF1FC000000020DCCE4A400C00000013000000CA0800003C0000000600000002000000000000E0FF3F8FC00000000071BC20C0000000E0F4BD4A40000000E0FF3F8FC000000080F7FF1FC000000020DCCE4A400C00000013000000
310
D20800003C00000006000000020000000000000000408F400000000071BC20C0000000E0F4BD4A40000000E0FF3F8FC00000000071BC20C0000000E0F4BD4A400C00000013000000DA0800003C0000000600000002000000000000E0FF3F8FC0000000E09C5722C0000000A05D864A40000000E0FF3F8FC00000000071BC20
310
C0000000E0F4BD4A400C00000013000000E20800003C0000000600000002000000000000E0FF3F8FC0000000E09C5722C0000000A05D864A400000000000408F40000000009D5722C0000000A05D864A400C00000013000000EA0800003C0000000600000002000000000000E0FF3F8FC0000000E09C5722C0000000A05D86
310
4A40000000E0FF3F8FC0000000C0BB4923C0000000608D584A400C00000013000000F20800003C00000006000000020000000000000000408F40000000C0BB4923C0000000608D584A40000000E0FF3F8FC0000000C0BB4923C0000000608D584A400C00000013000000FA0800003C0000000600000002000000000000E0FF
310
3F8FC000000040982224C0000000A0BA204A40000000E0FF3F8FC0000000C0BB4923C0000000608D584A400C00000013000000020900003C0000000600000002000000000000E0FF3F8FC000000040982224C0000000A0BA204A400000000000408F4000000040982224C0000000A0BA204A400C000000130000000A090000
310
3C0000000600000002000000000000E0FF3F8FC000000040982224C0000000A0BA204A40000000E0FF3F8FC00000002054D224C000000020D7E249400C00000013000000120900003C00000006000000020000000000000000408F400000004054D224C0000000E0D6E24940000000E0FF3F8FC00000002054D224C0000000
310
20D7E249400C000000130000001A0900003C0000000600000002000000000000E0FF3F8FC0000000E0765C25C000000020CF9D4940000000E0FF3F8FC00000002054D224C000000020D7E249400C00000013000000220900003C0000000600000002000000000000E0FF3F8FC0000000E0765C25C000000020CF9D49400000
310
000000408F4000000000775C25C0000000E0CE9D49400C000000130000002A0900003C0000000600000002000000000000E0FF3F8FC000000080E2B825C0000000E086554940000000E0FF3F8FC0000000E0765C25C000000020CF9D49400C00000013000000320900003C0000000600000002000000000000E0FF3F8FC000
310
000080E2B825C0000000E0865549400000000000408F4000000080E2B825C0000000A0865549400C000000130000003A0900003C0000000600000002000000000000E0FF3F8FC000000080E2B825C0000000E086554940000000E0FF3F8FC0000000C0FBFF25C000000080B4E348400C00000013000000420900003C000000
310
06000000020000000000000000408F40000000E0FBFF25C000000060B4E34840000000E0FF3F8FC0000000C0FBFF25C000000080B4E348400C000000130000004A0900003C0000000600000002000000000000E0FF3F8FC000000020FBFF25C0000000000000163F000000E0FF3F8FC0000000C0FBFF25C000000080B4E348
310
400C00000013000000520900003C0000000600000002000000000000E0FF3F8FC0000000A0EDFF0FC000000040CD223940000000E0FF3F8FC00000002054D224C000000020D7E249400C000000130000005A0900003C0000000600000002000000000000E0FF3F8FC000000040EEFF0FC000000020A14C4640000000E0FF3F
310
8FC000000040982224C0000000A0BA204A400C00000013000000620900003C0000000600000002000000000000E0FF3F8FC000000000C86FB1BF00000000A9572D40000000E0FF3F8FC0000000001026B1BF00000000163524400C000000130000006A0900003C0000000600000002000000000000E0FF3F8FC000000000AC
310
FDCFBF00000080C1D82340000000E0FF3F8FC000000000C86FB1BF00000000A9572D400C00000013000000720900003C0000000600000002000000000000E0FF3F8FC00000000065FFDFBF00000000EEB62340000000E0FF3F8FC0000000007B25D1BF000000001A4B2E400C000000130000007A0900003C00000006000000
310
02000000000000E0FF3F8FC00000002072B80CC000000000EEB62340000000E0FF3F8FC0000000807061F3BF00000020E0C130400C00000013000000820900003C0000000600000002000000000000E0FF3F8FC000000020AA760FC000000000B5E33840000000E0FF3F8FC00000000071E40FC000000000525423400C0000
310
00130000008A0900003C0000000600000002000000000000E0FF3F8FC0000000A0EDFF0FC000000040CD223940000000E0FF3F8FC0000000C0475210C00000000013EC22400C00000013000000920900003C0000000600000002000000000000E0FF3F8FC000000060FFFF0DC0000000008BB53840000000E0FF3F8FC00000
310
0080EE7C0EC000000000F39C23400C000000130000009A0900003C0000000600000002000000000000E0FF3F8FC000000080EDFF0BC000000040A1A43840000000E0FF3F8FC00000002072B80CC000000000EEB623400C00000013000000A20900003C0000000600000002000000000000E0FF3F8FC000000080EDFF0BC000
310
000040A1A43840000000E0FF3F8FC0000000008BFAF4BF000000A05B8131400C00000013000000AA0900003C0000000600000002000000000000E0FF3F8FC00000002072B80CC000000000EEB62340000000E0FF3F8FC0000000003286F5BF000000200C4031400C00000013000000B20900003C0000000600000002000000
310
000000E0FF3F8FC00000002072B80CC000000000EEB62340000000E0FF3F8FC0000000808AFAF4BF000000C0BCFE30400C00000013000000BA0900003C0000000600000002000000000000E0FF3F8FC0000000007D25D1BF000000408B5A3340000000E0FF3F8FC0000000006CFFDFBF00000040A1A438400C000000130000
310
00C20900003C0000000600000002000000000000E0FF3F8FC000000080EDFF0BC000000040A1A43840000000E0FF3F8FC0000000807061F3BF0000004038BE31400C00000013000000CA0900003C0000000600000002000000000000E0FF3F8FC000000000D06FB1BF000000E043D43340000000E0FF3F8FC0000000001826
310
B1BF000000408D6538400C00000013000000D20900003C0000000600000002000000000000E0FF3F8FC000000000D06FB1BF000000E043D43340000000E0FF3F8FC000000000B8FDCFBF00000080B79338400C00000013000000DA0900003C0000000600000002000000000000E0FF3F8FC0000000C0FBFF25C000000080B4
310
E34840000000E0FF3F8FC000000080B3A319C0000000000000163F0C00000013000000E20900003C0000000600000002000000000000E0FF3F8FC000000080E2B825C0000000E086554940000000E0FF3F8FC00000006075C118C0000000000006AA3F0C00000013000000EA0900003C0000000600000002000000000000E0
310
FF3F8FC0000000E0765C25C000000020CF9D4940000000E0FF3F8FC000000020B40D18C000000000E0A9C83F0C00000013000000F20900003C0000000600000002000000000000E0FF3F8FC0000000E0A4AD17C000000000C05CD93F000000E0FF3F8FC00000002054D224C000000020D7E249400C00000013000000FA0900
310
003C0000000600000002000000000000E0FF3F8FC0000000A0D5FD0EC0000000202EB94640000000E0FF3F8FC0000000C0BB4923C0000000608D584A400C00000013000000020A00003C0000000600000002000000000000E0FF3F8FC0000000E09C5722C0000000A05D864A40000000E0FF3F8FC0000000C0100D0CC00000
310
0060A21C47400C000000130000000A0A00003C0000000600000002000000000000E0FF3F8FC000000020386D07C0000000E0966E4740000000E0FF3F8FC00000000071BC20C0000000E0F4BD4A400C00000013000000120A00003C0000000600000002000000000000E0FF3F8FC0000000404925F1BF000000C02933484000
310
0000E0FF3F8FC000000080F7FF1FC000000020DCCE4A400C000000130000001A0A00003C0000000600000002000000000000E0FF3F8FC0000000007020C0BF000000A092E84840000000E0FF3F8FC000000000F86FB1BF000000203B484C400C00000013000000220A00003C0000000600000002000000000000E0FF3F8FC0
310
000000006296DFBF000000601E854840000000E0FF3F8FC0000000008A25D1BF000000A017854C400C000000130000002A0A00003C0000000600000002000000000000E0FF3F8FC0000000006296DFBF000000601E854840000000E0FF3F8FC000000080F7FF1FC000000060084D4B400C00000013000000320A00003C0000
310
000600000002000000000000E0FF3F8FC000000080F7FF1FC000000060084D4B40000000E0FF3F8FC0000000007461F3BF0000002041534D400C000000130000003A0A00003C0000000600000002000000000000E0FF3F8FC0000000007461F3BF0000002041534D40000000E0FF3F8FC00000008052B721C0000000E0A8AC
310
4B400C00000013000000420A00003C0000000600000002000000000000E0FF3F8FC00000004038B522C0000000200AFB4B40000000E0FF3F8FC0000000007461F3BF0000002041534D400C000000130000004A0A00003C0000000600000002000000000000E0FF3F8FC0000000007461F3BF0000002041534D40000000E0FF
310
3F8FC000000080DC6A23C0000000A0CD4C4C400C00000013000000520A00003C0000000600000002000000000000E0FF3F8FC0000000808EFAF4BF00000060AF714D40000000E0FF3F8FC00000004047EE23C0000000A022AC4C400C000000130000005A0A00003C0000000600000002000000000000E0FF3F8FC0000000C0
310
482824C000000060DD074D40000000E0FF3F8FC0000000808EFAF4BF00000060AF714D400C00000013000000620A00003C0000000600000002000000000000E0FF3F8FC0000000808EFAF4BF00000060AF714D40000000E0FF3F8FC000000080AF2024C0000000E0AB6C4D400C000000130000006A0A00003C000000060000
310
0002000000000000E0FF3F8FC000000080DED823C000000060D3C74D40000000E0FF3F8FC0000000808EFAF4BF00000060AF714D400C00000013000000720A00003C0000000600000002000000000000E0FF3F8FC0000000C03586F5BF0000002057924D40000000E0FF3F8FC0000000E0384723C0000000A0DB254E400C00
310
0000130000007A0A00003C0000000600000002000000000000E0FF3F8FC0000000C03586F5BF0000002057924D40000000E0FF3F8FC0000000E0468522C0000000E0F0754E400C00000013000000820A00003C0000000600000002000000000000E0FF3F8FC0000000C03586F5BF0000002057924D40000000E0FF3F8FC000
310
0000A0DD7B21C000000060E7C14E400C000000130000008A0A00003C0000000600000002000000000000E0FF3F8FC0000000C03586F5BF0000002057924D40000000E0FF3F8FC0000000A0A95520C0000000204BFD4E400C00000013000000920A00003C0000000600000002000000000000E0FF3F8FC0000000008FFAF4BF
310
000000E0FEB24D40000000E0FF3F8FC0000000201B261EC0000000605E3C4F400C000000130000009A0A00003C0000000600000002000000000000E0FF3F8FC0000000008FFAF4BF000000E0FEB24D40000000E0FF3F8FC0000000803D081BC0000000E0E4874F400C00000013000000A20A00003C00000006000000020000
310
00000000E0FF3F8FC0000000807461F3BF000000206DD14D40000000E0FF3F8FC0000000C087CD18C000000060E9CF4F400C00000013000000AA0A00003C0000000600000002000000000000E0FF3F8FC00000002087FB14C00000006067465040000000E0FF3F8FC0000000008C25D1BF000000A0969F4E400C0000001300
310
0000B20A00003C0000000600000002000000000000E0FF3F8FC0000000401D7D16C0000000E0D2195040000000E0FF3F8FC0000000807461F3BF000000206DD14D400C00000013000000BA0A00003C0000000600000002000000000000E0FF3F8FC0000000008C25D1BF000000A0969F4E40000000E0FF3F8FC0000000E09F
310
A613C0000000A0528050400C00000013000000C20A00003C0000000600000002000000000000E0FF3F8FC0000000000070B1BF000000E072DC4E40000000E0FF3F8FC0000000C04FD912C0000000A0A2B150400C00000013000000CA0A00003C0000000600000002000000000000E0FF3F8FC0000000000040013F000000A0
310
C21D4F40000000E0FF3F8FC0000000005F8612C0000000E074D250400C00000013000000D20A00003C0000000600000002000000000000E0FF3F8FC0000000000040013F000000A0C21D4F40000000E0FF3F8FC000000040163112C0000000E04E055140
100
AcDbSubDMesh
 71
     2
 72
     0
 91
        0
 92
      166
 10
-999.9999389648436
 20
-3.999966144561767
 30
44.59866714477539
 10
-999.9999389648436
 20
-3.499964714050292
 30
24.64308547973633
 10
-999.9999389648436
 20
0.0000367164611816
 30
14.16096496582031
 10
-999.9999389648436
 20
0.0000367164611816
 30
10.35014724731445
 10
-999.9999389648436
 20
-0.4999630451202393
 30
9.857284545898437
 10
-999.9999389648436
 20
-3.590061426162719
 30
9.857284545898437
 10
-999.9999389648436
 20
-5.919574260711669
 30
0.3962860107421875
 10
-999.9999389648436
 20
0.0000314712524414
 30
69.00048828125
 10
-999.9999389648436
 20
0.000032901763916
 30
62.23250198364258
 10
-999.9999389648436
 20
0.0000333786010742
 30
56.05405807495117
 10
-999.9999389648436
 20
-1.211288928985595
 30
16.75732612609863
 10
-999.9999389648436
 20
-0.2679131031036377
 30
19.35368728637695
 10
-999.9999389648436
 20
-1.211288928985595
 30
17.74304580688476
 10
-999.9999389648436
 20
-1.345266103744506
 30
59.14328384399414
 10
-999.9999389648436
 20
-1.31116771697998
 30
17.50530433654785
 10
-999.9999389648436
 20
-3.932941675186157
 30
24.88948059082031
 10
-999.9999389648436
 20
-3.749998807907104
 30
24.70915222167969
 10
-999.9999389648436
 20
-3.873942613601684
 30
45.44672012329101
 10
-999.9999389648436
 20
-0.0681123733520508
 30
19.82916069030762
 10
-999.9999389648436
 20
-0.2499289512634277
 30
9.923351287841796
 10
-999.9999389648436
 20
-0.1259899139404297
 30
49.81697463989258
 10
-999.9999389648436
 20
-0.493553638458252
 30
49.03998947143555
 10
-999.9999389648436
 20
-10.86110305786132
 30
50.66817855834961
 10
-999.9999389648436
 20
-7.999967575073242
 30
54.6018180847168
 10
-999.9999389648436
 20
-10.07868003845215
 30
58.06144332885742
 10
-999.9999389648436
 20
-9.923572540283203
 30
59.56113815307617
 10
-999.9999389648436
 20
-9.260306358337402
 30
60.92141342163086
 10
-999.9999389648436
 20
-5.622181892395019
 30
64.40349578857421
 10
-999.9999389648436
 20
-9.353944778442382
 30
55.96124649047851
 10
-999.9999389648436
 20
-9.639105796813964
 30
60.2957649230957
 10
-999.9999389648436
 20
-5.245632648468017
 30
65.10005950927734
 10
-999.9999389648436
 20
-10.6805944442749
 30
51.23288345336914
 10
-999.9999389648436
 20
-10.06756782531738
 30
52.25569534301758
 10
-999.9999389648436
 20
-9.171118736267089
 30
53.04973220825195
 10
1000.0
 20
-3.999964714050292
 30
25.13594627380371
 10
1000.0
 20
-10.41079902648926
 30
51.77218246459961
 10
1000.0
 20
-10.06756782531738
 30
52.25569534301758
 10
1000.0
 20
-3.999965906143188
 30
44.59865951538086
 10
1000.0
 20
-0.0681118965148926
 30
14.67121124267578
 10
1000.0
 20
0.0000362396240234
 30
14.16096496582031
 10
1000.0
 20
0.0000367164611816
 30
10.35014724731445
 10
1000.0
 20
-0.0669870376586914
 30
10.10368347167968
 10
1000.0
 20
-0.2499287128448486
 30
9.923351287841796
 10
1000.0
 20
-0.2679123878479004
 30
15.14668273925781
 10
1000.0
 20
-0.4999628067016602
 30
9.857284545898437
 10
1000.0
 20
-1.211288452148437
 30
16.75732803344726
 10
1000.0
 20
-3.590061426162719
 30
9.857284545898437
 10
1000.0
 20
-3.932941436767578
 30
24.88948249816895
 10
1000.0
 20
-3.986543655395507
 30
9.664688110351562
 10
1000.0
 20
-4.080351829528808
 30
9.461078643798828
 10
1000.0
 20
-3.749998569488525
 30
24.70915412902832
 10
1000.0
 20
-3.811001777648925
 30
9.806541442871093
 10
1000.0
 20
-3.499964475631713
 30
24.64308738708496
 10
1000.0
 20
-1.311167478561401
 30
17.50530624389648
 10
1000.0
 20
-1.345262289047241
 30
17.25018692016601
 10
1000.0
 20
-1.311167240142822
 30
16.99506950378418
 10
1000.0
 20
-0.4999642372131348
 30
24.64308738708496
 10
1000.0
 20
-0.2679126262664795
 30
19.35368919372558
 10
1000.0
 20
-1.211288690567016
 30
17.7430477142334
 10
1000.0
 20
-0.2499299049377441
 30
24.5770206451416
 10
1000.0
 20
-0.0669879913330078
 30
24.39668846130371
 10
1000.0
 20
-0.0681123733520508
 30
19.82916259765625
 10
1000.0
 20
0.000035285949707
 30
24.15022850036621
 10
1000.0
 20
0.000035285949707
 30
20.33940887451172
 10
1000.0
 20
-6.409863471984863
 30
0.0000801086425781
 10
1000.0
 20
-10.99996280670166
 30
0.0000839233398438
 10
1000.0
 20
-10.99996852874756
 30
49.7789421081543
 10
1000.0
 20
-6.188923835754394
 30
0.0508232116699219
 10
1000.0
 20
-10.86110305786132
 30
50.66817092895508
 10
1000.0
 20
-6.013381958007812
 30
0.1926803588867187
 10
1000.0
 20
-10.68059539794922
 30
51.23287582397461
 10
1000.0
 20
-5.919573783874511
 30
0.3962821960449219
 10
1000.0
 20
-9.644010543823242
 30
52.69181442260742
 10
1000.0
 20
-3.873942613601684
 30
45.44671249389648
 10
1000.0
 20
-9.171119689941406
 30
53.04973220825195
 10
1000.0
 20
-3.50637936592102
 30
46.22369766235351
 10
1000.0
 20
-8.368049621582031
 30
53.48403549194336
 10
1000.0
 20
-2.928329229354858
 30
46.86397552490234
 10
1000.0
 20
-7.999966621398925
 30
53.61609268188477
 10
1000.0
 20
-1.071602821350097
 30
48.39970779418945
 10
1000.0
 20
-0.068115234375
 30
56.56430053710938
 10
1000.0
 20
0.0000333786010742
 30
56.05405426025391
 10
1000.0
 20
0.0000338554382324
 30
50.66502380371094
 10
1000.0
 20
-0.1259894371032715
 30
49.81697082519531
 10
1000.0
 20
-0.2679154872894287
 30
57.03978347778321
 10
1000.0
 20
-0.4935531616210938
 30
49.03998565673828
 10
1000.0
 20
-7.999966621398925
 30
54.6018180847168
 10
1000.0
 20
-1.211292028427124
 30
58.65042495727539
 10
1000.0
 20
-8.858051300048828
 30
55.34890365600586
 10
1000.0
 20
-9.353944778442382
 30
55.96124649047851
 10
1000.0
 20
-9.70871353149414
 30
56.60002517700196
 10
1000.0
 20
-9.965387344360351
 30
57.34479904174804
 10
1000.0
 20
-1.311170816421508
 30
58.88816452026367
 10
1000.0
 20
-10.07868003845215
 30
58.06143569946289
 10
1000.0
 20
-10.06383895874023
 30
58.8489875793457
 10
1000.0
 20
-9.923572540283203
 30
59.56113052368164
 10
1000.0
 20
-9.639105796813964
 30
60.2957649230957
 10
1000.0
 20
-1.345265865325927
 30
59.14328384399414
 10
1000.0
 20
-9.260306358337402
 30
60.92141342163086
 10
1000.0
 20
-8.741925239562988
 30
61.51487350463867
 10
1000.0
 20
-8.167309761047363
 30
61.97885513305664
 10
1000.0
 20
-7.537211894989013
 30
62.47162246704101
 10
1000.0
 20
-1.311171054840087
 30
59.3984031677246
 10
1000.0
 20
-6.758046627044677
 30
63.06166458129883
 10
1000.0
 20
-6.20071268081665
 30
63.62430191040039
 10
1000.0
 20
-1.211292266845703
 30
59.63614273071289
 10
1000.0
 20
-5.622181415557861
 30
64.40349578857421
 10
1000.0
 20
-5.245632648468017
 30
65.10005950927734
 10
1000.0
 20
-0.2679164409637451
 30
61.24678421020508
 10
1000.0
 20
-4.912718772888183
 30
66.00504302978515
 10
1000.0
 20
-4.712217330932617
 30
66.77555084228515
 10
1000.0
 20
-0.068115234375
 30
61.72225570678711
 10
1000.0
 20
-4.631220817565917
 30
67.28838348388672
 10
1000.0
 20
0.0000324249267578
 30
62.23250198364258
 10
1000.0
 20
-4.547935962677001
 30
68.08293914794922
 10
1000.0
 20
-4.499969005584716
 30
69.00049591064453
 10
1000.0
 20
0.0000314712524414
 30
69.00049591064453
 10
-999.9999389648436
 20
-3.999964952468872
 30
25.13594436645508
 10
-999.9999389648436
 20
-0.499964714050293
 30
24.64308547973633
 10
-999.9999389648436
 20
0.0000357627868652
 30
24.15022659301758
 10
-999.9999389648436
 20
0.000035285949707
 30
20.33940696716308
 10
-999.9999389648436
 20
-4.080351829528808
 30
9.461082458496093
 10
-999.9999389648436
 20
-10.99996280670166
 30
0.0000839233398438
 10
-999.9999389648436
 20
-10.99996757507324
 30
49.77894592285156
 10
-999.9999389648436
 20
-4.499969005584716
 30
69.00048828125
 10
-999.9999389648436
 20
0.0000338554382324
 30
50.6650276184082
 10
-999.9999389648436
 20
-1.071603059768676
 30
48.39971160888672
 10
-999.9999389648436
 20
-2.928329706192016
 30
46.86397933959961
 10
-999.9999389648436
 20
-0.2679126262664795
 30
15.14668273925781
 10
-999.9999389648436
 20
-1.211292266845703
 30
58.65042495727539
 10
-999.9999389648436
 20
-0.267916202545166
 30
57.03978347778321
 10
-999.9999389648436
 20
-0.2679166793823242
 30
61.24678421020508
 10
-999.9999389648436
 20
-1.211292743682861
 30
59.63614273071289
 10
-999.9999389648436
 20
-1.311171531677246
 30
59.3984031677246
 10
-999.9999389648436
 20
-1.311171054840087
 30
58.88816452026367
 10
-999.9999389648436
 20
-1.34526252746582
 30
17.25018501281738
 10
-999.9999389648436
 20
-1.311167240142822
 30
16.99506759643554
 10
-999.9999389648436
 20
-3.811001777648925
 30
9.806541442871093
 10
-999.9999389648436
 20
-3.986543655395507
 30
9.664688110351562
 10
-999.9999389648436
 20
-3.506379604339599
 30
46.22370529174804
 10
-999.9999389648436
 20
-0.0681118965148926
 30
14.67121124267578
 10
-999.9999389648436
 20
-0.0681147575378418
 30
56.56430435180664
 10
-999.9999389648436
 20
-0.068115234375
 30
61.72225570678711
 10
-999.9999389648436
 20
-0.0669870376586914
 30
10.10368347167968
 10
-999.9999389648436
 20
-0.2499303817749023
 30
24.57701873779297
 10
-999.9999389648436
 20
-0.0669875144958496
 30
24.39668655395508
 10
-999.9999389648436
 20
-10.41079807281494
 30
51.77219009399414
 10
-999.9999389648436
 20
-9.644010543823242
 30
52.69181442260742
 10
-999.9999389648436
 20
-8.368049621582031
 30
53.48403549194336
 10
-999.9999389648436
 20
-8.858051300048828
 30
55.34890365600586
 10
-999.9999389648436
 20
-9.70871353149414
 30
56.60002517700196
 10
-999.9999389648436
 20
-8.167309761047363
 30
61.97885513305664
 10
-999.9999389648436
 20
-6.758047103881835
 30
63.06167221069336
 10
-999.9999389648436
 20
-4.912719249725341
 30
66.00504302978515
 10
-999.9999389648436
 20
-4.631221771240234
 30
67.28838348388672
 10
-999.9999389648436
 20
-7.999967575073242
 30
53.61609268188477
 10
-999.9999389648436
 20
-6.409864425659179
 30
0.0000839233398438
 10
-999.9999389648436
 20
-6.188924312591552
 30
0.0508270263671875
 10
-999.9999389648436
 20
-6.01338243484497
 30
0.1926841735839844
 10
-999.9999389648436
 20
-9.965387344360351
 30
57.34480667114258
 10
-999.9999389648436
 20
-10.06383895874023
 30
58.84899520874023
 10
-999.9999389648436
 20
-8.741925239562988
 30
61.51487350463867
 10
-999.9999389648436
 20
-7.53721284866333
 30
62.47163009643554
 10
-999.9999389648436
 20
-6.200713157653808
 30
63.62430953979492
 10
-999.9999389648436
 20
-4.712218284606933
 30
66.77555084228515
 10
-999.9999389648436
 20
-4.54793643951416
 30
68.08293914794922
 93
      877
 90
        4
 90
       34
 90
       37
 90
       36
 90
       35
 90
        4
 90
       38
 90
       41
 90
       40
 90
       39
 90
        3
 90
       38
 90
       42
 90
       41
 90
        4
 90
       43
 90
       44
 90
       42
 90
       38
 90
        4
 90
       45
 90
       46
 90
       44
 90
       43
 90
        4
 90
       34
 90
       49
 90
       48
 90
       47
 90
        4
 90
       47
 90
       48
 90
       51
 90
       50
 90
        4
 90
       50
 90
       51
 90
       46
 90
       52
 90
        4
 90
       52
 90
       46
 90
       54
 90
       53
 90
        3
 90
       55
 90
       46
 90
       45
 90
        3
 90
       54
 90
       46
 90
       55
 90
        4
 90
       52
 90
       58
 90
       57
 90
       56
 90
        3
 90
       52
 90
       53
 90
       58
 90
        3
 90
       59
 90
       61
 90
       60
 90
        4
 90
       60
 90
       61
 90
       63
 90
       62
 90
        4
 90
       56
 90
       57
 90
       61
 90
       59
 90
        3
 90
       64
 90
       66
 90
       65
 90
        4
 90
       67
 90
       68
 90
       66
 90
       64
 90
        4
 90
       69
 90
       70
 90
       68
 90
       67
 90
        4
 90
       71
 90
       35
 90
       70
 90
       69
 90
        4
 90
       34
 90
       35
 90
       71
 90
       49
 90
        4
 90
       36
 90
       37
 90
       73
 90
       72
 90
        4
 90
       72
 90
       73
 90
       75
 90
       74
 90
        4
 90
       74
 90
       75
 90
       77
 90
       76
 90
        4
 90
       76
 90
       77
 90
       79
 90
       78
 90
        4
 90
       80
 90
       83
 90
       82
 90
       81
 90
        4
 90
       84
 90
       85
 90
       83
 90
       80
 90
        4
 90
       78
 90
       79
 90
       85
 90
       86
 90
        4
 90
       86
 90
       85
 90
       84
 90
       87
 90
        3
 90
       86
 90
       87
 90
       88
 90
        3
 90
       88
 90
       87
 90
       89
 90
        3
 90
       89
 90
       87
 90
       90
 90
        4
 90
       90
 90
       87
 90
       92
 90
       91
 90
        3
 90
       91
 90
       92
 90
       93
 90
        3
 90
       93
 90
       92
 90
       94
 90
        3
 90
       94
 90
       92
 90
       95
 90
        4
 90
       95
 90
       92
 90
       97
 90
       96
 90
        3
 90
       96
 90
       97
 90
       98
 90
        3
 90
       98
 90
       97
 90
       99
 90
        3
 90
       99
 90
       97
 90
      100
 90
        4
 90
      100
 90
       97
 90
      102
 90
      101
 90
        3
 90
      101
 90
      102
 90
      103
 90
        4
 90
      103
 90
      102
 90
      105
 90
      104
 90
        4
 90
      106
 90
      105
 90
      108
 90
      107
 90
        3
 90
      104
 90
      105
 90
      106
 90
        3
 90
      107
 90
      108
 90
      109
 90
        4
 90
      109
 90
      108
 90
      111
 90
      110
 90
        4
 90
      110
 90
      111
 90
      113
 90
      112
 90
        3
 90
      112
 90
      113
 90
      114
 90
        4
 90
      114
 90
      113
 90
      116
 90
      115
 90
        4
 90
      122
 90
      156
 90
       64
 90
       65
 90
        4
 90
      156
 90
      157
 90
       67
 90
       64
 90
        4
 90
      157
 90
      158
 90
       69
 90
       67
 90
        4
 90
      158
 90
        6
 90
       71
 90
       69
 90
        4
 90
        6
 90
      121
 90
       49
 90
       71
 90
        4
 90
      121
 90
      138
 90
       48
 90
       49
 90
        4
 90
      138
 90
      137
 90
       51
 90
       48
 90
        4
 90
      137
 90
        5
 90
       46
 90
       51
 90
        4
 90
        5
 90
        4
 90
       44
 90
       46
 90
        4
 90
        4
 90
       19
 90
       42
 90
       44
 90
        4
 90
       19
 90
      143
 90
       41
 90
       42
 90
        4
 90
      143
 90
        3
 90
       40
 90
       41
 90
        4
 90
        3
 90
        2
 90
       39
 90
       40
 90
        4
 90
        2
 90
      140
 90
       38
 90
       39
 90
        4
 90
      140
 90
      128
 90
       43
 90
       38
 90
        4
 90
      128
 90
       10
 90
       45
 90
       43
 90
        4
 90
       10
 90
      136
 90
       55
 90
       45
 90
        4
 90
      136
 90
      135
 90
       54
 90
       55
 90
        4
 90
      135
 90
       14
 90
       53
 90
       54
 90
        4
 90
       14
 90
       12
 90
       58
 90
       53
 90
        4
 90
       12
 90
       11
 90
       57
 90
       58
 90
        4
 90
       11
 90
       18
 90
       61
 90
       57
 90
        4
 90
       18
 90
      120
 90
       63
 90
       61
 90
        4
 90
      120
 90
      119
 90
       62
 90
       63
 90
        4
 90
      119
 90
      145
 90
       60
 90
       62
 90
        4
 90
      145
 90
      144
 90
       59
 90
       60
 90
        4
 90
      144
 90
      118
 90
       56
 90
       59
 90
        4
 90
      118
 90
        1
 90
       52
 90
       56
 90
        4
 90
        1
 90
       16
 90
       50
 90
       52
 90
        4
 90
       16
 90
       15
 90
       47
 90
       50
 90
        4
 90
       15
 90
      117
 90
       34
 90
       47
 90
        4
 90
      117
 90
        0
 90
       37
 90
       34
 90
        4
 90
        0
 90
       17
 90
       73
 90
       37
 90
        4
 90
       17
 90
      139
 90
       75
 90
       73
 90
        4
 90
      139
 90
      127
 90
       77
 90
       75
 90
        4
 90
      127
 90
      126
 90
       79
 90
       77
 90
        4
 90
      126
 90
       21
 90
       85
 90
       79
 90
        4
 90
       21
 90
       20
 90
       83
 90
       85
 90
        4
 90
       20
 90
      125
 90
       82
 90
       83
 90
        4
 90
      125
 90
        9
 90
       81
 90
       82
 90
        4
 90
        9
 90
      141
 90
       80
 90
       81
 90
        4
 90
      141
 90
      130
 90
       84
 90
       80
 90
        4
 90
      130
 90
      129
 90
       87
 90
       84
 90
        4
 90
      129
 90
      134
 90
       92
 90
       87
 90
        4
 90
      134
 90
       13
 90
       97
 90
       92
 90
        4
 90
       13
 90
      133
 90
      102
 90
       97
 90
        4
 90
      133
 90
      132
 90
      105
 90
      102
 90
        4
 90
      132
 90
      131
 90
      108
 90
      105
 90
        4
 90
      131
 90
      142
 90
      111
 90
      108
 90
        4
 90
      142
 90
        8
 90
      113
 90
      111
 90
        4
 90
        8
 90
        7
 90
      116
 90
      113
 90
        4
 90
        7
 90
      124
 90
      115
 90
      116
 90
        4
 90
      124
 90
      165
 90
      114
 90
      115
 90
        4
 90
      165
 90
      154
 90
      112
 90
      114
 90
        4
 90
      154
 90
      164
 90
      110
 90
      112
 90
        4
 90
      164
 90
      153
 90
      109
 90
      110
 90
        4
 90
      153
 90
       30
 90
      107
 90
      109
 90
        4
 90
       30
 90
       27
 90
      106
 90
      107
 90
        4
 90
       27
 90
      163
 90
      104
 90
      106
 90
        4
 90
      163
 90
      152
 90
      103
 90
      104
 90
        4
 90
      152
 90
      162
 90
      101
 90
      103
 90
        4
 90
      162
 90
      151
 90
      100
 90
      101
 90
        4
 90
      151
 90
      161
 90
       99
 90
      100
 90
        4
 90
      161
 90
       26
 90
       98
 90
       99
 90
        4
 90
       26
 90
       29
 90
       96
 90
       98
 90
        4
 90
       29
 90
       25
 90
       95
 90
       96
 90
        4
 90
       25
 90
      160
 90
       94
 90
       95
 90
        4
 90
      160
 90
       24
 90
       93
 90
       94
 90
        4
 90
       24
 90
      159
 90
       91
 90
       93
 90
        4
 90
      159
 90
      150
 90
       90
 90
       91
 90
        4
 90
      150
 90
       28
 90
       89
 90
       90
 90
        4
 90
       28
 90
      149
 90
       88
 90
       89
 90
        4
 90
      149
 90
       23
 90
       86
 90
       88
 90
        4
 90
       23
 90
      155
 90
       78
 90
       86
 90
        4
 90
      155
 90
      148
 90
       76
 90
       78
 90
        4
 90
      148
 90
       33
 90
       74
 90
       76
 90
        4
 90
       33
 90
      147
 90
       72
 90
       74
 90
        4
 90
      147
 90
       32
 90
       36
 90
       72
 90
        4
 90
       32
 90
      146
 90
       35
 90
       36
 90
        4
 90
      146
 90
       31
 90
       70
 90
       35
 90
        4
 90
       31
 90
       22
 90
       68
 90
       70
 90
        4
 90
       22
 90
      123
 90
       66
 90
       68
 90
        4
 90
      123
 90
      122
 90
       65
 90
       66
 90
        4
 90
      117
 90
      146
 90
       32
 90
        0
 90
        4
 90
      140
 90
        2
 90
        3
 90
      143
 90
        3
 90
      140
 90
      143
 90
       19
 90
        4
 90
      128
 90
      140
 90
       19
 90
        4
 90
        4
 90
       10
 90
      128
 90
        4
 90
        5
 90
        4
 90
      117
 90
       15
 90
      138
 90
      121
 90
        4
 90
       15
 90
       16
 90
      137
 90
      138
 90
        4
 90
       16
 90
        1
 90
        5
 90
      137
 90
        4
 90
        1
 90
       14
 90
      135
 90
        5
 90
        3
 90
      136
 90
       10
 90
        5
 90
        3
 90
      135
 90
      136
 90
        5
 90
        4
 90
        1
 90
      118
 90
       11
 90
       12
 90
        3
 90
        1
 90
       12
 90
       14
 90
        3
 90
      144
 90
      145
 90
       18
 90
        4
 90
      145
 90
      119
 90
      120
 90
       18
 90
        4
 90
      118
 90
      144
 90
       18
 90
       11
 90
        3
 90
      156
 90
      122
 90
      123
 90
        4
 90
      157
 90
      156
 90
      123
 90
       22
 90
        4
 90
      158
 90
      157
 90
       22
 90
       31
 90
        4
 90
        6
 90
      158
 90
       31
 90
      146
 90
        4
 90
      117
 90
      121
 90
        6
 90
      146
 90
        4
 90
       32
 90
      147
 90
       17
 90
        0
 90
        4
 90
      147
 90
       33
 90
      139
 90
       17
 90
        4
 90
       33
 90
      148
 90
      127
 90
      139
 90
        4
 90
      148
 90
      155
 90
      126
 90
      127
 90
        4
 90
      141
 90
        9
 90
      125
 90
       20
 90
        4
 90
      130
 90
      141
 90
       20
 90
       21
 90
        4
 90
      155
 90
       23
 90
       21
 90
      126
 90
        4
 90
       23
 90
      129
 90
      130
 90
       21
 90
        3
 90
       23
 90
      149
 90
      129
 90
        3
 90
      149
 90
       28
 90
      129
 90
        3
 90
       28
 90
      150
 90
      129
 90
        4
 90
      150
 90
      159
 90
      134
 90
      129
 90
        3
 90
      159
 90
       24
 90
      134
 90
        3
 90
       24
 90
      160
 90
      134
 90
        3
 90
      160
 90
       25
 90
      134
 90
        4
 90
       25
 90
       29
 90
       13
 90
      134
 90
        3
 90
       29
 90
       26
 90
       13
 90
        3
 90
       26
 90
      161
 90
       13
 90
        3
 90
      161
 90
      151
 90
       13
 90
        4
 90
      151
 90
      162
 90
      133
 90
       13
 90
        3
 90
      162
 90
      152
 90
      133
 90
        4
 90
      152
 90
      163
 90
      132
 90
      133
 90
        4
 90
       27
 90
       30
 90
      131
 90
      132
 90
        3
 90
      163
 90
       27
 90
      132
 90
        3
 90
       30
 90
      153
 90
      131
 90
        4
 90
      153
 90
      164
 90
      142
 90
      131
 90
        4
 90
      164
 90
      154
 90
        8
 90
      142
 90
        3
 90
      154
 90
      165
 90
        8
 90
        4
 90
      165
 90
      124
 90
        7
 90
        8
 94
      347
 90
       34
 90
       37
 90
       36
 90
       37
 90
       35
 90
       36
 90
       34
 90
       35
 90
       38
 90
       41
 90
       40
 90
       41
 90
       39
 90
       40
 90
       38
 90
       39
 90
       38
 90
       42
 90
       41
 90
       42
 90
       43
 90
       44
 90
       42
 90
       44
 90
       38
 90
       43
 90
       45
 90
       46
 90
       44
 90
       46
 90
       43
 90
       45
 90
       34
 90
       49
 90
       48
 90
       49
 90
       47
 90
       48
 90
       34
 90
       47
 90
       48
 90
       51
 90
       50
 90
       51
 90
       47
 90
       50
 90
       46
 90
       51
 90
       46
 90
       52
 90
       50
 90
       52
 90
       46
 90
       54
 90
       53
 90
       54
 90
       52
 90
       53
 90
       46
 90
       55
 90
       45
 90
       55
 90
       54
 90
       55
 90
       52
 90
       58
 90
       57
 90
       58
 90
       56
 90
       57
 90
       52
 90
       56
 90
       53
 90
       58
 90
       59
 90
       61
 90
       60
 90
       61
 90
       59
 90
       60
 90
       61
 90
       63
 90
       62
 90
       63
 90
       60
 90
       62
 90
       57
 90
       61
 90
       56
 90
       59
 90
       64
 90
       66
 90
       65
 90
       66
 90
       64
 90
       65
 90
       67
 90
       68
 90
       66
 90
       68
 90
       64
 90
       67
 90
       69
 90
       70
 90
       68
 90
       70
 90
       67
 90
       69
 90
       35
 90
       71
 90
       35
 90
       70
 90
       69
 90
       71
 90
       49
 90
       71
 90
       37
 90
       73
 90
       72
 90
       73
 90
       36
 90
       72
 90
       73
 90
       75
 90
       74
 90
       75
 90
       72
 90
       74
 90
       75
 90
       77
 90
       76
 90
       77
 90
       74
 90
       76
 90
       77
 90
       79
 90
       78
 90
       79
 90
       76
 90
       78
 90
       80
 90
       83
 90
       82
 90
       83
 90
       81
 90
       82
 90
       80
 90
       81
 90
       84
 90
       85
 90
       83
 90
       85
 90
       80
 90
       84
 90
       79
 90
       85
 90
       85
 90
       86
 90
       78
 90
       86
 90
       84
 90
       87
 90
       86
 90
       87
 90
       87
 90
       88
 90
       86
 90
       88
 90
       87
 90
       89
 90
       88
 90
       89
 90
       87
 90
       90
 90
       89
 90
       90
 90
       87
 90
       92
 90
       91
 90
       92
 90
       90
 90
       91
 90
       92
 90
       93
 90
       91
 90
       93
 90
       92
 90
       94
 90
       93
 90
       94
 90
       92
 90
       95
 90
       94
 90
       95
 90
       92
 90
       97
 90
       96
 90
       97
 90
       95
 90
       96
 90
       97
 90
       98
 90
       96
 90
       98
 90
       97
 90
       99
 90
       98
 90
       99
 90
       97
 90
      100
 90
       99
 90
      100
 90
       97
 90
      102
 90
      101
 90
      102
 90
      100
 90
      101
 90
      102
 90
      103
 90
      101
 90
      103
 90
      102
 90
      105
 90
      104
 90
      105
 90
      103
 90
      104
 90
      105
 90
      106
 90
      105
 90
      108
 90
      107
 90
      108
 90
      106
 90
      107
 90
      104
 90
      106
 90
      108
 90
      109
 90
      107
 90
      109
 90
      108
 90
      111
 90
      110
 90
      111
 90
      109
 90
      110
 90
      111
 90
      113
 90
      112
 90
      113
 90
      110
 90
      112
 90
      113
 90
      114
 90
      112
 90
      114
 90
      113
 90
      116
 90
      115
 90
      116
 90
      114
 90
      115
 90
      122
 90
      156
 90
       64
 90
      156
 90
       65
 90
      122
 90
      156
 90
      157
 90
       67
 90
      157
 90
      157
 90
      158
 90
       69
 90
      158
 90
        6
 90
      158
 90
        6
 90
       71
 90
        6
 90
      121
 90
       49
 90
      121
 90
      121
 90
      138
 90
       48
 90
      138
 90
      137
 90
      138
 90
       51
 90
      137
 90
        5
 90
      137
 90
        5
 90
       46
 90
        4
 90
        5
 90
        4
 90
       44
 90
        4
 90
       19
 90
       19
 90
       42
 90
       19
 90
      143
 90
       41
 90
      143
 90
        3
 90
      143
 90
        3
 90
       40
 90
        2
 90
        3
 90
        2
 90
       39
 90
        2
 90
      140
 90
       38
 90
      140
 90
      128
 90
      140
 90
       43
 90
      128
 90
       10
 90
      128
 90
       10
 90
       45
 90
       10
 90
      136
 90
       55
 90
      136
 90
      135
 90
      136
 90
       54
 90
      135
 90
       14
 90
      135
 90
       14
 90
       53
 90
       12
 90
       14
 90
       12
 90
       58
 90
       11
 90
       12
 90
       11
 90
       57
 90
       11
 90
       18
 90
       18
 90
       61
 90
       18
 90
      120
 90
       63
 90
      120
 90
      119
 90
      120
 90
       62
 90
      119
 90
      119
 90
      145
 90
       60
 90
      145
 90
      144
 90
      145
 90
       59
 90
      144
 90
      118
 90
      144
 90
       56
 90
      118
 90
        1
 90
      118
 90
        1
 90
       52
 90
        1
 90
       16
 90
       16
 90
       50
 90
       15
 90
       16
 90
       15
 90
       47
 90
       15
 90
      117
 90
       34
 90
      117
 90
        0
 90
      117
 90
        0
 90
       37
 90
        0
 90
       17
 90
       17
 90
       73
 90
       17
 90
      139
 90
       75
 90
      139
 90
      127
 90
      139
 90
       77
 90
      127
 90
      126
 90
      127
 90
       79
 90
      126
 90
       21
 90
      126
 90
       21
 90
       85
 90
       20
 90
       21
 90
       20
 90
       83
 90
       20
 90
      125
 90
       82
 90
      125
 90
        9
 90
      125
 90
        9
 90
       81
 90
        9
 90
      141
 90
       80
 90
      141
 90
      130
 90
      141
 90
       84
 90
      130
 90
      129
 90
      130
 90
       87
 90
      129
 90
      129
 90
      134
 90
       92
 90
      134
 90
       13
 90
      134
 90
       13
 90
       97
 90
       13
 90
      133
 90
      102
 90
      133
 90
      132
 90
      133
 90
      105
 90
      132
 90
      131
 90
      132
 90
      108
 90
      131
 90
      131
 90
      142
 90
      111
 90
      142
 90
        8
 90
      142
 90
        8
 90
      113
 90
        7
 90
        8
 90
        7
 90
      116
 90
        7
 90
      124
 90
      115
 90
      124
 90
      124
 90
      165
 90
      114
 90
      165
 90
      154
 90
      165
 90
      112
 90
      154
 90
      154
 90
      164
 90
      110
 90
      164
 90
      153
 90
      164
 90
      109
 90
      153
 90
       30
 90
      153
 90
       30
 90
      107
 90
       27
 90
       30
 90
       27
 90
      106
 90
       27
 90
      163
 90
      104
 90
      163
 90
      152
 90
      163
 90
      103
 90
      152
 90
      152
 90
      162
 90
      101
 90
      162
 90
      151
 90
      162
 90
      100
 90
      151
 90
      151
 90
      161
 90
       99
 90
      161
 90
       26
 90
      161
 90
       26
 90
       98
 90
       26
 90
       29
 90
       29
 90
       96
 90
       25
 90
       29
 90
       25
 90
       95
 90
       25
 90
      160
 90
       94
 90
      160
 90
       24
 90
      160
 90
       24
 90
       93
 90
       24
 90
      159
 90
       91
 90
      159
 90
      150
 90
      159
 90
       90
 90
      150
 90
       28
 90
      150
 90
       28
 90
       89
 90
       28
 90
      149
 90
       88
 90
      149
 90
       23
 90
      149
 90
       23
 90
       86
 90
       23
 90
      155
 90
       78
 90
      155
 90
      148
 90
      155
 90
       76
 90
      148
 90
       33
 90
      148
 90
       33
 90
       74
 90
       33
 90
      147
 90
       72
 90
      147
 90
       32
 90
      147
 90
       32
 90
       36
 90
       32
 90
      146
 90
       35
 90
      146
 90
       31
 90
      146
 90
       31
 90
       70
 90
       22
 90
       31
 90
       22
 90
       68
 90
       22
 90
      123
 90
       66
 90
      123
 90
      122
 90
      123
 90
      117
 90
      146
 90
        0
 90
       32
 90
      140
 90
      143
 90
       19
 90
      140
 90
        4
 90
      128
 90
        5
 90
       10
 90
       15
 90
      138
 90
      117
 90
      121
 90
       16
 90
      137
 90
        1
 90
        5
 90
        1
 90
       14
 90
        5
 90
      135
 90
        5
 90
      136
 90
       11
 90
      118
 90
        1
 90
       12
 90
       18
 90
      145
 90
       18
 90
      144
 90
      123
 90
      156
 90
       22
 90
      157
 90
       31
 90
      158
 90
        6
 90
      146
 90
       17
 90
      147
 90
       33
 90
      139
 90
      127
 90
      148
 90
      126
 90
      155
 90
       20
 90
      141
 90
       21
 90
      130
 90
       21
 90
       23
 90
       23
 90
      129
 90
      129
 90
      149
 90
       28
 90
      129
 90
      129
 90
      150
 90
      134
 90
      159
 90
       24
 90
      134
 90
      134
 90
      160
 90
       25
 90
      134
 90
       13
 90
       29
 90
       13
 90
       26
 90
       13
 90
      161
 90
       13
 90
      151
 90
      133
 90
      162
 90
      133
 90
      152
 90
      132
 90
      163
 90
       30
 90
      131
 90
       27
 90
      132
 90
      131
 90
      153
 90
      142
 90
      164
 90
        8
 90
      154
 90
        8
 90
      165
 95
      347
140
0.0
140
0.0
140
0.0
140
0.0
140
0.0
140
0.0
140
0.0
140
0.0
140
0.0
140
0.0
140
0.0
140
0.0
140
0.0
140
0.0
140
0.0
140
0.0
140
0.0
140
0.0
140
0.0
140
0.0
140
0.0
140
0.0
140
0.0
140
0.0
140
0.0
140
0.0
140
0.0
140
0.0
140
0.0
140
0.0
140
0.0
140
0.0
140
0.0
140
0.0
140
0.0
140
0.0
140
0.0
140
0.0
140
0.0
140
0.0
140
0.0
140
0.0
140
0.0
140
0.0
140
0.0
140
0.0
140
0.0
140
0.0
140
0.0
140
0.0
140
0.0
140
0.0
140
0.0
140
0.0
140
0.0
140
0.0
140
0.0
140
0.0
140
0.0
140
0.0
140
0.0
140
0.0
140
0.0
140
0.0
140
0.0
140
0.0
140
0.0
140
0.0
140
0.0
140
0.0
140
0.0
140
0.0
140
0.0
140
0.0
140
0.0
140
0.0
140
0.0
140
0.0
140
0.0
140
0.0
140
0.0
140
0.0
140
0.0
140
0.0
140
0.0
140
0.0
140
0.0
140
0.0
140
0.0
140
0.0
140
0.0
140
0.0
140
0.0
140
0.0
140
0.0
140
0.0
140
0.0
140
0.0
140
0.0
140
0.0
140
0.0
140
0.0
140
0.0
140
0.0
140
0.0
140
0.0
140
0.0
140
0.0
140
0.0
140
0.0
140
0.0
140
0.0
140
0.0
140
0.0
140
0.0
140
0.0
140
0.0
140
0.0
140
0.0
140
0.0
140
0.0
140
0.0
140
0.0
140
0.0
140
0.0
140
0.0
140
0.0
140
0.0
140
0.0
140
0.0
140
0.0
140
0.0
140
0.0
140
0.0
140
0.0
140
0.0
140
0.0
140
0.0
140
0.0
140
0.0
140
0.0
140
0.0
140
0.0
140
0.0
140
0.0
140
0.0
140
0.0
140
0.0
140
0.0
140
0.0
140
0.0
140
0.0
140
0.0
140
0.0
140
0.0
140
0.0
140
0.0
140
0.0
140
0.0
140
0.0
140
0.0
140
0.0
140
0.0
140
0.0
140
0.0
140
0.0
140
0.0
140
0.0
140
0.0
140
0.0
140
0.0
140
0.0
140
0.0
140
0.0
140
0.0
140
0.0
140
0.0
140
0.0
140
0.0
140
0.0
140
0.0
140
0.0
140
0.0
140
0.0
140
0.0
140
0.0
140
0.0
140
0.0
140
0.0
140
0.0
140
0.0
140
0.0
140
0.0
140
0.0
140
0.0
140
0.0
140
0.0
140
0.0
140
0.0
140
0.0
140
0.0
140
0.0
140
0.0
140
0.0
140
0.0
140
0.0
140
0.0
140
0.0
140
0.0
140
0.0
140
0.0
140
0.0
140
0.0
140
0.0
140
0.0
140
0.0
140
0.0
140
0.0
140
0.0
140
0.0
140
0.0
140
0.0
140
0.0
140
0.0
140
0.0
140
0.0
140
0.0
140
0.0
140
0.0
140
0.0
140
0.0
140
0.0
140
0.0
140
0.0
140
0.0
140
0.0
140
0.0
140
0.0
140
0.0
140
0.0
140
0.0
140
0.0
140
0.0
140
0.0
140
0.0
140
0.0
140
0.0
140
0.0
140
0.0
140
0.0
140
0.0
140
0.0
140
0.0
140
0.0
140
0.0
140
0.0
140
0.0
140
0.0
140
0.0
140
0.0
140
0.0
140
0.0
140
0.0
140
0.0
140
0.0
140
0.0
140
0.0
140
0.0
140
0.0
140
0.0
140
0.0
140
0.0
140
0.0
140
0.0
140
0.0
140
0.0
140
0.0
140
0.0
140
0.0
140
0.0
140
0.0
140
0.0
140
0.0
140
0.0
140
0.0
140
0.0
140
0.0
140
0.0
140
0.0
140
0.0
140
0.0
140
0.0
140
0.0
140
0.0
140
0.0
140
0.0
140
0.0
140
0.0
140
0.0
140
0.0
140
0.0
140
0.0
140
0.0
140
0.0
140
0.0
140
0.0
140
0.0
140
0.0
140
0.0
140
0.0
140
0.0
140
0.0
140
0.0
140
0.0
140
0.0
140
0.0
140
0.0
140
0.0
140
0.0
140
0.0
140
0.0
140
0.0
140
0.0
140
0.0
140
0.0
140
0.0
140
0.0
140
0.0
140
0.0
140
0.0
140
0.0
140
0.0
140
0.0
140
0.0
140
0.0
140
0.0
140
0.0
140
0.0
140
0.0
140
0.0
140
0.0
140
0.0
140
0.0
140
0.0
140
0.0
140
0.0
140
0.0
 90
        0
  0
POLYLINE
  5
FA
330
1F
100
AcDbEntity
  8
OracDecor_skirtings
 62
   206
420
  7080072
100
AcDb3dPolyline
 66
     1
 10
0.0
 20
0.0
 30
0.0
 70
     9
  0
VERTEX
  5
FB
330
FA
100
AcDbEntity
  8
OracDecor_skirtings
 62
   206
420
  7080072
100
AcDbVertex
100
AcDb3dPolylineVertex
 10
-0.0000076293945313
 20
3.999964952468872
 30
25.13594436645508
 70
    32
  0
VERTEX
  5
FC
330
FA
100
AcDbEntity
  8
OracDecor_skirtings
 62
   206
420
  7080072
100
AcDbVertex
100
AcDb3dPolylineVertex
 10
0.0000076293945313
 20
3.999966144561767
 30
44.59866714477539
 70
    32
  0
VERTEX
  5
FD
330
FA
100
AcDbEntity
  8
OracDecor_skirtings
 62
   206
420
  7080072
100
AcDbVertex
100
AcDb3dPolylineVertex
 10
0.0000076293954407
 20
3.873942613601684
 30
45.44672012329101
 70
    32
  0
VERTEX
  5
FE
330
FA
100
AcDbEntity
  8
OracDecor_skirtings
 62
   206
420
  7080072
100
AcDbVertex
100
AcDb3dPolylineVertex
 10
0.0000076293945313
 20
3.506379604339599
 30
46.22370529174804
 70
    32
  0
VERTEX
  5
FF
330
FA
100
AcDbEntity
  8
OracDecor_skirtings
 62
   206
420
  7080072
100
AcDbVertex
100
AcDb3dPolylineVertex
 10
0.0000076293945313
 20
2.928329706192016
 30
46.86397933959961
 70
    32
  0
VERTEX
  5
100
330
FA
100
AcDbEntity
  8
OracDecor_skirtings
 62
   206
420
  7080072
100
AcDbVertex
100
AcDb3dPolylineVertex
 10
0.0000076293945313
 20
1.071603059768676
 30
48.39971160888672
 70
    32
  0
VERTEX
  5
101
330
FA
100
AcDbEntity
  8
OracDecor_skirtings
 62
   206
420
  7080072
100
AcDbVertex
100
AcDb3dPolylineVertex
 10
0.0000076293945313
 20
0.4935535788536072
 30
49.03998947143555
 70
    32
  0
VERTEX
  5
102
330
FA
100
AcDbEntity
  8
OracDecor_skirtings
 62
   206
420
  7080072
100
AcDbVertex
100
AcDb3dPolylineVertex
 10
0.0000076293945313
 20
0.1259899139404297
 30
49.81697463989258
 70
    32
  0
VERTEX
  5
103
330
FA
100
AcDbEntity
  8
OracDecor_skirtings
 62
   206
420
  7080072
100
AcDbVertex
100
AcDb3dPolylineVertex
 10
0.0000076293945313
 20
-0.000033779120713
 30
50.6650276184082
 70
    32
  0
VERTEX
  5
104
330
FA
100
AcDbEntity
  8
OracDecor_skirtings
 62
   206
420
  7080072
100
AcDbVertex
100
AcDb3dPolylineVertex
 10
0.0000038146968109
 20
-0.0000333079951815
 30
56.05405807495117
 70
    32
  0
VERTEX
  5
105
330
FA
100
AcDbEntity
  8
OracDecor_skirtings
 62
   206
420
  7080072
100
AcDbVertex
100
AcDb3dPolylineVertex
 10
0.0000038146970383
 20
0.0681148767471314
 30
56.56430435180664
 70
    32
  0
VERTEX
  5
106
330
FA
100
AcDbEntity
  8
OracDecor_skirtings
 62
   206
420
  7080072
100
AcDbVertex
100
AcDb3dPolylineVertex
 10
0.0000038146970383
 20
0.2679161131381988
 30
57.03978347778321
 70
    32
  0
VERTEX
  5
107
330
FA
100
AcDbEntity
  8
OracDecor_skirtings
 62
   206
420
  7080072
100
AcDbVertex
100
AcDb3dPolylineVertex
 10
0.0000038146972656
 20
1.211292266845703
 30
58.65042495727539
 70
    32
  0
VERTEX
  5
108
330
FA
100
AcDbEntity
  8
OracDecor_skirtings
 62
   206
420
  7080072
100
AcDbVertex
100
AcDb3dPolylineVertex
 10
0.0000038146970383
 20
1.311171054840087
 30
58.88816452026367
 70
    32
  0
VERTEX
  5
109
330
FA
100
AcDbEntity
  8
OracDecor_skirtings
 62
   206
420
  7080072
100
AcDbVertex
100
AcDb3dPolylineVertex
 10
0.0000038146968109
 20
1.345266103744506
 30
59.14328384399414
 70
    32
  0
VERTEX
  5
10A
330
FA
100
AcDbEntity
  8
OracDecor_skirtings
 62
   206
420
  7080072
100
AcDbVertex
100
AcDb3dPolylineVertex
 10
0.0000076293945313
 20
1.311171412467956
 30
59.3984031677246
 70
    32
  0
VERTEX
  5
10B
330
FA
100
AcDbEntity
  8
OracDecor_skirtings
 62
   206
420
  7080072
100
AcDbVertex
100
AcDb3dPolylineVertex
 10
0.0000076293945313
 20
1.211292624473571
 30
59.63614273071289
 70
    32
  0
VERTEX
  5
10C
330
FA
100
AcDbEntity
  8
OracDecor_skirtings
 62
   206
420
  7080072
100
AcDbVertex
100
AcDb3dPolylineVertex
 10
0.0000076293945313
 20
0.267916738986969
 30
61.24678421020508
 70
    32
  0
VERTEX
  5
10D
330
FA
100
AcDbEntity
  8
OracDecor_skirtings
 62
   206
420
  7080072
100
AcDbVertex
100
AcDb3dPolylineVertex
 10
0.0000076293945313
 20
0.0681153237819672
 30
61.72225570678711
 70
    32
  0
VERTEX
  5
10E
330
FA
100
AcDbEntity
  8
OracDecor_skirtings
 62
   206
420
  7080072
100
AcDbVertex
100
AcDb3dPolylineVertex
 10
0.0000076293954407
 20
-0.0000327678571921
 30
62.23250198364258
 70
    32
  0
VERTEX
  5
10F
330
FA
100
AcDbEntity
  8
OracDecor_skirtings
 62
   206
420
  7080072
100
AcDbVertex
100
AcDb3dPolylineVertex
 10
0.0000000000000391
 20
-0.0000316993464367
 30
69.00048828125
 70
    32
  0
VERTEX
  5
110
330
FA
100
AcDbEntity
  8
OracDecor_skirtings
 62
   206
420
  7080072
100
AcDbVertex
100
AcDb3dPolylineVertex
 10
0.0000000000000391
 20
4.499969005584716
 30
69.00048828125
 70
    32
  0
VERTEX
  5
111
330
FA
100
AcDbEntity
  8
OracDecor_skirtings
 62
   206
420
  7080072
100
AcDbVertex
100
AcDb3dPolylineVertex
 10
0.0000000000000391
 20
4.54793643951416
 30
68.08293914794922
 70
    32
  0
VERTEX
  5
112
330
FA
100
AcDbEntity
  8
OracDecor_skirtings
 62
   206
420
  7080072
100
AcDbVertex
100
AcDb3dPolylineVertex
 10
0.0000000000000391
 20
4.631221771240234
 30
67.28838348388672
 70
    32
  0
VERTEX
  5
113
330
FA
100
AcDbEntity
  8
OracDecor_skirtings
 62
   206
420
  7080072
100
AcDbVertex
100
AcDb3dPolylineVertex
 10
0.0000076293945313
 20
4.712218284606933
 30
66.77555084228515
 70
    32
  0
VERTEX
  5
114
330
FA
100
AcDbEntity
  8
OracDecor_skirtings
 62
   206
420
  7080072
100
AcDbVertex
100
AcDb3dPolylineVertex
 10
0.0000076293945313
 20
4.912719249725341
 30
66.00504302978515
 70
    32
  0
VERTEX
  5
115
330
FA
100
AcDbEntity
  8
OracDecor_skirtings
 62
   206
420
  7080072
100
AcDbVertex
100
AcDb3dPolylineVertex
 10
0.0000076293945313
 20
5.245632648468017
 30
65.10005950927734
 70
    32
  0
VERTEX
  5
116
330
FA
100
AcDbEntity
  8
OracDecor_skirtings
 62
   206
420
  7080072
100
AcDbVertex
100
AcDb3dPolylineVertex
 10
0.0000076293940765
 20
5.622181892395019
 30
64.40349578857421
 70
    32
  0
VERTEX
  5
117
330
FA
100
AcDbEntity
  8
OracDecor_skirtings
 62
   206
420
  7080072
100
AcDbVertex
100
AcDb3dPolylineVertex
 10
0.0000076293945313
 20
6.200713157653808
 30
63.62430953979492
 70
    32
  0
VERTEX
  5
118
330
FA
100
AcDbEntity
  8
OracDecor_skirtings
 62
   206
420
  7080072
100
AcDbVertex
100
AcDb3dPolylineVertex
 10
0.0000076293945313
 20
6.758047103881835
 30
63.06167221069336
 70
    32
  0
VERTEX
  5
119
330
FA
100
AcDbEntity
  8
OracDecor_skirtings
 62
   206
420
  7080072
100
AcDbVertex
100
AcDb3dPolylineVertex
 10
0.0000076293945313
 20
7.53721284866333
 30
62.47163009643554
 70
    32
  0
VERTEX
  5
11A
330
FA
100
AcDbEntity
  8
OracDecor_skirtings
 62
   206
420
  7080072
100
AcDbVertex
100
AcDb3dPolylineVertex
 10
0.0000038146972656
 20
8.167309761047363
 30
61.97885513305664
 70
    32
  0
VERTEX
  5
11B
330
FA
100
AcDbEntity
  8
OracDecor_skirtings
 62
   206
420
  7080072
100
AcDbVertex
100
AcDb3dPolylineVertex
 10
0.0000038146970383
 20
8.741925239562988
 30
61.51487350463867
 70
    32
  0
VERTEX
  5
11C
330
FA
100
AcDbEntity
  8
OracDecor_skirtings
 62
   206
420
  7080072
100
AcDbVertex
100
AcDb3dPolylineVertex
 10
0.0000038146972656
 20
9.260306358337402
 30
60.92141342163086
 70
    32
  0
VERTEX
  5
11D
330
FA
100
AcDbEntity
  8
OracDecor_skirtings
 62
   206
420
  7080072
100
AcDbVertex
100
AcDb3dPolylineVertex
 10
0.0000038146972656
 20
9.639105796813964
 30
60.2957649230957
 70
    32
  0
VERTEX
  5
11E
330
FA
100
AcDbEntity
  8
OracDecor_skirtings
 62
   206
420
  7080072
100
AcDbVertex
100
AcDb3dPolylineVertex
 10
0.0000038146970383
 20
9.923572540283203
 30
59.56113815307617
 70
    32
  0
VERTEX
  5
11F
330
FA
100
AcDbEntity
  8
OracDecor_skirtings
 62
   206
420
  7080072
100
AcDbVertex
100
AcDb3dPolylineVertex
 10
0.0000038146972656
 20
10.06383895874023
 30
58.84899520874023
 70
    32
  0
VERTEX
  5
120
330
FA
100
AcDbEntity
  8
OracDecor_skirtings
 62
   206
420
  7080072
100
AcDbVertex
100
AcDb3dPolylineVertex
 10
0.0000038146970383
 20
10.07868003845215
 30
58.06144332885742
 70
    32
  0
VERTEX
  5
121
330
FA
100
AcDbEntity
  8
OracDecor_skirtings
 62
   206
420
  7080072
100
AcDbVertex
100
AcDb3dPolylineVertex
 10
0.0000038146970383
 20
9.965387344360351
 30
57.34480667114258
 70
    32
  0
VERTEX
  5
122
330
FA
100
AcDbEntity
  8
OracDecor_skirtings
 62
   206
420
  7080072
100
AcDbVertex
100
AcDb3dPolylineVertex
 10
0.0000038146968109
 20
9.70871353149414
 30
56.60002517700196
 70
    32
  0
VERTEX
  5
123
330
FA
100
AcDbEntity
  8
OracDecor_skirtings
 62
   206
420
  7080072
100
AcDbVertex
100
AcDb3dPolylineVertex
 10
0.0000038146970383
 20
9.353944778442382
 30
55.96124649047851
 70
    32
  0
VERTEX
  5
124
330
FA
100
AcDbEntity
  8
OracDecor_skirtings
 62
   206
420
  7080072
100
AcDbVertex
100
AcDb3dPolylineVertex
 10
0.0000038146970383
 20
8.858051300048828
 30
55.34890365600586
 70
    32
  0
VERTEX
  5
125
330
FA
100
AcDbEntity
  8
OracDecor_skirtings
 62
   206
420
  7080072
100
AcDbVertex
100
AcDb3dPolylineVertex
 10
0.0000038146970383
 20
7.999967575073242
 30
54.6018180847168
 70
    32
  0
VERTEX
  5
126
330
FA
100
AcDbEntity
  8
OracDecor_skirtings
 62
   206
420
  7080072
100
AcDbVertex
100
AcDb3dPolylineVertex
 10
0.0000038146970383
 20
7.999967575073242
 30
53.61609268188477
 70
    32
  0
VERTEX
  5
127
330
FA
100
AcDbEntity
  8
OracDecor_skirtings
 62
   206
420
  7080072
100
AcDbVertex
100
AcDb3dPolylineVertex
 10
0.0000038146965835
 20
8.368049621582031
 30
53.48403549194336
 70
    32
  0
VERTEX
  5
128
330
FA
100
AcDbEntity
  8
OracDecor_skirtings
 62
   206
420
  7080072
100
AcDbVertex
100
AcDb3dPolylineVertex
 10
0.0000038146970383
 20
9.171118736267089
 30
53.04973220825195
 70
    32
  0
VERTEX
  5
129
330
FA
100
AcDbEntity
  8
OracDecor_skirtings
 62
   206
420
  7080072
100
AcDbVertex
100
AcDb3dPolylineVertex
 10
0.0000076293940765
 20
9.644010543823242
 30
52.69181442260742
 70
    32
  0
VERTEX
  5
12A
330
FA
100
AcDbEntity
  8
OracDecor_skirtings
 62
   206
420
  7080072
100
AcDbVertex
100
AcDb3dPolylineVertex
 10
0.0000076293945313
 20
10.06756782531738
 30
52.25569534301758
 70
    32
  0
VERTEX
  5
12B
330
FA
100
AcDbEntity
  8
OracDecor_skirtings
 62
   206
420
  7080072
100
AcDbVertex
100
AcDb3dPolylineVertex
 10
0.0000076293945313
 20
10.41079807281494
 30
51.77219009399414
 70
    32
  0
VERTEX
  5
12C
330
FA
100
AcDbEntity
  8
OracDecor_skirtings
 62
   206
420
  7080072
100
AcDbVertex
100
AcDb3dPolylineVertex
 10
0.0000076293945313
 20
10.6805944442749
 30
51.23288345336914
 70
    32
  0
VERTEX
  5
12D
330
FA
100
AcDbEntity
  8
OracDecor_skirtings
 62
   206
420
  7080072
100
AcDbVertex
100
AcDb3dPolylineVertex
 10
0.0000076293940765
 20
10.86110305786132
 30
50.66817855834961
 70
    32
  0
VERTEX
  5
12E
330
FA
100
AcDbEntity
  8
OracDecor_skirtings
 62
   206
420
  7080072
100
AcDbVertex
100
AcDb3dPolylineVertex
 10
0.0000076293945313
 20
10.99996757507324
 30
49.77894592285156
 70
    32
  0
VERTEX
  5
12F
330
FA
100
AcDbEntity
  8
OracDecor_skirtings
 62
   206
420
  7080072
100
AcDbVertex
100
AcDb3dPolylineVertex
 10
0.0000000000000391
 20
10.99996280670166
 30
0.0000857547565829
 70
    32
  0
VERTEX
  5
130
330
FA
100
AcDbEntity
  8
OracDecor_skirtings
 62
   206
420
  7080072
100
AcDbVertex
100
AcDb3dPolylineVertex
 10
0.0000000000000391
 20
6.409864425659179
 30
0.0000823413429316
 70
    32
  0
VERTEX
  5
131
330
FA
100
AcDbEntity
  8
OracDecor_skirtings
 62
   206
420
  7080072
100
AcDbVertex
100
AcDb3dPolylineVertex
 10
0.0000000000000391
 20
6.188924312591552
 30
0.0508254654705525
 70
    32
  0
VERTEX
  5
132
330
FA
100
AcDbEntity
  8
OracDecor_skirtings
 62
   206
420
  7080072
100
AcDbVertex
100
AcDb3dPolylineVertex
 10
0.0000000000000391
 20
6.01338243484497
 30
0.1926826238632202
 70
    32
  0
VERTEX
  5
133
330
FA
100
AcDbEntity
  8
OracDecor_skirtings
 62
   206
420
  7080072
100
AcDbVertex
100
AcDb3dPolylineVertex
 10
0.0000000000000391
 20
5.919574260711669
 30
0.3962844908237457
 70
    32
  0
VERTEX
  5
134
330
FA
100
AcDbEntity
  8
OracDecor_skirtings
 62
   206
420
  7080072
100
AcDbVertex
100
AcDb3dPolylineVertex
 10
-0.0000038146977204
 20
4.080351829528808
 30
9.461081504821777
 70
    32
  0
VERTEX
  5
135
330
FA
100
AcDbEntity
  8
OracDecor_skirtings
 62
   206
420
  7080072
100
AcDbVertex
100
AcDb3dPolylineVertex
 10
-0.0000038146970383
 20
3.986543655395507
 30
9.664687156677246
 70
    32
  0
VERTEX
  5
136
330
FA
100
AcDbEntity
  8
OracDecor_skirtings
 62
   206
420
  7080072
100
AcDbVertex
100
AcDb3dPolylineVertex
 10
-0.0000038146972656
 20
3.811001777648925
 30
9.806540489196777
 70
    32
  0
VERTEX
  5
137
330
FA
100
AcDbEntity
  8
OracDecor_skirtings
 62
   206
420
  7080072
100
AcDbVertex
100
AcDb3dPolylineVertex
 10
-0.0000038146972656
 20
3.590061426162719
 30
9.857283592224121
 70
    32
  0
VERTEX
  5
138
330
FA
100
AcDbEntity
  8
OracDecor_skirtings
 62
   206
420
  7080072
100
AcDbVertex
100
AcDb3dPolylineVertex
 10
-0.0000038146970383
 20
0.4999631345272065
 30
9.857283592224121
 70
    32
  0
VERTEX
  5
139
330
FA
100
AcDbEntity
  8
OracDecor_skirtings
 62
   206
420
  7080072
100
AcDbVertex
100
AcDb3dPolylineVertex
 10
-0.0000038146970383
 20
0.2499290406703949
 30
9.92335033416748
 70
    32
  0
VERTEX
  5
13A
330
FA
100
AcDbEntity
  8
OracDecor_skirtings
 62
   206
420
  7080072
100
AcDbVertex
100
AcDb3dPolylineVertex
 10
-0.0000038146970383
 20
0.0669869109988213
 30
10.10368251800537
 70
    32
  0
VERTEX
  5
13B
330
FA
100
AcDbEntity
  8
OracDecor_skirtings
 62
   206
420
  7080072
100
AcDbVertex
100
AcDb3dPolylineVertex
 10
-0.0000038146972656
 20
-0.0000368267210433
 30
10.35014629364013
 70
    32
  0
VERTEX
  5
13C
330
FA
100
AcDbEntity
  8
OracDecor_skirtings
 62
   206
420
  7080072
100
AcDbVertex
100
AcDb3dPolylineVertex
 10
-0.0000000000000178
 20
-0.0000364935694961
 30
14.16096401214599
 70
    32
  0
VERTEX
  5
13D
330
FA
100
AcDbEntity
  8
OracDecor_skirtings
 62
   206
420
  7080072
100
AcDbVertex
100
AcDb3dPolylineVertex
 10
-0.0000000000000178
 20
0.0681116878986359
 30
14.67121028900146
 70
    32
  0
VERTEX
  5
13E
330
FA
100
AcDbEntity
  8
OracDecor_skirtings
 62
   206
420
  7080072
100
AcDbVertex
100
AcDb3dPolylineVertex
 10
-0.0000000000000178
 20
0.2679126858711243
 30
15.14668178558349
 70
    32
  0
VERTEX
  5
13F
330
FA
100
AcDbEntity
  8
OracDecor_skirtings
 62
   206
420
  7080072
100
AcDbVertex
100
AcDb3dPolylineVertex
 10
-0.0000000000000178
 20
1.211288809776306
 30
16.75732612609863
 70
    32
  0
VERTEX
  5
140
330
FA
100
AcDbEntity
  8
OracDecor_skirtings
 62
   206
420
  7080072
100
AcDbVertex
100
AcDb3dPolylineVertex
 10
-0.0000000000000178
 20
1.311167359352111
 30
16.99506759643554
 70
    32
  0
VERTEX
  5
141
330
FA
100
AcDbEntity
  8
OracDecor_skirtings
 62
   206
420
  7080072
100
AcDbVertex
100
AcDb3dPolylineVertex
 10
-0.0000000000000178
 20
1.34526252746582
 30
17.25018501281738
 70
    32
  0
VERTEX
  5
142
330
FA
100
AcDbEntity
  8
OracDecor_skirtings
 62
   206
420
  7080072
100
AcDbVertex
100
AcDb3dPolylineVertex
 10
-0.0000000000000178
 20
1.31116771697998
 30
17.50530433654785
 70
    32
  0
VERTEX
  5
143
330
FA
100
AcDbEntity
  8
OracDecor_skirtings
 62
   206
420
  7080072
100
AcDbVertex
100
AcDb3dPolylineVertex
 10
-0.0000000000000178
 20
1.211288928985595
 30
17.74304580688476
 70
    32
  0
VERTEX
  5
144
330
FA
100
AcDbEntity
  8
OracDecor_skirtings
 62
   206
420
  7080072
100
AcDbVertex
100
AcDb3dPolylineVertex
 10
-0.0000000000000178
 20
0.2679130733013153
 30
19.35368728637695
 70
    32
  0
VERTEX
  5
145
330
FA
100
AcDbEntity
  8
OracDecor_skirtings
 62
   206
420
  7080072
100
AcDbVertex
100
AcDb3dPolylineVertex
 10
-0.0000076293945313
 20
0.0681121423840523
 30
19.82916069030762
 70
    32
  0
VERTEX
  5
146
330
FA
100
AcDbEntity
  8
OracDecor_skirtings
 62
   206
420
  7080072
100
AcDbVertex
100
AcDb3dPolylineVertex
 10
-0.0000076293945313
 20
-0.0000354765979864
 30
20.33940696716308
 70
    32
  0
VERTEX
  5
147
330
FA
100
AcDbEntity
  8
OracDecor_skirtings
 62
   206
420
  7080072
100
AcDbVertex
100
AcDb3dPolylineVertex
 10
0.0000076293936218
 20
-0.0000356202799594
 30
24.15022659301758
 70
    32
  0
VERTEX
  5
148
330
FA
100
AcDbEntity
  8
OracDecor_skirtings
 62
   206
420
  7080072
100
AcDbVertex
100
AcDb3dPolylineVertex
 10
0.0000076293945313
 20
0.0669876784086228
 30
24.39668655395508
 70
    32
  0
VERTEX
  5
149
330
FA
100
AcDbEntity
  8
OracDecor_skirtings
 62
   206
420
  7080072
100
AcDbVertex
100
AcDb3dPolylineVertex
 10
0.0000076293945313
 20
0.2499303221702576
 30
24.57701873779297
 70
    32
  0
VERTEX
  5
14A
330
FA
100
AcDbEntity
  8
OracDecor_skirtings
 62
   206
420
  7080072
100
AcDbVertex
100
AcDb3dPolylineVertex
 10
0.0000076293940765
 20
0.4999646544456482
 30
24.64308547973633
 70
    32
  0
VERTEX
  5
14B
330
FA
100
AcDbEntity
  8
OracDecor_skirtings
 62
   206
420
  7080072
100
AcDbVertex
100
AcDb3dPolylineVertex
 10
-0.0000076293945313
 20
3.499964714050292
 30
24.64308547973633
 70
    32
  0
VERTEX
  5
14C
330
FA
100
AcDbEntity
  8
OracDecor_skirtings
 62
   206
420
  7080072
100
AcDbVertex
100
AcDb3dPolylineVertex
 10
-0.0000076293945313
 20
3.749998807907104
 30
24.70915222167969
 70
    32
  0
VERTEX
  5
14D
330
FA
100
AcDbEntity
  8
OracDecor_skirtings
 62
   206
420
  7080072
100
AcDbVertex
100
AcDb3dPolylineVertex
 10
-0.0000076293936218
 20
3.932941675186157
 30
24.88948059082031
 70
    32
  0
SEQEND
  5
14E
330
FA
100
AcDbEntity
  8
OracDecor_skirtings
 62
   206
420
  7080072
  0
ENDSEC
  0
SECTION
  2
OBJECTS
  0
DICTIONARY
  5
C
330
0
100
AcDbDictionary
281
     1
  3
ACAD_COLOR
350
DC
  3
ACAD_DETAILVIEWSTYLE
350
F5
  3
ACAD_GROUP
350
D
  3
ACAD_LAYOUT
350
1A
  3
ACAD_MATERIAL
350
AA
  3
ACAD_MLEADERSTYLE
350
F1
  3
ACAD_MLINESTYLE
350
17
  3
ACAD_PLOTSETTINGS
350
19
  3
ACAD_PLOTSTYLENAME
350
E
  3
ACAD_SCALELIST
350
DF
  3
ACAD_SECTIONVIEWSTYLE
350
F3
  3
ACAD_TABLESTYLE
350
DD
  3
ACAD_VISUALSTYLE
350
C3
  3
ACDB_RECOMPOSE_DATA
350
15B
  3
AcDbVariableDictionary
350
14F
  0
DICTIONARY
  5
DC
102
{ACAD_REACTORS
330
C
102
}
330
C
100
AcDbDictionary
281
     1
  0
DICTIONARY
  5
F5
102
{ACAD_REACTORS
330
C
102
}
330
C
100
AcDbDictionary
281
     1
  3
Imperial24
350
F6
  0
DICTIONARY
  5
D
102
{ACAD_REACTORS
330
C
102
}
330
C
100
AcDbDictionary
281
     1
  0
DICTIONARY
  5
1A
102
{ACAD_REACTORS
330
C
102
}
330
C
100
AcDbDictionary
281
     1
  3
Layout1
350
1E
  3
Layout2
350
26
  3
Model
350
22
  0
DICTIONARY
  5
AA
102
{ACAD_REACTORS
330
C
102
}
330
C
100
AcDbDictionary
281
     1
  3
ByBlock
350
B3
  3
ByLayer
350
AB
  3
Global
350
BB
  0
DICTIONARY
  5
F1
102
{ACAD_REACTORS
330
C
102
}
330
C
100
AcDbDictionary
281
     1
  3
Standard
350
F2
  0
DICTIONARY
  5
17
102
{ACAD_REACTORS
330
C
102
}
330
C
100
AcDbDictionary
281
     1
  3
Standard
350
18
  0
DICTIONARY
  5
19
102
{ACAD_REACTORS
330
C
102
}
330
C
100
AcDbDictionary
281
     1
  0
ACDBDICTIONARYWDFLT
  5
E
102
{ACAD_REACTORS
330
C
102
}
330
C
100
AcDbDictionary
281
     1
  3
ByLayer
350
2D
  3
Normal
350
F
100
AcDbDictionaryWithDefault
340
F
  0
DICTIONARY
  5
DF
102
{ACAD_REACTORS
330
C
102
}
330
C
100
AcDbDictionary
281
     1
  3
A0
350
E0
  3
A1
350
E1
  3
A2
350
E2
  3
A3
350
E3
  3
A4
350
E4
  3
A5
350
E5
  3
A6
350
E6
  3
A7
350
E7
  3
A8
350
E8
  3
A9
350
E9
  3
B0
350
EA
  3
B1
350
EB
  3
B2
350
EC
  3
B3
350
ED
  3
B4
350
EE
  3
B5
350
EF
  3
B6
350
F0
  0
DICTIONARY
  5
F3
102
{ACAD_REACTORS
330
C
102
}
330
C
100
AcDbDictionary
281
     1
  3
Imperial24
350
F4
  0
DICTIONARY
  5
DD
102
{ACAD_REACTORS
330
C
102
}
330
C
100
AcDbDictionary
281
     1
  3
Standard
350
DE
  0
DICTIONARY
  5
C3
102
{ACAD_REACTORS
330
C
102
}
330
C
100
AcDbDictionary
281
     1
  3
2dWireframe
350
C9
  3
Basic
350
C8
  3
Brighten
350
CF
  3
ColorChange
350
D3
  3
Conceptual
350
CC
  3
Dim
350
CE
  3
EdgeColorOff
350
DB
  3
Facepattern
350
D2
  3
Flat
350
C4
  3
FlatWithEdges
350
C5
  3
Gouraud
350
C6
  3
GouraudWithEdges
350
C7
  3
Hidden
350
CB
  3
JitterOff
350
D9
  3
Linepattern
350
D1
  3
OverhangOff
350
DA
  3
Realistic
350
CD
  3
Shaded
350
D8
  3
Shaded with edges
350
D7
  3
Shades of Gray
350
D4
  3
Sketchy
350
D5
  3
Thicken
350
D0
  3
Wireframe
350
CA
  3
X-Ray
350
D6
  0
XRECORD
  5
15B
102
{ACAD_REACTORS
330
C
102
}
330
C
100
AcDbXrecord
280
     1
 90
        1
330
DE
  0
DICTIONARY
  5
14F
102
{ACAD_REACTORS
330
C
102
}
330
C
100
AcDbDictionary
281
     1
  3
CANNOSCALE
350
155
  3
CMLEADERSTYLE
350
151
  3
CTABLESTYLE
350
150
  3
CVIEWDETAILSTYLE
350
152
  3
CVIEWSECTIONSTYLE
350
153
  3
LAYEREVAL
350
157
  3
LAYERNOTIFY
350
158
  3
LIGHTINGUNITS
350
156
  3
MSLTSCALE
350
154
  0
ACDBDETAILVIEWSTYLE
  5
F6
102
{ACAD_XDICTIONARY
360
190
102
}
102
{ACAD_REACTORS
330
F5
102
}
330
F5
100
AcDbModelDocViewStyle
 70
     0
  3
Imperial24
290
     0
100
AcDbDetailViewStyle
 70
     0
 71
     0
 90
        3
 71
     1
340
11
 62
   256
 40
0.24
340
0
 62
   256
 40
0.24
300

 40
0.36
280
     3
 71
     2
340
16
 90
       25
 62
   256
 71
     3
340
11
 62
   256
 40
0.24
 90
        1
 40
0.75
 90
        1
300
%<\AcVar ViewType \f "%tc1">% %<\AcVar ViewDetailId>%\PSCALE %<\AcVar ViewScale \f "%sn">%
 71
     4
340
16
 90
       25
 62
   256
340
16
 90
       25
 62
   256
280
     0
  0
LAYOUT
  5
1E
102
{ACAD_REACTORS
330
1A
102
}
330
1A
100
AcDbPlotSettings
  1

  2
\\KTXNTBDC\CASF2PN1
  4

  6

 40
0.0
 41
0.0
 42
0.0
 43
0.0
 44
0.0
 45
0.0
 46
0.0
 47
0.0
 48
0.0
 49
0.0
140
0.0
141
0.0
142
1.0
143
1.0
 70
   688
 72
     0
 73
     0
 74
     5
  7

 75
    16
147
1.0
 76
     0
 77
     2
 78
   300
148
0.0
149
0.0
100
AcDbLayout
  1
Layout1
 70
     1
 71
     1
 10
0.0
 20
0.0
 11
12.0
 21
9.0
 12
0.0
 22
0.0
 32
0.0
 14
1.000000000000000E+20
 24
1.000000000000000E+20
 34
1.000000000000000E+20
 15
-1.000000000000000E+20
 25
-1.000000000000000E+20
 35
-1.000000000000000E+20
146
0.0
 13
0.0
 23
0.0
 33
0.0
 16
1.0
 26
0.0
 36
0.0
 17
0.0
 27
1.0
 37
0.0
 76
     0
330
1B
  0
LAYOUT
  5
26
102
{ACAD_REACTORS
330
1A
102
}
330
1A
100
AcDbPlotSettings
  1

  2
\\KTXNTBDC\CASF2PN1
  4

  6

 40
0.0
 41
0.0
 42
0.0
 43
0.0
 44
0.0
 45
0.0
 46
0.0
 47
0.0
 48
0.0
 49
0.0
140
0.0
141
0.0
142
1.0
143
1.0
 70
   688
 72
     0
 73
     0
 74
     5
  7

 75
    16
147
1.0
 76
     0
 77
     2
 78
   300
148
0.0
149
0.0
100
AcDbLayout
  1
Layout2
 70
     1
 71
     2
 10
0.0
 20
0.0
 11
12.0
 21
9.0
 12
0.0
 22
0.0
 32
0.0
 14
0.0
 24
0.0
 34
0.0
 15
0.0
 25
0.0
 35
0.0
146
0.0
 13
0.0
 23
0.0
 33
0.0
 16
1.0
 26
0.0
 36
0.0
 17
0.0
 27
1.0
 37
0.0
 76
     0
330
23
  0
LAYOUT
  5
22
102
{ACAD_REACTORS
330
1A
102
}
330
1A
100
AcDbPlotSettings
  1

  2
\\KTXNTBDC\CASF2PN1
  4

  6

 40
0.0
 41
0.0
 42
0.0
 43
0.0
 44
0.0
 45
0.0
 46
0.0
 47
0.0
 48
0.0
 49
0.0
140
0.0
141
0.0
142
1.0
143
1.0
 70
  1712
 72
     0
 73
     0
 74
     0
  7

 75
     0
147
1.0
 76
     0
 77
     2
 78
   300
148
0.0
149
0.0
100
AcDbLayout
  1
Model
 70
     1
 71
     0
 10
0.0
 20
0.0
 11
12.0
 21
9.0
 12
0.0
 22
0.0
 32
0.0
 14
0.0
 24
0.0
 34
0.0
 15
0.0
 25
0.0
 35
0.0
146
0.0
 13
0.0
 23
0.0
 33
0.0
 16
1.0
 26
0.0
 36
0.0
 17
0.0
 27
1.0
 37
0.0
 76
     0
330
1F
  0
MATERIAL
  5
B3
102
{ACAD_XDICTIONARY
360
B4
102
}
102
{ACAD_REACTORS
330
AA
102
}
330
AA
100
AcDbMaterial
  1
ByBlock
 72
     0
 43
0.0208333333333333
 43
0.0
 43
0.0
 43
0.0
 43
0.0
 43
0.0208333333333333
 43
0.0
 43
0.0
 43
0.0
 43
0.0
 43
1.0
 43
0.0
 43
0.0
 43
0.0
 43
0.0
 43
1.0
 77
     0
 47
0.0208333333333333
 47
0.0
 47
0.0
 47
0.0
 47
0.0
 47
0.0208333333333333
 47
0.0
 47
0.0
 47
0.0
 47
0.0
 47
1.0
 47
0.0
 47
0.0
 47
0.0
 47
0.0
 47
1.0
171
     0
 49
0.0208333333333333
 49
0.0
 49
0.0
 49
0.0
 49
0.0
 49
0.0208333333333333
 49
0.0
 49
0.0
 49
0.0
 49
0.0
 49
1.0
 49
0.0
 49
0.0
 49
0.0
 49
0.0
 49
1.0
175
     0
142
0.0208333333333333
142
0.0
142
0.0
142
0.0
142
0.0
142
0.0208333333333333
142
0.0
142
0.0
142
0.0
142
0.0
142
1.0
142
0.0
142
0.0
142
0.0
142
0.0
142
1.0
179
     0
144
0.0208333333333333
144
0.0
144
0.0
144
0.0
144
0.0
144
0.0208333333333333
144
0.0
144
0.0
144
0.0
144
0.0
144
1.0
144
0.0
144
0.0
144
0.0
144
0.0
144
1.0
147
0.0208333333333333
147
0.0
147
0.0
147
0.0
147
0.0
147
0.0208333333333333
147
0.0
147
0.0
147
0.0
147
0.0
147
1.0
147
0.0
147
0.0
147
0.0
147
0.0
147
1.0
  0
MATERIAL
  5
AB
102
{ACAD_XDICTIONARY
360
AC
102
}
102
{ACAD_REACTORS
330
AA
102
}
330
AA
100
AcDbMaterial
  1
ByLayer
 72
     0
 43
0.0208333333333333
 43
0.0
 43
0.0
 43
0.0
 43
0.0
 43
0.0208333333333333
 43
0.0
 43
0.0
 43
0.0
 43
0.0
 43
1.0
 43
0.0
 43
0.0
 43
0.0
 43
0.0
 43
1.0
 77
     0
 47
0.0208333333333333
 47
0.0
 47
0.0
 47
0.0
 47
0.0
 47
0.0208333333333333
 47
0.0
 47
0.0
 47
0.0
 47
0.0
 47
1.0
 47
0.0
 47
0.0
 47
0.0
 47
0.0
 47
1.0
171
     0
 49
0.0208333333333333
 49
0.0
 49
0.0
 49
0.0
 49
0.0
 49
0.0208333333333333
 49
0.0
 49
0.0
 49
0.0
 49
0.0
 49
1.0
 49
0.0
 49
0.0
 49
0.0
 49
0.0
 49
1.0
175
     0
142
0.0208333333333333
142
0.0
142
0.0
142
0.0
142
0.0
142
0.0208333333333333
142
0.0
142
0.0
142
0.0
142
0.0
142
1.0
142
0.0
142
0.0
142
0.0
142
0.0
142
1.0
179
     0
144
0.0208333333333333
144
0.0
144
0.0
144
0.0
144
0.0
144
0.0208333333333333
144
0.0
144
0.0
144
0.0
144
0.0
144
1.0
144
0.0
144
0.0
144
0.0
144
0.0
144
1.0
147
0.0208333333333333
147
0.0
147
0.0
147
0.0
147
0.0
147
0.0208333333333333
147
0.0
147
0.0
147
0.0
147
0.0
147
1.0
147
0.0
147
0.0
147
0.0
147
0.0
147
1.0
  0
MATERIAL
  5
BB
102
{ACAD_XDICTIONARY
360
BC
102
}
102
{ACAD_REACTORS
330
AA
102
}
330
AA
100
AcDbMaterial
  1
Global
 72
     0
 43
0.0208333333333333
 43
0.0
 43
0.0
 43
0.0
 43
0.0
 43
0.0208333333333333
 43
0.0
 43
0.0
 43
0.0
 43
0.0
 43
1.0
 43
0.0
 43
0.0
 43
0.0
 43
0.0
 43
1.0
 77
     0
 47
0.0208333333333333
 47
0.0
 47
0.0
 47
0.0
 47
0.0
 47
0.0208333333333333
 47
0.0
 47
0.0
 47
0.0
 47
0.0
 47
1.0
 47
0.0
 47
0.0
 47
0.0
 47
0.0
 47
1.0
171
     0
 49
0.0208333333333333
 49
0.0
 49
0.0
 49
0.0
 49
0.0
 49
0.0208333333333333
 49
0.0
 49
0.0
 49
0.0
 49
0.0
 49
1.0
 49
0.0
 49
0.0
 49
0.0
 49
0.0
 49
1.0
175
     0
142
0.0208333333333333
142
0.0
142
0.0
142
0.0
142
0.0
142
0.0208333333333333
142
0.0
142
0.0
142
0.0
142
0.0
142
1.0
142
0.0
142
0.0
142
0.0
142
0.0
142
1.0
179
     0
144
0.0208333333333333
144
0.0
144
0.0
144
0.0
144
0.0
144
0.0208333333333333
144
0.0
144
0.0
144
0.0
144
0.0
144
1.0
144
0.0
144
0.0
144
0.0
144
0.0
144
1.0
147
0.0208333333333333
147
0.0
147
0.0
147
0.0
147
0.0
147
0.0208333333333333
147
0.0
147
0.0
147
0.0
147
0.0
147
1.0
147
0.0
147
0.0
147
0.0
147
0.0
147
1.0
  0
MLEADERSTYLE
  5
F2
102
{ACAD_XDICTIONARY
360
18C
102
}
102
{ACAD_REACTORS
330
F1
102
}
330
F1
100
AcDbMLeaderStyle
179
     2
170
     2
171
     1
172
     0
 90
        2
 40
0.0
 41
0.0
173
     1
 91
-1056964608
340
14
 92
       -2
290
     1
 42
0.09
291
     1
 43
0.36
  3
Standard
 44
0.18
300

342
11
174
     1
178
     6
175
     1
176
     0
 93
-1056964608
 45
0.18
292
     0
297
     0
 46
0.18
 94
-1056964608
 47
1.0
 49
1.0
140
1.0
293
     1
141
0.0
294
     1
177
     0
142
1.0
295
     0
296
     0
143
0.125
271
     0
272
     9
273
     9
  0
MLINESTYLE
  5
18
102
{ACAD_REACTORS
330
17
102
}
330
17
100
AcDbMlineStyle
  2
STANDARD
 70
     0
  3

 62
   256
 51
90.0
 52
90.0
 71
     2
 49
0.5
 62
   256
  6
BYLAYER
 49
-0.5
 62
   256
  6
BYLAYER
  0
ACDBPLACEHOLDER
  5
2D
102
{ACAD_REACTORS
330
E
102
}
330
E
  0
ACDBPLACEHOLDER
  5
F
102
{ACAD_REACTORS
330
E
102
}
330
E
  0
SCALE
  5
E0
102
{ACAD_REACTORS
330
DF
102
}
330
DF
100
AcDbScale
 70
     0
300
1:1
140
1.0
141
1.0
290
     1
  0
SCALE
  5
E1
102
{ACAD_REACTORS
330
DF
102
}
330
DF
100
AcDbScale
 70
     0
300
1/128" = 1'-0"
140
0.0078125
141
12.0
290
     0
  0
SCALE
  5
E2
102
{ACAD_REACTORS
330
DF
102
}
330
DF
100
AcDbScale
 70
     0
300
1/64" = 1'-0"
140
0.015625
141
12.0
290
     0
  0
SCALE
  5
E3
102
{ACAD_REACTORS
330
DF
102
}
330
DF
100
AcDbScale
 70
     0
300
1/32" = 1'-0"
140
0.03125
141
12.0
290
     0
  0
SCALE
  5
E4
102
{ACAD_REACTORS
330
DF
102
}
330
DF
100
AcDbScale
 70
     0
300
1/16" = 1'-0"
140
0.0625
141
12.0
290
     0
  0
SCALE
  5
E5
102
{ACAD_REACTORS
330
DF
102
}
330
DF
100
AcDbScale
 70
     0
300
3/32" = 1'-0"
140
0.09375
141
12.0
290
     0
  0
SCALE
  5
E6
102
{ACAD_REACTORS
330
DF
102
}
330
DF
100
AcDbScale
 70
     0
300
1/8" = 1'-0"
140
0.125
141
12.0
290
     0
  0
SCALE
  5
E7
102
{ACAD_REACTORS
330
DF
102
}
330
DF
100
AcDbScale
 70
     0
300
3/16" = 1'-0"
140
0.1875
141
12.0
290
     0
  0
SCALE
  5
E8
102
{ACAD_REACTORS
330
DF
102
}
330
DF
100
AcDbScale
 70
     0
300
1/4" = 1'-0"
140
0.25
141
12.0
290
     0
  0
SCALE
  5
E9
102
{ACAD_REACTORS
330
DF
102
}
330
DF
100
AcDbScale
 70
     0
300
3/8" = 1'-0"
140
0.375
141
12.0
290
     0
  0
SCALE
  5
EA
102
{ACAD_REACTORS
330
DF
102
}
330
DF
100
AcDbScale
 70
     0
300
1/2" = 1'-0"
140
0.5
141
12.0
290
     0
  0
SCALE
  5
EB
102
{ACAD_REACTORS
330
DF
102
}
330
DF
100
AcDbScale
 70
     0
300
3/4" = 1'-0"
140
0.75
141
12.0
290
     0
  0
SCALE
  5
EC
102
{ACAD_REACTORS
330
DF
102
}
330
DF
100
AcDbScale
 70
     0
300
1" = 1'-0"
140
1.0
141
12.0
290
     0
  0
SCALE
  5
ED
102
{ACAD_REACTORS
330
DF
102
}
330
DF
100
AcDbScale
 70
     0
300
1-1/2" = 1'-0"
140
1.5
141
12.0
290
     0
  0
SCALE
  5
EE
102
{ACAD_REACTORS
330
DF
102
}
330
DF
100
AcDbScale
 70
     0
300
3" = 1'-0"
140
3.0
141
12.0
290
     0
  0
SCALE
  5
EF
102
{ACAD_REACTORS
330
DF
102
}
330
DF
100
AcDbScale
 70
     0
300
6" = 1'-0"
140
6.0
141
12.0
290
     0
  0
SCALE
  5
F0
102
{ACAD_REACTORS
330
DF
102
}
330
DF
100
AcDbScale
 70
     0
300
1'-0" = 1'-0"
140
12.0
141
12.0
290
     0
  0
ACDBSECTIONVIEWSTYLE
  5
F4
102
{ACAD_XDICTIONARY
360
18E
102
}
102
{ACAD_REACTORS
330
F3
102
}
330
F3
100
AcDbModelDocViewStyle
 70
     0
  3
Imperial24
290
     0
100
AcDbSectionViewStyle
 70
     0
 71
     0
 90
       78
 71
     1
340
11
 62
   256
 40
0.24
340
0
340
0
 62
   256
 40
0.24
300
I, O, Q, S, X, Z
 40
0.48
 90
        3
 40
0.18
 90
        1
 71
     2
340
16
 90
       25
 62
   256
340
16
 90
       50
 62
   256
 40
0.24
 40
0.0
 40
0.24
 71
     3
340
11
 62
   256
 40
0.24
 90
        1
 40
0.75
 90
        1
300
%<\AcVar ViewType \f "%tc1">% %<\AcVar ViewSectionStartId>%-%<\AcVar ViewSectionEndId>%\PSCALE %<\AcVar ViewScale \f "%sn">%
 71
     4
 62
   256
 62
   257
300
ANSI31
 40
1.0
 90
        0
290
     0
290
     0
 90
        6
 40
0.0
 40
1.570796326794896
 40
0.2617993877991494
 40
1.308996938995747
 40
-0.2617993877991494
 40
1.832595714594046
  0
TABLESTYLE
  5
DE
102
{ACAD_XDICTIONARY
360
159
102
}
102
{ACAD_REACTORS
330
DD
102
}
330
DD
100
AcDbTableStyle
280
     0
  3
Standard
 70
     0
 71
     0
 40
0.06
 41
0.06
280
     0
281
     0
  7
Standard
140
0.18
170
     2
 62
     0
 63
     7
283
     0
 90
      512
 91
        0
  1

274
    -2
284
     1
 64
     0
275
    -2
285
     1
 65
     0
276
    -2
286
     1
 66
     0
277
    -2
287
     1
 67
     0
278
    -2
288
     1
 68
     0
279
    -2
289
     1
 69
     0
  7
Standard
140
0.25
170
     5
 62
     0
 63
     7
283
     0
 90
      512
 91
        0
  1

274
    -2
284
     1
 64
     0
275
    -2
285
     1
 65
     0
276
    -2
286
     1
 66
     0
277
    -2
287
     1
 67
     0
278
    -2
288
     1
 68
     0
279
    -2
289
     1
 69
     0
  7
Standard
140
0.18
170
     5
 62
     0
 63
     7
283
     0
 90
      512
 91
        0
  1

274
    -2
284
     1
 64
     0
275
    -2
285
     1
 65
     0
276
    -2
286
     1
 66
     0
277
    -2
287
     1
 67
     0
278
    -2
288
     1
 68
     0
279
    -2
289
     1
 69
     0
  0
VISUALSTYLE
  5
C9
102
{ACAD_XDICTIONARY
360
166
102
}
102
{ACAD_REACTORS
330
C3
102
}
330
C3
100
AcDbVisualStyle
  2
2dWireframe
 70
     4
177
     2
291
     0
 71
     0
176
     1
 72
     2
176
     1
 73
     0
176
     1
 90
        0
176
     1
 40
0.6
176
     1
 41
30.0
176
     1
 63
     7
421
 16777215
176
     1
 74
     1
176
     1
 91
        4
176
     1
 64
     7
176
     1
 65
   257
176
     1
 75
     1
176
     1
175
     1
176
     1
 42
1.0
176
     1
 92
        0
176
     1
 66
   257
176
     1
 43
1.0
176
     1
 76
     1
176
     1
 77
     6
176
     1
 78
     2
176
     1
 67
     7
176
     1
 79
     5
176
     1
170
     0
176
     1
171
     0
176
     1
290
     0
176
     1
 93
        1
176
     1
 44
0.0
176
     1
173
     0
176
     1
1001
ACAD
1000
AcDbSavedByObjectVersion
1070
     0
  0
VISUALSTYLE
  5
C8
102
{ACAD_XDICTIONARY
360
164
102
}
102
{ACAD_REACTORS
330
C3
102
}
330
C3
100
AcDbVisualStyle
  2
Basic
 70
     7
177
     2
291
     1
 71
     1
176
     1
 72
     0
176
     1
 73
     1
176
     1
 90
        0
176
     1
 40
0.6
176
     1
 41
30.0
176
     1
 63
     7
421
 16777215
176
     1
 74
     0
176
     1
 91
        4
176
     1
 64
     7
176
     1
 65
   257
176
     1
 75
     1
176
     1
175
     1
176
     1
 42
1.0
176
     1
 92
        8
176
     1
 66
     7
176
     1
 43
1.0
176
     1
 76
     1
176
     1
 77
     6
176
     1
 78
     2
176
     1
 67
     7
176
     1
 79
     5
176
     1
170
     0
176
     1
171
     0
176
     1
290
     0
176
     1
 93
        1
176
     1
 44
0.0
176
     1
173
     0
176
     1
1001
ACAD
1000
AcDbSavedByObjectVersion
1070
     0
  0
VISUALSTYLE
  5
CF
102
{ACAD_XDICTIONARY
360
172
102
}
102
{ACAD_REACTORS
330
C3
102
}
330
C3
100
AcDbVisualStyle
  2
Brighten
 70
    12
177
     2
291
     1
 71
     2
176
     1
 72
     2
176
     1
 73
     0
176
     1
 90
        0
176
     1
 40
0.6
176
     1
 41
30.0
176
     1
 63
     7
421
 16777215
176
     1
 74
     1
176
     1
 91
        4
176
     1
 64
     7
176
     1
 65
   257
176
     1
 75
     1
176
     1
175
     1
176
     1
 42
1.0
176
     1
 92
        8
176
     1
 66
     7
176
     1
 43
1.0
176
     1
 76
     1
176
     1
 77
     6
176
     1
 78
     2
176
     1
 67
     7
176
     1
 79
     5
176
     1
170
     0
176
     1
171
     0
176
     1
290
     0
176
     1
 93
        1
176
     1
 44
50.0
176
     1
173
     0
176
     1
1001
ACAD
1000
AcDbSavedByObjectVersion
1070
     0
  0
VISUALSTYLE
  5
D3
102
{ACAD_XDICTIONARY
360
17A
102
}
102
{ACAD_REACTORS
330
C3
102
}
330
C3
100
AcDbVisualStyle
  2
ColorChange
 70
    16
177
     2
291
     1
 71
     2
176
     1
 72
     2
176
     1
 73
     3
176
     1
 90
        0
176
     1
 40
0.6
176
     1
 41
30.0
176
     1
 63
     8
421
  8421504
176
     1
 74
     1
176
     1
 91
        4
176
     1
 64
     7
176
     1
 65
   257
176
     1
 75
     1
176
     1
175
     1
176
     1
 42
1.0
176
     1
 92
        8
176
     1
 66
     8
424
  8421504
176
     1
 43
1.0
176
     1
 76
     1
176
     1
 77
     6
176
     1
 78
     2
176
     1
 67
     7
176
     1
 79
     5
176
     1
170
     0
176
     1
171
     0
176
     1
290
     0
176
     1
 93
        1
176
     1
 44
0.0
176
     1
173
     0
176
     1
1001
ACAD
1000
AcDbSavedByObjectVersion
1070
     0
  0
VISUALSTYLE
  5
CC
102
{ACAD_XDICTIONARY
360
16C
102
}
102
{ACAD_REACTORS
330
C3
102
}
330
C3
100
AcDbVisualStyle
  2
Conceptual
 70
     9
177
     2
291
     0
 71
     3
176
     1
 72
     2
176
     1
 73
     0
176
     1
 90
        0
176
     1
 40
0.6
176
     1
 41
30.0
176
     1
 63
     7
421
 16777215
176
     1
 74
     2
176
     1
 91
        2
176
     1
 64
     7
176
     1
 65
   257
176
     1
 75
     1
176
     1
175
     1
176
     1
 42
179.0
176
     1
 92
        8
176
     1
 66
     7
176
     1
 43
1.0
176
     1
 76
     1
176
     1
 77
     6
176
     1
 78
     2
176
     1
 67
     7
176
     1
 79
     3
176
     1
170
     0
176
     1
171
     0
176
     1
290
     0
176
     1
 93
        1
176
     1
 44
0.0
176
     1
173
     0
176
     1
1001
ACAD
1000
AcDbSavedByObjectVersion
1070
     0
  0
VISUALSTYLE
  5
CE
102
{ACAD_XDICTIONARY
360
170
102
}
102
{ACAD_REACTORS
330
C3
102
}
330
C3
100
AcDbVisualStyle
  2
Dim
 70
    11
177
     2
291
     1
 71
     2
176
     1
 72
     2
176
     1
 73
     0
176
     1
 90
        0
176
     1
 40
0.6
176
     1
 41
30.0
176
     1
 63
     7
421
 16777215
176
     1
 74
     1
176
     1
 91
        4
176
     1
 64
     7
176
     1
 65
   257
176
     1
 75
     1
176
     1
175
     1
176
     1
 42
1.0
176
     1
 92
        8
176
     1
 66
     7
176
     1
 43
1.0
176
     1
 76
     1
176
     1
 77
     6
176
     1
 78
     2
176
     1
 67
     7
176
     1
 79
     5
176
     1
170
     0
176
     1
171
     0
176
     1
290
     0
176
     1
 93
        1
176
     1
 44
-50.0
176
     1
173
     0
176
     1
1001
ACAD
1000
AcDbSavedByObjectVersion
1070
     0
  0
VISUALSTYLE
  5
DB
102
{ACAD_XDICTIONARY
360
18A
102
}
102
{ACAD_REACTORS
330
C3
102
}
330
C3
100
AcDbVisualStyle
  2
EdgeColorOff
 70
    22
177
     2
291
     1
 71
     2
176
     0
 72
     2
176
     0
 73
     0
176
     0
 90
        0
176
     0
 40
0.6
176
     0
 41
30.0
176
     0
 63
     7
421
 16777215
176
     0
 74
     1
176
     0
 91
        4
176
     0
 64
     7
176
     0
 65
   257
176
     0
 75
     1
176
     0
175
     1
176
     0
 42
1.0
176
     0
 92
        8
176
     2
 66
     7
176
     0
 43
1.0
176
     0
 76
     1
176
     0
 77
     6
176
     0
 78
     2
176
     0
 67
     7
176
     0
 79
     5
176
     0
170
     0
176
     0
171
     0
176
     0
290
     0
176
     0
 93
        1
176
     0
 44
0.0
176
     0
173
     0
176
     0
1001
ACAD
1000
AcDbSavedByObjectVersion
1070
     0
  0
VISUALSTYLE
  5
D2
102
{ACAD_XDICTIONARY
360
178
102
}
102
{ACAD_REACTORS
330
C3
102
}
330
C3
100
AcDbVisualStyle
  2
Facepattern
 70
    15
177
     2
291
     1
 71
     2
176
     1
 72
     2
176
     1
 73
     0
176
     1
 90
        0
176
     1
 40
0.6
176
     1
 41
30.0
176
     1
 63
     7
421
 16777215
176
     1
 74
     1
176
     1
 91
        4
176
     1
 64
     7
176
     1
 65
   257
176
     1
 75
     1
176
     1
175
     1
176
     1
 42
1.0
176
     1
 92
        8
176
     1
 66
     7
176
     1
 43
1.0
176
     1
 76
     1
176
     1
 77
     6
176
     1
 78
     2
176
     1
 67
     7
176
     1
 79
     5
176
     1
170
     0
176
     1
171
     0
176
     1
290
     0
176
     1
 93
        1
176
     1
 44
0.0
176
     1
173
     0
176
     1
1001
ACAD
1000
AcDbSavedByObjectVersion
1070
     0
  0
VISUALSTYLE
  5
C4
102
{ACAD_XDICTIONARY
360
15C
102
}
102
{ACAD_REACTORS
330
C3
102
}
330
C3
100
AcDbVisualStyle
  2
Flat
 70
     0
177
     2
291
     1
 71
     2
176
     1
 72
     1
176
     1
 73
     1
176
     1
 90
        2
176
     1
 40
0.6
176
     1
 41
30.0
176
     1
 63
     7
421
 16777215
176
     1
 74
     0
176
     1
 91
        0
176
     1
 64
     7
176
     1
 65
   257
176
     1
 75
     1
176
     1
175
     1
176
     1
 42
1.0
176
     1
 92
        8
176
     1
 66
     7
176
     1
 43
1.0
176
     1
 76
     1
176
     1
 77
     6
176
     1
 78
     2
176
     1
 67
     7
176
     1
 79
     5
176
     1
170
     0
176
     1
171
     0
176
     1
290
     0
176
     1
 93
       13
176
     1
 44
0.0
176
     1
173
     0
176
     1
1001
ACAD
1000
AcDbSavedByObjectVersion
1070
     0
  0
VISUALSTYLE
  5
C5
102
{ACAD_XDICTIONARY
360
15E
102
}
102
{ACAD_REACTORS
330
C3
102
}
330
C3
100
AcDbVisualStyle
  2
FlatWithEdges
 70
     1
177
     2
291
     1
 71
     2
176
     1
 72
     1
176
     1
 73
     1
176
     1
 90
        2
176
     1
 40
0.6
176
     1
 41
30.0
176
     1
 63
     7
421
 16777215
176
     1
 74
     1
176
     1
 91
        0
176
     1
 64
     7
176
     1
 65
   257
176
     1
 75
     1
176
     1
175
     1
176
     1
 42
1.0
176
     1
 92
        0
176
     1
 66
   257
176
     1
 43
1.0
176
     1
 76
     1
176
     1
 77
     6
176
     1
 78
     2
176
     1
 67
     7
176
     1
 79
     5
176
     1
170
     0
176
     1
171
     0
176
     1
290
     0
176
     1
 93
       13
176
     1
 44
0.0
176
     1
173
     0
176
     1
1001
ACAD
1000
AcDbSavedByObjectVersion
1070
     0
  0
VISUALSTYLE
  5
C6
102
{ACAD_XDICTIONARY
360
160
102
}
102
{ACAD_REACTORS
330
C3
102
}
330
C3
100
AcDbVisualStyle
  2
Gouraud
 70
     2
177
     2
291
     1
 71
     2
176
     1
 72
     2
176
     1
 73
     1
176
     1
 90
        2
176
     1
 40
0.6
176
     1
 41
30.0
176
     1
 63
     7
421
 16777215
176
     1
 74
     0
176
     1
 91
        0
176
     1
 64
     7
176
     1
 65
   257
176
     1
 75
     1
176
     1
175
     1
176
     1
 42
1.0
176
     1
 92
        0
176
     1
 66
     7
176
     1
 43
1.0
176
     1
 76
     1
176
     1
 77
     6
176
     1
 78
     2
176
     1
 67
     7
176
     1
 79
     5
176
     1
170
     0
176
     1
171
     0
176
     1
290
     0
176
     1
 93
       13
176
     1
 44
0.0
176
     1
173
     0
176
     1
1001
ACAD
1000
AcDbSavedByObjectVersion
1070
     0
  0
VISUALSTYLE
  5
C7
102
{ACAD_XDICTIONARY
360
162
102
}
102
{ACAD_REACTORS
330
C3
102
}
330
C3
100
AcDbVisualStyle
  2
GouraudWithEdges
 70
     3
177
     2
291
     1
 71
     2
176
     1
 72
     2
176
     1
 73
     1
176
     1
 90
        2
176
     1
 40
0.6
176
     1
 41
30.0
176
     1
 63
     7
421
 16777215
176
     1
 74
     1
176
     1
 91
        0
176
     1
 64
     7
176
     1
 65
   257
176
     1
 75
     1
176
     1
175
     1
176
     1
 42
1.0
176
     1
 92
        0
176
     1
 66
   257
176
     1
 43
1.0
176
     1
 76
     1
176
     1
 77
     6
176
     1
 78
     2
176
     1
 67
     7
176
     1
 79
     5
176
     1
170
     0
176
     1
171
     0
176
     1
290
     0
176
     1
 93
       13
176
     1
 44
0.0
176
     1
173
     0
176
     1
1001
ACAD
1000
AcDbSavedByObjectVersion
1070
     0
  0
VISUALSTYLE
  5
CB
102
{ACAD_XDICTIONARY
360
16A
102
}
102
{ACAD_REACTORS
330
C3
102
}
330
C3
100
AcDbVisualStyle
  2
Hidden
 70
     6
177
     2
291
     0
 71
     1
176
     1
 72
     2
176
     1
 73
     2
176
     1
 90
        0
176
     1
 40
0.6
176
     1
 41
30.0
176
     1
 63
     7
421
 16777215
176
     1
 74
     2
176
     1
 91
        2
176
     1
 64
     7
176
     1
 65
   257
176
     1
 75
     2
176
     1
175
     1
176
     1
 42
40.0
176
     1
 92
        0
176
     1
 66
   257
176
     1
 43
1.0
176
     1
 76
     1
176
     1
 77
     6
176
     1
 78
     2
176
     1
 67
     7
176
     1
 79
     3
176
     1
170
     0
176
     1
171
     0
176
     1
290
     0
176
     1
 93
        1
176
     1
 44
0.0
176
     1
173
     0
176
     1
1001
ACAD
1000
AcDbSavedByObjectVersion
1070
     0
  0
VISUALSTYLE
  5
D9
102
{ACAD_XDICTIONARY
360
186
102
}
102
{ACAD_REACTORS
330
C3
102
}
330
C3
100
AcDbVisualStyle
  2
JitterOff
 70
    20
177
     2
291
     1
 71
     2
176
     0
 72
     2
176
     0
 73
     0
176
     0
 90
        0
176
     0
 40
0.6
176
     0
 41
30.0
176
     0
 63
     7
421
 16777215
176
     0
 74
     1
176
     0
 91
        4
176
     0
 64
     7
176
     0
 65
   257
176
     0
 75
     1
176
     0
175
     1
176
     0
 42
1.0
176
     0
 92
       10
176
     2
 66
     7
176
     0
 43
1.0
176
     0
 76
     1
176
     0
 77
     6
176
     0
 78
     2
176
     0
 67
     7
176
     0
 79
     5
176
     0
170
     0
176
     0
171
     0
176
     0
290
     0
176
     0
 93
        1
176
     0
 44
0.0
176
     0
173
     0
176
     0
1001
ACAD
1000
AcDbSavedByObjectVersion
1070
     0
  0
VISUALSTYLE
  5
D1
102
{ACAD_XDICTIONARY
360
176
102
}
102
{ACAD_REACTORS
330
C3
102
}
330
C3
100
AcDbVisualStyle
  2
Linepattern
 70
    14
177
     2
291
     1
 71
     2
176
     1
 72
     2
176
     1
 73
     0
176
     1
 90
        0
176
     1
 40
0.6
176
     1
 41
30.0
176
     1
 63
     7
421
 16777215
176
     1
 74
     1
176
     1
 91
        4
176
     1
 64
     7
176
     1
 65
   257
176
     1
 75
     7
176
     1
175
     7
176
     1
 42
1.0
176
     1
 92
        8
176
     1
 66
     7
176
     1
 43
1.0
176
     1
 76
     1
176
     1
 77
     6
176
     1
 78
     2
176
     1
 67
     7
176
     1
 79
     5
176
     1
170
     0
176
     1
171
     0
176
     1
290
     0
176
     1
 93
        1
176
     1
 44
0.0
176
     1
173
     0
176
     1
1001
ACAD
1000
AcDbSavedByObjectVersion
1070
     0
  0
VISUALSTYLE
  5
DA
102
{ACAD_XDICTIONARY
360
188
102
}
102
{ACAD_REACTORS
330
C3
102
}
330
C3
100
AcDbVisualStyle
  2
OverhangOff
 70
    21
177
     2
291
     1
 71
     2
176
     0
 72
     2
176
     0
 73
     0
176
     0
 90
        0
176
     0
 40
0.6
176
     0
 41
30.0
176
     0
 63
     7
421
 16777215
176
     0
 74
     1
176
     0
 91
        4
176
     0
 64
     7
176
     0
 65
   257
176
     0
 75
     1
176
     0
175
     1
176
     0
 42
1.0
176
     0
 92
        9
176
     2
 66
     7
176
     0
 43
1.0
176
     0
 76
     1
176
     0
 77
     6
176
     0
 78
     2
176
     0
 67
     7
176
     0
 79
     5
176
     0
170
     0
176
     0
171
     0
176
     0
290
     0
176
     0
 93
        1
176
     0
 44
0.0
176
     0
173
     0
176
     0
1001
ACAD
1000
AcDbSavedByObjectVersion
1070
     0
  0
VISUALSTYLE
  5
CD
102
{ACAD_XDICTIONARY
360
16E
102
}
102
{ACAD_REACTORS
330
C3
102
}
330
C3
100
AcDbVisualStyle
  2
Realistic
 70
     8
177
     2
291
     0
 71
     2
176
     1
 72
     3
176
     1
 73
     0
176
     1
 90
        2
176
     1
 40
0.6
176
     1
 41
30.0
176
     1
 63
     7
421
 16777215
176
     1
 74
     0
176
     1
 91
        0
176
     1
 64
     7
176
     1
 65
   257
176
     1
 75
     1
176
     1
175
     1
176
     1
 42
1.0
176
     1
 92
        8
176
     1
 66
   257
176
     1
 43
1.0
176
     1
 76
     1
176
     1
 77
     6
176
     1
 78
     2
176
     1
 67
     7
176
     1
 79
     3
176
     1
170
     0
176
     1
171
     0
176
     1
290
     0
176
     1
 93
       13
176
     1
 44
0.0
176
     1
173
     0
176
     1
1001
ACAD
1000
AcDbSavedByObjectVersion
1070
     0
  0
VISUALSTYLE
  5
D8
102
{ACAD_XDICTIONARY
360
184
102
}
102
{ACAD_REACTORS
330
C3
102
}
330
C3
100
AcDbVisualStyle
  2
Shaded
 70
    27
177
     2
291
     0
 71
     2
176
     1
 72
     2
176
     1
 73
     1
176
     1
 90
        2
176
     1
 40
0.6
176
     1
 41
30.0
176
     1
 63
     7
421
 16777215
176
     1
 74
     0
176
     1
 91
        4
176
     1
 64
     7
176
     1
 65
   257
176
     1
 75
     1
176
     1
175
     1
176
     1
 42
1.0
176
     1
 92
        8
176
     1
 66
   257
176
     1
 43
1.0
176
     1
 76
     1
176
     1
 77
     6
176
     1
 78
     2
176
     1
 67
     8
425
  7895160
176
     1
 79
     3
176
     1
170
     0
176
     1
171
     0
176
     1
290
     0
176
     1
 93
        5
176
     1
 44
0.0
176
     1
173
     0
176
     1
1001
ACAD
1000
AcDbSavedByObjectVersion
1070
     0
  0
VISUALSTYLE
  5
D7
102
{ACAD_XDICTIONARY
360
182
102
}
102
{ACAD_REACTORS
330
C3
102
}
330
C3
100
AcDbVisualStyle
  2
Shaded with edges
 70
    26
177
     2
291
     0
 71
     2
176
     1
 72
     2
176
     1
 73
     1
176
     1
 90
        2
176
     1
 40
0.6
176
     1
 41
30.0
176
     1
 63
     7
421
 16777215
176
     1
 74
     1
176
     1
 91
       10
176
     1
 64
     7
176
     1
 65
   257
176
     1
 75
     2
176
     1
175
     1
176
     1
 42
1.0
176
     1
 92
        8
176
     1
 66
   257
176
     1
 43
1.0
176
     1
 76
     1
176
     1
 77
     6
176
     1
 78
     2
176
     1
 67
     7
176
     1
 79
     3
176
     1
170
     0
176
     1
171
     0
176
     1
290
     0
176
     1
 93
        5
176
     1
 44
0.0
176
     1
173
     0
176
     1
1001
ACAD
1000
AcDbSavedByObjectVersion
1070
     0
  0
VISUALSTYLE
  5
D4
102
{ACAD_XDICTIONARY
360
17C
102
}
102
{ACAD_REACTORS
330
C3
102
}
330
C3
100
AcDbVisualStyle
  2
Shades of Gray
 70
    23
177
     2
291
     0
 71
     2
176
     1
 72
     2
176
     1
 73
     3
176
     1
 90
        0
176
     1
 40
0.6
176
     1
 41
30.0
176
     1
 63
     7
421
 16777215
176
     1
 74
     2
176
     1
 91
        2
176
     1
 64
     7
176
     1
 65
     7
176
     1
 75
     1
176
     1
175
     1
176
     1
 42
40.0
176
     1
 92
        8
176
     1
 66
     7
176
     1
 43
1.0
176
     1
 76
     1
176
     1
 77
     6
176
     1
 78
     2
176
     1
 67
     7
176
     1
 79
     3
176
     1
170
     0
176
     1
171
     0
176
     1
290
     0
176
     1
 93
        1
176
     1
 44
0.0
176
     1
173
     0
176
     1
1001
ACAD
1000
AcDbSavedByObjectVersion
1070
     0
  0
VISUALSTYLE
  5
D5
102
{ACAD_XDICTIONARY
360
17E
102
}
102
{ACAD_REACTORS
330
C3
102
}
330
C3
100
AcDbVisualStyle
  2
Sketchy
 70
    24
177
     2
291
     0
 71
     1
176
     1
 72
     2
176
     1
 73
     2
176
     1
 90
        0
176
     1
 40
0.6
176
     1
 41
30.0
176
     1
 63
     7
421
 16777215
176
     1
 74
     2
176
     1
 91
        2
176
     1
 64
     7
176
     1
 65
     7
176
     1
 75
     1
176
     1
175
     1
176
     1
 42
40.0
176
     1
 92
       11
176
     1
 66
     7
176
     1
 43
1.0
176
     1
 76
     1
176
     1
 77
     6
176
     1
 78
     2
176
     1
 67
     7
176
     1
 79
     6
176
     1
170
     0
176
     1
171
     0
176
     1
290
     0
176
     1
 93
        1
176
     1
 44
0.0
176
     1
173
     0
176
     1
1001
ACAD
1000
AcDbSavedByObjectVersion
1070
     0
  0
VISUALSTYLE
  5
D0
102
{ACAD_XDICTIONARY
360
174
102
}
102
{ACAD_REACTORS
330
C3
102
}
330
C3
100
AcDbVisualStyle
  2
Thicken
 70
    13
177
     2
291
     1
 71
     2
176
     1
 72
     2
176
     1
 73
     0
176
     1
 90
        0
176
     1
 40
0.6
176
     1
 41
30.0
176
     1
 63
     7
421
 16777215
176
     1
 74
     1
176
     1
 91
        4
176
     1
 64
     7
176
     1
 65
   257
176
     1
 75
     1
176
     1
175
     1
176
     1
 42
1.0
176
     1
 92
       12
176
     1
 66
     7
176
     1
 43
1.0
176
     1
 76
     1
176
     1
 77
     6
176
     1
 78
     2
176
     1
 67
     7
176
     1
 79
     5
176
     1
170
     0
176
     1
171
     0
176
     1
290
     0
176
     1
 93
        1
176
     1
 44
0.0
176
     1
173
     0
176
     1
1001
ACAD
1000
AcDbSavedByObjectVersion
1070
     0
  0
VISUALSTYLE
  5
CA
102
{ACAD_XDICTIONARY
360
168
102
}
102
{ACAD_REACTORS
330
C3
102
}
330
C3
100
AcDbVisualStyle
  2
Wireframe
 70
     5
177
     2
291
     0
 71
     0
176
     1
 72
     2
176
     1
 73
     0
176
     1
 90
        0
176
     1
 40
0.6
176
     1
 41
30.0
176
     1
 63
     7
421
 16777215
176
     1
 74
     1
176
     1
 91
        4
176
     1
 64
     7
176
     1
 65
   257
176
     1
 75
     1
176
     1
175
     1
176
     1
 42
1.0
176
     1
 92
        0
176
     1
 66
   257
176
     1
 43
1.0
176
     1
 76
     1
176
     1
 77
     6
176
     1
 78
     2
176
     1
 67
     7
176
     1
 79
     3
176
     1
170
     0
176
     1
171
     0
176
     1
290
     0
176
     1
 93
        1
176
     1
 44
0.0
176
     1
173
     0
176
     1
1001
ACAD
1000
AcDbSavedByObjectVersion
1070
     0
  0
VISUALSTYLE
  5
D6
102
{ACAD_XDICTIONARY
360
180
102
}
102
{ACAD_REACTORS
330
C3
102
}
330
C3
100
AcDbVisualStyle
  2
X-Ray
 70
    25
177
     2
291
     0
 71
     2
176
     1
 72
     2
176
     1
 73
     1
176
     1
 90
        1
176
     1
 40
0.5
176
     1
 41
30.0
176
     1
 63
     7
421
 16777215
176
     1
 74
     1
176
     1
 91
        0
176
     1
 64
     7
176
     1
 65
   257
176
     1
 75
     1
176
     1
175
     1
176
     1
 42
1.0
176
     1
 92
        8
176
     1
 66
     7
176
     1
 43
1.0
176
     1
 76
     1
176
     1
 77
     6
176
     1
 78
     2
176
     1
 67
     7
176
     1
 79
     3
176
     1
170
     0
176
     1
171
     0
176
     1
290
     0
176
     1
 93
       13
176
     1
 44
0.0
176
     1
173
     0
176
     1
1001
ACAD
1000
AcDbSavedByObjectVersion
1070
     0
  0
DICTIONARYVAR
  5
155
102
{ACAD_REACTORS
330
14F
102
}
330
14F
100
DictionaryVariables
280
     0
  1
1:1
  0
DICTIONARYVAR
  5
151
102
{ACAD_REACTORS
330
14F
102
}
330
14F
100
DictionaryVariables
280
     0
  1
STANDARD
  0
DICTIONARYVAR
  5
150
102
{ACAD_REACTORS
330
14F
102
}
330
14F
100
DictionaryVariables
280
     0
  1
STANDARD
  0
DICTIONARYVAR
  5
152
102
{ACAD_REACTORS
330
14F
102
}
330
14F
100
DictionaryVariables
280
     0
  1
Imperial24
  0
DICTIONARYVAR
  5
153
102
{ACAD_REACTORS
330
14F
102
}
330
14F
100
DictionaryVariables
280
     0
  1
Imperial24
  0
DICTIONARYVAR
  5
157
102
{ACAD_REACTORS
330
14F
102
}
330
14F
100
DictionaryVariables
280
     0
  1
1
  0
DICTIONARYVAR
  5
158
102
{ACAD_REACTORS
330
14F
102
}
330
14F
100
DictionaryVariables
280
     0
  1
15
  0
DICTIONARYVAR
  5
156
102
{ACAD_REACTORS
330
14F
102
}
330
14F
100
DictionaryVariables
280
     0
  1
0
  0
DICTIONARYVAR
  5
154
102
{ACAD_REACTORS
330
14F
102
}
330
14F
100
DictionaryVariables
280
     0
  1
0
  0
DICTIONARY
  5
190
330
F6
100
AcDbDictionary
280
     1
281
     1
  3
ACAD_XREC_ROUNDTRIP
360
191
  0
DICTIONARY
  5
B4
330
B3
100
AcDbDictionary
280
     1
281
     1
  3
BUMPTILE
360
B6
  3
DIFFUSETILE
360
B5
  3
OPACITYTILE
360
B9
  3
REFLECTIONTILE
360
B8
  3
REFRACTIONTILE
360
BA
  3
SPECULARTILE
360
B7
  0
DICTIONARY
  5
AC
330
AB
100
AcDbDictionary
280
     1
281
     1
  3
BUMPTILE
360
AE
  3
DIFFUSETILE
360
AD
  3
OPACITYTILE
360
B1
  3
REFLECTIONTILE
360
B0
  3
REFRACTIONTILE
360
B2
  3
SPECULARTILE
360
AF
  0
DICTIONARY
  5
BC
330
BB
100
AcDbDictionary
280
     1
281
     1
  3
BUMPTILE
360
BE
  3
DIFFUSETILE
360
BD
  3
OPACITYTILE
360
C1
  3
REFLECTIONTILE
360
C0
  3
REFRACTIONTILE
360
C2
  3
SPECULARTILE
360
BF
  0
DICTIONARY
  5
18C
330
F2
100
AcDbDictionary
280
     1
281
     1
  3
ACAD_XREC_ROUNDTRIP
360
18D
  0
DICTIONARY
  5
18E
330
F4
100
AcDbDictionary
280
     1
281
     1
  3
ACAD_XREC_ROUNDTRIP
360
18F
  0
DICTIONARY
  5
159
330
DE
100
AcDbDictionary
280
     1
281
     1
  3
ACAD_ROUNDTRIP_2008_TABLESTYLE_CELLSTYLEMAP
360
15A
  0
DICTIONARY
  5
166
330
C9
100
AcDbDictionary
280
     1
281
     1
  3
ACAD_XREC_ROUNDTRIP
360
167
  0
DICTIONARY
  5
164
330
C8
100
AcDbDictionary
280
     1
281
     1
  3
ACAD_XREC_ROUNDTRIP
360
165
  0
DICTIONARY
  5
172
330
CF
100
AcDbDictionary
280
     1
281
     1
  3
ACAD_XREC_ROUNDTRIP
360
173
  0
DICTIONARY
  5
17A
330
D3
100
AcDbDictionary
280
     1
281
     1
  3
ACAD_XREC_ROUNDTRIP
360
17B
  0
DICTIONARY
  5
16C
330
CC
100
AcDbDictionary
280
     1
281
     1
  3
ACAD_XREC_ROUNDTRIP
360
16D
  0
DICTIONARY
  5
170
330
CE
100
AcDbDictionary
280
     1
281
     1
  3
ACAD_XREC_ROUNDTRIP
360
171
  0
DICTIONARY
  5
18A
330
DB
100
AcDbDictionary
280
     1
281
     1
  3
ACAD_XREC_ROUNDTRIP
360
18B
  0
DICTIONARY
  5
178
330
D2
100
AcDbDictionary
280
     1
281
     1
  3
ACAD_XREC_ROUNDTRIP
360
179
  0
DICTIONARY
  5
15C
330
C4
100
AcDbDictionary
280
     1
281
     1
  3
ACAD_XREC_ROUNDTRIP
360
15D
  0
DICTIONARY
  5
15E
330
C5
100
AcDbDictionary
280
     1
281
     1
  3
ACAD_XREC_ROUNDTRIP
360
15F
  0
DICTIONARY
  5
160
330
C6
100
AcDbDictionary
280
     1
281
     1
  3
ACAD_XREC_ROUNDTRIP
360
161
  0
DICTIONARY
  5
162
330
C7
100
AcDbDictionary
280
     1
281
     1
  3
ACAD_XREC_ROUNDTRIP
360
163
  0
DICTIONARY
  5
16A
330
CB
100
AcDbDictionary
280
     1
281
     1
  3
ACAD_XREC_ROUNDTRIP
360
16B
  0
DICTIONARY
  5
186
330
D9
100
AcDbDictionary
280
     1
281
     1
  3
ACAD_XREC_ROUNDTRIP
360
187
  0
DICTIONARY
  5
176
330
D1
100
AcDbDictionary
280
     1
281
     1
  3
ACAD_XREC_ROUNDTRIP
360
177
  0
DICTIONARY
  5
188
330
DA
100
AcDbDictionary
280
     1
281
     1
  3
ACAD_XREC_ROUNDTRIP
360
189
  0
DICTIONARY
  5
16E
330
CD
100
AcDbDictionary
280
     1
281
     1
  3
ACAD_XREC_ROUNDTRIP
360
16F
  0
DICTIONARY
  5
184
330
D8
100
AcDbDictionary
280
     1
281
     1
  3
ACAD_XREC_ROUNDTRIP
360
185
  0
DICTIONARY
  5
182
330
D7
100
AcDbDictionary
280
     1
281
     1
  3
ACAD_XREC_ROUNDTRIP
360
183
  0
DICTIONARY
  5
17C
330
D4
100
AcDbDictionary
280
     1
281
     1
  3
ACAD_XREC_ROUNDTRIP
360
17D
  0
DICTIONARY
  5
17E
330
D5
100
AcDbDictionary
280
     1
281
     1
  3
ACAD_XREC_ROUNDTRIP
360
17F
  0
DICTIONARY
  5
174
330
D0
100
AcDbDictionary
280
     1
281
     1
  3
ACAD_XREC_ROUNDTRIP
360
175
  0
DICTIONARY
  5
168
330
CA
100
AcDbDictionary
280
     1
281
     1
  3
ACAD_XREC_ROUNDTRIP
360
169
  0
DICTIONARY
  5
180
330
D6
100
AcDbDictionary
280
     1
281
     1
  3
ACAD_XREC_ROUNDTRIP
360
181
  0
XRECORD
  5
191
102
{ACAD_REACTORS
330
190
102
}
330
190
100
AcDbXrecord
280
     1
102
DISPLAYNAME
  1
Imperial24
102
FLAGS
 90
        0
  0
XRECORD
  5
B6
102
{ACAD_REACTORS
330
B4
102
}
330
B4
100
AcDbXrecord
280
     1
270
     1
271
     1
  0
XRECORD
  5
B5
102
{ACAD_REACTORS
330
B4
102
}
330
B4
100
AcDbXrecord
280
     1
270
     1
271
     1
  0
XRECORD
  5
B9
102
{ACAD_REACTORS
330
B4
102
}
330
B4
100
AcDbXrecord
280
     1
270
     1
271
     1
  0
XRECORD
  5
B8
102
{ACAD_REACTORS
330
B4
102
}
330
B4
100
AcDbXrecord
280
     1
270
     1
271
     1
  0
XRECORD
  5
BA
102
{ACAD_REACTORS
330
B4
102
}
330
B4
100
AcDbXrecord
280
     1
270
     1
271
     1
  0
XRECORD
  5
B7
102
{ACAD_REACTORS
330
B4
102
}
330
B4
100
AcDbXrecord
280
     1
270
     1
271
     1
  0
XRECORD
  5
AE
102
{ACAD_REACTORS
330
AC
102
}
330
AC
100
AcDbXrecord
280
     1
270
     1
271
     1
  0
XRECORD
  5
AD
102
{ACAD_REACTORS
330
AC
102
}
330
AC
100
AcDbXrecord
280
     1
270
     1
271
     1
  0
XRECORD
  5
B1
102
{ACAD_REACTORS
330
AC
102
}
330
AC
100
AcDbXrecord
280
     1
270
     1
271
     1
  0
XRECORD
  5
B0
102
{ACAD_REACTORS
330
AC
102
}
330
AC
100
AcDbXrecord
280
     1
270
     1
271
     1
  0
XRECORD
  5
B2
102
{ACAD_REACTORS
330
AC
102
}
330
AC
100
AcDbXrecord
280
     1
270
     1
271
     1
  0
XRECORD
  5
AF
102
{ACAD_REACTORS
330
AC
102
}
330
AC
100
AcDbXrecord
280
     1
270
     1
271
     1
  0
XRECORD
  5
BE
102
{ACAD_REACTORS
330
BC
102
}
330
BC
100
AcDbXrecord
280
     1
270
     1
271
     1
  0
XRECORD
  5
BD
102
{ACAD_REACTORS
330
BC
102
}
330
BC
100
AcDbXrecord
280
     1
270
     1
271
     1
  0
XRECORD
  5
C1
102
{ACAD_REACTORS
330
BC
102
}
330
BC
100
AcDbXrecord
280
     1
270
     1
271
     1
  0
XRECORD
  5
C0
102
{ACAD_REACTORS
330
BC
102
}
330
BC
100
AcDbXrecord
280
     1
270
     1
271
     1
  0
XRECORD
  5
C2
102
{ACAD_REACTORS
330
BC
102
}
330
BC
100
AcDbXrecord
280
     1
270
     1
271
     1
  0
XRECORD
  5
BF
102
{ACAD_REACTORS
330
BC
102
}
330
BC
100
AcDbXrecord
280
     1
270
     1
271
     1
  0
XRECORD
  5
18D
102
{ACAD_REACTORS
330
18C
102
}
330
18C
100
AcDbXrecord
280
     1
102
ACAD_ROUNDTRIP_2012_MLEADER_STYLE
298
     1
  0
XRECORD
  5
18F
102
{ACAD_REACTORS
330
18E
102
}
330
18E
100
AcDbXrecord
280
     1
102
DISPLAYNAME
  1
Imperial24
102
FLAGS
 90
        0
  0
CELLSTYLEMAP
  5
15A
102
{ACAD_REACTORS
330
159
102
}
330
159
100
AcDbCellStyleMap
 90
        3
300
CELLSTYLE
  1
TABLEFORMAT_BEGIN
 90
        5
170
     1
 91
        0
 92
    32768
 62
   257
 93
        1
300
CONTENTFORMAT
  1
CONTENTFORMAT_BEGIN
 90
        0
 91
        0
 92
      512
 93
        0
300

 40
0.0
140
1.0
 94
        5
 62
     0
340
11
144
0.25
309
CONTENTFORMAT_END
171
     0
 94
        0
309
TABLEFORMAT_END
  1
CELLSTYLE_BEGIN
 90
        1
 91
        1
300
_TITLE
309
CELLSTYLE_END
300
CELLSTYLE
  1
TABLEFORMAT_BEGIN
 90
        5
170
     1
 91
        0
 92
        0
 62
   257
 93
        1
300
CONTENTFORMAT
  1
CONTENTFORMAT_BEGIN
 90
        0
 91
        0
 92
      512
 93
        0
300

 40
0.0
140
1.0
 94
        5
 62
     0
340
11
144
0.18
309
CONTENTFORMAT_END
171
     0
 94
        0
309
TABLEFORMAT_END
  1
CELLSTYLE_BEGIN
 90
        2
 91
        1
300
_HEADER
309
CELLSTYLE_END
300
CELLSTYLE
  1
TABLEFORMAT_BEGIN
 90
        5
170
     1
 91
        0
 92
        0
 62
   257
 93
        1
300
CONTENTFORMAT
  1
CONTENTFORMAT_BEGIN
 90
        0
 91
        0
 92
      512
 93
        0
300

 40
0.0
140
1.0
 94
        2
 62
     0
340
11
144
0.18
309
CONTENTFORMAT_END
171
     0
 94
        0
309
TABLEFORMAT_END
  1
CELLSTYLE_BEGIN
 90
        3
 91
        2
300
_DATA
309
CELLSTYLE_END
  0
XRECORD
  5
167
102
{ACAD_REACTORS
330
166
102
}
330
166
100
AcDbXrecord
280
     1
102
RTVSPost2010Prop28
280
     1
102
RTVSPost2010PropOp28
 70
     1
102
RTVSPost2010Prop29
280
     1
102
RTVSPost2010PropOp29
 70
     1
102
RTVSPost2010Prop30
280
     0
102
RTVSPost2010PropOp30
 70
     1
102
RTVSPost2010Prop31
280
     0
102
RTVSPost2010PropOp31
 70
     1
102
RTVSPost2010Prop32
280
     0
102
RTVSPost2010PropOp32
 70
     1
102
RTVSPost2010Prop33
280
     0
102
RTVSPost2010PropOp33
 70
     1
102
RTVSPost2010Prop34
280
     0
102
RTVSPost2010PropOp34
 70
     1
102
RTVSPost2010Prop35
280
     0
102
RTVSPost2010PropOp35
 70
     1
102
RTVSPost2010Prop36
280
     0
102
RTVSPost2010PropOp36
 70
     1
102
RTVSPost2010Prop37
 90
       50
102
RTVSPost2010PropOp37
 70
     1
102
RTVSPost2010Prop38
140
0.0
102
RTVSPost2010PropOp38
 70
     1
102
RTVSPost2010Prop39
140
1.0
102
RTVSPost2010PropOp39
 70
     1
102
RTVSPost2010Prop40
 90
        0
102
RTVSPost2010PropOp40
 70
     1
102
RTVSPost2010Prop41ColorIndex
 90
       18
102
RTVSPost2010Prop41ColorRGB
 90
        0
102
RTVSPost2010PropOp41
 70
     1
102
RTVSPost2010Prop42
 90
       50
102
RTVSPost2010PropOp42
 70
     1
102
RTVSPost2010Prop43
 90
        3
102
RTVSPost2010PropOp43
 70
     1
102
RTVSPost2010Prop44ColorIndex
 90
        5
102
RTVSPost2010Prop44ColorRGB
 90
      255
102
RTVSPost2010PropOp44
 70
     1
102
RTVSPost2010Prop45
280
     0
102
RTVSPost2010PropOp45
 70
     1
102
RTVSPost2010Prop46
 90
       50
102
RTVSPost2010PropOp46
 70
     1
102
RTVSPost2010Prop47
 90
       50
102
RTVSPost2010PropOp47
 70
     1
102
RTVSPost2010Prop48
 90
       50
102
RTVSPost2010PropOp48
 70
     1
102
RTVSPost2010Prop49
280
     0
102
RTVSPost2010PropOp49
 70
     1
102
RTVSPost2010Prop50
 90
       50
102
RTVSPost2010PropOp50
 70
     1
102
RTVSPost2010Prop51ColorIndex
 90
      256
102
RTVSPost2010Prop51ColorRGB
 90
-16777216
102
RTVSPost2010PropOp51
 70
     0
102
RTVSPost2010Prop52
140
1.0
102
RTVSPost2010PropOp52
 70
     0
102
RTVSPost2010Prop53
 90
        2
102
RTVSPost2010PropOp53
 70
     1
102
RTVSPost2010Prop54
  1
strokes_ogs.tif
102
RTVSPost2010PropOp54
 70
     1
102
RTVSPost2010Prop55
280
     0
102
RTVSPost2010PropOp55
 70
     1
102
RTVSPost2010Prop56
140
1.0
102
RTVSPost2010PropOp56
 70
     1
102
RTVSPost2010Prop57
140
1.0
102
RTVSPost2010PropOp57
 70
     1
  0
XRECORD
  5
165
102
{ACAD_REACTORS
330
164
102
}
330
164
100
AcDbXrecord
280
     1
102
RTVSPost2010Prop28
280
     0
102
RTVSPost2010PropOp28
 70
     1
102
RTVSPost2010Prop29
280
     1
102
RTVSPost2010PropOp29
 70
     1
102
RTVSPost2010Prop30
280
     1
102
RTVSPost2010PropOp30
 70
     1
102
RTVSPost2010Prop31
280
     0
102
RTVSPost2010PropOp31
 70
     1
102
RTVSPost2010Prop32
280
     0
102
RTVSPost2010PropOp32
 70
     1
102
RTVSPost2010Prop33
280
     0
102
RTVSPost2010PropOp33
 70
     1
102
RTVSPost2010Prop34
280
     0
102
RTVSPost2010PropOp34
 70
     1
102
RTVSPost2010Prop35
280
     0
102
RTVSPost2010PropOp35
 70
     1
102
RTVSPost2010Prop36
280
     0
102
RTVSPost2010PropOp36
 70
     1
102
RTVSPost2010Prop37
 90
       50
102
RTVSPost2010PropOp37
 70
     1
102
RTVSPost2010Prop38
140
0.0
102
RTVSPost2010PropOp38
 70
     1
102
RTVSPost2010Prop39
140
1.0
102
RTVSPost2010PropOp39
 70
     1
102
RTVSPost2010Prop40
 90
        0
102
RTVSPost2010PropOp40
 70
     1
102
RTVSPost2010Prop41ColorIndex
 90
       18
102
RTVSPost2010Prop41ColorRGB
 90
        0
102
RTVSPost2010PropOp41
 70
     1
102
RTVSPost2010Prop42
 90
       50
102
RTVSPost2010PropOp42
 70
     1
102
RTVSPost2010Prop43
 90
        3
102
RTVSPost2010PropOp43
 70
     1
102
RTVSPost2010Prop44ColorIndex
 90
        5
102
RTVSPost2010Prop44ColorRGB
 90
      255
102
RTVSPost2010PropOp44
 70
     1
102
RTVSPost2010Prop45
280
     0
102
RTVSPost2010PropOp45
 70
     1
102
RTVSPost2010Prop46
 90
       50
102
RTVSPost2010PropOp46
 70
     1
102
RTVSPost2010Prop47
 90
       50
102
RTVSPost2010PropOp47
 70
     1
102
RTVSPost2010Prop48
 90
       50
102
RTVSPost2010PropOp48
 70
     1
102
RTVSPost2010Prop49
280
     0
102
RTVSPost2010PropOp49
 70
     1
102
RTVSPost2010Prop50
 90
       50
102
RTVSPost2010PropOp50
 70
     1
102
RTVSPost2010Prop51ColorIndex
 90
      256
102
RTVSPost2010Prop51ColorRGB
 90
-16777216
102
RTVSPost2010PropOp51
 70
     0
102
RTVSPost2010Prop52
140
1.0
102
RTVSPost2010PropOp52
 70
     0
102
RTVSPost2010Prop53
 90
        2
102
RTVSPost2010PropOp53
 70
     1
102
RTVSPost2010Prop54
  1
strokes_ogs.tif
102
RTVSPost2010PropOp54
 70
     1
102
RTVSPost2010Prop55
280
     0
102
RTVSPost2010PropOp55
 70
     1
102
RTVSPost2010Prop56
140
1.0
102
RTVSPost2010PropOp56
 70
     1
102
RTVSPost2010Prop57
140
1.0
102
RTVSPost2010PropOp57
 70
     1
  0
XRECORD
  5
173
102
{ACAD_REACTORS
330
172
102
}
330
172
100
AcDbXrecord
280
     1
102
RTVSPost2010Prop28
280
     0
102
RTVSPost2010PropOp28
 70
     1
102
RTVSPost2010Prop29
280
     1
102
RTVSPost2010PropOp29
 70
     1
102
RTVSPost2010Prop30
280
     1
102
RTVSPost2010PropOp30
 70
     1
102
RTVSPost2010Prop31
280
     0
102
RTVSPost2010PropOp31
 70
     1
102
RTVSPost2010Prop32
280
     0
102
RTVSPost2010PropOp32
 70
     1
102
RTVSPost2010Prop33
280
     0
102
RTVSPost2010PropOp33
 70
     1
102
RTVSPost2010Prop34
280
     0
102
RTVSPost2010PropOp34
 70
     1
102
RTVSPost2010Prop35
280
     0
102
RTVSPost2010PropOp35
 70
     1
102
RTVSPost2010Prop36
280
     0
102
RTVSPost2010PropOp36
 70
     1
102
RTVSPost2010Prop37
 90
       50
102
RTVSPost2010PropOp37
 70
     1
102
RTVSPost2010Prop38
140
0.0
102
RTVSPost2010PropOp38
 70
     1
102
RTVSPost2010Prop39
140
1.0
102
RTVSPost2010PropOp39
 70
     1
102
RTVSPost2010Prop40
 90
        0
102
RTVSPost2010PropOp40
 70
     1
102
RTVSPost2010Prop41ColorIndex
 90
       18
102
RTVSPost2010Prop41ColorRGB
 90
        0
102
RTVSPost2010PropOp41
 70
     1
102
RTVSPost2010Prop42
 90
       50
102
RTVSPost2010PropOp42
 70
     1
102
RTVSPost2010Prop43
 90
        3
102
RTVSPost2010PropOp43
 70
     1
102
RTVSPost2010Prop44ColorIndex
 90
        5
102
RTVSPost2010Prop44ColorRGB
 90
      255
102
RTVSPost2010PropOp44
 70
     1
102
RTVSPost2010Prop45
280
     0
102
RTVSPost2010PropOp45
 70
     1
102
RTVSPost2010Prop46
 90
       50
102
RTVSPost2010PropOp46
 70
     1
102
RTVSPost2010Prop47
 90
       50
102
RTVSPost2010PropOp47
 70
     1
102
RTVSPost2010Prop48
 90
       50
102
RTVSPost2010PropOp48
 70
     1
102
RTVSPost2010Prop49
280
     0
102
RTVSPost2010PropOp49
 70
     1
102
RTVSPost2010Prop50
 90
       50
102
RTVSPost2010PropOp50
 70
     1
102
RTVSPost2010Prop51ColorIndex
 90
      256
102
RTVSPost2010Prop51ColorRGB
 90
-16777216
102
RTVSPost2010PropOp51
 70
     0
102
RTVSPost2010Prop52
140
1.0
102
RTVSPost2010PropOp52
 70
     0
102
RTVSPost2010Prop53
 90
        2
102
RTVSPost2010PropOp53
 70
     1
102
RTVSPost2010Prop54
  1
strokes_ogs.tif
102
RTVSPost2010PropOp54
 70
     1
102
RTVSPost2010Prop55
280
     0
102
RTVSPost2010PropOp55
 70
     1
102
RTVSPost2010Prop56
140
1.0
102
RTVSPost2010PropOp56
 70
     1
102
RTVSPost2010Prop57
140
1.0
102
RTVSPost2010PropOp57
 70
     1
  0
XRECORD
  5
17B
102
{ACAD_REACTORS
330
17A
102
}
330
17A
100
AcDbXrecord
280
     1
102
RTVSPost2010Prop28
280
     0
102
RTVSPost2010PropOp28
 70
     1
102
RTVSPost2010Prop29
280
     1
102
RTVSPost2010PropOp29
 70
     1
102
RTVSPost2010Prop30
280
     1
102
RTVSPost2010PropOp30
 70
     1
102
RTVSPost2010Prop31
280
     0
102
RTVSPost2010PropOp31
 70
     1
102
RTVSPost2010Prop32
280
     0
102
RTVSPost2010PropOp32
 70
     1
102
RTVSPost2010Prop33
280
     0
102
RTVSPost2010PropOp33
 70
     1
102
RTVSPost2010Prop34
280
     0
102
RTVSPost2010PropOp34
 70
     1
102
RTVSPost2010Prop35
280
     0
102
RTVSPost2010PropOp35
 70
     1
102
RTVSPost2010Prop36
280
     0
102
RTVSPost2010PropOp36
 70
     1
102
RTVSPost2010Prop37
 90
       50
102
RTVSPost2010PropOp37
 70
     1
102
RTVSPost2010Prop38
140
0.0
102
RTVSPost2010PropOp38
 70
     1
102
RTVSPost2010Prop39
140
1.0
102
RTVSPost2010PropOp39
 70
     1
102
RTVSPost2010Prop40
 90
        0
102
RTVSPost2010PropOp40
 70
     1
102
RTVSPost2010Prop41ColorIndex
 90
       18
102
RTVSPost2010Prop41ColorRGB
 90
        0
102
RTVSPost2010PropOp41
 70
     1
102
RTVSPost2010Prop42
 90
       50
102
RTVSPost2010PropOp42
 70
     1
102
RTVSPost2010Prop43
 90
        3
102
RTVSPost2010PropOp43
 70
     1
102
RTVSPost2010Prop44ColorIndex
 90
        5
102
RTVSPost2010Prop44ColorRGB
 90
      255
102
RTVSPost2010PropOp44
 70
     1
102
RTVSPost2010Prop45
280
     0
102
RTVSPost2010PropOp45
 70
     1
102
RTVSPost2010Prop46
 90
       50
102
RTVSPost2010PropOp46
 70
     1
102
RTVSPost2010Prop47
 90
       50
102
RTVSPost2010PropOp47
 70
     1
102
RTVSPost2010Prop48
 90
       50
102
RTVSPost2010PropOp48
 70
     1
102
RTVSPost2010Prop49
280
     0
102
RTVSPost2010PropOp49
 70
     1
102
RTVSPost2010Prop50
 90
       50
102
RTVSPost2010PropOp50
 70
     1
102
RTVSPost2010Prop51ColorIndex
 90
      256
102
RTVSPost2010Prop51ColorRGB
 90
-16777216
102
RTVSPost2010PropOp51
 70
     0
102
RTVSPost2010Prop52
140
1.0
102
RTVSPost2010PropOp52
 70
     0
102
RTVSPost2010Prop53
 90
        2
102
RTVSPost2010PropOp53
 70
     1
102
RTVSPost2010Prop54
  1
strokes_ogs.tif
102
RTVSPost2010PropOp54
 70
     1
102
RTVSPost2010Prop55
280
     0
102
RTVSPost2010PropOp55
 70
     1
102
RTVSPost2010Prop56
140
1.0
102
RTVSPost2010PropOp56
 70
     1
102
RTVSPost2010Prop57
140
1.0
102
RTVSPost2010PropOp57
 70
     1
  0
XRECORD
  5
16D
102
{ACAD_REACTORS
330
16C
102
}
330
16C
100
AcDbXrecord
280
     1
102
RTVSPost2010Prop28
280
     0
102
RTVSPost2010PropOp28
 70
     1
102
RTVSPost2010Prop29
280
     1
102
RTVSPost2010PropOp29
 70
     1
102
RTVSPost2010Prop30
280
     1
102
RTVSPost2010PropOp30
 70
     1
102
RTVSPost2010Prop31
280
     0
102
RTVSPost2010PropOp31
 70
     1
102
RTVSPost2010Prop32
280
     0
102
RTVSPost2010PropOp32
 70
     1
102
RTVSPost2010Prop33
280
     0
102
RTVSPost2010PropOp33
 70
     1
102
RTVSPost2010Prop34
280
     0
102
RTVSPost2010PropOp34
 70
     1
102
RTVSPost2010Prop35
280
     0
102
RTVSPost2010PropOp35
 70
     1
102
RTVSPost2010Prop36
280
     0
102
RTVSPost2010PropOp36
 70
     1
102
RTVSPost2010Prop37
 90
       50
102
RTVSPost2010PropOp37
 70
     1
102
RTVSPost2010Prop38
140
0.0
102
RTVSPost2010PropOp38
 70
     1
102
RTVSPost2010Prop39
140
1.0
102
RTVSPost2010PropOp39
 70
     1
102
RTVSPost2010Prop40
 90
        0
102
RTVSPost2010PropOp40
 70
     1
102
RTVSPost2010Prop41ColorIndex
 90
       18
102
RTVSPost2010Prop41ColorRGB
 90
        0
102
RTVSPost2010PropOp41
 70
     1
102
RTVSPost2010Prop42
 90
       50
102
RTVSPost2010PropOp42
 70
     1
102
RTVSPost2010Prop43
 90
        3
102
RTVSPost2010PropOp43
 70
     1
102
RTVSPost2010Prop44ColorIndex
 90
        5
102
RTVSPost2010Prop44ColorRGB
 90
      255
102
RTVSPost2010PropOp44
 70
     1
102
RTVSPost2010Prop45
280
     0
102
RTVSPost2010PropOp45
 70
     1
102
RTVSPost2010Prop46
 90
       50
102
RTVSPost2010PropOp46
 70
     1
102
RTVSPost2010Prop47
 90
       50
102
RTVSPost2010PropOp47
 70
     1
102
RTVSPost2010Prop48
 90
       50
102
RTVSPost2010PropOp48
 70
     1
102
RTVSPost2010Prop49
280
     0
102
RTVSPost2010PropOp49
 70
     1
102
RTVSPost2010Prop50
 90
       50
102
RTVSPost2010PropOp50
 70
     1
102
RTVSPost2010Prop51ColorIndex
 90
      256
102
RTVSPost2010Prop51ColorRGB
 90
-16777216
102
RTVSPost2010PropOp51
 70
     0
102
RTVSPost2010Prop52
140
1.0
102
RTVSPost2010PropOp52
 70
     0
102
RTVSPost2010Prop53
 90
        2
102
RTVSPost2010PropOp53
 70
     1
102
RTVSPost2010Prop54
  1
strokes_ogs.tif
102
RTVSPost2010PropOp54
 70
     1
102
RTVSPost2010Prop55
280
     0
102
RTVSPost2010PropOp55
 70
     1
102
RTVSPost2010Prop56
140
1.0
102
RTVSPost2010PropOp56
 70
     1
102
RTVSPost2010Prop57
140
1.0
102
RTVSPost2010PropOp57
 70
     1
  0
XRECORD
  5
171
102
{ACAD_REACTORS
330
170
102
}
330
170
100
AcDbXrecord
280
     1
102
RTVSPost2010Prop28
280
     0
102
RTVSPost2010PropOp28
 70
     1
102
RTVSPost2010Prop29
280
     1
102
RTVSPost2010PropOp29
 70
     1
102
RTVSPost2010Prop30
280
     1
102
RTVSPost2010PropOp30
 70
     1
102
RTVSPost2010Prop31
280
     0
102
RTVSPost2010PropOp31
 70
     1
102
RTVSPost2010Prop32
280
     0
102
RTVSPost2010PropOp32
 70
     1
102
RTVSPost2010Prop33
280
     0
102
RTVSPost2010PropOp33
 70
     1
102
RTVSPost2010Prop34
280
     0
102
RTVSPost2010PropOp34
 70
     1
102
RTVSPost2010Prop35
280
     0
102
RTVSPost2010PropOp35
 70
     1
102
RTVSPost2010Prop36
280
     0
102
RTVSPost2010PropOp36
 70
     1
102
RTVSPost2010Prop37
 90
       50
102
RTVSPost2010PropOp37
 70
     1
102
RTVSPost2010Prop38
140
0.0
102
RTVSPost2010PropOp38
 70
     1
102
RTVSPost2010Prop39
140
1.0
102
RTVSPost2010PropOp39
 70
     1
102
RTVSPost2010Prop40
 90
        0
102
RTVSPost2010PropOp40
 70
     1
102
RTVSPost2010Prop41ColorIndex
 90
       18
102
RTVSPost2010Prop41ColorRGB
 90
        0
102
RTVSPost2010PropOp41
 70
     1
102
RTVSPost2010Prop42
 90
       50
102
RTVSPost2010PropOp42
 70
     1
102
RTVSPost2010Prop43
 90
        3
102
RTVSPost2010PropOp43
 70
     1
102
RTVSPost2010Prop44ColorIndex
 90
        5
102
RTVSPost2010Prop44ColorRGB
 90
      255
102
RTVSPost2010PropOp44
 70
     1
102
RTVSPost2010Prop45
280
     0
102
RTVSPost2010PropOp45
 70
     1
102
RTVSPost2010Prop46
 90
       50
102
RTVSPost2010PropOp46
 70
     1
102
RTVSPost2010Prop47
 90
       50
102
RTVSPost2010PropOp47
 70
     1
102
RTVSPost2010Prop48
 90
       50
102
RTVSPost2010PropOp48
 70
     1
102
RTVSPost2010Prop49
280
     0
102
RTVSPost2010PropOp49
 70
     1
102
RTVSPost2010Prop50
 90
       50
102
RTVSPost2010PropOp50
 70
     1
102
RTVSPost2010Prop51ColorIndex
 90
      256
102
RTVSPost2010Prop51ColorRGB
 90
-16777216
102
RTVSPost2010PropOp51
 70
     0
102
RTVSPost2010Prop52
140
1.0
102
RTVSPost2010PropOp52
 70
     0
102
RTVSPost2010Prop53
 90
        2
102
RTVSPost2010PropOp53
 70
     1
102
RTVSPost2010Prop54
  1
strokes_ogs.tif
102
RTVSPost2010PropOp54
 70
     1
102
RTVSPost2010Prop55
280
     0
102
RTVSPost2010PropOp55
 70
     1
102
RTVSPost2010Prop56
140
1.0
102
RTVSPost2010PropOp56
 70
     1
102
RTVSPost2010Prop57
140
1.0
102
RTVSPost2010PropOp57
 70
     1
  0
XRECORD
  5
18B
102
{ACAD_REACTORS
330
18A
102
}
330
18A
100
AcDbXrecord
280
     1
102
RTVSPost2010Prop28
280
     0
102
RTVSPost2010PropOp28
 70
     0
102
RTVSPost2010Prop29
280
     1
102
RTVSPost2010PropOp29
 70
     0
102
RTVSPost2010Prop30
280
     1
102
RTVSPost2010PropOp30
 70
     0
102
RTVSPost2010Prop31
280
     0
102
RTVSPost2010PropOp31
 70
     0
102
RTVSPost2010Prop32
280
     0
102
RTVSPost2010PropOp32
 70
     0
102
RTVSPost2010Prop33
280
     0
102
RTVSPost2010PropOp33
 70
     0
102
RTVSPost2010Prop34
280
     0
102
RTVSPost2010PropOp34
 70
     0
102
RTVSPost2010Prop35
280
     0
102
RTVSPost2010PropOp35
 70
     0
102
RTVSPost2010Prop36
280
     0
102
RTVSPost2010PropOp36
 70
     0
102
RTVSPost2010Prop37
 90
       50
102
RTVSPost2010PropOp37
 70
     0
102
RTVSPost2010Prop38
140
0.0
102
RTVSPost2010PropOp38
 70
     0
102
RTVSPost2010Prop39
140
1.0
102
RTVSPost2010PropOp39
 70
     0
102
RTVSPost2010Prop40
 90
        0
102
RTVSPost2010PropOp40
 70
     0
102
RTVSPost2010Prop41ColorIndex
 90
       18
102
RTVSPost2010Prop41ColorRGB
 90
        0
102
RTVSPost2010PropOp41
 70
     0
102
RTVSPost2010Prop42
 90
       50
102
RTVSPost2010PropOp42
 70
     0
102
RTVSPost2010Prop43
 90
        3
102
RTVSPost2010PropOp43
 70
     0
102
RTVSPost2010Prop44ColorIndex
 90
        5
102
RTVSPost2010Prop44ColorRGB
 90
      255
102
RTVSPost2010PropOp44
 70
     0
102
RTVSPost2010Prop45
280
     0
102
RTVSPost2010PropOp45
 70
     0
102
RTVSPost2010Prop46
 90
       50
102
RTVSPost2010PropOp46
 70
     0
102
RTVSPost2010Prop47
 90
       50
102
RTVSPost2010PropOp47
 70
     0
102
RTVSPost2010Prop48
 90
       50
102
RTVSPost2010PropOp48
 70
     0
102
RTVSPost2010Prop49
280
     0
102
RTVSPost2010PropOp49
 70
     0
102
RTVSPost2010Prop50
 90
       50
102
RTVSPost2010PropOp50
 70
     0
102
RTVSPost2010Prop51ColorIndex
 90
      256
102
RTVSPost2010Prop51ColorRGB
 90
-16777216
102
RTVSPost2010PropOp51
 70
     0
102
RTVSPost2010Prop52
140
1.0
102
RTVSPost2010PropOp52
 70
     0
102
RTVSPost2010Prop53
 90
        2
102
RTVSPost2010PropOp53
 70
     0
102
RTVSPost2010Prop54
  1
strokes_ogs.tif
102
RTVSPost2010PropOp54
 70
     0
102
RTVSPost2010Prop55
280
     0
102
RTVSPost2010PropOp55
 70
     0
102
RTVSPost2010Prop56
140
1.0
102
RTVSPost2010PropOp56
 70
     0
102
RTVSPost2010Prop57
140
1.0
102
RTVSPost2010PropOp57
 70
     0
  0
XRECORD
  5
179
102
{ACAD_REACTORS
330
178
102
}
330
178
100
AcDbXrecord
280
     1
102
RTVSPost2010Prop28
280
     0
102
RTVSPost2010PropOp28
 70
     1
102
RTVSPost2010Prop29
280
     1
102
RTVSPost2010PropOp29
 70
     1
102
RTVSPost2010Prop30
280
     1
102
RTVSPost2010PropOp30
 70
     1
102
RTVSPost2010Prop31
280
     0
102
RTVSPost2010PropOp31
 70
     1
102
RTVSPost2010Prop32
280
     0
102
RTVSPost2010PropOp32
 70
     1
102
RTVSPost2010Prop33
280
     0
102
RTVSPost2010PropOp33
 70
     1
102
RTVSPost2010Prop34
280
     0
102
RTVSPost2010PropOp34
 70
     1
102
RTVSPost2010Prop35
280
     0
102
RTVSPost2010PropOp35
 70
     1
102
RTVSPost2010Prop36
280
     0
102
RTVSPost2010PropOp36
 70
     1
102
RTVSPost2010Prop37
 90
       50
102
RTVSPost2010PropOp37
 70
     1
102
RTVSPost2010Prop38
140
0.0
102
RTVSPost2010PropOp38
 70
     1
102
RTVSPost2010Prop39
140
1.0
102
RTVSPost2010PropOp39
 70
     1
102
RTVSPost2010Prop40
 90
        0
102
RTVSPost2010PropOp40
 70
     1
102
RTVSPost2010Prop41ColorIndex
 90
       18
102
RTVSPost2010Prop41ColorRGB
 90
        0
102
RTVSPost2010PropOp41
 70
     1
102
RTVSPost2010Prop42
 90
       50
102
RTVSPost2010PropOp42
 70
     1
102
RTVSPost2010Prop43
 90
        3
102
RTVSPost2010PropOp43
 70
     1
102
RTVSPost2010Prop44ColorIndex
 90
        5
102
RTVSPost2010Prop44ColorRGB
 90
      255
102
RTVSPost2010PropOp44
 70
     1
102
RTVSPost2010Prop45
280
     0
102
RTVSPost2010PropOp45
 70
     1
102
RTVSPost2010Prop46
 90
       50
102
RTVSPost2010PropOp46
 70
     1
102
RTVSPost2010Prop47
 90
       50
102
RTVSPost2010PropOp47
 70
     1
102
RTVSPost2010Prop48
 90
       50
102
RTVSPost2010PropOp48
 70
     1
102
RTVSPost2010Prop49
280
     0
102
RTVSPost2010PropOp49
 70
     1
102
RTVSPost2010Prop50
 90
       50
102
RTVSPost2010PropOp50
 70
     1
102
RTVSPost2010Prop51ColorIndex
 90
      256
102
RTVSPost2010Prop51ColorRGB
 90
-16777216
102
RTVSPost2010PropOp51
 70
     0
102
RTVSPost2010Prop52
140
1.0
102
RTVSPost2010PropOp52
 70
     0
102
RTVSPost2010Prop53
 90
        2
102
RTVSPost2010PropOp53
 70
     1
102
RTVSPost2010Prop54
  1
strokes_ogs.tif
102
RTVSPost2010PropOp54
 70
     1
102
RTVSPost2010Prop55
280
     0
102
RTVSPost2010PropOp55
 70
     1
102
RTVSPost2010Prop56
140
1.0
102
RTVSPost2010PropOp56
 70
     1
102
RTVSPost2010Prop57
140
1.0
102
RTVSPost2010PropOp57
 70
     1
  0
XRECORD
  5
15D
102
{ACAD_REACTORS
330
15C
102
}
330
15C
100
AcDbXrecord
280
     1
102
RTVSPost2010Prop28
280
     0
102
RTVSPost2010PropOp28
 70
     1
102
RTVSPost2010Prop29
280
     1
102
RTVSPost2010PropOp29
 70
     1
102
RTVSPost2010Prop30
280
     1
102
RTVSPost2010PropOp30
 70
     1
102
RTVSPost2010Prop31
280
     0
102
RTVSPost2010PropOp31
 70
     1
102
RTVSPost2010Prop32
280
     0
102
RTVSPost2010PropOp32
 70
     1
102
RTVSPost2010Prop33
280
     0
102
RTVSPost2010PropOp33
 70
     1
102
RTVSPost2010Prop34
280
     0
102
RTVSPost2010PropOp34
 70
     1
102
RTVSPost2010Prop35
280
     0
102
RTVSPost2010PropOp35
 70
     1
102
RTVSPost2010Prop36
280
     0
102
RTVSPost2010PropOp36
 70
     1
102
RTVSPost2010Prop37
 90
       50
102
RTVSPost2010PropOp37
 70
     1
102
RTVSPost2010Prop38
140
0.0
102
RTVSPost2010PropOp38
 70
     1
102
RTVSPost2010Prop39
140
1.0
102
RTVSPost2010PropOp39
 70
     1
102
RTVSPost2010Prop40
 90
        0
102
RTVSPost2010PropOp40
 70
     1
102
RTVSPost2010Prop41ColorIndex
 90
       18
102
RTVSPost2010Prop41ColorRGB
 90
        0
102
RTVSPost2010PropOp41
 70
     1
102
RTVSPost2010Prop42
 90
       50
102
RTVSPost2010PropOp42
 70
     1
102
RTVSPost2010Prop43
 90
        3
102
RTVSPost2010PropOp43
 70
     1
102
RTVSPost2010Prop44ColorIndex
 90
        5
102
RTVSPost2010Prop44ColorRGB
 90
      255
102
RTVSPost2010PropOp44
 70
     1
102
RTVSPost2010Prop45
280
     0
102
RTVSPost2010PropOp45
 70
     1
102
RTVSPost2010Prop46
 90
       50
102
RTVSPost2010PropOp46
 70
     1
102
RTVSPost2010Prop47
 90
       50
102
RTVSPost2010PropOp47
 70
     1
102
RTVSPost2010Prop48
 90
       50
102
RTVSPost2010PropOp48
 70
     1
102
RTVSPost2010Prop49
280
     0
102
RTVSPost2010PropOp49
 70
     1
102
RTVSPost2010Prop50
 90
       50
102
RTVSPost2010PropOp50
 70
     1
102
RTVSPost2010Prop51ColorIndex
 90
      256
102
RTVSPost2010Prop51ColorRGB
 90
-16777216
102
RTVSPost2010PropOp51
 70
     0
102
RTVSPost2010Prop52
140
1.0
102
RTVSPost2010PropOp52
 70
     0
102
RTVSPost2010Prop53
 90
        2
102
RTVSPost2010PropOp53
 70
     1
102
RTVSPost2010Prop54
  1
strokes_ogs.tif
102
RTVSPost2010PropOp54
 70
     1
102
RTVSPost2010Prop55
280
     0
102
RTVSPost2010PropOp55
 70
     1
102
RTVSPost2010Prop56
140
1.0
102
RTVSPost2010PropOp56
 70
     1
102
RTVSPost2010Prop57
140
1.0
102
RTVSPost2010PropOp57
 70
     1
  0
XRECORD
  5
15F
102
{ACAD_REACTORS
330
15E
102
}
330
15E
100
AcDbXrecord
280
     1
102
RTVSPost2010Prop28
280
     0
102
RTVSPost2010PropOp28
 70
     1
102
RTVSPost2010Prop29
280
     1
102
RTVSPost2010PropOp29
 70
     1
102
RTVSPost2010Prop30
280
     1
102
RTVSPost2010PropOp30
 70
     1
102
RTVSPost2010Prop31
280
     0
102
RTVSPost2010PropOp31
 70
     1
102
RTVSPost2010Prop32
280
     0
102
RTVSPost2010PropOp32
 70
     1
102
RTVSPost2010Prop33
280
     0
102
RTVSPost2010PropOp33
 70
     1
102
RTVSPost2010Prop34
280
     0
102
RTVSPost2010PropOp34
 70
     1
102
RTVSPost2010Prop35
280
     0
102
RTVSPost2010PropOp35
 70
     1
102
RTVSPost2010Prop36
280
     0
102
RTVSPost2010PropOp36
 70
     1
102
RTVSPost2010Prop37
 90
       50
102
RTVSPost2010PropOp37
 70
     1
102
RTVSPost2010Prop38
140
0.0
102
RTVSPost2010PropOp38
 70
     1
102
RTVSPost2010Prop39
140
1.0
102
RTVSPost2010PropOp39
 70
     1
102
RTVSPost2010Prop40
 90
        0
102
RTVSPost2010PropOp40
 70
     1
102
RTVSPost2010Prop41ColorIndex
 90
       18
102
RTVSPost2010Prop41ColorRGB
 90
        0
102
RTVSPost2010PropOp41
 70
     1
102
RTVSPost2010Prop42
 90
       50
102
RTVSPost2010PropOp42
 70
     1
102
RTVSPost2010Prop43
 90
        3
102
RTVSPost2010PropOp43
 70
     1
102
RTVSPost2010Prop44ColorIndex
 90
        5
102
RTVSPost2010Prop44ColorRGB
 90
      255
102
RTVSPost2010PropOp44
 70
     1
102
RTVSPost2010Prop45
280
     0
102
RTVSPost2010PropOp45
 70
     1
102
RTVSPost2010Prop46
 90
       50
102
RTVSPost2010PropOp46
 70
     1
102
RTVSPost2010Prop47
 90
       50
102
RTVSPost2010PropOp47
 70
     1
102
RTVSPost2010Prop48
 90
       50
102
RTVSPost2010PropOp48
 70
     1
102
RTVSPost2010Prop49
280
     0
102
RTVSPost2010PropOp49
 70
     1
102
RTVSPost2010Prop50
 90
       50
102
RTVSPost2010PropOp50
 70
     1
102
RTVSPost2010Prop51ColorIndex
 90
      256
102
RTVSPost2010Prop51ColorRGB
 90
-16777216
102
RTVSPost2010PropOp51
 70
     0
102
RTVSPost2010Prop52
140
1.0
102
RTVSPost2010PropOp52
 70
     0
102
RTVSPost2010Prop53
 90
        2
102
RTVSPost2010PropOp53
 70
     1
102
RTVSPost2010Prop54
  1
strokes_ogs.tif
102
RTVSPost2010PropOp54
 70
     1
102
RTVSPost2010Prop55
280
     0
102
RTVSPost2010PropOp55
 70
     1
102
RTVSPost2010Prop56
140
1.0
102
RTVSPost2010PropOp56
 70
     1
102
RTVSPost2010Prop57
140
1.0
102
RTVSPost2010PropOp57
 70
     1
  0
XRECORD
  5
161
102
{ACAD_REACTORS
330
160
102
}
330
160
100
AcDbXrecord
280
     1
102
RTVSPost2010Prop28
280
     0
102
RTVSPost2010PropOp28
 70
     1
102
RTVSPost2010Prop29
280
     1
102
RTVSPost2010PropOp29
 70
     1
102
RTVSPost2010Prop30
280
     1
102
RTVSPost2010PropOp30
 70
     1
102
RTVSPost2010Prop31
280
     0
102
RTVSPost2010PropOp31
 70
     1
102
RTVSPost2010Prop32
280
     0
102
RTVSPost2010PropOp32
 70
     1
102
RTVSPost2010Prop33
280
     0
102
RTVSPost2010PropOp33
 70
     1
102
RTVSPost2010Prop34
280
     0
102
RTVSPost2010PropOp34
 70
     1
102
RTVSPost2010Prop35
280
     0
102
RTVSPost2010PropOp35
 70
     1
102
RTVSPost2010Prop36
280
     0
102
RTVSPost2010PropOp36
 70
     1
102
RTVSPost2010Prop37
 90
       50
102
RTVSPost2010PropOp37
 70
     1
102
RTVSPost2010Prop38
140
0.0
102
RTVSPost2010PropOp38
 70
     1
102
RTVSPost2010Prop39
140
1.0
102
RTVSPost2010PropOp39
 70
     1
102
RTVSPost2010Prop40
 90
        0
102
RTVSPost2010PropOp40
 70
     1
102
RTVSPost2010Prop41ColorIndex
 90
       18
102
RTVSPost2010Prop41ColorRGB
 90
        0
102
RTVSPost2010PropOp41
 70
     1
102
RTVSPost2010Prop42
 90
       50
102
RTVSPost2010PropOp42
 70
     1
102
RTVSPost2010Prop43
 90
        3
102
RTVSPost2010PropOp43
 70
     1
102
RTVSPost2010Prop44ColorIndex
 90
        5
102
RTVSPost2010Prop44ColorRGB
 90
      255
102
RTVSPost2010PropOp44
 70
     1
102
RTVSPost2010Prop45
280
     0
102
RTVSPost2010PropOp45
 70
     1
102
RTVSPost2010Prop46
 90
       50
102
RTVSPost2010PropOp46
 70
     1
102
RTVSPost2010Prop47
 90
       50
102
RTVSPost2010PropOp47
 70
     1
102
RTVSPost2010Prop48
 90
       50
102
RTVSPost2010PropOp48
 70
     1
102
RTVSPost2010Prop49
280
     0
102
RTVSPost2010PropOp49
 70
     1
102
RTVSPost2010Prop50
 90
       50
102
RTVSPost2010PropOp50
 70
     1
102
RTVSPost2010Prop51ColorIndex
 90
      256
102
RTVSPost2010Prop51ColorRGB
 90
-16777216
102
RTVSPost2010PropOp51
 70
     0
102
RTVSPost2010Prop52
140
1.0
102
RTVSPost2010PropOp52
 70
     0
102
RTVSPost2010Prop53
 90
        2
102
RTVSPost2010PropOp53
 70
     1
102
RTVSPost2010Prop54
  1
strokes_ogs.tif
102
RTVSPost2010PropOp54
 70
     1
102
RTVSPost2010Prop55
280
     0
102
RTVSPost2010PropOp55
 70
     1
102
RTVSPost2010Prop56
140
1.0
102
RTVSPost2010PropOp56
 70
     1
102
RTVSPost2010Prop57
140
1.0
102
RTVSPost2010PropOp57
 70
     1
  0
XRECORD
  5
163
102
{ACAD_REACTORS
330
162
102
}
330
162
100
AcDbXrecord
280
     1
102
RTVSPost2010Prop28
280
     0
102
RTVSPost2010PropOp28
 70
     1
102
RTVSPost2010Prop29
280
     1
102
RTVSPost2010PropOp29
 70
     1
102
RTVSPost2010Prop30
280
     1
102
RTVSPost2010PropOp30
 70
     1
102
RTVSPost2010Prop31
280
     0
102
RTVSPost2010PropOp31
 70
     1
102
RTVSPost2010Prop32
280
     0
102
RTVSPost2010PropOp32
 70
     1
102
RTVSPost2010Prop33
280
     0
102
RTVSPost2010PropOp33
 70
     1
102
RTVSPost2010Prop34
280
     0
102
RTVSPost2010PropOp34
 70
     1
102
RTVSPost2010Prop35
280
     0
102
RTVSPost2010PropOp35
 70
     1
102
RTVSPost2010Prop36
280
     0
102
RTVSPost2010PropOp36
 70
     1
102
RTVSPost2010Prop37
 90
       50
102
RTVSPost2010PropOp37
 70
     1
102
RTVSPost2010Prop38
140
0.0
102
RTVSPost2010PropOp38
 70
     1
102
RTVSPost2010Prop39
140
1.0
102
RTVSPost2010PropOp39
 70
     1
102
RTVSPost2010Prop40
 90
        0
102
RTVSPost2010PropOp40
 70
     1
102
RTVSPost2010Prop41ColorIndex
 90
       18
102
RTVSPost2010Prop41ColorRGB
 90
        0
102
RTVSPost2010PropOp41
 70
     1
102
RTVSPost2010Prop42
 90
       50
102
RTVSPost2010PropOp42
 70
     1
102
RTVSPost2010Prop43
 90
        3
102
RTVSPost2010PropOp43
 70
     1
102
RTVSPost2010Prop44ColorIndex
 90
        5
102
RTVSPost2010Prop44ColorRGB
 90
      255
102
RTVSPost2010PropOp44
 70
     1
102
RTVSPost2010Prop45
280
     0
102
RTVSPost2010PropOp45
 70
     1
102
RTVSPost2010Prop46
 90
       50
102
RTVSPost2010PropOp46
 70
     1
102
RTVSPost2010Prop47
 90
       50
102
RTVSPost2010PropOp47
 70
     1
102
RTVSPost2010Prop48
 90
       50
102
RTVSPost2010PropOp48
 70
     1
102
RTVSPost2010Prop49
280
     0
102
RTVSPost2010PropOp49
 70
     1
102
RTVSPost2010Prop50
 90
       50
102
RTVSPost2010PropOp50
 70
     1
102
RTVSPost2010Prop51ColorIndex
 90
      256
102
RTVSPost2010Prop51ColorRGB
 90
-16777216
102
RTVSPost2010PropOp51
 70
     0
102
RTVSPost2010Prop52
140
1.0
102
RTVSPost2010PropOp52
 70
     0
102
RTVSPost2010Prop53
 90
        2
102
RTVSPost2010PropOp53
 70
     1
102
RTVSPost2010Prop54
  1
strokes_ogs.tif
102
RTVSPost2010PropOp54
 70
     1
102
RTVSPost2010Prop55
280
     0
102
RTVSPost2010PropOp55
 70
     1
102
RTVSPost2010Prop56
140
1.0
102
RTVSPost2010PropOp56
 70
     1
102
RTVSPost2010Prop57
140
1.0
102
RTVSPost2010PropOp57
 70
     1
  0
XRECORD
  5
16B
102
{ACAD_REACTORS
330
16A
102
}
330
16A
100
AcDbXrecord
280
     1
102
RTVSPost2010Prop28
280
     0
102
RTVSPost2010PropOp28
 70
     1
102
RTVSPost2010Prop29
280
     1
102
RTVSPost2010PropOp29
 70
     1
102
RTVSPost2010Prop30
280
     1
102
RTVSPost2010PropOp30
 70
     1
102
RTVSPost2010Prop31
280
     0
102
RTVSPost2010PropOp31
 70
     1
102
RTVSPost2010Prop32
280
     0
102
RTVSPost2010PropOp32
 70
     1
102
RTVSPost2010Prop33
280
     0
102
RTVSPost2010PropOp33
 70
     1
102
RTVSPost2010Prop34
280
     0
102
RTVSPost2010PropOp34
 70
     1
102
RTVSPost2010Prop35
280
     0
102
RTVSPost2010PropOp35
 70
     1
102
RTVSPost2010Prop36
280
     0
102
RTVSPost2010PropOp36
 70
     1
102
RTVSPost2010Prop37
 90
       50
102
RTVSPost2010PropOp37
 70
     1
102
RTVSPost2010Prop38
140
0.0
102
RTVSPost2010PropOp38
 70
     1
102
RTVSPost2010Prop39
140
1.0
102
RTVSPost2010PropOp39
 70
     1
102
RTVSPost2010Prop40
 90
        0
102
RTVSPost2010PropOp40
 70
     1
102
RTVSPost2010Prop41ColorIndex
 90
       18
102
RTVSPost2010Prop41ColorRGB
 90
        0
102
RTVSPost2010PropOp41
 70
     1
102
RTVSPost2010Prop42
 90
       50
102
RTVSPost2010PropOp42
 70
     1
102
RTVSPost2010Prop43
 90
        3
102
RTVSPost2010PropOp43
 70
     1
102
RTVSPost2010Prop44ColorIndex
 90
        5
102
RTVSPost2010Prop44ColorRGB
 90
      255
102
RTVSPost2010PropOp44
 70
     1
102
RTVSPost2010Prop45
280
     0
102
RTVSPost2010PropOp45
 70
     1
102
RTVSPost2010Prop46
 90
       50
102
RTVSPost2010PropOp46
 70
     1
102
RTVSPost2010Prop47
 90
       50
102
RTVSPost2010PropOp47
 70
     1
102
RTVSPost2010Prop48
 90
       50
102
RTVSPost2010PropOp48
 70
     1
102
RTVSPost2010Prop49
280
     0
102
RTVSPost2010PropOp49
 70
     1
102
RTVSPost2010Prop50
 90
       50
102
RTVSPost2010PropOp50
 70
     1
102
RTVSPost2010Prop51ColorIndex
 90
      256
102
RTVSPost2010Prop51ColorRGB
 90
-16777216
102
RTVSPost2010PropOp51
 70
     0
102
RTVSPost2010Prop52
140
1.0
102
RTVSPost2010PropOp52
 70
     0
102
RTVSPost2010Prop53
 90
        2
102
RTVSPost2010PropOp53
 70
     1
102
RTVSPost2010Prop54
  1
strokes_ogs.tif
102
RTVSPost2010PropOp54
 70
     1
102
RTVSPost2010Prop55
280
     0
102
RTVSPost2010PropOp55
 70
     1
102
RTVSPost2010Prop56
140
1.0
102
RTVSPost2010PropOp56
 70
     1
102
RTVSPost2010Prop57
140
1.0
102
RTVSPost2010PropOp57
 70
     1
  0
XRECORD
  5
187
102
{ACAD_REACTORS
330
186
102
}
330
186
100
AcDbXrecord
280
     1
102
RTVSPost2010Prop28
280
     0
102
RTVSPost2010PropOp28
 70
     0
102
RTVSPost2010Prop29
280
     1
102
RTVSPost2010PropOp29
 70
     0
102
RTVSPost2010Prop30
280
     1
102
RTVSPost2010PropOp30
 70
     0
102
RTVSPost2010Prop31
280
     0
102
RTVSPost2010PropOp31
 70
     0
102
RTVSPost2010Prop32
280
     0
102
RTVSPost2010PropOp32
 70
     0
102
RTVSPost2010Prop33
280
     0
102
RTVSPost2010PropOp33
 70
     0
102
RTVSPost2010Prop34
280
     0
102
RTVSPost2010PropOp34
 70
     0
102
RTVSPost2010Prop35
280
     0
102
RTVSPost2010PropOp35
 70
     0
102
RTVSPost2010Prop36
280
     0
102
RTVSPost2010PropOp36
 70
     0
102
RTVSPost2010Prop37
 90
       50
102
RTVSPost2010PropOp37
 70
     0
102
RTVSPost2010Prop38
140
0.0
102
RTVSPost2010PropOp38
 70
     0
102
RTVSPost2010Prop39
140
1.0
102
RTVSPost2010PropOp39
 70
     0
102
RTVSPost2010Prop40
 90
        0
102
RTVSPost2010PropOp40
 70
     0
102
RTVSPost2010Prop41ColorIndex
 90
       18
102
RTVSPost2010Prop41ColorRGB
 90
        0
102
RTVSPost2010PropOp41
 70
     0
102
RTVSPost2010Prop42
 90
       50
102
RTVSPost2010PropOp42
 70
     0
102
RTVSPost2010Prop43
 90
        3
102
RTVSPost2010PropOp43
 70
     0
102
RTVSPost2010Prop44ColorIndex
 90
        5
102
RTVSPost2010Prop44ColorRGB
 90
      255
102
RTVSPost2010PropOp44
 70
     0
102
RTVSPost2010Prop45
280
     0
102
RTVSPost2010PropOp45
 70
     0
102
RTVSPost2010Prop46
 90
       50
102
RTVSPost2010PropOp46
 70
     0
102
RTVSPost2010Prop47
 90
       50
102
RTVSPost2010PropOp47
 70
     0
102
RTVSPost2010Prop48
 90
       50
102
RTVSPost2010PropOp48
 70
     0
102
RTVSPost2010Prop49
280
     0
102
RTVSPost2010PropOp49
 70
     0
102
RTVSPost2010Prop50
 90
       50
102
RTVSPost2010PropOp50
 70
     0
102
RTVSPost2010Prop51ColorIndex
 90
      256
102
RTVSPost2010Prop51ColorRGB
 90
-16777216
102
RTVSPost2010PropOp51
 70
     0
102
RTVSPost2010Prop52
140
1.0
102
RTVSPost2010PropOp52
 70
     0
102
RTVSPost2010Prop53
 90
        2
102
RTVSPost2010PropOp53
 70
     0
102
RTVSPost2010Prop54
  1
strokes_ogs.tif
102
RTVSPost2010PropOp54
 70
     0
102
RTVSPost2010Prop55
280
     0
102
RTVSPost2010PropOp55
 70
     0
102
RTVSPost2010Prop56
140
1.0
102
RTVSPost2010PropOp56
 70
     0
102
RTVSPost2010Prop57
140
1.0
102
RTVSPost2010PropOp57
 70
     0
  0
XRECORD
  5
177
102
{ACAD_REACTORS
330
176
102
}
330
176
100
AcDbXrecord
280
     1
102
RTVSPost2010Prop28
280
     0
102
RTVSPost2010PropOp28
 70
     1
102
RTVSPost2010Prop29
280
     1
102
RTVSPost2010PropOp29
 70
     1
102
RTVSPost2010Prop30
280
     1
102
RTVSPost2010PropOp30
 70
     1
102
RTVSPost2010Prop31
280
     0
102
RTVSPost2010PropOp31
 70
     1
102
RTVSPost2010Prop32
280
     0
102
RTVSPost2010PropOp32
 70
     1
102
RTVSPost2010Prop33
280
     0
102
RTVSPost2010PropOp33
 70
     1
102
RTVSPost2010Prop34
280
     0
102
RTVSPost2010PropOp34
 70
     1
102
RTVSPost2010Prop35
280
     0
102
RTVSPost2010PropOp35
 70
     1
102
RTVSPost2010Prop36
280
     0
102
RTVSPost2010PropOp36
 70
     1
102
RTVSPost2010Prop37
 90
       50
102
RTVSPost2010PropOp37
 70
     1
102
RTVSPost2010Prop38
140
0.0
102
RTVSPost2010PropOp38
 70
     1
102
RTVSPost2010Prop39
140
1.0
102
RTVSPost2010PropOp39
 70
     1
102
RTVSPost2010Prop40
 90
        0
102
RTVSPost2010PropOp40
 70
     1
102
RTVSPost2010Prop41ColorIndex
 90
       18
102
RTVSPost2010Prop41ColorRGB
 90
        0
102
RTVSPost2010PropOp41
 70
     1
102
RTVSPost2010Prop42
 90
       50
102
RTVSPost2010PropOp42
 70
     1
102
RTVSPost2010Prop43
 90
        3
102
RTVSPost2010PropOp43
 70
     1
102
RTVSPost2010Prop44ColorIndex
 90
        5
102
RTVSPost2010Prop44ColorRGB
 90
      255
102
RTVSPost2010PropOp44
 70
     1
102
RTVSPost2010Prop45
280
     0
102
RTVSPost2010PropOp45
 70
     1
102
RTVSPost2010Prop46
 90
       50
102
RTVSPost2010PropOp46
 70
     1
102
RTVSPost2010Prop47
 90
       50
102
RTVSPost2010PropOp47
 70
     1
102
RTVSPost2010Prop48
 90
       50
102
RTVSPost2010PropOp48
 70
     1
102
RTVSPost2010Prop49
280
     0
102
RTVSPost2010PropOp49
 70
     1
102
RTVSPost2010Prop50
 90
       50
102
RTVSPost2010PropOp50
 70
     1
102
RTVSPost2010Prop51ColorIndex
 90
      256
102
RTVSPost2010Prop51ColorRGB
 90
-16777216
102
RTVSPost2010PropOp51
 70
     0
102
RTVSPost2010Prop52
140
1.0
102
RTVSPost2010PropOp52
 70
     0
102
RTVSPost2010Prop53
 90
        2
102
RTVSPost2010PropOp53
 70
     1
102
RTVSPost2010Prop54
  1
strokes_ogs.tif
102
RTVSPost2010PropOp54
 70
     1
102
RTVSPost2010Prop55
280
     0
102
RTVSPost2010PropOp55
 70
     1
102
RTVSPost2010Prop56
140
1.0
102
RTVSPost2010PropOp56
 70
     1
102
RTVSPost2010Prop57
140
1.0
102
RTVSPost2010PropOp57
 70
     1
  0
XRECORD
  5
189
102
{ACAD_REACTORS
330
188
102
}
330
188
100
AcDbXrecord
280
     1
102
RTVSPost2010Prop28
280
     0
102
RTVSPost2010PropOp28
 70
     0
102
RTVSPost2010Prop29
280
     1
102
RTVSPost2010PropOp29
 70
     0
102
RTVSPost2010Prop30
280
     1
102
RTVSPost2010PropOp30
 70
     0
102
RTVSPost2010Prop31
280
     0
102
RTVSPost2010PropOp31
 70
     0
102
RTVSPost2010Prop32
280
     0
102
RTVSPost2010PropOp32
 70
     0
102
RTVSPost2010Prop33
280
     0
102
RTVSPost2010PropOp33
 70
     0
102
RTVSPost2010Prop34
280
     0
102
RTVSPost2010PropOp34
 70
     0
102
RTVSPost2010Prop35
280
     0
102
RTVSPost2010PropOp35
 70
     0
102
RTVSPost2010Prop36
280
     0
102
RTVSPost2010PropOp36
 70
     0
102
RTVSPost2010Prop37
 90
       50
102
RTVSPost2010PropOp37
 70
     0
102
RTVSPost2010Prop38
140
0.0
102
RTVSPost2010PropOp38
 70
     0
102
RTVSPost2010Prop39
140
1.0
102
RTVSPost2010PropOp39
 70
     0
102
RTVSPost2010Prop40
 90
        0
102
RTVSPost2010PropOp40
 70
     0
102
RTVSPost2010Prop41ColorIndex
 90
       18
102
RTVSPost2010Prop41ColorRGB
 90
        0
102
RTVSPost2010PropOp41
 70
     0
102
RTVSPost2010Prop42
 90
       50
102
RTVSPost2010PropOp42
 70
     0
102
RTVSPost2010Prop43
 90
        3
102
RTVSPost2010PropOp43
 70
     0
102
RTVSPost2010Prop44ColorIndex
 90
        5
102
RTVSPost2010Prop44ColorRGB
 90
      255
102
RTVSPost2010PropOp44
 70
     0
102
RTVSPost2010Prop45
280
     0
102
RTVSPost2010PropOp45
 70
     0
102
RTVSPost2010Prop46
 90
       50
102
RTVSPost2010PropOp46
 70
     0
102
RTVSPost2010Prop47
 90
       50
102
RTVSPost2010PropOp47
 70
     0
102
RTVSPost2010Prop48
 90
       50
102
RTVSPost2010PropOp48
 70
     0
102
RTVSPost2010Prop49
280
     0
102
RTVSPost2010PropOp49
 70
     0
102
RTVSPost2010Prop50
 90
       50
102
RTVSPost2010PropOp50
 70
     0
102
RTVSPost2010Prop51ColorIndex
 90
      256
102
RTVSPost2010Prop51ColorRGB
 90
-16777216
102
RTVSPost2010PropOp51
 70
     0
102
RTVSPost2010Prop52
140
1.0
102
RTVSPost2010PropOp52
 70
     0
102
RTVSPost2010Prop53
 90
        2
102
RTVSPost2010PropOp53
 70
     0
102
RTVSPost2010Prop54
  1
strokes_ogs.tif
102
RTVSPost2010PropOp54
 70
     0
102
RTVSPost2010Prop55
280
     0
102
RTVSPost2010PropOp55
 70
     0
102
RTVSPost2010Prop56
140
1.0
102
RTVSPost2010PropOp56
 70
     0
102
RTVSPost2010Prop57
140
1.0
102
RTVSPost2010PropOp57
 70
     0
  0
XRECORD
  5
16F
102
{ACAD_REACTORS
330
16E
102
}
330
16E
100
AcDbXrecord
280
     1
102
RTVSPost2010Prop28
280
     0
102
RTVSPost2010PropOp28
 70
     1
102
RTVSPost2010Prop29
280
     1
102
RTVSPost2010PropOp29
 70
     1
102
RTVSPost2010Prop30
280
     1
102
RTVSPost2010PropOp30
 70
     1
102
RTVSPost2010Prop31
280
     0
102
RTVSPost2010PropOp31
 70
     1
102
RTVSPost2010Prop32
280
     0
102
RTVSPost2010PropOp32
 70
     1
102
RTVSPost2010Prop33
280
     0
102
RTVSPost2010PropOp33
 70
     1
102
RTVSPost2010Prop34
280
     0
102
RTVSPost2010PropOp34
 70
     1
102
RTVSPost2010Prop35
280
     0
102
RTVSPost2010PropOp35
 70
     1
102
RTVSPost2010Prop36
280
     0
102
RTVSPost2010PropOp36
 70
     1
102
RTVSPost2010Prop37
 90
       50
102
RTVSPost2010PropOp37
 70
     1
102
RTVSPost2010Prop38
140
0.0
102
RTVSPost2010PropOp38
 70
     1
102
RTVSPost2010Prop39
140
1.0
102
RTVSPost2010PropOp39
 70
     1
102
RTVSPost2010Prop40
 90
        0
102
RTVSPost2010PropOp40
 70
     1
102
RTVSPost2010Prop41ColorIndex
 90
       18
102
RTVSPost2010Prop41ColorRGB
 90
        0
102
RTVSPost2010PropOp41
 70
     1
102
RTVSPost2010Prop42
 90
       50
102
RTVSPost2010PropOp42
 70
     1
102
RTVSPost2010Prop43
 90
        3
102
RTVSPost2010PropOp43
 70
     1
102
RTVSPost2010Prop44ColorIndex
 90
        5
102
RTVSPost2010Prop44ColorRGB
 90
      255
102
RTVSPost2010PropOp44
 70
     1
102
RTVSPost2010Prop45
280
     0
102
RTVSPost2010PropOp45
 70
     1
102
RTVSPost2010Prop46
 90
       50
102
RTVSPost2010PropOp46
 70
     1
102
RTVSPost2010Prop47
 90
       50
102
RTVSPost2010PropOp47
 70
     1
102
RTVSPost2010Prop48
 90
       50
102
RTVSPost2010PropOp48
 70
     1
102
RTVSPost2010Prop49
280
     0
102
RTVSPost2010PropOp49
 70
     1
102
RTVSPost2010Prop50
 90
       50
102
RTVSPost2010PropOp50
 70
     1
102
RTVSPost2010Prop51ColorIndex
 90
      256
102
RTVSPost2010Prop51ColorRGB
 90
-16777216
102
RTVSPost2010PropOp51
 70
     0
102
RTVSPost2010Prop52
140
1.0
102
RTVSPost2010PropOp52
 70
     0
102
RTVSPost2010Prop53
 90
        2
102
RTVSPost2010PropOp53
 70
     1
102
RTVSPost2010Prop54
  1
strokes_ogs.tif
102
RTVSPost2010PropOp54
 70
     1
102
RTVSPost2010Prop55
280
     0
102
RTVSPost2010PropOp55
 70
     1
102
RTVSPost2010Prop56
140
1.0
102
RTVSPost2010PropOp56
 70
     1
102
RTVSPost2010Prop57
140
1.0
102
RTVSPost2010PropOp57
 70
     1
  0
XRECORD
  5
185
102
{ACAD_REACTORS
330
184
102
}
330
184
100
AcDbXrecord
280
     1
102
RTVSPost2010Prop28
280
     0
102
RTVSPost2010PropOp28
 70
     1
102
RTVSPost2010Prop29
280
     1
102
RTVSPost2010PropOp29
 70
     1
102
RTVSPost2010Prop30
280
     1
102
RTVSPost2010PropOp30
 70
     1
102
RTVSPost2010Prop31
280
     0
102
RTVSPost2010PropOp31
 70
     1
102
RTVSPost2010Prop32
280
     0
102
RTVSPost2010PropOp32
 70
     1
102
RTVSPost2010Prop33
280
     0
102
RTVSPost2010PropOp33
 70
     1
102
RTVSPost2010Prop34
280
     0
102
RTVSPost2010PropOp34
 70
     1
102
RTVSPost2010Prop35
280
     0
102
RTVSPost2010PropOp35
 70
     1
102
RTVSPost2010Prop36
280
     0
102
RTVSPost2010PropOp36
 70
     1
102
RTVSPost2010Prop37
 90
       50
102
RTVSPost2010PropOp37
 70
     1
102
RTVSPost2010Prop38
140
0.0
102
RTVSPost2010PropOp38
 70
     1
102
RTVSPost2010Prop39
140
1.0
102
RTVSPost2010PropOp39
 70
     1
102
RTVSPost2010Prop40
 90
        0
102
RTVSPost2010PropOp40
 70
     1
102
RTVSPost2010Prop41ColorIndex
 90
       18
102
RTVSPost2010Prop41ColorRGB
 90
        0
102
RTVSPost2010PropOp41
 70
     1
102
RTVSPost2010Prop42
 90
       50
102
RTVSPost2010PropOp42
 70
     1
102
RTVSPost2010Prop43
 90
        3
102
RTVSPost2010PropOp43
 70
     1
102
RTVSPost2010Prop44ColorIndex
 90
        5
102
RTVSPost2010Prop44ColorRGB
 90
      255
102
RTVSPost2010PropOp44
 70
     1
102
RTVSPost2010Prop45
280
     0
102
RTVSPost2010PropOp45
 70
     1
102
RTVSPost2010Prop46
 90
       50
102
RTVSPost2010PropOp46
 70
     1
102
RTVSPost2010Prop47
 90
       50
102
RTVSPost2010PropOp47
 70
     1
102
RTVSPost2010Prop48
 90
       50
102
RTVSPost2010PropOp48
 70
     1
102
RTVSPost2010Prop49
280
     0
102
RTVSPost2010PropOp49
 70
     1
102
RTVSPost2010Prop50
 90
       50
102
RTVSPost2010PropOp50
 70
     1
102
RTVSPost2010Prop51ColorIndex
 90
      256
102
RTVSPost2010Prop51ColorRGB
 90
-16777216
102
RTVSPost2010PropOp51
 70
     0
102
RTVSPost2010Prop52
140
1.0
102
RTVSPost2010PropOp52
 70
     0
102
RTVSPost2010Prop53
 90
        2
102
RTVSPost2010PropOp53
 70
     1
102
RTVSPost2010Prop54
  1
strokes_ogs.tif
102
RTVSPost2010PropOp54
 70
     1
102
RTVSPost2010Prop55
280
     0
102
RTVSPost2010PropOp55
 70
     1
102
RTVSPost2010Prop56
140
1.0
102
RTVSPost2010PropOp56
 70
     1
102
RTVSPost2010Prop57
140
1.0
102
RTVSPost2010PropOp57
 70
     1
  0
XRECORD
  5
183
102
{ACAD_REACTORS
330
182
102
}
330
182
100
AcDbXrecord
280
     1
102
RTVSPost2010Prop28
280
     0
102
RTVSPost2010PropOp28
 70
     1
102
RTVSPost2010Prop29
280
     1
102
RTVSPost2010PropOp29
 70
     1
102
RTVSPost2010Prop30
280
     1
102
RTVSPost2010PropOp30
 70
     1
102
RTVSPost2010Prop31
280
     0
102
RTVSPost2010PropOp31
 70
     1
102
RTVSPost2010Prop32
280
     0
102
RTVSPost2010PropOp32
 70
     1
102
RTVSPost2010Prop33
280
     0
102
RTVSPost2010PropOp33
 70
     1
102
RTVSPost2010Prop34
280
     0
102
RTVSPost2010PropOp34
 70
     1
102
RTVSPost2010Prop35
280
     0
102
RTVSPost2010PropOp35
 70
     1
102
RTVSPost2010Prop36
280
     0
102
RTVSPost2010PropOp36
 70
     1
102
RTVSPost2010Prop37
 90
       50
102
RTVSPost2010PropOp37
 70
     1
102
RTVSPost2010Prop38
140
0.0
102
RTVSPost2010PropOp38
 70
     1
102
RTVSPost2010Prop39
140
1.0
102
RTVSPost2010PropOp39
 70
     1
102
RTVSPost2010Prop40
 90
        0
102
RTVSPost2010PropOp40
 70
     1
102
RTVSPost2010Prop41ColorIndex
 90
       18
102
RTVSPost2010Prop41ColorRGB
 90
        0
102
RTVSPost2010PropOp41
 70
     1
102
RTVSPost2010Prop42
 90
       50
102
RTVSPost2010PropOp42
 70
     1
102
RTVSPost2010Prop43
 90
        3
102
RTVSPost2010PropOp43
 70
     1
102
RTVSPost2010Prop44ColorIndex
 90
        5
102
RTVSPost2010Prop44ColorRGB
 90
      255
102
RTVSPost2010PropOp44
 70
     1
102
RTVSPost2010Prop45
280
     0
102
RTVSPost2010PropOp45
 70
     1
102
RTVSPost2010Prop46
 90
       50
102
RTVSPost2010PropOp46
 70
     1
102
RTVSPost2010Prop47
 90
       50
102
RTVSPost2010PropOp47
 70
     1
102
RTVSPost2010Prop48
 90
       50
102
RTVSPost2010PropOp48
 70
     1
102
RTVSPost2010Prop49
280
     0
102
RTVSPost2010PropOp49
 70
     1
102
RTVSPost2010Prop50
 90
       50
102
RTVSPost2010PropOp50
 70
     1
102
RTVSPost2010Prop51ColorIndex
 90
      256
102
RTVSPost2010Prop51ColorRGB
 90
-16777216
102
RTVSPost2010PropOp51
 70
     0
102
RTVSPost2010Prop52
140
1.0
102
RTVSPost2010PropOp52
 70
     0
102
RTVSPost2010Prop53
 90
        2
102
RTVSPost2010PropOp53
 70
     1
102
RTVSPost2010Prop54
  1
strokes_ogs.tif
102
RTVSPost2010PropOp54
 70
     1
102
RTVSPost2010Prop55
280
     0
102
RTVSPost2010PropOp55
 70
     1
102
RTVSPost2010Prop56
140
1.0
102
RTVSPost2010PropOp56
 70
     1
102
RTVSPost2010Prop57
140
1.0
102
RTVSPost2010PropOp57
 70
     1
  0
XRECORD
  5
17D
102
{ACAD_REACTORS
330
17C
102
}
330
17C
100
AcDbXrecord
280
     1
102
RTVSPost2010Prop28
280
     0
102
RTVSPost2010PropOp28
 70
     1
102
RTVSPost2010Prop29
280
     1
102
RTVSPost2010PropOp29
 70
     1
102
RTVSPost2010Prop30
280
     1
102
RTVSPost2010PropOp30
 70
     1
102
RTVSPost2010Prop31
280
     0
102
RTVSPost2010PropOp31
 70
     1
102
RTVSPost2010Prop32
280
     0
102
RTVSPost2010PropOp32
 70
     1
102
RTVSPost2010Prop33
280
     0
102
RTVSPost2010PropOp33
 70
     1
102
RTVSPost2010Prop34
280
     0
102
RTVSPost2010PropOp34
 70
     1
102
RTVSPost2010Prop35
280
     0
102
RTVSPost2010PropOp35
 70
     1
102
RTVSPost2010Prop36
280
     0
102
RTVSPost2010PropOp36
 70
     1
102
RTVSPost2010Prop37
 90
       50
102
RTVSPost2010PropOp37
 70
     1
102
RTVSPost2010Prop38
140
0.0
102
RTVSPost2010PropOp38
 70
     1
102
RTVSPost2010Prop39
140
1.0
102
RTVSPost2010PropOp39
 70
     1
102
RTVSPost2010Prop40
 90
        0
102
RTVSPost2010PropOp40
 70
     1
102
RTVSPost2010Prop41ColorIndex
 90
       18
102
RTVSPost2010Prop41ColorRGB
 90
        0
102
RTVSPost2010PropOp41
 70
     1
102
RTVSPost2010Prop42
 90
       50
102
RTVSPost2010PropOp42
 70
     1
102
RTVSPost2010Prop43
 90
        3
102
RTVSPost2010PropOp43
 70
     1
102
RTVSPost2010Prop44ColorIndex
 90
        5
102
RTVSPost2010Prop44ColorRGB
 90
      255
102
RTVSPost2010PropOp44
 70
     1
102
RTVSPost2010Prop45
280
     0
102
RTVSPost2010PropOp45
 70
     1
102
RTVSPost2010Prop46
 90
       50
102
RTVSPost2010PropOp46
 70
     1
102
RTVSPost2010Prop47
 90
       50
102
RTVSPost2010PropOp47
 70
     1
102
RTVSPost2010Prop48
 90
       50
102
RTVSPost2010PropOp48
 70
     1
102
RTVSPost2010Prop49
280
     0
102
RTVSPost2010PropOp49
 70
     1
102
RTVSPost2010Prop50
 90
       50
102
RTVSPost2010PropOp50
 70
     1
102
RTVSPost2010Prop51ColorIndex
 90
      256
102
RTVSPost2010Prop51ColorRGB
 90
-16777216
102
RTVSPost2010PropOp51
 70
     0
102
RTVSPost2010Prop52
140
1.0
102
RTVSPost2010PropOp52
 70
     0
102
RTVSPost2010Prop53
 90
        2
102
RTVSPost2010PropOp53
 70
     1
102
RTVSPost2010Prop54
  1
strokes_ogs.tif
102
RTVSPost2010PropOp54
 70
     1
102
RTVSPost2010Prop55
280
     0
102
RTVSPost2010PropOp55
 70
     1
102
RTVSPost2010Prop56
140
1.0
102
RTVSPost2010PropOp56
 70
     1
102
RTVSPost2010Prop57
140
1.0
102
RTVSPost2010PropOp57
 70
     1
  0
XRECORD
  5
17F
102
{ACAD_REACTORS
330
17E
102
}
330
17E
100
AcDbXrecord
280
     1
102
RTVSPost2010Prop28
280
     0
102
RTVSPost2010PropOp28
 70
     1
102
RTVSPost2010Prop29
280
     1
102
RTVSPost2010PropOp29
 70
     1
102
RTVSPost2010Prop30
280
     1
102
RTVSPost2010PropOp30
 70
     1
102
RTVSPost2010Prop31
280
     0
102
RTVSPost2010PropOp31
 70
     1
102
RTVSPost2010Prop32
280
     0
102
RTVSPost2010PropOp32
 70
     1
102
RTVSPost2010Prop33
280
     0
102
RTVSPost2010PropOp33
 70
     1
102
RTVSPost2010Prop34
280
     0
102
RTVSPost2010PropOp34
 70
     1
102
RTVSPost2010Prop35
280
     0
102
RTVSPost2010PropOp35
 70
     1
102
RTVSPost2010Prop36
280
     0
102
RTVSPost2010PropOp36
 70
     1
102
RTVSPost2010Prop37
 90
       50
102
RTVSPost2010PropOp37
 70
     1
102
RTVSPost2010Prop38
140
0.0
102
RTVSPost2010PropOp38
 70
     1
102
RTVSPost2010Prop39
140
1.0
102
RTVSPost2010PropOp39
 70
     1
102
RTVSPost2010Prop40
 90
        0
102
RTVSPost2010PropOp40
 70
     1
102
RTVSPost2010Prop41ColorIndex
 90
       18
102
RTVSPost2010Prop41ColorRGB
 90
        0
102
RTVSPost2010PropOp41
 70
     1
102
RTVSPost2010Prop42
 90
       50
102
RTVSPost2010PropOp42
 70
     1
102
RTVSPost2010Prop43
 90
        3
102
RTVSPost2010PropOp43
 70
     1
102
RTVSPost2010Prop44ColorIndex
 90
        5
102
RTVSPost2010Prop44ColorRGB
 90
      255
102
RTVSPost2010PropOp44
 70
     1
102
RTVSPost2010Prop45
280
     0
102
RTVSPost2010PropOp45
 70
     1
102
RTVSPost2010Prop46
 90
       50
102
RTVSPost2010PropOp46
 70
     1
102
RTVSPost2010Prop47
 90
       50
102
RTVSPost2010PropOp47
 70
     1
102
RTVSPost2010Prop48
 90
       50
102
RTVSPost2010PropOp48
 70
     1
102
RTVSPost2010Prop49
280
     0
102
RTVSPost2010PropOp49
 70
     1
102
RTVSPost2010Prop50
 90
       50
102
RTVSPost2010PropOp50
 70
     1
102
RTVSPost2010Prop51ColorIndex
 90
      256
102
RTVSPost2010Prop51ColorRGB
 90
-16777216
102
RTVSPost2010PropOp51
 70
     0
102
RTVSPost2010Prop52
140
1.0
102
RTVSPost2010PropOp52
 70
     0
102
RTVSPost2010Prop53
 90
        2
102
RTVSPost2010PropOp53
 70
     1
102
RTVSPost2010Prop54
  1
strokes_ogs.tif
102
RTVSPost2010PropOp54
 70
     1
102
RTVSPost2010Prop55
280
     0
102
RTVSPost2010PropOp55
 70
     1
102
RTVSPost2010Prop56
140
1.0
102
RTVSPost2010PropOp56
 70
     1
102
RTVSPost2010Prop57
140
1.0
102
RTVSPost2010PropOp57
 70
     1
  0
XRECORD
  5
175
102
{ACAD_REACTORS
330
174
102
}
330
174
100
AcDbXrecord
280
     1
102
RTVSPost2010Prop28
280
     0
102
RTVSPost2010PropOp28
 70
     1
102
RTVSPost2010Prop29
280
     1
102
RTVSPost2010PropOp29
 70
     1
102
RTVSPost2010Prop30
280
     1
102
RTVSPost2010PropOp30
 70
     1
102
RTVSPost2010Prop31
280
     0
102
RTVSPost2010PropOp31
 70
     1
102
RTVSPost2010Prop32
280
     0
102
RTVSPost2010PropOp32
 70
     1
102
RTVSPost2010Prop33
280
     0
102
RTVSPost2010PropOp33
 70
     1
102
RTVSPost2010Prop34
280
     0
102
RTVSPost2010PropOp34
 70
     1
102
RTVSPost2010Prop35
280
     0
102
RTVSPost2010PropOp35
 70
     1
102
RTVSPost2010Prop36
280
     0
102
RTVSPost2010PropOp36
 70
     1
102
RTVSPost2010Prop37
 90
       50
102
RTVSPost2010PropOp37
 70
     1
102
RTVSPost2010Prop38
140
0.0
102
RTVSPost2010PropOp38
 70
     1
102
RTVSPost2010Prop39
140
1.0
102
RTVSPost2010PropOp39
 70
     1
102
RTVSPost2010Prop40
 90
        0
102
RTVSPost2010PropOp40
 70
     1
102
RTVSPost2010Prop41ColorIndex
 90
       18
102
RTVSPost2010Prop41ColorRGB
 90
        0
102
RTVSPost2010PropOp41
 70
     1
102
RTVSPost2010Prop42
 90
       50
102
RTVSPost2010PropOp42
 70
     1
102
RTVSPost2010Prop43
 90
        3
102
RTVSPost2010PropOp43
 70
     1
102
RTVSPost2010Prop44ColorIndex
 90
        5
102
RTVSPost2010Prop44ColorRGB
 90
      255
102
RTVSPost2010PropOp44
 70
     1
102
RTVSPost2010Prop45
280
     0
102
RTVSPost2010PropOp45
 70
     1
102
RTVSPost2010Prop46
 90
       50
102
RTVSPost2010PropOp46
 70
     1
102
RTVSPost2010Prop47
 90
       50
102
RTVSPost2010PropOp47
 70
     1
102
RTVSPost2010Prop48
 90
       50
102
RTVSPost2010PropOp48
 70
     1
102
RTVSPost2010Prop49
280
     0
102
RTVSPost2010PropOp49
 70
     1
102
RTVSPost2010Prop50
 90
       50
102
RTVSPost2010PropOp50
 70
     1
102
RTVSPost2010Prop51ColorIndex
 90
      256
102
RTVSPost2010Prop51ColorRGB
 90
-16777216
102
RTVSPost2010PropOp51
 70
     0
102
RTVSPost2010Prop52
140
1.0
102
RTVSPost2010PropOp52
 70
     0
102
RTVSPost2010Prop53
 90
        2
102
RTVSPost2010PropOp53
 70
     1
102
RTVSPost2010Prop54
  1
strokes_ogs.tif
102
RTVSPost2010PropOp54
 70
     1
102
RTVSPost2010Prop55
280
     0
102
RTVSPost2010PropOp55
 70
     1
102
RTVSPost2010Prop56
140
1.0
102
RTVSPost2010PropOp56
 70
     1
102
RTVSPost2010Prop57
140
1.0
102
RTVSPost2010PropOp57
 70
     1
  0
XRECORD
  5
169
102
{ACAD_REACTORS
330
168
102
}
330
168
100
AcDbXrecord
280
     1
102
RTVSPost2010Prop28
280
     0
102
RTVSPost2010PropOp28
 70
     1
102
RTVSPost2010Prop29
280
     1
102
RTVSPost2010PropOp29
 70
     1
102
RTVSPost2010Prop30
280
     1
102
RTVSPost2010PropOp30
 70
     1
102
RTVSPost2010Prop31
280
     0
102
RTVSPost2010PropOp31
 70
     1
102
RTVSPost2010Prop32
280
     0
102
RTVSPost2010PropOp32
 70
     1
102
RTVSPost2010Prop33
280
     0
102
RTVSPost2010PropOp33
 70
     1
102
RTVSPost2010Prop34
280
     0
102
RTVSPost2010PropOp34
 70
     1
102
RTVSPost2010Prop35
280
     0
102
RTVSPost2010PropOp35
 70
     1
102
RTVSPost2010Prop36
280
     0
102
RTVSPost2010PropOp36
 70
     1
102
RTVSPost2010Prop37
 90
       50
102
RTVSPost2010PropOp37
 70
     1
102
RTVSPost2010Prop38
140
0.0
102
RTVSPost2010PropOp38
 70
     1
102
RTVSPost2010Prop39
140
1.0
102
RTVSPost2010PropOp39
 70
     1
102
RTVSPost2010Prop40
 90
        0
102
RTVSPost2010PropOp40
 70
     1
102
RTVSPost2010Prop41ColorIndex
 90
       18
102
RTVSPost2010Prop41ColorRGB
 90
        0
102
RTVSPost2010PropOp41
 70
     1
102
RTVSPost2010Prop42
 90
       50
102
RTVSPost2010PropOp42
 70
     1
102
RTVSPost2010Prop43
 90
        3
102
RTVSPost2010PropOp43
 70
     1
102
RTVSPost2010Prop44ColorIndex
 90
        5
102
RTVSPost2010Prop44ColorRGB
 90
      255
102
RTVSPost2010PropOp44
 70
     1
102
RTVSPost2010Prop45
280
     0
102
RTVSPost2010PropOp45
 70
     1
102
RTVSPost2010Prop46
 90
       50
102
RTVSPost2010PropOp46
 70
     1
102
RTVSPost2010Prop47
 90
       50
102
RTVSPost2010PropOp47
 70
     1
102
RTVSPost2010Prop48
 90
       50
102
RTVSPost2010PropOp48
 70
     1
102
RTVSPost2010Prop49
280
     0
102
RTVSPost2010PropOp49
 70
     1
102
RTVSPost2010Prop50
 90
       50
102
RTVSPost2010PropOp50
 70
     1
102
RTVSPost2010Prop51ColorIndex
 90
      256
102
RTVSPost2010Prop51ColorRGB
 90
-16777216
102
RTVSPost2010PropOp51
 70
     0
102
RTVSPost2010Prop52
140
1.0
102
RTVSPost2010PropOp52
 70
     0
102
RTVSPost2010Prop53
 90
        2
102
RTVSPost2010PropOp53
 70
     1
102
RTVSPost2010Prop54
  1
strokes_ogs.tif
102
RTVSPost2010PropOp54
 70
     1
102
RTVSPost2010Prop55
280
     0
102
RTVSPost2010PropOp55
 70
     1
102
RTVSPost2010Prop56
140
1.0
102
RTVSPost2010PropOp56
 70
     1
102
RTVSPost2010Prop57
140
1.0
102
RTVSPost2010PropOp57
 70
     1
  0
XRECORD
  5
181
102
{ACAD_REACTORS
330
180
102
}
330
180
100
AcDbXrecord
280
     1
102
RTVSPost2010Prop28
280
     0
102
RTVSPost2010PropOp28
 70
     1
102
RTVSPost2010Prop29
280
     1
102
RTVSPost2010PropOp29
 70
     1
102
RTVSPost2010Prop30
280
     1
102
RTVSPost2010PropOp30
 70
     1
102
RTVSPost2010Prop31
280
     0
102
RTVSPost2010PropOp31
 70
     1
102
RTVSPost2010Prop32
280
     0
102
RTVSPost2010PropOp32
 70
     1
102
RTVSPost2010Prop33
280
     0
102
RTVSPost2010PropOp33
 70
     1
102
RTVSPost2010Prop34
280
     0
102
RTVSPost2010PropOp34
 70
     1
102
RTVSPost2010Prop35
280
     0
102
RTVSPost2010PropOp35
 70
     1
102
RTVSPost2010Prop36
280
     0
102
RTVSPost2010PropOp36
 70
     1
102
RTVSPost2010Prop37
 90
       50
102
RTVSPost2010PropOp37
 70
     1
102
RTVSPost2010Prop38
140
0.0
102
RTVSPost2010PropOp38
 70
     1
102
RTVSPost2010Prop39
140
1.0
102
RTVSPost2010PropOp39
 70
     1
102
RTVSPost2010Prop40
 90
        0
102
RTVSPost2010PropOp40
 70
     1
102
RTVSPost2010Prop41ColorIndex
 90
       18
102
RTVSPost2010Prop41ColorRGB
 90
        0
102
RTVSPost2010PropOp41
 70
     1
102
RTVSPost2010Prop42
 90
       50
102
RTVSPost2010PropOp42
 70
     1
102
RTVSPost2010Prop43
 90
        3
102
RTVSPost2010PropOp43
 70
     1
102
RTVSPost2010Prop44ColorIndex
 90
        5
102
RTVSPost2010Prop44ColorRGB
 90
      255
102
RTVSPost2010PropOp44
 70
     1
102
RTVSPost2010Prop45
280
     0
102
RTVSPost2010PropOp45
 70
     1
102
RTVSPost2010Prop46
 90
       50
102
RTVSPost2010PropOp46
 70
     1
102
RTVSPost2010Prop47
 90
       50
102
RTVSPost2010PropOp47
 70
     1
102
RTVSPost2010Prop48
 90
       50
102
RTVSPost2010PropOp48
 70
     1
102
RTVSPost2010Prop49
280
     0
102
RTVSPost2010PropOp49
 70
     1
102
RTVSPost2010Prop50
 90
       50
102
RTVSPost2010PropOp50
 70
     1
102
RTVSPost2010Prop51ColorIndex
 90
      256
102
RTVSPost2010Prop51ColorRGB
 90
-16777216
102
RTVSPost2010PropOp51
 70
     0
102
RTVSPost2010Prop52
140
1.0
102
RTVSPost2010PropOp52
 70
     0
102
RTVSPost2010Prop53
 90
        2
102
RTVSPost2010PropOp53
 70
     1
102
RTVSPost2010Prop54
  1
strokes_ogs.tif
102
RTVSPost2010PropOp54
 70
     1
102
RTVSPost2010Prop55
280
     0
102
RTVSPost2010PropOp55
 70
     1
102
RTVSPost2010Prop56
140
1.0
102
RTVSPost2010PropOp56
 70
     1
102
RTVSPost2010Prop57
140
1.0
102
RTVSPost2010PropOp57
 70
     1
  0
ENDSEC
  0
EOF
