  0
SECTION
  2
HEADER
  9
$ACADVER
  1
AC1024
  9
$ACADMAINTVER
 70
   205
  9
$DWGCODEPAGE
  3
ANSI_1251
  9
$INSBASE
 10
0.0
 20
0.0
 30
0.0
  9
$EXTMIN
 10
1.000000000000000E+20
 20
1.000000000000000E+20
 30
1.000000000000000E+20
  9
$EXTMAX
 10
-1.000000000000000E+20
 20
-1.000000000000000E+20
 30
-1.000000000000000E+20
  9
$LIMMIN
 10
0.0
 20
0.0
  9
$LIMMAX
 10
12.0
 20
9.0
  9
$ORTHOMODE
 70
     0
  9
$REGENMODE
 70
     1
  9
$FILLMODE
 70
     1
  9
$QTEXTMODE
 70
     0
  9
$MIRRTEXT
 70
     1
  9
$LTSCALE
 40
1.0
  9
$ATTMODE
 70
     1
  9
$TEXTSIZE
 40
0.2
  9
$TRACEWID
 40
0.05
  9
$TEXTSTYLE
  7
Standard
  9
$CLAYER
  8
OracDecor_skirtings
  9
$CELTYPE
  6
ByLayer
  9
$CECOLOR
 62
   256
  9
$CELTSCALE
 40
1.0
  9
$DISPSILH
 70
     0
  9
$DIMSCALE
 40
1.0
  9
$DIMASZ
 40
0.18
  9
$DIMEXO
 40
0.0625
  9
$DIMDLI
 40
0.38
  9
$DIMRND
 40
0.0
  9
$DIMDLE
 40
0.0
  9
$DIMEXE
 40
0.18
  9
$DIMTP
 40
0.0
  9
$DIMTM
 40
0.0
  9
$DIMTXT
 40
0.18
  9
$DIMCEN
 40
0.09
  9
$DIMTSZ
 40
0.0
  9
$DIMTOL
 70
     0
  9
$DIMLIM
 70
     0
  9
$DIMTIH
 70
     1
  9
$DIMTOH
 70
     1
  9
$DIMSE1
 70
     0
  9
$DIMSE2
 70
     0
  9
$DIMTAD
 70
     0
  9
$DIMZIN
 70
     0
  9
$DIMBLK
  1

  9
$DIMASO
 70
     1
  9
$DIMSHO
 70
     1
  9
$DIMPOST
  1

  9
$DIMAPOST
  1

  9
$DIMALT
 70
     0
  9
$DIMALTD
 70
     2
  9
$DIMALTF
 40
25.4
  9
$DIMLFAC
 40
1.0
  9
$DIMTOFL
 70
     0
  9
$DIMTVP
 40
0.0
  9
$DIMTIX
 70
     0
  9
$DIMSOXD
 70
     0
  9
$DIMSAH
 70
     0
  9
$DIMBLK1
  1

  9
$DIMBLK2
  1

  9
$DIMSTYLE
  2
Standard
  9
$DIMCLRD
 70
     0
  9
$DIMCLRE
 70
     0
  9
$DIMCLRT
 70
     0
  9
$DIMTFAC
 40
1.0
  9
$DIMGAP
 40
0.09
  9
$DIMJUST
 70
     0
  9
$DIMSD1
 70
     0
  9
$DIMSD2
 70
     0
  9
$DIMTOLJ
 70
     1
  9
$DIMTZIN
 70
     0
  9
$DIMALTZ
 70
     0
  9
$DIMALTTZ
 70
     0
  9
$DIMUPT
 70
     0
  9
$DIMDEC
 70
     4
  9
$DIMTDEC
 70
     4
  9
$DIMALTU
 70
     2
  9
$DIMALTTD
 70
     2
  9
$DIMTXSTY
  7
Standard
  9
$DIMAUNIT
 70
     0
  9
$DIMADEC
 70
     0
  9
$DIMALTRND
 40
0.0
  9
$DIMAZIN
 70
     0
  9
$DIMDSEP
 70
    46
  9
$DIMATFIT
 70
     3
  9
$DIMFRAC
 70
     0
  9
$DIMLDRBLK
  1

  9
$DIMLUNIT
 70
     2
  9
$DIMLWD
 70
    -2
  9
$DIMLWE
 70
    -2
  9
$DIMTMOVE
 70
     0
  9
$DIMFXL
 40
1.0
  9
$DIMFXLON
 70
     0
  9
$DIMJOGANG
 40
0.7853981633974483
  9
$DIMTFILL
 70
     0
  9
$DIMTFILLCLR
 70
     0
  9
$DIMARCSYM
 70
     0
  9
$DIMLTYPE
  6

  9
$DIMLTEX1
  6

  9
$DIMLTEX2
  6

  9
$DIMTXTDIRECTION
 70
     0
  9
$LUNITS
 70
     2
  9
$LUPREC
 70
     4
  9
$SKETCHINC
 40
0.1
  9
$FILLETRAD
 40
0.5
  9
$AUNITS
 70
     0
  9
$AUPREC
 70
     0
  9
$MENU
  1
.
  9
$ELEVATION
 40
0.0
  9
$PELEVATION
 40
0.0
  9
$THICKNESS
 40
0.0
  9
$LIMCHECK
 70
     0
  9
$CHAMFERA
 40
0.5
  9
$CHAMFERB
 40
0.5
  9
$CHAMFERC
 40
1.0
  9
$CHAMFERD
 40
0.0
  9
$SKPOLY
 70
     0
  9
$TDCREATE
 40
2451380.930432396
  9
$TDUCREATE
 40
2451380.805432396
  9
$TDUPDATE
 40
2451380.966180555
  9
$TDUUPDATE
 40
2451380.841180556
  9
$TDINDWG
 40
0.0075631134
  9
$TDUSRTIMER
 40
0.0075540741
  9
$USRTIMER
 70
     1
  9
$ANGBASE
 50
0.0
  9
$ANGDIR
 70
     0
  9
$PDMODE
 70
     0
  9
$PDSIZE
 40
0.0
  9
$PLINEWID
 40
0.0
  9
$SPLFRAME
 70
     0
  9
$SPLINETYPE
 70
     6
  9
$SPLINESEGS
 70
     8
  9
$HANDSEED
  5
1AA
  9
$SURFTAB1
 70
     6
  9
$SURFTAB2
 70
     6
  9
$SURFTYPE
 70
     6
  9
$SURFU
 70
     6
  9
$SURFV
 70
     6
  9
$UCSBASE
  2

  9
$UCSNAME
  2

  9
$UCSORG
 10
0.0
 20
0.0
 30
0.0
  9
$UCSXDIR
 10
1.0
 20
0.0
 30
0.0
  9
$UCSYDIR
 10
0.0
 20
1.0
 30
0.0
  9
$UCSORTHOREF
  2

  9
$UCSORTHOVIEW
 70
     0
  9
$UCSORGTOP
 10
0.0
 20
0.0
 30
0.0
  9
$UCSORGBOTTOM
 10
0.0
 20
0.0
 30
0.0
  9
$UCSORGLEFT
 10
0.0
 20
0.0
 30
0.0
  9
$UCSORGRIGHT
 10
0.0
 20
0.0
 30
0.0
  9
$UCSORGFRONT
 10
0.0
 20
0.0
 30
0.0
  9
$UCSORGBACK
 10
0.0
 20
0.0
 30
0.0
  9
$PUCSBASE
  2

  9
$PUCSNAME
  2

  9
$PUCSORG
 10
0.0
 20
0.0
 30
0.0
  9
$PUCSXDIR
 10
1.0
 20
0.0
 30
0.0
  9
$PUCSYDIR
 10
0.0
 20
1.0
 30
0.0
  9
$PUCSORTHOREF
  2

  9
$PUCSORTHOVIEW
 70
     0
  9
$PUCSORGTOP
 10
0.0
 20
0.0
 30
0.0
  9
$PUCSORGBOTTOM
 10
0.0
 20
0.0
 30
0.0
  9
$PUCSORGLEFT
 10
0.0
 20
0.0
 30
0.0
  9
$PUCSORGRIGHT
 10
0.0
 20
0.0
 30
0.0
  9
$PUCSORGFRONT
 10
0.0
 20
0.0
 30
0.0
  9
$PUCSORGBACK
 10
0.0
 20
0.0
 30
0.0
  9
$USERI1
 70
     0
  9
$USERI2
 70
     0
  9
$USERI3
 70
     0
  9
$USERI4
 70
     0
  9
$USERI5
 70
     0
  9
$USERR1
 40
0.0
  9
$USERR2
 40
0.0
  9
$USERR3
 40
0.0
  9
$USERR4
 40
0.0
  9
$USERR5
 40
0.0
  9
$WORLDVIEW
 70
     1
  9
$SHADEDGE
 70
     3
  9
$SHADEDIF
 70
    70
  9
$TILEMODE
 70
     1
  9
$MAXACTVP
 70
    64
  9
$PINSBASE
 10
0.0
 20
0.0
 30
0.0
  9
$PLIMCHECK
 70
     0
  9
$PEXTMIN
 10
1.000000000000000E+20
 20
1.000000000000000E+20
 30
1.000000000000000E+20
  9
$PEXTMAX
 10
-1.000000000000000E+20
 20
-1.000000000000000E+20
 30
-1.000000000000000E+20
  9
$PLIMMIN
 10
0.0
 20
0.0
  9
$PLIMMAX
 10
12.0
 20
9.0
  9
$UNITMODE
 70
     0
  9
$VISRETAIN
 70
     1
  9
$PLINEGEN
 70
     0
  9
$PSLTSCALE
 70
     1
  9
$TREEDEPTH
 70
  3020
  9
$CMLSTYLE
  2
Standard
  9
$CMLJUST
 70
     0
  9
$CMLSCALE
 40
1.0
  9
$PROXYGRAPHICS
 70
     1
  9
$MEASUREMENT
 70
     1
  9
$CELWEIGHT
370
    -1
  9
$ENDCAPS
280
     0
  9
$JOINSTYLE
280
     0
  9
$LWDISPLAY
290
     0
  9
$INSUNITS
 70
     4
  9
$HYPERLINKBASE
  1

  9
$STYLESHEET
  1

  9
$XEDIT
290
     1
  9
$CEPSNTYPE
380
     0
  9
$PSTYLEMODE
290
     1
  9
$FINGERPRINTGUID
  2
{12F50282-3ED8-11D3-A8B7-0060B0F84BC6}
  9
$VERSIONGUID
  2
{12F50293-3ED8-11D3-A8B7-0060B0F84BC6}
  9
$EXTNAMES
290
     1
  9
$PSVPSCALE
 40
0.0
  9
$OLESTARTUP
290
     0
  9
$SORTENTS
280
   127
  9
$INDEXCTL
280
     0
  9
$HIDETEXT
280
     0
  9
$XCLIPFRAME
280
     2
  9
$HALOGAP
280
     0
  9
$OBSCOLOR
 70
   257
  9
$OBSLTYPE
280
     0
  9
$INTERSECTIONDISPLAY
280
     0
  9
$INTERSECTIONCOLOR
 70
   257
  9
$DIMASSOC
280
     1
  9
$PROJECTNAME
  1

  9
$CAMERADISPLAY
290
     0
  9
$LENSLENGTH
 40
50.0
  9
$CAMERAHEIGHT
 40
0.0
  9
$STEPSPERSEC
 40
2.0
  9
$STEPSIZE
 40
6.0
  9
$3DDWFPREC
 40
2.0
  9
$PSOLWIDTH
 40
0.25
  9
$PSOLHEIGHT
 40
4.0
  9
$LOFTANG1
 40
1.570796326794896
  9
$LOFTANG2
 40
1.570796326794896
  9
$LOFTMAG1
 40
0.0
  9
$LOFTMAG2
 40
0.0
  9
$LOFTPARAM
 70
     7
  9
$LOFTNORMALS
280
     1
  9
$LATITUDE
 40
37.795
  9
$LONGITUDE
 40
-122.394
  9
$NORTHDIRECTION
 40
0.0
  9
$TIMEZONE
 70
 -8000
  9
$LIGHTGLYPHDISPLAY
280
     1
  9
$TILEMODELIGHTSYNCH
280
     1
  9
$CMATERIAL
347
AB
  9
$SOLIDHIST
280
     0
  9
$SHOWHIST
280
     1
  9
$DWFFRAME
280
     2
  9
$DGNFRAME
280
     0
  9
$REALWORLDSCALE
290
     1
  9
$INTERFERECOLOR
 62
     1
  9
$INTERFEREOBJVS
345
CD
  9
$INTERFEREVPVS
346
CA
  9
$CSHADOW
280
     0
  9
$SHADOWPLANELOCATION
 40
0.0
  0
ENDSEC
  0
SECTION
  2
CLASSES
  0
CLASS
  1
ACDBDICTIONARYWDFLT
  2
AcDbDictionaryWithDefault
  3
ObjectDBX Classes
 90
        0
 91
        1
280
     0
281
     0
  0
CLASS
  1
ACDBPLACEHOLDER
  2
AcDbPlaceHolder
  3
ObjectDBX Classes
 90
        0
 91
        2
280
     0
281
     0
  0
CLASS
  1
LAYOUT
  2
AcDbLayout
  3
ObjectDBX Classes
 90
        0
 91
        3
280
     0
281
     0
  0
CLASS
  1
MATERIAL
  2
AcDbMaterial
  3
ObjectDBX Classes
 90
     1153
 91
        3
280
     0
281
     0
  0
CLASS
  1
VISUALSTYLE
  2
AcDbVisualStyle
  3
ObjectDBX Classes
 90
     4095
 91
       24
280
     0
281
     0
  0
CLASS
  1
TABLESTYLE
  2
AcDbTableStyle
  3
ObjectDBX Classes
 90
     4095
 91
        1
280
     0
281
     0
  0
CLASS
  1
SCALE
  2
AcDbScale
  3
ObjectDBX Classes
 90
     1153
 91
       17
280
     0
281
     0
  0
CLASS
  1
MLEADERSTYLE
  2
AcDbMLeaderStyle
  3
ACDB_MLEADERSTYLE_CLASS
 90
     4095
 91
        1
280
     0
281
     0
  0
CLASS
  1
ACDBSECTIONVIEWSTYLE
  2
AcDbSectionViewStyle
  3
ObjectDBX Classes
 90
     1025
 91
        1
280
     0
281
     0
  0
CLASS
  1
ACDBDETAILVIEWSTYLE
  2
AcDbDetailViewStyle
  3
ObjectDBX Classes
 90
     1025
 91
        1
280
     0
281
     0
  0
CLASS
  1
MESH
  2
AcDbSubDMesh
  3
ObjectDBX Classes
 90
        0
 91
        1
280
     0
281
     1
  0
CLASS
  1
DICTIONARYVAR
  2
AcDbDictionaryVar
  3
ObjectDBX Classes
 90
        0
 91
        9
280
     0
281
     0
  0
CLASS
  1
CELLSTYLEMAP
  2
AcDbCellStyleMap
  3
ObjectDBX Classes
 90
     1152
 91
        1
280
     0
281
     0
  0
ENDSEC
  0
SECTION
  2
TABLES
  0
TABLE
  2
VPORT
  5
8
330
0
100
AcDbSymbolTable
 70
     1
  0
VPORT
  5
A8
330
8
100
AcDbSymbolTableRecord
100
AcDbViewportTableRecord
  2
*Active
 70
     0
 10
0.0
 20
0.0
 11
1.0
 21
1.0
 12
0.0000074178460636
 22
56.3545799255371
 13
0.0
 23
0.0
 14
0.5
 24
0.5
 15
0.5
 25
0.5
 16
-1.0
 26
-1.0
 36
1.0
 17
0.0
 27
0.0
 37
0.0
 40
1153.040210637971
 41
1.524692670432367
 42
50.0
 43
0.0
 44
0.0
 50
0.0
 51
0.0
 71
     0
 72
   100
 73
     1
 74
     3
 75
     0
 76
     0
 77
     0
 78
     0
281
     0
 65
     1
110
0.0
120
0.0
130
0.0
111
1.0
121
0.0
131
0.0
112
0.0
122
1.0
132
0.0
 79
     0
146
0.0
348
C9
 60
     3
 61
     5
292
     1
282
     1
141
0.0
142
0.0
 63
   250
421
  3355443
  0
ENDTAB
  0
TABLE
  2
LTYPE
  5
5
330
0
100
AcDbSymbolTable
 70
     1
  0
LTYPE
  5
14
330
5
100
AcDbSymbolTableRecord
100
AcDbLinetypeTableRecord
  2
ByBlock
 70
     0
  3

 72
    65
 73
     0
 40
0.0
  0
LTYPE
  5
15
330
5
100
AcDbSymbolTableRecord
100
AcDbLinetypeTableRecord
  2
ByLayer
 70
     0
  3

 72
    65
 73
     0
 40
0.0
  0
LTYPE
  5
16
330
5
100
AcDbSymbolTableRecord
100
AcDbLinetypeTableRecord
  2
Continuous
 70
     0
  3
Solid line
 72
    65
 73
     0
 40
0.0
  0
ENDTAB
  0
TABLE
  2
LAYER
  5
2
330
0
100
AcDbSymbolTable
 70
     3
  0
LAYER
  5
10
330
2
100
AcDbSymbolTableRecord
100
AcDbLayerTableRecord
  2
0
 70
     0
 62
     7
  6
Continuous
370
    -3
390
F
347
BB
  0
LAYER
  5
2B
330
2
100
AcDbSymbolTableRecord
100
AcDbLayerTableRecord
  2
ASHADE
 70
     4
 62
     7
  6
Continuous
370
    -3
390
2D
347
BB
  0
LAYER
  5
F8
330
2
100
AcDbSymbolTableRecord
100
AcDbLayerTableRecord
  2
OracDecor_skirtings
 70
     0
 62
    21
420
 14915993
  6
Continuous
370
    -3
390
F
347
BB
  0
ENDTAB
  0
TABLE
  2
STYLE
  5
3
330
0
100
AcDbSymbolTable
 70
     2
  0
STYLE
  5
11
330
3
100
AcDbSymbolTableRecord
100
AcDbTextStyleTableRecord
  2
Standard
 70
     0
 40
0.0
 41
1.0
 50
0.0
 71
     0
 42
0.2
  3
txt
  4

  0
STYLE
  5
2C
330
3
100
AcDbSymbolTableRecord
100
AcDbTextStyleTableRecord
  2
ASHADE
 70
     0
 40
0.2
 41
1.0
 50
0.0
 71
     0
 42
0.2
  3
simplex
  4

  0
ENDTAB
  0
TABLE
  2
VIEW
  5
6
330
0
100
AcDbSymbolTable
 70
     0
  0
ENDTAB
  0
TABLE
  2
UCS
  5
7
330
0
100
AcDbSymbolTable
 70
     0
  0
ENDTAB
  0
TABLE
  2
APPID
  5
9
330
0
100
AcDbSymbolTable
 70
     6
  0
APPID
  5
12
330
9
100
AcDbSymbolTableRecord
100
AcDbRegAppTableRecord
  2
ACAD
 70
     0
  0
APPID
  5
8F
330
9
100
AcDbSymbolTableRecord
100
AcDbRegAppTableRecord
  2
AVE_RENDER
 70
     0
  0
APPID
  5
90
330
9
100
AcDbSymbolTableRecord
100
AcDbRegAppTableRecord
  2
AVE_ENTITY_MATERIAL
 70
     0
  0
APPID
  5
9C
330
9
100
AcDbSymbolTableRecord
100
AcDbRegAppTableRecord
  2
AVE_FINISH
 70
     0
  0
APPID
  5
9D
330
9
100
AcDbSymbolTableRecord
100
AcDbRegAppTableRecord
  2
AVE_MATERIAL
 70
     0
  0
APPID
  5
9E
330
9
100
AcDbSymbolTableRecord
100
AcDbRegAppTableRecord
  2
AVE_GLOBAL
 70
     0
  0
ENDTAB
  0
TABLE
  2
DIMSTYLE
  5
A
330
0
100
AcDbSymbolTable
 70
     1
100
AcDbDimStyleTable
 71
     0
  0
DIMSTYLE
105
27
330
A
100
AcDbSymbolTableRecord
100
AcDbDimStyleTableRecord
  2
Standard
 70
     0
340
11
  0
ENDTAB
  0
TABLE
  2
BLOCK_RECORD
  5
1
330
0
100
AcDbSymbolTable
 70
     6
  0
BLOCK_RECORD
  5
1F
330
1
100
AcDbSymbolTableRecord
100
AcDbBlockTableRecord
  2
*Model_Space
340
22
 70
     0
280
     1
281
     0
  0
BLOCK_RECORD
  5
1B
330
1
100
AcDbSymbolTableRecord
100
AcDbBlockTableRecord
  2
*Paper_Space
340
1E
 70
     0
280
     1
281
     0
  0
BLOCK_RECORD
  5
23
330
1
100
AcDbSymbolTableRecord
100
AcDbBlockTableRecord
  2
*Paper_Space0
340
26
 70
     0
280
     1
281
     0
  0
BLOCK_RECORD
  5
2E
330
1
100
AcDbSymbolTableRecord
100
AcDbBlockTableRecord
  2
direct
340
0
 70
     0
280
     1
281
     0
  0
BLOCK_RECORD
  5
42
330
1
100
AcDbSymbolTableRecord
100
AcDbBlockTableRecord
  2
overhead
340
0
 70
     0
280
     1
281
     0
  0
BLOCK_RECORD
  5
5F
330
1
100
AcDbSymbolTableRecord
100
AcDbBlockTableRecord
  2
sh_spot
340
0
 70
     0
280
     1
281
     0
  0
BLOCK_RECORD
  5
91
330
1
100
AcDbSymbolTableRecord
100
AcDbBlockTableRecord
  2
AVE_RENDER
340
0
102
{BLKREFS
331
94
331
95
331
96
331
97
331
98
331
99
331
9A
331
9B
102
}
 70
     0
280
     1
281
     0
  0
BLOCK_RECORD
  5
9F
330
1
100
AcDbSymbolTableRecord
100
AcDbBlockTableRecord
  2
AVE_GLOBAL
340
0
102
{BLKREFS
331
A2
102
}
 70
     0
280
     1
281
     0
  0
ENDTAB
  0
ENDSEC
  0
SECTION
  2
BLOCKS
  0
BLOCK
  5
20
330
1F
100
AcDbEntity
  8
0
100
AcDbBlockBegin
  2
*Model_Space
 70
     0
 10
0.0
 20
0.0
 30
0.0
  3
*Model_Space
  1

  0
ENDBLK
  5
21
330
1F
100
AcDbEntity
  8
0
100
AcDbBlockEnd
  0
BLOCK
  5
1C
330
1B
100
AcDbEntity
 67
     1
  8
0
100
AcDbBlockBegin
  2
*Paper_Space
 70
     0
 10
0.0
 20
0.0
 30
0.0
  3
*Paper_Space
  1

  0
ENDBLK
  5
1D
330
1B
100
AcDbEntity
 67
     1
  8
0
100
AcDbBlockEnd
  0
BLOCK
  5
24
330
23
100
AcDbEntity
 67
     1
  8
0
100
AcDbBlockBegin
  2
*Paper_Space0
 70
     0
 10
0.0
 20
0.0
 30
0.0
  3
*Paper_Space0
  1

  0
ENDBLK
  5
25
330
23
100
AcDbEntity
 67
     1
  8
0
100
AcDbBlockEnd
  0
BLOCK
  5
40
330
2E
100
AcDbEntity
  8
0
100
AcDbBlockBegin
  2
direct
 70
     2
 10
0.0
 20
0.0
 30
0.0
  3
direct
  1

  0
ATTDEF
  5
2F
330
2E
100
AcDbEntity
  8
ASHADE
  6
Continuous
 62
     1
100
AcDbText
 10
0.0
 20
-0.1
 30
0.0
 40
0.2
  1

  7
ASHADE
 72
     1
 11
0.0
 21
-0.1
 31
0.0
100
AcDbAttributeDefinition
280
     0
  3
Light Name
  2
SNAME
 70
     0
280
     0
  0
ARC
  5
30
330
2E
100
AcDbEntity
  8
ASHADE
  6
Continuous
 62
     7
100
AcDbCircle
 10
0.0
 20
0.0
 30
0.0
 40
0.3
100
AcDbArc
 50
205.6792886194569
 51
334.3207113805431
  0
ARC
  5
31
330
2E
100
AcDbEntity
  8
ASHADE
  6
Continuous
 62
     7
100
AcDbCircle
 10
0.0
 20
0.0
 30
0.0
 40
0.3
100
AcDbArc
 50
25.67928861945685
 51
154.3207113805431
  0
LINE
  5
32
330
2E
100
AcDbEntity
  8
ASHADE
  6
Continuous
 62
     7
100
AcDbLine
 10
-0.21
 20
0.2142428528562855
 30
0.0
 11
-0.21
 21
0.5
 31
0.0
  0
LINE
  5
33
330
2E
100
AcDbEntity
  8
ASHADE
  6
Continuous
 62
     7
100
AcDbLine
 10
-0.11
 20
0.2791057147390572
 30
0.0
 11
-0.11
 21
0.5
 31
0.0
  0
LINE
  5
34
330
2E
100
AcDbEntity
  8
ASHADE
  6
Continuous
 62
     7
100
AcDbLine
 10
0.21
 20
0.2142428528562855
 30
0.0
 11
0.21
 21
0.5
 31
0.0
  0
ATTDEF
  5
35
330
2E
100
AcDbEntity
  8
ASHADE
  6
Continuous
 62
     7
100
AcDbText
 10
0.0
 20
0.25
 30
0.0
 40
0.01
  1

100
AcDbAttributeDefinition
280
     0
  3
Look-at Y
  2
LAY
 70
     1
280
     0
  0
ATTDEF
  5
36
330
2E
100
AcDbEntity
  8
ASHADE
  6
Continuous
 62
     7
100
AcDbText
 10
0.0
 20
0.22
 30
0.0
 40
0.01
  1
1
100
AcDbAttributeDefinition
280
     0
  3
Light Intensity
  2
INTENSITY
 70
     1
280
     0
  0
ATTDEF
  5
37
330
2E
100
AcDbEntity
  8
ASHADE
  6
Continuous
 62
     7
100
AcDbText
 10
0.0
 20
0.16
 30
0.0
 40
0.01
  1
-1
100
AcDbAttributeDefinition
280
     0
  3
*not used*
  2
BEAMD
 70
     1
280
     0
  0
ATTDEF
  5
38
330
2E
100
AcDbEntity
  8
ASHADE
  6
Continuous
 62
     7
100
AcDbText
 10
0.0
 20
0.175
 30
0.0
 40
0.01
  1
-1
100
AcDbAttributeDefinition
280
     0
  3
*not used*
  2
CONED
 70
     1
280
     0
  0
ATTDEF
  5
39
330
2E
100
AcDbEntity
  8
ASHADE
  6
Continuous
 62
     7
100
AcDbText
 10
0.0
 20
0.19
 30
0.0
 40
0.01
  1
0
100
AcDbAttributeDefinition
280
     0
  3
Depth Map Size
  2
CONEA
 70
     1
280
     0
  0
ATTDEF
  5
3A
330
2E
100
AcDbEntity
  8
ASHADE
  6
Continuous
 62
     7
100
AcDbText
 10
0.0
 20
0.2050000000000001
 30
0.0
 40
0.01
  1
1,1,1
100
AcDbAttributeDefinition
280
     0
  3
Light Color (RGB)
  2
COLOR
 70
     1
280
     0
  0
ATTDEF
  5
3B
330
2E
100
AcDbEntity
  8
ASHADE
  6
Continuous
 62
     7
100
AcDbText
 10
0.0
 20
0.235
 30
0.0
 40
0.01
  1

100
AcDbAttributeDefinition
280
     0
  3
Look-at Z
  2
LAZ
 70
     1
280
     0
  0
LINE
  5
3C
330
2E
100
AcDbEntity
  8
ASHADE
  6
Continuous
 62
     7
100
AcDbLine
 10
0.0
 20
0.3
 30
0.0
 11
0.0
 21
0.5
 31
0.0
  0
LINE
  5
3D
330
2E
100
AcDbEntity
  8
ASHADE
  6
Continuous
 62
     7
100
AcDbLine
 10
0.11
 20
0.2791057147390572
 30
0.0
 11
0.11
 21
0.5
 31
0.0
  0
ATTDEF
  5
3E
330
2E
100
AcDbEntity
  8
ASHADE
  6
Continuous
 62
     7
100
AcDbText
 10
0.0
 20
0.265
 30
0.0
 40
0.01
  1

100
AcDbAttributeDefinition
280
     0
  3
Look-at X
  2
LAX
 70
     1
280
     0
  0
ATTDEF
  5
3F
330
2E
100
AcDbEntity
  8
ASHADE
  6
Continuous
 62
     7
100
AcDbText
 10
0.0
 20
0.28
 30
0.0
 40
0.01
  1

100
AcDbAttributeDefinition
280
     0
  3

  2
GNAME
 70
     1
280
     0
  0
ENDBLK
  5
41
330
2E
100
AcDbEntity
  8
0
100
AcDbBlockEnd
  0
BLOCK
  5
5D
330
42
100
AcDbEntity
  8
0
100
AcDbBlockBegin
  2
overhead
 70
     2
 10
0.0
 20
0.0
 30
0.0
  3
overhead
  1

  0
ATTDEF
  5
43
330
42
100
AcDbEntity
  8
ASHADE
  6
Continuous
 62
     1
100
AcDbText
 10
0.0
 20
-0.1
 30
0.0
 40
0.2
  1

  7
ASHADE
 72
     1
 11
0.0
 21
-0.1
 31
0.0
100
AcDbAttributeDefinition
280
     0
  3
Light Name
  2
SNAME
 70
     0
280
     0
  0
ARC
  5
44
330
42
100
AcDbEntity
  8
ASHADE
  6
Continuous
 62
     7
100
AcDbCircle
 10
0.0
 20
0.0
 30
0.0
 40
0.3
100
AcDbArc
 50
205.6792886194569
 51
334.3207113805431
  0
LINE
  5
45
330
42
100
AcDbEntity
  8
ASHADE
  6
Continuous
 62
     7
100
AcDbLine
 10
-0.2041413561583015
 20
-0.2198324514393848
 30
0.0
 11
-0.2721884748777353
 21
-0.2931099352525131
 31
0.0
  0
LINE
  5
46
330
42
100
AcDbEntity
  8
ASHADE
  6
Continuous
 62
     7
100
AcDbLine
 10
-0.1096591641591904
 20
-0.2792398032442862
 30
0.0
 11
-0.1279356915190555
 21
-0.3257797704516673
 31
0.0
  0
LINE
  5
47
330
42
100
AcDbEntity
  8
ASHADE
  6
Continuous
 62
     7
100
AcDbLine
 10
0.0
 20
-0.2999999999999999
 30
0.0
 11
0.0
 21
-0.4
 31
0.0
  0
LINE
  5
48
330
42
100
AcDbEntity
  8
ASHADE
  6
Continuous
 62
     7
100
AcDbLine
 10
0.1096591641591904
 20
-0.2792398032442862
 30
0.0
 11
0.1279356915190555
 21
-0.3257797704516673
 31
0.0
  0
LINE
  5
49
330
42
100
AcDbEntity
  8
ASHADE
  6
Continuous
 62
     7
100
AcDbLine
 10
0.2041413561583015
 20
-0.2198324514393848
 30
0.0
 11
0.2721884748777353
 21
-0.2931099352525131
 31
0.0
  0
ARC
  5
4A
330
42
100
AcDbEntity
  8
ASHADE
  6
Continuous
 62
     7
100
AcDbCircle
 10
0.0
 20
0.0
 30
0.0
 40
0.3
100
AcDbArc
 50
25.67928861945685
 51
154.3207113805431
  0
LINE
  5
4B
330
42
100
AcDbEntity
  8
ASHADE
  6
Continuous
 62
     7
100
AcDbLine
 10
-0.2703701166919155
 20
0.13
 30
0.0
 11
-0.3154318028072347
 21
0.1516666666666666
 31
0.0
  0
LINE
  5
4C
330
42
100
AcDbEntity
  8
ASHADE
  6
Continuous
 62
     7
100
AcDbLine
 10
-0.2703701166919155
 20
-0.13
 30
0.0
 11
-0.3154318028072347
 21
-0.1516666666666666
 31
0.0
  0
LINE
  5
4D
330
42
100
AcDbEntity
  8
ASHADE
  6
Continuous
 62
     7
100
AcDbLine
 10
-0.2041413561583015
 20
0.2198324514393849
 30
0.0
 11
-0.2721884748777353
 21
0.2931099352525131
 31
0.0
  0
LINE
  5
4E
330
42
100
AcDbEntity
  8
ASHADE
  6
Continuous
 62
     7
100
AcDbLine
 10
-0.1096591641591904
 20
0.2792398032442862
 30
0.0
 11
-0.1279356915190555
 21
0.3257797704516674
 31
0.0
  0
LINE
  5
4F
330
42
100
AcDbEntity
  8
ASHADE
  6
Continuous
 62
     7
100
AcDbLine
 10
0.2703701166919155
 20
-0.13
 30
0.0
 11
0.3154318028072347
 21
-0.1516666666666666
 31
0.0
  0
LINE
  5
50
330
42
100
AcDbEntity
  8
ASHADE
  6
Continuous
 62
     7
100
AcDbLine
 10
0.2703701166919155
 20
0.13
 30
0.0
 11
0.3154318028072347
 21
0.1516666666666666
 31
0.0
  0
LINE
  5
51
330
42
100
AcDbEntity
  8
ASHADE
  6
Continuous
 62
     7
100
AcDbLine
 10
0.0
 20
0.3
 30
0.0
 11
0.0
 21
0.4
 31
0.0
  0
ATTDEF
  5
52
330
42
100
AcDbEntity
  8
ASHADE
  6
Continuous
 62
     7
100
AcDbText
 10
0.0
 20
0.22
 30
0.0
 40
0.01
  1
1
100
AcDbAttributeDefinition
280
     0
  3
Light Intensity
  2
INTENSITY
 70
     1
280
     0
  0
ATTDEF
  5
53
330
42
100
AcDbEntity
  8
ASHADE
  6
Continuous
 62
     7
100
AcDbText
 10
0.0
 20
0.16
 30
0.0
 40
0.01
  1
-1
100
AcDbAttributeDefinition
280
     0
  3
*not used*
  2
BEAMD
 70
     1
280
     0
  0
ATTDEF
  5
54
330
42
100
AcDbEntity
  8
ASHADE
  6
Continuous
 62
     7
100
AcDbText
 10
0.0
 20
0.175
 30
0.0
 40
0.01
  1
-1
100
AcDbAttributeDefinition
280
     0
  3
*not used*
  2
CONED
 70
     1
280
     0
  0
ATTDEF
  5
55
330
42
100
AcDbEntity
  8
ASHADE
  6
Continuous
 62
     7
100
AcDbText
 10
0.0
 20
0.19
 30
0.0
 40
0.01
  1
0
100
AcDbAttributeDefinition
280
     0
  3
Depth Map Size
  2
CONEA
 70
     1
280
     0
  0
ATTDEF
  5
56
330
42
100
AcDbEntity
  8
ASHADE
  6
Continuous
 62
     7
100
AcDbText
 10
0.0
 20
0.2050000000000001
 30
0.0
 40
0.01
  1
1,1,1
100
AcDbAttributeDefinition
280
     0
  3
Light Color (RGB)
  2
COLOR
 70
     1
280
     0
  0
ATTDEF
  5
57
330
42
100
AcDbEntity
  8
ASHADE
  6
Continuous
 62
     7
100
AcDbText
 10
0.0
 20
0.235
 30
0.0
 40
0.01
  1

100
AcDbAttributeDefinition
280
     0
  3
Look-at Z
  2
LAZ
 70
     1
280
     0
  0
ATTDEF
  5
58
330
42
100
AcDbEntity
  8
ASHADE
  6
Continuous
 62
     7
100
AcDbText
 10
0.0
 20
0.25
 30
0.0
 40
0.01
  1

100
AcDbAttributeDefinition
280
     0
  3
Look-at Y
  2
LAY
 70
     1
280
     0
  0
ATTDEF
  5
59
330
42
100
AcDbEntity
  8
ASHADE
  6
Continuous
 62
     7
100
AcDbText
 10
0.0
 20
0.265
 30
0.0
 40
0.01
  1

100
AcDbAttributeDefinition
280
     0
  3
Look-at X
  2
LAX
 70
     1
280
     0
  0
ATTDEF
  5
5A
330
42
100
AcDbEntity
  8
ASHADE
  6
Continuous
 62
     7
100
AcDbText
 10
0.0
 20
0.28
 30
0.0
 40
0.01
  1

100
AcDbAttributeDefinition
280
     0
  3

  2
GNAME
 70
     1
280
     0
  0
LINE
  5
5B
330
42
100
AcDbEntity
  8
ASHADE
  6
Continuous
 62
     7
100
AcDbLine
 10
0.1096591641591904
 20
0.2792398032442862
 30
0.0
 11
0.1279356915190555
 21
0.3257797704516674
 31
0.0
  0
LINE
  5
5C
330
42
100
AcDbEntity
  8
ASHADE
  6
Continuous
 62
     7
100
AcDbLine
 10
0.2041413561583015
 20
0.2198324514393849
 30
0.0
 11
0.2721884748777353
 21
0.2931099352525131
 31
0.0
  0
ENDBLK
  5
5E
330
42
100
AcDbEntity
  8
0
100
AcDbBlockEnd
  0
BLOCK
  5
85
330
5F
100
AcDbEntity
  8
0
100
AcDbBlockBegin
  2
sh_spot
 70
     2
 10
0.0
 20
0.0
 30
0.0
  3
sh_spot
  1

  0
LINE
  5
60
330
5F
100
AcDbEntity
  8
ASHADE
  6
Continuous
 62
     7
100
AcDbLine
 10
0.25
 20
0.26
 30
0.0
 11
-0.25
 21
0.26
 31
0.0
  0
LINE
  5
61
330
5F
100
AcDbEntity
  8
ASHADE
  6
Continuous
 62
     7
100
AcDbLine
 10
-0.25
 20
-0.3399999999999999
 30
0.0
 11
0.25
 21
-0.3399999999999999
 31
0.0
  0
ATTDEF
  5
62
330
5F
100
AcDbEntity
  8
ASHADE
  6
Continuous
 62
     1
100
AcDbText
 10
0.0
 20
-0.1
 30
0.0
 40
0.2
  1

  7
ASHADE
 72
     1
 11
0.0
 21
-0.1
 31
0.0
100
AcDbAttributeDefinition
280
     0
  3
Light Name
  2
SNAME
 70
     0
280
     0
  0
LINE
  5
63
330
5F
100
AcDbEntity
  8
ASHADE
  6
Continuous
 62
     7
100
AcDbLine
 10
-0.25
 20
-0.13
 30
0.0
 11
-0.25
 21
-0.3399999999999999
 31
0.0
  0
LINE
  5
64
330
5F
100
AcDbEntity
  8
ASHADE
  6
Continuous
 62
     7
100
AcDbLine
 10
-0.25
 20
-0.18
 30
0.0
 11
-0.29
 21
-0.18
 31
0.0
  0
LINE
  5
65
330
5F
100
AcDbEntity
  8
ASHADE
  6
Continuous
 62
     7
100
AcDbLine
 10
-0.29
 20
-0.22
 30
0.0
 11
-0.25
 21
-0.22
 31
0.0
  0
LINE
  5
66
330
5F
100
AcDbEntity
  8
ASHADE
  6
Continuous
 62
     7
100
AcDbLine
 10
-0.29
 20
-0.18
 30
0.0
 11
-0.29
 21
-0.22
 31
0.0
  0
LINE
  5
67
330
5F
100
AcDbEntity
  8
ASHADE
  6
Continuous
 62
     7
100
AcDbLine
 10
-0.1045454545454545
 20
0.26
 30
0.0
 11
-0.15
 21
0.46
 31
0.0
  0
LINE
  5
68
330
5F
100
AcDbEntity
  8
ASHADE
  6
Continuous
 62
     7
100
AcDbLine
 10
-0.21
 20
0.26
 30
0.0
 11
-0.301304347826087
 21
0.46
 31
0.0
  0
LINE
  5
69
330
5F
100
AcDbEntity
  8
ASHADE
  6
Continuous
 62
     7
100
AcDbLine
 10
-0.25
 20
0.26
 30
0.0
 11
-0.25
 21
0.13
 31
0.0
  0
LINE
  5
6A
330
5F
100
AcDbEntity
  8
ASHADE
  6
Continuous
 62
     7
100
AcDbLine
 10
-0.25
 20
0.22
 30
0.0
 11
-0.29
 21
0.22
 31
0.0
  0
LINE
  5
6B
330
5F
100
AcDbEntity
  8
ASHADE
  6
Continuous
 62
     7
100
AcDbLine
 10
-0.29
 20
0.1799999999999999
 30
0.0
 11
-0.25
 21
0.1799999999999999
 31
0.0
  0
LINE
  5
6C
330
5F
100
AcDbEntity
  8
ASHADE
  6
Continuous
 62
     7
100
AcDbLine
 10
-0.29
 20
0.22
 30
0.0
 11
-0.29
 21
0.1799999999999999
 31
0.0
  0
ATTDEF
  5
6D
330
5F
100
AcDbEntity
  8
ASHADE
  6
Continuous
 62
     7
100
AcDbText
 10
0.0
 20
-0.24
 30
0.0
 40
0.01
  1
0
100
AcDbAttributeDefinition
280
     0
  3
Depth Map Size
  2
ZSIZE
 70
     1
280
     0
  0
ATTDEF
  5
6E
330
5F
100
AcDbEntity
  8
ASHADE
  6
Continuous
 62
     7
100
AcDbText
 10
0.0
 20
-0.3300000000000001
 30
0.0
 40
0.01
  1
0,0,0
100
AcDbAttributeDefinition
280
     0
  3
Look-from XYZ
  2
LFXYZ
 70
     1
280
     0
  0
ATTDEF
  5
6F
330
5F
100
AcDbEntity
  8
ASHADE
  6
Continuous
 62
     7
100
AcDbText
 10
0.0
 20
-0.315
 30
0.0
 40
0.01
  1
0.0
100
AcDbAttributeDefinition
280
     0
  3
Beam Distribution
  2
BEAMDI
 70
     1
280
     0
  0
ATTDEF
  5
70
330
5F
100
AcDbEntity
  8
ASHADE
  6
Continuous
 62
     7
100
AcDbText
 10
0.0
 20
-0.3
 30
0.0
 40
0.01
  1
0.0
100
AcDbAttributeDefinition
280
     0
  3
Cone Delta
  2
CONEDE
 70
     1
280
     0
  0
ATTDEF
  5
71
330
5F
100
AcDbEntity
  8
ASHADE
  6
Continuous
 62
     7
100
AcDbText
 10
0.0
 20
-0.2850000000000001
 30
0.0
 40
0.01
  1
10.0
100
AcDbAttributeDefinition
280
     0
  3
Cone Angle
  2
CONEAN
 70
     1
280
     0
  0
ATTDEF
  5
72
330
5F
100
AcDbEntity
  8
ASHADE
  6
Continuous
 62
     7
100
AcDbText
 10
0.0
 20
-0.27
 30
0.0
 40
0.01
  1
-1
100
AcDbAttributeDefinition
280
     0
  3
*not used*
  2
BIASMAX
 70
     1
280
     0
  0
ATTDEF
  5
73
330
5F
100
AcDbEntity
  8
ASHADE
  6
Continuous
 62
     7
100
AcDbText
 10
0.0
 20
-0.255
 30
0.0
 40
0.01
  1
-1
100
AcDbAttributeDefinition
280
     0
  3
*not used*
  2
BIASMIN
 70
     1
280
     0
  0
ATTDEF
  5
74
330
5F
100
AcDbEntity
  8
ASHADE
  6
Continuous
 62
     7
100
AcDbText
 10
0.0
 20
-0.225
 30
0.0
 40
0.01
  1
1,1,1
100
AcDbAttributeDefinition
280
     0
  3
Light Color (RGB)
  2
COLOR
 70
     1
280
     0
  0
ATTDEF
  5
75
330
5F
100
AcDbEntity
  8
ASHADE
  6
Continuous
 62
     7
100
AcDbText
 10
0.0
 20
-0.21
 30
0.0
 40
0.01
  1
1
100
AcDbAttributeDefinition
280
     0
  3
Light Intensity
  2
INTENSITY
 70
     1
280
     0
  0
ATTDEF
  5
76
330
5F
100
AcDbEntity
  8
ASHADE
  6
Continuous
 62
     7
100
AcDbText
 10
0.0
 20
-0.15
 30
0.0
 40
0.01
  1

100
AcDbAttributeDefinition
280
     0
  3

  2
GNAME
 70
     1
280
     0
  0
ATTDEF
  5
77
330
5F
100
AcDbEntity
  8
ASHADE
  6
Continuous
 62
     7
100
AcDbText
 10
0.0
 20
-0.195
 30
0.0
 40
0.01
  1

100
AcDbAttributeDefinition
280
     0
  3
Look-at Z
  2
LAZ
 70
     1
280
     0
  0
ATTDEF
  5
78
330
5F
100
AcDbEntity
  8
ASHADE
  6
Continuous
 62
     7
100
AcDbText
 10
0.0
 20
-0.18
 30
0.0
 40
0.01
  1

100
AcDbAttributeDefinition
280
     0
  3
Look-at Y
  2
LAY
 70
     1
280
     0
  0
ATTDEF
  5
79
330
5F
100
AcDbEntity
  8
ASHADE
  6
Continuous
 62
     7
100
AcDbText
 10
0.0
 20
-0.165
 30
0.0
 40
0.01
  1

100
AcDbAttributeDefinition
280
     0
  3
Look-at X
  2
LAX
 70
     1
280
     0
  0
LINE
  5
7A
330
5F
100
AcDbEntity
  8
ASHADE
  6
Continuous
 62
     7
100
AcDbLine
 10
0.25
 20
-0.3399999999999999
 30
0.0
 11
0.25
 21
-0.13
 31
0.0
  0
LINE
  5
7B
330
5F
100
AcDbEntity
  8
ASHADE
  6
Continuous
 62
     7
100
AcDbLine
 10
0.25
 20
-0.18
 30
0.0
 11
0.29
 21
-0.18
 31
0.0
  0
LINE
  5
7C
330
5F
100
AcDbEntity
  8
ASHADE
  6
Continuous
 62
     7
100
AcDbLine
 10
0.29
 20
-0.22
 30
0.0
 11
0.25
 21
-0.22
 31
0.0
  0
LINE
  5
7D
330
5F
100
AcDbEntity
  8
ASHADE
  6
Continuous
 62
     7
100
AcDbLine
 10
0.29
 20
-0.18
 30
0.0
 11
0.29
 21
-0.22
 31
0.0
  0
LINE
  5
7E
330
5F
100
AcDbEntity
  8
ASHADE
  6
Continuous
 62
     7
100
AcDbLine
 10
0.21
 20
0.26
 30
0.0
 11
0.301304347826087
 21
0.46
 31
0.0
  0
LINE
  5
7F
330
5F
100
AcDbEntity
  8
ASHADE
  6
Continuous
 62
     7
100
AcDbLine
 10
0.1045454545454545
 20
0.26
 30
0.0
 11
0.15
 21
0.46
 31
0.0
  0
LINE
  5
80
330
5F
100
AcDbEntity
  8
ASHADE
  6
Continuous
 62
     7
100
AcDbLine
 10
0.0
 20
0.26
 30
0.0
 11
0.0
 21
0.46
 31
0.0
  0
LINE
  5
81
330
5F
100
AcDbEntity
  8
ASHADE
  6
Continuous
 62
     7
100
AcDbLine
 10
0.25
 20
0.13
 30
0.0
 11
0.25
 21
0.26
 31
0.0
  0
LINE
  5
82
330
5F
100
AcDbEntity
  8
ASHADE
  6
Continuous
 62
     7
100
AcDbLine
 10
0.25
 20
0.22
 30
0.0
 11
0.29
 21
0.22
 31
0.0
  0
LINE
  5
83
330
5F
100
AcDbEntity
  8
ASHADE
  6
Continuous
 62
     7
100
AcDbLine
 10
0.29
 20
0.1799999999999999
 30
0.0
 11
0.25
 21
0.1799999999999999
 31
0.0
  0
LINE
  5
84
330
5F
100
AcDbEntity
  8
ASHADE
  6
Continuous
 62
     7
100
AcDbLine
 10
0.29
 20
0.22
 30
0.0
 11
0.29
 21
0.1799999999999999
 31
0.0
  0
ENDBLK
  5
86
330
5F
100
AcDbEntity
  8
0
100
AcDbBlockEnd
  0
BLOCK
  5
92
330
91
100
AcDbEntity
  8
ASHADE
100
AcDbBlockBegin
  2
AVE_RENDER
 70
     0
 10
0.0
 20
0.0
 30
0.0
  3
AVE_RENDER
  1
AVE_RENDER
  0
ENDBLK
  5
93
330
91
100
AcDbEntity
  8
0
100
AcDbBlockEnd
  0
BLOCK
  5
A0
330
9F
100
AcDbEntity
  8
ASHADE
100
AcDbBlockBegin
  2
AVE_GLOBAL
 70
     0
 10
0.0
 20
0.0
 30
0.0
  3
AVE_GLOBAL
  1
AVE_GLOBAL
  0
ENDBLK
  5
A1
330
9F
100
AcDbEntity
  8
0
100
AcDbBlockEnd
  0
ENDSEC
  0
SECTION
  2
ENTITIES
  0
INSERT
  5
94
330
1F
100
AcDbEntity
  8
ASHADE
 62
     1
100
AcDbBlockReference
  2
AVE_RENDER
 10
0.0
 20
0.0
 30
0.0
1001
AVE_RENDER
1002
{
1070
     7
1000
Pref
1070
    30
1070
    20
1070
     1
1070
     0
1000

1070
    10
1070
     1
1070
    10
1040
1.0
1070
     1
1040
0.3
1040
0.7
1040
0.0
1040
10.0
1010
-1.0
1020
-1.0
1030
-1.0
1040
0.3
1070
    49
1070
     0
1070
     0
1010
1.0
1020
1.0
1030
1.0
1040
45.0
1070
     1
1070
     0
1000
WCS
1040
0.0
1070
     0
1040
10.0
1002
}
  0
INSERT
  5
95
330
1F
100
AcDbEntity
  8
ASHADE
 62
     3
100
AcDbBlockReference
  2
AVE_RENDER
 10
0.0
 20
0.0
 30
0.0
1001
AVE_RENDER
1002
{
1070
     0
1000
Full Opt
1070
     0
1070
     1
1070
     1
1070
     1
1070
     0
1070
     0
1070
     0
1070
     1
1070
     1
1040
0.0001
1040
0.0001
1002
}
  0
INSERT
  5
96
330
1F
100
AcDbEntity
  8
ASHADE
 62
     4
100
AcDbBlockReference
  2
AVE_RENDER
 10
0.0
 20
0.0
 30
0.0
1001
AVE_RENDER
1002
{
1070
     0
1000
Quick Opt
1070
     0
1070
     1
1070
     1
1070
     1
1070
     0
1070
     0
1070
     1
1002
}
  0
INSERT
  5
97
330
1F
100
AcDbEntity
  8
ASHADE
 62
     5
100
AcDbBlockReference
  2
AVE_RENDER
 10
0.0
 20
0.0
 30
0.0
1001
AVE_RENDER
1002
{
1070
     1
1000
Scanl Opt
1070
     2
1070
     0
1070
     2
1040
2.0
1040
4.0
1070
     0
1070
     1
1070
     0
1040
0.03
1002
}
  0
INSERT
  5
98
330
1F
100
AcDbEntity
  8
ASHADE
 62
     6
100
AcDbBlockReference
  2
AVE_RENDER
 10
0.0
 20
0.0
 30
0.0
1001
AVE_RENDER
1002
{
1070
     2
1000
Raytr Opt
1070
     2
1070
     0
1070
     2
1040
2.0
1040
4.0
1070
     0
1070
     1
1070
     1
1040
0.03
1070
     3
1040
0.03
1002
}
  0
INSERT
  5
99
330
1F
100
AcDbEntity
  8
ASHADE
 62
     7
100
AcDbBlockReference
  2
AVE_RENDER
 10
0.0
 20
0.0
 30
0.0
1001
AVE_RENDER
1002
{
1070
     0
1000
RFile Opt
1070
     1
1070
   640
1070
   480
1070
 10000
1070
     1
1070
     8
1070
     8
1070
     0
1070
     0
1070
     0
1070
     0
1070
     0
1070
     0
1070
     0
1002
}
  0
INSERT
  5
9A
330
1F
100
AcDbEntity
  8
ASHADE
 62
     8
100
AcDbBlockReference
  2
AVE_RENDER
 10
0.0
 20
0.0
 30
0.0
1001
AVE_RENDER
1002
{
1070
     0
1000
Fog Opt
1070
     0
1070
     0
1040
0.0
1040
1.0
1040
0.0
1040
1.0
1010
0.5
1020
0.5
1030
0.5
1002
}
  0
INSERT
  5
9B
330
1F
100
AcDbEntity
  8
ASHADE
 62
     9
100
AcDbBlockReference
  2
AVE_RENDER
 10
0.0
 20
0.0
 30
0.0
1001
AVE_RENDER
1002
{
1070
     0
1000
BG Opt
1070
     0
1070
     1
1010
0.0
1020
0.0
1030
0.0
1010
1.0
1020
0.0
1030
0.0
1010
0.0
1020
1.0
1030
0.0
1010
0.0
1020
0.0
1030
1.0
1040
0.5
1040
0.33
1040
0.0
1000

1070
     1
1000

1070
     1
1070
     1
1040
1.0
1040
1.0
1040
0.0
1040
0.0
1070
     0
1002
}
  0
INSERT
  5
A2
330
1F
100
AcDbEntity
  8
ASHADE
 62
     1
100
AcDbBlockReference
  2
AVE_GLOBAL
 10
0.0
 20
0.0
 30
0.0
1001
AVE_MATERIAL
1002
{
1000
*GLOBAL*
1000
2
1000
Global finish.
1002
{
1002
}
1002
{
1070
    63
1002
{
1002
{
1010
-1.0
1020
-1.0
1030
-1.0
1002
}
1040
0.1000000014901161
1000

1040
0.0
1002
{
1002
}
1040
0.0
1002
{
1002
}
1040
0.0
1002
}
1002
{
1002
{
1010
-1.0
1020
-1.0
1030
-1.0
1002
}
1040
0.6999999880790711
1000

1040
0.0
1002
{
1002
}
1040
0.0
1002
{
1002
}
1040
0.0
1002
}
1002
{
1002
{
1010
-1.0
1020
-1.0
1030
-1.0
1002
}
1040
0.2000000029802322
1000

1040
0.0
1002
{
1002
}
1040
0.0
1002
{
1002
}
1040
0.0
1002
}
1002
{
1070
     0
1002
{
1070
     1
1002
{
1040
1.0
1040
1.0
1000

1040
0.0
1002
{
1002
}
1040
0.0
1002
{
1002
}
1040
0.0
1002
}
1002
}
1040
1.0
1040
0.0
1040
0.0
1002
}
1002
{
1040
1.0
1040
1.0
1000

1040
0.0
1002
{
1002
}
1040
0.0
1002
{
1002
}
1040
0.0
1002
}
1002
{
1040
0.5
1040
1.0
1000

1040
0.0
1002
{
1002
}
1040
0.0
1002
{
1002
}
1040
0.0
1002
}
1002
{
1070
     0
1040
0.0
1002
{
1002
}
1040
1.0
1002
{
1002
}
1040
0.0
1002
}
1002
{
1040
0.0
1002
{
1002
{
1010
0.0
1020
0.0
1030
0.0
1002
}
1040
1.0
1000

1040
0.0
1002
{
1002
}
1040
0.0
1002
{
1002
}
1040
0.0
1002
}
1002
}
1002
{
1002
{
1070
     1
1002
{
1040
0.0
1040
1.0
1000

1040
0.0
1002
{
1002
}
1040
0.0
1002
{
1002
}
1040
0.0
1002
}
1002
}
1040
0.0
1002
{
1002
}
1010
1.0
1020
0.0
1030
0.0
1010
0.0
1020
1.0
1030
0.0
1010
0.0
1020
0.0
1030
1.0
1070
     0
1002
}
1002
{
1002
{
1040
1.0
1040
1.0
1002
{
1070
     1
1002
{
1040
1.0
1040
1.0
1000

1040
0.0
1002
{
1002
}
1040
0.0
1002
{
1002
}
1040
0.0
1002
}
1002
}
1002
}
1070
     0
1040
0.0
1002
{
1002
}
1002
}
1002
{
1002
}
1002
}
1002
{
1071
        3
1070
     3
1070
     0
1002
{
1070
     2
1070
     0
1070
     0
1040
0.0
1002
}
1070
     0
1070
     2
1002
{
1002
}
1002
}
1002
{
1040
8030.0
1040
190.3000030517578
1040
0.3050000071525574
1040
228.0
1040
545.0
1040
14.0
1040
17.39999961853027
1040
0.4560000002384186
1002
}
1002
}
  0
MESH
  5
F9
330
1F
100
AcDbEntity
  8
OracDecor_skirtings
 62
    76
420
  4032262
160
             32624
310
707F00008A0300000C00000013000000020000003C00000006000000020000000000002000408F40000000E02D001CC0000000E0882050400000002000408F40000000002E001CC0000000E09CCD4C400C000000130000000A0000003C00000006000000020000000000002000408F40000000C094BB1BC0000000602AED4C
310
400000002000408F40000000002E001CC0000000E09CCD4C400C00000013000000120000003C00000006000000020000000000002000408F40000000E094BB1BC000000020C21050400000002000408F40000000C094BB1BC0000000602AED4C400C000000130000001A0000003C0000000600000002000000000000200040
310
8F40000000E02D001CC0000000E0882050400000002000408F40000000E094BB1BC000000020C21050400C00000013000000220000003C00000006000000020000000000002000408F4000000000170026C000000000000000000000002000408F400000008016002EC000000000000000000C000000130000002A0000003C
310
00000006000000020000000000002000408F4000000000E2EB1DC00000000053FB22400000002000408F4000000000170026C000000000000000000C00000013000000320000003C00000006000000020000000000002000408F4000000000E2EB1DC00000000053FB22400000002000408F400000008016002EC000000000
310
000000000C000000130000003A0000003C00000006000000020000000000002000408F40000000E02D001CC000000080DF9637400000002000408F4000000000E2EB1DC00000000053FB22400C00000013000000420000003C00000006000000020000000000002000408F40000000E02D001CC000000080DF963740000000
310
2000408F400000008016002EC000000000000000000C000000130000004A0000003C00000006000000020000000000002000408F4000000000B1381CC0000000002F5624400000002000408F4000000000E2EB1DC00000000053FB22400C00000013000000520000003C00000006000000020000000000002000408F400000
310
00E047641BC000000080AED536400000002000408F4000000000B1381CC0000000002F5624400C000000130000005A0000003C00000006000000020000000000002000408F40000000E02D001CC000000080DF9637400000002000408F40000000E047641BC000000080AED536400C00000013000000620000003C00000006
310
000000020000000000002000408F4000000000B67FE8BF00000080836B30400000002000408F40000000E0716816C0000000003D9225400C000000130000006A0000003C00000006000000020000000000002000408F4000000000B67FE8BF00000080CB1C31400000002000408F4000000000B67FE8BF00000080836B3040
310
0C00000013000000720000003C00000006000000020000000000002000408F40000000C02D0014C0000000800A9E35400000002000408F4000000000B67FE8BF00000080CB1C31400C000000130000007A0000003C00000006000000020000000000002000408F40000000C02D0014C0000000800A9E35400000002000408F
310
40000000E0716816C0000000003D9225400C00000013000000820000003C00000006000000020000000000002000408F40000000E0716816C0000000003D9225400000002000408F40000000C0AE9219C000000000DD3F25400C000000130000008A0000003C00000006000000020000000000002000408F40000000A0EC0F
310
17C00000008078C435400000002000408F40000000C02D0014C0000000800A9E35400C00000013000000920000003C00000006000000020000000000002000408F40000000A0EC0F17C00000008078C435400000002000408F40000000C0AE9219C000000000DD3F25400C000000130000009A0000003C0000000600000002
310
0000000000002000408F40000000C0AE9219C000000000DD3F25400000002000408F4000000000B1381CC0000000002F5624400C00000013000000A20000003C00000006000000020000000000002000408F400000004055A819C000000080E73136400000002000408F40000000A0EC0F17C00000008078C435400C000000
310
13000000AA0000003C00000006000000020000000000002000408F400000004055A819C000000080E73136400000002000408F4000000000B1381CC0000000002F5624400C00000013000000B20000003C00000006000000020000000000002000408F40000000E047641BC000000080AED536400000002000408F40000000
310
4055A819C000000080E73136400C00000013000000BA0000003C00000006000000020000000000002000408F4000000000004027BF00000080EF3D32400000002000408F4000000000D0CBDFBF0000008094C031400C00000013000000C20000003C00000006000000020000000000002000408F400000000000F026BF0000
310
0080D51F35400000002000408F4000000000004027BF00000080EF3D32400C00000013000000CA0000003C00000006000000020000000000002000408F40000000006831B1BF00000080EF5E35400000002000408F400000000000F026BF00000080D51F35400C00000013000000D20000003C000000060000000200000000
310
00002000408F40000000006831B1BF00000080EF5E35400000002000408F4000000000D0CBDFBF0000008094C031400C00000013000000DA0000003C00000006000000020000000000002000408F4000000000F202D0BF00000080228D35400000002000408F4000000000D0CBDFBF0000008094C031400C00000013000000
310
E20000003C00000006000000020000000000002000408F40000000006F01E0BF000000800A9E35400000002000408F4000000000F202D0BF00000080228D35400C00000013000000EA0000003C00000006000000020000000000002000408F40000000006F01E0BF000000800A9E35400000002000408F4000000000D0CBDF
310
BF0000008094C031400C00000013000000F20000003C00000006000000020000000000002000408F4000000000D0CBDFBF0000008094C031400000002000408F4000000000B67FE8BF00000080CB1C31400C00000013000000FA0000003C00000006000000020000000000002000408F40000000C02D0014C0000000800A9E
310
35400000002000408F40000000006F01E0BF000000800A9E35400C00000013000000020100003C00000006000000020000000000002000408F40000000006F01E0BF000000003D9225400000002000408F40000000E0716816C0000000003D9225400C000000130000000A0100003C00000006000000020000000000002000
310
408F4000000000C6CBDFBF00000000758F2F400000002000408F40000000006F01E0BF000000003D9225400C00000013000000120100003C00000006000000020000000000002000408F4000000000B67FE8BF00000080836B30400000002000408F4000000000C6CBDFBF00000000758F2F400C000000130000001A010000
310
3C00000006000000020000000000002000408F4000000000F202D0BF000000000EB425400000002000408F40000000006F01E0BF000000003D9225400C00000013000000220100003C00000006000000020000000000002000408F4000000000C6CBDFBF00000000758F2F400000002000408F4000000000F202D0BF000000
310
000EB425400C000000130000002A0100003C00000006000000020000000000002000408F40000000006831B1BF00000000731026400000002000408F4000000000F202D0BF000000000EB425400C00000013000000320100003C00000006000000020000000000002000408F4000000000C6CBDFBF00000000758F2F400000
310
002000408F40000000006831B1BF00000000731026400C000000130000003A0100003C00000006000000020000000000002000408F400000000000F026BF00000000A78E26400000002000408F40000000006831B1BF00000000731026400C00000013000000420100003C00000006000000020000000000002000408F4000
310
00000000F026BF00000000BF942E400000002000408F400000000000F026BF00000000A78E26400C000000130000004A0100003C00000006000000020000000000002000408F4000000000C6CBDFBF00000000758F2F400000002000408F400000000000F026BF00000000BF942E400C00000013000000520100003C000000
310
06000000020000000000002000408F4000000000F202D0BF00000080228D35400000002000408F40000000006831B1BF00000080EF5E35400C000000130000005A0100003C00000006000000020000000000002000408F400000008016002EC000000000000000000000002000408F40000000C016002EC0000000E0006758
310
400C00000013000000620100003C00000006000000020000000000002000408F40000000002E001CC0000000E09CCD4C400000002000408F40000000E02D001CC000000080DF9637400C000000130000006A0100003C00000006000000020000000000002000408F40000000002E001CC0000000E09CCD4C40000000200040
310
8F40000000C016002EC0000000E0006758400C00000013000000720100003C00000006000000020000000000002000408F40000000E02D001CC0000000E0882050400000002000408F40000000402E001CC00000008008B057400C000000130000007A0100003C00000006000000020000000000002000408F40000000C016
310
002EC0000000E0006758400000002000408F40000000402E001CC00000008008B057400C00000013000000820100003C00000006000000020000000000002000408F40000000E02D001CC0000000E0882050400000002000408F40000000C016002EC0000000E0006758400C000000130000008A0100003C00000006000000
310
020000000000002000408F40000000002F001BC00000002043044D400000002000408F40000000C094BB1BC0000000602AED4C400C00000013000000920100003C00000006000000020000000000002000408F40000000E02E001BC0000000C0350550400000002000408F40000000002F001BC00000002043044D400C0000
310
00130000009A0100003C00000006000000020000000000002000408F40000000E094BB1BC000000020C21050400000002000408F40000000E02E001BC0000000C0350550400C00000013000000A20100003C00000006000000020000000000002000408F40000000C02D001AC000000080B70C4D400000002000408F400000
310
00002F001BC00000002043044D400C00000013000000AA0100003C00000006000000020000000000002000408F40000000C02D001AC000000080FB0050400000002000408F40000000C02D001AC000000080B70C4D400C00000013000000B20100003C00000006000000020000000000002000408F40000000E02E001BC000
310
0000C0350550400000002000408F40000000C02D001AC000000080FB0050400C00000013000000BA0100003C00000006000000020000000000002000408F4000000080B700F0BF00000080B70C4D400000002000408F40000000C02D001AC000000080B70C4D400C00000013000000C20100003C0000000600000002000000
310
0000002000408F4000000080B700F0BF00000080FB0050400000002000408F4000000080B700F0BF00000080B70C4D400C00000013000000CA0100003C00000006000000020000000000002000408F40000000C02D001AC000000080FB0050400000002000408F4000000080B700F0BF00000080FB0050400C000000130000
310
00D20100003C00000006000000020000000000002000408F40000000006701E8BF000000E02B154D400000002000408F4000000080B700F0BF00000080B70C4D400C00000013000000DA0100003C00000006000000020000000000002000408F40000000006801E8BF0000008082F94F400000002000408F40000000006701
310
E8BF000000E02B154D400C00000013000000E20100003C00000006000000020000000000002000408F4000000080B700F0BF00000080FB0050400000002000408F40000000006801E8BF0000008082F94F400C00000013000000EA0100003C00000006000000020000000000002000408F40000000003726E2BF000000C044
310
2C4D400000002000408F40000000006701E8BF000000E02B154D400C00000013000000F20100003C00000006000000020000000000002000408F40000000003826E2BF000000C069E24F400000002000408F40000000003726E2BF000000C0442C4D400C00000013000000FA0100003C000000060000000200000000000020
310
00408F40000000006801E8BF0000008082F94F400000002000408F40000000003826E2BF000000C069E24F400C00000013000000020200003C00000006000000020000000000002000408F40000000006F01E0BF00000020D24B4D400000002000408F40000000003726E2BF000000C0442C4D400C000000130000000A0200
310
003C00000006000000020000000000002000408F40000000007001E0BF00000060DCC24F400000002000408F40000000006F01E0BF00000020D24B4D400C00000013000000120200003C00000006000000020000000000002000408F40000000003826E2BF000000C069E24F400000002000408F40000000007001E0BF0000
310
0060DCC24F400C000000130000001A0200003C00000006000000020000000000002000408F40000000C048641BC0000000C054E057400000002000408F40000000402E001CC00000008008B057400C00000013000000220200003C00000006000000020000000000002000408F40000000402B8B2DC00000002073AF584000
310
00002000408F40000000C048641BC0000000C054E057400C000000130000002A0200003C00000006000000020000000000002000408F40000000C016002EC0000000E0006758400000002000408F40000000402B8B2DC00000002073AF58400C00000013000000320200003C00000006000000020000000000002000408F40
310
0000008055A819C0000000A0460958400000002000408F40000000C048641BC0000000C054E057400C000000130000003A0200003C00000006000000020000000000002000408F40000000C0343E2CC0000000E0DDEC58400000002000408F400000008055A819C0000000A0460958400C00000013000000420200003C0000
310
0006000000020000000000002000408F40000000402B8B2DC00000002073AF58400000002000408F40000000C0343E2CC0000000E0DDEC58400C000000130000004A0200003C00000006000000020000000000002000408F40000000801860F1BF00000060855959400000002000408F400000008055A819C0000000A04609
310
58400C00000013000000520200003C00000006000000020000000000002000408F4000000020F1C521C0000000A035375A400000002000408F40000000801860F1BF00000060855959400C000000130000005A0200003C00000006000000020000000000002000408F40000000C0343E2CC0000000E0DDEC58400000002000
310
408F4000000020F1C521C0000000A035375A400C00000013000000620200003C00000006000000020000000000002000408F40000000009BE0E4BF00000040778259400000002000408F40000000801860F1BF00000060855959400C000000130000006A0200003C00000006000000020000000000002000408F4000000020
310
882D20C000000020237F5A400000002000408F40000000009BE0E4BF00000040778259400C00000013000000720200003C00000006000000020000000000002000408F4000000020F1C521C0000000A035375A400000002000408F4000000020882D20C000000020237F5A400C000000130000007A0200003C000000060000
310
00020000000000002000408F40000000006F01E0BF00000060C3B259400000002000408F40000000009BE0E4BF00000040778259400C00000013000000820200003C00000006000000020000000000002000408F40000000C069EB1EC000000060F4D35A400000002000408F40000000006F01E0BF00000060C3B259400C00
310
0000130000008A0200003C00000006000000020000000000002000408F4000000020882D20C000000020237F5A400000002000408F40000000C069EB1EC000000060F4D35A400C00000013000000920200003C00000006000000020000000000002000408F40000000007401E0BF0000006070A15C400000002000408F4000
310
0000006F01E0BF00000060C3B259400C000000130000009A0200003C00000006000000020000000000002000408F40000000E067691FC0000000E0662B5B400000002000408F40000000007401E0BF0000006070A15C400C00000013000000A20200003C00000006000000020000000000002000408F40000000C069EB1EC0
310
00000060F4D35A400000002000408F40000000E067691FC0000000E0662B5B400C00000013000000AA0200003C00000006000000020000000000002000408F4000000000F272E4BF000000E0A4CF5C400000002000408F40000000007401E0BF0000006070A15C400C00000013000000B20200003C00000006000000020000
310
000000002000408F40000000E067691FC0000000E0662B5B400000002000408F4000000000F272E4BF000000E0A4CF5C400C00000013000000BA0200003C00000006000000020000000000002000408F4000000080CC94F0BF000000606FF75C400000002000408F4000000000F272E4BF000000E0A4CF5C400C0000001300
310
0000C20200003C00000006000000020000000000002000408F4000000080E6E220C0000000A0E67A5B400000002000408F4000000080CC94F0BF000000606FF75C400C00000013000000CA0200003C00000006000000020000000000002000408F40000000E067691FC0000000E0662B5B400000002000408F4000000080E6
310
E220C0000000A0E67A5B400C00000013000000D20200003C00000006000000020000000000002000408F4000000080CC94F0BF000000606FF75C400000002000408F4000000080B930FABF000000C048135D400C00000013000000DA0200003C00000006000000020000000000002000408F4000000080E6E220C0000000A0
310
E67A5B400000002000408F4000000080B930FABF000000C048135D400C00000013000000E20200003C00000006000000020000000000002000408F4000000040CADB02C000000000531F5D400000002000408F4000000080B930FABF000000C048135D400C00000013000000EA0200003C0000000600000002000000000000
310
2000408F40000000C0BDDB22C0000000A0D5B85B400000002000408F4000000040CADB02C000000000531F5D400C00000013000000F20200003C00000006000000020000000000002000408F4000000080E6E220C0000000A0E67A5B400000002000408F40000000C0BDDB22C0000000A0D5B85B400C00000013000000FA02
310
00003C00000006000000020000000000002000408F40000000E0B08F09C0000000609B285D400000002000408F4000000040CADB02C000000000531F5D400C00000013000000020300003C00000006000000020000000000002000408F40000000C0BDDB22C0000000A0D5B85B400000002000408F40000000E0B08F09C000
310
0000609B285D400C000000130000000A0300003C00000006000000020000000000002000408F400000000066D211C0000000E03B485D400000002000408F40000000E0B08F09C0000000609B285D400C00000013000000120300003C00000006000000020000000000002000408F400000000066D211C0000000E03B485D40
310
0000002000408F4000000080B6B726C0000000A088285C400C000000130000001A0300003C00000006000000020000000000002000408F40000000C0BDDB22C0000000A0D5B85B400000002000408F4000000080B6B726C0000000A088285C400C00000013000000220300003C00000006000000020000000000002000408F
310
40000000C0DE2216C000000040207C5D400000002000408F400000000066D211C0000000E03B485D400C000000130000002A0300003C00000006000000020000000000002000408F40000000C0DE2216C000000040207C5D400000002000408F4000000080B6B726C0000000A088285C400C00000013000000320300003C00
310
000006000000020000000000002000408F4000000040836719C00000004071C05D400000002000408F40000000C0DE2216C000000040207C5D400C000000130000003A0300003C00000006000000020000000000002000408F400000000029E428C0000000E0EA7A5C400000002000408F4000000040836719C00000004071
310
C05D400C00000013000000420300003C00000006000000020000000000002000408F400000000029E428C0000000E0EA7A5C400000002000408F4000000080B6B726C0000000A088285C400C000000130000004A0300003C00000006000000020000000000002000408F400000000068621BC00000008020105E4000000020
310
00408F4000000040836719C00000004071C05D400C00000013000000520300003C00000006000000020000000000002000408F400000000068621BC00000008020105E400000002000408F40000000004EC22AC000000060D1D85C400C000000130000005A0300003C00000006000000020000000000002000408F40000000
310
0029E428C0000000E0EA7A5C400000002000408F40000000004EC22AC000000060D1D85C400C00000013000000620300003C00000006000000020000000000002000408F40000000C008EE1BC00000000048655E400000002000408F400000000068621BC00000008020105E400C000000130000006A0300003C0000000600
310
0000020000000000002000408F4000000040142B2CC000000020BD3A5D400000002000408F40000000C008EE1BC00000000048655E400C00000013000000720300003C00000006000000020000000000002000408F4000000040142B2CC000000020BD3A5D400000002000408F40000000004EC22AC000000060D1D85C400C
310
000000130000007A0300003C00000006000000020000000000002000408F40000000C00F001BC0000000A09AB95E400000002000408F40000000C008EE1BC00000000048655E400C00000013000000820300003C00000006000000020000000000002000408F40000000C00F001BC0000000A09AB95E400000002000408F40
310
000000C0A82D2DC00000002099A45D400C000000130000008A0300003C00000006000000020000000000002000408F4000000040142B2CC000000020BD3A5D400000002000408F40000000C0A82D2DC00000002099A45D400C00000013000000920300003C00000006000000020000000000002000408F400000000084B72D
310
C0000000A0020F5E400000002000408F40000000C00F001BC0000000A09AB95E400C000000130000009A0300003C00000006000000020000000000002000408F400000000084B72DC0000000A0020F5E400000002000408F40000000C0A82D2DC00000002099A45D400C00000013000000A20300003C000000060000000200
310
00000000002000408F40000000001AAA18C000000080DA065F400000002000408F40000000C00F001BC0000000A09AB95E400C00000013000000AA0300003C00000006000000020000000000002000408F40000000001AAA18C000000080DA065F400000002000408F40000000405FCD2DC000000080667D5E400C00000013
310
000000B20300003C00000006000000020000000000002000408F400000000084B72DC0000000A0020F5E400000002000408F40000000405FCD2DC000000080667D5E400C00000013000000BA0300003C00000006000000020000000000002000408F4000000080691815C00000000050475F400000002000408F4000000000
310
1AAA18C000000080DA065F400C00000013000000C20300003C00000006000000020000000000002000408F4000000080691815C00000000050475F400000002000408F400000008074952CC000000040C8535F400C00000013000000CA0300003C00000006000000020000000000002000408F4000000000C16D2DC0000000
310
8088E85E400000002000408F400000008074952CC000000040C8535F400C00000013000000D20300003C00000006000000020000000000002000408F4000000000C16D2DC00000008088E85E400000002000408F40000000001AAA18C000000080DA065F400C00000013000000DA0300003C00000006000000020000000000
310
002000408F4000000000C16D2DC00000008088E85E400000002000408F40000000405FCD2DC000000080667D5E400C00000013000000E20300003C00000006000000020000000000002000408F40000000C0B1532BC000000080CDB75F400000002000408F4000000080691815C00000000050475F400C00000013000000EA
310
0300003C00000006000000020000000000002000408F40000000C0B1532BC000000080CDB75F400000002000408F400000008074952CC000000040C8535F400C00000013000000F20300003C00000006000000020000000000002000408F40000000C09C8E10C0000000E035765F400000002000408F4000000080691815C0
310
0000000050475F400C00000013000000FA0300003C00000006000000020000000000002000408F40000000C09C8E10C0000000E035765F400000002000408F40000000408B9B29C000000040340C60400C00000013000000020400003C00000006000000020000000000002000408F40000000C0B1532BC000000080CDB75F
310
400000002000408F40000000408B9B29C000000040340C60400C000000130000000A0400003C00000006000000020000000000002000408F4000000040059027C0000000000C3760400000002000408F40000000C09C8E10C0000000E035765F400C00000013000000120400003C0000000600000002000000000000200040
310
8F4000000040059027C0000000000C3760400000002000408F40000000408B9B29C000000040340C60400C000000130000001A0400003C00000006000000020000000000002000408F400000006066C506C00000008013905F400000002000408F40000000C09C8E10C0000000E035765F400C00000013000000220400003C
310
00000006000000020000000000002000408F400000006066C506C00000008013905F400000002000408F4000000080C71525C000000080945E60400C000000130000002A0400003C00000006000000020000000000002000408F4000000040059027C0000000000C3760400000002000408F4000000080C71525C000000080
310
945E60400C00000013000000320400003C00000006000000020000000000002000408F40000000804E6722C0000000403B7F60400000002000408F400000006066C506C00000008013905F400C000000130000003A0400003C00000006000000020000000000002000408F40000000804E6722C0000000403B7F6040000000
310
2000408F4000000080C71525C000000080945E60400C00000013000000420400003C00000006000000020000000000002000408F400000006066C506C00000008013905F400000002000408F40000000805C0000C0000000008F955F400C000000130000004A0400003C00000006000000020000000000002000408F400000
310
00208FB91BC0000000C08AA860400000002000408F40000000805C0000C0000000008F955F400C00000013000000520400003C00000006000000020000000000002000408F40000000804E6722C0000000403B7F60400000002000408F40000000208FB91BC0000000C08AA860400C000000130000005A0400003C00000006
310
000000020000000000002000408F4000000000BFC1F3BF000000802A9F5F400000002000408F40000000805C0000C0000000008F955F400C00000013000000620400003C00000006000000020000000000002000408F40000000208FB91BC0000000C08AA860400000002000408F4000000000BFC1F3BF000000802A9F5F40
310
0C000000130000006A0400003C00000006000000020000000000002000408F400000000038C0E2BF0000002086BA5F400000002000408F4000000000BFC1F3BF000000802A9F5F400C00000013000000720400003C00000006000000020000000000002000408F40000000208FB91BC0000000C08AA860400000002000408F
310
400000000038C0E2BF0000002086BA5F400C000000130000007A0400003C00000006000000020000000000002000408F40000000008C82C3BF000000E077E35F400000002000408F400000000038C0E2BF0000002086BA5F400C00000013000000820400003C00000006000000020000000000002000408F40000000208FB9
310
1BC0000000C08AA860400000002000408F40000000008C82C3BF000000E077E35F400C000000130000008A0400003C00000006000000020000000000002000408F4000000000000027BF00000000E20960400000002000408F40000000008C82C3BF000000E077E35F400C00000013000000920400003C0000000600000002
310
0000000000002000408F40000000208FB91BC0000000C08AA860400000002000408F4000000000000027BF00000000E20960400C000000130000009A0400003C00000006000000020000000000002000408F400000000000F026BF00000000F84460400000002000408F4000000000000027BF00000000E20960400C000000
310
13000000A20400003C00000006000000020000000000002000408F40000000208FB91BC0000000C08AA860400000002000408F400000000000F026BF00000000F84460400C00000013000000AA0400003C00000006000000020000000000002000408F4000000000C6CBDFBF00000080A35460400000002000408F40000000
310
0000F026BF00000000F84460400C00000013000000B20400003C00000006000000020000000000002000408F40000000208FB91BC0000000C08AA860400000002000408F4000000000C6CBDFBF00000080A35460400C00000013000000BA0400003C00000006000000020000000000002000408F4000000000B17FE8BF0000
310
00801C6960400000002000408F4000000000C6CBDFBF00000080A35460400C00000013000000C20400003C00000006000000020000000000002000408F40000000C0B6C419C000000040C9B260400000002000408F4000000000B17FE8BF000000801C6960400C00000013000000CA0400003C000000060000000200000000
310
00002000408F40000000208FB91BC0000000C08AA860400000002000408F40000000C0B6C419C000000040C9B260400C00000013000000D20400003C00000006000000020000000000002000408F4000000000B17FE8BF00000080457F60400000002000408F4000000000B17FE8BF000000801C6960400C00000013000000
310
DA0400003C00000006000000020000000000002000408F4000000060D07518C0000000402BC260400000002000408F4000000000B17FE8BF00000080457F60400C00000013000000E20400003C00000006000000020000000000002000408F40000000C0B6C419C000000040C9B260400000002000408F4000000060D07518
310
C0000000402BC260400C00000013000000EA0400003C00000006000000020000000000002000408F4000000000C6CBDFBF000000C0BE9360400000002000408F4000000000B17FE8BF00000080457F60400C00000013000000F20400003C00000006000000020000000000002000408F40000000C02D0018C00000008055D4
310
60400000002000408F4000000000C6CBDFBF000000C0BE9360400C00000013000000FA0400003C00000006000000020000000000002000408F4000000060D07518C0000000402BC260400000002000408F40000000C02D0018C00000008055D460400C00000013000000020500003C00000006000000020000000000002000
310
408F400000000000F026BF000000006AA360400000002000408F4000000000C6CBDFBF000000C0BE9360400C000000130000000A0500003C00000006000000020000000000002000408F40000000202D0018C0000000C0F31161400000002000408F400000000000F026BF000000006AA360400C0000001300000012050000
310
3C00000006000000020000000000002000408F40000000C02D0018C00000008055D460400000002000408F40000000202D0018C0000000C0F31161400C000000130000001A0500003C00000006000000020000000000002000408F40000000C04A3E16C0000000006B3361400000002000408F400000000000F026BF000000
310
006AA360400C00000013000000220500003C00000006000000020000000000002000408F4000000040428B17C000000040102461400000002000408F40000000C04A3E16C0000000006B3361400C000000130000002A0500003C00000006000000020000000000002000408F4000000040428B17C000000040102461400000
310
002000408F400000000000F026BF000000006AA360400C00000013000000320500003C00000006000000020000000000002000408F40000000202D0018C0000000C0F31161400000002000408F4000000040428B17C000000040102461400C000000130000003A0500003C00000006000000020000000000002000408F4000
310
0000002D0012C000000080474161400000002000408F400000000000F026BF000000006AA360400C00000013000000420500003C00000006000000020000000000002000408F40000000C0F84B14C000000040AD3D61400000002000408F40000000002D0012C000000080474161400C000000130000004A0500003C000000
310
06000000020000000000002000408F40000000C0F84B14C000000040AD3D61400000002000408F400000000000F026BF000000006AA360400C00000013000000520500003C00000006000000020000000000002000408F40000000C04A3E16C0000000006B3361400000002000408F40000000C0F84B14C000000040AD3D61
310
400C000000130000005A0500003C00000006000000020000000000002000408F4000000000003027BF00000080474161400000002000408F400000000000F026BF000000006AA360400C00000013000000620500003C00000006000000020000000000002000408F40000000002D0012C00000008047416140000000200040
310
8F4000000000003027BF00000080474161400C000000130000006A0500003C00000006000000020000000000002000408F400000008016002EC000000000000000000000002000408FC00000000014002EC0000000000000E0BE0C00000013000000720500003C00000006000000020000000000002000408FC00000000014
310
002EC0000000000000E0BE0000002000408FC000000000140026C0000000000000E0BE0C000000130000007A0500003C00000006000000020000000000002000408F4000000000170026C000000000000000000000002000408FC000000000140026C0000000000000E0BE0C00000013000000820500003C00000006000000
310
020000000000002000408F40000000C016002EC0000000E0006758400000002000408FC00000000014002EC0000000E0006758400C000000130000008A0500003C00000006000000020000000000002000408FC00000000014002EC0000000000000E0BE0000002000408FC00000000014002EC0000000E0006758400C0000
310
0013000000920500003C00000006000000020000000000002000408F40000000402B8B2DC00000002073AF58400000002000408FC000000080288B2DC00000002073AF58400C000000130000009A0500003C00000006000000020000000000002000408FC000000080288B2DC00000002073AF58400000002000408FC00000
310
000014002EC0000000E0006758400C00000013000000A20500003C00000006000000020000000000002000408F40000000C0343E2CC0000000E0DDEC58400000002000408FC000000080313E2CC0000000E0DDEC58400C00000013000000AA0500003C00000006000000020000000000002000408FC000000080288B2DC000
310
00002073AF58400000002000408FC000000080313E2CC0000000E0DDEC58400C00000013000000B20500003C00000006000000020000000000002000408F4000000020F1C521C0000000A035375A400000002000408FC0000000A0EDC521C0000000A035375A400C00000013000000BA0500003C0000000600000002000000
310
0000002000408FC000000080313E2CC0000000E0DDEC58400000002000408FC0000000A0EDC521C0000000A035375A400C00000013000000C20500003C00000006000000020000000000002000408F4000000020882D20C000000020237F5A400000002000408FC0000000C0842D20C000000020237F5A400C000000130000
310
00CA0500003C00000006000000020000000000002000408FC0000000A0EDC521C0000000A035375A400000002000408FC0000000C0842D20C000000020237F5A400C00000013000000D20500003C00000006000000020000000000002000408F40000000C069EB1EC000000060F4D35A400000002000408FC0000000A063EB
310
1EC000000060F4D35A400C00000013000000DA0500003C00000006000000020000000000002000408FC0000000C0842D20C000000020237F5A400000002000408FC0000000A063EB1EC000000060F4D35A400C00000013000000E20500003C00000006000000020000000000002000408F40000000E067691FC0000000E066
310
2B5B400000002000408FC0000000E061691FC0000000E0662B5B400C00000013000000EA0500003C00000006000000020000000000002000408FC0000000A063EB1EC000000060F4D35A400000002000408FC0000000E061691FC0000000E0662B5B400C00000013000000F20500003C000000060000000200000000000020
310
00408F4000000080E6E220C0000000A0E67A5B400000002000408FC000000080E3E220C0000000A0E67A5B400C00000013000000FA0500003C00000006000000020000000000002000408FC000000080E3E220C0000000A0E67A5B400000002000408FC0000000E061691FC0000000E0662B5B400C00000013000000020600
310
003C00000006000000020000000000002000408F40000000C0BDDB22C0000000A0D5B85B400000002000408FC000000000BBDB22C0000000A0D5B85B400C000000130000000A0600003C00000006000000020000000000002000408FC000000080E3E220C0000000A0E67A5B400000002000408FC000000000BBDB22C00000
310
00A0D5B85B400C00000013000000120600003C00000006000000020000000000002000408F4000000080B6B726C0000000A088285C400000002000408FC000000080B3B726C0000000A088285C400C000000130000001A0600003C00000006000000020000000000002000408FC000000000BBDB22C0000000A0D5B85B4000
310
00002000408FC000000080B3B726C0000000A088285C400C00000013000000220600003C00000006000000020000000000002000408F400000000029E428C0000000E0EA7A5C400000002000408FC0000000C025E428C0000000E0EA7A5C400C000000130000002A0600003C00000006000000020000000000002000408FC0
310
000000C025E428C0000000E0EA7A5C400000002000408FC000000080B3B726C0000000A088285C400C00000013000000320600003C00000006000000020000000000002000408F40000000004EC22AC000000060D1D85C400000002000408FC0000000804AC22AC000000060D1D85C400C000000130000003A0600003C0000
310
0006000000020000000000002000408FC0000000C025E428C0000000E0EA7A5C400000002000408FC0000000804AC22AC000000060D1D85C400C00000013000000420600003C00000006000000020000000000002000408F4000000040142B2CC000000020BD3A5D400000002000408FC000000000112B2CC000000020BD3A
310
5D400C000000130000004A0600003C00000006000000020000000000002000408FC0000000804AC22AC000000060D1D85C400000002000408FC000000000112B2CC000000020BD3A5D400C00000013000000520600003C00000006000000020000000000002000408F40000000C0A82D2DC00000002099A45D400000002000
310
408FC000000000A62D2DC00000002099A45D400C000000130000005A0600003C00000006000000020000000000002000408FC000000000112B2CC000000020BD3A5D400000002000408FC000000000A62D2DC00000002099A45D400C00000013000000620600003C00000006000000020000000000002000408F4000000000
310
84B72DC0000000A0020F5E400000002000408FC00000004081B72DC0000000A0020F5E400C000000130000006A0600003C00000006000000020000000000002000408FC00000004081B72DC0000000A0020F5E400000002000408FC000000000A62D2DC00000002099A45D400C00000013000000720600003C000000060000
310
00020000000000002000408F40000000405FCD2DC000000080667D5E400000002000408FC0000000805CCD2DC000000080667D5E400C000000130000007A0600003C00000006000000020000000000002000408FC00000004081B72DC0000000A0020F5E400000002000408FC0000000805CCD2DC000000080667D5E400C00
310
000013000000820600003C00000006000000020000000000002000408F4000000000C16D2DC00000008088E85E400000002000408FC000000040BE6D2DC00000008088E85E400C000000130000008A0600003C00000006000000020000000000002000408FC0000000805CCD2DC000000080667D5E400000002000408FC000
310
000040BE6D2DC00000008088E85E400C00000013000000920600003C00000006000000020000000000002000408F400000008074952CC000000040C8535F400000002000408FC00000008071952CC000000040C8535F400C000000130000009A0600003C00000006000000020000000000002000408FC00000008071952CC0
310
00000040C8535F400000002000408FC000000040BE6D2DC00000008088E85E400C00000013000000A20600003C00000006000000020000000000002000408F40000000C0B1532BC000000080CDB75F400000002000408FC000000080AE532BC000000080CDB75F400C00000013000000AA0600003C00000006000000020000
310
000000002000408FC00000008071952CC000000040C8535F400000002000408FC000000080AE532BC000000080CDB75F400C00000013000000B20600003C00000006000000020000000000002000408F40000000408B9B29C000000040340C60400000002000408FC000000000889B29C000000040340C60400C0000001300
310
0000BA0600003C00000006000000020000000000002000408FC000000000889B29C000000040340C60400000002000408FC000000080AE532BC000000080CDB75F400C00000013000000C20600003C00000006000000020000000000002000408F4000000040059027C0000000000C3760400000002000408FC00000004002
310
9027C0000000000C3760400C00000013000000CA0600003C00000006000000020000000000002000408FC000000000889B29C000000040340C60400000002000408FC000000040029027C0000000000C3760400C00000013000000D20600003C00000006000000020000000000002000408F4000000080C71525C000000080
310
945E60400000002000408FC000000080C41525C000000080945E60400C00000013000000DA0600003C00000006000000020000000000002000408FC000000040029027C0000000000C3760400000002000408FC000000080C41525C000000080945E60400C00000013000000E20600003C0000000600000002000000000000
310
2000408F40000000804E6722C0000000403B7F60400000002000408FC0000000804B6722C0000000403B7F60400C00000013000000EA0600003C00000006000000020000000000002000408FC000000080C41525C000000080945E60400000002000408FC0000000804B6722C0000000403B7F60400C00000013000000F206
310
00003C00000006000000020000000000002000408F40000000208FB91BC0000000C08AA860400000002000408FC00000004089B91BC0000000C08AA860400C00000013000000FA0600003C00000006000000020000000000002000408FC0000000804B6722C0000000403B7F60400000002000408FC00000004089B91BC000
310
0000C08AA860400C00000013000000020700003C00000006000000020000000000002000408F40000000C0B6C419C000000040C9B260400000002000408FC000000040B1C419C000000040C9B260400C000000130000000A0700003C00000006000000020000000000002000408FC000000040B1C419C000000040C9B26040
310
0000002000408FC00000004089B91BC0000000C08AA860400C00000013000000120700003C00000006000000020000000000002000408F4000000060D07518C0000000402BC260400000002000408FC000000080CA7518C0000000402BC260400C000000130000001A0700003C00000006000000020000000000002000408F
310
C000000040B1C419C000000040C9B260400000002000408FC000000080CA7518C0000000402BC260400C00000013000000220700003C00000006000000020000000000002000408F40000000C02D0018C00000008055D460400000002000408FC0000000C0280018C00000008055D460400C000000130000002A0700003C00
310
000006000000020000000000002000408FC000000080CA7518C0000000402BC260400000002000408FC0000000C0280018C00000008055D460400C00000013000000320700003C00000006000000020000000000002000408F40000000202D0018C0000000C0F31161400000002000408FC000000020280018C0000000C0F3
310
1161400C000000130000003A0700003C00000006000000020000000000002000408FC0000000C0280018C00000008055D460400000002000408FC000000020280018C0000000C0F31161400C00000013000000420700003C00000006000000020000000000002000408F4000000040428B17C0000000401024614000000020
310
00408FC0000000E03C8B17C000000040102461400C000000130000004A0700003C00000006000000020000000000002000408FC000000020280018C0000000C0F31161400000002000408FC0000000E03C8B17C000000040102461400C00000013000000520700003C00000006000000020000000000002000408F40000000
310
C04A3E16C0000000006B3361400000002000408FC000000060453E16C0000000006B3361400C000000130000005A0700003C00000006000000020000000000002000408FC000000060453E16C0000000006B3361400000002000408FC0000000E03C8B17C000000040102461400C00000013000000620700003C0000000600
310
0000020000000000002000408F40000000C0F84B14C000000040AD3D61400000002000408FC0000000E0F24B14C000000040AD3D61400C000000130000006A0700003C00000006000000020000000000002000408FC000000060453E16C0000000006B3361400000002000408FC0000000E0F24B14C000000040AD3D61400C
310
00000013000000720700003C00000006000000020000000000002000408F40000000002D0012C000000080474161400000002000408FC0000000C0270012C000000080474161400C000000130000007A0700003C00000006000000020000000000002000408FC0000000C0270012C000000080474161400000002000408FC0
310
000000E0F24B14C000000040AD3D61400C00000013000000820700003C00000006000000020000000000002000408F4000000000003027BF00000080474161400000002000408FC00000000000F023BF00000080474161400C000000130000008A0700003C00000006000000020000000000002000408FC0000000C0270012
310
C000000080474161400000002000408FC00000000000F023BF00000080474161400C00000013000000920700003C00000006000000020000000000002000408F400000000000F026BF000000006AA360400000002000408FC00000000000E023BF000000006AA360400C000000130000009A0700003C000000060000000200
310
00000000002000408FC00000000000E023BF000000006AA360400000002000408FC00000000000F023BF00000080474161400C00000013000000A20700003C00000006000000020000000000002000408F4000000000C6CBDFBF000000C0BE9360400000002000408FC00000000064CBDFBF000000C0BE9360400C00000013
310
000000AA0700003C00000006000000020000000000002000408FC00000000000E023BF000000006AA360400000002000408FC00000000064CBDFBF000000C0BE9360400C00000013000000B20700003C00000006000000020000000000002000408F4000000000B17FE8BF00000080457F60400000002000408FC000000000
310
817FE8BF00000080457F60400C00000013000000BA0700003C00000006000000020000000000002000408FC000000000817FE8BF00000080457F60400000002000408FC00000000064CBDFBF000000C0BE9360400C00000013000000C20700003C00000006000000020000000000002000408F4000000000B17FE8BF000000
310
801C6960400000002000408FC000000000827FE8BF000000801C6960400C00000013000000CA0700003C00000006000000020000000000002000408FC000000000817FE8BF00000080457F60400000002000408FC000000000827FE8BF000000801C6960400C00000013000000D20700003C00000006000000020000000000
310
002000408F4000000000C6CBDFBF00000080A35460400000002000408FC00000000068CBDFBF00000080A35460400C00000013000000DA0700003C00000006000000020000000000002000408FC00000000068CBDFBF00000080A35460400000002000408FC000000000827FE8BF000000801C6960400C00000013000000E2
310
0700003C00000006000000020000000000002000408F400000000000F026BF00000000F84460400000002000408FC000000000000024BF00000000F84460400C00000013000000EA0700003C00000006000000020000000000002000408FC000000000000024BF00000000F84460400000002000408FC00000000068CBDFBF
310
00000080A35460400C00000013000000F20700003C00000006000000020000000000002000408F4000000000000027BF00000000E20960400000002000408FC00000000000F023BF00000000E20960400C00000013000000FA0700003C00000006000000020000000000002000408FC000000000000024BF00000000F84460
310
400000002000408FC00000000000F023BF00000000E20960400C00000013000000020800003C00000006000000020000000000002000408F40000000008C82C3BF000000E077E35F400000002000408FC000000000C481C3BF000000E077E35F400C000000130000000A0800003C0000000600000002000000000000200040
310
8FC000000000C481C3BF000000E077E35F400000002000408FC00000000000F023BF00000000E20960400C00000013000000120800003C00000006000000020000000000002000408F400000000038C0E2BF0000002086BA5F400000002000408FC00000000003C0E2BF0000002086BA5F400C000000130000001A0800003C
310
00000006000000020000000000002000408FC000000000C481C3BF000000E077E35F400000002000408FC00000000003C0E2BF0000002086BA5F400C00000013000000220800003C00000006000000020000000000002000408F4000000000BFC1F3BF000000802A9F5F400000002000408FC000000000A5C1F3BF00000080
310
2A9F5F400C000000130000002A0800003C00000006000000020000000000002000408FC000000000A5C1F3BF000000802A9F5F400000002000408FC00000000003C0E2BF0000002086BA5F400C00000013000000320800003C00000006000000020000000000002000408F40000000805C0000C0000000008F955F40000000
310
2000408FC000000000500000C0000000008F955F400C000000130000003A0800003C00000006000000020000000000002000408FC000000000500000C0000000008F955F400000002000408FC000000000A5C1F3BF000000802A9F5F400C00000013000000420800003C00000006000000020000000000002000408F400000
310
006066C506C00000008013905F400000002000408FC0000000205AC506C00000008013905F400C000000130000004A0800003C00000006000000020000000000002000408FC0000000205AC506C00000008013905F400000002000408FC000000000500000C0000000008F955F400C00000013000000520800003C00000006
310
000000020000000000002000408F40000000C09C8E10C0000000E035765F400000002000408FC000000080978E10C0000000E035765F400C000000130000005A0800003C00000006000000020000000000002000408FC0000000205AC506C00000008013905F400000002000408FC000000080978E10C0000000E035765F40
310
0C00000013000000620800003C00000006000000020000000000002000408F4000000080691815C00000000050475F400000002000408FC000000020641815C00000000050475F400C000000130000006A0800003C00000006000000020000000000002000408FC000000020641815C00000000050475F400000002000408F
310
C000000080978E10C0000000E035765F400C00000013000000720800003C00000006000000020000000000002000408F40000000001AAA18C000000080DA065F400000002000408FC0000000E014AA18C000000080DA065F400C000000130000007A0800003C00000006000000020000000000002000408FC0000000E014AA
310
18C000000080DA065F400000002000408FC000000020641815C00000000050475F400C00000013000000820800003C00000006000000020000000000002000408F40000000C00F001BC0000000A09AB95E400000002000408FC0000000C009001BC0000000A09AB95E400C000000130000008A0800003C0000000600000002
310
0000000000002000408FC0000000C009001BC0000000A09AB95E400000002000408FC0000000E014AA18C000000080DA065F400C00000013000000920800003C00000006000000020000000000002000408F40000000C008EE1BC00000000048655E400000002000408FC00000008002EE1BC00000000048655E400C000000
310
130000009A0800003C00000006000000020000000000002000408FC0000000C009001BC0000000A09AB95E400000002000408FC00000008002EE1BC00000000048655E400C00000013000000A20800003C00000006000000020000000000002000408F400000000068621BC00000008020105E400000002000408FC0000000
310
0062621BC00000008020105E400C00000013000000AA0800003C00000006000000020000000000002000408FC00000000062621BC00000008020105E400000002000408FC00000008002EE1BC00000000048655E400C00000013000000B20800003C00000006000000020000000000002000408F4000000040836719C00000
310
004071C05D400000002000408FC0000000807D6719C00000004071C05D400C00000013000000BA0800003C00000006000000020000000000002000408FC0000000807D6719C00000004071C05D400000002000408FC00000000062621BC00000008020105E400C00000013000000C20800003C000000060000000200000000
310
00002000408F40000000C0DE2216C000000040207C5D400000002000408FC0000000E0D82216C000000040207C5D400C00000013000000CA0800003C00000006000000020000000000002000408FC0000000E0D82216C000000040207C5D400000002000408FC0000000807D6719C00000004071C05D400C00000013000000
310
D20800003C00000006000000020000000000002000408F400000000066D211C0000000E03B485D400000002000408FC00000004060D211C0000000E03B485D400C00000013000000DA0800003C00000006000000020000000000002000408FC0000000E0D82216C000000040207C5D400000002000408FC00000004060D211
310
C0000000E03B485D400C00000013000000E20800003C00000006000000020000000000002000408F40000000E0B08F09C0000000609B285D400000002000408FC0000000E0A48F09C0000000609B285D400C00000013000000EA0800003C00000006000000020000000000002000408FC0000000E0A48F09C0000000609B28
310
5D400000002000408FC00000004060D211C0000000E03B485D400C00000013000000F20800003C00000006000000020000000000002000408F4000000040CADB02C000000000531F5D400000002000408FC0000000C0BDDB02C000000000531F5D400C00000013000000FA0800003C00000006000000020000000000002000
310
408FC0000000C0BDDB02C000000000531F5D400000002000408FC0000000E0A48F09C0000000609B285D400C00000013000000020900003C00000006000000020000000000002000408F4000000080B930FABF000000C048135D400000002000408FC000000080A030FABF000000C048135D400C000000130000000A090000
310
3C00000006000000020000000000002000408FC000000080A030FABF000000C048135D400000002000408FC0000000C0BDDB02C000000000531F5D400C00000013000000120900003C00000006000000020000000000002000408F4000000080CC94F0BF000000606FF75C400000002000408FC000000080B294F0BF000000
310
606FF75C400C000000130000001A0900003C00000006000000020000000000002000408FC000000080B294F0BF000000606FF75C400000002000408FC000000080A030FABF000000C048135D400C00000013000000220900003C00000006000000020000000000002000408F4000000000F272E4BF000000E0A4CF5C400000
310
002000408FC000000000BE72E4BF000000E0A4CF5C400C000000130000002A0900003C00000006000000020000000000002000408FC000000000BE72E4BF000000E0A4CF5C400000002000408FC000000080B294F0BF000000606FF75C400C00000013000000320900003C00000006000000020000000000002000408F4000
310
0000007401E0BF0000006070A15C400000002000408FC0000000004001E0BF0000006070A15C400C000000130000003A0900003C00000006000000020000000000002000408FC000000000BE72E4BF000000E0A4CF5C400000002000408FC0000000004001E0BF0000006070A15C400C00000013000000420900003C000000
310
06000000020000000000002000408F40000000006F01E0BF00000060C3B259400000002000408FC0000000003B01E0BF00000060C3B259400C000000130000004A0900003C00000006000000020000000000002000408FC0000000003B01E0BF00000060C3B259400000002000408FC0000000004001E0BF0000006070A15C
310
400C00000013000000520900003C00000006000000020000000000002000408F40000000009BE0E4BF00000040778259400000002000408FC00000000067E0E4BF00000040778259400C000000130000005A0900003C00000006000000020000000000002000408FC00000000067E0E4BF0000004077825940000000200040
310
8FC0000000003B01E0BF00000060C3B259400C00000013000000620900003C00000006000000020000000000002000408F40000000801860F1BF00000060855959400000002000408FC0000000000060F1BF00000060855959400C000000130000006A0900003C00000006000000020000000000002000408FC00000000000
310
60F1BF00000060855959400000002000408FC00000000067E0E4BF00000040778259400C00000013000000720900003C00000006000000020000000000002000408F400000008055A819C0000000A0460958400000002000408FC0000000C04FA819C0000000A0460958400C000000130000007A0900003C00000006000000
310
020000000000002000408FC0000000000060F1BF00000060855959400000002000408FC0000000C04FA819C0000000A0460958400C00000013000000820900003C00000006000000020000000000002000408F40000000C048641BC0000000C054E057400000002000408FC0000000C042641BC0000000C054E057400C0000
310
00130000008A0900003C00000006000000020000000000002000408FC0000000C042641BC0000000C054E057400000002000408FC0000000C04FA819C0000000A0460958400C00000013000000920900003C00000006000000020000000000002000408F40000000402E001CC00000008008B057400000002000408FC00000
310
000028001CC00000008008B057400C000000130000009A0900003C00000006000000020000000000002000408FC00000000028001CC00000008008B057400000002000408FC0000000C042641BC0000000C054E057400C00000013000000A20900003C00000006000000020000000000002000408F40000000E02D001CC000
310
0000E0882050400000002000408FC0000000E027001CC0000000E0882050400C00000013000000AA0900003C00000006000000020000000000002000408FC0000000E027001CC0000000E0882050400000002000408FC00000000028001CC00000008008B057400C00000013000000B20900003C0000000600000002000000
310
0000002000408F40000000E094BB1BC000000020C21050400000002000408FC0000000E08EBB1BC000000020C21050400C00000013000000BA0900003C00000006000000020000000000002000408FC0000000E027001CC0000000E0882050400000002000408FC0000000E08EBB1BC000000020C21050400C000000130000
310
00C20900003C00000006000000020000000000002000408F40000000E02E001BC0000000C0350550400000002000408FC00000000029001BC0000000C0350550400C00000013000000CA0900003C00000006000000020000000000002000408FC0000000E08EBB1BC000000020C21050400000002000408FC0000000002900
310
1BC0000000C0350550400C00000013000000D20900003C00000006000000020000000000002000408F40000000C02D001AC000000080FB0050400000002000408FC00000000028001AC000000080FB0050400C00000013000000DA0900003C00000006000000020000000000002000408FC00000000029001BC0000000C035
310
0550400000002000408FC00000000028001AC000000080FB0050400C00000013000000E20900003C00000006000000020000000000002000408F4000000080B700F0BF00000080FB0050400000002000408FC000000000A000F0BF00000080FB0050400C00000013000000EA0900003C000000060000000200000000000020
310
00408FC00000000028001AC000000080FB0050400000002000408FC000000000A000F0BF00000080FB0050400C00000013000000F20900003C00000006000000020000000000002000408F40000000006801E8BF0000008082F94F400000002000408FC0000000003801E8BF0000008082F94F400C00000013000000FA0900
310
003C00000006000000020000000000002000408FC0000000003801E8BF0000008082F94F400000002000408FC000000000A000F0BF00000080FB0050400C00000013000000020A00003C00000006000000020000000000002000408F40000000003826E2BF000000C069E24F400000002000408FC0000000000726E2BF0000
310
00C069E24F400C000000130000000A0A00003C00000006000000020000000000002000408FC0000000003801E8BF0000008082F94F400000002000408FC0000000000726E2BF000000C069E24F400C00000013000000120A00003C00000006000000020000000000002000408F40000000007001E0BF00000060DCC24F4000
310
00002000408FC0000000003F01E0BF00000060DCC24F400C000000130000001A0A00003C00000006000000020000000000002000408FC0000000000726E2BF000000C069E24F400000002000408FC0000000003F01E0BF00000060DCC24F400C00000013000000220A00003C00000006000000020000000000002000408F40
310
000000006F01E0BF00000020D24B4D400000002000408FC0000000003B01E0BF00000020D24B4D400C000000130000002A0A00003C00000006000000020000000000002000408FC0000000003B01E0BF00000020D24B4D400000002000408FC0000000003F01E0BF00000060DCC24F400C00000013000000320A00003C0000
310
0006000000020000000000002000408F40000000003726E2BF000000C0442C4D400000002000408FC0000000000326E2BF000000C0442C4D400C000000130000003A0A00003C00000006000000020000000000002000408FC0000000000326E2BF000000C0442C4D400000002000408FC0000000003B01E0BF00000020D24B
310
4D400C00000013000000420A00003C00000006000000020000000000002000408F40000000006701E8BF000000E02B154D400000002000408FC0000000003301E8BF000000E02B154D400C000000130000004A0A00003C00000006000000020000000000002000408FC0000000000326E2BF000000C0442C4D400000002000
310
408FC0000000003301E8BF000000E02B154D400C00000013000000520A00003C00000006000000020000000000002000408F4000000080B700F0BF00000080B70C4D400000002000408FC0000000009F00F0BF00000080B70C4D400C000000130000005A0A00003C00000006000000020000000000002000408FC000000000
310
9F00F0BF00000080B70C4D400000002000408FC0000000003301E8BF000000E02B154D400C00000013000000620A00003C00000006000000020000000000002000408F40000000C02D001AC000000080B70C4D400000002000408FC00000004028001AC000000080B70C4D400C000000130000006A0A00003C000000060000
310
00020000000000002000408FC0000000009F00F0BF00000080B70C4D400000002000408FC00000004028001AC000000080B70C4D400C00000013000000720A00003C00000006000000020000000000002000408F40000000002F001BC00000002043044D400000002000408FC00000004029001BC00000002043044D400C00
310
0000130000007A0A00003C00000006000000020000000000002000408FC00000004029001BC00000002043044D400000002000408FC00000004028001AC000000080B70C4D400C00000013000000820A00003C00000006000000020000000000002000408F40000000C094BB1BC0000000602AED4C400000002000408FC000
310
0000C08EBB1BC0000000602AED4C400C000000130000008A0A00003C00000006000000020000000000002000408FC0000000C08EBB1BC0000000602AED4C400000002000408FC00000004029001BC00000002043044D400C00000013000000920A00003C00000006000000020000000000002000408F40000000002E001CC0
310
000000E09CCD4C400000002000408FC00000000028001CC0000000E09CCD4C400C000000130000009A0A00003C00000006000000020000000000002000408FC00000000028001CC0000000E09CCD4C400000002000408FC0000000C08EBB1BC0000000602AED4C400C00000013000000A20A00003C00000006000000020000
310
000000002000408F40000000E02D001CC000000080DF9637400000002000408FC00000000028001CC000000000E09637400C00000013000000AA0A00003C00000006000000020000000000002000408FC00000000028001CC0000000E09CCD4C400000002000408FC00000000028001CC000000000E09637400C0000001300
310
0000B20A00003C00000006000000020000000000002000408F40000000E047641BC000000080AED536400000002000408FC0000000A041641BC000000000AFD536400C00000013000000BA0A00003C00000006000000020000000000002000408FC00000000028001CC000000000E09637400000002000408FC0000000A041
310
641BC000000000AFD536400C00000013000000C20A00003C00000006000000020000000000002000408F400000004055A819C000000080E73136400000002000408FC0000000804FA819C000000000E83136400C00000013000000CA0A00003C00000006000000020000000000002000408FC0000000804FA819C000000000
310
E83136400000002000408FC0000000A041641BC000000000AFD536400C00000013000000D20A00003C00000006000000020000000000002000408F40000000A0EC0F17C00000008078C435400000002000408FC0000000A0E60F17C00000000079C435400C00000013000000DA0A00003C0000000600000002000000000000
310
2000408FC0000000804FA819C000000000E83136400000002000408FC0000000A0E60F17C00000000079C435400C00000013000000E20A00003C00000006000000020000000000002000408F40000000C02D0014C0000000800A9E35400000002000408FC0000000C0270014C0000000000B9E35400C00000013000000EA0A
310
00003C00000006000000020000000000002000408FC0000000C0270014C0000000000B9E35400000002000408FC0000000A0E60F17C00000000079C435400C00000013000000F20A00003C00000006000000020000000000002000408F40000000006F01E0BF000000800A9E35400000002000408FC0000000004001E0BF00
310
0000000B9E35400C00000013000000FA0A00003C00000006000000020000000000002000408FC0000000C0270014C0000000000B9E35400000002000408FC0000000004001E0BF000000000B9E35400C00000013000000020B00003C00000006000000020000000000002000408F4000000000F202D0BF00000080228D3540
310
0000002000408FC0000000009402D0BF00000000238D35400C000000130000000A0B00003C00000006000000020000000000002000408FC0000000009402D0BF00000000238D35400000002000408FC0000000004001E0BF000000000B9E35400C00000013000000120B00003C00000006000000020000000000002000408F
310
40000000006831B1BF00000080EF5E35400000002000408FC000000000F02FB1BF00000000F05E35400C000000130000001A0B00003C00000006000000020000000000002000408FC000000000F02FB1BF00000000F05E35400000002000408FC0000000009402D0BF00000000238D35400C00000013000000220B00003C00
310
000006000000020000000000002000408F400000000000F026BF00000080D51F35400000002000408FC000000000000024BF00000000D61F35400C000000130000002A0B00003C00000006000000020000000000002000408FC000000000000024BF00000000D61F35400000002000408FC000000000F02FB1BF00000000F0
310
5E35400C00000013000000320B00003C00000006000000020000000000002000408F4000000000004027BF00000080EF3D32400000002000408FC00000000000F023BF00000000F03D32400C000000130000003A0B00003C00000006000000020000000000002000408FC00000000000F023BF00000000F03D324000000020
310
00408FC000000000000024BF00000000D61F35400C00000013000000420B00003C00000006000000020000000000002000408F4000000000D0CBDFBF0000008094C031400000002000408FC00000000066CBDFBF0000000095C031400C000000130000004A0B00003C00000006000000020000000000002000408FC0000000
310
0066CBDFBF0000000095C031400000002000408FC00000000000F023BF00000000F03D32400C00000013000000520B00003C00000006000000020000000000002000408F4000000000B67FE8BF00000080CB1C31400000002000408FC000000000827FE8BF00000000CC1C31400C000000130000005A0B00003C0000000600
310
0000020000000000002000408FC00000000066CBDFBF0000000095C031400000002000408FC000000000827FE8BF00000000CC1C31400C00000013000000620B00003C00000006000000020000000000002000408F4000000000B67FE8BF00000080836B30400000002000408FC000000000827FE8BF00000000846B30400C
310
000000130000006A0B00003C00000006000000020000000000002000408FC000000000827FE8BF00000000846B30400000002000408FC000000000827FE8BF00000000CC1C31400C00000013000000720B00003C00000006000000020000000000002000408F4000000000C6CBDFBF00000000758F2F400000002000408FC0
310
000000005ECBDFBF00000000768F2F400C000000130000007A0B00003C00000006000000020000000000002000408FC000000000827FE8BF00000000846B30400000002000408FC0000000005ECBDFBF00000000768F2F400C00000013000000820B00003C00000006000000020000000000002000408F400000000000F026
310
BF00000000BF942E400000002000408FC00000000000B023BF00000000C0942E400C000000130000008A0B00003C00000006000000020000000000002000408FC0000000005ECBDFBF00000000768F2F400000002000408FC00000000000B023BF00000000C0942E400C00000013000000920B00003C000000060000000200
310
00000000002000408F400000000000F026BF00000000A78E26400000002000408FC000000000000024BF00000000A88E26400C000000130000009A0B00003C00000006000000020000000000002000408FC000000000000024BF00000000A88E26400000002000408FC00000000000B023BF00000000C0942E400C00000013
310
000000A20B00003C00000006000000020000000000002000408F40000000006831B1BF00000000731026400000002000408FC000000000F02FB1BF00000000741026400C00000013000000AA0B00003C00000006000000020000000000002000408FC000000000F02FB1BF00000000741026400000002000408FC000000000
310
000024BF00000000A88E26400C00000013000000B20B00003C00000006000000020000000000002000408F4000000000F202D0BF000000000EB425400000002000408FC0000000009402D0BF000000000EB425400C00000013000000BA0B00003C00000006000000020000000000002000408FC0000000009402D0BF000000
310
000EB425400000002000408FC000000000F02FB1BF00000000741026400C00000013000000C20B00003C00000006000000020000000000002000408F40000000006F01E0BF000000003D9225400000002000408FC0000000004001E0BF000000003E9225400C00000013000000CA0B00003C00000006000000020000000000
310
002000408FC0000000004001E0BF000000003E9225400000002000408FC0000000009402D0BF000000000EB425400C00000013000000D20B00003C00000006000000020000000000002000408F40000000E0716816C0000000003D9225400000002000408FC0000000006C6816C0000000003E9225400C00000013000000DA
310
0B00003C00000006000000020000000000002000408FC0000000006C6816C0000000003E9225400000002000408FC0000000004001E0BF000000003E9225400C00000013000000E20B00003C00000006000000020000000000002000408F40000000C0AE9219C000000000DD3F25400000002000408FC0000000E0A89219C0
310
00000000DE3F25400C00000013000000EA0B00003C00000006000000020000000000002000408FC0000000006C6816C0000000003E9225400000002000408FC0000000E0A89219C000000000DE3F25400C00000013000000F20B00003C00000006000000020000000000002000408F4000000000B1381CC0000000002F5624
310
400000002000408FC000000000AB381CC000000000305624400C00000013000000FA0B00003C00000006000000020000000000002000408FC000000000AB381CC000000000305624400000002000408FC0000000E0A89219C000000000DE3F25400C00000013000000020C00003C0000000600000002000000000000200040
310
8F4000000000E2EB1DC00000000053FB22400000002000408FC0000000C0DBEB1DC00000000054FB22400C000000130000000A0C00003C00000006000000020000000000002000408FC000000000AB381CC000000000305624400000002000408FC0000000C0DBEB1DC00000000054FB22400C00000013000000120C00003C
310
00000006000000020000000000002000408FC000000000140026C0000000000000E0BE0000002000408FC0000000C0DBEB1DC00000000054FB22400C000000130000001A0C00003C00000006000000020000000000002000408FC0000000E08EBB1BC000000020C21050400000002000408FC0000000C08EBB1BC000000060
310
2AED4C400C00000013000000220C00003C00000006000000020000000000002000408FC0000000E027001CC0000000E0882050400000002000408FC00000000028001CC0000000E09CCD4C400C000000130000002A0C00003C00000006000000020000000000002000408FC00000000014002EC0000000000000E0BE000000
310
2000408FC0000000C0DBEB1DC00000000054FB22400C00000013000000320C00003C00000006000000020000000000002000408FC00000000014002EC0000000000000E0BE0000002000408FC00000000028001CC000000000E09637400C000000130000003A0C00003C00000006000000020000000000002000408FC00000
310
000028001CC000000000E09637400000002000408FC0000000C0DBEB1DC00000000054FB22400C00000013000000420C00003C00000006000000020000000000002000408FC000000000AB381CC000000000305624400000002000408FC0000000A041641BC000000000AFD536400C000000130000004A0C00003C00000006
310
000000020000000000002000408FC0000000006C6816C0000000003E9225400000002000408FC0000000C0270014C0000000000B9E35400C00000013000000520C00003C00000006000000020000000000002000408FC0000000C0270014C0000000000B9E35400000002000408FC000000000827FE8BF00000000CC1C3140
310
0C000000130000005A0C00003C00000006000000020000000000002000408FC0000000006C6816C0000000003E9225400000002000408FC000000000827FE8BF00000000846B30400C00000013000000620C00003C00000006000000020000000000002000408FC0000000E0A89219C000000000DE3F25400000002000408F
310
C0000000A0E60F17C00000000079C435400C000000130000006A0C00003C00000006000000020000000000002000408FC000000000AB381CC000000000305624400000002000408FC0000000804FA819C000000000E83136400C00000013000000720C00003C00000006000000020000000000002000408FC00000000066CB
310
DFBF0000000095C031400000002000408FC000000000F02FB1BF00000000F05E35400C000000130000007A0C00003C00000006000000020000000000002000408FC00000000066CBDFBF0000000095C031400000002000408FC0000000004001E0BF000000000B9E35400C00000013000000820C00003C0000000600000002
310
0000000000002000408FC00000000066CBDFBF0000000095C031400000002000408FC0000000009402D0BF00000000238D35400C000000130000008A0C00003C00000006000000020000000000002000408FC0000000004001E0BF000000003E9225400000002000408FC0000000005ECBDFBF00000000768F2F400C000000
310
13000000920C00003C00000006000000020000000000002000408FC0000000005ECBDFBF00000000768F2F400000002000408FC0000000009402D0BF000000000EB425400C000000130000009A0C00003C00000006000000020000000000002000408FC0000000005ECBDFBF00000000768F2F400000002000408FC0000000
310
00F02FB1BF00000000741026400C00000013000000A20C00003C00000006000000020000000000002000408FC00000000028001CC0000000E09CCD4C400000002000408FC00000000014002EC0000000E0006758400C00000013000000AA0C00003C00000006000000020000000000002000408FC0000000E027001CC00000
310
00E0882050400000002000408FC00000000014002EC0000000E0006758400C00000013000000B20C00003C00000006000000020000000000002000408FC00000000014002EC0000000E0006758400000002000408FC00000000028001CC00000008008B057400C00000013000000BA0C00003C000000060000000200000000
310
00002000408FC00000000029001BC0000000C0350550400000002000408FC00000004029001BC00000002043044D400C00000013000000C20C00003C00000006000000020000000000002000408FC00000004028001AC000000080B70C4D400000002000408FC00000000028001AC000000080FB0050400C00000013000000
310
CA0C00003C00000006000000020000000000002000408FC0000000009F00F0BF00000080B70C4D400000002000408FC000000000A000F0BF00000080FB0050400C00000013000000D20C00003C00000006000000020000000000002000408FC0000000003801E8BF0000008082F94F400000002000408FC0000000003301E8
310
BF000000E02B154D400C00000013000000DA0C00003C00000006000000020000000000002000408FC0000000000326E2BF000000C0442C4D400000002000408FC0000000000726E2BF000000C069E24F400C00000013000000E20C00003C00000006000000020000000000002000408FC000000080288B2DC00000002073AF
310
58400000002000408FC0000000C042641BC0000000C054E057400C00000013000000EA0C00003C00000006000000020000000000002000408FC000000080313E2CC0000000E0DDEC58400000002000408FC0000000C04FA819C0000000A0460958400C00000013000000F20C00003C00000006000000020000000000002000
310
408FC0000000000060F1BF00000060855959400000002000408FC0000000A0EDC521C0000000A035375A400C00000013000000FA0C00003C00000006000000020000000000002000408FC00000000067E0E4BF00000040778259400000002000408FC0000000C0842D20C000000020237F5A400C00000013000000020D0000
310
3C00000006000000020000000000002000408FC0000000003B01E0BF00000060C3B259400000002000408FC0000000A063EB1EC000000060F4D35A400C000000130000000A0D00003C00000006000000020000000000002000408FC0000000004001E0BF0000006070A15C400000002000408FC0000000E061691FC0000000
310
E0662B5B400C00000013000000120D00003C00000006000000020000000000002000408FC000000000BE72E4BF000000E0A4CF5C400000002000408FC0000000E061691FC0000000E0662B5B400C000000130000001A0D00003C00000006000000020000000000002000408FC000000080B294F0BF000000606FF75C400000
310
002000408FC000000080E3E220C0000000A0E67A5B400C00000013000000220D00003C00000006000000020000000000002000408FC000000080E3E220C0000000A0E67A5B400000002000408FC000000080A030FABF000000C048135D400C000000130000002A0D00003C00000006000000020000000000002000408FC000
310
0000C0BDDB02C000000000531F5D400000002000408FC000000000BBDB22C0000000A0D5B85B400C00000013000000320D00003C00000006000000020000000000002000408FC000000000BBDB22C0000000A0D5B85B400000002000408FC0000000E0A48F09C0000000609B285D400C000000130000003A0D00003C000000
310
06000000020000000000002000408FC00000004060D211C0000000E03B485D400000002000408FC000000080B3B726C0000000A088285C400C00000013000000420D00003C00000006000000020000000000002000408FC0000000E0D82216C000000040207C5D400000002000408FC000000080B3B726C0000000A088285C
310
400C000000130000004A0D00003C00000006000000020000000000002000408FC0000000C025E428C0000000E0EA7A5C400000002000408FC0000000807D6719C00000004071C05D400C00000013000000520D00003C00000006000000020000000000002000408FC0000000804AC22AC000000060D1D85C40000000200040
310
8FC00000000062621BC00000008020105E400C000000130000005A0D00003C00000006000000020000000000002000408FC00000008002EE1BC00000000048655E400000002000408FC000000000112B2CC000000020BD3A5D400C00000013000000620D00003C00000006000000020000000000002000408FC0000000C009
310
001BC0000000A09AB95E400000002000408FC000000000A62D2DC00000002099A45D400C000000130000006A0D00003C00000006000000020000000000002000408FC0000000C009001BC0000000A09AB95E400000002000408FC00000004081B72DC0000000A0020F5E400C00000013000000720D00003C00000006000000
310
020000000000002000408FC0000000E014AA18C000000080DA065F400000002000408FC0000000805CCD2DC000000080667D5E400C000000130000007A0D00003C00000006000000020000000000002000408FC0000000E014AA18C000000080DA065F400000002000408FC000000040BE6D2DC00000008088E85E400C0000
310
0013000000820D00003C00000006000000020000000000002000408FC00000008071952CC000000040C8535F400000002000408FC000000020641815C00000000050475F400C000000130000008A0D00003C00000006000000020000000000002000408FC000000020641815C00000000050475F400000002000408FC00000
310
0080AE532BC000000080CDB75F400C00000013000000920D00003C00000006000000020000000000002000408FC000000000889B29C000000040340C60400000002000408FC000000080978E10C0000000E035765F400C000000130000009A0D00003C00000006000000020000000000002000408FC000000080978E10C000
310
0000E035765F400000002000408FC000000040029027C0000000000C3760400C00000013000000A20D00003C00000006000000020000000000002000408FC0000000205AC506C00000008013905F400000002000408FC000000080C41525C000000080945E60400C00000013000000AA0D00003C0000000600000002000000
310
0000002000408FC0000000205AC506C00000008013905F400000002000408FC0000000804B6722C0000000403B7F60400C00000013000000B20D00003C00000006000000020000000000002000408FC000000000500000C0000000008F955F400000002000408FC00000004089B91BC0000000C08AA860400C000000130000
310
00BA0D00003C00000006000000020000000000002000408FC00000004089B91BC0000000C08AA860400000002000408FC000000000A5C1F3BF000000802A9F5F400C00000013000000C20D00003C00000006000000020000000000002000408FC00000004089B91BC0000000C08AA860400000002000408FC00000000003C0
310
E2BF0000002086BA5F400C00000013000000CA0D00003C00000006000000020000000000002000408FC000000000C481C3BF000000E077E35F400000002000408FC00000004089B91BC0000000C08AA860400C00000013000000D20D00003C00000006000000020000000000002000408FC00000004089B91BC0000000C08A
310
A860400000002000408FC00000000000F023BF00000000E20960400C00000013000000DA0D00003C00000006000000020000000000002000408FC000000000000024BF00000000F84460400000002000408FC00000004089B91BC0000000C08AA860400C00000013000000E20D00003C000000060000000200000000000020
310
00408FC00000004089B91BC0000000C08AA860400000002000408FC00000000068CBDFBF00000080A35460400C00000013000000EA0D00003C00000006000000020000000000002000408FC000000040B1C419C000000040C9B260400000002000408FC000000000827FE8BF000000801C6960400C00000013000000F20D00
310
003C00000006000000020000000000002000408FC000000000817FE8BF00000080457F60400000002000408FC000000080CA7518C0000000402BC260400C00000013000000FA0D00003C00000006000000020000000000002000408FC0000000C0280018C00000008055D460400000002000408FC00000000064CBDFBF0000
310
00C0BE9360400C00000013000000020E00003C00000006000000020000000000002000408FC00000000000E023BF000000006AA360400000002000408FC000000020280018C0000000C0F31161400C000000130000000A0E00003C00000006000000020000000000002000408FC00000000000E023BF000000006AA3604000
310
00002000408FC0000000E03C8B17C000000040102461400C00000013000000120E00003C00000006000000020000000000002000408FC00000000000E023BF000000006AA360400000002000408FC000000060453E16C0000000006B3361400C000000130000001A0E00003C00000006000000020000000000002000408FC0
310
0000000000E023BF000000006AA360400000002000408FC0000000E0F24B14C000000040AD3D61400C00000013000000220E00003C00000006000000020000000000002000408FC00000000000E023BF000000006AA360400000002000408FC0000000C0270012C00000008047416140
100
AcDbSubDMesh
 71
     2
 72
     0
 91
        0
 92
      214
 10
1000.000061035156
 20
-7.00017499923706
 30
64.50835418701172
 10
1000.000061035156
 20
-6.933185100555419
 30
64.26184844970703
 10
1000.000061035156
 20
-6.750178813934326
 30
64.08140563964844
 10
1000.000061035156
 20
-6.500174522399902
 30
64.01535034179687
 10
1000.000061035156
 20
-1.00017499923706
 30
64.01535034179687
 10
1000.000061035156
 20
-0.7501716613769532
 30
63.94929504394531
 10
1000.000061035156
 20
-0.5671653747558594
 30
63.76885223388672
 10
1000.000061035156
 20
-0.5001754760742188
 30
63.52235031127929
 10
1000.000061035156
 20
-0.5001749992370606
 30
58.59235000610351
 10
1000.000061035156
 20
-0.5671648979187012
 30
58.34584808349609
 10
1000.000061035156
 20
-0.750171184539795
 30
58.16540145874023
 10
1000.000061035156
 20
-1.00017499923706
 30
58.09934997558594
 10
1000.000061035156
 20
-6.500174522399902
 30
58.09934997558594
 10
1000.000061035156
 20
-6.750179290771484
 30
58.03329849243164
 10
1000.000061035156
 20
-6.933184623718261
 30
57.85285568237305
 10
1000.000061035156
 20
-7.000175476074218
 30
57.60634994506836
 10
1000.000061035156
 20
-7.00017499923706
 30
23.58934783935547
 10
1000.000061035156
 20
-6.847930431365966
 30
22.83469390869141
 10
1000.000061035156
 20
-6.414387702941894
 30
22.19493865966797
 10
1000.000061035156
 20
-5.765551090240478
 30
21.76746368408203
 10
1000.000061035156
 20
-5.000174522399902
 30
21.61734771728516
 10
1000.000061035156
 20
-0.5001749992370606
 30
21.61734771728516
 10
1000.000061035156
 20
-0.2501797676086426
 30
21.55130767822265
 10
1000.000061035156
 20
-0.0671601295471192
 30
21.37084197998047
 10
1000.000061035156
 20
-0.0001749992370605
 30
21.12435150146485
 10
1000.000061035156
 20
-0.0001773834228516
 30
18.24193572998047
 10
1000.000061035156
 20
-0.4968147277832032
 30
17.75226593017578
 10
1000.000061035156
 20
-0.765589714050293
 30
17.11248016357422
 10
1000.000061035156
 20
-0.765589714050293
 30
16.41997528076172
 10
1000.000061035156
 20
-0.4968123435974121
 30
15.78018951416015
 10
1000.000061035156
 20
-0.0001749992370605
 30
15.29051971435547
 10
1000.000061035156
 20
-0.0001749992370605
 30
11.27861785888672
 10
1000.000061035156
 20
-0.0671601295471192
 30
11.03212738037109
 10
1000.000061035156
 20
-0.2501797676086426
 30
10.85166931152343
 10
1000.000061035156
 20
-0.5001749992370606
 30
10.7856216430664
 10
1000.000061035156
 20
-5.601996898651123
 30
10.7856216430664
 10
1000.000061035156
 20
-6.393244743347167
 30
10.6247329711914
 10
1000.000061035156
 20
-7.055362701416015
 30
10.16832733154297
 10
1000.000061035156
 20
-7.480354309082031
 30
9.490867614746093
 10
1000.000061035156
 20
-11.00017547607422
 30
0.0
 10
1000.000061035156
 20
-15.00017166137695
 30
0.0
 10
1000.000061035156
 20
-15.00017356872558
 30
97.60942840576172
 10
1000.000061035156
 20
-14.77181434631347
 30
98.74140167236328
 10
1000.000061035156
 20
-14.12149620056152
 30
99.70104217529296
 10
1000.000061035156
 20
-8.886605262756347
 30
104.8626480102539
 10
1000.000061035156
 20
-8.088929176330566
 30
105.9865188598632
 10
1000.000061035156
 20
-7.729895591735839
 30
107.3117904663086
 10
1000.000061035156
 20
-7.852935314178466
 30
108.6781539916992
 10
1000.000061035156
 20
-8.443164825439453
 30
109.9203262329101
 10
1000.000061035156
 20
-9.429182052612304
 30
110.8880386352539
 10
1000.000061035156
 20
-12.44562530517578
 30
113.9205856323242
 10
1000.000061035156
 20
-14.08413887023925
 30
116.9177932739257
 10
1000.000061035156
 20
-14.85842895507812
 30
120.2345352172851
 10
1000.000061035156
 20
-14.71436309814453
 30
123.6333312988281
 10
1000.000061035156
 20
-13.66346549987793
 30
126.8719177246093
 10
1000.000061035156
 20
-11.78129005432129
 30
129.72021484375
 10
1000.000061035156
 20
-9.201770782470703
 30
131.9759826660156
 10
1000.000061035156
 20
-6.931210041046142
 30
133.2669372558594
 10
1000.000061035156
 20
-6.442103385925292
 30
133.5870666503906
 10
1000.000061035156
 20
-6.115052700042724
 30
134.0677795410156
 10
1000.000061035156
 20
-6.000174522399902
 30
134.6354370117187
 10
1000.000061035156
 20
-6.000172138214111
 30
136.5610046386718
 10
1000.000061035156
 20
-5.885994911193847
 30
137.1269836425781
 10
1000.000061035156
 20
-5.560832023620605
 30
137.6068115234375
 10
1000.000061035156
 20
-5.074191093444824
 30
137.9273986816406
 10
1000.000061035156
 20
-4.500171661376953
 30
138.0399780273437
 10
1000.000061035156
 20
-0.0001769065856934
 30
138.0399780273437
 10
1000.000061035156
 20
-0.0001749992370605
 30
133.106689453125
 10
1000.000061035156
 20
-0.4968123435974121
 30
132.6170349121094
 10
1000.000061035156
 20
-0.765587329864502
 30
131.9772338867187
 10
1000.000061035156
 20
-0.765587329864502
 30
131.2847290039062
 10
1000.000061035156
 20
-0.4968123435974121
 30
130.6449584960937
 10
1000.000061035156
 20
-0.0001749992370605
 30
130.1552734375
 10
1000.000061035156
 20
-0.0001754760742188
 30
128.308837890625
 10
1000.000061035156
 20
-0.1524214744567871
 30
127.5541915893555
 10
1000.000061035156
 20
-0.5859642028808594
 30
126.914436340332
 10
1000.000061035156
 20
-2.846386671066284
 30
126.2511901855468
 10
1000.000061035156
 20
-4.139269828796386
 30
125.8470382690429
 10
1000.000061035156
 20
-5.273839950561523
 30
125.1142578125
 10
1000.000061035156
 20
-6.166114807128906
 30
124.1070861816406
 10
1000.000061035156
 20
-6.750060081481933
 30
122.9000625610351
 10
1000.000061035156
 20
-6.982455253601074
 30
121.58251953125
 10
1000.000061035156
 20
-6.846099853515625
 30
120.2519836425781
 10
1000.000061035156
 20
-6.351086616516113
 30
119.0069122314453
 10
1000.000061035156
 20
-5.534052848815917
 30
117.939468383789
 10
1000.000061035156
 20
-4.455467224121093
 30
117.1286544799804
 10
1000.000061035156
 20
-3.195161581039428
 30
116.6344833374023
 10
1000.000061035156
 20
-1.036327838897705
 30
115.8661727905273
 10
1000.000061035156
 20
-0.6390314102172852
 30
115.2444381713867
 10
1000.000061035156
 20
-0.5001773834228516
 30
114.5224838256836
 10
1000.000061035156
 20
-0.5001749992370606
 30
102.7931747436523
 10
1000.000061035156
 20
-0.6524176597595215
 30
102.0385284423828
 10
1000.000061035156
 20
-1.085960865020751
 30
101.3987655639648
 10
1000.000061035156
 20
-6.41438865661621
 30
96.14493560791016
 10
1000.000061035156
 20
-6.847933769226074
 30
95.50517272949219
 10
1000.000061035156
 20
-7.000176429748535
 30
94.75051879882812
 10
1000.000061035156
 20
-11.35881423950195
 30
112.6333389282226
 10
1000.000061035156
 20
-13.37950134277344
 30
115.3877792358398
 10
1000.000061035156
 20
-14.58917808532715
 30
118.5718460083007
 10
1000.000061035156
 20
-14.9011173248291
 30
121.9593811035156
 10
1000.000061035156
 20
-14.29190444946289
 30
125.309097290039
 10
1000.000061035156
 20
-12.80379676818848
 30
128.3813781738281
 10
1000.000061035156
 20
-10.54253768920898
 30
130.9556274414062
 10
1000.000061035156
 20
-1.234801292419433
 30
126.4869689941406
 10
1000.000061035156
 20
-2.000176429748535
 30
126.3368530273437
 10
1000.000061035156
 20
-2.357319355010986
 30
116.4894409179687
 10
1000.000061035156
 20
-1.636895656585693
 30
116.3013153076172
 10
-1000.000061035156
 20
-7.000152111053466
 30
64.50835418701172
 10
-1000.000061035156
 20
-7.000152587890625
 30
57.60634994506836
 10
-1000.000061035156
 20
-6.933162212371826
 30
64.26184844970703
 10
-1000.000061035156
 20
-15.00015258789062
 30
-0.0000076293945313
 10
-1000.000061035156
 20
-11.00015258789062
 30
-0.0000076293945313
 10
-1000.000061035156
 20
-7.000152587890625
 30
23.58935546875
 10
-1000.000061035156
 20
-7.055339813232421
 30
10.1683349609375
 10
-1000.000061035156
 20
-5.601974487304687
 30
10.78562927246093
 10
-1000.000061035156
 20
-5.000151634216308
 30
21.61735534667969
 10
-1000.000061035156
 20
-6.393222332000732
 30
10.62474060058594
 10
-1000.000061035156
 20
-6.414365768432617
 30
22.1949462890625
 10
-1000.000061035156
 20
-0.4967894554138184
 30
17.75227355957031
 10
-1000.000061035156
 20
-0.0001521110534668
 30
18.241943359375
 10
-1000.000061035156
 20
-0.000152587890625
 30
21.12435913085938
 10
-1000.000061035156
 20
-0.0671377182006836
 30
21.370849609375
 10
-1000.000061035156
 20
-0.250157356262207
 30
21.55131530761719
 10
-1000.000061035156
 20
-0.500152587890625
 30
21.61735534667969
 10
-1000.000061035156
 20
-0.500152587890625
 30
10.78562927246093
 10
-1000.000061035156
 20
-6.75015640258789
 30
64.08140563964844
 10
-1000.000061035156
 20
-1.000151634216308
 30
58.09934997558594
 10
-1000.000061035156
 20
-0.7501487731933594
 30
63.94929504394531
 10
-1000.000061035156
 20
-0.5671401023864746
 30
58.34584808349609
 10
-1000.000061035156
 20
-0.5671420097351075
 30
63.76885223388672
 10
-1000.000061035156
 20
-0.500150203704834
 30
58.59235000610351
 10
-1000.000061035156
 20
-14.77179336547851
 30
98.74140167236328
 10
-1000.000061035156
 20
-14.1214714050293
 30
99.70104217529296
 10
-1000.000061035156
 20
-1.0859375
 30
101.3987655639648
 10
-1000.000061035156
 20
-8.886578559875488
 30
104.8626480102539
 10
-1000.000061035156
 20
-0.6390066146850586
 30
115.2444381713867
 10
-1000.000061035156
 20
-1.036303043365478
 30
115.8661727905273
 10
-1000.000061035156
 20
-8.443141937255859
 30
109.9203262329101
 10
-1000.000061035156
 20
-1.636871814727783
 30
116.3013153076172
 10
-1000.000061035156
 20
-2.357295513153076
 30
116.4894409179687
 10
-1000.000061035156
 20
-5.534030437469482
 30
117.939468383789
 10
-1000.000061035156
 20
-12.44560050964355
 30
113.9205856323242
 10
-1000.000061035156
 20
-13.37947463989258
 30
115.3877792358398
 10
-1000.000061035156
 20
-6.750037193298339
 30
122.9000625610351
 10
-1000.000061035156
 20
-14.85840797424316
 30
120.2345352172851
 10
-1000.000061035156
 20
-6.166095256805419
 30
124.1070861816406
 10
-1000.000061035156
 20
-14.90109634399414
 30
121.9593811035156
 10
-1000.000061035156
 20
-14.2918815612793
 30
125.309097290039
 10
-1000.000061035156
 20
-12.80377197265625
 30
128.3813781738281
 10
-1000.000061035156
 20
-2.846363306045532
 30
126.2511901855468
 10
-1000.000061035156
 20
-0.1523976325988769
 30
127.5541915893555
 10
-1000.000061035156
 20
-0.000152587890625
 30
130.1552734375
 10
-1000.000061035156
 20
-6.442082405090332
 30
133.5870666503906
 10
-1000.000061035156
 20
-0.7655644416809082
 30
131.9772338867187
 10
-1000.000061035156
 20
-6.115030288696289
 30
134.0677795410156
 10
-1000.000061035156
 20
-6.000155448913574
 30
134.6354370117187
 10
-1000.000061035156
 20
-0.0001516342163086
 30
133.106689453125
 10
-1000.000061035156
 20
-6.000153064727783
 30
136.5610046386718
 10
-1000.000061035156
 20
-6.933161735534667
 30
57.85285568237305
 10
-1000.000061035156
 20
-7.480330467224121
 30
9.490875244140625
 10
-1000.000061035156
 20
-6.847906589508056
 30
22.83470153808594
 10
-1000.000061035156
 20
-0.7655649185180664
 30
16.41998291015625
 10
-1000.000061035156
 20
-0.7655649185180664
 30
17.11248779296875
 10
-1000.000061035156
 20
-5.765528202056884
 30
21.76747131347656
 10
-1000.000061035156
 20
-0.4967875480651856
 30
15.78019714355469
 10
-1000.000061035156
 20
-0.250157356262207
 30
10.85166931152343
 10
-1000.000061035156
 20
-0.0671377182006836
 30
11.03213500976562
 10
-1000.000061035156
 20
-0.000152587890625
 30
11.27862548828125
 10
-1000.000061035156
 20
-0.000150203704834
 30
15.29052734375
 10
-1000.000061035156
 20
-15.00015258789062
 30
97.60942840576172
 10
-1000.000061035156
 20
-7.000152587890625
 30
94.75051879882812
 10
-1000.000061035156
 20
-6.750157356262207
 30
58.03329849243164
 10
-1000.000061035156
 20
-6.500153541564941
 30
58.09934997558594
 10
-1000.000061035156
 20
-6.500152587890625
 30
64.01535034179687
 10
-1000.000061035156
 20
-1.000152587890625
 30
64.01535034179687
 10
-1000.000061035156
 20
-0.7501463890075684
 30
58.16540145874023
 10
-1000.000061035156
 20
-0.5001521110534668
 30
63.52235031127929
 10
-1000.000061035156
 20
-6.84791088104248
 30
95.50517272949219
 10
-1000.000061035156
 20
-6.414366722106933
 30
96.14493560791016
 10
-1000.000061035156
 20
-0.652392864227295
 30
102.0385284423828
 10
-1000.000061035156
 20
-8.088903427124023
 30
105.9865188598632
 10
-1000.000061035156
 20
-0.500150203704834
 30
102.7931747436523
 10
-1000.000061035156
 20
-7.729872226715087
 30
107.3117904663086
 10
-1000.000061035156
 20
-0.500152587890625
 30
114.5224838256836
 10
-1000.000061035156
 20
-7.852912425994873
 30
108.6781539916992
 10
-1000.000061035156
 20
-9.429161071777343
 30
110.8880386352539
 10
-1000.000061035156
 20
-3.195138692855834
 30
116.6344833374023
 10
-1000.000061035156
 20
-4.455445289611816
 30
117.1286544799804
 10
-1000.000061035156
 20
-11.35879135131836
 30
112.6333389282226
 10
-1000.000061035156
 20
-6.351064682006835
 30
119.0069122314453
 10
-1000.000061035156
 20
-6.846076965332031
 30
120.2519836425781
 10
-1000.000061035156
 20
-6.982431411743164
 30
121.58251953125
 10
-1000.000061035156
 20
-14.08411407470703
 30
116.9177932739257
 10
-1000.000061035156
 20
-14.58915710449218
 30
118.5718460083007
 10
-1000.000061035156
 20
-5.27381944656372
 30
125.1142578125
 10
-1000.000061035156
 20
-14.71434211730957
 30
123.6333312988281
 10
-1000.000061035156
 20
-13.6634407043457
 30
126.8719177246093
 10
-1000.000061035156
 20
-4.139249801635742
 30
125.8470382690429
 10
-1000.000061035156
 20
-11.78126716613769
 30
129.72021484375
 10
-1000.000061035156
 20
-10.54251480102539
 30
130.9556274414062
 10
-1000.000061035156
 20
-9.201747894287109
 30
131.9759826660156
 10
-1000.000061035156
 20
-2.000152587890625
 30
126.3368530273437
 10
-1000.000061035156
 20
-6.931187629699707
 30
133.2669372558594
 10
-1000.000061035156
 20
-1.234776496887207
 30
126.4869689941406
 10
-1000.000061035156
 20
-0.5859389305114746
 30
126.914436340332
 10
-1000.000061035156
 20
-0.0001521110534668
 30
128.308837890625
 10
-1000.000061035156
 20
-0.4967899322509766
 30
130.6449584960937
 10
-1000.000061035156
 20
-0.7655649185180664
 30
131.2847290039062
 10
-1000.000061035156
 20
-0.4967889785766602
 30
132.6170349121094
 10
-1000.000061035156
 20
-5.560811519622802
 30
137.6068115234375
 10
-1000.000061035156
 20
-5.885974407196044
 30
137.1269836425781
 10
-1000.000061035156
 20
-4.500151634216308
 30
138.0399780273437
 10
-1000.000061035156
 20
-5.074168682098388
 30
137.9273986816406
 10
-1000.000061035156
 20
-0.0001521110534668
 30
138.0399780273437
 93
     1147
 90
        4
 90
        0
 90
       15
 90
       14
 90
        1
 90
        3
 90
       40
 90
       39
 90
       38
 90
        3
 90
       40
 90
       38
 90
       16
 90
        4
 90
       38
 90
       37
 90
       17
 90
       16
 90
        4
 90
       35
 90
       28
 90
       27
 90
       20
 90
        4
 90
       36
 90
       35
 90
       20
 90
       19
 90
        4
 90
       37
 90
       36
 90
       19
 90
       18
 90
        3
 90
       37
 90
       18
 90
       17
 90
        4
 90
       26
 90
       25
 90
       24
 90
       23
 90
        3
 90
       26
 90
       22
 90
       21
 90
        4
 90
       27
 90
       26
 90
       21
 90
       20
 90
        4
 90
       35
 90
       34
 90
       29
 90
       28
 90
        3
 90
       34
 90
       33
 90
       29
 90
        3
 90
       33
 90
       32
 90
       29
 90
        4
 90
       32
 90
       31
 90
       30
 90
       29
 90
        3
 90
       26
 90
       23
 90
       22
 90
        4
 90
       41
 90
       40
 90
       16
 90
       15
 90
        3
 90
        0
 90
       95
 90
       41
 90
        3
 90
       15
 90
        0
 90
       41
 90
        4
 90
       14
 90
       13
 90
        2
 90
        1
 90
        4
 90
       13
 90
       12
 90
        3
 90
        2
 90
        4
 90
       12
 90
       11
 90
        4
 90
        3
 90
        4
 90
       11
 90
       10
 90
        5
 90
        4
 90
        4
 90
       10
 90
        9
 90
        6
 90
        5
 90
        4
 90
        9
 90
        8
 90
        7
 90
        6
 90
        4
 90
       95
 90
       94
 90
       42
 90
       41
 90
        4
 90
       94
 90
       93
 90
       43
 90
       42
 90
        4
 90
       93
 90
       92
 90
       44
 90
       43
 90
        4
 90
       92
 90
       91
 90
       45
 90
       44
 90
        4
 90
       91
 90
       90
 90
       46
 90
       45
 90
        4
 90
       90
 90
       89
 90
       47
 90
       46
 90
        3
 90
       89
 90
       88
 90
       47
 90
        4
 90
       88
 90
       87
 90
       48
 90
       47
 90
        3
 90
       87
 90
      106
 90
       48
 90
        4
 90
      106
 90
      105
 90
       49
 90
       48
 90
        3
 90
      105
 90
       86
 90
       49
 90
        4
 90
       86
 90
       85
 90
       96
 90
       49
 90
        3
 90
       85
 90
       84
 90
       96
 90
        4
 90
       84
 90
       83
 90
       50
 90
       96
 90
        4
 90
       83
 90
       82
 90
       97
 90
       50
 90
        4
 90
       82
 90
       81
 90
       51
 90
       97
 90
        4
 90
       81
 90
       80
 90
       98
 90
       51
 90
        3
 90
       80
 90
       52
 90
       98
 90
        4
 90
       80
 90
       79
 90
       99
 90
       52
 90
        4
 90
       79
 90
       78
 90
      100
 90
       53
 90
        3
 90
       79
 90
       53
 90
       99
 90
        3
 90
       78
 90
       54
 90
      100
 90
        4
 90
       78
 90
       77
 90
      101
 90
       54
 90
        3
 90
       77
 90
       55
 90
      101
 90
        4
 90
       77
 90
       76
 90
      102
 90
       55
 90
        3
 90
       76
 90
       56
 90
      102
 90
        4
 90
       76
 90
      104
 90
       57
 90
       56
 90
        3
 90
      104
 90
      103
 90
       57
 90
        3
 90
      103
 90
       75
 90
       57
 90
        3
 90
       75
 90
       74
 90
       57
 90
        3
 90
       74
 90
       73
 90
       57
 90
        3
 90
       73
 90
       72
 90
       57
 90
        3
 90
       72
 90
       71
 90
       57
 90
        4
 90
       71
 90
       70
 90
       58
 90
       57
 90
        4
 90
       70
 90
       69
 90
       59
 90
       58
 90
        4
 90
       69
 90
       68
 90
       60
 90
       59
 90
        4
 90
       68
 90
       67
 90
       61
 90
       60
 90
        3
 90
       67
 90
       63
 90
       62
 90
        3
 90
       67
 90
       62
 90
       61
 90
        3
 90
       67
 90
       65
 90
       64
 90
        3
 90
       67
 90
       64
 90
       63
 90
        3
 90
       67
 90
       66
 90
       65
 90
        4
 90
       39
 90
       40
 90
      110
 90
      111
 90
        4
 90
       40
 90
       41
 90
      169
 90
      110
 90
        4
 90
       41
 90
       42
 90
      131
 90
      169
 90
        4
 90
       42
 90
       43
 90
      132
 90
      131
 90
        4
 90
       43
 90
       44
 90
      134
 90
      132
 90
        4
 90
       44
 90
       45
 90
      180
 90
      134
 90
        4
 90
       45
 90
       46
 90
      182
 90
      180
 90
        4
 90
       46
 90
       47
 90
      184
 90
      182
 90
        4
 90
       47
 90
       48
 90
      137
 90
      184
 90
        4
 90
       48
 90
       49
 90
      185
 90
      137
 90
        4
 90
       49
 90
       96
 90
      188
 90
      185
 90
        4
 90
       96
 90
       50
 90
      141
 90
      188
 90
        4
 90
       50
 90
       97
 90
      142
 90
      141
 90
        4
 90
       97
 90
       51
 90
      192
 90
      142
 90
        4
 90
       51
 90
       98
 90
      193
 90
      192
 90
        4
 90
       98
 90
       52
 90
      144
 90
      193
 90
        4
 90
       52
 90
       99
 90
      146
 90
      144
 90
        4
 90
       99
 90
       53
 90
      195
 90
      146
 90
        4
 90
       53
 90
      100
 90
      147
 90
      195
 90
        4
 90
      100
 90
       54
 90
      196
 90
      147
 90
        4
 90
       54
 90
      101
 90
      148
 90
      196
 90
        4
 90
      101
 90
       55
 90
      198
 90
      148
 90
        4
 90
       55
 90
      102
 90
      199
 90
      198
 90
        4
 90
      102
 90
       56
 90
      200
 90
      199
 90
        4
 90
       56
 90
       57
 90
      202
 90
      200
 90
        4
 90
       57
 90
       58
 90
      152
 90
      202
 90
        4
 90
       58
 90
       59
 90
      154
 90
      152
 90
        4
 90
       59
 90
       60
 90
      155
 90
      154
 90
        4
 90
       60
 90
       61
 90
      157
 90
      155
 90
        4
 90
       61
 90
       62
 90
      210
 90
      157
 90
        4
 90
       62
 90
       63
 90
      209
 90
      210
 90
        4
 90
       63
 90
       64
 90
      212
 90
      209
 90
        4
 90
       64
 90
       65
 90
      211
 90
      212
 90
        4
 90
       65
 90
       66
 90
      213
 90
      211
 90
        4
 90
       66
 90
       67
 90
      156
 90
      213
 90
        4
 90
       67
 90
       68
 90
      208
 90
      156
 90
        4
 90
       68
 90
       69
 90
      153
 90
      208
 90
        4
 90
       69
 90
       70
 90
      207
 90
      153
 90
        4
 90
       70
 90
       71
 90
      206
 90
      207
 90
        4
 90
       71
 90
       72
 90
      151
 90
      206
 90
        4
 90
       72
 90
       73
 90
      205
 90
      151
 90
        4
 90
       73
 90
       74
 90
      150
 90
      205
 90
        4
 90
       74
 90
       75
 90
      204
 90
      150
 90
        4
 90
       75
 90
      103
 90
      203
 90
      204
 90
        4
 90
      103
 90
      104
 90
      201
 90
      203
 90
        4
 90
      104
 90
       76
 90
      149
 90
      201
 90
        4
 90
       76
 90
       77
 90
      197
 90
      149
 90
        4
 90
       77
 90
       78
 90
      194
 90
      197
 90
        4
 90
       78
 90
       79
 90
      145
 90
      194
 90
        4
 90
       79
 90
       80
 90
      143
 90
      145
 90
        4
 90
       80
 90
       81
 90
      191
 90
      143
 90
        4
 90
       81
 90
       82
 90
      190
 90
      191
 90
        4
 90
       82
 90
       83
 90
      189
 90
      190
 90
        4
 90
       83
 90
       84
 90
      140
 90
      189
 90
        4
 90
       84
 90
       85
 90
      187
 90
      140
 90
        4
 90
       85
 90
       86
 90
      186
 90
      187
 90
        4
 90
       86
 90
      105
 90
      139
 90
      186
 90
        4
 90
      105
 90
      106
 90
      138
 90
      139
 90
        4
 90
      106
 90
       87
 90
      136
 90
      138
 90
        4
 90
       87
 90
       88
 90
      135
 90
      136
 90
        4
 90
       88
 90
       89
 90
      183
 90
      135
 90
        4
 90
       89
 90
       90
 90
      181
 90
      183
 90
        4
 90
       90
 90
       91
 90
      179
 90
      181
 90
        4
 90
       91
 90
       92
 90
      133
 90
      179
 90
        4
 90
       92
 90
       93
 90
      178
 90
      133
 90
        4
 90
       93
 90
       94
 90
      177
 90
      178
 90
        4
 90
       94
 90
       95
 90
      170
 90
      177
 90
        4
 90
       95
 90
        0
 90
      107
 90
      170
 90
        4
 90
        0
 90
        1
 90
      109
 90
      107
 90
        4
 90
        1
 90
        2
 90
      125
 90
      109
 90
        4
 90
        2
 90
        3
 90
      173
 90
      125
 90
        4
 90
        3
 90
        4
 90
      174
 90
      173
 90
        4
 90
        4
 90
        5
 90
      127
 90
      174
 90
        4
 90
        5
 90
        6
 90
      129
 90
      127
 90
        4
 90
        6
 90
        7
 90
      176
 90
      129
 90
        4
 90
        7
 90
        8
 90
      130
 90
      176
 90
        4
 90
        8
 90
        9
 90
      128
 90
      130
 90
        4
 90
        9
 90
       10
 90
      175
 90
      128
 90
        4
 90
       10
 90
       11
 90
      126
 90
      175
 90
        4
 90
       11
 90
       12
 90
      172
 90
      126
 90
        4
 90
       12
 90
       13
 90
      171
 90
      172
 90
        4
 90
       13
 90
       14
 90
      158
 90
      171
 90
        4
 90
       14
 90
       15
 90
      108
 90
      158
 90
        4
 90
       15
 90
       16
 90
      112
 90
      108
 90
        4
 90
       16
 90
       17
 90
      160
 90
      112
 90
        4
 90
       17
 90
       18
 90
      117
 90
      160
 90
        4
 90
       18
 90
       19
 90
      163
 90
      117
 90
        4
 90
       19
 90
       20
 90
      115
 90
      163
 90
        4
 90
       20
 90
       21
 90
      123
 90
      115
 90
        4
 90
       21
 90
       22
 90
      122
 90
      123
 90
        4
 90
       22
 90
       23
 90
      121
 90
      122
 90
        4
 90
       23
 90
       24
 90
      120
 90
      121
 90
        4
 90
       24
 90
       25
 90
      119
 90
      120
 90
        4
 90
       25
 90
       26
 90
      118
 90
      119
 90
        4
 90
       26
 90
       27
 90
      162
 90
      118
 90
        4
 90
       27
 90
       28
 90
      161
 90
      162
 90
        4
 90
       28
 90
       29
 90
      164
 90
      161
 90
        4
 90
       29
 90
       30
 90
      168
 90
      164
 90
        4
 90
       30
 90
       31
 90
      167
 90
      168
 90
        4
 90
       31
 90
       32
 90
      166
 90
      167
 90
        4
 90
       32
 90
       33
 90
      165
 90
      166
 90
        4
 90
       33
 90
       34
 90
      124
 90
      165
 90
        4
 90
       34
 90
       35
 90
      114
 90
      124
 90
        4
 90
       35
 90
       36
 90
      116
 90
      114
 90
        4
 90
       36
 90
       37
 90
      113
 90
      116
 90
        4
 90
       37
 90
       38
 90
      159
 90
      113
 90
        4
 90
       38
 90
       39
 90
      111
 90
      159
 90
        4
 90
      107
 90
      109
 90
      158
 90
      108
 90
        3
 90
      110
 90
      159
 90
      111
 90
        3
 90
      110
 90
      112
 90
      159
 90
        4
 90
      159
 90
      112
 90
      160
 90
      113
 90
        4
 90
      114
 90
      115
 90
      162
 90
      161
 90
        4
 90
      116
 90
      163
 90
      115
 90
      114
 90
        4
 90
      113
 90
      117
 90
      163
 90
      116
 90
        3
 90
      113
 90
      160
 90
      117
 90
        4
 90
      118
 90
      121
 90
      120
 90
      119
 90
        3
 90
      118
 90
      123
 90
      122
 90
        4
 90
      162
 90
      115
 90
      123
 90
      118
 90
        4
 90
      114
 90
      161
 90
      164
 90
      124
 90
        3
 90
      124
 90
      164
 90
      165
 90
        3
 90
      165
 90
      164
 90
      166
 90
        4
 90
      166
 90
      164
 90
      168
 90
      167
 90
        3
 90
      118
 90
      122
 90
      121
 90
        4
 90
      169
 90
      108
 90
      112
 90
      110
 90
        3
 90
      107
 90
      169
 90
      170
 90
        3
 90
      108
 90
      169
 90
      107
 90
        4
 90
      158
 90
      109
 90
      125
 90
      171
 90
        4
 90
      171
 90
      125
 90
      173
 90
      172
 90
        4
 90
      172
 90
      173
 90
      174
 90
      126
 90
        4
 90
      126
 90
      174
 90
      127
 90
      175
 90
        4
 90
      175
 90
      127
 90
      129
 90
      128
 90
        4
 90
      128
 90
      129
 90
      176
 90
      130
 90
        4
 90
      170
 90
      169
 90
      131
 90
      177
 90
        4
 90
      177
 90
      131
 90
      132
 90
      178
 90
        4
 90
      178
 90
      132
 90
      134
 90
      133
 90
        4
 90
      133
 90
      134
 90
      180
 90
      179
 90
        4
 90
      179
 90
      180
 90
      182
 90
      181
 90
        4
 90
      181
 90
      182
 90
      184
 90
      183
 90
        3
 90
      183
 90
      184
 90
      135
 90
        4
 90
      135
 90
      184
 90
      137
 90
      136
 90
        3
 90
      136
 90
      137
 90
      138
 90
        4
 90
      138
 90
      137
 90
      185
 90
      139
 90
        3
 90
      139
 90
      185
 90
      186
 90
        4
 90
      186
 90
      185
 90
      188
 90
      187
 90
        3
 90
      187
 90
      188
 90
      140
 90
        4
 90
      140
 90
      188
 90
      141
 90
      189
 90
        4
 90
      189
 90
      141
 90
      142
 90
      190
 90
        4
 90
      190
 90
      142
 90
      192
 90
      191
 90
        4
 90
      191
 90
      192
 90
      193
 90
      143
 90
        3
 90
      143
 90
      193
 90
      144
 90
        4
 90
      143
 90
      144
 90
      146
 90
      145
 90
        4
 90
      145
 90
      195
 90
      147
 90
      194
 90
        3
 90
      145
 90
      146
 90
      195
 90
        3
 90
      194
 90
      147
 90
      196
 90
        4
 90
      194
 90
      196
 90
      148
 90
      197
 90
        3
 90
      197
 90
      148
 90
      198
 90
        4
 90
      197
 90
      198
 90
      199
 90
      149
 90
        3
 90
      149
 90
      199
 90
      200
 90
        4
 90
      149
 90
      200
 90
      202
 90
      201
 90
        3
 90
      201
 90
      202
 90
      203
 90
        3
 90
      203
 90
      202
 90
      204
 90
        3
 90
      204
 90
      202
 90
      150
 90
        3
 90
      150
 90
      202
 90
      205
 90
        3
 90
      205
 90
      202
 90
      151
 90
        3
 90
      151
 90
      202
 90
      206
 90
        4
 90
      206
 90
      202
 90
      152
 90
      207
 90
        4
 90
      207
 90
      152
 90
      154
 90
      153
 90
        4
 90
      153
 90
      154
 90
      155
 90
      208
 90
        4
 90
      208
 90
      155
 90
      157
 90
      156
 90
        3
 90
      156
 90
      210
 90
      209
 90
        3
 90
      156
 90
      157
 90
      210
 90
        3
 90
      156
 90
      212
 90
      211
 90
        3
 90
      156
 90
      209
 90
      212
 90
        3
 90
      156
 90
      211
 90
      213
 94
      453
 90
        0
 90
       15
 90
       14
 90
       15
 90
        1
 90
       14
 90
        0
 90
        1
 90
       39
 90
       40
 90
       38
 90
       39
 90
       38
 90
       40
 90
       16
 90
       38
 90
       16
 90
       40
 90
       37
 90
       38
 90
       17
 90
       37
 90
       16
 90
       17
 90
       28
 90
       35
 90
       27
 90
       28
 90
       20
 90
       27
 90
       20
 90
       35
 90
       35
 90
       36
 90
       19
 90
       20
 90
       19
 90
       36
 90
       36
 90
       37
 90
       18
 90
       19
 90
       18
 90
       37
 90
       17
 90
       18
 90
       25
 90
       26
 90
       24
 90
       25
 90
       23
 90
       24
 90
       23
 90
       26
 90
       22
 90
       26
 90
       21
 90
       22
 90
       21
 90
       26
 90
       26
 90
       27
 90
       20
 90
       21
 90
       34
 90
       35
 90
       29
 90
       34
 90
       28
 90
       29
 90
       33
 90
       34
 90
       29
 90
       33
 90
       32
 90
       33
 90
       29
 90
       32
 90
       31
 90
       32
 90
       30
 90
       31
 90
       29
 90
       30
 90
       22
 90
       23
 90
       40
 90
       41
 90
       15
 90
       16
 90
       15
 90
       41
 90
        0
 90
       95
 90
       41
 90
       95
 90
        0
 90
       41
 90
       13
 90
       14
 90
        2
 90
       13
 90
        1
 90
        2
 90
       12
 90
       13
 90
        3
 90
       12
 90
        2
 90
        3
 90
       11
 90
       12
 90
        4
 90
       11
 90
        3
 90
        4
 90
       10
 90
       11
 90
        5
 90
       10
 90
        4
 90
        5
 90
        9
 90
       10
 90
        6
 90
        9
 90
        5
 90
        6
 90
        8
 90
        9
 90
        7
 90
        8
 90
        6
 90
        7
 90
       94
 90
       95
 90
       42
 90
       94
 90
       41
 90
       42
 90
       93
 90
       94
 90
       43
 90
       93
 90
       42
 90
       43
 90
       92
 90
       93
 90
       44
 90
       92
 90
       43
 90
       44
 90
       91
 90
       92
 90
       45
 90
       91
 90
       44
 90
       45
 90
       90
 90
       91
 90
       46
 90
       90
 90
       45
 90
       46
 90
       89
 90
       90
 90
       47
 90
       89
 90
       46
 90
       47
 90
       88
 90
       89
 90
       47
 90
       88
 90
       87
 90
       88
 90
       48
 90
       87
 90
       47
 90
       48
 90
       87
 90
      106
 90
       48
 90
      106
 90
      105
 90
      106
 90
       49
 90
      105
 90
       48
 90
       49
 90
       86
 90
      105
 90
       49
 90
       86
 90
       85
 90
       86
 90
       85
 90
       96
 90
       49
 90
       96
 90
       84
 90
       85
 90
       84
 90
       96
 90
       83
 90
       84
 90
       50
 90
       83
 90
       50
 90
       96
 90
       82
 90
       83
 90
       82
 90
       97
 90
       50
 90
       97
 90
       81
 90
       82
 90
       51
 90
       81
 90
       51
 90
       97
 90
       80
 90
       81
 90
       80
 90
       98
 90
       51
 90
       98
 90
       52
 90
       80
 90
       52
 90
       98
 90
       79
 90
       80
 90
       79
 90
       99
 90
       52
 90
       99
 90
       78
 90
       79
 90
       78
 90
      100
 90
       53
 90
      100
 90
       53
 90
       79
 90
       53
 90
       99
 90
       54
 90
       78
 90
       54
 90
      100
 90
       77
 90
       78
 90
       77
 90
      101
 90
       54
 90
      101
 90
       55
 90
       77
 90
       55
 90
      101
 90
       76
 90
       77
 90
       76
 90
      102
 90
       55
 90
      102
 90
       56
 90
       76
 90
       56
 90
      102
 90
       76
 90
      104
 90
       57
 90
      104
 90
       56
 90
       57
 90
      103
 90
      104
 90
       57
 90
      103
 90
       75
 90
      103
 90
       57
 90
       75
 90
       74
 90
       75
 90
       57
 90
       74
 90
       73
 90
       74
 90
       57
 90
       73
 90
       72
 90
       73
 90
       57
 90
       72
 90
       71
 90
       72
 90
       57
 90
       71
 90
       70
 90
       71
 90
       58
 90
       70
 90
       57
 90
       58
 90
       69
 90
       70
 90
       59
 90
       69
 90
       58
 90
       59
 90
       68
 90
       69
 90
       60
 90
       68
 90
       59
 90
       60
 90
       67
 90
       68
 90
       61
 90
       67
 90
       60
 90
       61
 90
       63
 90
       67
 90
       62
 90
       63
 90
       62
 90
       67
 90
       61
 90
       62
 90
       65
 90
       67
 90
       64
 90
       65
 90
       64
 90
       67
 90
       63
 90
       64
 90
       66
 90
       67
 90
       65
 90
       66
 90
       40
 90
      110
 90
      110
 90
      111
 90
       39
 90
      111
 90
       41
 90
      169
 90
      110
 90
      169
 90
       42
 90
      131
 90
      131
 90
      169
 90
       43
 90
      132
 90
      131
 90
      132
 90
       44
 90
      134
 90
      132
 90
      134
 90
       45
 90
      180
 90
      134
 90
      180
 90
       46
 90
      182
 90
      180
 90
      182
 90
       47
 90
      184
 90
      182
 90
      184
 90
       48
 90
      137
 90
      137
 90
      184
 90
       49
 90
      185
 90
      137
 90
      185
 90
       96
 90
      188
 90
      185
 90
      188
 90
       50
 90
      141
 90
      141
 90
      188
 90
       97
 90
      142
 90
      141
 90
      142
 90
       51
 90
      192
 90
      142
 90
      192
 90
       98
 90
      193
 90
      192
 90
      193
 90
       52
 90
      144
 90
      144
 90
      193
 90
       99
 90
      146
 90
      144
 90
      146
 90
       53
 90
      195
 90
      146
 90
      195
 90
      100
 90
      147
 90
      147
 90
      195
 90
       54
 90
      196
 90
      147
 90
      196
 90
      101
 90
      148
 90
      148
 90
      196
 90
       55
 90
      198
 90
      148
 90
      198
 90
      102
 90
      199
 90
      198
 90
      199
 90
       56
 90
      200
 90
      199
 90
      200
 90
       57
 90
      202
 90
      200
 90
      202
 90
       58
 90
      152
 90
      152
 90
      202
 90
       59
 90
      154
 90
      152
 90
      154
 90
       60
 90
      155
 90
      154
 90
      155
 90
       61
 90
      157
 90
      155
 90
      157
 90
       62
 90
      210
 90
      157
 90
      210
 90
       63
 90
      209
 90
      209
 90
      210
 90
       64
 90
      212
 90
      209
 90
      212
 90
       65
 90
      211
 90
      211
 90
      212
 90
       66
 90
      213
 90
      211
 90
      213
 90
       67
 90
      156
 90
      156
 90
      213
 90
       68
 90
      208
 90
      156
 90
      208
 90
       69
 90
      153
 90
      153
 90
      208
 90
       70
 90
      207
 90
      153
 90
      207
 90
       71
 90
      206
 90
      206
 90
      207
 90
       72
 90
      151
 90
      151
 90
      206
 90
       73
 90
      205
 90
      151
 90
      205
 90
       74
 90
      150
 90
      150
 90
      205
 90
       75
 90
      204
 90
      150
 90
      204
 90
      103
 90
      203
 90
      203
 90
      204
 90
      104
 90
      201
 90
      201
 90
      203
 90
       76
 90
      149
 90
      149
 90
      201
 90
       77
 90
      197
 90
      149
 90
      197
 90
       78
 90
      194
 90
      194
 90
      197
 90
       79
 90
      145
 90
      145
 90
      194
 90
       80
 90
      143
 90
      143
 90
      145
 90
       81
 90
      191
 90
      143
 90
      191
 90
       82
 90
      190
 90
      190
 90
      191
 90
       83
 90
      189
 90
      189
 90
      190
 90
       84
 90
      140
 90
      140
 90
      189
 90
       85
 90
      187
 90
      140
 90
      187
 90
       86
 90
      186
 90
      186
 90
      187
 90
      105
 90
      139
 90
      139
 90
      186
 90
      106
 90
      138
 90
      138
 90
      139
 90
       87
 90
      136
 90
      136
 90
      138
 90
       88
 90
      135
 90
      135
 90
      136
 90
       89
 90
      183
 90
      135
 90
      183
 90
       90
 90
      181
 90
      181
 90
      183
 90
       91
 90
      179
 90
      179
 90
      181
 90
       92
 90
      133
 90
      133
 90
      179
 90
       93
 90
      178
 90
      133
 90
      178
 90
       94
 90
      177
 90
      177
 90
      178
 90
       95
 90
      170
 90
      170
 90
      177
 90
        0
 90
      107
 90
      107
 90
      170
 90
        1
 90
      109
 90
      107
 90
      109
 90
        2
 90
      125
 90
      109
 90
      125
 90
        3
 90
      173
 90
      125
 90
      173
 90
        4
 90
      174
 90
      173
 90
      174
 90
        5
 90
      127
 90
      127
 90
      174
 90
        6
 90
      129
 90
      127
 90
      129
 90
        7
 90
      176
 90
      129
 90
      176
 90
        8
 90
      130
 90
      130
 90
      176
 90
        9
 90
      128
 90
      128
 90
      130
 90
       10
 90
      175
 90
      128
 90
      175
 90
       11
 90
      126
 90
      126
 90
      175
 90
       12
 90
      172
 90
      126
 90
      172
 90
       13
 90
      171
 90
      171
 90
      172
 90
       14
 90
      158
 90
      158
 90
      171
 90
       15
 90
      108
 90
      108
 90
      158
 90
       16
 90
      112
 90
      108
 90
      112
 90
       17
 90
      160
 90
      112
 90
      160
 90
       18
 90
      117
 90
      117
 90
      160
 90
       19
 90
      163
 90
      117
 90
      163
 90
       20
 90
      115
 90
      115
 90
      163
 90
       21
 90
      123
 90
      115
 90
      123
 90
       22
 90
      122
 90
      122
 90
      123
 90
       23
 90
      121
 90
      121
 90
      122
 90
       24
 90
      120
 90
      120
 90
      121
 90
       25
 90
      119
 90
      119
 90
      120
 90
       26
 90
      118
 90
      118
 90
      119
 90
       27
 90
      162
 90
      118
 90
      162
 90
       28
 90
      161
 90
      161
 90
      162
 90
       29
 90
      164
 90
      161
 90
      164
 90
       30
 90
      168
 90
      164
 90
      168
 90
       31
 90
      167
 90
      167
 90
      168
 90
       32
 90
      166
 90
      166
 90
      167
 90
       33
 90
      165
 90
      165
 90
      166
 90
       34
 90
      124
 90
      124
 90
      165
 90
       35
 90
      114
 90
      114
 90
      124
 90
       36
 90
      116
 90
      114
 90
      116
 90
       37
 90
      113
 90
      113
 90
      116
 90
       38
 90
      159
 90
      113
 90
      159
 90
      111
 90
      159
 90
      109
 90
      158
 90
      107
 90
      108
 90
      110
 90
      159
 90
      110
 90
      112
 90
      112
 90
      159
 90
      113
 90
      160
 90
      114
 90
      115
 90
      115
 90
      162
 90
      114
 90
      161
 90
      116
 90
      163
 90
      113
 90
      117
 90
      118
 90
      121
 90
      118
 90
      123
 90
      118
 90
      122
 90
      124
 90
      164
 90
      164
 90
      165
 90
      164
 90
      166
 90
      108
 90
      169
 90
      107
 90
      169
 90
      169
 90
      170
 90
      125
 90
      171
 90
      172
 90
      173
 90
      126
 90
      174
 90
      127
 90
      175
 90
      128
 90
      129
 90
      131
 90
      177
 90
      132
 90
      178
 90
      133
 90
      134
 90
      179
 90
      180
 90
      181
 90
      182
 90
      183
 90
      184
 90
      135
 90
      184
 90
      136
 90
      137
 90
      137
 90
      138
 90
      139
 90
      185
 90
      185
 90
      186
 90
      187
 90
      188
 90
      140
 90
      188
 90
      141
 90
      189
 90
      142
 90
      190
 90
      191
 90
      192
 90
      143
 90
      193
 90
      143
 90
      144
 90
      145
 90
      146
 90
      145
 90
      195
 90
      147
 90
      194
 90
      194
 90
      196
 90
      148
 90
      197
 90
      197
 90
      198
 90
      149
 90
      199
 90
      149
 90
      200
 90
      201
 90
      202
 90
      202
 90
      203
 90
      202
 90
      204
 90
      150
 90
      202
 90
      202
 90
      205
 90
      151
 90
      202
 90
      202
 90
      206
 90
      152
 90
      207
 90
      153
 90
      154
 90
      155
 90
      208
 90
      156
 90
      157
 90
      156
 90
      210
 90
      156
 90
      209
 90
      156
 90
      212
 90
      156
 90
      211
 95
      453
140
0.0
140
0.0
140
0.0
140
0.0
140
0.0
140
0.0
140
0.0
140
0.0
140
0.0
140
0.0
140
0.0
140
0.0
140
0.0
140
0.0
140
0.0
140
0.0
140
0.0
140
0.0
140
0.0
140
0.0
140
0.0
140
0.0
140
0.0
140
0.0
140
0.0
140
0.0
140
0.0
140
0.0
140
0.0
140
0.0
140
0.0
140
0.0
140
0.0
140
0.0
140
0.0
140
0.0
140
0.0
140
0.0
140
0.0
140
0.0
140
0.0
140
0.0
140
0.0
140
0.0
140
0.0
140
0.0
140
0.0
140
0.0
140
0.0
140
0.0
140
0.0
140
0.0
140
0.0
140
0.0
140
0.0
140
0.0
140
0.0
140
0.0
140
0.0
140
0.0
140
0.0
140
0.0
140
0.0
140
0.0
140
0.0
140
0.0
140
0.0
140
0.0
140
0.0
140
0.0
140
0.0
140
0.0
140
0.0
140
0.0
140
0.0
140
0.0
140
0.0
140
0.0
140
0.0
140
0.0
140
0.0
140
0.0
140
0.0
140
0.0
140
0.0
140
0.0
140
0.0
140
0.0
140
0.0
140
0.0
140
0.0
140
0.0
140
0.0
140
0.0
140
0.0
140
0.0
140
0.0
140
0.0
140
0.0
140
0.0
140
0.0
140
0.0
140
0.0
140
0.0
140
0.0
140
0.0
140
0.0
140
0.0
140
0.0
140
0.0
140
0.0
140
0.0
140
0.0
140
0.0
140
0.0
140
0.0
140
0.0
140
0.0
140
0.0
140
0.0
140
0.0
140
0.0
140
0.0
140
0.0
140
0.0
140
0.0
140
0.0
140
0.0
140
0.0
140
0.0
140
0.0
140
0.0
140
0.0
140
0.0
140
0.0
140
0.0
140
0.0
140
0.0
140
0.0
140
0.0
140
0.0
140
0.0
140
0.0
140
0.0
140
0.0
140
0.0
140
0.0
140
0.0
140
0.0
140
0.0
140
0.0
140
0.0
140
0.0
140
0.0
140
0.0
140
0.0
140
0.0
140
0.0
140
0.0
140
0.0
140
0.0
140
0.0
140
0.0
140
0.0
140
0.0
140
0.0
140
0.0
140
0.0
140
0.0
140
0.0
140
0.0
140
0.0
140
0.0
140
0.0
140
0.0
140
0.0
140
0.0
140
0.0
140
0.0
140
0.0
140
0.0
140
0.0
140
0.0
140
0.0
140
0.0
140
0.0
140
0.0
140
0.0
140
0.0
140
0.0
140
0.0
140
0.0
140
0.0
140
0.0
140
0.0
140
0.0
140
0.0
140
0.0
140
0.0
140
0.0
140
0.0
140
0.0
140
0.0
140
0.0
140
0.0
140
0.0
140
0.0
140
0.0
140
0.0
140
0.0
140
0.0
140
0.0
140
0.0
140
0.0
140
0.0
140
0.0
140
0.0
140
0.0
140
0.0
140
0.0
140
0.0
140
0.0
140
0.0
140
0.0
140
0.0
140
0.0
140
0.0
140
0.0
140
0.0
140
0.0
140
0.0
140
0.0
140
0.0
140
0.0
140
0.0
140
0.0
140
0.0
140
0.0
140
0.0
140
0.0
140
0.0
140
0.0
140
0.0
140
0.0
140
0.0
140
0.0
140
0.0
140
0.0
140
0.0
140
0.0
140
0.0
140
0.0
140
0.0
140
0.0
140
0.0
140
0.0
140
0.0
140
0.0
140
0.0
140
0.0
140
0.0
140
0.0
140
0.0
140
0.0
140
0.0
140
0.0
140
0.0
140
0.0
140
0.0
140
0.0
140
0.0
140
0.0
140
0.0
140
0.0
140
0.0
140
0.0
140
0.0
140
0.0
140
0.0
140
0.0
140
0.0
140
0.0
140
0.0
140
0.0
140
0.0
140
0.0
140
0.0
140
0.0
140
0.0
140
0.0
140
0.0
140
0.0
140
0.0
140
0.0
140
0.0
140
0.0
140
0.0
140
0.0
140
0.0
140
0.0
140
0.0
140
0.0
140
0.0
140
0.0
140
0.0
140
0.0
140
0.0
140
0.0
140
0.0
140
0.0
140
0.0
140
0.0
140
0.0
140
0.0
140
0.0
140
0.0
140
0.0
140
0.0
140
0.0
140
0.0
140
0.0
140
0.0
140
0.0
140
0.0
140
0.0
140
0.0
140
0.0
140
0.0
140
0.0
140
0.0
140
0.0
140
0.0
140
0.0
140
0.0
140
0.0
140
0.0
140
0.0
140
0.0
140
0.0
140
0.0
140
0.0
140
0.0
140
0.0
140
0.0
140
0.0
140
0.0
140
0.0
140
0.0
140
0.0
140
0.0
140
0.0
140
0.0
140
0.0
140
0.0
140
0.0
140
0.0
140
0.0
140
0.0
140
0.0
140
0.0
140
0.0
140
0.0
140
0.0
140
0.0
140
0.0
140
0.0
140
0.0
140
0.0
140
0.0
140
0.0
140
0.0
140
0.0
140
0.0
140
0.0
140
0.0
140
0.0
140
0.0
140
0.0
140
0.0
140
0.0
140
0.0
140
0.0
140
0.0
140
0.0
140
0.0
140
0.0
140
0.0
140
0.0
140
0.0
140
0.0
140
0.0
140
0.0
140
0.0
140
0.0
140
0.0
140
0.0
140
0.0
140
0.0
140
0.0
140
0.0
140
0.0
140
0.0
140
0.0
140
0.0
140
0.0
140
0.0
140
0.0
140
0.0
140
0.0
140
0.0
140
0.0
140
0.0
140
0.0
140
0.0
140
0.0
140
0.0
140
0.0
140
0.0
140
0.0
140
0.0
140
0.0
140
0.0
140
0.0
140
0.0
140
0.0
140
0.0
140
0.0
140
0.0
140
0.0
140
0.0
140
0.0
140
0.0
140
0.0
140
0.0
140
0.0
140
0.0
140
0.0
140
0.0
140
0.0
140
0.0
140
0.0
140
0.0
140
0.0
140
0.0
140
0.0
140
0.0
140
0.0
140
0.0
140
0.0
140
0.0
140
0.0
140
0.0
140
0.0
 90
        0
  0
POLYLINE
  5
FA
330
1F
100
AcDbEntity
  8
OracDecor_skirtings
 62
   164
420
  1842353
100
AcDb2dPolyline
 66
     1
 10
0.0
 20
0.0
 30
-0.0000052284312915
 70
     1
210
-0.9999999999999769
220
0.0000001788139343
230
-0.0000001192092896
  0
VERTEX
  5
FB
330
FA
100
AcDbEntity
  8
OracDecor_skirtings
 62
   164
420
  1842353
100
AcDbVertex
100
AcDb2dVertex
 10
-7.000152587890625
 20
57.60634994506836
 30
-0.0000052284312915
  0
VERTEX
  5
FC
330
FA
100
AcDbEntity
  8
OracDecor_skirtings
 62
   164
420
  1842353
100
AcDbVertex
100
AcDb2dVertex
 10
-6.933161735534667
 20
57.85285568237305
 30
-0.0000052284312915
  0
VERTEX
  5
FD
330
FA
100
AcDbEntity
  8
OracDecor_skirtings
 62
   164
420
  1842353
100
AcDbVertex
100
AcDb2dVertex
 10
-6.750157356262207
 20
58.03329849243164
 30
-0.0000052284312915
  0
VERTEX
  5
FE
330
FA
100
AcDbEntity
  8
OracDecor_skirtings
 62
   164
420
  1842353
100
AcDbVertex
100
AcDb2dVertex
 10
-6.500153541564941
 20
58.09934997558594
 30
-0.0000052284312915
  0
VERTEX
  5
FF
330
FA
100
AcDbEntity
  8
OracDecor_skirtings
 62
   164
420
  1842353
100
AcDbVertex
100
AcDb2dVertex
 10
-1.000151634216308
 20
58.09934997558594
 30
-0.0000052284312915
  0
VERTEX
  5
100
330
FA
100
AcDbEntity
  8
OracDecor_skirtings
 62
   164
420
  1842353
100
AcDbVertex
100
AcDb2dVertex
 10
-0.7501463890075684
 20
58.16540145874023
 30
-0.0000052284312915
  0
VERTEX
  5
101
330
FA
100
AcDbEntity
  8
OracDecor_skirtings
 62
   164
420
  1842353
100
AcDbVertex
100
AcDb2dVertex
 10
-0.5671401023864746
 20
58.34584808349609
 30
-0.0000052284312915
  0
VERTEX
  5
102
330
FA
100
AcDbEntity
  8
OracDecor_skirtings
 62
   164
420
  1842353
100
AcDbVertex
100
AcDb2dVertex
 10
-0.500150203704834
 20
58.59235000610351
 30
-0.0000052284312915
  0
VERTEX
  5
103
330
FA
100
AcDbEntity
  8
OracDecor_skirtings
 62
   164
420
  1842353
100
AcDbVertex
100
AcDb2dVertex
 10
-0.5001521110534668
 20
63.52235031127929
 30
-0.0000052284312915
  0
VERTEX
  5
104
330
FA
100
AcDbEntity
  8
OracDecor_skirtings
 62
   164
420
  1842353
100
AcDbVertex
100
AcDb2dVertex
 10
-0.5671420097351075
 20
63.76885223388672
 30
-0.0000052284312915
  0
VERTEX
  5
105
330
FA
100
AcDbEntity
  8
OracDecor_skirtings
 62
   164
420
  1842353
100
AcDbVertex
100
AcDb2dVertex
 10
-0.7501487731933594
 20
63.94929504394531
 30
-0.0000052284312915
  0
VERTEX
  5
106
330
FA
100
AcDbEntity
  8
OracDecor_skirtings
 62
   164
420
  1842353
100
AcDbVertex
100
AcDb2dVertex
 10
-1.000152587890625
 20
64.01535034179687
 30
-0.0000052284312915
  0
VERTEX
  5
107
330
FA
100
AcDbEntity
  8
OracDecor_skirtings
 62
   164
420
  1842353
100
AcDbVertex
100
AcDb2dVertex
 10
-6.500152587890625
 20
64.01535034179687
 30
-0.0000052284312915
  0
VERTEX
  5
108
330
FA
100
AcDbEntity
  8
OracDecor_skirtings
 62
   164
420
  1842353
100
AcDbVertex
100
AcDb2dVertex
 10
-6.75015640258789
 20
64.08140563964844
 30
-0.0000052284312915
  0
VERTEX
  5
109
330
FA
100
AcDbEntity
  8
OracDecor_skirtings
 62
   164
420
  1842353
100
AcDbVertex
100
AcDb2dVertex
 10
-6.933162212371826
 20
64.26184844970703
 30
-0.0000052284312915
  0
VERTEX
  5
10A
330
FA
100
AcDbEntity
  8
OracDecor_skirtings
 62
   164
420
  1842353
100
AcDbVertex
100
AcDb2dVertex
 10
-7.000152111053466
 20
64.50835418701172
 30
-0.0000052284312915
  0
VERTEX
  5
10B
330
FA
100
AcDbEntity
  8
OracDecor_skirtings
 62
   164
420
  1842353
100
AcDbVertex
100
AcDb2dVertex
 10
-7.000152587890625
 20
94.75051879882812
 30
-0.0000052284312915
  0
VERTEX
  5
10C
330
FA
100
AcDbEntity
  8
OracDecor_skirtings
 62
   164
420
  1842353
100
AcDbVertex
100
AcDb2dVertex
 10
-6.84791088104248
 20
95.50517272949219
 30
-0.0000052284312915
  0
VERTEX
  5
10D
330
FA
100
AcDbEntity
  8
OracDecor_skirtings
 62
   164
420
  1842353
100
AcDbVertex
100
AcDb2dVertex
 10
-6.414366722106933
 20
96.14493560791016
 30
-0.0000052284312915
  0
VERTEX
  5
10E
330
FA
100
AcDbEntity
  8
OracDecor_skirtings
 62
   164
420
  1842353
100
AcDbVertex
100
AcDb2dVertex
 10
-1.0859375
 20
101.3987655639648
 30
-0.0000052284312915
  0
VERTEX
  5
10F
330
FA
100
AcDbEntity
  8
OracDecor_skirtings
 62
   164
420
  1842353
100
AcDbVertex
100
AcDb2dVertex
 10
-0.652392864227295
 20
102.0385284423828
 30
-0.0000052284312915
  0
VERTEX
  5
110
330
FA
100
AcDbEntity
  8
OracDecor_skirtings
 62
   164
420
  1842353
100
AcDbVertex
100
AcDb2dVertex
 10
-0.500150203704834
 20
102.7931747436523
 30
-0.0000052284312915
  0
VERTEX
  5
111
330
FA
100
AcDbEntity
  8
OracDecor_skirtings
 62
   164
420
  1842353
100
AcDbVertex
100
AcDb2dVertex
 10
-0.500152587890625
 20
114.5224838256836
 30
-0.0000052284312915
  0
VERTEX
  5
112
330
FA
100
AcDbEntity
  8
OracDecor_skirtings
 62
   164
420
  1842353
100
AcDbVertex
100
AcDb2dVertex
 10
-0.6390066146850586
 20
115.2444381713867
 30
-0.0000052284312915
  0
VERTEX
  5
113
330
FA
100
AcDbEntity
  8
OracDecor_skirtings
 62
   164
420
  1842353
100
AcDbVertex
100
AcDb2dVertex
 10
-1.036303043365478
 20
115.8661727905273
 30
-0.0000052284312915
  0
VERTEX
  5
114
330
FA
100
AcDbEntity
  8
OracDecor_skirtings
 62
   164
420
  1842353
100
AcDbVertex
100
AcDb2dVertex
 10
-1.636871814727783
 20
116.3013153076172
 30
-0.0000052284312915
  0
VERTEX
  5
115
330
FA
100
AcDbEntity
  8
OracDecor_skirtings
 62
   164
420
  1842353
100
AcDbVertex
100
AcDb2dVertex
 10
-2.357295513153076
 20
116.4894409179687
 30
-0.0000052284312915
  0
VERTEX
  5
116
330
FA
100
AcDbEntity
  8
OracDecor_skirtings
 62
   164
420
  1842353
100
AcDbVertex
100
AcDb2dVertex
 10
-3.195138692855834
 20
116.6344833374023
 30
-0.0000052284312915
  0
VERTEX
  5
117
330
FA
100
AcDbEntity
  8
OracDecor_skirtings
 62
   164
420
  1842353
100
AcDbVertex
100
AcDb2dVertex
 10
-4.455445289611816
 20
117.1286544799804
 30
-0.0000052284312915
  0
VERTEX
  5
118
330
FA
100
AcDbEntity
  8
OracDecor_skirtings
 62
   164
420
  1842353
100
AcDbVertex
100
AcDb2dVertex
 10
-5.534030437469482
 20
117.939468383789
 30
-0.0000052284312915
  0
VERTEX
  5
119
330
FA
100
AcDbEntity
  8
OracDecor_skirtings
 62
   164
420
  1842353
100
AcDbVertex
100
AcDb2dVertex
 10
-6.351064682006835
 20
119.0069122314453
 30
-0.0000052284312915
  0
VERTEX
  5
11A
330
FA
100
AcDbEntity
  8
OracDecor_skirtings
 62
   164
420
  1842353
100
AcDbVertex
100
AcDb2dVertex
 10
-6.846076965332031
 20
120.2519836425781
 30
-0.0000052284312915
  0
VERTEX
  5
11B
330
FA
100
AcDbEntity
  8
OracDecor_skirtings
 62
   164
420
  1842353
100
AcDbVertex
100
AcDb2dVertex
 10
-6.982431411743164
 20
121.58251953125
 30
-0.0000052284312915
  0
VERTEX
  5
11C
330
FA
100
AcDbEntity
  8
OracDecor_skirtings
 62
   164
420
  1842353
100
AcDbVertex
100
AcDb2dVertex
 10
-6.750037193298339
 20
122.9000625610351
 30
-0.0000052284312915
  0
VERTEX
  5
11D
330
FA
100
AcDbEntity
  8
OracDecor_skirtings
 62
   164
420
  1842353
100
AcDbVertex
100
AcDb2dVertex
 10
-6.166095256805419
 20
124.1070861816406
 30
-0.0000052284312915
  0
VERTEX
  5
11E
330
FA
100
AcDbEntity
  8
OracDecor_skirtings
 62
   164
420
  1842353
100
AcDbVertex
100
AcDb2dVertex
 10
-5.27381944656372
 20
125.1142578125
 30
-0.0000052284312915
  0
VERTEX
  5
11F
330
FA
100
AcDbEntity
  8
OracDecor_skirtings
 62
   164
420
  1842353
100
AcDbVertex
100
AcDb2dVertex
 10
-4.139249801635742
 20
125.8470382690429
 30
-0.0000052284312915
  0
VERTEX
  5
120
330
FA
100
AcDbEntity
  8
OracDecor_skirtings
 62
   164
420
  1842353
100
AcDbVertex
100
AcDb2dVertex
 10
-2.846363306045532
 20
126.2511901855468
 30
-0.0000052284312915
  0
VERTEX
  5
121
330
FA
100
AcDbEntity
  8
OracDecor_skirtings
 62
   164
420
  1842353
100
AcDbVertex
100
AcDb2dVertex
 10
-2.000152587890625
 20
126.3368530273437
 30
-0.0000052284312915
  0
VERTEX
  5
122
330
FA
100
AcDbEntity
  8
OracDecor_skirtings
 62
   164
420
  1842353
100
AcDbVertex
100
AcDb2dVertex
 10
-1.234776496887207
 20
126.4869689941406
 30
-0.0000052284312915
  0
VERTEX
  5
123
330
FA
100
AcDbEntity
  8
OracDecor_skirtings
 62
   164
420
  1842353
100
AcDbVertex
100
AcDb2dVertex
 10
-0.5859389305114746
 20
126.914436340332
 30
-0.0000052284312915
  0
VERTEX
  5
124
330
FA
100
AcDbEntity
  8
OracDecor_skirtings
 62
   164
420
  1842353
100
AcDbVertex
100
AcDb2dVertex
 10
-0.1523976325988769
 20
127.5541915893555
 30
-0.0000052284312915
  0
VERTEX
  5
125
330
FA
100
AcDbEntity
  8
OracDecor_skirtings
 62
   164
420
  1842353
100
AcDbVertex
100
AcDb2dVertex
 10
-0.0001521110534668
 20
128.308837890625
 30
-0.0000052284312915
  0
VERTEX
  5
126
330
FA
100
AcDbEntity
  8
OracDecor_skirtings
 62
   164
420
  1842353
100
AcDbVertex
100
AcDb2dVertex
 10
-0.000152587890625
 20
130.1552734375
 30
-0.0000052284312915
  0
VERTEX
  5
127
330
FA
100
AcDbEntity
  8
OracDecor_skirtings
 62
   164
420
  1842353
100
AcDbVertex
100
AcDb2dVertex
 10
-0.4967899322509766
 20
130.6449584960937
 30
-0.0000052284312915
  0
VERTEX
  5
128
330
FA
100
AcDbEntity
  8
OracDecor_skirtings
 62
   164
420
  1842353
100
AcDbVertex
100
AcDb2dVertex
 10
-0.7655649185180664
 20
131.2847290039062
 30
-0.0000052284312915
  0
VERTEX
  5
129
330
FA
100
AcDbEntity
  8
OracDecor_skirtings
 62
   164
420
  1842353
100
AcDbVertex
100
AcDb2dVertex
 10
-0.7655644416809082
 20
131.9772338867187
 30
-0.0000052284312915
  0
VERTEX
  5
12A
330
FA
100
AcDbEntity
  8
OracDecor_skirtings
 62
   164
420
  1842353
100
AcDbVertex
100
AcDb2dVertex
 10
-0.4967889785766602
 20
132.6170349121094
 30
-0.0000052284312915
  0
VERTEX
  5
12B
330
FA
100
AcDbEntity
  8
OracDecor_skirtings
 62
   164
420
  1842353
100
AcDbVertex
100
AcDb2dVertex
 10
-0.0001516342163086
 20
133.106689453125
 30
-0.0000052284312915
  0
VERTEX
  5
12C
330
FA
100
AcDbEntity
  8
OracDecor_skirtings
 62
   164
420
  1842353
100
AcDbVertex
100
AcDb2dVertex
 10
-0.0001521110534668
 20
138.0399780273437
 30
-0.0000052284312915
  0
VERTEX
  5
12D
330
FA
100
AcDbEntity
  8
OracDecor_skirtings
 62
   164
420
  1842353
100
AcDbVertex
100
AcDb2dVertex
 10
-4.500151634216308
 20
138.0399780273437
 30
-0.0000052284312915
  0
VERTEX
  5
12E
330
FA
100
AcDbEntity
  8
OracDecor_skirtings
 62
   164
420
  1842353
100
AcDbVertex
100
AcDb2dVertex
 10
-5.074168682098388
 20
137.9273986816406
 30
-0.0000052284312915
  0
VERTEX
  5
12F
330
FA
100
AcDbEntity
  8
OracDecor_skirtings
 62
   164
420
  1842353
100
AcDbVertex
100
AcDb2dVertex
 10
-5.560811519622802
 20
137.6068115234375
 30
-0.0000052284312915
  0
VERTEX
  5
130
330
FA
100
AcDbEntity
  8
OracDecor_skirtings
 62
   164
420
  1842353
100
AcDbVertex
100
AcDb2dVertex
 10
-5.885974407196044
 20
137.1269836425781
 30
-0.0000052284312915
  0
VERTEX
  5
131
330
FA
100
AcDbEntity
  8
OracDecor_skirtings
 62
   164
420
  1842353
100
AcDbVertex
100
AcDb2dVertex
 10
-6.000153064727783
 20
136.5610046386718
 30
-0.0000052284312915
  0
VERTEX
  5
132
330
FA
100
AcDbEntity
  8
OracDecor_skirtings
 62
   164
420
  1842353
100
AcDbVertex
100
AcDb2dVertex
 10
-6.000155448913574
 20
134.6354370117187
 30
-0.0000052284312915
  0
VERTEX
  5
133
330
FA
100
AcDbEntity
  8
OracDecor_skirtings
 62
   164
420
  1842353
100
AcDbVertex
100
AcDb2dVertex
 10
-6.115030288696289
 20
134.0677795410156
 30
-0.0000052284312915
  0
VERTEX
  5
134
330
FA
100
AcDbEntity
  8
OracDecor_skirtings
 62
   164
420
  1842353
100
AcDbVertex
100
AcDb2dVertex
 10
-6.442082405090332
 20
133.5870666503906
 30
-0.0000052284312915
  0
VERTEX
  5
135
330
FA
100
AcDbEntity
  8
OracDecor_skirtings
 62
   164
420
  1842353
100
AcDbVertex
100
AcDb2dVertex
 10
-6.931187629699707
 20
133.2669372558594
 30
-0.0000052284312915
  0
VERTEX
  5
136
330
FA
100
AcDbEntity
  8
OracDecor_skirtings
 62
   164
420
  1842353
100
AcDbVertex
100
AcDb2dVertex
 10
-9.201747894287109
 20
131.9759826660156
 30
-0.0000052284312915
  0
VERTEX
  5
137
330
FA
100
AcDbEntity
  8
OracDecor_skirtings
 62
   164
420
  1842353
100
AcDbVertex
100
AcDb2dVertex
 10
-10.54251480102539
 20
130.9556274414062
 30
-0.0000052284312915
  0
VERTEX
  5
138
330
FA
100
AcDbEntity
  8
OracDecor_skirtings
 62
   164
420
  1842353
100
AcDbVertex
100
AcDb2dVertex
 10
-11.78126716613769
 20
129.72021484375
 30
-0.0000052284312915
  0
VERTEX
  5
139
330
FA
100
AcDbEntity
  8
OracDecor_skirtings
 62
   164
420
  1842353
100
AcDbVertex
100
AcDb2dVertex
 10
-12.80377197265625
 20
128.3813781738281
 30
-0.0000052284312915
  0
VERTEX
  5
13A
330
FA
100
AcDbEntity
  8
OracDecor_skirtings
 62
   164
420
  1842353
100
AcDbVertex
100
AcDb2dVertex
 10
-13.6634407043457
 20
126.8719177246093
 30
-0.0000052284312915
  0
VERTEX
  5
13B
330
FA
100
AcDbEntity
  8
OracDecor_skirtings
 62
   164
420
  1842353
100
AcDbVertex
100
AcDb2dVertex
 10
-14.2918815612793
 20
125.309097290039
 30
-0.0000052284312915
  0
VERTEX
  5
13C
330
FA
100
AcDbEntity
  8
OracDecor_skirtings
 62
   164
420
  1842353
100
AcDbVertex
100
AcDb2dVertex
 10
-14.71434211730957
 20
123.6333312988281
 30
-0.0000052284312915
  0
VERTEX
  5
13D
330
FA
100
AcDbEntity
  8
OracDecor_skirtings
 62
   164
420
  1842353
100
AcDbVertex
100
AcDb2dVertex
 10
-14.90109634399414
 20
121.9593811035156
 30
-0.0000052284312915
  0
VERTEX
  5
13E
330
FA
100
AcDbEntity
  8
OracDecor_skirtings
 62
   164
420
  1842353
100
AcDbVertex
100
AcDb2dVertex
 10
-14.85840797424316
 20
120.2345352172851
 30
-0.0000052284312915
  0
VERTEX
  5
13F
330
FA
100
AcDbEntity
  8
OracDecor_skirtings
 62
   164
420
  1842353
100
AcDbVertex
100
AcDb2dVertex
 10
-14.58915710449218
 20
118.5718460083007
 30
-0.0000052284312915
  0
VERTEX
  5
140
330
FA
100
AcDbEntity
  8
OracDecor_skirtings
 62
   164
420
  1842353
100
AcDbVertex
100
AcDb2dVertex
 10
-14.08411407470703
 20
116.9177932739257
 30
-0.0000052284312915
  0
VERTEX
  5
141
330
FA
100
AcDbEntity
  8
OracDecor_skirtings
 62
   164
420
  1842353
100
AcDbVertex
100
AcDb2dVertex
 10
-13.37947463989258
 20
115.3877792358398
 30
-0.0000052284312915
  0
VERTEX
  5
142
330
FA
100
AcDbEntity
  8
OracDecor_skirtings
 62
   164
420
  1842353
100
AcDbVertex
100
AcDb2dVertex
 10
-12.44560050964355
 20
113.9205856323242
 30
-0.0000052284312915
  0
VERTEX
  5
143
330
FA
100
AcDbEntity
  8
OracDecor_skirtings
 62
   164
420
  1842353
100
AcDbVertex
100
AcDb2dVertex
 10
-11.35879135131836
 20
112.6333389282226
 30
-0.0000052284312915
  0
VERTEX
  5
144
330
FA
100
AcDbEntity
  8
OracDecor_skirtings
 62
   164
420
  1842353
100
AcDbVertex
100
AcDb2dVertex
 10
-9.429161071777343
 20
110.8880386352539
 30
-0.0000052284312915
  0
VERTEX
  5
145
330
FA
100
AcDbEntity
  8
OracDecor_skirtings
 62
   164
420
  1842353
100
AcDbVertex
100
AcDb2dVertex
 10
-8.443141937255859
 20
109.9203262329101
 30
-0.0000052284312915
  0
VERTEX
  5
146
330
FA
100
AcDbEntity
  8
OracDecor_skirtings
 62
   164
420
  1842353
100
AcDbVertex
100
AcDb2dVertex
 10
-7.852912425994873
 20
108.6781539916992
 30
-0.0000052284312915
  0
VERTEX
  5
147
330
FA
100
AcDbEntity
  8
OracDecor_skirtings
 62
   164
420
  1842353
100
AcDbVertex
100
AcDb2dVertex
 10
-7.729872226715087
 20
107.3117904663086
 30
-0.0000052284312915
  0
VERTEX
  5
148
330
FA
100
AcDbEntity
  8
OracDecor_skirtings
 62
   164
420
  1842353
100
AcDbVertex
100
AcDb2dVertex
 10
-8.088903427124023
 20
105.9865188598632
 30
-0.0000052284312915
  0
VERTEX
  5
149
330
FA
100
AcDbEntity
  8
OracDecor_skirtings
 62
   164
420
  1842353
100
AcDbVertex
100
AcDb2dVertex
 10
-8.886578559875488
 20
104.8626480102539
 30
-0.0000052284312915
  0
VERTEX
  5
14A
330
FA
100
AcDbEntity
  8
OracDecor_skirtings
 62
   164
420
  1842353
100
AcDbVertex
100
AcDb2dVertex
 10
-14.1214714050293
 20
99.70104217529296
 30
-0.0000052284312915
  0
VERTEX
  5
14B
330
FA
100
AcDbEntity
  8
OracDecor_skirtings
 62
   164
420
  1842353
100
AcDbVertex
100
AcDb2dVertex
 10
-14.77179336547851
 20
98.74140167236328
 30
-0.0000052284312915
  0
VERTEX
  5
14C
330
FA
100
AcDbEntity
  8
OracDecor_skirtings
 62
   164
420
  1842353
100
AcDbVertex
100
AcDb2dVertex
 10
-15.00015258789062
 20
97.60942840576172
 30
-0.0000052284312915
  0
VERTEX
  5
14D
330
FA
100
AcDbEntity
  8
OracDecor_skirtings
 62
   164
420
  1842353
100
AcDbVertex
100
AcDb2dVertex
 10
-15.00015258789062
 20
-0.0000085234732978
 30
-0.0000052284312915
  0
VERTEX
  5
14E
330
FA
100
AcDbEntity
  8
OracDecor_skirtings
 62
   164
420
  1842353
100
AcDbVertex
100
AcDb2dVertex
 10
-11.00015258789062
 20
-0.0000082850547187
 30
-0.0000052284312915
  0
VERTEX
  5
14F
330
FA
100
AcDbEntity
  8
OracDecor_skirtings
 62
   164
420
  1842353
100
AcDbVertex
100
AcDb2dVertex
 10
-7.480330467224121
 20
9.490875244140625
 30
-0.0000052284312915
  0
VERTEX
  5
150
330
FA
100
AcDbEntity
  8
OracDecor_skirtings
 62
   164
420
  1842353
100
AcDbVertex
100
AcDb2dVertex
 10
-7.055339813232421
 20
10.1683349609375
 30
-0.0000052284312915
  0
VERTEX
  5
151
330
FA
100
AcDbEntity
  8
OracDecor_skirtings
 62
   164
420
  1842353
100
AcDbVertex
100
AcDb2dVertex
 10
-6.393222332000732
 20
10.62474060058594
 30
-0.0000052284312915
  0
VERTEX
  5
152
330
FA
100
AcDbEntity
  8
OracDecor_skirtings
 62
   164
420
  1842353
100
AcDbVertex
100
AcDb2dVertex
 10
-5.601974487304687
 20
10.78562927246093
 30
-0.0000052284312915
  0
VERTEX
  5
153
330
FA
100
AcDbEntity
  8
OracDecor_skirtings
 62
   164
420
  1842353
100
AcDbVertex
100
AcDb2dVertex
 10
-0.500152587890625
 20
10.78562927246093
 30
-0.0000052284312915
  0
VERTEX
  5
154
330
FA
100
AcDbEntity
  8
OracDecor_skirtings
 62
   164
420
  1842353
100
AcDbVertex
100
AcDb2dVertex
 10
-0.250157356262207
 20
10.85166931152343
 30
-0.0000052284312915
  0
VERTEX
  5
155
330
FA
100
AcDbEntity
  8
OracDecor_skirtings
 62
   164
420
  1842353
100
AcDbVertex
100
AcDb2dVertex
 10
-0.0671377182006836
 20
11.03213500976562
 30
-0.0000052284312915
  0
VERTEX
  5
156
330
FA
100
AcDbEntity
  8
OracDecor_skirtings
 62
   164
420
  1842353
100
AcDbVertex
100
AcDb2dVertex
 10
-0.000152587890625
 20
11.27862548828125
 30
-0.0000052284312915
  0
VERTEX
  5
157
330
FA
100
AcDbEntity
  8
OracDecor_skirtings
 62
   164
420
  1842353
100
AcDbVertex
100
AcDb2dVertex
 10
-0.000150203704834
 20
15.29052734375
 30
-0.0000052284312915
  0
VERTEX
  5
158
330
FA
100
AcDbEntity
  8
OracDecor_skirtings
 62
   164
420
  1842353
100
AcDbVertex
100
AcDb2dVertex
 10
-0.4967875480651856
 20
15.78019714355469
 30
-0.0000052284312915
  0
VERTEX
  5
159
330
FA
100
AcDbEntity
  8
OracDecor_skirtings
 62
   164
420
  1842353
100
AcDbVertex
100
AcDb2dVertex
 10
-0.7655649185180664
 20
16.41998291015625
 30
-0.0000052284312915
  0
VERTEX
  5
15A
330
FA
100
AcDbEntity
  8
OracDecor_skirtings
 62
   164
420
  1842353
100
AcDbVertex
100
AcDb2dVertex
 10
-0.7655649185180664
 20
17.11248779296875
 30
-0.0000052284312915
  0
VERTEX
  5
15B
330
FA
100
AcDbEntity
  8
OracDecor_skirtings
 62
   164
420
  1842353
100
AcDbVertex
100
AcDb2dVertex
 10
-0.4967894554138184
 20
17.75227355957031
 30
-0.0000052284312915
  0
VERTEX
  5
15C
330
FA
100
AcDbEntity
  8
OracDecor_skirtings
 62
   164
420
  1842353
100
AcDbVertex
100
AcDb2dVertex
 10
-0.0001521110534668
 20
18.241943359375
 30
-0.0000052284312915
  0
VERTEX
  5
15D
330
FA
100
AcDbEntity
  8
OracDecor_skirtings
 62
   164
420
  1842353
100
AcDbVertex
100
AcDb2dVertex
 10
-0.000152587890625
 20
21.12435913085938
 30
-0.0000052284312915
  0
VERTEX
  5
15E
330
FA
100
AcDbEntity
  8
OracDecor_skirtings
 62
   164
420
  1842353
100
AcDbVertex
100
AcDb2dVertex
 10
-0.0671377182006836
 20
21.370849609375
 30
-0.0000052284312915
  0
VERTEX
  5
15F
330
FA
100
AcDbEntity
  8
OracDecor_skirtings
 62
   164
420
  1842353
100
AcDbVertex
100
AcDb2dVertex
 10
-0.250157356262207
 20
21.55131530761719
 30
-0.0000052284312915
  0
VERTEX
  5
160
330
FA
100
AcDbEntity
  8
OracDecor_skirtings
 62
   164
420
  1842353
100
AcDbVertex
100
AcDb2dVertex
 10
-0.500152587890625
 20
21.61735534667969
 30
-0.0000052284312915
  0
VERTEX
  5
161
330
FA
100
AcDbEntity
  8
OracDecor_skirtings
 62
   164
420
  1842353
100
AcDbVertex
100
AcDb2dVertex
 10
-5.000151634216308
 20
21.61735534667969
 30
-0.0000052284312915
  0
VERTEX
  5
162
330
FA
100
AcDbEntity
  8
OracDecor_skirtings
 62
   164
420
  1842353
100
AcDbVertex
100
AcDb2dVertex
 10
-5.765528202056884
 20
21.76747131347656
 30
-0.0000052284312915
  0
VERTEX
  5
163
330
FA
100
AcDbEntity
  8
OracDecor_skirtings
 62
   164
420
  1842353
100
AcDbVertex
100
AcDb2dVertex
 10
-6.414365768432617
 20
22.1949462890625
 30
-0.0000052284312915
  0
VERTEX
  5
164
330
FA
100
AcDbEntity
  8
OracDecor_skirtings
 62
   164
420
  1842353
100
AcDbVertex
100
AcDb2dVertex
 10
-6.847906589508056
 20
22.83470153808594
 30
-0.0000052284312915
  0
VERTEX
  5
165
330
FA
100
AcDbEntity
  8
OracDecor_skirtings
 62
   164
420
  1842353
100
AcDbVertex
100
AcDb2dVertex
 10
-7.000152587890625
 20
23.58935546875
 30
-0.0000052284312915
  0
SEQEND
  5
166
330
FA
100
AcDbEntity
  8
OracDecor_skirtings
 62
   164
420
  1842353
  0
ENDSEC
  0
SECTION
  2
OBJECTS
  0
DICTIONARY
  5
C
330
0
100
AcDbDictionary
281
     1
  3
ACAD_COLOR
350
DC
  3
ACAD_DETAILVIEWSTYLE
350
F5
  3
ACAD_GROUP
350
D
  3
ACAD_LAYOUT
350
1A
  3
ACAD_MATERIAL
350
AA
  3
ACAD_MLEADERSTYLE
350
F1
  3
ACAD_MLINESTYLE
350
17
  3
ACAD_PLOTSETTINGS
350
19
  3
ACAD_PLOTSTYLENAME
350
E
  3
ACAD_SCALELIST
350
DF
  3
ACAD_SECTIONVIEWSTYLE
350
F3
  3
ACAD_TABLESTYLE
350
DD
  3
ACAD_VISUALSTYLE
350
C3
  3
ACDB_RECOMPOSE_DATA
350
173
  3
AcDbVariableDictionary
350
167
  0
DICTIONARY
  5
DC
102
{ACAD_REACTORS
330
C
102
}
330
C
100
AcDbDictionary
281
     1
  0
DICTIONARY
  5
F5
102
{ACAD_REACTORS
330
C
102
}
330
C
100
AcDbDictionary
281
     1
  3
Imperial24
350
F6
  0
DICTIONARY
  5
D
102
{ACAD_REACTORS
330
C
102
}
330
C
100
AcDbDictionary
281
     1
  0
DICTIONARY
  5
1A
102
{ACAD_REACTORS
330
C
102
}
330
C
100
AcDbDictionary
281
     1
  3
Layout1
350
1E
  3
Layout2
350
26
  3
Model
350
22
  0
DICTIONARY
  5
AA
102
{ACAD_REACTORS
330
C
102
}
330
C
100
AcDbDictionary
281
     1
  3
ByBlock
350
B3
  3
ByLayer
350
AB
  3
Global
350
BB
  0
DICTIONARY
  5
F1
102
{ACAD_REACTORS
330
C
102
}
330
C
100
AcDbDictionary
281
     1
  3
Standard
350
F2
  0
DICTIONARY
  5
17
102
{ACAD_REACTORS
330
C
102
}
330
C
100
AcDbDictionary
281
     1
  3
Standard
350
18
  0
DICTIONARY
  5
19
102
{ACAD_REACTORS
330
C
102
}
330
C
100
AcDbDictionary
281
     1
  0
ACDBDICTIONARYWDFLT
  5
E
102
{ACAD_REACTORS
330
C
102
}
330
C
100
AcDbDictionary
281
     1
  3
ByLayer
350
2D
  3
Normal
350
F
100
AcDbDictionaryWithDefault
340
F
  0
DICTIONARY
  5
DF
102
{ACAD_REACTORS
330
C
102
}
330
C
100
AcDbDictionary
281
     1
  3
A0
350
E0
  3
A1
350
E1
  3
A2
350
E2
  3
A3
350
E3
  3
A4
350
E4
  3
A5
350
E5
  3
A6
350
E6
  3
A7
350
E7
  3
A8
350
E8
  3
A9
350
E9
  3
B0
350
EA
  3
B1
350
EB
  3
B2
350
EC
  3
B3
350
ED
  3
B4
350
EE
  3
B5
350
EF
  3
B6
350
F0
  0
DICTIONARY
  5
F3
102
{ACAD_REACTORS
330
C
102
}
330
C
100
AcDbDictionary
281
     1
  3
Imperial24
350
F4
  0
DICTIONARY
  5
DD
102
{ACAD_REACTORS
330
C
102
}
330
C
100
AcDbDictionary
281
     1
  3
Standard
350
DE
  0
DICTIONARY
  5
C3
102
{ACAD_REACTORS
330
C
102
}
330
C
100
AcDbDictionary
281
     1
  3
2dWireframe
350
C9
  3
Basic
350
C8
  3
Brighten
350
CF
  3
ColorChange
350
D3
  3
Conceptual
350
CC
  3
Dim
350
CE
  3
EdgeColorOff
350
DB
  3
Facepattern
350
D2
  3
Flat
350
C4
  3
FlatWithEdges
350
C5
  3
Gouraud
350
C6
  3
GouraudWithEdges
350
C7
  3
Hidden
350
CB
  3
JitterOff
350
D9
  3
Linepattern
350
D1
  3
OverhangOff
350
DA
  3
Realistic
350
CD
  3
Shaded
350
D8
  3
Shaded with edges
350
D7
  3
Shades of Gray
350
D4
  3
Sketchy
350
D5
  3
Thicken
350
D0
  3
Wireframe
350
CA
  3
X-Ray
350
D6
  0
XRECORD
  5
173
102
{ACAD_REACTORS
330
C
102
}
330
C
100
AcDbXrecord
280
     1
 90
        1
330
DE
  0
DICTIONARY
  5
167
102
{ACAD_REACTORS
330
C
102
}
330
C
100
AcDbDictionary
281
     1
  3
CANNOSCALE
350
16D
  3
CMLEADERSTYLE
350
169
  3
CTABLESTYLE
350
168
  3
CVIEWDETAILSTYLE
350
16A
  3
CVIEWSECTIONSTYLE
350
16B
  3
LAYEREVAL
350
16F
  3
LAYERNOTIFY
350
170
  3
LIGHTINGUNITS
350
16E
  3
MSLTSCALE
350
16C
  0
ACDBDETAILVIEWSTYLE
  5
F6
102
{ACAD_XDICTIONARY
360
1A8
102
}
102
{ACAD_REACTORS
330
F5
102
}
330
F5
100
AcDbModelDocViewStyle
 70
     0
  3
Imperial24
290
     0
100
AcDbDetailViewStyle
 70
     0
 71
     0
 90
        3
 71
     1
340
11
 62
   256
 40
0.24
340
0
 62
   256
 40
0.24
300

 40
0.36
280
     3
 71
     2
340
16
 90
       25
 62
   256
 71
     3
340
11
 62
   256
 40
0.24
 90
        1
 40
0.75
 90
        1
300
%<\AcVar ViewType \f "%tc1">% %<\AcVar ViewDetailId>%\PSCALE %<\AcVar ViewScale \f "%sn">%
 71
     4
340
16
 90
       25
 62
   256
340
16
 90
       25
 62
   256
280
     0
  0
LAYOUT
  5
1E
102
{ACAD_REACTORS
330
1A
102
}
330
1A
100
AcDbPlotSettings
  1

  2
\\KTXNTBDC\CASF2PN1
  4

  6

 40
0.0
 41
0.0
 42
0.0
 43
0.0
 44
0.0
 45
0.0
 46
0.0
 47
0.0
 48
0.0
 49
0.0
140
0.0
141
0.0
142
1.0
143
1.0
 70
   688
 72
     0
 73
     0
 74
     5
  7

 75
    16
147
1.0
 76
     0
 77
     2
 78
   300
148
0.0
149
0.0
100
AcDbLayout
  1
Layout1
 70
     1
 71
     1
 10
0.0
 20
0.0
 11
12.0
 21
9.0
 12
0.0
 22
0.0
 32
0.0
 14
1.000000000000000E+20
 24
1.000000000000000E+20
 34
1.000000000000000E+20
 15
-1.000000000000000E+20
 25
-1.000000000000000E+20
 35
-1.000000000000000E+20
146
0.0
 13
0.0
 23
0.0
 33
0.0
 16
1.0
 26
0.0
 36
0.0
 17
0.0
 27
1.0
 37
0.0
 76
     0
330
1B
  0
LAYOUT
  5
26
102
{ACAD_REACTORS
330
1A
102
}
330
1A
100
AcDbPlotSettings
  1

  2
\\KTXNTBDC\CASF2PN1
  4

  6

 40
0.0
 41
0.0
 42
0.0
 43
0.0
 44
0.0
 45
0.0
 46
0.0
 47
0.0
 48
0.0
 49
0.0
140
0.0
141
0.0
142
1.0
143
1.0
 70
   688
 72
     0
 73
     0
 74
     5
  7

 75
    16
147
1.0
 76
     0
 77
     2
 78
   300
148
0.0
149
0.0
100
AcDbLayout
  1
Layout2
 70
     1
 71
     2
 10
0.0
 20
0.0
 11
12.0
 21
9.0
 12
0.0
 22
0.0
 32
0.0
 14
0.0
 24
0.0
 34
0.0
 15
0.0
 25
0.0
 35
0.0
146
0.0
 13
0.0
 23
0.0
 33
0.0
 16
1.0
 26
0.0
 36
0.0
 17
0.0
 27
1.0
 37
0.0
 76
     0
330
23
  0
LAYOUT
  5
22
102
{ACAD_REACTORS
330
1A
102
}
330
1A
100
AcDbPlotSettings
  1

  2
\\KTXNTBDC\CASF2PN1
  4

  6

 40
0.0
 41
0.0
 42
0.0
 43
0.0
 44
0.0
 45
0.0
 46
0.0
 47
0.0
 48
0.0
 49
0.0
140
0.0
141
0.0
142
1.0
143
1.0
 70
  1712
 72
     0
 73
     0
 74
     0
  7

 75
     0
147
1.0
 76
     0
 77
     2
 78
   300
148
0.0
149
0.0
100
AcDbLayout
  1
Model
 70
     1
 71
     0
 10
0.0
 20
0.0
 11
12.0
 21
9.0
 12
0.0
 22
0.0
 32
0.0
 14
0.0
 24
0.0
 34
0.0
 15
0.0
 25
0.0
 35
0.0
146
0.0
 13
0.0
 23
0.0
 33
0.0
 16
1.0
 26
0.0
 36
0.0
 17
0.0
 27
1.0
 37
0.0
 76
     0
330
1F
  0
MATERIAL
  5
B3
102
{ACAD_XDICTIONARY
360
B4
102
}
102
{ACAD_REACTORS
330
AA
102
}
330
AA
100
AcDbMaterial
  1
ByBlock
 72
     0
 43
0.0208333333333333
 43
0.0
 43
0.0
 43
0.0
 43
0.0
 43
0.0208333333333333
 43
0.0
 43
0.0
 43
0.0
 43
0.0
 43
1.0
 43
0.0
 43
0.0
 43
0.0
 43
0.0
 43
1.0
 77
     0
 47
0.0208333333333333
 47
0.0
 47
0.0
 47
0.0
 47
0.0
 47
0.0208333333333333
 47
0.0
 47
0.0
 47
0.0
 47
0.0
 47
1.0
 47
0.0
 47
0.0
 47
0.0
 47
0.0
 47
1.0
171
     0
 49
0.0208333333333333
 49
0.0
 49
0.0
 49
0.0
 49
0.0
 49
0.0208333333333333
 49
0.0
 49
0.0
 49
0.0
 49
0.0
 49
1.0
 49
0.0
 49
0.0
 49
0.0
 49
0.0
 49
1.0
175
     0
142
0.0208333333333333
142
0.0
142
0.0
142
0.0
142
0.0
142
0.0208333333333333
142
0.0
142
0.0
142
0.0
142
0.0
142
1.0
142
0.0
142
0.0
142
0.0
142
0.0
142
1.0
179
     0
144
0.0208333333333333
144
0.0
144
0.0
144
0.0
144
0.0
144
0.0208333333333333
144
0.0
144
0.0
144
0.0
144
0.0
144
1.0
144
0.0
144
0.0
144
0.0
144
0.0
144
1.0
147
0.0208333333333333
147
0.0
147
0.0
147
0.0
147
0.0
147
0.0208333333333333
147
0.0
147
0.0
147
0.0
147
0.0
147
1.0
147
0.0
147
0.0
147
0.0
147
0.0
147
1.0
  0
MATERIAL
  5
AB
102
{ACAD_XDICTIONARY
360
AC
102
}
102
{ACAD_REACTORS
330
AA
102
}
330
AA
100
AcDbMaterial
  1
ByLayer
 72
     0
 43
0.0208333333333333
 43
0.0
 43
0.0
 43
0.0
 43
0.0
 43
0.0208333333333333
 43
0.0
 43
0.0
 43
0.0
 43
0.0
 43
1.0
 43
0.0
 43
0.0
 43
0.0
 43
0.0
 43
1.0
 77
     0
 47
0.0208333333333333
 47
0.0
 47
0.0
 47
0.0
 47
0.0
 47
0.0208333333333333
 47
0.0
 47
0.0
 47
0.0
 47
0.0
 47
1.0
 47
0.0
 47
0.0
 47
0.0
 47
0.0
 47
1.0
171
     0
 49
0.0208333333333333
 49
0.0
 49
0.0
 49
0.0
 49
0.0
 49
0.0208333333333333
 49
0.0
 49
0.0
 49
0.0
 49
0.0
 49
1.0
 49
0.0
 49
0.0
 49
0.0
 49
0.0
 49
1.0
175
     0
142
0.0208333333333333
142
0.0
142
0.0
142
0.0
142
0.0
142
0.0208333333333333
142
0.0
142
0.0
142
0.0
142
0.0
142
1.0
142
0.0
142
0.0
142
0.0
142
0.0
142
1.0
179
     0
144
0.0208333333333333
144
0.0
144
0.0
144
0.0
144
0.0
144
0.0208333333333333
144
0.0
144
0.0
144
0.0
144
0.0
144
1.0
144
0.0
144
0.0
144
0.0
144
0.0
144
1.0
147
0.0208333333333333
147
0.0
147
0.0
147
0.0
147
0.0
147
0.0208333333333333
147
0.0
147
0.0
147
0.0
147
0.0
147
1.0
147
0.0
147
0.0
147
0.0
147
0.0
147
1.0
  0
MATERIAL
  5
BB
102
{ACAD_XDICTIONARY
360
BC
102
}
102
{ACAD_REACTORS
330
AA
102
}
330
AA
100
AcDbMaterial
  1
Global
 72
     0
 43
0.0208333333333333
 43
0.0
 43
0.0
 43
0.0
 43
0.0
 43
0.0208333333333333
 43
0.0
 43
0.0
 43
0.0
 43
0.0
 43
1.0
 43
0.0
 43
0.0
 43
0.0
 43
0.0
 43
1.0
 77
     0
 47
0.0208333333333333
 47
0.0
 47
0.0
 47
0.0
 47
0.0
 47
0.0208333333333333
 47
0.0
 47
0.0
 47
0.0
 47
0.0
 47
1.0
 47
0.0
 47
0.0
 47
0.0
 47
0.0
 47
1.0
171
     0
 49
0.0208333333333333
 49
0.0
 49
0.0
 49
0.0
 49
0.0
 49
0.0208333333333333
 49
0.0
 49
0.0
 49
0.0
 49
0.0
 49
1.0
 49
0.0
 49
0.0
 49
0.0
 49
0.0
 49
1.0
175
     0
142
0.0208333333333333
142
0.0
142
0.0
142
0.0
142
0.0
142
0.0208333333333333
142
0.0
142
0.0
142
0.0
142
0.0
142
1.0
142
0.0
142
0.0
142
0.0
142
0.0
142
1.0
179
     0
144
0.0208333333333333
144
0.0
144
0.0
144
0.0
144
0.0
144
0.0208333333333333
144
0.0
144
0.0
144
0.0
144
0.0
144
1.0
144
0.0
144
0.0
144
0.0
144
0.0
144
1.0
147
0.0208333333333333
147
0.0
147
0.0
147
0.0
147
0.0
147
0.0208333333333333
147
0.0
147
0.0
147
0.0
147
0.0
147
1.0
147
0.0
147
0.0
147
0.0
147
0.0
147
1.0
  0
MLEADERSTYLE
  5
F2
102
{ACAD_XDICTIONARY
360
1A4
102
}
102
{ACAD_REACTORS
330
F1
102
}
330
F1
100
AcDbMLeaderStyle
179
     2
170
     2
171
     1
172
     0
 90
        2
 40
0.0
 41
0.0
173
     1
 91
-1056964608
340
14
 92
       -2
290
     1
 42
0.09
291
     1
 43
0.36
  3
Standard
 44
0.18
300

342
11
174
     1
178
     6
175
     1
176
     0
 93
-1056964608
 45
0.18
292
     0
297
     0
 46
0.18
 94
-1056964608
 47
1.0
 49
1.0
140
1.0
293
     1
141
0.0
294
     1
177
     0
142
1.0
295
     0
296
     0
143
0.125
271
     0
272
     9
273
     9
  0
MLINESTYLE
  5
18
102
{ACAD_REACTORS
330
17
102
}
330
17
100
AcDbMlineStyle
  2
STANDARD
 70
     0
  3

 62
   256
 51
90.0
 52
90.0
 71
     2
 49
0.5
 62
   256
  6
BYLAYER
 49
-0.5
 62
   256
  6
BYLAYER
  0
ACDBPLACEHOLDER
  5
2D
102
{ACAD_REACTORS
330
E
102
}
330
E
  0
ACDBPLACEHOLDER
  5
F
102
{ACAD_REACTORS
330
E
102
}
330
E
  0
SCALE
  5
E0
102
{ACAD_REACTORS
330
DF
102
}
330
DF
100
AcDbScale
 70
     0
300
1:1
140
1.0
141
1.0
290
     1
  0
SCALE
  5
E1
102
{ACAD_REACTORS
330
DF
102
}
330
DF
100
AcDbScale
 70
     0
300
1/128" = 1'-0"
140
0.0078125
141
12.0
290
     0
  0
SCALE
  5
E2
102
{ACAD_REACTORS
330
DF
102
}
330
DF
100
AcDbScale
 70
     0
300
1/64" = 1'-0"
140
0.015625
141
12.0
290
     0
  0
SCALE
  5
E3
102
{ACAD_REACTORS
330
DF
102
}
330
DF
100
AcDbScale
 70
     0
300
1/32" = 1'-0"
140
0.03125
141
12.0
290
     0
  0
SCALE
  5
E4
102
{ACAD_REACTORS
330
DF
102
}
330
DF
100
AcDbScale
 70
     0
300
1/16" = 1'-0"
140
0.0625
141
12.0
290
     0
  0
SCALE
  5
E5
102
{ACAD_REACTORS
330
DF
102
}
330
DF
100
AcDbScale
 70
     0
300
3/32" = 1'-0"
140
0.09375
141
12.0
290
     0
  0
SCALE
  5
E6
102
{ACAD_REACTORS
330
DF
102
}
330
DF
100
AcDbScale
 70
     0
300
1/8" = 1'-0"
140
0.125
141
12.0
290
     0
  0
SCALE
  5
E7
102
{ACAD_REACTORS
330
DF
102
}
330
DF
100
AcDbScale
 70
     0
300
3/16" = 1'-0"
140
0.1875
141
12.0
290
     0
  0
SCALE
  5
E8
102
{ACAD_REACTORS
330
DF
102
}
330
DF
100
AcDbScale
 70
     0
300
1/4" = 1'-0"
140
0.25
141
12.0
290
     0
  0
SCALE
  5
E9
102
{ACAD_REACTORS
330
DF
102
}
330
DF
100
AcDbScale
 70
     0
300
3/8" = 1'-0"
140
0.375
141
12.0
290
     0
  0
SCALE
  5
EA
102
{ACAD_REACTORS
330
DF
102
}
330
DF
100
AcDbScale
 70
     0
300
1/2" = 1'-0"
140
0.5
141
12.0
290
     0
  0
SCALE
  5
EB
102
{ACAD_REACTORS
330
DF
102
}
330
DF
100
AcDbScale
 70
     0
300
3/4" = 1'-0"
140
0.75
141
12.0
290
     0
  0
SCALE
  5
EC
102
{ACAD_REACTORS
330
DF
102
}
330
DF
100
AcDbScale
 70
     0
300
1" = 1'-0"
140
1.0
141
12.0
290
     0
  0
SCALE
  5
ED
102
{ACAD_REACTORS
330
DF
102
}
330
DF
100
AcDbScale
 70
     0
300
1-1/2" = 1'-0"
140
1.5
141
12.0
290
     0
  0
SCALE
  5
EE
102
{ACAD_REACTORS
330
DF
102
}
330
DF
100
AcDbScale
 70
     0
300
3" = 1'-0"
140
3.0
141
12.0
290
     0
  0
SCALE
  5
EF
102
{ACAD_REACTORS
330
DF
102
}
330
DF
100
AcDbScale
 70
     0
300
6" = 1'-0"
140
6.0
141
12.0
290
     0
  0
SCALE
  5
F0
102
{ACAD_REACTORS
330
DF
102
}
330
DF
100
AcDbScale
 70
     0
300
1'-0" = 1'-0"
140
12.0
141
12.0
290
     0
  0
ACDBSECTIONVIEWSTYLE
  5
F4
102
{ACAD_XDICTIONARY
360
1A6
102
}
102
{ACAD_REACTORS
330
F3
102
}
330
F3
100
AcDbModelDocViewStyle
 70
     0
  3
Imperial24
290
     0
100
AcDbSectionViewStyle
 70
     0
 71
     0
 90
       78
 71
     1
340
11
 62
   256
 40
0.24
340
0
340
0
 62
   256
 40
0.24
300
I, O, Q, S, X, Z
 40
0.48
 90
        3
 40
0.18
 90
        1
 71
     2
340
16
 90
       25
 62
   256
340
16
 90
       50
 62
   256
 40
0.24
 40
0.0
 40
0.24
 71
     3
340
11
 62
   256
 40
0.24
 90
        1
 40
0.75
 90
        1
300
%<\AcVar ViewType \f "%tc1">% %<\AcVar ViewSectionStartId>%-%<\AcVar ViewSectionEndId>%\PSCALE %<\AcVar ViewScale \f "%sn">%
 71
     4
 62
   256
 62
   257
300
ANSI31
 40
1.0
 90
        0
290
     0
290
     0
 90
        6
 40
0.0
 40
1.570796326794896
 40
0.2617993877991494
 40
1.308996938995747
 40
-0.2617993877991494
 40
1.832595714594046
  0
TABLESTYLE
  5
DE
102
{ACAD_XDICTIONARY
360
171
102
}
102
{ACAD_REACTORS
330
DD
102
}
330
DD
100
AcDbTableStyle
280
     0
  3
Standard
 70
     0
 71
     0
 40
0.06
 41
0.06
280
     0
281
     0
  7
Standard
140
0.18
170
     2
 62
     0
 63
     7
283
     0
 90
      512
 91
        0
  1

274
    -2
284
     1
 64
     0
275
    -2
285
     1
 65
     0
276
    -2
286
     1
 66
     0
277
    -2
287
     1
 67
     0
278
    -2
288
     1
 68
     0
279
    -2
289
     1
 69
     0
  7
Standard
140
0.25
170
     5
 62
     0
 63
     7
283
     0
 90
      512
 91
        0
  1

274
    -2
284
     1
 64
     0
275
    -2
285
     1
 65
     0
276
    -2
286
     1
 66
     0
277
    -2
287
     1
 67
     0
278
    -2
288
     1
 68
     0
279
    -2
289
     1
 69
     0
  7
Standard
140
0.18
170
     5
 62
     0
 63
     7
283
     0
 90
      512
 91
        0
  1

274
    -2
284
     1
 64
     0
275
    -2
285
     1
 65
     0
276
    -2
286
     1
 66
     0
277
    -2
287
     1
 67
     0
278
    -2
288
     1
 68
     0
279
    -2
289
     1
 69
     0
  0
VISUALSTYLE
  5
C9
102
{ACAD_XDICTIONARY
360
17E
102
}
102
{ACAD_REACTORS
330
C3
102
}
330
C3
100
AcDbVisualStyle
  2
2dWireframe
 70
     4
177
     2
291
     0
 71
     0
176
     1
 72
     2
176
     1
 73
     0
176
     1
 90
        0
176
     1
 40
0.6
176
     1
 41
30.0
176
     1
 63
     7
421
 16777215
176
     1
 74
     1
176
     1
 91
        4
176
     1
 64
     7
176
     1
 65
   257
176
     1
 75
     1
176
     1
175
     1
176
     1
 42
1.0
176
     1
 92
        0
176
     1
 66
   257
176
     1
 43
1.0
176
     1
 76
     1
176
     1
 77
     6
176
     1
 78
     2
176
     1
 67
     7
176
     1
 79
     5
176
     1
170
     0
176
     1
171
     0
176
     1
290
     0
176
     1
 93
        1
176
     1
 44
0.0
176
     1
173
     0
176
     1
1001
ACAD
1000
AcDbSavedByObjectVersion
1070
     0
  0
VISUALSTYLE
  5
C8
102
{ACAD_XDICTIONARY
360
17C
102
}
102
{ACAD_REACTORS
330
C3
102
}
330
C3
100
AcDbVisualStyle
  2
Basic
 70
     7
177
     2
291
     1
 71
     1
176
     1
 72
     0
176
     1
 73
     1
176
     1
 90
        0
176
     1
 40
0.6
176
     1
 41
30.0
176
     1
 63
     7
421
 16777215
176
     1
 74
     0
176
     1
 91
        4
176
     1
 64
     7
176
     1
 65
   257
176
     1
 75
     1
176
     1
175
     1
176
     1
 42
1.0
176
     1
 92
        8
176
     1
 66
     7
176
     1
 43
1.0
176
     1
 76
     1
176
     1
 77
     6
176
     1
 78
     2
176
     1
 67
     7
176
     1
 79
     5
176
     1
170
     0
176
     1
171
     0
176
     1
290
     0
176
     1
 93
        1
176
     1
 44
0.0
176
     1
173
     0
176
     1
1001
ACAD
1000
AcDbSavedByObjectVersion
1070
     0
  0
VISUALSTYLE
  5
CF
102
{ACAD_XDICTIONARY
360
18A
102
}
102
{ACAD_REACTORS
330
C3
102
}
330
C3
100
AcDbVisualStyle
  2
Brighten
 70
    12
177
     2
291
     1
 71
     2
176
     1
 72
     2
176
     1
 73
     0
176
     1
 90
        0
176
     1
 40
0.6
176
     1
 41
30.0
176
     1
 63
     7
421
 16777215
176
     1
 74
     1
176
     1
 91
        4
176
     1
 64
     7
176
     1
 65
   257
176
     1
 75
     1
176
     1
175
     1
176
     1
 42
1.0
176
     1
 92
        8
176
     1
 66
     7
176
     1
 43
1.0
176
     1
 76
     1
176
     1
 77
     6
176
     1
 78
     2
176
     1
 67
     7
176
     1
 79
     5
176
     1
170
     0
176
     1
171
     0
176
     1
290
     0
176
     1
 93
        1
176
     1
 44
50.0
176
     1
173
     0
176
     1
1001
ACAD
1000
AcDbSavedByObjectVersion
1070
     0
  0
VISUALSTYLE
  5
D3
102
{ACAD_XDICTIONARY
360
192
102
}
102
{ACAD_REACTORS
330
C3
102
}
330
C3
100
AcDbVisualStyle
  2
ColorChange
 70
    16
177
     2
291
     1
 71
     2
176
     1
 72
     2
176
     1
 73
     3
176
     1
 90
        0
176
     1
 40
0.6
176
     1
 41
30.0
176
     1
 63
     8
421
  8421504
176
     1
 74
     1
176
     1
 91
        4
176
     1
 64
     7
176
     1
 65
   257
176
     1
 75
     1
176
     1
175
     1
176
     1
 42
1.0
176
     1
 92
        8
176
     1
 66
     8
424
  8421504
176
     1
 43
1.0
176
     1
 76
     1
176
     1
 77
     6
176
     1
 78
     2
176
     1
 67
     7
176
     1
 79
     5
176
     1
170
     0
176
     1
171
     0
176
     1
290
     0
176
     1
 93
        1
176
     1
 44
0.0
176
     1
173
     0
176
     1
1001
ACAD
1000
AcDbSavedByObjectVersion
1070
     0
  0
VISUALSTYLE
  5
CC
102
{ACAD_XDICTIONARY
360
184
102
}
102
{ACAD_REACTORS
330
C3
102
}
330
C3
100
AcDbVisualStyle
  2
Conceptual
 70
     9
177
     2
291
     0
 71
     3
176
     1
 72
     2
176
     1
 73
     0
176
     1
 90
        0
176
     1
 40
0.6
176
     1
 41
30.0
176
     1
 63
     7
421
 16777215
176
     1
 74
     2
176
     1
 91
        2
176
     1
 64
     7
176
     1
 65
   257
176
     1
 75
     1
176
     1
175
     1
176
     1
 42
179.0
176
     1
 92
        8
176
     1
 66
     7
176
     1
 43
1.0
176
     1
 76
     1
176
     1
 77
     6
176
     1
 78
     2
176
     1
 67
     7
176
     1
 79
     3
176
     1
170
     0
176
     1
171
     0
176
     1
290
     0
176
     1
 93
        1
176
     1
 44
0.0
176
     1
173
     0
176
     1
1001
ACAD
1000
AcDbSavedByObjectVersion
1070
     0
  0
VISUALSTYLE
  5
CE
102
{ACAD_XDICTIONARY
360
188
102
}
102
{ACAD_REACTORS
330
C3
102
}
330
C3
100
AcDbVisualStyle
  2
Dim
 70
    11
177
     2
291
     1
 71
     2
176
     1
 72
     2
176
     1
 73
     0
176
     1
 90
        0
176
     1
 40
0.6
176
     1
 41
30.0
176
     1
 63
     7
421
 16777215
176
     1
 74
     1
176
     1
 91
        4
176
     1
 64
     7
176
     1
 65
   257
176
     1
 75
     1
176
     1
175
     1
176
     1
 42
1.0
176
     1
 92
        8
176
     1
 66
     7
176
     1
 43
1.0
176
     1
 76
     1
176
     1
 77
     6
176
     1
 78
     2
176
     1
 67
     7
176
     1
 79
     5
176
     1
170
     0
176
     1
171
     0
176
     1
290
     0
176
     1
 93
        1
176
     1
 44
-50.0
176
     1
173
     0
176
     1
1001
ACAD
1000
AcDbSavedByObjectVersion
1070
     0
  0
VISUALSTYLE
  5
DB
102
{ACAD_XDICTIONARY
360
1A2
102
}
102
{ACAD_REACTORS
330
C3
102
}
330
C3
100
AcDbVisualStyle
  2
EdgeColorOff
 70
    22
177
     2
291
     1
 71
     2
176
     0
 72
     2
176
     0
 73
     0
176
     0
 90
        0
176
     0
 40
0.6
176
     0
 41
30.0
176
     0
 63
     7
421
 16777215
176
     0
 74
     1
176
     0
 91
        4
176
     0
 64
     7
176
     0
 65
   257
176
     0
 75
     1
176
     0
175
     1
176
     0
 42
1.0
176
     0
 92
        8
176
     2
 66
     7
176
     0
 43
1.0
176
     0
 76
     1
176
     0
 77
     6
176
     0
 78
     2
176
     0
 67
     7
176
     0
 79
     5
176
     0
170
     0
176
     0
171
     0
176
     0
290
     0
176
     0
 93
        1
176
     0
 44
0.0
176
     0
173
     0
176
     0
1001
ACAD
1000
AcDbSavedByObjectVersion
1070
     0
  0
VISUALSTYLE
  5
D2
102
{ACAD_XDICTIONARY
360
190
102
}
102
{ACAD_REACTORS
330
C3
102
}
330
C3
100
AcDbVisualStyle
  2
Facepattern
 70
    15
177
     2
291
     1
 71
     2
176
     1
 72
     2
176
     1
 73
     0
176
     1
 90
        0
176
     1
 40
0.6
176
     1
 41
30.0
176
     1
 63
     7
421
 16777215
176
     1
 74
     1
176
     1
 91
        4
176
     1
 64
     7
176
     1
 65
   257
176
     1
 75
     1
176
     1
175
     1
176
     1
 42
1.0
176
     1
 92
        8
176
     1
 66
     7
176
     1
 43
1.0
176
     1
 76
     1
176
     1
 77
     6
176
     1
 78
     2
176
     1
 67
     7
176
     1
 79
     5
176
     1
170
     0
176
     1
171
     0
176
     1
290
     0
176
     1
 93
        1
176
     1
 44
0.0
176
     1
173
     0
176
     1
1001
ACAD
1000
AcDbSavedByObjectVersion
1070
     0
  0
VISUALSTYLE
  5
C4
102
{ACAD_XDICTIONARY
360
174
102
}
102
{ACAD_REACTORS
330
C3
102
}
330
C3
100
AcDbVisualStyle
  2
Flat
 70
     0
177
     2
291
     1
 71
     2
176
     1
 72
     1
176
     1
 73
     1
176
     1
 90
        2
176
     1
 40
0.6
176
     1
 41
30.0
176
     1
 63
     7
421
 16777215
176
     1
 74
     0
176
     1
 91
        0
176
     1
 64
     7
176
     1
 65
   257
176
     1
 75
     1
176
     1
175
     1
176
     1
 42
1.0
176
     1
 92
        8
176
     1
 66
     7
176
     1
 43
1.0
176
     1
 76
     1
176
     1
 77
     6
176
     1
 78
     2
176
     1
 67
     7
176
     1
 79
     5
176
     1
170
     0
176
     1
171
     0
176
     1
290
     0
176
     1
 93
       13
176
     1
 44
0.0
176
     1
173
     0
176
     1
1001
ACAD
1000
AcDbSavedByObjectVersion
1070
     0
  0
VISUALSTYLE
  5
C5
102
{ACAD_XDICTIONARY
360
176
102
}
102
{ACAD_REACTORS
330
C3
102
}
330
C3
100
AcDbVisualStyle
  2
FlatWithEdges
 70
     1
177
     2
291
     1
 71
     2
176
     1
 72
     1
176
     1
 73
     1
176
     1
 90
        2
176
     1
 40
0.6
176
     1
 41
30.0
176
     1
 63
     7
421
 16777215
176
     1
 74
     1
176
     1
 91
        0
176
     1
 64
     7
176
     1
 65
   257
176
     1
 75
     1
176
     1
175
     1
176
     1
 42
1.0
176
     1
 92
        0
176
     1
 66
   257
176
     1
 43
1.0
176
     1
 76
     1
176
     1
 77
     6
176
     1
 78
     2
176
     1
 67
     7
176
     1
 79
     5
176
     1
170
     0
176
     1
171
     0
176
     1
290
     0
176
     1
 93
       13
176
     1
 44
0.0
176
     1
173
     0
176
     1
1001
ACAD
1000
AcDbSavedByObjectVersion
1070
     0
  0
VISUALSTYLE
  5
C6
102
{ACAD_XDICTIONARY
360
178
102
}
102
{ACAD_REACTORS
330
C3
102
}
330
C3
100
AcDbVisualStyle
  2
Gouraud
 70
     2
177
     2
291
     1
 71
     2
176
     1
 72
     2
176
     1
 73
     1
176
     1
 90
        2
176
     1
 40
0.6
176
     1
 41
30.0
176
     1
 63
     7
421
 16777215
176
     1
 74
     0
176
     1
 91
        0
176
     1
 64
     7
176
     1
 65
   257
176
     1
 75
     1
176
     1
175
     1
176
     1
 42
1.0
176
     1
 92
        0
176
     1
 66
     7
176
     1
 43
1.0
176
     1
 76
     1
176
     1
 77
     6
176
     1
 78
     2
176
     1
 67
     7
176
     1
 79
     5
176
     1
170
     0
176
     1
171
     0
176
     1
290
     0
176
     1
 93
       13
176
     1
 44
0.0
176
     1
173
     0
176
     1
1001
ACAD
1000
AcDbSavedByObjectVersion
1070
     0
  0
VISUALSTYLE
  5
C7
102
{ACAD_XDICTIONARY
360
17A
102
}
102
{ACAD_REACTORS
330
C3
102
}
330
C3
100
AcDbVisualStyle
  2
GouraudWithEdges
 70
     3
177
     2
291
     1
 71
     2
176
     1
 72
     2
176
     1
 73
     1
176
     1
 90
        2
176
     1
 40
0.6
176
     1
 41
30.0
176
     1
 63
     7
421
 16777215
176
     1
 74
     1
176
     1
 91
        0
176
     1
 64
     7
176
     1
 65
   257
176
     1
 75
     1
176
     1
175
     1
176
     1
 42
1.0
176
     1
 92
        0
176
     1
 66
   257
176
     1
 43
1.0
176
     1
 76
     1
176
     1
 77
     6
176
     1
 78
     2
176
     1
 67
     7
176
     1
 79
     5
176
     1
170
     0
176
     1
171
     0
176
     1
290
     0
176
     1
 93
       13
176
     1
 44
0.0
176
     1
173
     0
176
     1
1001
ACAD
1000
AcDbSavedByObjectVersion
1070
     0
  0
VISUALSTYLE
  5
CB
102
{ACAD_XDICTIONARY
360
182
102
}
102
{ACAD_REACTORS
330
C3
102
}
330
C3
100
AcDbVisualStyle
  2
Hidden
 70
     6
177
     2
291
     0
 71
     1
176
     1
 72
     2
176
     1
 73
     2
176
     1
 90
        0
176
     1
 40
0.6
176
     1
 41
30.0
176
     1
 63
     7
421
 16777215
176
     1
 74
     2
176
     1
 91
        2
176
     1
 64
     7
176
     1
 65
   257
176
     1
 75
     2
176
     1
175
     1
176
     1
 42
40.0
176
     1
 92
        0
176
     1
 66
   257
176
     1
 43
1.0
176
     1
 76
     1
176
     1
 77
     6
176
     1
 78
     2
176
     1
 67
     7
176
     1
 79
     3
176
     1
170
     0
176
     1
171
     0
176
     1
290
     0
176
     1
 93
        1
176
     1
 44
0.0
176
     1
173
     0
176
     1
1001
ACAD
1000
AcDbSavedByObjectVersion
1070
     0
  0
VISUALSTYLE
  5
D9
102
{ACAD_XDICTIONARY
360
19E
102
}
102
{ACAD_REACTORS
330
C3
102
}
330
C3
100
AcDbVisualStyle
  2
JitterOff
 70
    20
177
     2
291
     1
 71
     2
176
     0
 72
     2
176
     0
 73
     0
176
     0
 90
        0
176
     0
 40
0.6
176
     0
 41
30.0
176
     0
 63
     7
421
 16777215
176
     0
 74
     1
176
     0
 91
        4
176
     0
 64
     7
176
     0
 65
   257
176
     0
 75
     1
176
     0
175
     1
176
     0
 42
1.0
176
     0
 92
       10
176
     2
 66
     7
176
     0
 43
1.0
176
     0
 76
     1
176
     0
 77
     6
176
     0
 78
     2
176
     0
 67
     7
176
     0
 79
     5
176
     0
170
     0
176
     0
171
     0
176
     0
290
     0
176
     0
 93
        1
176
     0
 44
0.0
176
     0
173
     0
176
     0
1001
ACAD
1000
AcDbSavedByObjectVersion
1070
     0
  0
VISUALSTYLE
  5
D1
102
{ACAD_XDICTIONARY
360
18E
102
}
102
{ACAD_REACTORS
330
C3
102
}
330
C3
100
AcDbVisualStyle
  2
Linepattern
 70
    14
177
     2
291
     1
 71
     2
176
     1
 72
     2
176
     1
 73
     0
176
     1
 90
        0
176
     1
 40
0.6
176
     1
 41
30.0
176
     1
 63
     7
421
 16777215
176
     1
 74
     1
176
     1
 91
        4
176
     1
 64
     7
176
     1
 65
   257
176
     1
 75
     7
176
     1
175
     7
176
     1
 42
1.0
176
     1
 92
        8
176
     1
 66
     7
176
     1
 43
1.0
176
     1
 76
     1
176
     1
 77
     6
176
     1
 78
     2
176
     1
 67
     7
176
     1
 79
     5
176
     1
170
     0
176
     1
171
     0
176
     1
290
     0
176
     1
 93
        1
176
     1
 44
0.0
176
     1
173
     0
176
     1
1001
ACAD
1000
AcDbSavedByObjectVersion
1070
     0
  0
VISUALSTYLE
  5
DA
102
{ACAD_XDICTIONARY
360
1A0
102
}
102
{ACAD_REACTORS
330
C3
102
}
330
C3
100
AcDbVisualStyle
  2
OverhangOff
 70
    21
177
     2
291
     1
 71
     2
176
     0
 72
     2
176
     0
 73
     0
176
     0
 90
        0
176
     0
 40
0.6
176
     0
 41
30.0
176
     0
 63
     7
421
 16777215
176
     0
 74
     1
176
     0
 91
        4
176
     0
 64
     7
176
     0
 65
   257
176
     0
 75
     1
176
     0
175
     1
176
     0
 42
1.0
176
     0
 92
        9
176
     2
 66
     7
176
     0
 43
1.0
176
     0
 76
     1
176
     0
 77
     6
176
     0
 78
     2
176
     0
 67
     7
176
     0
 79
     5
176
     0
170
     0
176
     0
171
     0
176
     0
290
     0
176
     0
 93
        1
176
     0
 44
0.0
176
     0
173
     0
176
     0
1001
ACAD
1000
AcDbSavedByObjectVersion
1070
     0
  0
VISUALSTYLE
  5
CD
102
{ACAD_XDICTIONARY
360
186
102
}
102
{ACAD_REACTORS
330
C3
102
}
330
C3
100
AcDbVisualStyle
  2
Realistic
 70
     8
177
     2
291
     0
 71
     2
176
     1
 72
     3
176
     1
 73
     0
176
     1
 90
        2
176
     1
 40
0.6
176
     1
 41
30.0
176
     1
 63
     7
421
 16777215
176
     1
 74
     0
176
     1
 91
        0
176
     1
 64
     7
176
     1
 65
   257
176
     1
 75
     1
176
     1
175
     1
176
     1
 42
1.0
176
     1
 92
        8
176
     1
 66
   257
176
     1
 43
1.0
176
     1
 76
     1
176
     1
 77
     6
176
     1
 78
     2
176
     1
 67
     7
176
     1
 79
     3
176
     1
170
     0
176
     1
171
     0
176
     1
290
     0
176
     1
 93
       13
176
     1
 44
0.0
176
     1
173
     0
176
     1
1001
ACAD
1000
AcDbSavedByObjectVersion
1070
     0
  0
VISUALSTYLE
  5
D8
102
{ACAD_XDICTIONARY
360
19C
102
}
102
{ACAD_REACTORS
330
C3
102
}
330
C3
100
AcDbVisualStyle
  2
Shaded
 70
    27
177
     2
291
     0
 71
     2
176
     1
 72
     2
176
     1
 73
     1
176
     1
 90
        2
176
     1
 40
0.6
176
     1
 41
30.0
176
     1
 63
     7
421
 16777215
176
     1
 74
     0
176
     1
 91
        4
176
     1
 64
     7
176
     1
 65
   257
176
     1
 75
     1
176
     1
175
     1
176
     1
 42
1.0
176
     1
 92
        8
176
     1
 66
   257
176
     1
 43
1.0
176
     1
 76
     1
176
     1
 77
     6
176
     1
 78
     2
176
     1
 67
     8
425
  7895160
176
     1
 79
     3
176
     1
170
     0
176
     1
171
     0
176
     1
290
     0
176
     1
 93
        5
176
     1
 44
0.0
176
     1
173
     0
176
     1
1001
ACAD
1000
AcDbSavedByObjectVersion
1070
     0
  0
VISUALSTYLE
  5
D7
102
{ACAD_XDICTIONARY
360
19A
102
}
102
{ACAD_REACTORS
330
C3
102
}
330
C3
100
AcDbVisualStyle
  2
Shaded with edges
 70
    26
177
     2
291
     0
 71
     2
176
     1
 72
     2
176
     1
 73
     1
176
     1
 90
        2
176
     1
 40
0.6
176
     1
 41
30.0
176
     1
 63
     7
421
 16777215
176
     1
 74
     1
176
     1
 91
       10
176
     1
 64
     7
176
     1
 65
   257
176
     1
 75
     2
176
     1
175
     1
176
     1
 42
1.0
176
     1
 92
        8
176
     1
 66
   257
176
     1
 43
1.0
176
     1
 76
     1
176
     1
 77
     6
176
     1
 78
     2
176
     1
 67
     7
176
     1
 79
     3
176
     1
170
     0
176
     1
171
     0
176
     1
290
     0
176
     1
 93
        5
176
     1
 44
0.0
176
     1
173
     0
176
     1
1001
ACAD
1000
AcDbSavedByObjectVersion
1070
     0
  0
VISUALSTYLE
  5
D4
102
{ACAD_XDICTIONARY
360
194
102
}
102
{ACAD_REACTORS
330
C3
102
}
330
C3
100
AcDbVisualStyle
  2
Shades of Gray
 70
    23
177
     2
291
     0
 71
     2
176
     1
 72
     2
176
     1
 73
     3
176
     1
 90
        0
176
     1
 40
0.6
176
     1
 41
30.0
176
     1
 63
     7
421
 16777215
176
     1
 74
     2
176
     1
 91
        2
176
     1
 64
     7
176
     1
 65
     7
176
     1
 75
     1
176
     1
175
     1
176
     1
 42
40.0
176
     1
 92
        8
176
     1
 66
     7
176
     1
 43
1.0
176
     1
 76
     1
176
     1
 77
     6
176
     1
 78
     2
176
     1
 67
     7
176
     1
 79
     3
176
     1
170
     0
176
     1
171
     0
176
     1
290
     0
176
     1
 93
        1
176
     1
 44
0.0
176
     1
173
     0
176
     1
1001
ACAD
1000
AcDbSavedByObjectVersion
1070
     0
  0
VISUALSTYLE
  5
D5
102
{ACAD_XDICTIONARY
360
196
102
}
102
{ACAD_REACTORS
330
C3
102
}
330
C3
100
AcDbVisualStyle
  2
Sketchy
 70
    24
177
     2
291
     0
 71
     1
176
     1
 72
     2
176
     1
 73
     2
176
     1
 90
        0
176
     1
 40
0.6
176
     1
 41
30.0
176
     1
 63
     7
421
 16777215
176
     1
 74
     2
176
     1
 91
        2
176
     1
 64
     7
176
     1
 65
     7
176
     1
 75
     1
176
     1
175
     1
176
     1
 42
40.0
176
     1
 92
       11
176
     1
 66
     7
176
     1
 43
1.0
176
     1
 76
     1
176
     1
 77
     6
176
     1
 78
     2
176
     1
 67
     7
176
     1
 79
     6
176
     1
170
     0
176
     1
171
     0
176
     1
290
     0
176
     1
 93
        1
176
     1
 44
0.0
176
     1
173
     0
176
     1
1001
ACAD
1000
AcDbSavedByObjectVersion
1070
     0
  0
VISUALSTYLE
  5
D0
102
{ACAD_XDICTIONARY
360
18C
102
}
102
{ACAD_REACTORS
330
C3
102
}
330
C3
100
AcDbVisualStyle
  2
Thicken
 70
    13
177
     2
291
     1
 71
     2
176
     1
 72
     2
176
     1
 73
     0
176
     1
 90
        0
176
     1
 40
0.6
176
     1
 41
30.0
176
     1
 63
     7
421
 16777215
176
     1
 74
     1
176
     1
 91
        4
176
     1
 64
     7
176
     1
 65
   257
176
     1
 75
     1
176
     1
175
     1
176
     1
 42
1.0
176
     1
 92
       12
176
     1
 66
     7
176
     1
 43
1.0
176
     1
 76
     1
176
     1
 77
     6
176
     1
 78
     2
176
     1
 67
     7
176
     1
 79
     5
176
     1
170
     0
176
     1
171
     0
176
     1
290
     0
176
     1
 93
        1
176
     1
 44
0.0
176
     1
173
     0
176
     1
1001
ACAD
1000
AcDbSavedByObjectVersion
1070
     0
  0
VISUALSTYLE
  5
CA
102
{ACAD_XDICTIONARY
360
180
102
}
102
{ACAD_REACTORS
330
C3
102
}
330
C3
100
AcDbVisualStyle
  2
Wireframe
 70
     5
177
     2
291
     0
 71
     0
176
     1
 72
     2
176
     1
 73
     0
176
     1
 90
        0
176
     1
 40
0.6
176
     1
 41
30.0
176
     1
 63
     7
421
 16777215
176
     1
 74
     1
176
     1
 91
        4
176
     1
 64
     7
176
     1
 65
   257
176
     1
 75
     1
176
     1
175
     1
176
     1
 42
1.0
176
     1
 92
        0
176
     1
 66
   257
176
     1
 43
1.0
176
     1
 76
     1
176
     1
 77
     6
176
     1
 78
     2
176
     1
 67
     7
176
     1
 79
     3
176
     1
170
     0
176
     1
171
     0
176
     1
290
     0
176
     1
 93
        1
176
     1
 44
0.0
176
     1
173
     0
176
     1
1001
ACAD
1000
AcDbSavedByObjectVersion
1070
     0
  0
VISUALSTYLE
  5
D6
102
{ACAD_XDICTIONARY
360
198
102
}
102
{ACAD_REACTORS
330
C3
102
}
330
C3
100
AcDbVisualStyle
  2
X-Ray
 70
    25
177
     2
291
     0
 71
     2
176
     1
 72
     2
176
     1
 73
     1
176
     1
 90
        1
176
     1
 40
0.5
176
     1
 41
30.0
176
     1
 63
     7
421
 16777215
176
     1
 74
     1
176
     1
 91
        0
176
     1
 64
     7
176
     1
 65
   257
176
     1
 75
     1
176
     1
175
     1
176
     1
 42
1.0
176
     1
 92
        8
176
     1
 66
     7
176
     1
 43
1.0
176
     1
 76
     1
176
     1
 77
     6
176
     1
 78
     2
176
     1
 67
     7
176
     1
 79
     3
176
     1
170
     0
176
     1
171
     0
176
     1
290
     0
176
     1
 93
       13
176
     1
 44
0.0
176
     1
173
     0
176
     1
1001
ACAD
1000
AcDbSavedByObjectVersion
1070
     0
  0
DICTIONARYVAR
  5
16D
102
{ACAD_REACTORS
330
167
102
}
330
167
100
DictionaryVariables
280
     0
  1
1:1
  0
DICTIONARYVAR
  5
169
102
{ACAD_REACTORS
330
167
102
}
330
167
100
DictionaryVariables
280
     0
  1
STANDARD
  0
DICTIONARYVAR
  5
168
102
{ACAD_REACTORS
330
167
102
}
330
167
100
DictionaryVariables
280
     0
  1
STANDARD
  0
DICTIONARYVAR
  5
16A
102
{ACAD_REACTORS
330
167
102
}
330
167
100
DictionaryVariables
280
     0
  1
Imperial24
  0
DICTIONARYVAR
  5
16B
102
{ACAD_REACTORS
330
167
102
}
330
167
100
DictionaryVariables
280
     0
  1
Imperial24
  0
DICTIONARYVAR
  5
16F
102
{ACAD_REACTORS
330
167
102
}
330
167
100
DictionaryVariables
280
     0
  1
1
  0
DICTIONARYVAR
  5
170
102
{ACAD_REACTORS
330
167
102
}
330
167
100
DictionaryVariables
280
     0
  1
15
  0
DICTIONARYVAR
  5
16E
102
{ACAD_REACTORS
330
167
102
}
330
167
100
DictionaryVariables
280
     0
  1
0
  0
DICTIONARYVAR
  5
16C
102
{ACAD_REACTORS
330
167
102
}
330
167
100
DictionaryVariables
280
     0
  1
0
  0
DICTIONARY
  5
1A8
330
F6
100
AcDbDictionary
280
     1
281
     1
  3
ACAD_XREC_ROUNDTRIP
360
1A9
  0
DICTIONARY
  5
B4
330
B3
100
AcDbDictionary
280
     1
281
     1
  3
BUMPTILE
360
B6
  3
DIFFUSETILE
360
B5
  3
OPACITYTILE
360
B9
  3
REFLECTIONTILE
360
B8
  3
REFRACTIONTILE
360
BA
  3
SPECULARTILE
360
B7
  0
DICTIONARY
  5
AC
330
AB
100
AcDbDictionary
280
     1
281
     1
  3
BUMPTILE
360
AE
  3
DIFFUSETILE
360
AD
  3
OPACITYTILE
360
B1
  3
REFLECTIONTILE
360
B0
  3
REFRACTIONTILE
360
B2
  3
SPECULARTILE
360
AF
  0
DICTIONARY
  5
BC
330
BB
100
AcDbDictionary
280
     1
281
     1
  3
BUMPTILE
360
BE
  3
DIFFUSETILE
360
BD
  3
OPACITYTILE
360
C1
  3
REFLECTIONTILE
360
C0
  3
REFRACTIONTILE
360
C2
  3
SPECULARTILE
360
BF
  0
DICTIONARY
  5
1A4
330
F2
100
AcDbDictionary
280
     1
281
     1
  3
ACAD_XREC_ROUNDTRIP
360
1A5
  0
DICTIONARY
  5
1A6
330
F4
100
AcDbDictionary
280
     1
281
     1
  3
ACAD_XREC_ROUNDTRIP
360
1A7
  0
DICTIONARY
  5
171
330
DE
100
AcDbDictionary
280
     1
281
     1
  3
ACAD_ROUNDTRIP_2008_TABLESTYLE_CELLSTYLEMAP
360
172
  0
DICTIONARY
  5
17E
330
C9
100
AcDbDictionary
280
     1
281
     1
  3
ACAD_XREC_ROUNDTRIP
360
17F
  0
DICTIONARY
  5
17C
330
C8
100
AcDbDictionary
280
     1
281
     1
  3
ACAD_XREC_ROUNDTRIP
360
17D
  0
DICTIONARY
  5
18A
330
CF
100
AcDbDictionary
280
     1
281
     1
  3
ACAD_XREC_ROUNDTRIP
360
18B
  0
DICTIONARY
  5
192
330
D3
100
AcDbDictionary
280
     1
281
     1
  3
ACAD_XREC_ROUNDTRIP
360
193
  0
DICTIONARY
  5
184
330
CC
100
AcDbDictionary
280
     1
281
     1
  3
ACAD_XREC_ROUNDTRIP
360
185
  0
DICTIONARY
  5
188
330
CE
100
AcDbDictionary
280
     1
281
     1
  3
ACAD_XREC_ROUNDTRIP
360
189
  0
DICTIONARY
  5
1A2
330
DB
100
AcDbDictionary
280
     1
281
     1
  3
ACAD_XREC_ROUNDTRIP
360
1A3
  0
DICTIONARY
  5
190
330
D2
100
AcDbDictionary
280
     1
281
     1
  3
ACAD_XREC_ROUNDTRIP
360
191
  0
DICTIONARY
  5
174
330
C4
100
AcDbDictionary
280
     1
281
     1
  3
ACAD_XREC_ROUNDTRIP
360
175
  0
DICTIONARY
  5
176
330
C5
100
AcDbDictionary
280
     1
281
     1
  3
ACAD_XREC_ROUNDTRIP
360
177
  0
DICTIONARY
  5
178
330
C6
100
AcDbDictionary
280
     1
281
     1
  3
ACAD_XREC_ROUNDTRIP
360
179
  0
DICTIONARY
  5
17A
330
C7
100
AcDbDictionary
280
     1
281
     1
  3
ACAD_XREC_ROUNDTRIP
360
17B
  0
DICTIONARY
  5
182
330
CB
100
AcDbDictionary
280
     1
281
     1
  3
ACAD_XREC_ROUNDTRIP
360
183
  0
DICTIONARY
  5
19E
330
D9
100
AcDbDictionary
280
     1
281
     1
  3
ACAD_XREC_ROUNDTRIP
360
19F
  0
DICTIONARY
  5
18E
330
D1
100
AcDbDictionary
280
     1
281
     1
  3
ACAD_XREC_ROUNDTRIP
360
18F
  0
DICTIONARY
  5
1A0
330
DA
100
AcDbDictionary
280
     1
281
     1
  3
ACAD_XREC_ROUNDTRIP
360
1A1
  0
DICTIONARY
  5
186
330
CD
100
AcDbDictionary
280
     1
281
     1
  3
ACAD_XREC_ROUNDTRIP
360
187
  0
DICTIONARY
  5
19C
330
D8
100
AcDbDictionary
280
     1
281
     1
  3
ACAD_XREC_ROUNDTRIP
360
19D
  0
DICTIONARY
  5
19A
330
D7
100
AcDbDictionary
280
     1
281
     1
  3
ACAD_XREC_ROUNDTRIP
360
19B
  0
DICTIONARY
  5
194
330
D4
100
AcDbDictionary
280
     1
281
     1
  3
ACAD_XREC_ROUNDTRIP
360
195
  0
DICTIONARY
  5
196
330
D5
100
AcDbDictionary
280
     1
281
     1
  3
ACAD_XREC_ROUNDTRIP
360
197
  0
DICTIONARY
  5
18C
330
D0
100
AcDbDictionary
280
     1
281
     1
  3
ACAD_XREC_ROUNDTRIP
360
18D
  0
DICTIONARY
  5
180
330
CA
100
AcDbDictionary
280
     1
281
     1
  3
ACAD_XREC_ROUNDTRIP
360
181
  0
DICTIONARY
  5
198
330
D6
100
AcDbDictionary
280
     1
281
     1
  3
ACAD_XREC_ROUNDTRIP
360
199
  0
XRECORD
  5
1A9
102
{ACAD_REACTORS
330
1A8
102
}
330
1A8
100
AcDbXrecord
280
     1
102
DISPLAYNAME
  1
Imperial24
102
FLAGS
 90
        0
  0
XRECORD
  5
B6
102
{ACAD_REACTORS
330
B4
102
}
330
B4
100
AcDbXrecord
280
     1
270
     1
271
     1
  0
XRECORD
  5
B5
102
{ACAD_REACTORS
330
B4
102
}
330
B4
100
AcDbXrecord
280
     1
270
     1
271
     1
  0
XRECORD
  5
B9
102
{ACAD_REACTORS
330
B4
102
}
330
B4
100
AcDbXrecord
280
     1
270
     1
271
     1
  0
XRECORD
  5
B8
102
{ACAD_REACTORS
330
B4
102
}
330
B4
100
AcDbXrecord
280
     1
270
     1
271
     1
  0
XRECORD
  5
BA
102
{ACAD_REACTORS
330
B4
102
}
330
B4
100
AcDbXrecord
280
     1
270
     1
271
     1
  0
XRECORD
  5
B7
102
{ACAD_REACTORS
330
B4
102
}
330
B4
100
AcDbXrecord
280
     1
270
     1
271
     1
  0
XRECORD
  5
AE
102
{ACAD_REACTORS
330
AC
102
}
330
AC
100
AcDbXrecord
280
     1
270
     1
271
     1
  0
XRECORD
  5
AD
102
{ACAD_REACTORS
330
AC
102
}
330
AC
100
AcDbXrecord
280
     1
270
     1
271
     1
  0
XRECORD
  5
B1
102
{ACAD_REACTORS
330
AC
102
}
330
AC
100
AcDbXrecord
280
     1
270
     1
271
     1
  0
XRECORD
  5
B0
102
{ACAD_REACTORS
330
AC
102
}
330
AC
100
AcDbXrecord
280
     1
270
     1
271
     1
  0
XRECORD
  5
B2
102
{ACAD_REACTORS
330
AC
102
}
330
AC
100
AcDbXrecord
280
     1
270
     1
271
     1
  0
XRECORD
  5
AF
102
{ACAD_REACTORS
330
AC
102
}
330
AC
100
AcDbXrecord
280
     1
270
     1
271
     1
  0
XRECORD
  5
BE
102
{ACAD_REACTORS
330
BC
102
}
330
BC
100
AcDbXrecord
280
     1
270
     1
271
     1
  0
XRECORD
  5
BD
102
{ACAD_REACTORS
330
BC
102
}
330
BC
100
AcDbXrecord
280
     1
270
     1
271
     1
  0
XRECORD
  5
C1
102
{ACAD_REACTORS
330
BC
102
}
330
BC
100
AcDbXrecord
280
     1
270
     1
271
     1
  0
XRECORD
  5
C0
102
{ACAD_REACTORS
330
BC
102
}
330
BC
100
AcDbXrecord
280
     1
270
     1
271
     1
  0
XRECORD
  5
C2
102
{ACAD_REACTORS
330
BC
102
}
330
BC
100
AcDbXrecord
280
     1
270
     1
271
     1
  0
XRECORD
  5
BF
102
{ACAD_REACTORS
330
BC
102
}
330
BC
100
AcDbXrecord
280
     1
270
     1
271
     1
  0
XRECORD
  5
1A5
102
{ACAD_REACTORS
330
1A4
102
}
330
1A4
100
AcDbXrecord
280
     1
102
ACAD_ROUNDTRIP_2012_MLEADER_STYLE
298
     1
  0
XRECORD
  5
1A7
102
{ACAD_REACTORS
330
1A6
102
}
330
1A6
100
AcDbXrecord
280
     1
102
DISPLAYNAME
  1
Imperial24
102
FLAGS
 90
        0
  0
CELLSTYLEMAP
  5
172
102
{ACAD_REACTORS
330
171
102
}
330
171
100
AcDbCellStyleMap
 90
        3
300
CELLSTYLE
  1
TABLEFORMAT_BEGIN
 90
        5
170
     1
 91
        0
 92
    32768
 62
   257
 93
        1
300
CONTENTFORMAT
  1
CONTENTFORMAT_BEGIN
 90
        0
 91
        0
 92
      512
 93
        0
300

 40
0.0
140
1.0
 94
        5
 62
     0
340
11
144
0.25
309
CONTENTFORMAT_END
171
     0
 94
        0
309
TABLEFORMAT_END
  1
CELLSTYLE_BEGIN
 90
        1
 91
        1
300
_TITLE
309
CELLSTYLE_END
300
CELLSTYLE
  1
TABLEFORMAT_BEGIN
 90
        5
170
     1
 91
        0
 92
        0
 62
   257
 93
        1
300
CONTENTFORMAT
  1
CONTENTFORMAT_BEGIN
 90
        0
 91
        0
 92
      512
 93
        0
300

 40
0.0
140
1.0
 94
        5
 62
     0
340
11
144
0.18
309
CONTENTFORMAT_END
171
     0
 94
        0
309
TABLEFORMAT_END
  1
CELLSTYLE_BEGIN
 90
        2
 91
        1
300
_HEADER
309
CELLSTYLE_END
300
CELLSTYLE
  1
TABLEFORMAT_BEGIN
 90
        5
170
     1
 91
        0
 92
        0
 62
   257
 93
        1
300
CONTENTFORMAT
  1
CONTENTFORMAT_BEGIN
 90
        0
 91
        0
 92
      512
 93
        0
300

 40
0.0
140
1.0
 94
        2
 62
     0
340
11
144
0.18
309
CONTENTFORMAT_END
171
     0
 94
        0
309
TABLEFORMAT_END
  1
CELLSTYLE_BEGIN
 90
        3
 91
        2
300
_DATA
309
CELLSTYLE_END
  0
XRECORD
  5
17F
102
{ACAD_REACTORS
330
17E
102
}
330
17E
100
AcDbXrecord
280
     1
102
RTVSPost2010Prop28
280
     1
102
RTVSPost2010PropOp28
 70
     1
102
RTVSPost2010Prop29
280
     1
102
RTVSPost2010PropOp29
 70
     1
102
RTVSPost2010Prop30
280
     0
102
RTVSPost2010PropOp30
 70
     1
102
RTVSPost2010Prop31
280
     0
102
RTVSPost2010PropOp31
 70
     1
102
RTVSPost2010Prop32
280
     0
102
RTVSPost2010PropOp32
 70
     1
102
RTVSPost2010Prop33
280
     0
102
RTVSPost2010PropOp33
 70
     1
102
RTVSPost2010Prop34
280
     0
102
RTVSPost2010PropOp34
 70
     1
102
RTVSPost2010Prop35
280
     0
102
RTVSPost2010PropOp35
 70
     1
102
RTVSPost2010Prop36
280
     0
102
RTVSPost2010PropOp36
 70
     1
102
RTVSPost2010Prop37
 90
       50
102
RTVSPost2010PropOp37
 70
     1
102
RTVSPost2010Prop38
140
0.0
102
RTVSPost2010PropOp38
 70
     1
102
RTVSPost2010Prop39
140
1.0
102
RTVSPost2010PropOp39
 70
     1
102
RTVSPost2010Prop40
 90
        0
102
RTVSPost2010PropOp40
 70
     1
102
RTVSPost2010Prop41ColorIndex
 90
       18
102
RTVSPost2010Prop41ColorRGB
 90
        0
102
RTVSPost2010PropOp41
 70
     1
102
RTVSPost2010Prop42
 90
       50
102
RTVSPost2010PropOp42
 70
     1
102
RTVSPost2010Prop43
 90
        3
102
RTVSPost2010PropOp43
 70
     1
102
RTVSPost2010Prop44ColorIndex
 90
        5
102
RTVSPost2010Prop44ColorRGB
 90
      255
102
RTVSPost2010PropOp44
 70
     1
102
RTVSPost2010Prop45
280
     0
102
RTVSPost2010PropOp45
 70
     1
102
RTVSPost2010Prop46
 90
       50
102
RTVSPost2010PropOp46
 70
     1
102
RTVSPost2010Prop47
 90
       50
102
RTVSPost2010PropOp47
 70
     1
102
RTVSPost2010Prop48
 90
       50
102
RTVSPost2010PropOp48
 70
     1
102
RTVSPost2010Prop49
280
     0
102
RTVSPost2010PropOp49
 70
     1
102
RTVSPost2010Prop50
 90
       50
102
RTVSPost2010PropOp50
 70
     1
102
RTVSPost2010Prop51ColorIndex
 90
      256
102
RTVSPost2010Prop51ColorRGB
 90
-16777216
102
RTVSPost2010PropOp51
 70
     0
102
RTVSPost2010Prop52
140
1.0
102
RTVSPost2010PropOp52
 70
     0
102
RTVSPost2010Prop53
 90
        2
102
RTVSPost2010PropOp53
 70
     1
102
RTVSPost2010Prop54
  1
strokes_ogs.tif
102
RTVSPost2010PropOp54
 70
     1
102
RTVSPost2010Prop55
280
     0
102
RTVSPost2010PropOp55
 70
     1
102
RTVSPost2010Prop56
140
1.0
102
RTVSPost2010PropOp56
 70
     1
102
RTVSPost2010Prop57
140
1.0
102
RTVSPost2010PropOp57
 70
     1
  0
XRECORD
  5
17D
102
{ACAD_REACTORS
330
17C
102
}
330
17C
100
AcDbXrecord
280
     1
102
RTVSPost2010Prop28
280
     0
102
RTVSPost2010PropOp28
 70
     1
102
RTVSPost2010Prop29
280
     1
102
RTVSPost2010PropOp29
 70
     1
102
RTVSPost2010Prop30
280
     1
102
RTVSPost2010PropOp30
 70
     1
102
RTVSPost2010Prop31
280
     0
102
RTVSPost2010PropOp31
 70
     1
102
RTVSPost2010Prop32
280
     0
102
RTVSPost2010PropOp32
 70
     1
102
RTVSPost2010Prop33
280
     0
102
RTVSPost2010PropOp33
 70
     1
102
RTVSPost2010Prop34
280
     0
102
RTVSPost2010PropOp34
 70
     1
102
RTVSPost2010Prop35
280
     0
102
RTVSPost2010PropOp35
 70
     1
102
RTVSPost2010Prop36
280
     0
102
RTVSPost2010PropOp36
 70
     1
102
RTVSPost2010Prop37
 90
       50
102
RTVSPost2010PropOp37
 70
     1
102
RTVSPost2010Prop38
140
0.0
102
RTVSPost2010PropOp38
 70
     1
102
RTVSPost2010Prop39
140
1.0
102
RTVSPost2010PropOp39
 70
     1
102
RTVSPost2010Prop40
 90
        0
102
RTVSPost2010PropOp40
 70
     1
102
RTVSPost2010Prop41ColorIndex
 90
       18
102
RTVSPost2010Prop41ColorRGB
 90
        0
102
RTVSPost2010PropOp41
 70
     1
102
RTVSPost2010Prop42
 90
       50
102
RTVSPost2010PropOp42
 70
     1
102
RTVSPost2010Prop43
 90
        3
102
RTVSPost2010PropOp43
 70
     1
102
RTVSPost2010Prop44ColorIndex
 90
        5
102
RTVSPost2010Prop44ColorRGB
 90
      255
102
RTVSPost2010PropOp44
 70
     1
102
RTVSPost2010Prop45
280
     0
102
RTVSPost2010PropOp45
 70
     1
102
RTVSPost2010Prop46
 90
       50
102
RTVSPost2010PropOp46
 70
     1
102
RTVSPost2010Prop47
 90
       50
102
RTVSPost2010PropOp47
 70
     1
102
RTVSPost2010Prop48
 90
       50
102
RTVSPost2010PropOp48
 70
     1
102
RTVSPost2010Prop49
280
     0
102
RTVSPost2010PropOp49
 70
     1
102
RTVSPost2010Prop50
 90
       50
102
RTVSPost2010PropOp50
 70
     1
102
RTVSPost2010Prop51ColorIndex
 90
      256
102
RTVSPost2010Prop51ColorRGB
 90
-16777216
102
RTVSPost2010PropOp51
 70
     0
102
RTVSPost2010Prop52
140
1.0
102
RTVSPost2010PropOp52
 70
     0
102
RTVSPost2010Prop53
 90
        2
102
RTVSPost2010PropOp53
 70
     1
102
RTVSPost2010Prop54
  1
strokes_ogs.tif
102
RTVSPost2010PropOp54
 70
     1
102
RTVSPost2010Prop55
280
     0
102
RTVSPost2010PropOp55
 70
     1
102
RTVSPost2010Prop56
140
1.0
102
RTVSPost2010PropOp56
 70
     1
102
RTVSPost2010Prop57
140
1.0
102
RTVSPost2010PropOp57
 70
     1
  0
XRECORD
  5
18B
102
{ACAD_REACTORS
330
18A
102
}
330
18A
100
AcDbXrecord
280
     1
102
RTVSPost2010Prop28
280
     0
102
RTVSPost2010PropOp28
 70
     1
102
RTVSPost2010Prop29
280
     1
102
RTVSPost2010PropOp29
 70
     1
102
RTVSPost2010Prop30
280
     1
102
RTVSPost2010PropOp30
 70
     1
102
RTVSPost2010Prop31
280
     0
102
RTVSPost2010PropOp31
 70
     1
102
RTVSPost2010Prop32
280
     0
102
RTVSPost2010PropOp32
 70
     1
102
RTVSPost2010Prop33
280
     0
102
RTVSPost2010PropOp33
 70
     1
102
RTVSPost2010Prop34
280
     0
102
RTVSPost2010PropOp34
 70
     1
102
RTVSPost2010Prop35
280
     0
102
RTVSPost2010PropOp35
 70
     1
102
RTVSPost2010Prop36
280
     0
102
RTVSPost2010PropOp36
 70
     1
102
RTVSPost2010Prop37
 90
       50
102
RTVSPost2010PropOp37
 70
     1
102
RTVSPost2010Prop38
140
0.0
102
RTVSPost2010PropOp38
 70
     1
102
RTVSPost2010Prop39
140
1.0
102
RTVSPost2010PropOp39
 70
     1
102
RTVSPost2010Prop40
 90
        0
102
RTVSPost2010PropOp40
 70
     1
102
RTVSPost2010Prop41ColorIndex
 90
       18
102
RTVSPost2010Prop41ColorRGB
 90
        0
102
RTVSPost2010PropOp41
 70
     1
102
RTVSPost2010Prop42
 90
       50
102
RTVSPost2010PropOp42
 70
     1
102
RTVSPost2010Prop43
 90
        3
102
RTVSPost2010PropOp43
 70
     1
102
RTVSPost2010Prop44ColorIndex
 90
        5
102
RTVSPost2010Prop44ColorRGB
 90
      255
102
RTVSPost2010PropOp44
 70
     1
102
RTVSPost2010Prop45
280
     0
102
RTVSPost2010PropOp45
 70
     1
102
RTVSPost2010Prop46
 90
       50
102
RTVSPost2010PropOp46
 70
     1
102
RTVSPost2010Prop47
 90
       50
102
RTVSPost2010PropOp47
 70
     1
102
RTVSPost2010Prop48
 90
       50
102
RTVSPost2010PropOp48
 70
     1
102
RTVSPost2010Prop49
280
     0
102
RTVSPost2010PropOp49
 70
     1
102
RTVSPost2010Prop50
 90
       50
102
RTVSPost2010PropOp50
 70
     1
102
RTVSPost2010Prop51ColorIndex
 90
      256
102
RTVSPost2010Prop51ColorRGB
 90
-16777216
102
RTVSPost2010PropOp51
 70
     0
102
RTVSPost2010Prop52
140
1.0
102
RTVSPost2010PropOp52
 70
     0
102
RTVSPost2010Prop53
 90
        2
102
RTVSPost2010PropOp53
 70
     1
102
RTVSPost2010Prop54
  1
strokes_ogs.tif
102
RTVSPost2010PropOp54
 70
     1
102
RTVSPost2010Prop55
280
     0
102
RTVSPost2010PropOp55
 70
     1
102
RTVSPost2010Prop56
140
1.0
102
RTVSPost2010PropOp56
 70
     1
102
RTVSPost2010Prop57
140
1.0
102
RTVSPost2010PropOp57
 70
     1
  0
XRECORD
  5
193
102
{ACAD_REACTORS
330
192
102
}
330
192
100
AcDbXrecord
280
     1
102
RTVSPost2010Prop28
280
     0
102
RTVSPost2010PropOp28
 70
     1
102
RTVSPost2010Prop29
280
     1
102
RTVSPost2010PropOp29
 70
     1
102
RTVSPost2010Prop30
280
     1
102
RTVSPost2010PropOp30
 70
     1
102
RTVSPost2010Prop31
280
     0
102
RTVSPost2010PropOp31
 70
     1
102
RTVSPost2010Prop32
280
     0
102
RTVSPost2010PropOp32
 70
     1
102
RTVSPost2010Prop33
280
     0
102
RTVSPost2010PropOp33
 70
     1
102
RTVSPost2010Prop34
280
     0
102
RTVSPost2010PropOp34
 70
     1
102
RTVSPost2010Prop35
280
     0
102
RTVSPost2010PropOp35
 70
     1
102
RTVSPost2010Prop36
280
     0
102
RTVSPost2010PropOp36
 70
     1
102
RTVSPost2010Prop37
 90
       50
102
RTVSPost2010PropOp37
 70
     1
102
RTVSPost2010Prop38
140
0.0
102
RTVSPost2010PropOp38
 70
     1
102
RTVSPost2010Prop39
140
1.0
102
RTVSPost2010PropOp39
 70
     1
102
RTVSPost2010Prop40
 90
        0
102
RTVSPost2010PropOp40
 70
     1
102
RTVSPost2010Prop41ColorIndex
 90
       18
102
RTVSPost2010Prop41ColorRGB
 90
        0
102
RTVSPost2010PropOp41
 70
     1
102
RTVSPost2010Prop42
 90
       50
102
RTVSPost2010PropOp42
 70
     1
102
RTVSPost2010Prop43
 90
        3
102
RTVSPost2010PropOp43
 70
     1
102
RTVSPost2010Prop44ColorIndex
 90
        5
102
RTVSPost2010Prop44ColorRGB
 90
      255
102
RTVSPost2010PropOp44
 70
     1
102
RTVSPost2010Prop45
280
     0
102
RTVSPost2010PropOp45
 70
     1
102
RTVSPost2010Prop46
 90
       50
102
RTVSPost2010PropOp46
 70
     1
102
RTVSPost2010Prop47
 90
       50
102
RTVSPost2010PropOp47
 70
     1
102
RTVSPost2010Prop48
 90
       50
102
RTVSPost2010PropOp48
 70
     1
102
RTVSPost2010Prop49
280
     0
102
RTVSPost2010PropOp49
 70
     1
102
RTVSPost2010Prop50
 90
       50
102
RTVSPost2010PropOp50
 70
     1
102
RTVSPost2010Prop51ColorIndex
 90
      256
102
RTVSPost2010Prop51ColorRGB
 90
-16777216
102
RTVSPost2010PropOp51
 70
     0
102
RTVSPost2010Prop52
140
1.0
102
RTVSPost2010PropOp52
 70
     0
102
RTVSPost2010Prop53
 90
        2
102
RTVSPost2010PropOp53
 70
     1
102
RTVSPost2010Prop54
  1
strokes_ogs.tif
102
RTVSPost2010PropOp54
 70
     1
102
RTVSPost2010Prop55
280
     0
102
RTVSPost2010PropOp55
 70
     1
102
RTVSPost2010Prop56
140
1.0
102
RTVSPost2010PropOp56
 70
     1
102
RTVSPost2010Prop57
140
1.0
102
RTVSPost2010PropOp57
 70
     1
  0
XRECORD
  5
185
102
{ACAD_REACTORS
330
184
102
}
330
184
100
AcDbXrecord
280
     1
102
RTVSPost2010Prop28
280
     0
102
RTVSPost2010PropOp28
 70
     1
102
RTVSPost2010Prop29
280
     1
102
RTVSPost2010PropOp29
 70
     1
102
RTVSPost2010Prop30
280
     1
102
RTVSPost2010PropOp30
 70
     1
102
RTVSPost2010Prop31
280
     0
102
RTVSPost2010PropOp31
 70
     1
102
RTVSPost2010Prop32
280
     0
102
RTVSPost2010PropOp32
 70
     1
102
RTVSPost2010Prop33
280
     0
102
RTVSPost2010PropOp33
 70
     1
102
RTVSPost2010Prop34
280
     0
102
RTVSPost2010PropOp34
 70
     1
102
RTVSPost2010Prop35
280
     0
102
RTVSPost2010PropOp35
 70
     1
102
RTVSPost2010Prop36
280
     0
102
RTVSPost2010PropOp36
 70
     1
102
RTVSPost2010Prop37
 90
       50
102
RTVSPost2010PropOp37
 70
     1
102
RTVSPost2010Prop38
140
0.0
102
RTVSPost2010PropOp38
 70
     1
102
RTVSPost2010Prop39
140
1.0
102
RTVSPost2010PropOp39
 70
     1
102
RTVSPost2010Prop40
 90
        0
102
RTVSPost2010PropOp40
 70
     1
102
RTVSPost2010Prop41ColorIndex
 90
       18
102
RTVSPost2010Prop41ColorRGB
 90
        0
102
RTVSPost2010PropOp41
 70
     1
102
RTVSPost2010Prop42
 90
       50
102
RTVSPost2010PropOp42
 70
     1
102
RTVSPost2010Prop43
 90
        3
102
RTVSPost2010PropOp43
 70
     1
102
RTVSPost2010Prop44ColorIndex
 90
        5
102
RTVSPost2010Prop44ColorRGB
 90
      255
102
RTVSPost2010PropOp44
 70
     1
102
RTVSPost2010Prop45
280
     0
102
RTVSPost2010PropOp45
 70
     1
102
RTVSPost2010Prop46
 90
       50
102
RTVSPost2010PropOp46
 70
     1
102
RTVSPost2010Prop47
 90
       50
102
RTVSPost2010PropOp47
 70
     1
102
RTVSPost2010Prop48
 90
       50
102
RTVSPost2010PropOp48
 70
     1
102
RTVSPost2010Prop49
280
     0
102
RTVSPost2010PropOp49
 70
     1
102
RTVSPost2010Prop50
 90
       50
102
RTVSPost2010PropOp50
 70
     1
102
RTVSPost2010Prop51ColorIndex
 90
      256
102
RTVSPost2010Prop51ColorRGB
 90
-16777216
102
RTVSPost2010PropOp51
 70
     0
102
RTVSPost2010Prop52
140
1.0
102
RTVSPost2010PropOp52
 70
     0
102
RTVSPost2010Prop53
 90
        2
102
RTVSPost2010PropOp53
 70
     1
102
RTVSPost2010Prop54
  1
strokes_ogs.tif
102
RTVSPost2010PropOp54
 70
     1
102
RTVSPost2010Prop55
280
     0
102
RTVSPost2010PropOp55
 70
     1
102
RTVSPost2010Prop56
140
1.0
102
RTVSPost2010PropOp56
 70
     1
102
RTVSPost2010Prop57
140
1.0
102
RTVSPost2010PropOp57
 70
     1
  0
XRECORD
  5
189
102
{ACAD_REACTORS
330
188
102
}
330
188
100
AcDbXrecord
280
     1
102
RTVSPost2010Prop28
280
     0
102
RTVSPost2010PropOp28
 70
     1
102
RTVSPost2010Prop29
280
     1
102
RTVSPost2010PropOp29
 70
     1
102
RTVSPost2010Prop30
280
     1
102
RTVSPost2010PropOp30
 70
     1
102
RTVSPost2010Prop31
280
     0
102
RTVSPost2010PropOp31
 70
     1
102
RTVSPost2010Prop32
280
     0
102
RTVSPost2010PropOp32
 70
     1
102
RTVSPost2010Prop33
280
     0
102
RTVSPost2010PropOp33
 70
     1
102
RTVSPost2010Prop34
280
     0
102
RTVSPost2010PropOp34
 70
     1
102
RTVSPost2010Prop35
280
     0
102
RTVSPost2010PropOp35
 70
     1
102
RTVSPost2010Prop36
280
     0
102
RTVSPost2010PropOp36
 70
     1
102
RTVSPost2010Prop37
 90
       50
102
RTVSPost2010PropOp37
 70
     1
102
RTVSPost2010Prop38
140
0.0
102
RTVSPost2010PropOp38
 70
     1
102
RTVSPost2010Prop39
140
1.0
102
RTVSPost2010PropOp39
 70
     1
102
RTVSPost2010Prop40
 90
        0
102
RTVSPost2010PropOp40
 70
     1
102
RTVSPost2010Prop41ColorIndex
 90
       18
102
RTVSPost2010Prop41ColorRGB
 90
        0
102
RTVSPost2010PropOp41
 70
     1
102
RTVSPost2010Prop42
 90
       50
102
RTVSPost2010PropOp42
 70
     1
102
RTVSPost2010Prop43
 90
        3
102
RTVSPost2010PropOp43
 70
     1
102
RTVSPost2010Prop44ColorIndex
 90
        5
102
RTVSPost2010Prop44ColorRGB
 90
      255
102
RTVSPost2010PropOp44
 70
     1
102
RTVSPost2010Prop45
280
     0
102
RTVSPost2010PropOp45
 70
     1
102
RTVSPost2010Prop46
 90
       50
102
RTVSPost2010PropOp46
 70
     1
102
RTVSPost2010Prop47
 90
       50
102
RTVSPost2010PropOp47
 70
     1
102
RTVSPost2010Prop48
 90
       50
102
RTVSPost2010PropOp48
 70
     1
102
RTVSPost2010Prop49
280
     0
102
RTVSPost2010PropOp49
 70
     1
102
RTVSPost2010Prop50
 90
       50
102
RTVSPost2010PropOp50
 70
     1
102
RTVSPost2010Prop51ColorIndex
 90
      256
102
RTVSPost2010Prop51ColorRGB
 90
-16777216
102
RTVSPost2010PropOp51
 70
     0
102
RTVSPost2010Prop52
140
1.0
102
RTVSPost2010PropOp52
 70
     0
102
RTVSPost2010Prop53
 90
        2
102
RTVSPost2010PropOp53
 70
     1
102
RTVSPost2010Prop54
  1
strokes_ogs.tif
102
RTVSPost2010PropOp54
 70
     1
102
RTVSPost2010Prop55
280
     0
102
RTVSPost2010PropOp55
 70
     1
102
RTVSPost2010Prop56
140
1.0
102
RTVSPost2010PropOp56
 70
     1
102
RTVSPost2010Prop57
140
1.0
102
RTVSPost2010PropOp57
 70
     1
  0
XRECORD
  5
1A3
102
{ACAD_REACTORS
330
1A2
102
}
330
1A2
100
AcDbXrecord
280
     1
102
RTVSPost2010Prop28
280
     0
102
RTVSPost2010PropOp28
 70
     0
102
RTVSPost2010Prop29
280
     1
102
RTVSPost2010PropOp29
 70
     0
102
RTVSPost2010Prop30
280
     1
102
RTVSPost2010PropOp30
 70
     0
102
RTVSPost2010Prop31
280
     0
102
RTVSPost2010PropOp31
 70
     0
102
RTVSPost2010Prop32
280
     0
102
RTVSPost2010PropOp32
 70
     0
102
RTVSPost2010Prop33
280
     0
102
RTVSPost2010PropOp33
 70
     0
102
RTVSPost2010Prop34
280
     0
102
RTVSPost2010PropOp34
 70
     0
102
RTVSPost2010Prop35
280
     0
102
RTVSPost2010PropOp35
 70
     0
102
RTVSPost2010Prop36
280
     0
102
RTVSPost2010PropOp36
 70
     0
102
RTVSPost2010Prop37
 90
       50
102
RTVSPost2010PropOp37
 70
     0
102
RTVSPost2010Prop38
140
0.0
102
RTVSPost2010PropOp38
 70
     0
102
RTVSPost2010Prop39
140
1.0
102
RTVSPost2010PropOp39
 70
     0
102
RTVSPost2010Prop40
 90
        0
102
RTVSPost2010PropOp40
 70
     0
102
RTVSPost2010Prop41ColorIndex
 90
       18
102
RTVSPost2010Prop41ColorRGB
 90
        0
102
RTVSPost2010PropOp41
 70
     0
102
RTVSPost2010Prop42
 90
       50
102
RTVSPost2010PropOp42
 70
     0
102
RTVSPost2010Prop43
 90
        3
102
RTVSPost2010PropOp43
 70
     0
102
RTVSPost2010Prop44ColorIndex
 90
        5
102
RTVSPost2010Prop44ColorRGB
 90
      255
102
RTVSPost2010PropOp44
 70
     0
102
RTVSPost2010Prop45
280
     0
102
RTVSPost2010PropOp45
 70
     0
102
RTVSPost2010Prop46
 90
       50
102
RTVSPost2010PropOp46
 70
     0
102
RTVSPost2010Prop47
 90
       50
102
RTVSPost2010PropOp47
 70
     0
102
RTVSPost2010Prop48
 90
       50
102
RTVSPost2010PropOp48
 70
     0
102
RTVSPost2010Prop49
280
     0
102
RTVSPost2010PropOp49
 70
     0
102
RTVSPost2010Prop50
 90
       50
102
RTVSPost2010PropOp50
 70
     0
102
RTVSPost2010Prop51ColorIndex
 90
      256
102
RTVSPost2010Prop51ColorRGB
 90
-16777216
102
RTVSPost2010PropOp51
 70
     0
102
RTVSPost2010Prop52
140
1.0
102
RTVSPost2010PropOp52
 70
     0
102
RTVSPost2010Prop53
 90
        2
102
RTVSPost2010PropOp53
 70
     0
102
RTVSPost2010Prop54
  1
strokes_ogs.tif
102
RTVSPost2010PropOp54
 70
     0
102
RTVSPost2010Prop55
280
     0
102
RTVSPost2010PropOp55
 70
     0
102
RTVSPost2010Prop56
140
1.0
102
RTVSPost2010PropOp56
 70
     0
102
RTVSPost2010Prop57
140
1.0
102
RTVSPost2010PropOp57
 70
     0
  0
XRECORD
  5
191
102
{ACAD_REACTORS
330
190
102
}
330
190
100
AcDbXrecord
280
     1
102
RTVSPost2010Prop28
280
     0
102
RTVSPost2010PropOp28
 70
     1
102
RTVSPost2010Prop29
280
     1
102
RTVSPost2010PropOp29
 70
     1
102
RTVSPost2010Prop30
280
     1
102
RTVSPost2010PropOp30
 70
     1
102
RTVSPost2010Prop31
280
     0
102
RTVSPost2010PropOp31
 70
     1
102
RTVSPost2010Prop32
280
     0
102
RTVSPost2010PropOp32
 70
     1
102
RTVSPost2010Prop33
280
     0
102
RTVSPost2010PropOp33
 70
     1
102
RTVSPost2010Prop34
280
     0
102
RTVSPost2010PropOp34
 70
     1
102
RTVSPost2010Prop35
280
     0
102
RTVSPost2010PropOp35
 70
     1
102
RTVSPost2010Prop36
280
     0
102
RTVSPost2010PropOp36
 70
     1
102
RTVSPost2010Prop37
 90
       50
102
RTVSPost2010PropOp37
 70
     1
102
RTVSPost2010Prop38
140
0.0
102
RTVSPost2010PropOp38
 70
     1
102
RTVSPost2010Prop39
140
1.0
102
RTVSPost2010PropOp39
 70
     1
102
RTVSPost2010Prop40
 90
        0
102
RTVSPost2010PropOp40
 70
     1
102
RTVSPost2010Prop41ColorIndex
 90
       18
102
RTVSPost2010Prop41ColorRGB
 90
        0
102
RTVSPost2010PropOp41
 70
     1
102
RTVSPost2010Prop42
 90
       50
102
RTVSPost2010PropOp42
 70
     1
102
RTVSPost2010Prop43
 90
        3
102
RTVSPost2010PropOp43
 70
     1
102
RTVSPost2010Prop44ColorIndex
 90
        5
102
RTVSPost2010Prop44ColorRGB
 90
      255
102
RTVSPost2010PropOp44
 70
     1
102
RTVSPost2010Prop45
280
     0
102
RTVSPost2010PropOp45
 70
     1
102
RTVSPost2010Prop46
 90
       50
102
RTVSPost2010PropOp46
 70
     1
102
RTVSPost2010Prop47
 90
       50
102
RTVSPost2010PropOp47
 70
     1
102
RTVSPost2010Prop48
 90
       50
102
RTVSPost2010PropOp48
 70
     1
102
RTVSPost2010Prop49
280
     0
102
RTVSPost2010PropOp49
 70
     1
102
RTVSPost2010Prop50
 90
       50
102
RTVSPost2010PropOp50
 70
     1
102
RTVSPost2010Prop51ColorIndex
 90
      256
102
RTVSPost2010Prop51ColorRGB
 90
-16777216
102
RTVSPost2010PropOp51
 70
     0
102
RTVSPost2010Prop52
140
1.0
102
RTVSPost2010PropOp52
 70
     0
102
RTVSPost2010Prop53
 90
        2
102
RTVSPost2010PropOp53
 70
     1
102
RTVSPost2010Prop54
  1
strokes_ogs.tif
102
RTVSPost2010PropOp54
 70
     1
102
RTVSPost2010Prop55
280
     0
102
RTVSPost2010PropOp55
 70
     1
102
RTVSPost2010Prop56
140
1.0
102
RTVSPost2010PropOp56
 70
     1
102
RTVSPost2010Prop57
140
1.0
102
RTVSPost2010PropOp57
 70
     1
  0
XRECORD
  5
175
102
{ACAD_REACTORS
330
174
102
}
330
174
100
AcDbXrecord
280
     1
102
RTVSPost2010Prop28
280
     0
102
RTVSPost2010PropOp28
 70
     1
102
RTVSPost2010Prop29
280
     1
102
RTVSPost2010PropOp29
 70
     1
102
RTVSPost2010Prop30
280
     1
102
RTVSPost2010PropOp30
 70
     1
102
RTVSPost2010Prop31
280
     0
102
RTVSPost2010PropOp31
 70
     1
102
RTVSPost2010Prop32
280
     0
102
RTVSPost2010PropOp32
 70
     1
102
RTVSPost2010Prop33
280
     0
102
RTVSPost2010PropOp33
 70
     1
102
RTVSPost2010Prop34
280
     0
102
RTVSPost2010PropOp34
 70
     1
102
RTVSPost2010Prop35
280
     0
102
RTVSPost2010PropOp35
 70
     1
102
RTVSPost2010Prop36
280
     0
102
RTVSPost2010PropOp36
 70
     1
102
RTVSPost2010Prop37
 90
       50
102
RTVSPost2010PropOp37
 70
     1
102
RTVSPost2010Prop38
140
0.0
102
RTVSPost2010PropOp38
 70
     1
102
RTVSPost2010Prop39
140
1.0
102
RTVSPost2010PropOp39
 70
     1
102
RTVSPost2010Prop40
 90
        0
102
RTVSPost2010PropOp40
 70
     1
102
RTVSPost2010Prop41ColorIndex
 90
       18
102
RTVSPost2010Prop41ColorRGB
 90
        0
102
RTVSPost2010PropOp41
 70
     1
102
RTVSPost2010Prop42
 90
       50
102
RTVSPost2010PropOp42
 70
     1
102
RTVSPost2010Prop43
 90
        3
102
RTVSPost2010PropOp43
 70
     1
102
RTVSPost2010Prop44ColorIndex
 90
        5
102
RTVSPost2010Prop44ColorRGB
 90
      255
102
RTVSPost2010PropOp44
 70
     1
102
RTVSPost2010Prop45
280
     0
102
RTVSPost2010PropOp45
 70
     1
102
RTVSPost2010Prop46
 90
       50
102
RTVSPost2010PropOp46
 70
     1
102
RTVSPost2010Prop47
 90
       50
102
RTVSPost2010PropOp47
 70
     1
102
RTVSPost2010Prop48
 90
       50
102
RTVSPost2010PropOp48
 70
     1
102
RTVSPost2010Prop49
280
     0
102
RTVSPost2010PropOp49
 70
     1
102
RTVSPost2010Prop50
 90
       50
102
RTVSPost2010PropOp50
 70
     1
102
RTVSPost2010Prop51ColorIndex
 90
      256
102
RTVSPost2010Prop51ColorRGB
 90
-16777216
102
RTVSPost2010PropOp51
 70
     0
102
RTVSPost2010Prop52
140
1.0
102
RTVSPost2010PropOp52
 70
     0
102
RTVSPost2010Prop53
 90
        2
102
RTVSPost2010PropOp53
 70
     1
102
RTVSPost2010Prop54
  1
strokes_ogs.tif
102
RTVSPost2010PropOp54
 70
     1
102
RTVSPost2010Prop55
280
     0
102
RTVSPost2010PropOp55
 70
     1
102
RTVSPost2010Prop56
140
1.0
102
RTVSPost2010PropOp56
 70
     1
102
RTVSPost2010Prop57
140
1.0
102
RTVSPost2010PropOp57
 70
     1
  0
XRECORD
  5
177
102
{ACAD_REACTORS
330
176
102
}
330
176
100
AcDbXrecord
280
     1
102
RTVSPost2010Prop28
280
     0
102
RTVSPost2010PropOp28
 70
     1
102
RTVSPost2010Prop29
280
     1
102
RTVSPost2010PropOp29
 70
     1
102
RTVSPost2010Prop30
280
     1
102
RTVSPost2010PropOp30
 70
     1
102
RTVSPost2010Prop31
280
     0
102
RTVSPost2010PropOp31
 70
     1
102
RTVSPost2010Prop32
280
     0
102
RTVSPost2010PropOp32
 70
     1
102
RTVSPost2010Prop33
280
     0
102
RTVSPost2010PropOp33
 70
     1
102
RTVSPost2010Prop34
280
     0
102
RTVSPost2010PropOp34
 70
     1
102
RTVSPost2010Prop35
280
     0
102
RTVSPost2010PropOp35
 70
     1
102
RTVSPost2010Prop36
280
     0
102
RTVSPost2010PropOp36
 70
     1
102
RTVSPost2010Prop37
 90
       50
102
RTVSPost2010PropOp37
 70
     1
102
RTVSPost2010Prop38
140
0.0
102
RTVSPost2010PropOp38
 70
     1
102
RTVSPost2010Prop39
140
1.0
102
RTVSPost2010PropOp39
 70
     1
102
RTVSPost2010Prop40
 90
        0
102
RTVSPost2010PropOp40
 70
     1
102
RTVSPost2010Prop41ColorIndex
 90
       18
102
RTVSPost2010Prop41ColorRGB
 90
        0
102
RTVSPost2010PropOp41
 70
     1
102
RTVSPost2010Prop42
 90
       50
102
RTVSPost2010PropOp42
 70
     1
102
RTVSPost2010Prop43
 90
        3
102
RTVSPost2010PropOp43
 70
     1
102
RTVSPost2010Prop44ColorIndex
 90
        5
102
RTVSPost2010Prop44ColorRGB
 90
      255
102
RTVSPost2010PropOp44
 70
     1
102
RTVSPost2010Prop45
280
     0
102
RTVSPost2010PropOp45
 70
     1
102
RTVSPost2010Prop46
 90
       50
102
RTVSPost2010PropOp46
 70
     1
102
RTVSPost2010Prop47
 90
       50
102
RTVSPost2010PropOp47
 70
     1
102
RTVSPost2010Prop48
 90
       50
102
RTVSPost2010PropOp48
 70
     1
102
RTVSPost2010Prop49
280
     0
102
RTVSPost2010PropOp49
 70
     1
102
RTVSPost2010Prop50
 90
       50
102
RTVSPost2010PropOp50
 70
     1
102
RTVSPost2010Prop51ColorIndex
 90
      256
102
RTVSPost2010Prop51ColorRGB
 90
-16777216
102
RTVSPost2010PropOp51
 70
     0
102
RTVSPost2010Prop52
140
1.0
102
RTVSPost2010PropOp52
 70
     0
102
RTVSPost2010Prop53
 90
        2
102
RTVSPost2010PropOp53
 70
     1
102
RTVSPost2010Prop54
  1
strokes_ogs.tif
102
RTVSPost2010PropOp54
 70
     1
102
RTVSPost2010Prop55
280
     0
102
RTVSPost2010PropOp55
 70
     1
102
RTVSPost2010Prop56
140
1.0
102
RTVSPost2010PropOp56
 70
     1
102
RTVSPost2010Prop57
140
1.0
102
RTVSPost2010PropOp57
 70
     1
  0
XRECORD
  5
179
102
{ACAD_REACTORS
330
178
102
}
330
178
100
AcDbXrecord
280
     1
102
RTVSPost2010Prop28
280
     0
102
RTVSPost2010PropOp28
 70
     1
102
RTVSPost2010Prop29
280
     1
102
RTVSPost2010PropOp29
 70
     1
102
RTVSPost2010Prop30
280
     1
102
RTVSPost2010PropOp30
 70
     1
102
RTVSPost2010Prop31
280
     0
102
RTVSPost2010PropOp31
 70
     1
102
RTVSPost2010Prop32
280
     0
102
RTVSPost2010PropOp32
 70
     1
102
RTVSPost2010Prop33
280
     0
102
RTVSPost2010PropOp33
 70
     1
102
RTVSPost2010Prop34
280
     0
102
RTVSPost2010PropOp34
 70
     1
102
RTVSPost2010Prop35
280
     0
102
RTVSPost2010PropOp35
 70
     1
102
RTVSPost2010Prop36
280
     0
102
RTVSPost2010PropOp36
 70
     1
102
RTVSPost2010Prop37
 90
       50
102
RTVSPost2010PropOp37
 70
     1
102
RTVSPost2010Prop38
140
0.0
102
RTVSPost2010PropOp38
 70
     1
102
RTVSPost2010Prop39
140
1.0
102
RTVSPost2010PropOp39
 70
     1
102
RTVSPost2010Prop40
 90
        0
102
RTVSPost2010PropOp40
 70
     1
102
RTVSPost2010Prop41ColorIndex
 90
       18
102
RTVSPost2010Prop41ColorRGB
 90
        0
102
RTVSPost2010PropOp41
 70
     1
102
RTVSPost2010Prop42
 90
       50
102
RTVSPost2010PropOp42
 70
     1
102
RTVSPost2010Prop43
 90
        3
102
RTVSPost2010PropOp43
 70
     1
102
RTVSPost2010Prop44ColorIndex
 90
        5
102
RTVSPost2010Prop44ColorRGB
 90
      255
102
RTVSPost2010PropOp44
 70
     1
102
RTVSPost2010Prop45
280
     0
102
RTVSPost2010PropOp45
 70
     1
102
RTVSPost2010Prop46
 90
       50
102
RTVSPost2010PropOp46
 70
     1
102
RTVSPost2010Prop47
 90
       50
102
RTVSPost2010PropOp47
 70
     1
102
RTVSPost2010Prop48
 90
       50
102
RTVSPost2010PropOp48
 70
     1
102
RTVSPost2010Prop49
280
     0
102
RTVSPost2010PropOp49
 70
     1
102
RTVSPost2010Prop50
 90
       50
102
RTVSPost2010PropOp50
 70
     1
102
RTVSPost2010Prop51ColorIndex
 90
      256
102
RTVSPost2010Prop51ColorRGB
 90
-16777216
102
RTVSPost2010PropOp51
 70
     0
102
RTVSPost2010Prop52
140
1.0
102
RTVSPost2010PropOp52
 70
     0
102
RTVSPost2010Prop53
 90
        2
102
RTVSPost2010PropOp53
 70
     1
102
RTVSPost2010Prop54
  1
strokes_ogs.tif
102
RTVSPost2010PropOp54
 70
     1
102
RTVSPost2010Prop55
280
     0
102
RTVSPost2010PropOp55
 70
     1
102
RTVSPost2010Prop56
140
1.0
102
RTVSPost2010PropOp56
 70
     1
102
RTVSPost2010Prop57
140
1.0
102
RTVSPost2010PropOp57
 70
     1
  0
XRECORD
  5
17B
102
{ACAD_REACTORS
330
17A
102
}
330
17A
100
AcDbXrecord
280
     1
102
RTVSPost2010Prop28
280
     0
102
RTVSPost2010PropOp28
 70
     1
102
RTVSPost2010Prop29
280
     1
102
RTVSPost2010PropOp29
 70
     1
102
RTVSPost2010Prop30
280
     1
102
RTVSPost2010PropOp30
 70
     1
102
RTVSPost2010Prop31
280
     0
102
RTVSPost2010PropOp31
 70
     1
102
RTVSPost2010Prop32
280
     0
102
RTVSPost2010PropOp32
 70
     1
102
RTVSPost2010Prop33
280
     0
102
RTVSPost2010PropOp33
 70
     1
102
RTVSPost2010Prop34
280
     0
102
RTVSPost2010PropOp34
 70
     1
102
RTVSPost2010Prop35
280
     0
102
RTVSPost2010PropOp35
 70
     1
102
RTVSPost2010Prop36
280
     0
102
RTVSPost2010PropOp36
 70
     1
102
RTVSPost2010Prop37
 90
       50
102
RTVSPost2010PropOp37
 70
     1
102
RTVSPost2010Prop38
140
0.0
102
RTVSPost2010PropOp38
 70
     1
102
RTVSPost2010Prop39
140
1.0
102
RTVSPost2010PropOp39
 70
     1
102
RTVSPost2010Prop40
 90
        0
102
RTVSPost2010PropOp40
 70
     1
102
RTVSPost2010Prop41ColorIndex
 90
       18
102
RTVSPost2010Prop41ColorRGB
 90
        0
102
RTVSPost2010PropOp41
 70
     1
102
RTVSPost2010Prop42
 90
       50
102
RTVSPost2010PropOp42
 70
     1
102
RTVSPost2010Prop43
 90
        3
102
RTVSPost2010PropOp43
 70
     1
102
RTVSPost2010Prop44ColorIndex
 90
        5
102
RTVSPost2010Prop44ColorRGB
 90
      255
102
RTVSPost2010PropOp44
 70
     1
102
RTVSPost2010Prop45
280
     0
102
RTVSPost2010PropOp45
 70
     1
102
RTVSPost2010Prop46
 90
       50
102
RTVSPost2010PropOp46
 70
     1
102
RTVSPost2010Prop47
 90
       50
102
RTVSPost2010PropOp47
 70
     1
102
RTVSPost2010Prop48
 90
       50
102
RTVSPost2010PropOp48
 70
     1
102
RTVSPost2010Prop49
280
     0
102
RTVSPost2010PropOp49
 70
     1
102
RTVSPost2010Prop50
 90
       50
102
RTVSPost2010PropOp50
 70
     1
102
RTVSPost2010Prop51ColorIndex
 90
      256
102
RTVSPost2010Prop51ColorRGB
 90
-16777216
102
RTVSPost2010PropOp51
 70
     0
102
RTVSPost2010Prop52
140
1.0
102
RTVSPost2010PropOp52
 70
     0
102
RTVSPost2010Prop53
 90
        2
102
RTVSPost2010PropOp53
 70
     1
102
RTVSPost2010Prop54
  1
strokes_ogs.tif
102
RTVSPost2010PropOp54
 70
     1
102
RTVSPost2010Prop55
280
     0
102
RTVSPost2010PropOp55
 70
     1
102
RTVSPost2010Prop56
140
1.0
102
RTVSPost2010PropOp56
 70
     1
102
RTVSPost2010Prop57
140
1.0
102
RTVSPost2010PropOp57
 70
     1
  0
XRECORD
  5
183
102
{ACAD_REACTORS
330
182
102
}
330
182
100
AcDbXrecord
280
     1
102
RTVSPost2010Prop28
280
     0
102
RTVSPost2010PropOp28
 70
     1
102
RTVSPost2010Prop29
280
     1
102
RTVSPost2010PropOp29
 70
     1
102
RTVSPost2010Prop30
280
     1
102
RTVSPost2010PropOp30
 70
     1
102
RTVSPost2010Prop31
280
     0
102
RTVSPost2010PropOp31
 70
     1
102
RTVSPost2010Prop32
280
     0
102
RTVSPost2010PropOp32
 70
     1
102
RTVSPost2010Prop33
280
     0
102
RTVSPost2010PropOp33
 70
     1
102
RTVSPost2010Prop34
280
     0
102
RTVSPost2010PropOp34
 70
     1
102
RTVSPost2010Prop35
280
     0
102
RTVSPost2010PropOp35
 70
     1
102
RTVSPost2010Prop36
280
     0
102
RTVSPost2010PropOp36
 70
     1
102
RTVSPost2010Prop37
 90
       50
102
RTVSPost2010PropOp37
 70
     1
102
RTVSPost2010Prop38
140
0.0
102
RTVSPost2010PropOp38
 70
     1
102
RTVSPost2010Prop39
140
1.0
102
RTVSPost2010PropOp39
 70
     1
102
RTVSPost2010Prop40
 90
        0
102
RTVSPost2010PropOp40
 70
     1
102
RTVSPost2010Prop41ColorIndex
 90
       18
102
RTVSPost2010Prop41ColorRGB
 90
        0
102
RTVSPost2010PropOp41
 70
     1
102
RTVSPost2010Prop42
 90
       50
102
RTVSPost2010PropOp42
 70
     1
102
RTVSPost2010Prop43
 90
        3
102
RTVSPost2010PropOp43
 70
     1
102
RTVSPost2010Prop44ColorIndex
 90
        5
102
RTVSPost2010Prop44ColorRGB
 90
      255
102
RTVSPost2010PropOp44
 70
     1
102
RTVSPost2010Prop45
280
     0
102
RTVSPost2010PropOp45
 70
     1
102
RTVSPost2010Prop46
 90
       50
102
RTVSPost2010PropOp46
 70
     1
102
RTVSPost2010Prop47
 90
       50
102
RTVSPost2010PropOp47
 70
     1
102
RTVSPost2010Prop48
 90
       50
102
RTVSPost2010PropOp48
 70
     1
102
RTVSPost2010Prop49
280
     0
102
RTVSPost2010PropOp49
 70
     1
102
RTVSPost2010Prop50
 90
       50
102
RTVSPost2010PropOp50
 70
     1
102
RTVSPost2010Prop51ColorIndex
 90
      256
102
RTVSPost2010Prop51ColorRGB
 90
-16777216
102
RTVSPost2010PropOp51
 70
     0
102
RTVSPost2010Prop52
140
1.0
102
RTVSPost2010PropOp52
 70
     0
102
RTVSPost2010Prop53
 90
        2
102
RTVSPost2010PropOp53
 70
     1
102
RTVSPost2010Prop54
  1
strokes_ogs.tif
102
RTVSPost2010PropOp54
 70
     1
102
RTVSPost2010Prop55
280
     0
102
RTVSPost2010PropOp55
 70
     1
102
RTVSPost2010Prop56
140
1.0
102
RTVSPost2010PropOp56
 70
     1
102
RTVSPost2010Prop57
140
1.0
102
RTVSPost2010PropOp57
 70
     1
  0
XRECORD
  5
19F
102
{ACAD_REACTORS
330
19E
102
}
330
19E
100
AcDbXrecord
280
     1
102
RTVSPost2010Prop28
280
     0
102
RTVSPost2010PropOp28
 70
     0
102
RTVSPost2010Prop29
280
     1
102
RTVSPost2010PropOp29
 70
     0
102
RTVSPost2010Prop30
280
     1
102
RTVSPost2010PropOp30
 70
     0
102
RTVSPost2010Prop31
280
     0
102
RTVSPost2010PropOp31
 70
     0
102
RTVSPost2010Prop32
280
     0
102
RTVSPost2010PropOp32
 70
     0
102
RTVSPost2010Prop33
280
     0
102
RTVSPost2010PropOp33
 70
     0
102
RTVSPost2010Prop34
280
     0
102
RTVSPost2010PropOp34
 70
     0
102
RTVSPost2010Prop35
280
     0
102
RTVSPost2010PropOp35
 70
     0
102
RTVSPost2010Prop36
280
     0
102
RTVSPost2010PropOp36
 70
     0
102
RTVSPost2010Prop37
 90
       50
102
RTVSPost2010PropOp37
 70
     0
102
RTVSPost2010Prop38
140
0.0
102
RTVSPost2010PropOp38
 70
     0
102
RTVSPost2010Prop39
140
1.0
102
RTVSPost2010PropOp39
 70
     0
102
RTVSPost2010Prop40
 90
        0
102
RTVSPost2010PropOp40
 70
     0
102
RTVSPost2010Prop41ColorIndex
 90
       18
102
RTVSPost2010Prop41ColorRGB
 90
        0
102
RTVSPost2010PropOp41
 70
     0
102
RTVSPost2010Prop42
 90
       50
102
RTVSPost2010PropOp42
 70
     0
102
RTVSPost2010Prop43
 90
        3
102
RTVSPost2010PropOp43
 70
     0
102
RTVSPost2010Prop44ColorIndex
 90
        5
102
RTVSPost2010Prop44ColorRGB
 90
      255
102
RTVSPost2010PropOp44
 70
     0
102
RTVSPost2010Prop45
280
     0
102
RTVSPost2010PropOp45
 70
     0
102
RTVSPost2010Prop46
 90
       50
102
RTVSPost2010PropOp46
 70
     0
102
RTVSPost2010Prop47
 90
       50
102
RTVSPost2010PropOp47
 70
     0
102
RTVSPost2010Prop48
 90
       50
102
RTVSPost2010PropOp48
 70
     0
102
RTVSPost2010Prop49
280
     0
102
RTVSPost2010PropOp49
 70
     0
102
RTVSPost2010Prop50
 90
       50
102
RTVSPost2010PropOp50
 70
     0
102
RTVSPost2010Prop51ColorIndex
 90
      256
102
RTVSPost2010Prop51ColorRGB
 90
-16777216
102
RTVSPost2010PropOp51
 70
     0
102
RTVSPost2010Prop52
140
1.0
102
RTVSPost2010PropOp52
 70
     0
102
RTVSPost2010Prop53
 90
        2
102
RTVSPost2010PropOp53
 70
     0
102
RTVSPost2010Prop54
  1
strokes_ogs.tif
102
RTVSPost2010PropOp54
 70
     0
102
RTVSPost2010Prop55
280
     0
102
RTVSPost2010PropOp55
 70
     0
102
RTVSPost2010Prop56
140
1.0
102
RTVSPost2010PropOp56
 70
     0
102
RTVSPost2010Prop57
140
1.0
102
RTVSPost2010PropOp57
 70
     0
  0
XRECORD
  5
18F
102
{ACAD_REACTORS
330
18E
102
}
330
18E
100
AcDbXrecord
280
     1
102
RTVSPost2010Prop28
280
     0
102
RTVSPost2010PropOp28
 70
     1
102
RTVSPost2010Prop29
280
     1
102
RTVSPost2010PropOp29
 70
     1
102
RTVSPost2010Prop30
280
     1
102
RTVSPost2010PropOp30
 70
     1
102
RTVSPost2010Prop31
280
     0
102
RTVSPost2010PropOp31
 70
     1
102
RTVSPost2010Prop32
280
     0
102
RTVSPost2010PropOp32
 70
     1
102
RTVSPost2010Prop33
280
     0
102
RTVSPost2010PropOp33
 70
     1
102
RTVSPost2010Prop34
280
     0
102
RTVSPost2010PropOp34
 70
     1
102
RTVSPost2010Prop35
280
     0
102
RTVSPost2010PropOp35
 70
     1
102
RTVSPost2010Prop36
280
     0
102
RTVSPost2010PropOp36
 70
     1
102
RTVSPost2010Prop37
 90
       50
102
RTVSPost2010PropOp37
 70
     1
102
RTVSPost2010Prop38
140
0.0
102
RTVSPost2010PropOp38
 70
     1
102
RTVSPost2010Prop39
140
1.0
102
RTVSPost2010PropOp39
 70
     1
102
RTVSPost2010Prop40
 90
        0
102
RTVSPost2010PropOp40
 70
     1
102
RTVSPost2010Prop41ColorIndex
 90
       18
102
RTVSPost2010Prop41ColorRGB
 90
        0
102
RTVSPost2010PropOp41
 70
     1
102
RTVSPost2010Prop42
 90
       50
102
RTVSPost2010PropOp42
 70
     1
102
RTVSPost2010Prop43
 90
        3
102
RTVSPost2010PropOp43
 70
     1
102
RTVSPost2010Prop44ColorIndex
 90
        5
102
RTVSPost2010Prop44ColorRGB
 90
      255
102
RTVSPost2010PropOp44
 70
     1
102
RTVSPost2010Prop45
280
     0
102
RTVSPost2010PropOp45
 70
     1
102
RTVSPost2010Prop46
 90
       50
102
RTVSPost2010PropOp46
 70
     1
102
RTVSPost2010Prop47
 90
       50
102
RTVSPost2010PropOp47
 70
     1
102
RTVSPost2010Prop48
 90
       50
102
RTVSPost2010PropOp48
 70
     1
102
RTVSPost2010Prop49
280
     0
102
RTVSPost2010PropOp49
 70
     1
102
RTVSPost2010Prop50
 90
       50
102
RTVSPost2010PropOp50
 70
     1
102
RTVSPost2010Prop51ColorIndex
 90
      256
102
RTVSPost2010Prop51ColorRGB
 90
-16777216
102
RTVSPost2010PropOp51
 70
     0
102
RTVSPost2010Prop52
140
1.0
102
RTVSPost2010PropOp52
 70
     0
102
RTVSPost2010Prop53
 90
        2
102
RTVSPost2010PropOp53
 70
     1
102
RTVSPost2010Prop54
  1
strokes_ogs.tif
102
RTVSPost2010PropOp54
 70
     1
102
RTVSPost2010Prop55
280
     0
102
RTVSPost2010PropOp55
 70
     1
102
RTVSPost2010Prop56
140
1.0
102
RTVSPost2010PropOp56
 70
     1
102
RTVSPost2010Prop57
140
1.0
102
RTVSPost2010PropOp57
 70
     1
  0
XRECORD
  5
1A1
102
{ACAD_REACTORS
330
1A0
102
}
330
1A0
100
AcDbXrecord
280
     1
102
RTVSPost2010Prop28
280
     0
102
RTVSPost2010PropOp28
 70
     0
102
RTVSPost2010Prop29
280
     1
102
RTVSPost2010PropOp29
 70
     0
102
RTVSPost2010Prop30
280
     1
102
RTVSPost2010PropOp30
 70
     0
102
RTVSPost2010Prop31
280
     0
102
RTVSPost2010PropOp31
 70
     0
102
RTVSPost2010Prop32
280
     0
102
RTVSPost2010PropOp32
 70
     0
102
RTVSPost2010Prop33
280
     0
102
RTVSPost2010PropOp33
 70
     0
102
RTVSPost2010Prop34
280
     0
102
RTVSPost2010PropOp34
 70
     0
102
RTVSPost2010Prop35
280
     0
102
RTVSPost2010PropOp35
 70
     0
102
RTVSPost2010Prop36
280
     0
102
RTVSPost2010PropOp36
 70
     0
102
RTVSPost2010Prop37
 90
       50
102
RTVSPost2010PropOp37
 70
     0
102
RTVSPost2010Prop38
140
0.0
102
RTVSPost2010PropOp38
 70
     0
102
RTVSPost2010Prop39
140
1.0
102
RTVSPost2010PropOp39
 70
     0
102
RTVSPost2010Prop40
 90
        0
102
RTVSPost2010PropOp40
 70
     0
102
RTVSPost2010Prop41ColorIndex
 90
       18
102
RTVSPost2010Prop41ColorRGB
 90
        0
102
RTVSPost2010PropOp41
 70
     0
102
RTVSPost2010Prop42
 90
       50
102
RTVSPost2010PropOp42
 70
     0
102
RTVSPost2010Prop43
 90
        3
102
RTVSPost2010PropOp43
 70
     0
102
RTVSPost2010Prop44ColorIndex
 90
        5
102
RTVSPost2010Prop44ColorRGB
 90
      255
102
RTVSPost2010PropOp44
 70
     0
102
RTVSPost2010Prop45
280
     0
102
RTVSPost2010PropOp45
 70
     0
102
RTVSPost2010Prop46
 90
       50
102
RTVSPost2010PropOp46
 70
     0
102
RTVSPost2010Prop47
 90
       50
102
RTVSPost2010PropOp47
 70
     0
102
RTVSPost2010Prop48
 90
       50
102
RTVSPost2010PropOp48
 70
     0
102
RTVSPost2010Prop49
280
     0
102
RTVSPost2010PropOp49
 70
     0
102
RTVSPost2010Prop50
 90
       50
102
RTVSPost2010PropOp50
 70
     0
102
RTVSPost2010Prop51ColorIndex
 90
      256
102
RTVSPost2010Prop51ColorRGB
 90
-16777216
102
RTVSPost2010PropOp51
 70
     0
102
RTVSPost2010Prop52
140
1.0
102
RTVSPost2010PropOp52
 70
     0
102
RTVSPost2010Prop53
 90
        2
102
RTVSPost2010PropOp53
 70
     0
102
RTVSPost2010Prop54
  1
strokes_ogs.tif
102
RTVSPost2010PropOp54
 70
     0
102
RTVSPost2010Prop55
280
     0
102
RTVSPost2010PropOp55
 70
     0
102
RTVSPost2010Prop56
140
1.0
102
RTVSPost2010PropOp56
 70
     0
102
RTVSPost2010Prop57
140
1.0
102
RTVSPost2010PropOp57
 70
     0
  0
XRECORD
  5
187
102
{ACAD_REACTORS
330
186
102
}
330
186
100
AcDbXrecord
280
     1
102
RTVSPost2010Prop28
280
     0
102
RTVSPost2010PropOp28
 70
     1
102
RTVSPost2010Prop29
280
     1
102
RTVSPost2010PropOp29
 70
     1
102
RTVSPost2010Prop30
280
     1
102
RTVSPost2010PropOp30
 70
     1
102
RTVSPost2010Prop31
280
     0
102
RTVSPost2010PropOp31
 70
     1
102
RTVSPost2010Prop32
280
     0
102
RTVSPost2010PropOp32
 70
     1
102
RTVSPost2010Prop33
280
     0
102
RTVSPost2010PropOp33
 70
     1
102
RTVSPost2010Prop34
280
     0
102
RTVSPost2010PropOp34
 70
     1
102
RTVSPost2010Prop35
280
     0
102
RTVSPost2010PropOp35
 70
     1
102
RTVSPost2010Prop36
280
     0
102
RTVSPost2010PropOp36
 70
     1
102
RTVSPost2010Prop37
 90
       50
102
RTVSPost2010PropOp37
 70
     1
102
RTVSPost2010Prop38
140
0.0
102
RTVSPost2010PropOp38
 70
     1
102
RTVSPost2010Prop39
140
1.0
102
RTVSPost2010PropOp39
 70
     1
102
RTVSPost2010Prop40
 90
        0
102
RTVSPost2010PropOp40
 70
     1
102
RTVSPost2010Prop41ColorIndex
 90
       18
102
RTVSPost2010Prop41ColorRGB
 90
        0
102
RTVSPost2010PropOp41
 70
     1
102
RTVSPost2010Prop42
 90
       50
102
RTVSPost2010PropOp42
 70
     1
102
RTVSPost2010Prop43
 90
        3
102
RTVSPost2010PropOp43
 70
     1
102
RTVSPost2010Prop44ColorIndex
 90
        5
102
RTVSPost2010Prop44ColorRGB
 90
      255
102
RTVSPost2010PropOp44
 70
     1
102
RTVSPost2010Prop45
280
     0
102
RTVSPost2010PropOp45
 70
     1
102
RTVSPost2010Prop46
 90
       50
102
RTVSPost2010PropOp46
 70
     1
102
RTVSPost2010Prop47
 90
       50
102
RTVSPost2010PropOp47
 70
     1
102
RTVSPost2010Prop48
 90
       50
102
RTVSPost2010PropOp48
 70
     1
102
RTVSPost2010Prop49
280
     0
102
RTVSPost2010PropOp49
 70
     1
102
RTVSPost2010Prop50
 90
       50
102
RTVSPost2010PropOp50
 70
     1
102
RTVSPost2010Prop51ColorIndex
 90
      256
102
RTVSPost2010Prop51ColorRGB
 90
-16777216
102
RTVSPost2010PropOp51
 70
     0
102
RTVSPost2010Prop52
140
1.0
102
RTVSPost2010PropOp52
 70
     0
102
RTVSPost2010Prop53
 90
        2
102
RTVSPost2010PropOp53
 70
     1
102
RTVSPost2010Prop54
  1
strokes_ogs.tif
102
RTVSPost2010PropOp54
 70
     1
102
RTVSPost2010Prop55
280
     0
102
RTVSPost2010PropOp55
 70
     1
102
RTVSPost2010Prop56
140
1.0
102
RTVSPost2010PropOp56
 70
     1
102
RTVSPost2010Prop57
140
1.0
102
RTVSPost2010PropOp57
 70
     1
  0
XRECORD
  5
19D
102
{ACAD_REACTORS
330
19C
102
}
330
19C
100
AcDbXrecord
280
     1
102
RTVSPost2010Prop28
280
     0
102
RTVSPost2010PropOp28
 70
     1
102
RTVSPost2010Prop29
280
     1
102
RTVSPost2010PropOp29
 70
     1
102
RTVSPost2010Prop30
280
     1
102
RTVSPost2010PropOp30
 70
     1
102
RTVSPost2010Prop31
280
     0
102
RTVSPost2010PropOp31
 70
     1
102
RTVSPost2010Prop32
280
     0
102
RTVSPost2010PropOp32
 70
     1
102
RTVSPost2010Prop33
280
     0
102
RTVSPost2010PropOp33
 70
     1
102
RTVSPost2010Prop34
280
     0
102
RTVSPost2010PropOp34
 70
     1
102
RTVSPost2010Prop35
280
     0
102
RTVSPost2010PropOp35
 70
     1
102
RTVSPost2010Prop36
280
     0
102
RTVSPost2010PropOp36
 70
     1
102
RTVSPost2010Prop37
 90
       50
102
RTVSPost2010PropOp37
 70
     1
102
RTVSPost2010Prop38
140
0.0
102
RTVSPost2010PropOp38
 70
     1
102
RTVSPost2010Prop39
140
1.0
102
RTVSPost2010PropOp39
 70
     1
102
RTVSPost2010Prop40
 90
        0
102
RTVSPost2010PropOp40
 70
     1
102
RTVSPost2010Prop41ColorIndex
 90
       18
102
RTVSPost2010Prop41ColorRGB
 90
        0
102
RTVSPost2010PropOp41
 70
     1
102
RTVSPost2010Prop42
 90
       50
102
RTVSPost2010PropOp42
 70
     1
102
RTVSPost2010Prop43
 90
        3
102
RTVSPost2010PropOp43
 70
     1
102
RTVSPost2010Prop44ColorIndex
 90
        5
102
RTVSPost2010Prop44ColorRGB
 90
      255
102
RTVSPost2010PropOp44
 70
     1
102
RTVSPost2010Prop45
280
     0
102
RTVSPost2010PropOp45
 70
     1
102
RTVSPost2010Prop46
 90
       50
102
RTVSPost2010PropOp46
 70
     1
102
RTVSPost2010Prop47
 90
       50
102
RTVSPost2010PropOp47
 70
     1
102
RTVSPost2010Prop48
 90
       50
102
RTVSPost2010PropOp48
 70
     1
102
RTVSPost2010Prop49
280
     0
102
RTVSPost2010PropOp49
 70
     1
102
RTVSPost2010Prop50
 90
       50
102
RTVSPost2010PropOp50
 70
     1
102
RTVSPost2010Prop51ColorIndex
 90
      256
102
RTVSPost2010Prop51ColorRGB
 90
-16777216
102
RTVSPost2010PropOp51
 70
     0
102
RTVSPost2010Prop52
140
1.0
102
RTVSPost2010PropOp52
 70
     0
102
RTVSPost2010Prop53
 90
        2
102
RTVSPost2010PropOp53
 70
     1
102
RTVSPost2010Prop54
  1
strokes_ogs.tif
102
RTVSPost2010PropOp54
 70
     1
102
RTVSPost2010Prop55
280
     0
102
RTVSPost2010PropOp55
 70
     1
102
RTVSPost2010Prop56
140
1.0
102
RTVSPost2010PropOp56
 70
     1
102
RTVSPost2010Prop57
140
1.0
102
RTVSPost2010PropOp57
 70
     1
  0
XRECORD
  5
19B
102
{ACAD_REACTORS
330
19A
102
}
330
19A
100
AcDbXrecord
280
     1
102
RTVSPost2010Prop28
280
     0
102
RTVSPost2010PropOp28
 70
     1
102
RTVSPost2010Prop29
280
     1
102
RTVSPost2010PropOp29
 70
     1
102
RTVSPost2010Prop30
280
     1
102
RTVSPost2010PropOp30
 70
     1
102
RTVSPost2010Prop31
280
     0
102
RTVSPost2010PropOp31
 70
     1
102
RTVSPost2010Prop32
280
     0
102
RTVSPost2010PropOp32
 70
     1
102
RTVSPost2010Prop33
280
     0
102
RTVSPost2010PropOp33
 70
     1
102
RTVSPost2010Prop34
280
     0
102
RTVSPost2010PropOp34
 70
     1
102
RTVSPost2010Prop35
280
     0
102
RTVSPost2010PropOp35
 70
     1
102
RTVSPost2010Prop36
280
     0
102
RTVSPost2010PropOp36
 70
     1
102
RTVSPost2010Prop37
 90
       50
102
RTVSPost2010PropOp37
 70
     1
102
RTVSPost2010Prop38
140
0.0
102
RTVSPost2010PropOp38
 70
     1
102
RTVSPost2010Prop39
140
1.0
102
RTVSPost2010PropOp39
 70
     1
102
RTVSPost2010Prop40
 90
        0
102
RTVSPost2010PropOp40
 70
     1
102
RTVSPost2010Prop41ColorIndex
 90
       18
102
RTVSPost2010Prop41ColorRGB
 90
        0
102
RTVSPost2010PropOp41
 70
     1
102
RTVSPost2010Prop42
 90
       50
102
RTVSPost2010PropOp42
 70
     1
102
RTVSPost2010Prop43
 90
        3
102
RTVSPost2010PropOp43
 70
     1
102
RTVSPost2010Prop44ColorIndex
 90
        5
102
RTVSPost2010Prop44ColorRGB
 90
      255
102
RTVSPost2010PropOp44
 70
     1
102
RTVSPost2010Prop45
280
     0
102
RTVSPost2010PropOp45
 70
     1
102
RTVSPost2010Prop46
 90
       50
102
RTVSPost2010PropOp46
 70
     1
102
RTVSPost2010Prop47
 90
       50
102
RTVSPost2010PropOp47
 70
     1
102
RTVSPost2010Prop48
 90
       50
102
RTVSPost2010PropOp48
 70
     1
102
RTVSPost2010Prop49
280
     0
102
RTVSPost2010PropOp49
 70
     1
102
RTVSPost2010Prop50
 90
       50
102
RTVSPost2010PropOp50
 70
     1
102
RTVSPost2010Prop51ColorIndex
 90
      256
102
RTVSPost2010Prop51ColorRGB
 90
-16777216
102
RTVSPost2010PropOp51
 70
     0
102
RTVSPost2010Prop52
140
1.0
102
RTVSPost2010PropOp52
 70
     0
102
RTVSPost2010Prop53
 90
        2
102
RTVSPost2010PropOp53
 70
     1
102
RTVSPost2010Prop54
  1
strokes_ogs.tif
102
RTVSPost2010PropOp54
 70
     1
102
RTVSPost2010Prop55
280
     0
102
RTVSPost2010PropOp55
 70
     1
102
RTVSPost2010Prop56
140
1.0
102
RTVSPost2010PropOp56
 70
     1
102
RTVSPost2010Prop57
140
1.0
102
RTVSPost2010PropOp57
 70
     1
  0
XRECORD
  5
195
102
{ACAD_REACTORS
330
194
102
}
330
194
100
AcDbXrecord
280
     1
102
RTVSPost2010Prop28
280
     0
102
RTVSPost2010PropOp28
 70
     1
102
RTVSPost2010Prop29
280
     1
102
RTVSPost2010PropOp29
 70
     1
102
RTVSPost2010Prop30
280
     1
102
RTVSPost2010PropOp30
 70
     1
102
RTVSPost2010Prop31
280
     0
102
RTVSPost2010PropOp31
 70
     1
102
RTVSPost2010Prop32
280
     0
102
RTVSPost2010PropOp32
 70
     1
102
RTVSPost2010Prop33
280
     0
102
RTVSPost2010PropOp33
 70
     1
102
RTVSPost2010Prop34
280
     0
102
RTVSPost2010PropOp34
 70
     1
102
RTVSPost2010Prop35
280
     0
102
RTVSPost2010PropOp35
 70
     1
102
RTVSPost2010Prop36
280
     0
102
RTVSPost2010PropOp36
 70
     1
102
RTVSPost2010Prop37
 90
       50
102
RTVSPost2010PropOp37
 70
     1
102
RTVSPost2010Prop38
140
0.0
102
RTVSPost2010PropOp38
 70
     1
102
RTVSPost2010Prop39
140
1.0
102
RTVSPost2010PropOp39
 70
     1
102
RTVSPost2010Prop40
 90
        0
102
RTVSPost2010PropOp40
 70
     1
102
RTVSPost2010Prop41ColorIndex
 90
       18
102
RTVSPost2010Prop41ColorRGB
 90
        0
102
RTVSPost2010PropOp41
 70
     1
102
RTVSPost2010Prop42
 90
       50
102
RTVSPost2010PropOp42
 70
     1
102
RTVSPost2010Prop43
 90
        3
102
RTVSPost2010PropOp43
 70
     1
102
RTVSPost2010Prop44ColorIndex
 90
        5
102
RTVSPost2010Prop44ColorRGB
 90
      255
102
RTVSPost2010PropOp44
 70
     1
102
RTVSPost2010Prop45
280
     0
102
RTVSPost2010PropOp45
 70
     1
102
RTVSPost2010Prop46
 90
       50
102
RTVSPost2010PropOp46
 70
     1
102
RTVSPost2010Prop47
 90
       50
102
RTVSPost2010PropOp47
 70
     1
102
RTVSPost2010Prop48
 90
       50
102
RTVSPost2010PropOp48
 70
     1
102
RTVSPost2010Prop49
280
     0
102
RTVSPost2010PropOp49
 70
     1
102
RTVSPost2010Prop50
 90
       50
102
RTVSPost2010PropOp50
 70
     1
102
RTVSPost2010Prop51ColorIndex
 90
      256
102
RTVSPost2010Prop51ColorRGB
 90
-16777216
102
RTVSPost2010PropOp51
 70
     0
102
RTVSPost2010Prop52
140
1.0
102
RTVSPost2010PropOp52
 70
     0
102
RTVSPost2010Prop53
 90
        2
102
RTVSPost2010PropOp53
 70
     1
102
RTVSPost2010Prop54
  1
strokes_ogs.tif
102
RTVSPost2010PropOp54
 70
     1
102
RTVSPost2010Prop55
280
     0
102
RTVSPost2010PropOp55
 70
     1
102
RTVSPost2010Prop56
140
1.0
102
RTVSPost2010PropOp56
 70
     1
102
RTVSPost2010Prop57
140
1.0
102
RTVSPost2010PropOp57
 70
     1
  0
XRECORD
  5
197
102
{ACAD_REACTORS
330
196
102
}
330
196
100
AcDbXrecord
280
     1
102
RTVSPost2010Prop28
280
     0
102
RTVSPost2010PropOp28
 70
     1
102
RTVSPost2010Prop29
280
     1
102
RTVSPost2010PropOp29
 70
     1
102
RTVSPost2010Prop30
280
     1
102
RTVSPost2010PropOp30
 70
     1
102
RTVSPost2010Prop31
280
     0
102
RTVSPost2010PropOp31
 70
     1
102
RTVSPost2010Prop32
280
     0
102
RTVSPost2010PropOp32
 70
     1
102
RTVSPost2010Prop33
280
     0
102
RTVSPost2010PropOp33
 70
     1
102
RTVSPost2010Prop34
280
     0
102
RTVSPost2010PropOp34
 70
     1
102
RTVSPost2010Prop35
280
     0
102
RTVSPost2010PropOp35
 70
     1
102
RTVSPost2010Prop36
280
     0
102
RTVSPost2010PropOp36
 70
     1
102
RTVSPost2010Prop37
 90
       50
102
RTVSPost2010PropOp37
 70
     1
102
RTVSPost2010Prop38
140
0.0
102
RTVSPost2010PropOp38
 70
     1
102
RTVSPost2010Prop39
140
1.0
102
RTVSPost2010PropOp39
 70
     1
102
RTVSPost2010Prop40
 90
        0
102
RTVSPost2010PropOp40
 70
     1
102
RTVSPost2010Prop41ColorIndex
 90
       18
102
RTVSPost2010Prop41ColorRGB
 90
        0
102
RTVSPost2010PropOp41
 70
     1
102
RTVSPost2010Prop42
 90
       50
102
RTVSPost2010PropOp42
 70
     1
102
RTVSPost2010Prop43
 90
        3
102
RTVSPost2010PropOp43
 70
     1
102
RTVSPost2010Prop44ColorIndex
 90
        5
102
RTVSPost2010Prop44ColorRGB
 90
      255
102
RTVSPost2010PropOp44
 70
     1
102
RTVSPost2010Prop45
280
     0
102
RTVSPost2010PropOp45
 70
     1
102
RTVSPost2010Prop46
 90
       50
102
RTVSPost2010PropOp46
 70
     1
102
RTVSPost2010Prop47
 90
       50
102
RTVSPost2010PropOp47
 70
     1
102
RTVSPost2010Prop48
 90
       50
102
RTVSPost2010PropOp48
 70
     1
102
RTVSPost2010Prop49
280
     0
102
RTVSPost2010PropOp49
 70
     1
102
RTVSPost2010Prop50
 90
       50
102
RTVSPost2010PropOp50
 70
     1
102
RTVSPost2010Prop51ColorIndex
 90
      256
102
RTVSPost2010Prop51ColorRGB
 90
-16777216
102
RTVSPost2010PropOp51
 70
     0
102
RTVSPost2010Prop52
140
1.0
102
RTVSPost2010PropOp52
 70
     0
102
RTVSPost2010Prop53
 90
        2
102
RTVSPost2010PropOp53
 70
     1
102
RTVSPost2010Prop54
  1
strokes_ogs.tif
102
RTVSPost2010PropOp54
 70
     1
102
RTVSPost2010Prop55
280
     0
102
RTVSPost2010PropOp55
 70
     1
102
RTVSPost2010Prop56
140
1.0
102
RTVSPost2010PropOp56
 70
     1
102
RTVSPost2010Prop57
140
1.0
102
RTVSPost2010PropOp57
 70
     1
  0
XRECORD
  5
18D
102
{ACAD_REACTORS
330
18C
102
}
330
18C
100
AcDbXrecord
280
     1
102
RTVSPost2010Prop28
280
     0
102
RTVSPost2010PropOp28
 70
     1
102
RTVSPost2010Prop29
280
     1
102
RTVSPost2010PropOp29
 70
     1
102
RTVSPost2010Prop30
280
     1
102
RTVSPost2010PropOp30
 70
     1
102
RTVSPost2010Prop31
280
     0
102
RTVSPost2010PropOp31
 70
     1
102
RTVSPost2010Prop32
280
     0
102
RTVSPost2010PropOp32
 70
     1
102
RTVSPost2010Prop33
280
     0
102
RTVSPost2010PropOp33
 70
     1
102
RTVSPost2010Prop34
280
     0
102
RTVSPost2010PropOp34
 70
     1
102
RTVSPost2010Prop35
280
     0
102
RTVSPost2010PropOp35
 70
     1
102
RTVSPost2010Prop36
280
     0
102
RTVSPost2010PropOp36
 70
     1
102
RTVSPost2010Prop37
 90
       50
102
RTVSPost2010PropOp37
 70
     1
102
RTVSPost2010Prop38
140
0.0
102
RTVSPost2010PropOp38
 70
     1
102
RTVSPost2010Prop39
140
1.0
102
RTVSPost2010PropOp39
 70
     1
102
RTVSPost2010Prop40
 90
        0
102
RTVSPost2010PropOp40
 70
     1
102
RTVSPost2010Prop41ColorIndex
 90
       18
102
RTVSPost2010Prop41ColorRGB
 90
        0
102
RTVSPost2010PropOp41
 70
     1
102
RTVSPost2010Prop42
 90
       50
102
RTVSPost2010PropOp42
 70
     1
102
RTVSPost2010Prop43
 90
        3
102
RTVSPost2010PropOp43
 70
     1
102
RTVSPost2010Prop44ColorIndex
 90
        5
102
RTVSPost2010Prop44ColorRGB
 90
      255
102
RTVSPost2010PropOp44
 70
     1
102
RTVSPost2010Prop45
280
     0
102
RTVSPost2010PropOp45
 70
     1
102
RTVSPost2010Prop46
 90
       50
102
RTVSPost2010PropOp46
 70
     1
102
RTVSPost2010Prop47
 90
       50
102
RTVSPost2010PropOp47
 70
     1
102
RTVSPost2010Prop48
 90
       50
102
RTVSPost2010PropOp48
 70
     1
102
RTVSPost2010Prop49
280
     0
102
RTVSPost2010PropOp49
 70
     1
102
RTVSPost2010Prop50
 90
       50
102
RTVSPost2010PropOp50
 70
     1
102
RTVSPost2010Prop51ColorIndex
 90
      256
102
RTVSPost2010Prop51ColorRGB
 90
-16777216
102
RTVSPost2010PropOp51
 70
     0
102
RTVSPost2010Prop52
140
1.0
102
RTVSPost2010PropOp52
 70
     0
102
RTVSPost2010Prop53
 90
        2
102
RTVSPost2010PropOp53
 70
     1
102
RTVSPost2010Prop54
  1
strokes_ogs.tif
102
RTVSPost2010PropOp54
 70
     1
102
RTVSPost2010Prop55
280
     0
102
RTVSPost2010PropOp55
 70
     1
102
RTVSPost2010Prop56
140
1.0
102
RTVSPost2010PropOp56
 70
     1
102
RTVSPost2010Prop57
140
1.0
102
RTVSPost2010PropOp57
 70
     1
  0
XRECORD
  5
181
102
{ACAD_REACTORS
330
180
102
}
330
180
100
AcDbXrecord
280
     1
102
RTVSPost2010Prop28
280
     0
102
RTVSPost2010PropOp28
 70
     1
102
RTVSPost2010Prop29
280
     1
102
RTVSPost2010PropOp29
 70
     1
102
RTVSPost2010Prop30
280
     1
102
RTVSPost2010PropOp30
 70
     1
102
RTVSPost2010Prop31
280
     0
102
RTVSPost2010PropOp31
 70
     1
102
RTVSPost2010Prop32
280
     0
102
RTVSPost2010PropOp32
 70
     1
102
RTVSPost2010Prop33
280
     0
102
RTVSPost2010PropOp33
 70
     1
102
RTVSPost2010Prop34
280
     0
102
RTVSPost2010PropOp34
 70
     1
102
RTVSPost2010Prop35
280
     0
102
RTVSPost2010PropOp35
 70
     1
102
RTVSPost2010Prop36
280
     0
102
RTVSPost2010PropOp36
 70
     1
102
RTVSPost2010Prop37
 90
       50
102
RTVSPost2010PropOp37
 70
     1
102
RTVSPost2010Prop38
140
0.0
102
RTVSPost2010PropOp38
 70
     1
102
RTVSPost2010Prop39
140
1.0
102
RTVSPost2010PropOp39
 70
     1
102
RTVSPost2010Prop40
 90
        0
102
RTVSPost2010PropOp40
 70
     1
102
RTVSPost2010Prop41ColorIndex
 90
       18
102
RTVSPost2010Prop41ColorRGB
 90
        0
102
RTVSPost2010PropOp41
 70
     1
102
RTVSPost2010Prop42
 90
       50
102
RTVSPost2010PropOp42
 70
     1
102
RTVSPost2010Prop43
 90
        3
102
RTVSPost2010PropOp43
 70
     1
102
RTVSPost2010Prop44ColorIndex
 90
        5
102
RTVSPost2010Prop44ColorRGB
 90
      255
102
RTVSPost2010PropOp44
 70
     1
102
RTVSPost2010Prop45
280
     0
102
RTVSPost2010PropOp45
 70
     1
102
RTVSPost2010Prop46
 90
       50
102
RTVSPost2010PropOp46
 70
     1
102
RTVSPost2010Prop47
 90
       50
102
RTVSPost2010PropOp47
 70
     1
102
RTVSPost2010Prop48
 90
       50
102
RTVSPost2010PropOp48
 70
     1
102
RTVSPost2010Prop49
280
     0
102
RTVSPost2010PropOp49
 70
     1
102
RTVSPost2010Prop50
 90
       50
102
RTVSPost2010PropOp50
 70
     1
102
RTVSPost2010Prop51ColorIndex
 90
      256
102
RTVSPost2010Prop51ColorRGB
 90
-16777216
102
RTVSPost2010PropOp51
 70
     0
102
RTVSPost2010Prop52
140
1.0
102
RTVSPost2010PropOp52
 70
     0
102
RTVSPost2010Prop53
 90
        2
102
RTVSPost2010PropOp53
 70
     1
102
RTVSPost2010Prop54
  1
strokes_ogs.tif
102
RTVSPost2010PropOp54
 70
     1
102
RTVSPost2010Prop55
280
     0
102
RTVSPost2010PropOp55
 70
     1
102
RTVSPost2010Prop56
140
1.0
102
RTVSPost2010PropOp56
 70
     1
102
RTVSPost2010Prop57
140
1.0
102
RTVSPost2010PropOp57
 70
     1
  0
XRECORD
  5
199
102
{ACAD_REACTORS
330
198
102
}
330
198
100
AcDbXrecord
280
     1
102
RTVSPost2010Prop28
280
     0
102
RTVSPost2010PropOp28
 70
     1
102
RTVSPost2010Prop29
280
     1
102
RTVSPost2010PropOp29
 70
     1
102
RTVSPost2010Prop30
280
     1
102
RTVSPost2010PropOp30
 70
     1
102
RTVSPost2010Prop31
280
     0
102
RTVSPost2010PropOp31
 70
     1
102
RTVSPost2010Prop32
280
     0
102
RTVSPost2010PropOp32
 70
     1
102
RTVSPost2010Prop33
280
     0
102
RTVSPost2010PropOp33
 70
     1
102
RTVSPost2010Prop34
280
     0
102
RTVSPost2010PropOp34
 70
     1
102
RTVSPost2010Prop35
280
     0
102
RTVSPost2010PropOp35
 70
     1
102
RTVSPost2010Prop36
280
     0
102
RTVSPost2010PropOp36
 70
     1
102
RTVSPost2010Prop37
 90
       50
102
RTVSPost2010PropOp37
 70
     1
102
RTVSPost2010Prop38
140
0.0
102
RTVSPost2010PropOp38
 70
     1
102
RTVSPost2010Prop39
140
1.0
102
RTVSPost2010PropOp39
 70
     1
102
RTVSPost2010Prop40
 90
        0
102
RTVSPost2010PropOp40
 70
     1
102
RTVSPost2010Prop41ColorIndex
 90
       18
102
RTVSPost2010Prop41ColorRGB
 90
        0
102
RTVSPost2010PropOp41
 70
     1
102
RTVSPost2010Prop42
 90
       50
102
RTVSPost2010PropOp42
 70
     1
102
RTVSPost2010Prop43
 90
        3
102
RTVSPost2010PropOp43
 70
     1
102
RTVSPost2010Prop44ColorIndex
 90
        5
102
RTVSPost2010Prop44ColorRGB
 90
      255
102
RTVSPost2010PropOp44
 70
     1
102
RTVSPost2010Prop45
280
     0
102
RTVSPost2010PropOp45
 70
     1
102
RTVSPost2010Prop46
 90
       50
102
RTVSPost2010PropOp46
 70
     1
102
RTVSPost2010Prop47
 90
       50
102
RTVSPost2010PropOp47
 70
     1
102
RTVSPost2010Prop48
 90
       50
102
RTVSPost2010PropOp48
 70
     1
102
RTVSPost2010Prop49
280
     0
102
RTVSPost2010PropOp49
 70
     1
102
RTVSPost2010Prop50
 90
       50
102
RTVSPost2010PropOp50
 70
     1
102
RTVSPost2010Prop51ColorIndex
 90
      256
102
RTVSPost2010Prop51ColorRGB
 90
-16777216
102
RTVSPost2010PropOp51
 70
     0
102
RTVSPost2010Prop52
140
1.0
102
RTVSPost2010PropOp52
 70
     0
102
RTVSPost2010Prop53
 90
        2
102
RTVSPost2010PropOp53
 70
     1
102
RTVSPost2010Prop54
  1
strokes_ogs.tif
102
RTVSPost2010PropOp54
 70
     1
102
RTVSPost2010Prop55
280
     0
102
RTVSPost2010PropOp55
 70
     1
102
RTVSPost2010Prop56
140
1.0
102
RTVSPost2010PropOp56
 70
     1
102
RTVSPost2010Prop57
140
1.0
102
RTVSPost2010PropOp57
 70
     1
  0
ENDSEC
  0
EOF
