  0
SECTION
  2
HEADER
  9
$ACADVER
  1
AC1024
  9
$ACADMAINTVER
 70
   205
  9
$DWGCODEPAGE
  3
ANSI_1251
  9
$INSBASE
 10
0.0
 20
0.0
 30
0.0
  9
$EXTMIN
 10
1.000000000000000E+20
 20
1.000000000000000E+20
 30
1.000000000000000E+20
  9
$EXTMAX
 10
-1.000000000000000E+20
 20
-1.000000000000000E+20
 30
-1.000000000000000E+20
  9
$LIMMIN
 10
0.0
 20
0.0
  9
$LIMMAX
 10
12.0
 20
9.0
  9
$ORTHOMODE
 70
     0
  9
$REGENMODE
 70
     1
  9
$FILLMODE
 70
     1
  9
$QTEXTMODE
 70
     0
  9
$MIRRTEXT
 70
     1
  9
$LTSCALE
 40
1.0
  9
$ATTMODE
 70
     1
  9
$TEXTSIZE
 40
0.2
  9
$TRACEWID
 40
0.05
  9
$TEXTSTYLE
  7
Standard
  9
$CLAYER
  8
OracDecor_panel_moldings
  9
$CELTYPE
  6
ByLayer
  9
$CECOLOR
 62
   256
  9
$CELTSCALE
 40
1.0
  9
$DISPSILH
 70
     0
  9
$DIMSCALE
 40
1.0
  9
$DIMASZ
 40
0.18
  9
$DIMEXO
 40
0.0625
  9
$DIMDLI
 40
0.38
  9
$DIMRND
 40
0.0
  9
$DIMDLE
 40
0.0
  9
$DIMEXE
 40
0.18
  9
$DIMTP
 40
0.0
  9
$DIMTM
 40
0.0
  9
$DIMTXT
 40
0.18
  9
$DIMCEN
 40
0.09
  9
$DIMTSZ
 40
0.0
  9
$DIMTOL
 70
     0
  9
$DIMLIM
 70
     0
  9
$DIMTIH
 70
     1
  9
$DIMTOH
 70
     1
  9
$DIMSE1
 70
     0
  9
$DIMSE2
 70
     0
  9
$DIMTAD
 70
     0
  9
$DIMZIN
 70
     0
  9
$DIMBLK
  1

  9
$DIMASO
 70
     1
  9
$DIMSHO
 70
     1
  9
$DIMPOST
  1

  9
$DIMAPOST
  1

  9
$DIMALT
 70
     0
  9
$DIMALTD
 70
     2
  9
$DIMALTF
 40
25.4
  9
$DIMLFAC
 40
1.0
  9
$DIMTOFL
 70
     0
  9
$DIMTVP
 40
0.0
  9
$DIMTIX
 70
     0
  9
$DIMSOXD
 70
     0
  9
$DIMSAH
 70
     0
  9
$DIMBLK1
  1

  9
$DIMBLK2
  1

  9
$DIMSTYLE
  2
Standard
  9
$DIMCLRD
 70
     0
  9
$DIMCLRE
 70
     0
  9
$DIMCLRT
 70
     0
  9
$DIMTFAC
 40
1.0
  9
$DIMGAP
 40
0.09
  9
$DIMJUST
 70
     0
  9
$DIMSD1
 70
     0
  9
$DIMSD2
 70
     0
  9
$DIMTOLJ
 70
     1
  9
$DIMTZIN
 70
     0
  9
$DIMALTZ
 70
     0
  9
$DIMALTTZ
 70
     0
  9
$DIMUPT
 70
     0
  9
$DIMDEC
 70
     4
  9
$DIMTDEC
 70
     4
  9
$DIMALTU
 70
     2
  9
$DIMALTTD
 70
     2
  9
$DIMTXSTY
  7
Standard
  9
$DIMAUNIT
 70
     0
  9
$DIMADEC
 70
     0
  9
$DIMALTRND
 40
0.0
  9
$DIMAZIN
 70
     0
  9
$DIMDSEP
 70
    46
  9
$DIMATFIT
 70
     3
  9
$DIMFRAC
 70
     0
  9
$DIMLDRBLK
  1

  9
$DIMLUNIT
 70
     2
  9
$DIMLWD
 70
    -2
  9
$DIMLWE
 70
    -2
  9
$DIMTMOVE
 70
     0
  9
$DIMFXL
 40
1.0
  9
$DIMFXLON
 70
     0
  9
$DIMJOGANG
 40
0.7853981633974483
  9
$DIMTFILL
 70
     0
  9
$DIMTFILLCLR
 70
     0
  9
$DIMARCSYM
 70
     0
  9
$DIMLTYPE
  6

  9
$DIMLTEX1
  6

  9
$DIMLTEX2
  6

  9
$DIMTXTDIRECTION
 70
     0
  9
$LUNITS
 70
     2
  9
$LUPREC
 70
     4
  9
$SKETCHINC
 40
0.1
  9
$FILLETRAD
 40
0.5
  9
$AUNITS
 70
     0
  9
$AUPREC
 70
     0
  9
$MENU
  1
.
  9
$ELEVATION
 40
0.0
  9
$PELEVATION
 40
0.0
  9
$THICKNESS
 40
0.0
  9
$LIMCHECK
 70
     0
  9
$CHAMFERA
 40
0.5
  9
$CHAMFERB
 40
0.5
  9
$CHAMFERC
 40
1.0
  9
$CHAMFERD
 40
0.0
  9
$SKPOLY
 70
     0
  9
$TDCREATE
 40
2451380.930432396
  9
$TDUCREATE
 40
2451380.805432396
  9
$TDUPDATE
 40
2451380.966180555
  9
$TDUUPDATE
 40
2451380.841180556
  9
$TDINDWG
 40
0.0075632407
  9
$TDUSRTIMER
 40
0.0075542014
  9
$USRTIMER
 70
     1
  9
$ANGBASE
 50
0.0
  9
$ANGDIR
 70
     0
  9
$PDMODE
 70
     0
  9
$PDSIZE
 40
0.0
  9
$PLINEWID
 40
0.0
  9
$SPLFRAME
 70
     0
  9
$SPLINETYPE
 70
     6
  9
$SPLINESEGS
 70
     8
  9
$HANDSEED
  5
1AD
  9
$SURFTAB1
 70
     6
  9
$SURFTAB2
 70
     6
  9
$SURFTYPE
 70
     6
  9
$SURFU
 70
     6
  9
$SURFV
 70
     6
  9
$UCSBASE
  2

  9
$UCSNAME
  2

  9
$UCSORG
 10
0.0
 20
0.0
 30
0.0
  9
$UCSXDIR
 10
1.0
 20
0.0
 30
0.0
  9
$UCSYDIR
 10
0.0
 20
1.0
 30
0.0
  9
$UCSORTHOREF
  2

  9
$UCSORTHOVIEW
 70
     0
  9
$UCSORGTOP
 10
0.0
 20
0.0
 30
0.0
  9
$UCSORGBOTTOM
 10
0.0
 20
0.0
 30
0.0
  9
$UCSORGLEFT
 10
0.0
 20
0.0
 30
0.0
  9
$UCSORGRIGHT
 10
0.0
 20
0.0
 30
0.0
  9
$UCSORGFRONT
 10
0.0
 20
0.0
 30
0.0
  9
$UCSORGBACK
 10
0.0
 20
0.0
 30
0.0
  9
$PUCSBASE
  2

  9
$PUCSNAME
  2

  9
$PUCSORG
 10
0.0
 20
0.0
 30
0.0
  9
$PUCSXDIR
 10
1.0
 20
0.0
 30
0.0
  9
$PUCSYDIR
 10
0.0
 20
1.0
 30
0.0
  9
$PUCSORTHOREF
  2

  9
$PUCSORTHOVIEW
 70
     0
  9
$PUCSORGTOP
 10
0.0
 20
0.0
 30
0.0
  9
$PUCSORGBOTTOM
 10
0.0
 20
0.0
 30
0.0
  9
$PUCSORGLEFT
 10
0.0
 20
0.0
 30
0.0
  9
$PUCSORGRIGHT
 10
0.0
 20
0.0
 30
0.0
  9
$PUCSORGFRONT
 10
0.0
 20
0.0
 30
0.0
  9
$PUCSORGBACK
 10
0.0
 20
0.0
 30
0.0
  9
$USERI1
 70
     0
  9
$USERI2
 70
     0
  9
$USERI3
 70
     0
  9
$USERI4
 70
     0
  9
$USERI5
 70
     0
  9
$USERR1
 40
0.0
  9
$USERR2
 40
0.0
  9
$USERR3
 40
0.0
  9
$USERR4
 40
0.0
  9
$USERR5
 40
0.0
  9
$WORLDVIEW
 70
     1
  9
$SHADEDGE
 70
     3
  9
$SHADEDIF
 70
    70
  9
$TILEMODE
 70
     1
  9
$MAXACTVP
 70
    64
  9
$PINSBASE
 10
0.0
 20
0.0
 30
0.0
  9
$PLIMCHECK
 70
     0
  9
$PEXTMIN
 10
1.000000000000000E+20
 20
1.000000000000000E+20
 30
1.000000000000000E+20
  9
$PEXTMAX
 10
-1.000000000000000E+20
 20
-1.000000000000000E+20
 30
-1.000000000000000E+20
  9
$PLIMMIN
 10
0.0
 20
0.0
  9
$PLIMMAX
 10
12.0
 20
9.0
  9
$UNITMODE
 70
     0
  9
$VISRETAIN
 70
     1
  9
$PLINEGEN
 70
     0
  9
$PSLTSCALE
 70
     1
  9
$TREEDEPTH
 70
  3020
  9
$CMLSTYLE
  2
Standard
  9
$CMLJUST
 70
     0
  9
$CMLSCALE
 40
1.0
  9
$PROXYGRAPHICS
 70
     1
  9
$MEASUREMENT
 70
     1
  9
$CELWEIGHT
370
    -1
  9
$ENDCAPS
280
     0
  9
$JOINSTYLE
280
     0
  9
$LWDISPLAY
290
     0
  9
$INSUNITS
 70
     4
  9
$HYPERLINKBASE
  1

  9
$STYLESHEET
  1

  9
$XEDIT
290
     1
  9
$CEPSNTYPE
380
     0
  9
$PSTYLEMODE
290
     1
  9
$FINGERPRINTGUID
  2
{12F50282-3ED8-11D3-A8B7-0060B0F84BC6}
  9
$VERSIONGUID
  2
{12F50293-3ED8-11D3-A8B7-0060B0F84BC6}
  9
$EXTNAMES
290
     1
  9
$PSVPSCALE
 40
0.0
  9
$OLESTARTUP
290
     0
  9
$SORTENTS
280
   127
  9
$INDEXCTL
280
     0
  9
$HIDETEXT
280
     0
  9
$XCLIPFRAME
280
     2
  9
$HALOGAP
280
     0
  9
$OBSCOLOR
 70
   257
  9
$OBSLTYPE
280
     0
  9
$INTERSECTIONDISPLAY
280
     0
  9
$INTERSECTIONCOLOR
 70
   257
  9
$DIMASSOC
280
     1
  9
$PROJECTNAME
  1

  9
$CAMERADISPLAY
290
     0
  9
$LENSLENGTH
 40
50.0
  9
$CAMERAHEIGHT
 40
0.0
  9
$STEPSPERSEC
 40
2.0
  9
$STEPSIZE
 40
6.0
  9
$3DDWFPREC
 40
2.0
  9
$PSOLWIDTH
 40
0.25
  9
$PSOLHEIGHT
 40
4.0
  9
$LOFTANG1
 40
1.570796326794896
  9
$LOFTANG2
 40
1.570796326794896
  9
$LOFTMAG1
 40
0.0
  9
$LOFTMAG2
 40
0.0
  9
$LOFTPARAM
 70
     7
  9
$LOFTNORMALS
280
     1
  9
$LATITUDE
 40
37.795
  9
$LONGITUDE
 40
-122.394
  9
$NORTHDIRECTION
 40
0.0
  9
$TIMEZONE
 70
 -8000
  9
$LIGHTGLYPHDISPLAY
280
     1
  9
$TILEMODELIGHTSYNCH
280
     1
  9
$CMATERIAL
347
AB
  9
$SOLIDHIST
280
     0
  9
$SHOWHIST
280
     1
  9
$DWFFRAME
280
     2
  9
$DGNFRAME
280
     0
  9
$REALWORLDSCALE
290
     1
  9
$INTERFERECOLOR
 62
     1
  9
$INTERFEREOBJVS
345
CD
  9
$INTERFEREVPVS
346
CA
  9
$CSHADOW
280
     0
  9
$SHADOWPLANELOCATION
 40
0.0
  0
ENDSEC
  0
SECTION
  2
CLASSES
  0
CLASS
  1
ACDBDICTIONARYWDFLT
  2
AcDbDictionaryWithDefault
  3
ObjectDBX Classes
 90
        0
 91
        1
280
     0
281
     0
  0
CLASS
  1
ACDBPLACEHOLDER
  2
AcDbPlaceHolder
  3
ObjectDBX Classes
 90
        0
 91
        2
280
     0
281
     0
  0
CLASS
  1
LAYOUT
  2
AcDbLayout
  3
ObjectDBX Classes
 90
        0
 91
        3
280
     0
281
     0
  0
CLASS
  1
MATERIAL
  2
AcDbMaterial
  3
ObjectDBX Classes
 90
     1153
 91
        3
280
     0
281
     0
  0
CLASS
  1
VISUALSTYLE
  2
AcDbVisualStyle
  3
ObjectDBX Classes
 90
     4095
 91
       24
280
     0
281
     0
  0
CLASS
  1
TABLESTYLE
  2
AcDbTableStyle
  3
ObjectDBX Classes
 90
     4095
 91
        1
280
     0
281
     0
  0
CLASS
  1
SCALE
  2
AcDbScale
  3
ObjectDBX Classes
 90
     1153
 91
       17
280
     0
281
     0
  0
CLASS
  1
MLEADERSTYLE
  2
AcDbMLeaderStyle
  3
ACDB_MLEADERSTYLE_CLASS
 90
     4095
 91
        1
280
     0
281
     0
  0
CLASS
  1
ACDBSECTIONVIEWSTYLE
  2
AcDbSectionViewStyle
  3
ObjectDBX Classes
 90
     1025
 91
        1
280
     0
281
     0
  0
CLASS
  1
ACDBDETAILVIEWSTYLE
  2
AcDbDetailViewStyle
  3
ObjectDBX Classes
 90
     1025
 91
        1
280
     0
281
     0
  0
CLASS
  1
MESH
  2
AcDbSubDMesh
  3
ObjectDBX Classes
 90
        0
 91
        1
280
     0
281
     1
  0
CLASS
  1
DICTIONARYVAR
  2
AcDbDictionaryVar
  3
ObjectDBX Classes
 90
        0
 91
        9
280
     0
281
     0
  0
CLASS
  1
CELLSTYLEMAP
  2
AcDbCellStyleMap
  3
ObjectDBX Classes
 90
     1152
 91
        1
280
     0
281
     0
  0
ENDSEC
  0
SECTION
  2
TABLES
  0
TABLE
  2
VPORT
  5
8
330
0
100
AcDbSymbolTable
 70
     1
  0
VPORT
  5
A8
330
8
100
AcDbSymbolTableRecord
100
AcDbViewportTableRecord
  2
*Active
 70
     0
 10
0.0
 20
0.0
 11
1.0
 21
1.0
 12
0.0000215791878873
 22
22.44793701171875
 13
0.0
 23
0.0
 14
0.5
 24
0.5
 15
0.5
 25
0.5
 16
-1.0
 26
-1.0
 36
1.0
 17
0.0
 27
0.0
 37
0.0
 40
1088.980724307914
 41
1.64459503811676
 42
50.0
 43
0.0
 44
0.0
 50
0.0
 51
0.0
 71
     0
 72
   100
 73
     1
 74
     3
 75
     0
 76
     0
 77
     0
 78
     0
281
     0
 65
     1
110
0.0
120
0.0
130
0.0
111
1.0
121
0.0
131
0.0
112
0.0
122
1.0
132
0.0
 79
     0
146
0.0
348
C9
 60
     3
 61
     5
292
     1
282
     1
141
0.0
142
0.0
 63
   250
421
  3355443
  0
ENDTAB
  0
TABLE
  2
LTYPE
  5
5
330
0
100
AcDbSymbolTable
 70
     1
  0
LTYPE
  5
14
330
5
100
AcDbSymbolTableRecord
100
AcDbLinetypeTableRecord
  2
ByBlock
 70
     0
  3

 72
    65
 73
     0
 40
0.0
  0
LTYPE
  5
15
330
5
100
AcDbSymbolTableRecord
100
AcDbLinetypeTableRecord
  2
ByLayer
 70
     0
  3

 72
    65
 73
     0
 40
0.0
  0
LTYPE
  5
16
330
5
100
AcDbSymbolTableRecord
100
AcDbLinetypeTableRecord
  2
Continuous
 70
     0
  3
Solid line
 72
    65
 73
     0
 40
0.0
  0
ENDTAB
  0
TABLE
  2
LAYER
  5
2
330
0
100
AcDbSymbolTable
 70
     3
  0
LAYER
  5
10
330
2
100
AcDbSymbolTableRecord
100
AcDbLayerTableRecord
  2
0
 70
     0
 62
     7
  6
Continuous
370
    -3
390
F
347
BB
  0
LAYER
  5
2B
330
2
100
AcDbSymbolTableRecord
100
AcDbLayerTableRecord
  2
ASHADE
 70
     4
 62
     7
  6
Continuous
370
    -3
390
2D
347
BB
  0
LAYER
  5
F8
330
2
100
AcDbSymbolTableRecord
100
AcDbLayerTableRecord
  2
OracDecor_panel_moldings
 70
     0
 62
    61
420
 14083225
  6
Continuous
370
    -3
390
F
347
BB
  0
ENDTAB
  0
TABLE
  2
STYLE
  5
3
330
0
100
AcDbSymbolTable
 70
     2
  0
STYLE
  5
11
330
3
100
AcDbSymbolTableRecord
100
AcDbTextStyleTableRecord
  2
Standard
 70
     0
 40
0.0
 41
1.0
 50
0.0
 71
     0
 42
0.2
  3
txt
  4

  0
STYLE
  5
2C
330
3
100
AcDbSymbolTableRecord
100
AcDbTextStyleTableRecord
  2
ASHADE
 70
     0
 40
0.2
 41
1.0
 50
0.0
 71
     0
 42
0.2
  3
simplex
  4

  0
ENDTAB
  0
TABLE
  2
VIEW
  5
6
330
0
100
AcDbSymbolTable
 70
     0
  0
ENDTAB
  0
TABLE
  2
UCS
  5
7
330
0
100
AcDbSymbolTable
 70
     0
  0
ENDTAB
  0
TABLE
  2
APPID
  5
9
330
0
100
AcDbSymbolTable
 70
     6
  0
APPID
  5
12
330
9
100
AcDbSymbolTableRecord
100
AcDbRegAppTableRecord
  2
ACAD
 70
     0
  0
APPID
  5
8F
330
9
100
AcDbSymbolTableRecord
100
AcDbRegAppTableRecord
  2
AVE_RENDER
 70
     0
  0
APPID
  5
90
330
9
100
AcDbSymbolTableRecord
100
AcDbRegAppTableRecord
  2
AVE_ENTITY_MATERIAL
 70
     0
  0
APPID
  5
9C
330
9
100
AcDbSymbolTableRecord
100
AcDbRegAppTableRecord
  2
AVE_FINISH
 70
     0
  0
APPID
  5
9D
330
9
100
AcDbSymbolTableRecord
100
AcDbRegAppTableRecord
  2
AVE_MATERIAL
 70
     0
  0
APPID
  5
9E
330
9
100
AcDbSymbolTableRecord
100
AcDbRegAppTableRecord
  2
AVE_GLOBAL
 70
     0
  0
ENDTAB
  0
TABLE
  2
DIMSTYLE
  5
A
330
0
100
AcDbSymbolTable
 70
     1
100
AcDbDimStyleTable
 71
     0
  0
DIMSTYLE
105
27
330
A
100
AcDbSymbolTableRecord
100
AcDbDimStyleTableRecord
  2
Standard
 70
     0
340
11
  0
ENDTAB
  0
TABLE
  2
BLOCK_RECORD
  5
1
330
0
100
AcDbSymbolTable
 70
     6
  0
BLOCK_RECORD
  5
1F
330
1
100
AcDbSymbolTableRecord
100
AcDbBlockTableRecord
  2
*Model_Space
340
22
 70
     0
280
     1
281
     0
  0
BLOCK_RECORD
  5
1B
330
1
100
AcDbSymbolTableRecord
100
AcDbBlockTableRecord
  2
*Paper_Space
340
1E
 70
     0
280
     1
281
     0
  0
BLOCK_RECORD
  5
23
330
1
100
AcDbSymbolTableRecord
100
AcDbBlockTableRecord
  2
*Paper_Space0
340
26
 70
     0
280
     1
281
     0
  0
BLOCK_RECORD
  5
2E
330
1
100
AcDbSymbolTableRecord
100
AcDbBlockTableRecord
  2
direct
340
0
 70
     0
280
     1
281
     0
  0
BLOCK_RECORD
  5
42
330
1
100
AcDbSymbolTableRecord
100
AcDbBlockTableRecord
  2
overhead
340
0
 70
     0
280
     1
281
     0
  0
BLOCK_RECORD
  5
5F
330
1
100
AcDbSymbolTableRecord
100
AcDbBlockTableRecord
  2
sh_spot
340
0
 70
     0
280
     1
281
     0
  0
BLOCK_RECORD
  5
91
330
1
100
AcDbSymbolTableRecord
100
AcDbBlockTableRecord
  2
AVE_RENDER
340
0
102
{BLKREFS
331
94
331
95
331
96
331
97
331
98
331
99
331
9A
331
9B
102
}
 70
     0
280
     1
281
     0
  0
BLOCK_RECORD
  5
9F
330
1
100
AcDbSymbolTableRecord
100
AcDbBlockTableRecord
  2
AVE_GLOBAL
340
0
102
{BLKREFS
331
A2
102
}
 70
     0
280
     1
281
     0
  0
ENDTAB
  0
ENDSEC
  0
SECTION
  2
BLOCKS
  0
BLOCK
  5
20
330
1F
100
AcDbEntity
  8
0
100
AcDbBlockBegin
  2
*Model_Space
 70
     0
 10
0.0
 20
0.0
 30
0.0
  3
*Model_Space
  1

  0
ENDBLK
  5
21
330
1F
100
AcDbEntity
  8
0
100
AcDbBlockEnd
  0
BLOCK
  5
1C
330
1B
100
AcDbEntity
 67
     1
  8
0
100
AcDbBlockBegin
  2
*Paper_Space
 70
     0
 10
0.0
 20
0.0
 30
0.0
  3
*Paper_Space
  1

  0
ENDBLK
  5
1D
330
1B
100
AcDbEntity
 67
     1
  8
0
100
AcDbBlockEnd
  0
BLOCK
  5
24
330
23
100
AcDbEntity
 67
     1
  8
0
100
AcDbBlockBegin
  2
*Paper_Space0
 70
     0
 10
0.0
 20
0.0
 30
0.0
  3
*Paper_Space0
  1

  0
ENDBLK
  5
25
330
23
100
AcDbEntity
 67
     1
  8
0
100
AcDbBlockEnd
  0
BLOCK
  5
40
330
2E
100
AcDbEntity
  8
0
100
AcDbBlockBegin
  2
direct
 70
     2
 10
0.0
 20
0.0
 30
0.0
  3
direct
  1

  0
ATTDEF
  5
2F
330
2E
100
AcDbEntity
  8
ASHADE
  6
Continuous
 62
     1
100
AcDbText
 10
0.0
 20
-0.1
 30
0.0
 40
0.2
  1

  7
ASHADE
 72
     1
 11
0.0
 21
-0.1
 31
0.0
100
AcDbAttributeDefinition
280
     0
  3
Light Name
  2
SNAME
 70
     0
280
     0
  0
ARC
  5
30
330
2E
100
AcDbEntity
  8
ASHADE
  6
Continuous
 62
     7
100
AcDbCircle
 10
0.0
 20
0.0
 30
0.0
 40
0.3
100
AcDbArc
 50
205.6792886194569
 51
334.3207113805431
  0
ARC
  5
31
330
2E
100
AcDbEntity
  8
ASHADE
  6
Continuous
 62
     7
100
AcDbCircle
 10
0.0
 20
0.0
 30
0.0
 40
0.3
100
AcDbArc
 50
25.67928861945685
 51
154.3207113805431
  0
LINE
  5
32
330
2E
100
AcDbEntity
  8
ASHADE
  6
Continuous
 62
     7
100
AcDbLine
 10
-0.21
 20
0.2142428528562855
 30
0.0
 11
-0.21
 21
0.5
 31
0.0
  0
LINE
  5
33
330
2E
100
AcDbEntity
  8
ASHADE
  6
Continuous
 62
     7
100
AcDbLine
 10
-0.11
 20
0.2791057147390572
 30
0.0
 11
-0.11
 21
0.5
 31
0.0
  0
LINE
  5
34
330
2E
100
AcDbEntity
  8
ASHADE
  6
Continuous
 62
     7
100
AcDbLine
 10
0.21
 20
0.2142428528562855
 30
0.0
 11
0.21
 21
0.5
 31
0.0
  0
ATTDEF
  5
35
330
2E
100
AcDbEntity
  8
ASHADE
  6
Continuous
 62
     7
100
AcDbText
 10
0.0
 20
0.25
 30
0.0
 40
0.01
  1

100
AcDbAttributeDefinition
280
     0
  3
Look-at Y
  2
LAY
 70
     1
280
     0
  0
ATTDEF
  5
36
330
2E
100
AcDbEntity
  8
ASHADE
  6
Continuous
 62
     7
100
AcDbText
 10
0.0
 20
0.22
 30
0.0
 40
0.01
  1
1
100
AcDbAttributeDefinition
280
     0
  3
Light Intensity
  2
INTENSITY
 70
     1
280
     0
  0
ATTDEF
  5
37
330
2E
100
AcDbEntity
  8
ASHADE
  6
Continuous
 62
     7
100
AcDbText
 10
0.0
 20
0.16
 30
0.0
 40
0.01
  1
-1
100
AcDbAttributeDefinition
280
     0
  3
*not used*
  2
BEAMD
 70
     1
280
     0
  0
ATTDEF
  5
38
330
2E
100
AcDbEntity
  8
ASHADE
  6
Continuous
 62
     7
100
AcDbText
 10
0.0
 20
0.175
 30
0.0
 40
0.01
  1
-1
100
AcDbAttributeDefinition
280
     0
  3
*not used*
  2
CONED
 70
     1
280
     0
  0
ATTDEF
  5
39
330
2E
100
AcDbEntity
  8
ASHADE
  6
Continuous
 62
     7
100
AcDbText
 10
0.0
 20
0.19
 30
0.0
 40
0.01
  1
0
100
AcDbAttributeDefinition
280
     0
  3
Depth Map Size
  2
CONEA
 70
     1
280
     0
  0
ATTDEF
  5
3A
330
2E
100
AcDbEntity
  8
ASHADE
  6
Continuous
 62
     7
100
AcDbText
 10
0.0
 20
0.2050000000000001
 30
0.0
 40
0.01
  1
1,1,1
100
AcDbAttributeDefinition
280
     0
  3
Light Color (RGB)
  2
COLOR
 70
     1
280
     0
  0
ATTDEF
  5
3B
330
2E
100
AcDbEntity
  8
ASHADE
  6
Continuous
 62
     7
100
AcDbText
 10
0.0
 20
0.235
 30
0.0
 40
0.01
  1

100
AcDbAttributeDefinition
280
     0
  3
Look-at Z
  2
LAZ
 70
     1
280
     0
  0
LINE
  5
3C
330
2E
100
AcDbEntity
  8
ASHADE
  6
Continuous
 62
     7
100
AcDbLine
 10
0.0
 20
0.3
 30
0.0
 11
0.0
 21
0.5
 31
0.0
  0
LINE
  5
3D
330
2E
100
AcDbEntity
  8
ASHADE
  6
Continuous
 62
     7
100
AcDbLine
 10
0.11
 20
0.2791057147390572
 30
0.0
 11
0.11
 21
0.5
 31
0.0
  0
ATTDEF
  5
3E
330
2E
100
AcDbEntity
  8
ASHADE
  6
Continuous
 62
     7
100
AcDbText
 10
0.0
 20
0.265
 30
0.0
 40
0.01
  1

100
AcDbAttributeDefinition
280
     0
  3
Look-at X
  2
LAX
 70
     1
280
     0
  0
ATTDEF
  5
3F
330
2E
100
AcDbEntity
  8
ASHADE
  6
Continuous
 62
     7
100
AcDbText
 10
0.0
 20
0.28
 30
0.0
 40
0.01
  1

100
AcDbAttributeDefinition
280
     0
  3

  2
GNAME
 70
     1
280
     0
  0
ENDBLK
  5
41
330
2E
100
AcDbEntity
  8
0
100
AcDbBlockEnd
  0
BLOCK
  5
5D
330
42
100
AcDbEntity
  8
0
100
AcDbBlockBegin
  2
overhead
 70
     2
 10
0.0
 20
0.0
 30
0.0
  3
overhead
  1

  0
ATTDEF
  5
43
330
42
100
AcDbEntity
  8
ASHADE
  6
Continuous
 62
     1
100
AcDbText
 10
0.0
 20
-0.1
 30
0.0
 40
0.2
  1

  7
ASHADE
 72
     1
 11
0.0
 21
-0.1
 31
0.0
100
AcDbAttributeDefinition
280
     0
  3
Light Name
  2
SNAME
 70
     0
280
     0
  0
ARC
  5
44
330
42
100
AcDbEntity
  8
ASHADE
  6
Continuous
 62
     7
100
AcDbCircle
 10
0.0
 20
0.0
 30
0.0
 40
0.3
100
AcDbArc
 50
205.6792886194569
 51
334.3207113805431
  0
LINE
  5
45
330
42
100
AcDbEntity
  8
ASHADE
  6
Continuous
 62
     7
100
AcDbLine
 10
-0.2041413561583015
 20
-0.2198324514393848
 30
0.0
 11
-0.2721884748777353
 21
-0.2931099352525131
 31
0.0
  0
LINE
  5
46
330
42
100
AcDbEntity
  8
ASHADE
  6
Continuous
 62
     7
100
AcDbLine
 10
-0.1096591641591904
 20
-0.2792398032442862
 30
0.0
 11
-0.1279356915190555
 21
-0.3257797704516673
 31
0.0
  0
LINE
  5
47
330
42
100
AcDbEntity
  8
ASHADE
  6
Continuous
 62
     7
100
AcDbLine
 10
0.0
 20
-0.2999999999999999
 30
0.0
 11
0.0
 21
-0.4
 31
0.0
  0
LINE
  5
48
330
42
100
AcDbEntity
  8
ASHADE
  6
Continuous
 62
     7
100
AcDbLine
 10
0.1096591641591904
 20
-0.2792398032442862
 30
0.0
 11
0.1279356915190555
 21
-0.3257797704516673
 31
0.0
  0
LINE
  5
49
330
42
100
AcDbEntity
  8
ASHADE
  6
Continuous
 62
     7
100
AcDbLine
 10
0.2041413561583015
 20
-0.2198324514393848
 30
0.0
 11
0.2721884748777353
 21
-0.2931099352525131
 31
0.0
  0
ARC
  5
4A
330
42
100
AcDbEntity
  8
ASHADE
  6
Continuous
 62
     7
100
AcDbCircle
 10
0.0
 20
0.0
 30
0.0
 40
0.3
100
AcDbArc
 50
25.67928861945685
 51
154.3207113805431
  0
LINE
  5
4B
330
42
100
AcDbEntity
  8
ASHADE
  6
Continuous
 62
     7
100
AcDbLine
 10
-0.2703701166919155
 20
0.13
 30
0.0
 11
-0.3154318028072347
 21
0.1516666666666666
 31
0.0
  0
LINE
  5
4C
330
42
100
AcDbEntity
  8
ASHADE
  6
Continuous
 62
     7
100
AcDbLine
 10
-0.2703701166919155
 20
-0.13
 30
0.0
 11
-0.3154318028072347
 21
-0.1516666666666666
 31
0.0
  0
LINE
  5
4D
330
42
100
AcDbEntity
  8
ASHADE
  6
Continuous
 62
     7
100
AcDbLine
 10
-0.2041413561583015
 20
0.2198324514393849
 30
0.0
 11
-0.2721884748777353
 21
0.2931099352525131
 31
0.0
  0
LINE
  5
4E
330
42
100
AcDbEntity
  8
ASHADE
  6
Continuous
 62
     7
100
AcDbLine
 10
-0.1096591641591904
 20
0.2792398032442862
 30
0.0
 11
-0.1279356915190555
 21
0.3257797704516674
 31
0.0
  0
LINE
  5
4F
330
42
100
AcDbEntity
  8
ASHADE
  6
Continuous
 62
     7
100
AcDbLine
 10
0.2703701166919155
 20
-0.13
 30
0.0
 11
0.3154318028072347
 21
-0.1516666666666666
 31
0.0
  0
LINE
  5
50
330
42
100
AcDbEntity
  8
ASHADE
  6
Continuous
 62
     7
100
AcDbLine
 10
0.2703701166919155
 20
0.13
 30
0.0
 11
0.3154318028072347
 21
0.1516666666666666
 31
0.0
  0
LINE
  5
51
330
42
100
AcDbEntity
  8
ASHADE
  6
Continuous
 62
     7
100
AcDbLine
 10
0.0
 20
0.3
 30
0.0
 11
0.0
 21
0.4
 31
0.0
  0
ATTDEF
  5
52
330
42
100
AcDbEntity
  8
ASHADE
  6
Continuous
 62
     7
100
AcDbText
 10
0.0
 20
0.22
 30
0.0
 40
0.01
  1
1
100
AcDbAttributeDefinition
280
     0
  3
Light Intensity
  2
INTENSITY
 70
     1
280
     0
  0
ATTDEF
  5
53
330
42
100
AcDbEntity
  8
ASHADE
  6
Continuous
 62
     7
100
AcDbText
 10
0.0
 20
0.16
 30
0.0
 40
0.01
  1
-1
100
AcDbAttributeDefinition
280
     0
  3
*not used*
  2
BEAMD
 70
     1
280
     0
  0
ATTDEF
  5
54
330
42
100
AcDbEntity
  8
ASHADE
  6
Continuous
 62
     7
100
AcDbText
 10
0.0
 20
0.175
 30
0.0
 40
0.01
  1
-1
100
AcDbAttributeDefinition
280
     0
  3
*not used*
  2
CONED
 70
     1
280
     0
  0
ATTDEF
  5
55
330
42
100
AcDbEntity
  8
ASHADE
  6
Continuous
 62
     7
100
AcDbText
 10
0.0
 20
0.19
 30
0.0
 40
0.01
  1
0
100
AcDbAttributeDefinition
280
     0
  3
Depth Map Size
  2
CONEA
 70
     1
280
     0
  0
ATTDEF
  5
56
330
42
100
AcDbEntity
  8
ASHADE
  6
Continuous
 62
     7
100
AcDbText
 10
0.0
 20
0.2050000000000001
 30
0.0
 40
0.01
  1
1,1,1
100
AcDbAttributeDefinition
280
     0
  3
Light Color (RGB)
  2
COLOR
 70
     1
280
     0
  0
ATTDEF
  5
57
330
42
100
AcDbEntity
  8
ASHADE
  6
Continuous
 62
     7
100
AcDbText
 10
0.0
 20
0.235
 30
0.0
 40
0.01
  1

100
AcDbAttributeDefinition
280
     0
  3
Look-at Z
  2
LAZ
 70
     1
280
     0
  0
ATTDEF
  5
58
330
42
100
AcDbEntity
  8
ASHADE
  6
Continuous
 62
     7
100
AcDbText
 10
0.0
 20
0.25
 30
0.0
 40
0.01
  1

100
AcDbAttributeDefinition
280
     0
  3
Look-at Y
  2
LAY
 70
     1
280
     0
  0
ATTDEF
  5
59
330
42
100
AcDbEntity
  8
ASHADE
  6
Continuous
 62
     7
100
AcDbText
 10
0.0
 20
0.265
 30
0.0
 40
0.01
  1

100
AcDbAttributeDefinition
280
     0
  3
Look-at X
  2
LAX
 70
     1
280
     0
  0
ATTDEF
  5
5A
330
42
100
AcDbEntity
  8
ASHADE
  6
Continuous
 62
     7
100
AcDbText
 10
0.0
 20
0.28
 30
0.0
 40
0.01
  1

100
AcDbAttributeDefinition
280
     0
  3

  2
GNAME
 70
     1
280
     0
  0
LINE
  5
5B
330
42
100
AcDbEntity
  8
ASHADE
  6
Continuous
 62
     7
100
AcDbLine
 10
0.1096591641591904
 20
0.2792398032442862
 30
0.0
 11
0.1279356915190555
 21
0.3257797704516674
 31
0.0
  0
LINE
  5
5C
330
42
100
AcDbEntity
  8
ASHADE
  6
Continuous
 62
     7
100
AcDbLine
 10
0.2041413561583015
 20
0.2198324514393849
 30
0.0
 11
0.2721884748777353
 21
0.2931099352525131
 31
0.0
  0
ENDBLK
  5
5E
330
42
100
AcDbEntity
  8
0
100
AcDbBlockEnd
  0
BLOCK
  5
85
330
5F
100
AcDbEntity
  8
0
100
AcDbBlockBegin
  2
sh_spot
 70
     2
 10
0.0
 20
0.0
 30
0.0
  3
sh_spot
  1

  0
LINE
  5
60
330
5F
100
AcDbEntity
  8
ASHADE
  6
Continuous
 62
     7
100
AcDbLine
 10
0.25
 20
0.26
 30
0.0
 11
-0.25
 21
0.26
 31
0.0
  0
LINE
  5
61
330
5F
100
AcDbEntity
  8
ASHADE
  6
Continuous
 62
     7
100
AcDbLine
 10
-0.25
 20
-0.3399999999999999
 30
0.0
 11
0.25
 21
-0.3399999999999999
 31
0.0
  0
ATTDEF
  5
62
330
5F
100
AcDbEntity
  8
ASHADE
  6
Continuous
 62
     1
100
AcDbText
 10
0.0
 20
-0.1
 30
0.0
 40
0.2
  1

  7
ASHADE
 72
     1
 11
0.0
 21
-0.1
 31
0.0
100
AcDbAttributeDefinition
280
     0
  3
Light Name
  2
SNAME
 70
     0
280
     0
  0
LINE
  5
63
330
5F
100
AcDbEntity
  8
ASHADE
  6
Continuous
 62
     7
100
AcDbLine
 10
-0.25
 20
-0.13
 30
0.0
 11
-0.25
 21
-0.3399999999999999
 31
0.0
  0
LINE
  5
64
330
5F
100
AcDbEntity
  8
ASHADE
  6
Continuous
 62
     7
100
AcDbLine
 10
-0.25
 20
-0.18
 30
0.0
 11
-0.29
 21
-0.18
 31
0.0
  0
LINE
  5
65
330
5F
100
AcDbEntity
  8
ASHADE
  6
Continuous
 62
     7
100
AcDbLine
 10
-0.29
 20
-0.22
 30
0.0
 11
-0.25
 21
-0.22
 31
0.0
  0
LINE
  5
66
330
5F
100
AcDbEntity
  8
ASHADE
  6
Continuous
 62
     7
100
AcDbLine
 10
-0.29
 20
-0.18
 30
0.0
 11
-0.29
 21
-0.22
 31
0.0
  0
LINE
  5
67
330
5F
100
AcDbEntity
  8
ASHADE
  6
Continuous
 62
     7
100
AcDbLine
 10
-0.1045454545454545
 20
0.26
 30
0.0
 11
-0.15
 21
0.46
 31
0.0
  0
LINE
  5
68
330
5F
100
AcDbEntity
  8
ASHADE
  6
Continuous
 62
     7
100
AcDbLine
 10
-0.21
 20
0.26
 30
0.0
 11
-0.301304347826087
 21
0.46
 31
0.0
  0
LINE
  5
69
330
5F
100
AcDbEntity
  8
ASHADE
  6
Continuous
 62
     7
100
AcDbLine
 10
-0.25
 20
0.26
 30
0.0
 11
-0.25
 21
0.13
 31
0.0
  0
LINE
  5
6A
330
5F
100
AcDbEntity
  8
ASHADE
  6
Continuous
 62
     7
100
AcDbLine
 10
-0.25
 20
0.22
 30
0.0
 11
-0.29
 21
0.22
 31
0.0
  0
LINE
  5
6B
330
5F
100
AcDbEntity
  8
ASHADE
  6
Continuous
 62
     7
100
AcDbLine
 10
-0.29
 20
0.1799999999999999
 30
0.0
 11
-0.25
 21
0.1799999999999999
 31
0.0
  0
LINE
  5
6C
330
5F
100
AcDbEntity
  8
ASHADE
  6
Continuous
 62
     7
100
AcDbLine
 10
-0.29
 20
0.22
 30
0.0
 11
-0.29
 21
0.1799999999999999
 31
0.0
  0
ATTDEF
  5
6D
330
5F
100
AcDbEntity
  8
ASHADE
  6
Continuous
 62
     7
100
AcDbText
 10
0.0
 20
-0.24
 30
0.0
 40
0.01
  1
0
100
AcDbAttributeDefinition
280
     0
  3
Depth Map Size
  2
ZSIZE
 70
     1
280
     0
  0
ATTDEF
  5
6E
330
5F
100
AcDbEntity
  8
ASHADE
  6
Continuous
 62
     7
100
AcDbText
 10
0.0
 20
-0.3300000000000001
 30
0.0
 40
0.01
  1
0,0,0
100
AcDbAttributeDefinition
280
     0
  3
Look-from XYZ
  2
LFXYZ
 70
     1
280
     0
  0
ATTDEF
  5
6F
330
5F
100
AcDbEntity
  8
ASHADE
  6
Continuous
 62
     7
100
AcDbText
 10
0.0
 20
-0.315
 30
0.0
 40
0.01
  1
0.0
100
AcDbAttributeDefinition
280
     0
  3
Beam Distribution
  2
BEAMDI
 70
     1
280
     0
  0
ATTDEF
  5
70
330
5F
100
AcDbEntity
  8
ASHADE
  6
Continuous
 62
     7
100
AcDbText
 10
0.0
 20
-0.3
 30
0.0
 40
0.01
  1
0.0
100
AcDbAttributeDefinition
280
     0
  3
Cone Delta
  2
CONEDE
 70
     1
280
     0
  0
ATTDEF
  5
71
330
5F
100
AcDbEntity
  8
ASHADE
  6
Continuous
 62
     7
100
AcDbText
 10
0.0
 20
-0.2850000000000001
 30
0.0
 40
0.01
  1
10.0
100
AcDbAttributeDefinition
280
     0
  3
Cone Angle
  2
CONEAN
 70
     1
280
     0
  0
ATTDEF
  5
72
330
5F
100
AcDbEntity
  8
ASHADE
  6
Continuous
 62
     7
100
AcDbText
 10
0.0
 20
-0.27
 30
0.0
 40
0.01
  1
-1
100
AcDbAttributeDefinition
280
     0
  3
*not used*
  2
BIASMAX
 70
     1
280
     0
  0
ATTDEF
  5
73
330
5F
100
AcDbEntity
  8
ASHADE
  6
Continuous
 62
     7
100
AcDbText
 10
0.0
 20
-0.255
 30
0.0
 40
0.01
  1
-1
100
AcDbAttributeDefinition
280
     0
  3
*not used*
  2
BIASMIN
 70
     1
280
     0
  0
ATTDEF
  5
74
330
5F
100
AcDbEntity
  8
ASHADE
  6
Continuous
 62
     7
100
AcDbText
 10
0.0
 20
-0.225
 30
0.0
 40
0.01
  1
1,1,1
100
AcDbAttributeDefinition
280
     0
  3
Light Color (RGB)
  2
COLOR
 70
     1
280
     0
  0
ATTDEF
  5
75
330
5F
100
AcDbEntity
  8
ASHADE
  6
Continuous
 62
     7
100
AcDbText
 10
0.0
 20
-0.21
 30
0.0
 40
0.01
  1
1
100
AcDbAttributeDefinition
280
     0
  3
Light Intensity
  2
INTENSITY
 70
     1
280
     0
  0
ATTDEF
  5
76
330
5F
100
AcDbEntity
  8
ASHADE
  6
Continuous
 62
     7
100
AcDbText
 10
0.0
 20
-0.15
 30
0.0
 40
0.01
  1

100
AcDbAttributeDefinition
280
     0
  3

  2
GNAME
 70
     1
280
     0
  0
ATTDEF
  5
77
330
5F
100
AcDbEntity
  8
ASHADE
  6
Continuous
 62
     7
100
AcDbText
 10
0.0
 20
-0.195
 30
0.0
 40
0.01
  1

100
AcDbAttributeDefinition
280
     0
  3
Look-at Z
  2
LAZ
 70
     1
280
     0
  0
ATTDEF
  5
78
330
5F
100
AcDbEntity
  8
ASHADE
  6
Continuous
 62
     7
100
AcDbText
 10
0.0
 20
-0.18
 30
0.0
 40
0.01
  1

100
AcDbAttributeDefinition
280
     0
  3
Look-at Y
  2
LAY
 70
     1
280
     0
  0
ATTDEF
  5
79
330
5F
100
AcDbEntity
  8
ASHADE
  6
Continuous
 62
     7
100
AcDbText
 10
0.0
 20
-0.165
 30
0.0
 40
0.01
  1

100
AcDbAttributeDefinition
280
     0
  3
Look-at X
  2
LAX
 70
     1
280
     0
  0
LINE
  5
7A
330
5F
100
AcDbEntity
  8
ASHADE
  6
Continuous
 62
     7
100
AcDbLine
 10
0.25
 20
-0.3399999999999999
 30
0.0
 11
0.25
 21
-0.13
 31
0.0
  0
LINE
  5
7B
330
5F
100
AcDbEntity
  8
ASHADE
  6
Continuous
 62
     7
100
AcDbLine
 10
0.25
 20
-0.18
 30
0.0
 11
0.29
 21
-0.18
 31
0.0
  0
LINE
  5
7C
330
5F
100
AcDbEntity
  8
ASHADE
  6
Continuous
 62
     7
100
AcDbLine
 10
0.29
 20
-0.22
 30
0.0
 11
0.25
 21
-0.22
 31
0.0
  0
LINE
  5
7D
330
5F
100
AcDbEntity
  8
ASHADE
  6
Continuous
 62
     7
100
AcDbLine
 10
0.29
 20
-0.18
 30
0.0
 11
0.29
 21
-0.22
 31
0.0
  0
LINE
  5
7E
330
5F
100
AcDbEntity
  8
ASHADE
  6
Continuous
 62
     7
100
AcDbLine
 10
0.21
 20
0.26
 30
0.0
 11
0.301304347826087
 21
0.46
 31
0.0
  0
LINE
  5
7F
330
5F
100
AcDbEntity
  8
ASHADE
  6
Continuous
 62
     7
100
AcDbLine
 10
0.1045454545454545
 20
0.26
 30
0.0
 11
0.15
 21
0.46
 31
0.0
  0
LINE
  5
80
330
5F
100
AcDbEntity
  8
ASHADE
  6
Continuous
 62
     7
100
AcDbLine
 10
0.0
 20
0.26
 30
0.0
 11
0.0
 21
0.46
 31
0.0
  0
LINE
  5
81
330
5F
100
AcDbEntity
  8
ASHADE
  6
Continuous
 62
     7
100
AcDbLine
 10
0.25
 20
0.13
 30
0.0
 11
0.25
 21
0.26
 31
0.0
  0
LINE
  5
82
330
5F
100
AcDbEntity
  8
ASHADE
  6
Continuous
 62
     7
100
AcDbLine
 10
0.25
 20
0.22
 30
0.0
 11
0.29
 21
0.22
 31
0.0
  0
LINE
  5
83
330
5F
100
AcDbEntity
  8
ASHADE
  6
Continuous
 62
     7
100
AcDbLine
 10
0.29
 20
0.1799999999999999
 30
0.0
 11
0.25
 21
0.1799999999999999
 31
0.0
  0
LINE
  5
84
330
5F
100
AcDbEntity
  8
ASHADE
  6
Continuous
 62
     7
100
AcDbLine
 10
0.29
 20
0.22
 30
0.0
 11
0.29
 21
0.1799999999999999
 31
0.0
  0
ENDBLK
  5
86
330
5F
100
AcDbEntity
  8
0
100
AcDbBlockEnd
  0
BLOCK
  5
92
330
91
100
AcDbEntity
  8
ASHADE
100
AcDbBlockBegin
  2
AVE_RENDER
 70
     0
 10
0.0
 20
0.0
 30
0.0
  3
AVE_RENDER
  1
AVE_RENDER
  0
ENDBLK
  5
93
330
91
100
AcDbEntity
  8
0
100
AcDbBlockEnd
  0
BLOCK
  5
A0
330
9F
100
AcDbEntity
  8
ASHADE
100
AcDbBlockBegin
  2
AVE_GLOBAL
 70
     0
 10
0.0
 20
0.0
 30
0.0
  3
AVE_GLOBAL
  1
AVE_GLOBAL
  0
ENDBLK
  5
A1
330
9F
100
AcDbEntity
  8
0
100
AcDbBlockEnd
  0
ENDSEC
  0
SECTION
  2
ENTITIES
  0
INSERT
  5
94
330
1F
100
AcDbEntity
  8
ASHADE
 62
     1
100
AcDbBlockReference
  2
AVE_RENDER
 10
0.0
 20
0.0
 30
0.0
1001
AVE_RENDER
1002
{
1070
     7
1000
Pref
1070
    30
1070
    20
1070
     1
1070
     0
1000

1070
    10
1070
     1
1070
    10
1040
1.0
1070
     1
1040
0.3
1040
0.7
1040
0.0
1040
10.0
1010
-1.0
1020
-1.0
1030
-1.0
1040
0.3
1070
    49
1070
     0
1070
     0
1010
1.0
1020
1.0
1030
1.0
1040
45.0
1070
     1
1070
     0
1000
WCS
1040
0.0
1070
     0
1040
10.0
1002
}
  0
INSERT
  5
95
330
1F
100
AcDbEntity
  8
ASHADE
 62
     3
100
AcDbBlockReference
  2
AVE_RENDER
 10
0.0
 20
0.0
 30
0.0
1001
AVE_RENDER
1002
{
1070
     0
1000
Full Opt
1070
     0
1070
     1
1070
     1
1070
     1
1070
     0
1070
     0
1070
     0
1070
     1
1070
     1
1040
0.0001
1040
0.0001
1002
}
  0
INSERT
  5
96
330
1F
100
AcDbEntity
  8
ASHADE
 62
     4
100
AcDbBlockReference
  2
AVE_RENDER
 10
0.0
 20
0.0
 30
0.0
1001
AVE_RENDER
1002
{
1070
     0
1000
Quick Opt
1070
     0
1070
     1
1070
     1
1070
     1
1070
     0
1070
     0
1070
     1
1002
}
  0
INSERT
  5
97
330
1F
100
AcDbEntity
  8
ASHADE
 62
     5
100
AcDbBlockReference
  2
AVE_RENDER
 10
0.0
 20
0.0
 30
0.0
1001
AVE_RENDER
1002
{
1070
     1
1000
Scanl Opt
1070
     2
1070
     0
1070
     2
1040
2.0
1040
4.0
1070
     0
1070
     1
1070
     0
1040
0.03
1002
}
  0
INSERT
  5
98
330
1F
100
AcDbEntity
  8
ASHADE
 62
     6
100
AcDbBlockReference
  2
AVE_RENDER
 10
0.0
 20
0.0
 30
0.0
1001
AVE_RENDER
1002
{
1070
     2
1000
Raytr Opt
1070
     2
1070
     0
1070
     2
1040
2.0
1040
4.0
1070
     0
1070
     1
1070
     1
1040
0.03
1070
     3
1040
0.03
1002
}
  0
INSERT
  5
99
330
1F
100
AcDbEntity
  8
ASHADE
 62
     7
100
AcDbBlockReference
  2
AVE_RENDER
 10
0.0
 20
0.0
 30
0.0
1001
AVE_RENDER
1002
{
1070
     0
1000
RFile Opt
1070
     1
1070
   640
1070
   480
1070
 10000
1070
     1
1070
     8
1070
     8
1070
     0
1070
     0
1070
     0
1070
     0
1070
     0
1070
     0
1070
     0
1002
}
  0
INSERT
  5
9A
330
1F
100
AcDbEntity
  8
ASHADE
 62
     8
100
AcDbBlockReference
  2
AVE_RENDER
 10
0.0
 20
0.0
 30
0.0
1001
AVE_RENDER
1002
{
1070
     0
1000
Fog Opt
1070
     0
1070
     0
1040
0.0
1040
1.0
1040
0.0
1040
1.0
1010
0.5
1020
0.5
1030
0.5
1002
}
  0
INSERT
  5
9B
330
1F
100
AcDbEntity
  8
ASHADE
 62
     9
100
AcDbBlockReference
  2
AVE_RENDER
 10
0.0
 20
0.0
 30
0.0
1001
AVE_RENDER
1002
{
1070
     0
1000
BG Opt
1070
     0
1070
     1
1010
0.0
1020
0.0
1030
0.0
1010
1.0
1020
0.0
1030
0.0
1010
0.0
1020
1.0
1030
0.0
1010
0.0
1020
0.0
1030
1.0
1040
0.5
1040
0.33
1040
0.0
1000

1070
     1
1000

1070
     1
1070
     1
1040
1.0
1040
1.0
1040
0.0
1040
0.0
1070
     0
1002
}
  0
INSERT
  5
A2
330
1F
100
AcDbEntity
  8
ASHADE
 62
     1
100
AcDbBlockReference
  2
AVE_GLOBAL
 10
0.0
 20
0.0
 30
0.0
1001
AVE_MATERIAL
1002
{
1000
*GLOBAL*
1000
2
1000
Global finish.
1002
{
1002
}
1002
{
1070
    63
1002
{
1002
{
1010
-1.0
1020
-1.0
1030
-1.0
1002
}
1040
0.1000000014901161
1000

1040
0.0
1002
{
1002
}
1040
0.0
1002
{
1002
}
1040
0.0
1002
}
1002
{
1002
{
1010
-1.0
1020
-1.0
1030
-1.0
1002
}
1040
0.6999999880790711
1000

1040
0.0
1002
{
1002
}
1040
0.0
1002
{
1002
}
1040
0.0
1002
}
1002
{
1002
{
1010
-1.0
1020
-1.0
1030
-1.0
1002
}
1040
0.2000000029802322
1000

1040
0.0
1002
{
1002
}
1040
0.0
1002
{
1002
}
1040
0.0
1002
}
1002
{
1070
     0
1002
{
1070
     1
1002
{
1040
1.0
1040
1.0
1000

1040
0.0
1002
{
1002
}
1040
0.0
1002
{
1002
}
1040
0.0
1002
}
1002
}
1040
1.0
1040
0.0
1040
0.0
1002
}
1002
{
1040
1.0
1040
1.0
1000

1040
0.0
1002
{
1002
}
1040
0.0
1002
{
1002
}
1040
0.0
1002
}
1002
{
1040
0.5
1040
1.0
1000

1040
0.0
1002
{
1002
}
1040
0.0
1002
{
1002
}
1040
0.0
1002
}
1002
{
1070
     0
1040
0.0
1002
{
1002
}
1040
1.0
1002
{
1002
}
1040
0.0
1002
}
1002
{
1040
0.0
1002
{
1002
{
1010
0.0
1020
0.0
1030
0.0
1002
}
1040
1.0
1000

1040
0.0
1002
{
1002
}
1040
0.0
1002
{
1002
}
1040
0.0
1002
}
1002
}
1002
{
1002
{
1070
     1
1002
{
1040
0.0
1040
1.0
1000

1040
0.0
1002
{
1002
}
1040
0.0
1002
{
1002
}
1040
0.0
1002
}
1002
}
1040
0.0
1002
{
1002
}
1010
1.0
1020
0.0
1030
0.0
1010
0.0
1020
1.0
1030
0.0
1010
0.0
1020
0.0
1030
1.0
1070
     0
1002
}
1002
{
1002
{
1040
1.0
1040
1.0
1002
{
1070
     1
1002
{
1040
1.0
1040
1.0
1000

1040
0.0
1002
{
1002
}
1040
0.0
1002
{
1002
}
1040
0.0
1002
}
1002
}
1002
}
1070
     0
1040
0.0
1002
{
1002
}
1002
}
1002
{
1002
}
1002
}
1002
{
1071
        3
1070
     3
1070
     0
1002
{
1070
     2
1070
     0
1070
     0
1040
0.0
1002
}
1070
     0
1070
     2
1002
{
1002
}
1002
}
1002
{
1040
8030.0
1040
190.3000030517578
1040
0.3050000071525574
1040
228.0
1040
545.0
1040
14.0
1040
17.39999961853027
1040
0.4560000002384186
1002
}
1002
}
  0
MESH
  5
F9
330
1F
100
AcDbEntity
  8
OracDecor_panel_moldings
 62
    56
420
  7440134
160
             33704
310
A8830000A80300000C00000013000000020000003C0000000600000002000000000000E0FF3F8FC000000020524922C00000000000002F3F000000E0FF3F8FC00000006001D821C00000000080D7A23F0C000000130000000A0000003C0000000600000002000000000000E0FF3F8FC00000006001D821C00000000080D7A2
310
3F0000000000408F400000008001D821C00000000080D7A23F0C00000013000000120000003C00000006000000020000000000000000408F400000008001D821C00000000080D7A23F0000000000408F4000000040524922C00000000000002F3F0C000000130000001A0000003C0000000600000002000000000000E0FF3F
310
8FC000000020524922C00000000000002F3F0000000000408F4000000040524922C00000000000002F3F0C00000013000000220000003C0000000600000002000000000000E0FF3F8FC00000006001D821C00000000080D7A23F000000E0FF3F8FC0000000A0F49421C000000000602BC53F0C000000130000002A0000003C
310
00000006000000020000000000000000408F40000000A0F49421C000000000602BC53F000000E0FF3F8FC0000000A0F49421C000000000602BC53F0C00000013000000320000003C00000006000000020000000000000000408F400000008001D821C00000000080D7A23F0000000000408F40000000A0F49421C000000000
310
602BC53F0C000000130000003A0000003C0000000600000002000000000000E0FF3F8FC0000000602B8021C00000000040B4D83F000000E0FF3F8FC0000000A0F49421C000000000602BC53F0C00000013000000420000003C00000006000000020000000000000000408F40000000602B8021C00000000040B4D83F000000
310
E0FF3F8FC0000000602B8021C00000000040B4D83F0C000000130000004A0000003C00000006000000020000000000000000408F40000000602B8021C00000000040B4D83F0000000000408F40000000A0F49421C000000000602BC53F0C00000013000000520000003C0000000600000002000000000000E0FF3F8FC00000
310
00A0E8FA21C000000000C4AA2C40000000E0FF3F8FC0000000602B8021C00000000040B4D83F0C000000130000005A0000003C0000000600000002000000000000E0FF3F8FC0000000A0E8FA21C000000000C4AA2C400000000000408F40000000A0E8FA21C000000000C4AA2C400C00000013000000620000003C00000006
310
000000020000000000000000408F40000000A0E8FA21C000000000C4AA2C400000000000408F40000000602B8021C00000000040B4D83F0C000000130000006A0000003C0000000600000002000000000000E0FF3F8FC0000000A0E8FA21C000000000C4AA2C40000000E0FF3F8FC0000000202BEE21C00000008005DE2C40
310
0C00000013000000720000003C0000000600000002000000000000E0FF3F8FC0000000202BEE21C00000008005DE2C400000000000408F40000000202BEE21C00000008005DE2C400C000000130000007A0000003C00000006000000020000000000000000408F40000000202BEE21C00000008005DE2C400000000000408F
310
40000000A0E8FA21C000000000C4AA2C400C00000013000000820000003C0000000600000002000000000000E0FF3F8FC0000000E0AEC921C000000080BA032D40000000E0FF3F8FC0000000202BEE21C00000008005DE2C400C000000130000008A0000003C0000000600000002000000000000E0FF3F8FC0000000E0AEC9
310
21C000000080BA032D400000000000408F40000000E0AEC921C000000080BA032D400C00000013000000920000003C00000006000000020000000000000000408F40000000202BEE21C00000008005DE2C400000000000408F40000000E0AEC921C000000080BA032D400C000000130000009A0000003C0000000600000002
310
000000000000E0FF3F8FC000000020719721C0000000008F112D40000000E0FF3F8FC0000000E0AEC921C000000080BA032D400C00000013000000A20000003C0000000600000002000000000000E0FF3F8FC000000020719721C0000000008F112D400000000000408F4000000020719721C0000000008F112D400C000000
310
13000000AA0000003C00000006000000020000000000000000408F40000000E0AEC921C000000080BA032D400000000000408F4000000020719721C0000000008F112D400C00000013000000B20000003C0000000600000002000000000000E0FF3F8FC00000000048DDC8BF000000A08F112D40000000E0FF3F8FC0000000
310
20719721C0000000008F112D400C00000013000000BA0000003C0000000600000002000000000000E0FF3F8FC00000000048DDC8BF000000A08F112D400000000000408F400000000048DDC8BF000000808F112D400C00000013000000C20000003C00000006000000020000000000000000408F400000000048DDC8BF0000
310
00808F112D400000000000408F4000000020719721C0000000008F112D400C00000013000000CA0000003C0000000600000002000000000000E0FF3F8FC00000000048DDC8BF000000A08F112D40000000E0FF3F8FC000000000B0B1BEBF000000A040192D400C00000013000000D20000003C000000060000000200000000
310
00000000408F4000000000B0B1BEBF0000008040192D40000000E0FF3F8FC000000000B0B1BEBF000000A040192D400C00000013000000DA0000003C00000006000000020000000000000000408F4000000000B0B1BEBF0000008040192D400000000000408F400000000048DDC8BF000000808F112D400C00000013000000
310
E20000003C0000000600000002000000000000E0FF3F8FC000000000201DADBF00000020272F2D40000000E0FF3F8FC000000000B0B1BEBF000000A040192D400C00000013000000EA0000003C0000000600000002000000000000E0FF3F8FC000000000201DADBF00000020272F2D400000000000408F4000000000201DAD
310
BF00000020272F2D400C00000013000000F20000003C00000006000000020000000000000000408F4000000000201DADBF00000020272F2D400000000000408F4000000000B0B1BEBF0000008040192D400C00000013000000FA0000003C0000000600000002000000000000E0FF3F8FC000000000201DADBF00000020272F
310
2D40000000E0FF3F8FC00000000080318EBF000000A0ED4F2D400C00000013000000020100003C0000000600000002000000000000E0FF3F8FC00000000080318EBF000000A0ED4F2D400000000000408F400000000080318EBF000000A0ED4F2D400C000000130000000A0100003C00000006000000020000000000000000
310
408F400000000080318EBF000000A0ED4F2D400000000000408F4000000000201DADBF00000020272F2D400C00000013000000120100003C0000000600000002000000000000E0FF3F8FC00000000080318EBF000000A0ED4F2D40000000E0FF3F8FC0000000000080083F0000002097762D400C000000130000001A010000
310
3C00000006000000020000000000000000408F40000000000080083F0000002097762D40000000E0FF3F8FC0000000000080083F0000002097762D400C00000013000000220100003C00000006000000020000000000000000408F40000000000080083F0000002097762D400000000000408F400000000080318EBF000000
310
A0ED4F2D400C000000130000002A0100003C0000000600000002000000000000E0FF3F8FC0000000000080083F0000002097762D40000000E0FF3F8FC0000000000080083F00000080166932400C00000013000000320100003C00000006000000020000000000000000408F40000000000080083F00000080166932400000
310
00E0FF3F8FC0000000000080083F00000080166932400C000000130000003A0100003C00000006000000020000000000000000408F40000000000080083F00000080166932400000000000408F40000000000080083F0000002097762D400C00000013000000420100003C0000000600000002000000000000E0FF3F8FC000
310
000000F003B3BF0000004039AC3240000000E0FF3F8FC0000000000080083F00000080166932400C000000130000004A0100003C0000000600000002000000000000E0FF3F8FC000000000F003B3BF0000004039AC32400000000000408F4000000000F003B3BF0000004039AC32400C00000013000000520100003C000000
310
06000000020000000000000000408F4000000000F003B3BF0000004039AC32400000000000408F40000000000080083F00000080166932400C000000130000005A0100003C0000000600000002000000000000E0FF3F8FC0000000009891D1BF00000080D0DA3240000000E0FF3F8FC000000000F003B3BF0000004039AC32
310
400C00000013000000620100003C0000000600000002000000000000E0FF3F8FC0000000009891D1BF00000080D0DA32400000000000408F40000000009891D1BF00000080D0DA32400C000000130000006A0100003C00000006000000020000000000000000408F4000000000F003B3BF0000004039AC3240000000000040
310
8F40000000009891D1BF00000080D0DA32400C00000013000000720100003C0000000600000002000000000000E0FF3F8FC0000000009891D1BF00000080D0DA3240000000E0FF3F8FC000000000441CEBBF00000080FD5F33400C000000130000007A0100003C00000006000000020000000000000000408F400000000044
310
1CEBBF00000080FD5F3340000000E0FF3F8FC000000000441CEBBF00000080FD5F33400C00000013000000820100003C00000006000000020000000000000000408F40000000009891D1BF00000080D0DA32400000000000408F4000000000441CEBBF00000080FD5F33400C000000130000008A0100003C00000006000000
310
02000000000000E0FF3F8FC00000000040D2F2BF000000C09D113440000000E0FF3F8FC000000000441CEBBF00000080FD5F33400C00000013000000920100003C00000006000000020000000000000000408F400000000040D2F2BF000000C09D113440000000E0FF3F8FC00000000040D2F2BF000000C09D1134400C0000
310
00130000009A0100003C00000006000000020000000000000000408F4000000000441CEBBF00000080FD5F33400000000000408F400000000040D2F2BF000000C09D1134400C00000013000000A20100003C0000000600000002000000000000E0FF3F8FC00000000040D2F2BF00000040D7D63440000000E0FF3F8FC00000
310
000040D2F2BF000000C09D1134400C00000013000000AA0100003C00000006000000020000000000000000408F400000000040D2F2BF00000040D7D63440000000E0FF3F8FC00000000040D2F2BF00000040D7D634400C00000013000000B20100003C00000006000000020000000000000000408F400000000040D2F2BF00
310
0000C09D1134400000000000408F400000000040D2F2BF00000040D7D634400C00000013000000BA0100003C0000000600000002000000000000E0FF3F8FC000000000441CEBBF000000C077883540000000E0FF3F8FC00000000040D2F2BF00000040D7D634400C00000013000000C20100003C0000000600000002000000
310
000000E0FF3F8FC000000000441CEBBF000000C0778835400000000000408F4000000000441CEBBF000000C0778835400C00000013000000CA0100003C00000006000000020000000000000000408F4000000000441CEBBF000000C0778835400000000000408F400000000040D2F2BF00000040D7D634400C000000130000
310
00D20100003C0000000600000002000000000000E0FF3F8FC000000000441CEBBF000000C077883540000000E0FF3F8FC0000000009491D1BF00000040A40D36400C00000013000000DA0100003C00000006000000020000000000000000408F40000000009891D1BF00000040A40D3640000000E0FF3F8FC0000000009491
310
D1BF00000040A40D36400C00000013000000E20100003C00000006000000020000000000000000408F40000000009891D1BF00000040A40D36400000000000408F4000000000441CEBBF000000C0778835400C00000013000000EA0100003C0000000600000002000000000000E0FF3F8FC0000000009491D1BF00000040A4
310
0D3640000000E0FF3F8FC0000000003004B3BF000000803B3C36400C00000013000000F20100003C00000006000000020000000000000000408F40000000003004B3BF000000803B3C3640000000E0FF3F8FC0000000003004B3BF000000803B3C36400C00000013000000FA0100003C000000060000000200000000000000
310
00408F40000000003004B3BF000000803B3C36400000000000408F40000000009891D1BF00000040A40D36400C00000013000000020200003C0000000600000002000000000000E0FF3F8FC0000000000000073F000000405E7F3640000000E0FF3F8FC0000000003004B3BF000000803B3C36400C000000130000000A0200
310
003C0000000600000002000000000000E0FF3F8FC0000000000000073F000000405E7F36400000000000408F40000000000000073F000000405E7F36400C00000013000000120200003C00000006000000020000000000000000408F40000000000000073F000000405E7F36400000000000408F40000000003004B3BF0000
310
00803B3C36400C000000130000001A0200003C0000000600000002000000000000E0FF3F8FC0000000000000073F000000E0CEF93840000000E0FF3F8FC0000000000000073F000000405E7F36400C00000013000000220200003C0000000600000002000000000000E0FF3F8FC0000000000000073F000000E0CEF9384000
310
00000000408F40000000000000073F000000E0CEF938400C000000130000002A0200003C00000006000000020000000000000000408F40000000000000073F000000E0CEF938400000000000408F40000000000000073F000000405E7F36400C00000013000000320200003C0000000600000002000000000000E0FF3F8FC0
310
000000000000073F000000E0CEF93840000000E0FF3F8FC00000000040E0BBBF00000040046E39400C000000130000003A0200003C00000006000000020000000000000000408F400000000040E0BBBF00000040046E3940000000E0FF3F8FC00000000040E0BBBF00000040046E39400C00000013000000420200003C0000
310
0006000000020000000000000000408F400000000040E0BBBF00000040046E39400000000000408F40000000000000073F000000E0CEF938400C000000130000004A0200003C0000000600000002000000000000E0FF3F8FC0000000002852DABF000000002AC83940000000E0FF3F8FC00000000040E0BBBF00000040046E
310
39400C00000013000000520200003C00000006000000020000000000000000408F40000000002852DABF000000002AC83940000000E0FF3F8FC0000000002852DABF000000002AC839400C000000130000005A0200003C00000006000000020000000000000000408F400000000040E0BBBF00000040046E39400000000000
310
408F40000000002852DABF000000002AC839400C00000013000000620200003C0000000600000002000000000000E0FF3F8FC00000000048DBEABF000000E008F43940000000E0FF3F8FC0000000002852DABF000000002AC839400C000000130000006A0200003C00000006000000020000000000000000408F4000000000
310
48DBEABF000000E008F43940000000E0FF3F8FC00000000048DBEABF000000E008F439400C00000013000000720200003C00000006000000020000000000000000408F40000000002852DABF000000002AC839400000000000408F400000000048DBEABF000000E008F439400C000000130000007A0200003C000000060000
310
0002000000000000E0FF3F8FC00000000029C0F4BF000000C0C9E73940000000E0FF3F8FC00000000048DBEABF000000E008F439400C00000013000000820200003C0000000600000002000000000000E0FF3F8FC00000000029C0F4BF000000C0C9E739400000000000408F400000000029C0F4BF000000C0C9E739400C00
310
0000130000008A0200003C00000006000000020000000000000000408F400000000048DBEABF000000E008F439400000000000408F400000000029C0F4BF000000C0C9E739400C00000013000000920200003C0000000600000002000000000000E0FF3F8FC000000060D9AE24C000000080BAA33640000000E0FF3F8FC000
310
00000029C0F4BF000000C0C9E739400C000000130000009A0200003C0000000600000002000000000000E0FF3F8FC000000060D9AE24C000000080BAA336400000000000408F4000000060D9AE24C000000080BAA336400C00000013000000A20200003C00000006000000020000000000000000408F400000000029C0F4BF
310
000000C0C9E739400000000000408F4000000060D9AE24C000000080BAA336400C00000013000000AA0200003C0000000600000002000000000000E0FF3F8FC000000060D9AE24C000000080BAA33640000000E0FF3F8FC0000000A01C9F27C000000040323836400C00000013000000B20200003C00000006000000020000
310
00000000E0FF3F8FC0000000A01C9F27C000000040323836400000000000408F40000000C01C9F27C000000040323836400C00000013000000BA0200003C00000006000000020000000000000000408F4000000060D9AE24C000000080BAA336400000000000408F40000000C01C9F27C000000040323836400C0000001300
310
0000C20200003C0000000600000002000000000000E0FF3F8FC0000000A01C9F27C00000004032383640000000E0FF3F8FC0000000A0FDA52BC00000004070EE35400C00000013000000CA0200003C00000006000000020000000000000000408F40000000C0FDA52BC00000004070EE3540000000E0FF3F8FC0000000A0FD
310
A52BC00000004070EE35400C00000013000000D20200003C00000006000000020000000000000000408F40000000C0FDA52BC00000004070EE35400000000000408F40000000C01C9F27C000000040323836400C00000013000000DA0200003C0000000600000002000000000000E0FF3F8FC000000040D0B62FC000000080
310
B5F93540000000E0FF3F8FC0000000A0FDA52BC00000004070EE35400C00000013000000E20200003C0000000600000002000000000000E0FF3F8FC000000040D0B62FC000000080B5F935400000000000408F4000000040D0B62FC000000080B5F935400C00000013000000EA0200003C0000000600000002000000000000
310
0000408F40000000C0FDA52BC00000004070EE35400000000000408F4000000040D0B62FC000000080B5F935400C00000013000000F20200003C0000000600000002000000000000E0FF3F8FC000000040D0B62FC000000080B5F93540000000E0FF3F8FC00000002047DB31C0000000C0B65936400C00000013000000FA02
310
00003C00000006000000020000000000000000408F400000002047DB31C0000000C0B6593640000000E0FF3F8FC00000002047DB31C0000000C0B65936400C00000013000000020300003C00000006000000020000000000000000408F4000000040D0B62FC000000080B5F935400000000000408F400000002047DB31C000
310
0000C0B65936400C000000130000000A0300003C0000000600000002000000000000E0FF3F8FC0000000E052C533C000000040F60B3740000000E0FF3F8FC00000002047DB31C0000000C0B65936400C00000013000000120300003C0000000600000002000000000000E0FF3F8FC0000000E052C533C000000040F60B3740
310
0000000000408F40000000C052C533C000000040F60B37400C000000130000001A0300003C00000006000000020000000000000000408F400000002047DB31C0000000C0B65936400000000000408F40000000C052C533C000000040F60B37400C00000013000000220300003C0000000600000002000000000000E0FF3F8F
310
C0000000E0D18C35C000000040D30B3840000000E0FF3F8FC0000000E052C533C000000040F60B37400C000000130000002A0300003C0000000600000002000000000000E0FF3F8FC0000000E0D18C35C000000040D30B38400000000000408F40000000C0D18C35C000000040D30B38400C00000013000000320300003C00
310
000006000000020000000000000000408F40000000C052C533C000000040F60B37400000000000408F40000000C0D18C35C000000040D30B38400C000000130000003A0300003C0000000600000002000000000000E0FF3F8FC0000000E0D18C35C000000040D30B3840000000E0FF3F8FC000000020F12537C000000000AA
310
5239400C00000013000000420300003C00000006000000020000000000000000408F4000000000F12537C000000000AA523940000000E0FF3F8FC000000020F12537C000000000AA5239400C000000130000004A0300003C00000006000000020000000000000000408F40000000C0D18C35C000000040D30B384000000000
310
00408F4000000000F12537C000000000AA5239400C00000013000000520300003C0000000600000002000000000000E0FF3F8FC000000020108638C000000000FCD73A40000000E0FF3F8FC000000020F12537C000000000AA5239400C000000130000005A0300003C00000006000000020000000000000000408F40000000
310
20108638C000000000FCD73A40000000E0FF3F8FC000000020108638C000000000FCD73A400C00000013000000620300003C00000006000000020000000000000000408F4000000000F12537C000000000AA5239400000000000408F4000000020108638C000000000FCD73A400C000000130000006A0300003C0000000600
310
000002000000000000E0FF3F8FC0000000A00BA439C0000000E0AE913C40000000E0FF3F8FC000000020108638C000000000FCD73A400C00000013000000720300003C00000006000000020000000000000000408F40000000A00BA439C0000000E0AE913C40000000E0FF3F8FC0000000A00BA439C0000000E0AE913C400C
310
000000130000007A0300003C00000006000000020000000000000000408F4000000020108638C000000000FCD73A400000000000408F40000000A00BA439C0000000E0AE913C400C00000013000000820300003C0000000600000002000000000000E0FF3F8FC0000000A00BA439C0000000E0AE913C40000000E0FF3F8FC0
310
000000A0D41A3BC0000000A09A843F400C000000130000008A0300003C00000006000000020000000000000000408F40000000A0D41A3BC0000000A09A843F40000000E0FF3F8FC0000000A0D41A3BC0000000A09A843F400C00000013000000920300003C00000006000000020000000000000000408F40000000A0D41A3B
310
C0000000A09A843F400000000000408F40000000A00BA439C0000000E0AE913C400C000000130000009A0300003C0000000600000002000000000000E0FF3F8FC0000000A0D41A3BC0000000A09A843F40000000E0FF3F8FC0000000A0D41A3BC0000000002BF742400C00000013000000A20300003C000000060000000200
310
00000000000000408F4000000080D41A3BC0000000002BF74240000000E0FF3F8FC0000000A0D41A3BC0000000002BF742400C00000013000000AA0300003C00000006000000020000000000000000408F40000000A0D41A3BC0000000A09A843F400000000000408F4000000080D41A3BC0000000002BF742400C00000013
310
000000B20300003C0000000600000002000000000000E0FF3F8FC000000060ECDB39C000000000BC344440000000E0FF3F8FC0000000A0D41A3BC0000000002BF742400C00000013000000BA0300003C0000000600000002000000000000E0FF3F8FC000000060ECDB39C000000000BC3444400000000000408F4000000060
310
ECDB39C000000000BC3444400C00000013000000C20300003C00000006000000020000000000000000408F4000000080D41A3BC0000000002BF742400000000000408F4000000060ECDB39C000000000BC3444400C00000013000000CA0300003C0000000600000002000000000000E0FF3F8FC000000060ECDB39C0000000
310
00BC344440000000E0FF3F8FC000000000019938C0000000407D3445400C00000013000000D20300003C00000006000000020000000000000000408F4000000000019938C0000000407D344540000000E0FF3F8FC000000000019938C0000000407D3445400C00000013000000DA0300003C00000006000000020000000000
310
000000408F4000000060ECDB39C000000000BC3444400000000000408F4000000000019938C0000000407D3445400C00000013000000E20300003C0000000600000002000000000000E0FF3F8FC0000000604AA836C00000000067384640000000E0FF3F8FC000000000019938C0000000407D3445400C00000013000000EA
310
0300003C0000000600000002000000000000E0FF3F8FC0000000604AA836C000000000673846400000000000408F40000000404AA836C000000000673846400C00000013000000F20300003C00000006000000020000000000000000408F40000000404AA836C000000000673846400000000000408F4000000000019938C0
310
000000407D3445400C00000013000000FA0300003C0000000600000002000000000000E0FF3F8FC0000000604AA836C00000000067384640000000E0FF3F8FC0000000207B4D34C00000008063F946400C00000013000000020400003C00000006000000020000000000000000408F40000000007B4D34C00000008063F946
310
40000000E0FF3F8FC0000000207B4D34C00000008063F946400C000000130000000A0400003C00000006000000020000000000000000408F40000000007B4D34C00000008063F946400000000000408F40000000404AA836C000000000673846400C00000013000000120400003C0000000600000002000000000000E0FF3F
310
8FC00000008075A931C000000000C26B4740000000E0FF3F8FC0000000207B4D34C00000008063F946400C000000130000001A0400003C00000006000000020000000000000000408F400000008075A931C000000000C26B4740000000E0FF3F8FC00000008075A931C000000000C26B47400C00000013000000220400003C
310
00000006000000020000000000000000408F400000008075A931C000000000C26B47400000000000408F40000000007B4D34C00000008063F946400C000000130000002A0400003C0000000600000002000000000000E0FF3F8FC00000006087C62DC000000040ED884740000000E0FF3F8FC00000008075A931C000000000
310
C26B47400C00000013000000320400003C0000000600000002000000000000E0FF3F8FC00000006087C62DC000000040ED8847400000000000408F400000008087C62DC000000040ED8847400C000000130000003A0400003C00000006000000020000000000000000408F400000008087C62DC000000040ED884740000000
310
0000408F400000008075A931C000000000C26B47400C00000013000000420400003C0000000600000002000000000000E0FF3F8FC00000006087C62DC000000040ED884740000000E0FF3F8FC000000060D94028C000000040FD5347400C000000130000004A0400003C00000006000000020000000000000000408F400000
310
0060D94028C000000040FD534740000000E0FF3F8FC000000060D94028C000000040FD5347400C00000013000000520400003C00000006000000020000000000000000408F4000000060D94028C000000040FD5347400000000000408F400000008087C62DC000000040ED8847400C000000130000005A0400003C00000006
310
00000002000000000000E0FF3F8FC00000000098D9F3BF000000403AC14540000000E0FF3F8FC000000060D94028C000000040FD5347400C00000013000000620400003C00000006000000020000000000000000408F400000000098D9F3BF000000403AC14540000000E0FF3F8FC00000000098D9F3BF000000403AC14540
310
0C000000130000006A0400003C00000006000000020000000000000000408F400000000098D9F3BF000000403AC145400000000000408F4000000060D94028C000000040FD5347400C00000013000000720400003C0000000600000002000000000000E0FF3F8FC0000000008474E9BF000000805FBE4540000000E0FF3F8F
310
C00000000098D9F3BF000000403AC145400C000000130000007A0400003C0000000600000002000000000000E0FF3F8FC0000000008474E9BF000000805FBE45400000000000408F40000000008674E9BF000000805FBE45400C00000013000000820400003C00000006000000020000000000000000408F40000000008674
310
E9BF000000805FBE45400000000000408F400000000098D9F3BF000000403AC145400C000000130000008A0400003C0000000600000002000000000000E0FF3F8FC0000000008474E9BF000000805FBE4540000000E0FF3F8FC000000000A8CAD8BF00000040A8D545400C00000013000000920400003C0000000600000002
310
0000000000000000408F4000000000A8CAD8BF00000040A8D54540000000E0FF3F8FC000000000A8CAD8BF00000040A8D545400C000000130000009A0400003C00000006000000020000000000000000408F4000000000A8CAD8BF00000040A8D545400000000000408F40000000008674E9BF000000805FBE45400C000000
310
13000000A20400003C0000000600000002000000000000E0FF3F8FC0000000002029BABF000000002E024640000000E0FF3F8FC000000000A8CAD8BF00000040A8D545400C00000013000000AA0400003C00000006000000020000000000000000408F40000000003029BABF000000002E024640000000E0FF3F8FC0000000
310
002029BABF000000002E0246400C00000013000000B20400003C00000006000000020000000000000000408F40000000003029BABF000000002E0246400000000000408F4000000000A8CAD8BF00000040A8D545400C00000013000000BA0400003C0000000600000002000000000000E0FF3F8FC0000000000000073F0000
310
0040923A4640000000E0FF3F8FC0000000002029BABF000000002E0246400C00000013000000C20400003C0000000600000002000000000000E0FF3F8FC0000000000000073F00000040923A46400000000000408F40000000000000073F00000040923A46400C00000013000000CA0400003C000000060000000200000000
310
00000000408F40000000000000073F00000040923A46400000000000408F40000000003029BABF000000002E0246400C00000013000000D20400003C0000000600000002000000000000E0FF3F8FC0000000000000073F00000040923A4640000000E0FF3F8FC0000000000000073F000000C0E08247400C00000013000000
310
DA0400003C0000000600000002000000000000E0FF3F8FC0000000000000073F000000C0E08247400000000000408F40000000000000073F000000C0E08247400C00000013000000E20400003C00000006000000020000000000000000408F40000000000000073F000000C0E08247400000000000408F4000000000000007
310
3F00000040923A46400C00000013000000EA0400003C0000000600000002000000000000E0FF3F8FC0000000000000073F000000C0E0824740000000E0FF3F8FC0000000002004B3BF0000000072A447400C00000013000000F20400003C0000000600000002000000000000E0FF3F8FC0000000002004B3BF0000000072A4
310
47400000000000408F40000000002004B3BF0000000072A447400C00000013000000FA0400003C00000006000000020000000000000000408F40000000002004B3BF0000000072A447400000000000408F40000000000000073F000000C0E08247400C00000013000000020500003C0000000600000002000000000000E0FF
310
3F8FC0000000009491D1BF00000080BDBB4740000000E0FF3F8FC0000000002004B3BF0000000072A447400C000000130000000A0500003C0000000600000002000000000000E0FF3F8FC0000000009491D1BF00000080BDBB47400000000000408F40000000009491D1BF00000080BDBB47400C0000001300000012050000
310
3C00000006000000020000000000000000408F40000000002004B3BF0000000072A447400000000000408F40000000009491D1BF00000080BDBB47400C000000130000001A0500003C0000000600000002000000000000E0FF3F8FC000000000421CEBBF0000000054FE4740000000E0FF3F8FC0000000009491D1BF000000
310
80BDBB47400C00000013000000220500003C0000000600000002000000000000E0FF3F8FC000000000421CEBBF0000000054FE47400000000000408F4000000000421CEBBF0000000054FE47400C000000130000002A0500003C00000006000000020000000000000000408F40000000009491D1BF00000080BDBB47400000
310
000000408F4000000000421CEBBF0000000054FE47400C00000013000000320500003C0000000600000002000000000000E0FF3F8FC0000000003FD2F2BF0000004024574840000000E0FF3F8FC000000000421CEBBF0000000054FE47400C000000130000003A0500003C0000000600000002000000000000E0FF3F8FC000
310
0000003FD2F2BF00000040245748400000000000408F40000000003FD2F2BF00000040245748400C00000013000000420500003C00000006000000020000000000000000408F4000000000421CEBBF0000000054FE47400000000000408F40000000003FD2F2BF00000040245748400C000000130000004A0500003C000000
310
0600000002000000000000E0FF3F8FC0000000003FD2F2BF00000000C1B94840000000E0FF3F8FC0000000003FD2F2BF00000040245748400C00000013000000520500003C0000000600000002000000000000E0FF3F8FC0000000003FD2F2BF00000000C1B948400000000000408F40000000003FD2F2BF00000000C1B948
310
400C000000130000005A0500003C00000006000000020000000000000000408F40000000003FD2F2BF00000040245748400000000000408F40000000003FD2F2BF00000000C1B948400C00000013000000620500003C0000000600000002000000000000E0FF3F8FC0000000003FD2F2BF00000000C1B94840000000E0FF3F
310
8FC000000000421CEBBF00000040911249400C000000130000006A0500003C00000006000000020000000000000000408F4000000000421CEBBF0000004091124940000000E0FF3F8FC000000000421CEBBF00000040911249400C00000013000000720500003C00000006000000020000000000000000408F40000000003F
310
D2F2BF00000000C1B948400000000000408F4000000000421CEBBF00000040911249400C000000130000007A0500003C0000000600000002000000000000E0FF3F8FC0000000009491D1BF000000C027554940000000E0FF3F8FC000000000421CEBBF00000040911249400C00000013000000820500003C00000006000000
310
02000000000000E0FF3F8FC0000000009491D1BF000000C0275549400000000000408F40000000009491D1BF000000C0275549400C000000130000008A0500003C00000006000000020000000000000000408F40000000009491D1BF000000C0275549400000000000408F4000000000421CEBBF00000040911249400C0000
310
0013000000920500003C0000000600000002000000000000E0FF3F8FC0000000009491D1BF000000C027554940000000E0FF3F8FC0000000002004B3BF00000040736C49400C000000130000009A0500003C0000000600000002000000000000E0FF3F8FC0000000002004B3BF00000040736C49400000000000408F400000
310
00002004B3BF00000040736C49400C00000013000000A20500003C00000006000000020000000000000000408F40000000002004B3BF00000040736C49400000000000408F40000000009491D1BF000000C0275549400C00000013000000AA0500003C0000000600000002000000000000E0FF3F8FC0000000002004B3BF00
310
000040736C4940000000E0FF3F8FC0000000000000073F000000C0048E49400C00000013000000B20500003C0000000600000002000000000000E0FF3F8FC0000000000000073F000000C0048E49400000000000408F40000000000000073F000000C0048E49400C00000013000000BA0500003C0000000600000002000000
310
0000000000408F40000000000000073F000000C0048E49400000000000408F40000000002004B3BF00000040736C49400C00000013000000C20500003C0000000600000002000000000000E0FF3F8FC0000000000000093F000000002C7E4B40000000E0FF3F8FC0000000000000073F000000C0048E49400C000000130000
310
00CA0500003C0000000600000002000000000000E0FF3F8FC0000000000000093F000000002C7E4B400000000000408F40000000000000093F000000002C7E4B400C00000013000000D20500003C00000006000000020000000000000000408F40000000000000093F000000002C7E4B400000000000408F40000000000000
310
073F000000C0048E49400C00000013000000DA0500003C0000000600000002000000000000E0FF3F8FC0000000000000093F000000002C7E4B40000000E0FF3F8FC00000008048802EC000000080F1384B400C00000013000000E20500003C00000006000000020000000000000000408F400000008048802EC000000080F1
310
384B40000000E0FF3F8FC00000008048802EC000000080F1384B400C00000013000000EA0500003C00000006000000020000000000000000408F400000008048802EC000000080F1384B400000000000408F40000000000000093F000000002C7E4B400C00000013000000F20500003C0000000600000002000000000000E0
310
FF3F8FC000000060E7C930C000000040FF294B40000000E0FF3F8FC00000008048802EC000000080F1384B400C00000013000000FA0500003C0000000600000002000000000000E0FF3F8FC000000060E7C930C000000040FF294B400000000000408F4000000040E7C930C000000040FF294B400C00000013000000020600
310
003C00000006000000020000000000000000408F400000008048802EC000000080F1384B400000000000408F4000000040E7C930C000000040FF294B400C000000130000000A0600003C0000000600000002000000000000E0FF3F8FC0000000801A5032C0000000003D0B4B40000000E0FF3F8FC000000060E7C930C00000
310
0040FF294B400C00000013000000120600003C0000000600000002000000000000E0FF3F8FC0000000801A5032C0000000003D0B4B400000000000408F40000000801A5032C0000000003D0B4B400C000000130000001A0600003C00000006000000020000000000000000408F4000000040E7C930C000000040FF294B4000
310
00000000408F40000000801A5032C0000000003D0B4B400C00000013000000220600003C0000000600000002000000000000E0FF3F8FC0000000801A5032C0000000003D0B4B40000000E0FF3F8FC0000000603ED033C000000080DCDC4A400C000000130000002A0600003C00000006000000020000000000000000408F40
310
000000403ED033C000000080DCDC4A40000000E0FF3F8FC0000000603ED033C000000080DCDC4A400C00000013000000320600003C00000006000000020000000000000000408F40000000801A5032C0000000003D0B4B400000000000408F40000000403ED033C000000080DCDC4A400C000000130000003A0600003C0000
310
000600000002000000000000E0FF3F8FC000000060F64735C000000080279F4A40000000E0FF3F8FC0000000603ED033C000000080DCDC4A400C00000013000000420600003C00000006000000020000000000000000408F4000000040F64735C000000080279F4A40000000E0FF3F8FC000000060F64735C000000080279F
310
4A400C000000130000004A0600003C00000006000000020000000000000000408F40000000403ED033C000000080DCDC4A400000000000408F4000000040F64735C000000080279F4A400C00000013000000520600003C0000000600000002000000000000E0FF3F8FC000000060D1B436C00000000084524A40000000E0FF
310
3F8FC000000060F64735C000000080279F4A400C000000130000005A0600003C00000006000000020000000000000000408F4000000040D1B436C00000000084524A40000000E0FF3F8FC000000060D1B436C00000000084524A400C00000013000000620600003C00000006000000020000000000000000408F4000000040
310
F64735C000000080279F4A400000000000408F4000000040D1B436C00000000084524A400C000000130000006A0600003C0000000600000002000000000000E0FF3F8FC0000000E0971438C0000000C069F74940000000E0FF3F8FC000000060D1B436C00000000084524A400C00000013000000720600003C000000060000
310
0002000000000000E0FF3F8FC0000000E0971438C0000000C069F749400000000000408F40000000C0971438C0000000C069F749400C000000130000007A0600003C00000006000000020000000000000000408F4000000040D1B436C00000000084524A400000000000408F40000000C0971438C0000000C069F749400C00
310
000013000000820600003C0000000600000002000000000000E0FF3F8FC0000000E0FC6439C0000000C0708E4940000000E0FF3F8FC0000000E0971438C0000000C069F749400C000000130000008A0600003C0000000600000002000000000000E0FF3F8FC0000000E0FC6439C0000000C0708E49400000000000408F4000
310
0000C0FC6439C0000000C0708E49400C00000013000000920600003C00000006000000020000000000000000408F40000000C0971438C0000000C069F749400000000000408F40000000C0FC6439C0000000C0708E49400C000000130000009A0600003C0000000600000002000000000000E0FF3F8FC0000000A0F6A33AC0
310
000000403C184940000000E0FF3F8FC0000000E0FC6439C0000000C0708E49400C00000013000000A20600003C0000000600000002000000000000E0FF3F8FC0000000A0F6A33AC0000000403C1849400000000000408F4000000080F6A33AC0000000403C1849400C00000013000000AA0600003C00000006000000020000
310
000000000000408F40000000C0FC6439C0000000C0708E49400000000000408F4000000080F6A33AC0000000403C1849400C00000013000000B20600003C0000000600000002000000000000E0FF3F8FC0000000A0F6A33AC0000000403C184940000000E0FF3F8FC0000000606FCF3BC000000040929548400C0000001300
310
0000BA0600003C00000006000000020000000000000000408F40000000406FCF3BC00000004092954840000000E0FF3F8FC0000000606FCF3BC000000040929548400C00000013000000C20600003C00000006000000020000000000000000408F4000000080F6A33AC0000000403C1849400000000000408F40000000406F
310
CF3BC000000040929548400C00000013000000CA0600003C0000000600000002000000000000E0FF3F8FC00000006094E53CC0000000803D074840000000E0FF3F8FC0000000606FCF3BC000000040929548400C00000013000000D20600003C00000006000000020000000000000000408F400000004094E53CC000000080
310
3D074840000000E0FF3F8FC00000006094E53CC0000000803D0748400C00000013000000DA0600003C00000006000000020000000000000000408F40000000406FCF3BC000000040929548400000000000408F400000004094E53CC0000000803D0748400C00000013000000E20600003C0000000600000002000000000000
310
E0FF3F8FC0000000E097E43DC0000000402B6E4740000000E0FF3F8FC00000006094E53CC0000000803D0748400C00000013000000EA0600003C0000000600000002000000000000E0FF3F8FC0000000E097E43DC0000000402B6E47400000000000408F40000000C097E43DC0000000402B6E47400C00000013000000F206
310
00003C00000006000000020000000000000000408F400000004094E53CC0000000803D0748400000000000408F40000000C097E43DC0000000402B6E47400C00000013000000FA0600003C0000000600000002000000000000E0FF3F8FC0000000A0E7CA3EC0000000C04BCB4640000000E0FF3F8FC0000000E097E43DC000
310
0000402B6E47400C00000013000000020700003C0000000600000002000000000000E0FF3F8FC0000000A0E7CA3EC0000000C04BCB46400000000000408F4000000080E7CA3EC0000000C04BCB46400C000000130000000A0700003C00000006000000020000000000000000408F40000000C097E43DC0000000402B6E4740
310
0000000000408F4000000080E7CA3EC0000000C04BCB46400C00000013000000120700003C0000000600000002000000000000E0FF3F8FC0000000A0E7CA3EC0000000C04BCB4640000000E0FF3F8FC0000000E00A973FC0000000C0AA1F46400C000000130000001A0700003C00000006000000020000000000000000408F
310
40000000C00A973FC0000000C0AA1F4640000000E0FF3F8FC0000000E00A973FC0000000C0AA1F46400C00000013000000220700003C00000006000000020000000000000000408F4000000080E7CA3EC0000000C04BCB46400000000000408F40000000C00A973FC0000000C0AA1F46400C000000130000002A0700003C00
310
00000600000002000000000000E0FF3F8FC0000000E0DC2340C0000000005B6C4540000000E0FF3F8FC0000000E00A973FC0000000C0AA1F46400C00000013000000320700003C0000000600000002000000000000E0FF3F8FC0000000E0DC2340C0000000005B6C45400000000000408F40000000E0DC2340C0000000005B
310
6C45400C000000130000003A0700003C00000006000000020000000000000000408F40000000E0DC2340C0000000005B6C45400000000000408F40000000C00A973FC0000000C0AA1F46400C00000013000000420700003C0000000600000002000000000000E0FF3F8FC0000000A0EC6D40C0000000007DB24440000000E0
310
FF3F8FC0000000E0DC2340C0000000005B6C45400C000000130000004A0700003C0000000600000002000000000000E0FF3F8FC0000000A0EC6D40C0000000007DB244400000000000408F40000000A0EC6D40C0000000007DB244400C00000013000000520700003C00000006000000020000000000000000408F40000000
310
E0DC2340C0000000005B6C45400000000000408F40000000A0EC6D40C0000000007DB244400C000000130000005A0700003C0000000600000002000000000000E0FF3F8FC0000000E03AA940C00000008040F34340000000E0FF3F8FC0000000A0EC6D40C0000000007DB244400C00000013000000620700003C0000000600
310
000002000000000000E0FF3F8FC0000000E03AA940C00000008040F343400000000000408F40000000E03AA940C00000008040F343400C000000130000006A0700003C00000006000000020000000000000000408F40000000E03AA940C00000008040F343400000000000408F40000000A0EC6D40C0000000007DB244400C
310
00000013000000720700003C0000000600000002000000000000E0FF3F8FC0000000E03AA940C00000008040F34340000000E0FF3F8FC0000000A06AD540C0000000C0D22F43400C000000130000007A0700003C00000006000000020000000000000000408F40000000A06AD540C0000000C0D22F4340000000E0FF3F8FC0
310
000000A06AD540C0000000C0D22F43400C00000013000000820700003C00000006000000020000000000000000408F40000000A06AD540C0000000C0D22F43400000000000408F40000000E03AA940C00000008040F343400C000000130000008A0700003C0000000600000002000000000000E0FF3F8FC00000002032F240
310
C00000000079694240000000E0FF3F8FC0000000A06AD540C0000000C0D22F43400C00000013000000920700003C0000000600000002000000000000E0FF3F8FC00000002032F240C000000000796942400000000000408F400000002032F240C000000000796942400C000000130000009A0700003C000000060000000200
310
00000000000000408F400000002032F240C000000000796942400000000000408F40000000A06AD540C0000000C0D22F43400C00000013000000A20700003C0000000600000002000000000000E0FF3F8FC00000002032F240C00000000079694240000000E0FF3F8FC00000002065FF40C0000000C067A141400C00000013
310
000000AA0700003C00000006000000020000000000000000408F400000002065FF40C0000000C067A14140000000E0FF3F8FC00000002065FF40C0000000C067A141400C00000013000000B20700003C00000006000000020000000000000000408F400000002032F240C000000000796942400000000000408F4000000020
310
65FF40C0000000C067A141400C00000013000000BA0700003C0000000600000002000000000000E0FF3F8FC0000000E0ECFC40C0000000C0EDD84040000000E0FF3F8FC00000002065FF40C0000000C067A141400C00000013000000C20700003C00000006000000020000000000000000408F40000000E0ECFC40C0000000
310
C0EDD84040000000E0FF3F8FC0000000E0ECFC40C0000000C0EDD840400C00000013000000CA0700003C00000006000000020000000000000000408F40000000E0ECFC40C0000000C0EDD840400000000000408F400000002065FF40C0000000C067A141400C00000013000000D20700003C00000006000000020000000000
310
00E0FF3F8FC0000000A0CDEA40C00000004042114040000000E0FF3F8FC0000000E0ECFC40C0000000C0EDD840400C00000013000000DA0700003C00000006000000020000000000000000408F40000000A0CDEA40C00000004042114040000000E0FF3F8FC0000000A0CDEA40C000000040421140400C00000013000000E2
310
0700003C00000006000000020000000000000000408F40000000A0CDEA40C000000040421140400000000000408F40000000E0ECFC40C0000000C0EDD840400C00000013000000EA0700003C0000000600000002000000000000E0FF3F8FC0000000A025C940C00000004068973E40000000E0FF3F8FC0000000A0CDEA40C0
310
00000040421140400C00000013000000F20700003C00000006000000020000000000000000408F40000000A025C940C00000004068973E40000000E0FF3F8FC0000000A025C940C00000004068973E400C00000013000000FA0700003C00000006000000020000000000000000408F40000000A025C940C00000004068973E
310
400000000000408F40000000A0CDEA40C000000040421140400C00000013000000020800003C0000000600000002000000000000E0FF3F8FC000000020299840C000000000EB123D40000000E0FF3F8FC0000000A025C940C00000004068973E400C000000130000000A0800003C0000000600000002000000000000000040
310
8F4000000020299840C000000000EB123D40000000E0FF3F8FC000000020299840C000000000EB123D400C00000013000000120800003C00000006000000020000000000000000408F40000000A025C940C00000004068973E400000000000408F4000000020299840C000000000EB123D400C000000130000001A0800003C
310
0000000600000002000000000000E0FF3F8FC0000000E0295840C00000000094973B40000000E0FF3F8FC000000020299840C000000000EB123D400C00000013000000220800003C0000000600000002000000000000E0FF3F8FC0000000E0295840C00000000094973B400000000000408F40000000E0295840C000000000
310
94973B400C000000130000002A0800003C00000006000000020000000000000000408F40000000E0295840C00000000094973B400000000000408F4000000020299840C000000000EB123D400C00000013000000320800003C0000000600000002000000000000E0FF3F8FC0000000E0295840C00000000094973B40000000
310
E0FF3F8FC0000000208C0940C000000080B8273A400C000000130000003A0800003C00000006000000020000000000000000408F40000000408C0940C000000080B8273A40000000E0FF3F8FC0000000208C0940C000000080B8273A400C00000013000000420800003C00000006000000020000000000000000408F400000
310
00408C0940C000000080B8273A400000000000408F40000000E0295840C00000000094973B400C000000130000004A0800003C0000000600000002000000000000E0FF3F8FC000000060A2593FC000000080B2C53840000000E0FF3F8FC0000000208C0940C000000080B8273A400C00000013000000520800003C00000006
310
00000002000000000000E0FF3F8FC000000060A2593FC000000080B2C538400000000000408F4000000040A2593FC000000080B2C538400C000000130000005A0800003C00000006000000020000000000000000408F4000000040A2593FC000000080B2C538400000000000408F40000000408C0940C000000080B8273A40
310
0C00000013000000620800003C0000000600000002000000000000E0FF3F8FC000000060A2593FC000000080B2C53840000000E0FF3F8FC0000000201B853EC0000000E0BB7337400C000000130000006A0800003C00000006000000020000000000000000408F40000000201B853EC0000000E0BB733740000000E0FF3F8F
310
C0000000201B853EC0000000E0BB7337400C00000013000000720800003C00000006000000020000000000000000408F40000000201B853EC0000000E0BB7337400000000000408F4000000040A2593FC000000080B2C538400C000000130000007A0800003C0000000600000002000000000000E0FF3F8FC0000000E0D796
310
3DC000000060F1333640000000E0FF3F8FC0000000201B853EC0000000E0BB7337400C00000013000000820800003C0000000600000002000000000000E0FF3F8FC0000000E0D7963DC000000060F13336400000000000408F40000000E0D7963DC000000060F13336400C000000130000008A0800003C0000000600000002
310
0000000000000000408F40000000E0D7963DC000000060F13336400000000000408F40000000201B853EC0000000E0BB7337400C00000013000000920800003C0000000600000002000000000000E0FF3F8FC0000000E0D7963DC000000060F1333640000000E0FF3F8FC0000000A05E903CC0000000405F0835400C000000
310
130000009A0800003C00000006000000020000000000000000408F40000000A05E903CC0000000405F083540000000E0FF3F8FC0000000A05E903CC0000000405F0835400C00000013000000A20800003C00000006000000020000000000000000408F40000000A05E903CC0000000405F0835400000000000408F40000000
310
E0D7963DC000000060F13336400C00000013000000AA0800003C0000000600000002000000000000E0FF3F8FC0000000E04C733BC0000000C0DDF23340000000E0FF3F8FC0000000A05E903CC0000000405F0835400C00000013000000B20800003C0000000600000002000000000000E0FF3F8FC0000000E04C733BC00000
310
00C0DDF233400000000000408F40000000E04C733BC0000000C0DDF233400C00000013000000BA0800003C00000006000000020000000000000000408F40000000E04C733BC0000000C0DDF233400000000000408F40000000A05E903CC0000000405F0835400C00000013000000C20800003C000000060000000200000000
310
0000E0FF3F8FC0000000E04C733BC0000000C0DDF23340000000E0FF3F8FC0000000A07C413AC0000000C039F532400C00000013000000CA0800003C00000006000000020000000000000000408F40000000A07C413AC0000000C039F53240000000E0FF3F8FC0000000A07C413AC0000000C039F532400C00000013000000
310
D20800003C00000006000000020000000000000000408F40000000A07C413AC0000000C039F532400000000000408F40000000E04C733BC0000000C0DDF233400C00000013000000DA0800003C0000000600000002000000000000E0FF3F8FC0000000E0C9FC38C000000040FE103240000000E0FF3F8FC0000000A07C413A
310
C0000000C039F532400C00000013000000E20800003C00000006000000020000000000000000408F40000000E0C9FC38C000000040FE103240000000E0FF3F8FC0000000E0C9FC38C000000040FE1032400C00000013000000EA0800003C00000006000000020000000000000000408F40000000E0C9FC38C000000040FE10
310
32400000000000408F40000000A07C413AC0000000C039F532400C00000013000000F20800003C0000000600000002000000000000E0FF3F8FC00000002054A737C000000000A9473140000000E0FF3F8FC0000000E0C9FC38C000000040FE1032400C00000013000000FA0800003C00000006000000020000000000000000
310
408F400000002054A737C000000000A9473140000000E0FF3F8FC00000002054A737C000000000A94731400C00000013000000020900003C00000006000000020000000000000000408F400000002054A737C000000000A94731400000000000408F40000000E0C9FC38C000000040FE1032400C000000130000000A090000
310
3C0000000600000002000000000000E0FF3F8FC0000000E02C4336C000000080729A3040000000E0FF3F8FC00000002054A737C000000000A94731400C00000013000000120900003C0000000600000002000000000000E0FF3F8FC0000000E02C4336C000000080729A30400000000000408F40000000C02C4336C0000000
310
80729A30400C000000130000001A0900003C00000006000000020000000000000000408F40000000C02C4336C000000080729A30400000000000408F400000002054A737C000000000A94731400C00000013000000220900003C0000000600000002000000000000E0FF3F8FC0000000E02C4336C000000080729A30400000
310
00E0FF3F8FC0000000E0A8D234C0000000407C0A30400C000000130000002A0900003C00000006000000020000000000000000408F40000000C0A8D234C0000000407C0A3040000000E0FF3F8FC0000000E0A8D234C0000000407C0A30400C00000013000000320900003C00000006000000020000000000000000408F4000
310
0000C0A8D234C0000000407C0A30400000000000408F40000000C02C4336C000000080729A30400C000000130000003A0900003C0000000600000002000000000000E0FF3F8FC0000000E0045833C0000000204F312F40000000E0FF3F8FC0000000E0A8D234C0000000407C0A30400C00000013000000420900003C000000
310
0600000002000000000000E0FF3F8FC0000000E0045833C0000000204F312F400000000000408F40000000C0045833C0000000204F312F400C000000130000004A0900003C00000006000000020000000000000000408F40000000C0045833C0000000204F312F400000000000408F40000000C0A8D234C0000000407C0A30
310
400C00000013000000520900003C0000000600000002000000000000E0FF3F8FC0000000E0045833C0000000204F312F40000000E0FF3F8FC000000020B7D531C0000000A0608B2E400C000000130000005A0900003C00000006000000020000000000000000408F4000000000B7D531C0000000A0608B2E40000000E0FF3F
310
8FC000000020B7D531C0000000A0608B2E400C00000013000000620900003C00000006000000020000000000000000408F4000000000B7D531C0000000A0608B2E400000000000408F40000000C0045833C0000000204F312F400C000000130000006A0900003C0000000600000002000000000000E0FF3F8FC0000000A01E
310
4E30C00000002034242E40000000E0FF3F8FC000000020B7D531C0000000A0608B2E400C00000013000000720900003C00000006000000020000000000000000408F40000000801E4E30C00000002034242E40000000E0FF3F8FC0000000A01E4E30C00000002034242E400C000000130000007A0900003C00000006000000
310
020000000000000000408F40000000801E4E30C00000002034242E400000000000408F4000000000B7D531C0000000A0608B2E400C00000013000000820900003C0000000600000002000000000000E0FF3F8FC0000000C0B5742DC0000000E074F82D40000000E0FF3F8FC0000000A01E4E30C00000002034242E400C0000
310
00130000008A0900003C0000000600000002000000000000E0FF3F8FC0000000C0B5742DC0000000E074F82D400000000000408F40000000C0B5742DC0000000E074F82D400C00000013000000920900003C00000006000000020000000000000000408F40000000C0B5742DC0000000E074F82D400000000000408F400000
310
00801E4E30C00000002034242E400C000000130000009A0900003C0000000600000002000000000000E0FF3F8FC0000000C0B5742DC0000000E074F82D40000000E0FF3F8FC0000000E0E2412DC00000002081DE2D400C00000013000000A20900003C00000006000000020000000000000000408F40000000E0E2412DC000
310
00002081DE2D40000000E0FF3F8FC0000000E0E2412DC00000002081DE2D400C00000013000000AA0900003C00000006000000020000000000000000408F40000000E0E2412DC00000002081DE2D400000000000408F40000000C0B5742DC0000000E074F82D400C00000013000000B20900003C0000000600000002000000
310
000000E0FF3F8FC000000020932C2DC0000000A0D9BD2D40000000E0FF3F8FC0000000E0E2412DC00000002081DE2D400C00000013000000BA0900003C0000000600000002000000000000E0FF3F8FC000000020932C2DC0000000A0D9BD2D400000000000408F4000000040932C2DC0000000A0D9BD2D400C000000130000
310
00C20900003C00000006000000020000000000000000408F4000000040932C2DC0000000A0D9BD2D400000000000408F40000000E0E2412DC00000002081DE2D400C00000013000000CA0900003C0000000600000002000000000000E0FF3F8FC000000020932C2DC0000000A0D9BD2D40000000E0FF3F8FC0000000A01825
310
2DC0000000206B972D400C00000013000000D20900003C00000006000000020000000000000000408F40000000C018252DC0000000206B972D40000000E0FF3F8FC0000000A018252DC0000000206B972D400C00000013000000DA0900003C00000006000000020000000000000000408F40000000C018252DC0000000206B
310
972D400000000000408F4000000040932C2DC0000000A0D9BD2D400C00000013000000E20900003C0000000600000002000000000000E0FF3F8FC00000000019252DC000000000D069E53F000000E0FF3F8FC0000000A018252DC0000000206B972D400C00000013000000EA0900003C000000060000000200000000000000
310
00408F400000000019252DC000000000D069E53F000000E0FF3F8FC00000000019252DC000000000D069E53F0C00000013000000F20900003C00000006000000020000000000000000408F40000000C018252DC0000000206B972D400000000000408F400000000019252DC000000000D069E53F0C00000013000000FA0900
310
003C0000000600000002000000000000E0FF3F8FC00000000019252DC000000000D069E53F000000E0FF3F8FC0000000E035052DC000000000305CDB3F0C00000013000000020A00003C00000006000000020000000000000000408F400000000036052DC000000000305CDB3F000000E0FF3F8FC0000000E035052DC00000
310
0000305CDB3F0C000000130000000A0A00003C00000006000000020000000000000000408F400000000019252DC000000000D069E53F0000000000408F400000000036052DC000000000305CDB3F0C00000013000000120A00003C0000000600000002000000000000E0FF3F8FC000000020B9AD2CC00000000000B8CF3F00
310
0000E0FF3F8FC0000000E035052DC000000000305CDB3F0C000000130000001A0A00003C00000006000000020000000000000000408F4000000040B9AD2CC00000000000B8CF3F000000E0FF3F8FC000000020B9AD2CC00000000000B8CF3F0C00000013000000220A00003C00000006000000020000000000000000408F40
310
00000040B9AD2CC00000000000B8CF3F0000000000408F400000000036052DC000000000305CDB3F0C000000130000002A0A00003C0000000600000002000000000000E0FF3F8FC0000000E012352CC000000000608CC63F000000E0FF3F8FC000000020B9AD2CC00000000000B8CF3F0C00000013000000320A00003C0000
310
0006000000020000000000000000408F400000000013352CC000000000608CC63F000000E0FF3F8FC0000000E012352CC000000000608CC63F0C000000130000003A0A00003C00000006000000020000000000000000408F400000000013352CC000000000608CC63F0000000000408F4000000040B9AD2CC00000000000B8
310
CF3F0C00000013000000420A00003C0000000600000002000000000000E0FF3F8FC000000020524922C00000000000002F3F000000E0FF3F8FC0000000E012352CC000000000608CC63F0C000000130000004A0A00003C00000006000000020000000000000000408F400000000013352CC000000000608CC63F0000000000
310
408F4000000040524922C00000000000002F3F0C00000013000000520A00003C00000006000000020000000000000000408F4000000040B9AD2CC00000000000B8CF3F0000000000408F400000008001D821C00000000080D7A23F0C000000130000005A0A00003C00000006000000020000000000000000408F4000000000
310
40E0BBBF00000040046E39400000000000408F40000000003004B3BF000000803B3C36400C00000013000000620A00003C00000006000000020000000000000000408F40000000002852DABF000000002AC839400000000000408F40000000009891D1BF00000040A40D36400C000000130000006A0A00003C000000060000
310
00020000000000000000408F400000000048DBEABF000000E008F439400000000000408F4000000000441CEBBF000000C0778835400C00000013000000720A00003C00000006000000020000000000000000408F400000000029C0F4BF000000C0C9E739400000000000408F4000000000441CEBBF000000C0778835400C00
310
0000130000007A0A00003C00000006000000020000000000000000408F4000000000F003B3BF0000004039AC32400000000000408F400000000080318EBF000000A0ED4F2D400C00000013000000820A00003C00000006000000020000000000000000408F40000000009891D1BF00000080D0DA32400000000000408F4000
310
000000201DADBF00000020272F2D400C000000130000008A0A00003C00000006000000020000000000000000408F40000000C018252DC0000000206B972D400000000000408F40000000A0E8FA21C000000000C4AA2C400C00000013000000920A00003C00000006000000020000000000000000408F4000000040932C2DC0
310
000000A0D9BD2D400000000000408F40000000202BEE21C00000008005DE2C400C000000130000009A0A00003C00000006000000020000000000000000408F40000000E0E2412DC00000002081DE2D400000000000408F40000000E0AEC921C000000080BA032D400C00000013000000A20A00003C00000006000000020000
310
000000000000408F40000000C0B5742DC0000000E074F82D400000000000408F4000000020719721C0000000008F112D400C00000013000000AA0A00003C00000006000000020000000000000000408F4000000020719721C0000000008F112D400000000000408F40000000C01C9F27C000000040323836400C0000001300
310
0000B20A00003C00000006000000020000000000000000408F40000000C0B5742DC0000000E074F82D400000000000408F40000000C0FDA52BC00000004070EE35400C00000013000000BA0A00003C00000006000000020000000000000000408F4000000020719721C0000000008F112D400000000000408F400000000040
310
D2F2BF000000C09D1134400C00000013000000C20A00003C00000006000000020000000000000000408F4000000000441CEBBF00000080FD5F33400000000000408F400000000048DDC8BF000000808F112D400C00000013000000CA0A00003C00000006000000020000000000000000408F4000000060D9AE24C000000080
310
BAA336400000000000408F400000000040D2F2BF00000040D7D634400C00000013000000D20A00003C00000006000000020000000000000000408F400000000040D2F2BF000000C09D1134400000000000408F40000000C01C9F27C000000040323836400C00000013000000DA0A00003C0000000600000002000000000000
310
0000408F40000000801E4E30C00000002034242E400000000000408F4000000040D0B62FC000000080B5F935400C00000013000000E20A00003C00000006000000020000000000000000408F4000000040D0B62FC000000080B5F935400000000000408F4000000000B7D531C0000000A0608B2E400C00000013000000EA0A
310
00003C00000006000000020000000000000000408F40000000C0045833C0000000204F312F400000000000408F400000002047DB31C0000000C0B65936400C00000013000000F20A00003C00000006000000020000000000000000408F400000002047DB31C0000000C0B65936400000000000408F40000000C0A8D234C000
310
0000407C0A30400C00000013000000FA0A00003C00000006000000020000000000000000408F40000000C02C4336C000000080729A30400000000000408F40000000C052C533C000000040F60B37400C00000013000000020B00003C00000006000000020000000000000000408F40000000C052C533C000000040F60B3740
310
0000000000408F400000002054A737C000000000A94731400C000000130000000A0B00003C00000006000000020000000000000000408F40000000E0C9FC38C000000040FE1032400000000000408F40000000C0D18C35C000000040D30B38400C00000013000000120B00003C00000006000000020000000000000000408F
310
40000000C0D18C35C000000040D30B38400000000000408F40000000A07C413AC0000000C039F532400C000000130000001A0B00003C00000006000000020000000000000000408F40000000A025C940C00000004068973E400000000000408F40000000A0D41A3BC0000000A09A843F400C00000013000000220B00003C00
310
000006000000020000000000000000408F40000000A0CDEA40C000000040421140400000000000408F40000000A0D41A3BC0000000A09A843F400C000000130000002A0B00003C00000006000000020000000000000000408F40000000A0D41A3BC0000000A09A843F400000000000408F40000000E0ECFC40C0000000C0ED
310
D840400C00000013000000320B00003C00000006000000020000000000000000408F400000002032F240C000000000796942400000000000408F4000000080D41A3BC0000000002BF742400C000000130000003A0B00003C00000006000000020000000000000000408F40000000A06AD540C0000000C0D22F434000000000
310
00408F4000000080D41A3BC0000000002BF742400C00000013000000420B00003C00000006000000020000000000000000408F40000000E03AA940C00000008040F343400000000000408F4000000060ECDB39C000000000BC3444400C000000130000004A0B00003C00000006000000020000000000000000408F40000000
310
80D41A3BC0000000002BF742400000000000408F400000002065FF40C0000000C067A141400C00000013000000520B00003C00000006000000020000000000000000408F40000000E04C733BC0000000C0DDF233400000000000408F4000000000F12537C000000000AA5239400C000000130000005A0B00003C0000000600
310
0000020000000000000000408F4000000000F12537C000000000AA5239400000000000408F40000000A05E903CC0000000405F0835400C00000013000000620B00003C00000006000000020000000000000000408F40000000E0D7963DC000000060F13336400000000000408F4000000020108638C000000000FCD73A400C
310
000000130000006A0B00003C00000006000000020000000000000000408F4000000020108638C000000000FCD73A400000000000408F40000000201B853EC0000000E0BB7337400C00000013000000720B00003C00000006000000020000000000000000408F4000000040A2593FC000000080B2C538400000000000408F40
310
000000A00BA439C0000000E0AE913C400C000000130000007A0B00003C00000006000000020000000000000000408F40000000A00BA439C0000000E0AE913C400000000000408F40000000408C0940C000000080B8273A400C00000013000000820B00003C00000006000000020000000000000000408F40000000A00BA439
310
C0000000E0AE913C400000000000408F40000000E0295840C00000000094973B400C000000130000008A0B00003C00000006000000020000000000000000408F40000000A00BA439C0000000E0AE913C400000000000408F4000000020299840C000000000EB123D400C00000013000000920B00003C000000060000000200
310
00000000000000408F40000000002004B3BF0000000072A447400000000000408F40000000003029BABF000000002E0246400C000000130000009A0B00003C00000006000000020000000000000000408F40000000009491D1BF00000080BDBB47400000000000408F4000000000A8CAD8BF00000040A8D545400C00000013
310
000000A20B00003C00000006000000020000000000000000408F4000000000421CEBBF0000000054FE47400000000000408F40000000008674E9BF000000805FBE45400C00000013000000AA0B00003C00000006000000020000000000000000408F4000000000421CEBBF0000000054FE47400000000000408F4000000000
310
98D9F3BF000000403AC145400C00000013000000B20B00003C00000006000000020000000000000000408F40000000003FD2F2BF00000040245748400000000000408F4000000060D94028C000000040FD5347400C00000013000000BA0B00003C00000006000000020000000000000000408F4000000040F64735C0000000
310
80279F4A400000000000408F400000008075A931C000000000C26B47400C00000013000000C20B00003C00000006000000020000000000000000408F400000008087C62DC000000040ED8847400000000000408F40000000403ED033C000000080DCDC4A400C00000013000000CA0B00003C00000006000000020000000000
310
000000408F4000000040D1B436C00000000084524A400000000000408F400000008075A931C000000000C26B47400C00000013000000D20B00003C00000006000000020000000000000000408F40000000C0971438C0000000C069F749400000000000408F40000000007B4D34C00000008063F946400C00000013000000DA
310
0B00003C00000006000000020000000000000000408F40000000C0FC6439C0000000C0708E49400000000000408F40000000007B4D34C00000008063F946400C00000013000000E20B00003C00000006000000020000000000000000408F4000000080F6A33AC0000000403C1849400000000000408F40000000404AA836C0
310
00000000673846400C00000013000000EA0B00003C00000006000000020000000000000000408F40000000406FCF3BC000000040929548400000000000408F40000000404AA836C000000000673846400C00000013000000F20B00003C00000006000000020000000000000000408F400000004094E53CC0000000803D0748
310
400000000000408F4000000000019938C0000000407D3445400C00000013000000FA0B00003C00000006000000020000000000000000408F40000000C097E43DC0000000402B6E47400000000000408F4000000000019938C0000000407D3445400C00000013000000020C00003C0000000600000002000000000000000040
310
8F4000000060ECDB39C000000000BC3444400000000000408F4000000080E7CA3EC0000000C04BCB46400C000000130000000A0C00003C00000006000000020000000000000000408F4000000060ECDB39C000000000BC3444400000000000408F40000000E0DC2340C0000000005B6C45400C00000013000000120C00003C
310
00000006000000020000000000000000408F4000000060ECDB39C000000000BC3444400000000000408F40000000C00A973FC0000000C0AA1F46400C000000130000001A0C00003C00000006000000020000000000000000408F4000000060ECDB39C000000000BC3444400000000000408F40000000A0EC6D40C000000000
310
7DB244400C00000013000000220C00003C00000006000000020000000000000000408F400000000019252DC000000000D069E53F0000000000408F40000000602B8021C00000000040B4D83F0C000000130000002A0C00003C00000006000000020000000000000000408F400000000036052DC000000000305CDB3F000000
310
0000408F40000000A0F49421C000000000602BC53F0C00000013000000320C00003C00000006000000020000000000000000408F40000000009891D1BF00000080D0DA32400000000000408F4000000000B0B1BEBF0000008040192D400C000000130000003A0C00003C00000006000000020000000000000000408F400000
310
008048802EC000000080F1384B400000000000408F4000000060D94028C000000040FD5347400C00000013000000420C00003C00000006000000020000000000000000408F4000000060D94028C000000040FD5347400000000000408F40000000003FD2F2BF00000000C1B948400C000000130000004A0C00003C00000006
310
000000020000000000000000408F400000008048802EC000000080F1384B400000000000408F40000000003FD2F2BF00000000C1B948400C00000013000000520C00003C00000006000000020000000000000000408F400000008087C62DC000000040ED8847400000000000408F40000000801A5032C0000000003D0B4B40
310
0C000000130000005A0C00003C00000006000000020000000000000000408F400000008087C62DC000000040ED8847400000000000408F4000000040E7C930C000000040FF294B400C00000013000000620C00003C00000006000000020000000000000000408F40000000000000093F000000002C7E4B400000000000408F
310
40000000002004B3BF00000040736C49400C000000130000006A0C00003C00000006000000020000000000000000408F40000000000000093F000000002C7E4B400000000000408F40000000009491D1BF000000C0275549400C00000013000000720C00003C00000006000000020000000000000000408F40000000804880
310
2EC000000080F1384B400000000000408F4000000000421CEBBF00000040911249400C000000130000007A0C00003C0000000600000002000000000000E0FF3F8FC00000006001D821C00000000080D7A23F000000E0FF3F8FC000000020B9AD2CC00000000000B8CF3F0C00000013000000820C00003C0000000600000002
310
000000000000E0FF3F8FC00000000040E0BBBF00000040046E3940000000E0FF3F8FC0000000003004B3BF000000803B3C36400C000000130000008A0C00003C0000000600000002000000000000E0FF3F8FC0000000009491D1BF00000040A40D3640000000E0FF3F8FC0000000002852DABF000000002AC839400C000000
310
13000000920C00003C0000000600000002000000000000E0FF3F8FC000000000441CEBBF000000C077883540000000E0FF3F8FC00000000048DBEABF000000E008F439400C000000130000009A0C00003C0000000600000002000000000000E0FF3F8FC000000000441CEBBF000000C077883540000000E0FF3F8FC0000000
310
0029C0F4BF000000C0C9E739400C00000013000000A20C00003C0000000600000002000000000000E0FF3F8FC00000000080318EBF000000A0ED4F2D40000000E0FF3F8FC000000000F003B3BF0000004039AC32400C00000013000000AA0C00003C0000000600000002000000000000E0FF3F8FC0000000009891D1BF0000
310
0080D0DA3240000000E0FF3F8FC000000000201DADBF00000020272F2D400C00000013000000B20C00003C0000000600000002000000000000E0FF3F8FC0000000202BEE21C00000008005DE2C40000000E0FF3F8FC000000020932C2DC0000000A0D9BD2D400C00000013000000BA0C00003C000000060000000200000000
310
0000E0FF3F8FC0000000A0E8FA21C000000000C4AA2C40000000E0FF3F8FC0000000A018252DC0000000206B972D400C00000013000000C20C00003C0000000600000002000000000000E0FF3F8FC0000000E0AEC921C000000080BA032D40000000E0FF3F8FC0000000E0E2412DC00000002081DE2D400C00000013000000
310
CA0C00003C0000000600000002000000000000E0FF3F8FC000000020719721C0000000008F112D40000000E0FF3F8FC0000000C0B5742DC0000000E074F82D400C00000013000000D20C00003C0000000600000002000000000000E0FF3F8FC0000000C0B5742DC0000000E074F82D40000000E0FF3F8FC0000000A0FDA52B
310
C00000004070EE35400C00000013000000DA0C00003C0000000600000002000000000000E0FF3F8FC000000020719721C0000000008F112D40000000E0FF3F8FC0000000A01C9F27C000000040323836400C00000013000000E20C00003C0000000600000002000000000000E0FF3F8FC00000000048DDC8BF000000A08F11
310
2D40000000E0FF3F8FC000000000441CEBBF00000080FD5F33400C00000013000000EA0C00003C0000000600000002000000000000E0FF3F8FC000000020719721C0000000008F112D40000000E0FF3F8FC00000000040D2F2BF000000C09D1134400C00000013000000F20C00003C0000000600000002000000000000E0FF
310
3F8FC000000060D9AE24C000000080BAA33640000000E0FF3F8FC00000000040D2F2BF00000040D7D634400C00000013000000FA0C00003C0000000600000002000000000000E0FF3F8FC0000000A01C9F27C00000004032383640000000E0FF3F8FC00000000040D2F2BF000000C09D1134400C00000013000000020D0000
310
3C0000000600000002000000000000E0FF3F8FC000000040D0B62FC000000080B5F93540000000E0FF3F8FC0000000A01E4E30C00000002034242E400C000000130000000A0D00003C0000000600000002000000000000E0FF3F8FC000000040D0B62FC000000080B5F93540000000E0FF3F8FC000000020B7D531C0000000
310
A0608B2E400C00000013000000120D00003C0000000600000002000000000000E0FF3F8FC0000000E0045833C0000000204F312F40000000E0FF3F8FC00000002047DB31C0000000C0B65936400C000000130000001A0D00003C0000000600000002000000000000E0FF3F8FC0000000E0A8D234C0000000407C0A30400000
310
00E0FF3F8FC00000002047DB31C0000000C0B65936400C00000013000000220D00003C0000000600000002000000000000E0FF3F8FC0000000E02C4336C000000080729A3040000000E0FF3F8FC0000000E052C533C000000040F60B37400C000000130000002A0D00003C0000000600000002000000000000E0FF3F8FC000
310
0000E052C533C000000040F60B3740000000E0FF3F8FC00000002054A737C000000000A94731400C00000013000000320D00003C0000000600000002000000000000E0FF3F8FC0000000E0D18C35C000000040D30B3840000000E0FF3F8FC0000000E0C9FC38C000000040FE1032400C000000130000003A0D00003C000000
310
0600000002000000000000E0FF3F8FC0000000E0D18C35C000000040D30B3840000000E0FF3F8FC0000000A07C413AC0000000C039F532400C00000013000000420D00003C0000000600000002000000000000E0FF3F8FC0000000A0CDEA40C00000004042114040000000E0FF3F8FC0000000A0D41A3BC0000000A09A843F
310
400C000000130000004A0D00003C0000000600000002000000000000E0FF3F8FC0000000A025C940C00000004068973E40000000E0FF3F8FC0000000A0D41A3BC0000000A09A843F400C00000013000000520D00003C0000000600000002000000000000E0FF3F8FC0000000E0ECFC40C0000000C0EDD84040000000E0FF3F
310
8FC0000000A0D41A3BC0000000A09A843F400C000000130000005A0D00003C0000000600000002000000000000E0FF3F8FC0000000A06AD540C0000000C0D22F4340000000E0FF3F8FC0000000A0D41A3BC0000000002BF742400C00000013000000620D00003C0000000600000002000000000000E0FF3F8FC00000002032
310
F240C00000000079694240000000E0FF3F8FC0000000A0D41A3BC0000000002BF742400C000000130000006A0D00003C0000000600000002000000000000E0FF3F8FC0000000E03AA940C00000008040F34340000000E0FF3F8FC000000060ECDB39C000000000BC3444400C00000013000000720D00003C00000006000000
310
02000000000000E0FF3F8FC00000002065FF40C0000000C067A14140000000E0FF3F8FC0000000A0D41A3BC0000000002BF742400C000000130000007A0D00003C0000000600000002000000000000E0FF3F8FC0000000E04C733BC0000000C0DDF23340000000E0FF3F8FC000000020F12537C000000000AA5239400C0000
310
0013000000820D00003C0000000600000002000000000000E0FF3F8FC0000000A05E903CC0000000405F083540000000E0FF3F8FC000000020F12537C000000000AA5239400C000000130000008A0D00003C0000000600000002000000000000E0FF3F8FC0000000E0D7963DC000000060F1333640000000E0FF3F8FC00000
310
0020108638C000000000FCD73A400C00000013000000920D00003C0000000600000002000000000000E0FF3F8FC0000000201B853EC0000000E0BB733740000000E0FF3F8FC000000020108638C000000000FCD73A400C000000130000009A0D00003C0000000600000002000000000000E0FF3F8FC000000060A2593FC000
310
000080B2C53840000000E0FF3F8FC0000000A00BA439C0000000E0AE913C400C00000013000000A20D00003C0000000600000002000000000000E0FF3F8FC0000000208C0940C000000080B8273A40000000E0FF3F8FC0000000A00BA439C0000000E0AE913C400C00000013000000AA0D00003C0000000600000002000000
310
000000E0FF3F8FC000000020299840C000000000EB123D40000000E0FF3F8FC0000000A00BA439C0000000E0AE913C400C00000013000000B20D00003C0000000600000002000000000000E0FF3F8FC0000000E0295840C00000000094973B40000000E0FF3F8FC0000000A00BA439C0000000E0AE913C400C000000130000
310
00BA0D00003C0000000600000002000000000000E0FF3F8FC0000000002004B3BF0000000072A44740000000E0FF3F8FC0000000002029BABF000000002E0246400C00000013000000C20D00003C0000000600000002000000000000E0FF3F8FC0000000009491D1BF00000080BDBB4740000000E0FF3F8FC000000000A8CA
310
D8BF00000040A8D545400C00000013000000CA0D00003C0000000600000002000000000000E0FF3F8FC000000000421CEBBF0000000054FE4740000000E0FF3F8FC0000000008474E9BF000000805FBE45400C00000013000000D20D00003C0000000600000002000000000000E0FF3F8FC000000000421CEBBF0000000054
310
FE4740000000E0FF3F8FC00000000098D9F3BF000000403AC145400C00000013000000DA0D00003C0000000600000002000000000000E0FF3F8FC0000000003FD2F2BF0000004024574840000000E0FF3F8FC000000060D94028C000000040FD5347400C00000013000000E20D00003C0000000600000002000000000000E0
310
FF3F8FC00000006087C62DC000000040ED884740000000E0FF3F8FC0000000603ED033C000000080DCDC4A400C00000013000000EA0D00003C0000000600000002000000000000E0FF3F8FC000000060F64735C000000080279F4A40000000E0FF3F8FC00000008075A931C000000000C26B47400C00000013000000F20D00
310
003C0000000600000002000000000000E0FF3F8FC000000060D1B436C00000000084524A40000000E0FF3F8FC00000008075A931C000000000C26B47400C00000013000000FA0D00003C0000000600000002000000000000E0FF3F8FC0000000E0971438C0000000C069F74940000000E0FF3F8FC0000000207B4D34C00000
310
008063F946400C00000013000000020E00003C0000000600000002000000000000E0FF3F8FC0000000E0FC6439C0000000C0708E4940000000E0FF3F8FC0000000207B4D34C00000008063F946400C000000130000000A0E00003C0000000600000002000000000000E0FF3F8FC0000000A0F6A33AC0000000403C18494000
310
0000E0FF3F8FC0000000604AA836C000000000673846400C00000013000000120E00003C0000000600000002000000000000E0FF3F8FC0000000604AA836C00000000067384640000000E0FF3F8FC0000000606FCF3BC000000040929548400C000000130000001A0E00003C0000000600000002000000000000E0FF3F8FC0
310
0000006094E53CC0000000803D074840000000E0FF3F8FC000000000019938C0000000407D3445400C00000013000000220E00003C0000000600000002000000000000E0FF3F8FC0000000E097E43DC0000000402B6E4740000000E0FF3F8FC000000000019938C0000000407D3445400C000000130000002A0E00003C0000
310
000600000002000000000000E0FF3F8FC0000000A0E7CA3EC0000000C04BCB4640000000E0FF3F8FC000000060ECDB39C000000000BC3444400C00000013000000320E00003C0000000600000002000000000000E0FF3F8FC000000060ECDB39C000000000BC344440000000E0FF3F8FC0000000E00A973FC0000000C0AA1F
310
46400C000000130000003A0E00003C0000000600000002000000000000E0FF3F8FC0000000E0DC2340C0000000005B6C4540000000E0FF3F8FC000000060ECDB39C000000000BC3444400C00000013000000420E00003C0000000600000002000000000000E0FF3F8FC0000000A0EC6D40C0000000007DB24440000000E0FF
310
3F8FC000000060ECDB39C000000000BC3444400C000000130000004A0E00003C0000000600000002000000000000E0FF3F8FC00000000019252DC000000000D069E53F000000E0FF3F8FC0000000602B8021C00000000040B4D83F0C00000013000000520E00003C0000000600000002000000000000E0FF3F8FC0000000E0
310
35052DC000000000305CDB3F000000E0FF3F8FC0000000A0F49421C000000000602BC53F0C000000130000005A0E00003C0000000600000002000000000000E0FF3F8FC0000000009891D1BF00000080D0DA3240000000E0FF3F8FC000000000B0B1BEBF000000A040192D400C00000013000000620E00003C000000060000
310
0002000000000000E0FF3F8FC0000000003FD2F2BF00000000C1B94840000000E0FF3F8FC00000008048802EC000000080F1384B400C000000130000006A0E00003C0000000600000002000000000000E0FF3F8FC0000000003FD2F2BF00000000C1B94840000000E0FF3F8FC000000060D94028C000000040FD5347400C00
310
000013000000720E00003C0000000600000002000000000000E0FF3F8FC00000008048802EC000000080F1384B40000000E0FF3F8FC000000060D94028C000000040FD5347400C000000130000007A0E00003C0000000600000002000000000000E0FF3F8FC000000060E7C930C000000040FF294B40000000E0FF3F8FC000
310
00006087C62DC000000040ED8847400C00000013000000820E00003C0000000600000002000000000000E0FF3F8FC0000000801A5032C0000000003D0B4B40000000E0FF3F8FC00000006087C62DC000000040ED8847400C000000130000008A0E00003C0000000600000002000000000000E0FF3F8FC0000000000000093F
310
000000002C7E4B40000000E0FF3F8FC0000000002004B3BF00000040736C49400C00000013000000920E00003C0000000600000002000000000000E0FF3F8FC0000000000000093F000000002C7E4B40000000E0FF3F8FC0000000009491D1BF000000C0275549400C000000130000009A0E00003C00000006000000020000
310
00000000E0FF3F8FC00000008048802EC000000080F1384B40000000E0FF3F8FC000000000421CEBBF0000004091124940
100
AcDbSubDMesh
 71
     2
 72
     0
 91
        0
 92
      220
 10
-999.9999389648436
 20
-9.143204689025878
 30
0.0002365112304688
 10
-999.9999389648436
 20
-19.34382438659668
 30
15.59630680084228
 10
-999.9999389648436
 20
-22.26240348815918
 30
16.60330963134765
 10
-999.9999389648436
 20
-27.45039176940918
 30
19.94869613647461
 10
-999.9999389648436
 20
-29.58923149108887
 30
22.20290184020996
 10
-999.9999389648436
 20
-31.35013389587403
 30
24.77225494384766
 10
-999.9999389648436
 20
-32.68877792358399
 30
27.59210205078125
 10
-999.9999389648436
 20
-33.89215469360352
 30
36.82400512695313
 10
-999.9999389648436
 20
-33.32210922241211
 30
39.90040588378906
 10
-999.9999389648436
 20
-32.85878372192383
 30
41.39443969726563
 10
-999.9999389648436
 20
-32.28017807006836
 30
42.84652709960937
 10
-999.9999389648436
 20
-30.7925968170166
 30
45.58824920654297
 10
-999.9999389648436
 20
-29.89294242858887
 30
46.8606948852539
 10
-999.9999389648436
 20
-26.64048194885254
 30
50.18933868408203
 10
-999.9999389648436
 20
-25.39448356628418
 30
51.11281585693359
 10
-999.9999389648436
 20
-24.08044242858887
 30
51.93291473388672
 10
-999.9999389648436
 20
-18.31290435791015
 30
54.08779907226563
 10
-999.9999389648436
 20
-16.78868675231933
 30
54.3281021118164
 10
-999.9999389648436
 20
0.0000476837158203
 30
54.9857177734375
 10
-999.9999389648436
 20
-0.1942529678344726
 30
14.53429889678955
 10
-999.9999389648436
 20
-8.795784950256347
 30
14.53429412841797
 10
-999.9999389648436
 20
-8.990056037902832
 30
14.33352661132812
 10
-999.9999389648436
 20
-0.274510383605957
 30
50.66527557373047
 10
-999.9999389648436
 20
-1.176329612731933
 30
49.45120239257812
 10
-999.9999389648436
 20
-1.176329612731933
 30
48.68079376220703
 10
-999.9999389648436
 20
-0.8471994400024414
 30
47.9869384765625
 10
-999.9999389648436
 20
-0.274510383605957
 30
47.46672058105469
 10
-999.9999389648436
 20
-0.8472003936767578
 30
21.53307723999024
 10
-999.9999389648436
 20
-0.2745113372802734
 30
18.85474395751953
 10
-999.9999389648436
 20
-10.34150218963623
 30
22.63956451416015
 10
-999.9999389648436
 20
-1.296914100646972
 30
25.90542221069336
 10
-999.9999389648436
 20
0.0000438690185547
 30
44.45758819580078
 10
-999.9999389648436
 20
-0.7954730987548829
 30
43.48728942871093
 10
-999.9999389648436
 20
0.0000438690185547
 30
24.97581291198731
 10
-999.9999389648436
 20
-8.893912315368652
 30
14.50728225708008
 10
-999.9999389648436
 20
-8.96517276763916
 30
14.43363571166992
 10
-999.9999389648436
 20
-14.58705997467041
 30
14.87080097198486
 10
-999.9999389648436
 20
-14.72794914245605
 30
14.98526668548584
 10
-999.9999389648436
 20
-21.55007743835449
 30
24.04619216918945
 10
-999.9999389648436
 20
-19.77079582214355
 30
23.04672622680664
 10
-999.9999389648436
 20
-15.85705757141113
 30
21.97542572021484
 10
-999.9999389648436
 20
-11.81076526641845
 30
22.21951675415039
 10
-999.9999389648436
 20
-25.85907554626465
 30
40.4119873046875
 10
-999.9999389648436
 20
-14.88775157928467
 30
47.06974029541015
 10
-999.9999389648436
 20
-22.65738487243652
 30
44.44064331054687
 10
-999.9999389648436
 20
0.0000438690185547
 30
47.02248382568359
 10
-999.9999389648436
 20
-0.0742816925048828
 30
47.28472900390625
 10
-999.9999389648436
 20
-0.0742816925048828
 30
50.8472671508789
 10
-999.9999389648436
 20
0.0000438690185547
 30
51.10951995849609
 10
-999.9999389648436
 20
-0.0568628311157227
 30
14.59209537506103
 10
-999.9999389648436
 20
-0.0147428512573242
 30
14.65610980987549
 10
-999.9999389648436
 20
-0.0742788314819336
 30
18.67274856567383
 10
-999.9999389648436
 20
0.0000438690185547
 30
22.49753189086914
 10
-999.9999389648436
 20
-8.92188549041748
 30
0.0368003845214844
 10
1000.0
 20
-14.10366058349609
 30
0.1761589050292969
 10
1000.0
 20
-14.33930397033691
 30
0.247802734375
 10
1000.0
 20
-8.921886444091796
 30
0.0368003845214844
 10
1000.0
 20
-9.143205642700195
 30
0.0002365112304688
 10
1000.0
 20
-0.1088905334472656
 30
25.42975234985352
 10
1000.0
 20
0.0000438690185547
 30
24.97581291198731
 10
1000.0
 20
0.0000438690185547
 30
22.49753189086914
 10
1000.0
 20
-0.0742826461791992
 30
22.23528289794922
 10
1000.0
 20
-0.4112644195556641
 30
25.78189086914063
 10
1000.0
 20
-0.2745113372802734
 30
22.05328750610352
 10
1000.0
 20
-0.8392677307128906
 30
25.95326042175293
 10
1000.0
 20
-1.296914100646972
 30
25.90542221069336
 10
1000.0
 20
-0.8472003936767578
 30
21.53307723999024
 10
1000.0
 20
-0.0742788314819336
 30
18.67274856567383
 10
1000.0
 20
0.0000467300415039
 30
18.4104995727539
 10
1000.0
 20
0.0000467300415039
 30
14.73162174224853
 10
1000.0
 20
-0.0147428512573242
 30
14.65610980987549
 10
1000.0
 20
-0.2745113372802734
 30
18.85474395751953
 10
1000.0
 20
-0.0568628311157227
 30
14.59209537506103
 10
1000.0
 20
-0.8472003936767578
 30
19.37496185302734
 10
1000.0
 20
-0.119898796081543
 30
14.54932022094726
 10
1000.0
 20
-0.1942529678344726
 30
14.53429794311523
 10
1000.0
 20
-14.57245445251465
 30
14.79573917388916
 10
1000.0
 20
-14.58706092834473
 30
14.87080097198486
 10
1000.0
 20
-8.96517276763916
 30
14.43363571166992
 10
1000.0
 20
-8.990056037902832
 30
14.33352661132812
 10
1000.0
 20
-14.62868404388428
 30
14.93457889556885
 10
1000.0
 20
-8.893912315368652
 30
14.50728225708008
 10
1000.0
 20
-14.72794914245605
 30
14.98526668548584
 10
1000.0
 20
-8.795784950256347
 30
14.53429412841797
 10
1000.0
 20
-13.8242015838623
 30
21.93140029907227
 10
1000.0
 20
-1.17633056640625
 30
20.06881332397461
 10
1000.0
 20
-10.34150218963623
 30
22.63956451416015
 10
1000.0
 20
-11.81076622009277
 30
22.21951675415039
 10
1000.0
 20
-1.17633056640625
 30
20.83922195434571
 10
1000.0
 20
-16.3051528930664
 30
15.07071018218994
 10
1000.0
 20
-15.85705757141113
 30
21.97542572021484
 10
1000.0
 20
-17.83482360839844
 30
15.27222156524658
 10
1000.0
 20
-19.34382247924805
 30
15.59630680084228
 10
1000.0
 20
-17.85655403137207
 30
22.35044479370117
 10
1000.0
 20
-20.8228874206543
 30
16.04095840454101
 10
1000.0
 20
-22.26240158081055
 30
16.60330963134765
 10
1000.0
 20
-19.77079391479492
 30
23.04672622680664
 10
1000.0
 20
-23.65362739562988
 30
17.27992248535156
 10
1000.0
 20
-24.98745536804199
 30
18.06637954711914
 10
1000.0
 20
-21.55007553100586
 30
24.04619216918945
 10
1000.0
 20
-26.25580787658691
 30
18.95791244506836
 10
1000.0
 20
-33.57146072387696
 30
30.59143447875977
 10
1000.0
 20
-33.83440017700195
 30
32.13483428955078
 10
1000.0
 20
-27.10480690002441
 30
31.51798439025879
 10
1000.0
 20
-33.97597885131836
 30
33.69475555419922
 10
1000.0
 20
-33.89215469360352
 30
36.82400512695313
 10
1000.0
 20
-33.66731643676758
 30
38.37361907958984
 10
1000.0
 20
-27.10480499267578
 30
37.93099975585938
 10
1000.0
 20
-33.32210922241211
 30
39.90040588378906
 10
1000.0
 20
-25.85907554626465
 30
40.4119873046875
 10
1000.0
 20
-33.99527359008789
 30
35.26097869873047
 10
1000.0
 20
-27.45039176940918
 30
19.94869613647461
 10
1000.0
 20
-23.14820861816406
 30
25.32290649414063
 10
1000.0
 20
-28.56394386291504
 30
21.03270339965821
 10
1000.0
 20
-29.58923149108887
 30
22.20290184020996
 10
1000.0
 20
-24.52368354797363
 30
26.84368896484375
 10
1000.0
 20
-30.51994514465332
 30
23.45208549499512
 10
1000.0
 20
-31.35013198852539
 30
24.77225494384766
 10
1000.0
 20
-25.64080238342285
 30
28.56907463073731
 10
1000.0
 20
-32.07459259033203
 30
26.15515899658203
 10
1000.0
 20
-32.68877792358399
 30
27.59210205078125
 10
1000.0
 20
-33.18875503540039
 30
29.07389831542969
 10
1000.0
 20
-0.0742816925048828
 30
47.28472900390625
 10
1000.0
 20
0.0000438690185547
 30
47.02248382568359
 10
1000.0
 20
0.0000438690185547
 30
44.45758819580078
 10
1000.0
 20
-0.1021909713745117
 30
44.01702880859375
 10
1000.0
 20
-0.274510383605957
 30
47.46672058105469
 10
1000.0
 20
-0.387369155883789
 30
43.66919708251953
 10
1000.0
 20
-0.8471994400024414
 30
47.9869384765625
 10
1000.0
 20
-0.7954740524291993
 30
43.48728942871093
 10
1000.0
 20
-1.240623474121093
 30
43.50959014892578
 10
1000.0
 20
-15.25055313110351
 30
54.44486999511719
 10
1000.0
 20
0.0000476837158203
 30
54.9857177734375
 10
1000.0
 20
0.0000438690185547
 30
51.10951995849609
 10
1000.0
 20
-1.176329612731933
 30
48.68079376220703
 10
1000.0
 20
-12.12665843963623
 30
46.65616607666016
 10
1000.0
 20
-1.176329612731933
 30
49.45120239257812
 10
1000.0
 20
-14.88775253295898
 30
47.06974029541015
 10
1000.0
 20
-16.7886848449707
 30
54.3281021118164
 10
1000.0
 20
-0.0742816925048828
 30
50.8472671508789
 10
1000.0
 20
-18.31290435791015
 30
54.08779907226563
 10
1000.0
 20
-0.274510383605957
 30
50.66527557373047
 10
1000.0
 20
-19.81344985961914
 30
53.72547912597656
 10
1000.0
 20
-21.28110122680664
 30
53.24339294433594
 10
1000.0
 20
-0.8471994400024414
 30
50.14505767822265
 10
1000.0
 20
-22.70631790161133
 30
52.6446533203125
 10
1000.0
 20
-17.66194915771484
 30
46.84185791015624
 10
1000.0
 20
-24.08044052124024
 30
51.93291473388672
 10
1000.0
 20
-25.39448165893555
 30
51.11281585693359
 10
1000.0
 20
-20.30265808105469
 30
45.94834899902344
 10
1000.0
 20
-26.64048004150391
 30
50.18933868408203
 10
1000.0
 20
-27.81029129028321
 30
49.16852569580078
 10
1000.0
 20
-22.65738296508789
 30
44.44064331054687
 10
1000.0
 20
-28.89679336547852
 30
48.05656433105468
 10
1000.0
 20
-29.89294052124023
 30
46.8606948852539
 10
1000.0
 20
-24.59767150878906
 30
42.41007232666015
 10
1000.0
 20
-30.79259490966797
 30
45.58824920654297
 10
1000.0
 20
-32.28017807006836
 30
42.84652709960937
 10
1000.0
 20
-31.59000778198242
 30
44.24739837646484
 10
1000.0
 20
-32.85878372192383
 30
41.39443969726563
 10
1000.0
 20
-14.57245635986328
 30
0.6691665649414063
 10
1000.0
 20
-8.750330924987792
 30
0.3860015869140625
 10
1000.0
 20
-14.51017761230469
 30
0.4275016784667969
 10
1000.0
 20
-8.790928840637207
 30
0.1653861999511719
 10
-999.9999389648436
 20
-14.10365962982178
 30
0.1761589050292969
 10
-999.9999389648436
 20
-14.57245635986328
 30
0.6691665649414063
 10
-999.9999389648436
 20
-14.57245349884033
 30
14.79573917388916
 10
-999.9999389648436
 20
-16.30515480041504
 30
15.07071018218994
 10
-999.9999389648436
 20
-17.83482551574707
 30
15.27222156524658
 10
-999.9999389648436
 20
-20.82288932800293
 30
16.04095840454101
 10
-999.9999389648436
 20
-23.65362739562988
 30
17.27992248535156
 10
-999.9999389648436
 20
-24.98745536804199
 30
18.06637954711914
 10
-999.9999389648436
 20
-26.25580787658691
 30
18.95791244506836
 10
-999.9999389648436
 20
-28.56394386291504
 30
21.03270339965821
 10
-999.9999389648436
 20
-30.51994514465332
 30
23.45208549499512
 10
-999.9999389648436
 20
-32.07458877563477
 30
26.15515899658203
 10
-999.9999389648436
 20
-33.18875503540039
 30
29.07389831542969
 10
-999.9999389648436
 20
-33.57146072387696
 30
30.59143447875977
 10
-999.9999389648436
 20
-33.83440017700195
 30
32.13483428955078
 10
-999.9999389648436
 20
-33.97597885131836
 30
33.69475555419922
 10
-999.9999389648436
 20
-33.99527359008789
 30
35.26097869873047
 10
-999.9999389648436
 20
-33.66731643676758
 30
38.37361907958984
 10
-999.9999389648436
 20
-31.59000968933106
 30
44.24739837646484
 10
-999.9999389648436
 20
-28.89679527282715
 30
48.05656433105468
 10
-999.9999389648436
 20
-27.81029319763184
 30
49.16852569580078
 10
-999.9999389648436
 20
-22.70631980895996
 30
52.6446533203125
 10
-999.9999389648436
 20
-21.28110313415527
 30
53.24339294433594
 10
-999.9999389648436
 20
-19.81345176696777
 30
53.72547912597656
 10
-999.9999389648436
 20
-15.25055313110351
 30
54.44486999511719
 10
-999.9999389648436
 20
-0.8471994400024414
 30
50.14505767822265
 10
-999.9999389648436
 20
-0.274510383605957
 30
22.05328750610352
 10
-999.9999389648436
 20
-1.17633056640625
 30
20.83922195434571
 10
-999.9999389648436
 20
-1.17633056640625
 30
20.06881332397461
 10
-999.9999389648436
 20
-0.8472003936767578
 30
19.37496185302734
 10
-999.9999389648436
 20
-1.240623474121093
 30
43.50959014892578
 10
-999.9999389648436
 20
-12.12665843963623
 30
46.65616607666016
 10
-999.9999389648436
 20
-0.1021900177001953
 30
44.01702880859375
 10
-999.9999389648436
 20
-0.387369155883789
 30
43.66919708251953
 10
-999.9999389648436
 20
-0.8392677307128906
 30
25.95326042175293
 10
-999.9999389648436
 20
-0.4112644195556641
 30
25.78189086914063
 10
-999.9999389648436
 20
-0.1088905334472656
 30
25.42975234985352
 10
-999.9999389648436
 20
-14.3393030166626
 30
0.247802734375
 10
-999.9999389648436
 20
-14.51017665863037
 30
0.4275016784667969
 10
-999.9999389648436
 20
-14.62868404388428
 30
14.93457889556885
 10
-999.9999389648436
 20
-25.64080238342285
 30
28.56907463073731
 10
-999.9999389648436
 20
-24.52368354797363
 30
26.84368896484375
 10
-999.9999389648436
 20
-23.1482105255127
 30
25.32290649414063
 10
-999.9999389648436
 20
-17.85655403137207
 30
22.35044479370117
 10
-999.9999389648436
 20
-13.82420063018799
 30
21.93140029907227
 10
-999.9999389648436
 20
-24.59767150878906
 30
42.41007232666015
 10
-999.9999389648436
 20
-17.66194915771484
 30
46.84185791015624
 10
-999.9999389648436
 20
-20.30265998840332
 30
45.94834899902344
 10
-999.9999389648436
 20
-27.10480690002441
 30
31.51798439025879
 10
-999.9999389648436
 20
-27.10480690002441
 30
37.93099975585938
 10
-999.9999389648436
 20
-0.119898796081543
 30
14.54932117462158
 10
-999.9999389648436
 20
0.0000467300415039
 30
14.73162174224853
 10
-999.9999389648436
 20
0.0000467300415039
 30
18.4104995727539
 10
-999.9999389648436
 20
-0.0742826461791992
 30
22.23528289794922
 10
-999.9999389648436
 20
-8.750330924987792
 30
0.3860015869140625
 10
-999.9999389648436
 20
-8.790928840637207
 30
0.1653861999511719
 93
     1186
 90
        4
 90
        0
 90
       53
 90
       56
 90
       57
 90
        4
 90
       53
 90
      219
 90
      163
 90
       56
 90
        4
 90
      219
 90
      218
 90
      161
 90
      163
 90
        4
 90
      218
 90
       21
 90
       79
 90
      161
 90
        4
 90
       21
 90
       35
 90
       78
 90
       79
 90
        4
 90
       35
 90
       34
 90
       81
 90
       78
 90
        4
 90
       34
 90
       20
 90
       83
 90
       81
 90
        4
 90
       20
 90
       19
 90
       75
 90
       83
 90
        4
 90
       19
 90
      214
 90
       74
 90
       75
 90
        4
 90
      214
 90
       49
 90
       72
 90
       74
 90
        4
 90
       49
 90
       50
 90
       70
 90
       72
 90
        4
 90
       50
 90
      215
 90
       69
 90
       70
 90
        4
 90
      215
 90
      216
 90
       68
 90
       69
 90
        4
 90
      216
 90
       51
 90
       67
 90
       68
 90
        4
 90
       51
 90
       28
 90
       71
 90
       67
 90
        4
 90
       28
 90
      193
 90
       73
 90
       71
 90
        4
 90
      193
 90
      192
 90
       85
 90
       73
 90
        4
 90
      192
 90
      191
 90
       88
 90
       85
 90
        4
 90
      191
 90
       27
 90
       66
 90
       88
 90
        4
 90
       27
 90
      190
 90
       63
 90
       66
 90
        4
 90
      190
 90
      217
 90
       61
 90
       63
 90
        4
 90
      217
 90
       52
 90
       60
 90
       61
 90
        4
 90
       52
 90
       33
 90
       59
 90
       60
 90
        4
 90
       33
 90
      200
 90
       58
 90
       59
 90
        4
 90
      200
 90
      199
 90
       62
 90
       58
 90
        4
 90
      199
 90
      198
 90
       64
 90
       62
 90
        4
 90
      198
 90
       30
 90
       65
 90
       64
 90
        4
 90
       30
 90
       29
 90
       86
 90
       65
 90
        4
 90
       29
 90
       41
 90
       87
 90
       86
 90
        4
 90
       41
 90
      208
 90
       84
 90
       87
 90
        4
 90
      208
 90
       40
 90
       90
 90
       84
 90
        4
 90
       40
 90
      207
 90
       93
 90
       90
 90
        4
 90
      207
 90
       39
 90
       96
 90
       93
 90
        4
 90
       39
 90
       38
 90
       99
 90
       96
 90
        4
 90
       38
 90
      206
 90
      112
 90
       99
 90
        4
 90
      206
 90
      205
 90
      115
 90
      112
 90
        4
 90
      205
 90
      204
 90
      118
 90
      115
 90
        4
 90
      204
 90
      212
 90
      103
 90
      118
 90
        4
 90
      212
 90
      213
 90
      107
 90
      103
 90
        4
 90
      213
 90
       42
 90
      109
 90
      107
 90
        4
 90
       42
 90
      209
 90
      155
 90
      109
 90
        4
 90
      209
 90
       44
 90
      152
 90
      155
 90
        4
 90
       44
 90
      211
 90
      149
 90
      152
 90
        4
 90
      211
 90
      210
 90
      146
 90
      149
 90
        4
 90
      210
 90
       43
 90
      137
 90
      146
 90
        4
 90
       43
 90
      195
 90
      135
 90
      137
 90
        4
 90
      195
 90
      194
 90
      130
 90
      135
 90
        4
 90
      194
 90
       32
 90
      129
 90
      130
 90
        4
 90
       32
 90
      197
 90
      127
 90
      129
 90
        4
 90
      197
 90
      196
 90
      125
 90
      127
 90
        4
 90
      196
 90
       31
 90
      124
 90
      125
 90
        4
 90
       31
 90
       45
 90
      123
 90
      124
 90
        4
 90
       45
 90
       46
 90
      122
 90
      123
 90
        4
 90
       46
 90
       26
 90
      126
 90
      122
 90
        4
 90
       26
 90
       25
 90
      128
 90
      126
 90
        4
 90
       25
 90
       24
 90
      134
 90
      128
 90
        4
 90
       24
 90
       23
 90
      136
 90
      134
 90
        4
 90
       23
 90
      189
 90
      144
 90
      136
 90
        4
 90
      189
 90
       22
 90
      141
 90
      144
 90
        4
 90
       22
 90
       47
 90
      139
 90
      141
 90
        4
 90
       47
 90
       48
 90
      133
 90
      139
 90
        4
 90
       48
 90
       18
 90
      132
 90
      133
 90
        4
 90
       18
 90
      188
 90
      131
 90
      132
 90
        4
 90
      188
 90
       17
 90
      138
 90
      131
 90
        4
 90
       17
 90
       16
 90
      140
 90
      138
 90
        4
 90
       16
 90
      187
 90
      142
 90
      140
 90
        4
 90
      187
 90
      186
 90
      143
 90
      142
 90
        4
 90
      186
 90
      185
 90
      145
 90
      143
 90
        4
 90
      185
 90
       15
 90
      147
 90
      145
 90
        4
 90
       15
 90
       14
 90
      148
 90
      147
 90
        4
 90
       14
 90
       13
 90
      150
 90
      148
 90
        4
 90
       13
 90
      184
 90
      151
 90
      150
 90
        4
 90
      184
 90
      183
 90
      153
 90
      151
 90
        4
 90
      183
 90
       12
 90
      154
 90
      153
 90
        4
 90
       12
 90
       11
 90
      156
 90
      154
 90
        4
 90
       11
 90
      182
 90
      158
 90
      156
 90
        4
 90
      182
 90
       10
 90
      157
 90
      158
 90
        4
 90
       10
 90
        9
 90
      159
 90
      157
 90
        4
 90
        9
 90
        8
 90
      108
 90
      159
 90
        4
 90
        8
 90
      181
 90
      106
 90
      108
 90
        4
 90
      181
 90
        7
 90
      105
 90
      106
 90
        4
 90
        7
 90
      180
 90
      110
 90
      105
 90
        4
 90
      180
 90
      179
 90
      104
 90
      110
 90
        4
 90
      179
 90
      178
 90
      102
 90
      104
 90
        4
 90
      178
 90
      177
 90
      101
 90
      102
 90
        4
 90
      177
 90
      176
 90
      121
 90
      101
 90
        4
 90
      176
 90
        6
 90
      120
 90
      121
 90
        4
 90
        6
 90
      175
 90
      119
 90
      120
 90
        4
 90
      175
 90
        5
 90
      117
 90
      119
 90
        4
 90
        5
 90
      174
 90
      116
 90
      117
 90
        4
 90
      174
 90
        4
 90
      114
 90
      116
 90
        4
 90
        4
 90
      173
 90
      113
 90
      114
 90
        4
 90
      173
 90
        3
 90
      111
 90
      113
 90
        4
 90
        3
 90
      172
 90
      100
 90
      111
 90
        4
 90
      172
 90
      171
 90
       98
 90
      100
 90
        4
 90
      171
 90
      170
 90
       97
 90
       98
 90
        4
 90
      170
 90
        2
 90
       95
 90
       97
 90
        4
 90
        2
 90
      169
 90
       94
 90
       95
 90
        4
 90
      169
 90
        1
 90
       92
 90
       94
 90
        4
 90
        1
 90
      168
 90
       91
 90
       92
 90
        4
 90
      168
 90
      167
 90
       89
 90
       91
 90
        4
 90
      167
 90
       37
 90
       82
 90
       89
 90
        4
 90
       37
 90
      203
 90
       80
 90
       82
 90
        4
 90
      203
 90
       36
 90
       77
 90
       80
 90
        4
 90
       36
 90
      166
 90
       76
 90
       77
 90
        4
 90
      166
 90
      165
 90
      160
 90
       76
 90
        4
 90
      165
 90
      202
 90
      162
 90
      160
 90
        4
 90
      202
 90
      201
 90
       55
 90
      162
 90
        4
 90
      201
 90
      164
 90
       54
 90
       55
 90
        4
 90
      164
 90
        0
 90
       57
 90
       54
 90
        4
 90
       54
 90
       57
 90
       56
 90
       55
 90
        4
 90
       58
 90
       61
 90
       60
 90
       59
 90
        4
 90
       62
 90
       63
 90
       61
 90
       58
 90
        4
 90
       64
 90
       66
 90
       63
 90
       62
 90
        3
 90
       65
 90
       66
 90
       64
 90
        4
 90
       67
 90
       70
 90
       69
 90
       68
 90
        4
 90
       71
 90
       72
 90
       70
 90
       67
 90
        4
 90
       76
 90
       79
 90
       78
 90
       77
 90
        4
 90
       77
 90
       78
 90
       81
 90
       80
 90
        4
 90
       80
 90
       81
 90
       83
 90
       82
 90
        4
 90
       82
 90
       83
 90
       87
 90
       84
 90
        4
 90
       85
 90
       83
 90
       75
 90
       73
 90
        4
 90
       86
 90
       88
 90
       66
 90
       65
 90
        4
 90
       87
 90
       85
 90
       88
 90
       86
 90
        3
 90
       87
 90
       83
 90
       85
 90
        4
 90
       82
 90
       84
 90
       90
 90
       89
 90
        3
 90
       89
 90
       90
 90
       91
 90
        4
 90
       91
 90
       90
 90
       93
 90
       92
 90
        3
 90
       92
 90
       93
 90
       94
 90
        4
 90
       94
 90
       93
 90
       96
 90
       95
 90
        3
 90
       95
 90
       96
 90
       97
 90
        4
 90
       97
 90
       96
 90
       99
 90
       98
 90
        3
 90
       98
 90
       99
 90
      100
 90
        3
 90
      101
 90
      103
 90
      102
 90
        3
 90
      102
 90
      103
 90
      104
 90
        3
 90
      105
 90
      107
 90
      106
 90
        4
 90
      106
 90
      107
 90
      109
 90
      108
 90
        3
 90
      110
 90
      107
 90
      105
 90
        4
 90
      104
 90
      103
 90
      107
 90
      110
 90
        4
 90
      100
 90
       99
 90
      112
 90
      111
 90
        3
 90
      111
 90
      112
 90
      113
 90
        4
 90
      113
 90
      112
 90
      115
 90
      114
 90
        3
 90
      114
 90
      115
 90
      116
 90
        4
 90
      116
 90
      115
 90
      118
 90
      117
 90
        3
 90
      117
 90
      118
 90
      119
 90
        3
 90
      120
 90
      118
 90
      121
 90
        3
 90
      119
 90
      118
 90
      120
 90
        4
 90
      121
 90
      118
 90
      103
 90
      101
 90
        4
 90
      122
 90
      125
 90
      124
 90
      123
 90
        4
 90
      126
 90
      127
 90
      125
 90
      122
 90
        4
 90
      128
 90
      129
 90
      127
 90
      126
 90
        3
 90
      128
 90
      130
 90
      129
 90
        4
 90
      134
 90
      135
 90
      130
 90
      128
 90
        4
 90
      143
 90
      146
 90
      137
 90
      142
 90
        3
 90
      145
 90
      146
 90
      143
 90
        4
 90
      147
 90
      149
 90
      146
 90
      145
 90
        3
 90
      148
 90
      149
 90
      147
 90
        4
 90
      150
 90
      152
 90
      149
 90
      148
 90
        3
 90
      151
 90
      152
 90
      150
 90
        4
 90
      153
 90
      155
 90
      152
 90
      151
 90
        3
 90
      154
 90
      155
 90
      153
 90
        4
 90
      156
 90
      109
 90
      155
 90
      154
 90
        3
 90
      157
 90
      109
 90
      158
 90
        3
 90
      158
 90
      109
 90
      156
 90
        3
 90
      108
 90
      109
 90
      159
 90
        3
 90
      159
 90
      109
 90
      157
 90
        4
 90
      160
 90
      161
 90
       79
 90
       76
 90
        4
 90
      162
 90
      163
 90
      161
 90
      160
 90
        4
 90
       55
 90
       56
 90
      163
 90
      162
 90
        4
 90
       73
 90
       75
 90
       74
 90
       71
 90
        3
 90
       71
 90
       74
 90
       72
 90
        3
 90
      131
 90
      135
 90
      136
 90
        3
 90
      140
 90
      137
 90
      138
 90
        4
 90
      138
 90
      137
 90
      135
 90
      131
 90
        3
 90
      142
 90
      137
 90
      140
 90
        3
 90
      132
 90
      139
 90
      133
 90
        3
 90
      132
 90
      141
 90
      139
 90
        4
 90
      131
 90
      144
 90
      141
 90
      132
 90
        3
 90
      131
 90
      136
 90
      144
 90
        3
 90
      136
 90
      135
 90
      134
 90
        4
 90
      164
 90
      201
 90
       53
 90
        0
 90
        4
 90
      200
 90
       33
 90
       52
 90
      217
 90
        4
 90
      199
 90
      200
 90
      217
 90
      190
 90
        4
 90
      198
 90
      199
 90
      190
 90
       27
 90
        3
 90
       30
 90
      198
 90
       27
 90
        4
 90
       51
 90
      216
 90
      215
 90
       50
 90
        4
 90
       28
 90
       51
 90
       50
 90
       49
 90
        4
 90
      166
 90
       36
 90
       35
 90
       21
 90
        4
 90
       36
 90
      203
 90
       34
 90
       35
 90
        4
 90
      203
 90
       37
 90
       20
 90
       34
 90
        4
 90
       37
 90
      208
 90
       41
 90
       20
 90
        4
 90
      192
 90
      193
 90
       19
 90
       20
 90
        4
 90
       29
 90
       30
 90
       27
 90
      191
 90
        4
 90
       41
 90
       29
 90
      191
 90
      192
 90
        3
 90
       41
 90
      192
 90
       20
 90
        4
 90
       37
 90
      167
 90
       40
 90
      208
 90
        3
 90
      167
 90
      168
 90
       40
 90
        4
 90
      168
 90
        1
 90
      207
 90
       40
 90
        3
 90
        1
 90
      169
 90
      207
 90
        4
 90
      169
 90
        2
 90
       39
 90
      207
 90
        3
 90
        2
 90
      170
 90
       39
 90
        4
 90
      170
 90
      171
 90
       38
 90
       39
 90
        3
 90
      171
 90
      172
 90
       38
 90
        3
 90
      177
 90
      178
 90
      212
 90
        3
 90
      178
 90
      179
 90
      212
 90
        3
 90
        7
 90
      181
 90
      213
 90
        4
 90
      181
 90
        8
 90
       42
 90
      213
 90
        3
 90
      180
 90
        7
 90
      213
 90
        4
 90
      179
 90
      180
 90
      213
 90
      212
 90
        4
 90
      172
 90
        3
 90
      206
 90
       38
 90
        3
 90
        3
 90
      173
 90
      206
 90
        4
 90
      173
 90
        4
 90
      205
 90
      206
 90
        3
 90
        4
 90
      174
 90
      205
 90
        4
 90
      174
 90
        5
 90
      204
 90
      205
 90
        3
 90
        5
 90
      175
 90
      204
 90
        3
 90
        6
 90
      176
 90
      204
 90
        3
 90
      175
 90
        6
 90
      204
 90
        4
 90
      176
 90
      177
 90
      212
 90
      204
 90
        4
 90
       46
 90
       45
 90
       31
 90
      196
 90
        4
 90
       26
 90
       46
 90
      196
 90
      197
 90
        4
 90
       25
 90
       26
 90
      197
 90
       32
 90
        3
 90
       25
 90
       32
 90
      194
 90
        4
 90
       24
 90
       25
 90
      194
 90
      195
 90
        4
 90
      186
 90
      187
 90
       43
 90
      210
 90
        3
 90
      185
 90
      186
 90
      210
 90
        4
 90
       15
 90
      185
 90
      210
 90
      211
 90
        3
 90
       14
 90
       15
 90
      211
 90
        4
 90
       13
 90
       14
 90
      211
 90
       44
 90
        3
 90
      184
 90
       13
 90
       44
 90
        4
 90
      183
 90
      184
 90
       44
 90
      209
 90
        3
 90
       12
 90
      183
 90
      209
 90
        4
 90
       11
 90
       12
 90
      209
 90
       42
 90
        3
 90
       10
 90
      182
 90
       42
 90
        3
 90
      182
 90
       11
 90
       42
 90
        3
 90
        8
 90
        9
 90
       42
 90
        3
 90
        9
 90
       10
 90
       42
 90
        4
 90
      165
 90
      166
 90
       21
 90
      218
 90
        4
 90
      202
 90
      165
 90
      218
 90
      219
 90
        4
 90
      201
 90
      202
 90
      219
 90
       53
 90
        4
 90
      193
 90
       28
 90
      214
 90
       19
 90
        3
 90
       28
 90
       49
 90
      214
 90
        3
 90
      188
 90
       23
 90
      195
 90
        3
 90
       16
 90
       17
 90
       43
 90
        4
 90
       17
 90
      188
 90
      195
 90
       43
 90
        3
 90
      187
 90
       16
 90
       43
 90
        3
 90
       18
 90
       48
 90
       47
 90
        3
 90
       18
 90
       47
 90
       22
 90
        4
 90
      188
 90
       18
 90
       22
 90
      189
 90
        3
 90
      188
 90
      189
 90
       23
 90
        3
 90
       23
 90
       24
 90
      195
 94
      468
 90
        0
 90
       53
 90
       53
 90
       56
 90
       56
 90
       57
 90
        0
 90
       57
 90
       53
 90
      219
 90
      163
 90
      219
 90
       56
 90
      163
 90
      218
 90
      219
 90
      161
 90
      218
 90
      161
 90
      163
 90
       21
 90
      218
 90
       21
 90
       79
 90
       79
 90
      161
 90
       21
 90
       35
 90
       35
 90
       78
 90
       78
 90
       79
 90
       34
 90
       35
 90
       34
 90
       81
 90
       78
 90
       81
 90
       20
 90
       34
 90
       20
 90
       83
 90
       81
 90
       83
 90
       19
 90
       20
 90
       19
 90
       75
 90
       75
 90
       83
 90
       19
 90
      214
 90
       74
 90
      214
 90
       74
 90
       75
 90
       49
 90
      214
 90
       49
 90
       72
 90
       72
 90
       74
 90
       49
 90
       50
 90
       50
 90
       70
 90
       70
 90
       72
 90
       50
 90
      215
 90
       69
 90
      215
 90
       69
 90
       70
 90
      215
 90
      216
 90
       68
 90
      216
 90
       68
 90
       69
 90
       51
 90
      216
 90
       51
 90
       67
 90
       67
 90
       68
 90
       28
 90
       51
 90
       28
 90
       71
 90
       67
 90
       71
 90
       28
 90
      193
 90
       73
 90
      193
 90
       71
 90
       73
 90
      192
 90
      193
 90
       85
 90
      192
 90
       73
 90
       85
 90
      191
 90
      192
 90
       88
 90
      191
 90
       85
 90
       88
 90
       27
 90
      191
 90
       27
 90
       66
 90
       66
 90
       88
 90
       27
 90
      190
 90
       63
 90
      190
 90
       63
 90
       66
 90
      190
 90
      217
 90
       61
 90
      217
 90
       61
 90
       63
 90
       52
 90
      217
 90
       52
 90
       60
 90
       60
 90
       61
 90
       33
 90
       52
 90
       33
 90
       59
 90
       59
 90
       60
 90
       33
 90
      200
 90
       58
 90
      200
 90
       58
 90
       59
 90
      199
 90
      200
 90
       62
 90
      199
 90
       58
 90
       62
 90
      198
 90
      199
 90
       64
 90
      198
 90
       62
 90
       64
 90
       30
 90
      198
 90
       30
 90
       65
 90
       64
 90
       65
 90
       29
 90
       30
 90
       29
 90
       86
 90
       65
 90
       86
 90
       29
 90
       41
 90
       41
 90
       87
 90
       86
 90
       87
 90
       41
 90
      208
 90
       84
 90
      208
 90
       84
 90
       87
 90
       40
 90
      208
 90
       40
 90
       90
 90
       84
 90
       90
 90
       40
 90
      207
 90
       93
 90
      207
 90
       90
 90
       93
 90
       39
 90
      207
 90
       39
 90
       96
 90
       93
 90
       96
 90
       38
 90
       39
 90
       38
 90
       99
 90
       96
 90
       99
 90
       38
 90
      206
 90
      112
 90
      206
 90
       99
 90
      112
 90
      205
 90
      206
 90
      115
 90
      205
 90
      112
 90
      115
 90
      204
 90
      205
 90
      118
 90
      204
 90
      115
 90
      118
 90
      204
 90
      212
 90
      103
 90
      212
 90
      103
 90
      118
 90
      212
 90
      213
 90
      107
 90
      213
 90
      103
 90
      107
 90
       42
 90
      213
 90
       42
 90
      109
 90
      107
 90
      109
 90
       42
 90
      209
 90
      155
 90
      209
 90
      109
 90
      155
 90
       44
 90
      209
 90
       44
 90
      152
 90
      152
 90
      155
 90
       44
 90
      211
 90
      149
 90
      211
 90
      149
 90
      152
 90
      210
 90
      211
 90
      146
 90
      210
 90
      146
 90
      149
 90
       43
 90
      210
 90
       43
 90
      137
 90
      137
 90
      146
 90
       43
 90
      195
 90
      135
 90
      195
 90
      135
 90
      137
 90
      194
 90
      195
 90
      130
 90
      194
 90
      130
 90
      135
 90
       32
 90
      194
 90
       32
 90
      129
 90
      129
 90
      130
 90
       32
 90
      197
 90
      127
 90
      197
 90
      127
 90
      129
 90
      196
 90
      197
 90
      125
 90
      196
 90
      125
 90
      127
 90
       31
 90
      196
 90
       31
 90
      124
 90
      124
 90
      125
 90
       31
 90
       45
 90
       45
 90
      123
 90
      123
 90
      124
 90
       45
 90
       46
 90
       46
 90
      122
 90
      122
 90
      123
 90
       26
 90
       46
 90
       26
 90
      126
 90
      122
 90
      126
 90
       25
 90
       26
 90
       25
 90
      128
 90
      126
 90
      128
 90
       24
 90
       25
 90
       24
 90
      134
 90
      128
 90
      134
 90
       23
 90
       24
 90
       23
 90
      136
 90
      134
 90
      136
 90
       23
 90
      189
 90
      144
 90
      189
 90
      136
 90
      144
 90
       22
 90
      189
 90
       22
 90
      141
 90
      141
 90
      144
 90
       22
 90
       47
 90
       47
 90
      139
 90
      139
 90
      141
 90
       47
 90
       48
 90
       48
 90
      133
 90
      133
 90
      139
 90
       18
 90
       48
 90
       18
 90
      132
 90
      132
 90
      133
 90
       18
 90
      188
 90
      131
 90
      188
 90
      131
 90
      132
 90
       17
 90
      188
 90
       17
 90
      138
 90
      131
 90
      138
 90
       16
 90
       17
 90
       16
 90
      140
 90
      138
 90
      140
 90
       16
 90
      187
 90
      142
 90
      187
 90
      140
 90
      142
 90
      186
 90
      187
 90
      143
 90
      186
 90
      142
 90
      143
 90
      185
 90
      186
 90
      145
 90
      185
 90
      143
 90
      145
 90
       15
 90
      185
 90
       15
 90
      147
 90
      145
 90
      147
 90
       14
 90
       15
 90
       14
 90
      148
 90
      147
 90
      148
 90
       13
 90
       14
 90
       13
 90
      150
 90
      148
 90
      150
 90
       13
 90
      184
 90
      151
 90
      184
 90
      150
 90
      151
 90
      183
 90
      184
 90
      153
 90
      183
 90
      151
 90
      153
 90
       12
 90
      183
 90
       12
 90
      154
 90
      153
 90
      154
 90
       11
 90
       12
 90
       11
 90
      156
 90
      154
 90
      156
 90
       11
 90
      182
 90
      158
 90
      182
 90
      156
 90
      158
 90
       10
 90
      182
 90
       10
 90
      157
 90
      157
 90
      158
 90
        9
 90
       10
 90
        9
 90
      159
 90
      157
 90
      159
 90
        8
 90
        9
 90
        8
 90
      108
 90
      108
 90
      159
 90
        8
 90
      181
 90
      106
 90
      181
 90
      106
 90
      108
 90
        7
 90
      181
 90
        7
 90
      105
 90
      105
 90
      106
 90
        7
 90
      180
 90
      110
 90
      180
 90
      105
 90
      110
 90
      179
 90
      180
 90
      104
 90
      179
 90
      104
 90
      110
 90
      178
 90
      179
 90
      102
 90
      178
 90
      102
 90
      104
 90
      177
 90
      178
 90
      101
 90
      177
 90
      101
 90
      102
 90
      176
 90
      177
 90
      121
 90
      176
 90
      101
 90
      121
 90
        6
 90
      176
 90
        6
 90
      120
 90
      120
 90
      121
 90
        6
 90
      175
 90
      119
 90
      175
 90
      119
 90
      120
 90
        5
 90
      175
 90
        5
 90
      117
 90
      117
 90
      119
 90
        5
 90
      174
 90
      116
 90
      174
 90
      116
 90
      117
 90
        4
 90
      174
 90
        4
 90
      114
 90
      114
 90
      116
 90
        4
 90
      173
 90
      113
 90
      173
 90
      113
 90
      114
 90
        3
 90
      173
 90
        3
 90
      111
 90
      111
 90
      113
 90
        3
 90
      172
 90
      100
 90
      172
 90
      100
 90
      111
 90
      171
 90
      172
 90
       98
 90
      171
 90
       98
 90
      100
 90
      170
 90
      171
 90
       97
 90
      170
 90
       97
 90
       98
 90
        2
 90
      170
 90
        2
 90
       95
 90
       95
 90
       97
 90
        2
 90
      169
 90
       94
 90
      169
 90
       94
 90
       95
 90
        1
 90
      169
 90
        1
 90
       92
 90
       92
 90
       94
 90
        1
 90
      168
 90
       91
 90
      168
 90
       91
 90
       92
 90
      167
 90
      168
 90
       89
 90
      167
 90
       89
 90
       91
 90
       37
 90
      167
 90
       37
 90
       82
 90
       82
 90
       89
 90
       37
 90
      203
 90
       80
 90
      203
 90
       80
 90
       82
 90
       36
 90
      203
 90
       36
 90
       77
 90
       77
 90
       80
 90
       36
 90
      166
 90
       76
 90
      166
 90
       76
 90
       77
 90
      165
 90
      166
 90
      160
 90
      165
 90
       76
 90
      160
 90
      165
 90
      202
 90
      162
 90
      202
 90
      160
 90
      162
 90
      201
 90
      202
 90
       55
 90
      201
 90
       55
 90
      162
 90
      164
 90
      201
 90
       54
 90
      164
 90
       54
 90
       55
 90
        0
 90
      164
 90
       54
 90
       57
 90
       55
 90
       56
 90
       58
 90
       61
 90
       62
 90
       63
 90
       64
 90
       66
 90
       65
 90
       66
 90
       67
 90
       70
 90
       71
 90
       72
 90
       76
 90
       79
 90
       77
 90
       78
 90
       80
 90
       81
 90
       82
 90
       83
 90
       83
 90
       87
 90
       82
 90
       84
 90
       83
 90
       85
 90
       73
 90
       75
 90
       86
 90
       88
 90
       85
 90
       87
 90
       89
 90
       90
 90
       90
 90
       91
 90
       92
 90
       93
 90
       93
 90
       94
 90
       95
 90
       96
 90
       96
 90
       97
 90
       98
 90
       99
 90
       99
 90
      100
 90
      101
 90
      103
 90
      102
 90
      103
 90
      103
 90
      104
 90
      105
 90
      107
 90
      106
 90
      107
 90
      108
 90
      109
 90
      107
 90
      110
 90
      111
 90
      112
 90
      112
 90
      113
 90
      114
 90
      115
 90
      115
 90
      116
 90
      117
 90
      118
 90
      118
 90
      119
 90
      118
 90
      120
 90
      118
 90
      121
 90
      122
 90
      125
 90
      126
 90
      127
 90
      128
 90
      129
 90
      128
 90
      130
 90
      134
 90
      135
 90
      143
 90
      146
 90
      137
 90
      142
 90
      145
 90
      146
 90
      147
 90
      149
 90
      148
 90
      149
 90
      150
 90
      152
 90
      151
 90
      152
 90
      153
 90
      155
 90
      154
 90
      155
 90
      109
 90
      156
 90
      109
 90
      157
 90
      109
 90
      158
 90
      109
 90
      159
 90
      160
 90
      161
 90
      162
 90
      163
 90
       71
 90
       74
 90
      131
 90
      135
 90
      135
 90
      136
 90
      131
 90
      136
 90
      137
 90
      140
 90
      137
 90
      138
 90
      132
 90
      139
 90
      132
 90
      141
 90
      131
 90
      144
 90
       53
 90
      201
 90
      200
 90
      217
 90
      190
 90
      199
 90
       27
 90
      198
 90
       27
 90
       30
 90
       50
 90
       51
 90
       28
 90
       49
 90
       35
 90
       36
 90
       21
 90
      166
 90
       34
 90
      203
 90
       20
 90
       37
 90
       37
 90
      208
 90
       20
 90
       41
 90
       19
 90
      193
 90
       20
 90
      192
 90
       29
 90
      191
 90
       41
 90
      192
 90
       40
 90
      167
 90
       40
 90
      168
 90
        1
 90
      207
 90
      169
 90
      207
 90
        2
 90
       39
 90
       39
 90
      170
 90
       38
 90
      171
 90
       38
 90
      172
 90
      178
 90
      212
 90
      177
 90
      212
 90
      179
 90
      212
 90
      181
 90
      213
 90
        7
 90
      213
 90
        8
 90
       42
 90
      180
 90
      213
 90
        3
 90
      206
 90
      173
 90
      206
 90
        4
 90
      205
 90
      174
 90
      205
 90
        5
 90
      204
 90
      175
 90
      204
 90
      176
 90
      204
 90
        6
 90
      204
 90
       46
 90
      196
 90
       26
 90
      197
 90
       25
 90
       32
 90
       25
 90
      194
 90
       24
 90
      195
 90
       43
 90
      187
 90
      186
 90
      210
 90
      185
 90
      210
 90
       15
 90
      211
 90
       14
 90
      211
 90
       13
 90
       44
 90
       44
 90
      184
 90
      183
 90
      209
 90
       12
 90
      209
 90
       11
 90
       42
 90
       42
 90
      182
 90
       10
 90
       42
 90
        9
 90
       42
 90
      165
 90
      218
 90
      202
 90
      219
 90
       28
 90
      214
 90
       23
 90
      188
 90
       23
 90
      195
 90
      188
 90
      195
 90
       17
 90
       43
 90
       16
 90
       43
 90
       18
 90
       47
 90
       18
 90
       22
 90
      188
 90
      189
 95
      468
140
0.0
140
0.0
140
0.0
140
0.0
140
0.0
140
0.0
140
0.0
140
0.0
140
0.0
140
0.0
140
0.0
140
0.0
140
0.0
140
0.0
140
0.0
140
0.0
140
0.0
140
0.0
140
0.0
140
0.0
140
0.0
140
0.0
140
0.0
140
0.0
140
0.0
140
0.0
140
0.0
140
0.0
140
0.0
140
0.0
140
0.0
140
0.0
140
0.0
140
0.0
140
0.0
140
0.0
140
0.0
140
0.0
140
0.0
140
0.0
140
0.0
140
0.0
140
0.0
140
0.0
140
0.0
140
0.0
140
0.0
140
0.0
140
0.0
140
0.0
140
0.0
140
0.0
140
0.0
140
0.0
140
0.0
140
0.0
140
0.0
140
0.0
140
0.0
140
0.0
140
0.0
140
0.0
140
0.0
140
0.0
140
0.0
140
0.0
140
0.0
140
0.0
140
0.0
140
0.0
140
0.0
140
0.0
140
0.0
140
0.0
140
0.0
140
0.0
140
0.0
140
0.0
140
0.0
140
0.0
140
0.0
140
0.0
140
0.0
140
0.0
140
0.0
140
0.0
140
0.0
140
0.0
140
0.0
140
0.0
140
0.0
140
0.0
140
0.0
140
0.0
140
0.0
140
0.0
140
0.0
140
0.0
140
0.0
140
0.0
140
0.0
140
0.0
140
0.0
140
0.0
140
0.0
140
0.0
140
0.0
140
0.0
140
0.0
140
0.0
140
0.0
140
0.0
140
0.0
140
0.0
140
0.0
140
0.0
140
0.0
140
0.0
140
0.0
140
0.0
140
0.0
140
0.0
140
0.0
140
0.0
140
0.0
140
0.0
140
0.0
140
0.0
140
0.0
140
0.0
140
0.0
140
0.0
140
0.0
140
0.0
140
0.0
140
0.0
140
0.0
140
0.0
140
0.0
140
0.0
140
0.0
140
0.0
140
0.0
140
0.0
140
0.0
140
0.0
140
0.0
140
0.0
140
0.0
140
0.0
140
0.0
140
0.0
140
0.0
140
0.0
140
0.0
140
0.0
140
0.0
140
0.0
140
0.0
140
0.0
140
0.0
140
0.0
140
0.0
140
0.0
140
0.0
140
0.0
140
0.0
140
0.0
140
0.0
140
0.0
140
0.0
140
0.0
140
0.0
140
0.0
140
0.0
140
0.0
140
0.0
140
0.0
140
0.0
140
0.0
140
0.0
140
0.0
140
0.0
140
0.0
140
0.0
140
0.0
140
0.0
140
0.0
140
0.0
140
0.0
140
0.0
140
0.0
140
0.0
140
0.0
140
0.0
140
0.0
140
0.0
140
0.0
140
0.0
140
0.0
140
0.0
140
0.0
140
0.0
140
0.0
140
0.0
140
0.0
140
0.0
140
0.0
140
0.0
140
0.0
140
0.0
140
0.0
140
0.0
140
0.0
140
0.0
140
0.0
140
0.0
140
0.0
140
0.0
140
0.0
140
0.0
140
0.0
140
0.0
140
0.0
140
0.0
140
0.0
140
0.0
140
0.0
140
0.0
140
0.0
140
0.0
140
0.0
140
0.0
140
0.0
140
0.0
140
0.0
140
0.0
140
0.0
140
0.0
140
0.0
140
0.0
140
0.0
140
0.0
140
0.0
140
0.0
140
0.0
140
0.0
140
0.0
140
0.0
140
0.0
140
0.0
140
0.0
140
0.0
140
0.0
140
0.0
140
0.0
140
0.0
140
0.0
140
0.0
140
0.0
140
0.0
140
0.0
140
0.0
140
0.0
140
0.0
140
0.0
140
0.0
140
0.0
140
0.0
140
0.0
140
0.0
140
0.0
140
0.0
140
0.0
140
0.0
140
0.0
140
0.0
140
0.0
140
0.0
140
0.0
140
0.0
140
0.0
140
0.0
140
0.0
140
0.0
140
0.0
140
0.0
140
0.0
140
0.0
140
0.0
140
0.0
140
0.0
140
0.0
140
0.0
140
0.0
140
0.0
140
0.0
140
0.0
140
0.0
140
0.0
140
0.0
140
0.0
140
0.0
140
0.0
140
0.0
140
0.0
140
0.0
140
0.0
140
0.0
140
0.0
140
0.0
140
0.0
140
0.0
140
0.0
140
0.0
140
0.0
140
0.0
140
0.0
140
0.0
140
0.0
140
0.0
140
0.0
140
0.0
140
0.0
140
0.0
140
0.0
140
0.0
140
0.0
140
0.0
140
0.0
140
0.0
140
0.0
140
0.0
140
0.0
140
0.0
140
0.0
140
0.0
140
0.0
140
0.0
140
0.0
140
0.0
140
0.0
140
0.0
140
0.0
140
0.0
140
0.0
140
0.0
140
0.0
140
0.0
140
0.0
140
0.0
140
0.0
140
0.0
140
0.0
140
0.0
140
0.0
140
0.0
140
0.0
140
0.0
140
0.0
140
0.0
140
0.0
140
0.0
140
0.0
140
0.0
140
0.0
140
0.0
140
0.0
140
0.0
140
0.0
140
0.0
140
0.0
140
0.0
140
0.0
140
0.0
140
0.0
140
0.0
140
0.0
140
0.0
140
0.0
140
0.0
140
0.0
140
0.0
140
0.0
140
0.0
140
0.0
140
0.0
140
0.0
140
0.0
140
0.0
140
0.0
140
0.0
140
0.0
140
0.0
140
0.0
140
0.0
140
0.0
140
0.0
140
0.0
140
0.0
140
0.0
140
0.0
140
0.0
140
0.0
140
0.0
140
0.0
140
0.0
140
0.0
140
0.0
140
0.0
140
0.0
140
0.0
140
0.0
140
0.0
140
0.0
140
0.0
140
0.0
140
0.0
140
0.0
140
0.0
140
0.0
140
0.0
140
0.0
140
0.0
140
0.0
140
0.0
140
0.0
140
0.0
140
0.0
140
0.0
140
0.0
140
0.0
140
0.0
140
0.0
140
0.0
140
0.0
140
0.0
140
0.0
140
0.0
140
0.0
140
0.0
140
0.0
140
0.0
140
0.0
140
0.0
140
0.0
140
0.0
140
0.0
140
0.0
140
0.0
140
0.0
140
0.0
140
0.0
140
0.0
140
0.0
140
0.0
140
0.0
140
0.0
140
0.0
140
0.0
140
0.0
140
0.0
140
0.0
140
0.0
140
0.0
140
0.0
140
0.0
140
0.0
 90
        0
  0
POLYLINE
  5
FA
330
1F
100
AcDbEntity
  8
OracDecor_panel_moldings
 62
    81
420
 10085529
100
AcDb3dPolyline
 66
     1
 10
0.0
 20
0.0
 30
0.0
 70
     9
  0
VERTEX
  5
FB
330
FA
100
AcDbEntity
  8
OracDecor_panel_moldings
 62
    81
420
 10085529
100
AcDbVertex
100
AcDb3dPolylineVertex
 10
-0.0000015246189378
 20
14.10366439819336
 30
0.1761601269245148
 70
    32
  0
VERTEX
  5
FC
330
FA
100
AcDbEntity
  8
OracDecor_panel_moldings
 62
    81
420
 10085529
100
AcDbVertex
100
AcDb3dPolylineVertex
 10
-0.0000023250895538
 20
9.14320945739746
 30
0.0002373105526203
 70
    32
  0
VERTEX
  5
FD
330
FA
100
AcDbEntity
  8
OracDecor_panel_moldings
 62
    81
420
 10085529
100
AcDbVertex
100
AcDb3dPolylineVertex
 10
-0.0000023627453629
 20
8.921890258789062
 30
0.0368011668324471
 70
    32
  0
VERTEX
  5
FE
330
FA
100
AcDbEntity
  8
OracDecor_panel_moldings
 62
    81
420
 10085529
100
AcDbVertex
100
AcDb3dPolylineVertex
 10
-0.000002389701649
 20
8.790933609008789
 30
0.1653869599103928
 70
    32
  0
VERTEX
  5
FF
330
FA
100
AcDbEntity
  8
OracDecor_panel_moldings
 62
    81
420
 10085529
100
AcDbVertex
100
AcDb3dPolylineVertex
 10
-0.0000024059593215
 20
8.750335693359375
 30
0.3860023617744446
 70
    32
  0
VERTEX
  5
100
330
FA
100
AcDbEntity
  8
OracDecor_panel_moldings
 62
    81
420
 10085529
100
AcDbVertex
100
AcDb3dPolylineVertex
 10
-0.0000029765687941
 20
8.990059852600097
 30
14.33352661132812
 70
    32
  0
VERTEX
  5
101
330
FA
100
AcDbEntity
  8
OracDecor_panel_moldings
 62
    81
420
 10085529
100
AcDbVertex
100
AcDb3dPolylineVertex
 10
-0.0000029849989005
 20
8.965176582336425
 30
14.43363571166992
 70
    32
  0
VERTEX
  5
102
330
FA
100
AcDbEntity
  8
OracDecor_panel_moldings
 62
    81
420
 10085529
100
AcDbVertex
100
AcDb3dPolylineVertex
 10
-0.0000029998277569
 20
8.893916130065917
 30
14.50728225708008
 70
    32
  0
VERTEX
  5
103
330
FA
100
AcDbEntity
  8
OracDecor_panel_moldings
 62
    81
420
 10085529
100
AcDbVertex
100
AcDb3dPolylineVertex
 10
-0.0000030169956062
 20
8.795788764953613
 30
14.53429412841797
 70
    32
  0
VERTEX
  5
104
330
FA
100
AcDbEntity
  8
OracDecor_panel_moldings
 62
    81
420
 10085529
100
AcDbVertex
100
AcDb3dPolylineVertex
 10
-0.0000044183630052
 20
0.1942570954561233
 30
14.53429889678955
 70
    32
  0
VERTEX
  5
105
330
FA
100
AcDbEntity
  8
OracDecor_panel_moldings
 62
    81
420
 10085529
100
AcDbVertex
100
AcDb3dPolylineVertex
 10
-0.0000044311336751
 20
0.1199029237031937
 30
14.54932117462158
 70
    32
  0
VERTEX
  5
106
330
FA
100
AcDbEntity
  8
OracDecor_panel_moldings
 62
    81
420
 10085529
100
AcDbVertex
100
AcDb3dPolylineVertex
 10
-0.0000044432731556
 20
0.0568669624626637
 30
14.59209537506103
 70
    32
  0
VERTEX
  5
107
330
FA
100
AcDbEntity
  8
OracDecor_panel_moldings
 62
    81
420
 10085529
100
AcDbVertex
100
AcDb3dPolylineVertex
 10
-0.0000044529333536
 20
0.0147469723597169
 30
14.65610980987549
 70
    32
  0
VERTEX
  5
108
330
FA
100
AcDbEntity
  8
OracDecor_panel_moldings
 62
    81
420
 10085529
100
AcDbVertex
100
AcDb3dPolylineVertex
 10
-0.0000044586440708
 20
-0.0000426153092121
 30
14.73162174224853
 70
    32
  0
VERTEX
  5
109
330
FA
100
AcDbEntity
  8
OracDecor_panel_moldings
 62
    81
420
 10085529
100
AcDbVertex
100
AcDb3dPolylineVertex
 10
-0.0000046194527386
 20
-0.0000429369247286
 30
18.4104995727539
 70
    32
  0
VERTEX
  5
10A
330
FA
100
AcDbEntity
  8
OracDecor_panel_moldings
 62
    81
420
 10085529
100
AcDbVertex
100
AcDb3dPolylineVertex
 10
-0.0000046188069973
 20
0.0742826014757156
 30
18.67274856567383
 70
    32
  0
VERTEX
  5
10B
330
FA
100
AcDbEntity
  8
OracDecor_panel_moldings
 62
    81
420
 10085529
100
AcDbVertex
100
AcDb3dPolylineVertex
 10
-0.0000045941401368
 20
0.2745151221752167
 30
18.85474395751953
 70
    32
  0
VERTEX
  5
10C
330
FA
100
AcDbEntity
  8
OracDecor_panel_moldings
 62
    81
420
 10085529
100
AcDbVertex
100
AcDb3dPolylineVertex
 10
-0.0000045235765356
 20
0.8472040891647338
 30
19.37496185302734
 70
    32
  0
VERTEX
  5
10D
330
FA
100
AcDbEntity
  8
OracDecor_panel_moldings
 62
    81
420
 10085529
100
AcDbVertex
100
AcDb3dPolylineVertex
 10
-0.0000045002839215
 20
1.176334142684936
 30
20.06881332397461
 70
    32
  0
VERTEX
  5
10E
330
FA
100
AcDbEntity
  8
OracDecor_panel_moldings
 62
    81
420
 10085529
100
AcDbVertex
100
AcDb3dPolylineVertex
 10
-0.0000045339593271
 20
1.176334142684936
 30
20.83922195434571
 70
    32
  0
VERTEX
  5
10F
330
FA
100
AcDbEntity
  8
OracDecor_panel_moldings
 62
    81
420
 10085529
100
AcDbVertex
100
AcDb3dPolylineVertex
 10
-0.000004617911145
 20
0.8472038507461547
 30
21.53307723999024
 70
    32
  0
VERTEX
  5
110
330
FA
100
AcDbEntity
  8
OracDecor_panel_moldings
 62
    81
420
 10085529
100
AcDbVertex
100
AcDb3dPolylineVertex
 10
-0.0000047339531193
 20
0.2745138704776764
 30
22.05328750610352
 70
    32
  0
VERTEX
  5
111
330
FA
100
AcDbEntity
  8
OracDecor_panel_moldings
 62
    81
420
 10085529
100
AcDbVertex
100
AcDb3dPolylineVertex
 10
-0.0000047745297707
 20
0.0742861032485962
 30
22.23528289794922
 70
    32
  0
VERTEX
  5
112
330
FA
100
AcDbEntity
  8
OracDecor_panel_moldings
 62
    81
420
 10085529
100
AcDbVertex
100
AcDb3dPolylineVertex
 10
-0.0000047981020543
 20
-0.0000404332022299
 30
22.49753189086914
 70
    32
  0
VERTEX
  5
113
330
FA
100
AcDbEntity
  8
OracDecor_panel_moldings
 62
    81
420
 10085529
100
AcDbVertex
100
AcDb3dPolylineVertex
 10
-0.0000049064310588
 20
-0.0000406498620578
 30
24.97581291198731
 70
    32
  0
VERTEX
  5
114
330
FA
100
AcDbEntity
  8
OracDecor_panel_moldings
 62
    81
420
 10085529
100
AcDbVertex
100
AcDb3dPolylineVertex
 10
-0.0000049085260798
 20
0.1088937148451805
 30
25.42975234985352
 70
    32
  0
VERTEX
  5
115
330
FA
100
AcDbEntity
  8
OracDecor_panel_moldings
 62
    81
420
 10085529
100
AcDbVertex
100
AcDb3dPolylineVertex
 10
-0.0000048746555876
 20
0.4112675786018372
 30
25.78189086914063
 70
    32
  0
VERTEX
  5
116
330
FA
100
AcDbEntity
  8
OracDecor_panel_moldings
 62
    81
420
 10085529
100
AcDbVertex
100
AcDb3dPolylineVertex
 10
-0.000004812415682
 20
0.8392708301544189
 30
25.95326042175293
 70
    32
  0
VERTEX
  5
117
330
FA
100
AcDbEntity
  8
OracDecor_panel_moldings
 62
    81
420
 10085529
100
AcDbVertex
100
AcDb3dPolylineVertex
 10
-0.000004735764378
 20
1.2969172000885
 30
25.90542221069336
 70
    32
  0
VERTEX
  5
118
330
FA
100
AcDbEntity
  8
OracDecor_panel_moldings
 62
    81
420
 10085529
100
AcDbVertex
100
AcDb3dPolylineVertex
 10
-0.000003119459052
 20
10.34150505065918
 30
22.63956642150879
 70
    32
  0
VERTEX
  5
119
330
FA
100
AcDbEntity
  8
OracDecor_panel_moldings
 62
    81
420
 10085529
100
AcDbVertex
100
AcDb3dPolylineVertex
 10
-0.0000028617248518
 20
11.8107681274414
 30
22.21951866149902
 70
    32
  0
VERTEX
  5
11A
330
FA
100
AcDbEntity
  8
OracDecor_panel_moldings
 62
    81
420
 10085529
100
AcDbVertex
100
AcDb3dPolylineVertex
 10
-0.0000025211004413
 20
13.82420349121094
 30
21.9314022064209
 70
    32
  0
VERTEX
  5
11B
330
FA
100
AcDbEntity
  8
OracDecor_panel_moldings
 62
    81
420
 10085529
100
AcDbVertex
100
AcDb3dPolylineVertex
 10
-0.0000021918306174
 20
15.85706043243408
 30
21.97542762756348
 70
    32
  0
VERTEX
  5
11C
330
FA
100
AcDbEntity
  8
OracDecor_panel_moldings
 62
    81
420
 10085529
100
AcDbVertex
100
AcDb3dPolylineVertex
 10
-0.0000018824639483
 20
17.85655784606933
 30
22.35044670104981
 70
    32
  0
VERTEX
  5
11D
330
FA
100
AcDbEntity
  8
OracDecor_panel_moldings
 62
    81
420
 10085529
100
AcDbVertex
100
AcDb3dPolylineVertex
 10
-0.0000016010296804
 20
19.77079963684082
 30
23.04672813415527
 70
    32
  0
VERTEX
  5
11E
330
FA
100
AcDbEntity
  8
OracDecor_panel_moldings
 62
    81
420
 10085529
100
AcDbVertex
100
AcDb3dPolylineVertex
 10
-0.0000013548358311
 20
21.55008125305176
 30
24.04619407653809
 70
    32
  0
VERTEX
  5
11F
330
FA
100
AcDbEntity
  8
OracDecor_panel_moldings
 62
    81
420
 10085529
100
AcDbVertex
100
AcDb3dPolylineVertex
 10
-0.0000011502738744
 20
23.14821434020996
 30
25.32290840148926
 70
    32
  0
VERTEX
  5
120
330
FA
100
AcDbEntity
  8
OracDecor_panel_moldings
 62
    81
420
 10085529
100
AcDbVertex
100
AcDb3dPolylineVertex
 10
-0.0000009926561688
 20
24.5236873626709
 30
26.84369087219238
 70
    32
  0
VERTEX
  5
121
330
FA
100
AcDbEntity
  8
OracDecor_panel_moldings
 62
    81
420
 10085529
100
AcDbVertex
100
AcDb3dPolylineVertex
 10
-0.0000047007706598
 20
25.64080619812012
 30
28.56907844543457
 70
    32
  0
VERTEX
  5
122
330
FA
100
AcDbEntity
  8
OracDecor_panel_moldings
 62
    81
420
 10085529
100
AcDbVertex
100
AcDb3dPolylineVertex
 10
-0.0000045911556299
 20
27.10481071472168
 30
31.51798820495606
 70
    32
  0
VERTEX
  5
123
330
FA
100
AcDbEntity
  8
OracDecor_panel_moldings
 62
    81
420
 10085529
100
AcDbVertex
100
AcDb3dPolylineVertex
 10
-0.0000048714769036
 20
27.10480880737305
 30
37.93099975585938
 70
    32
  0
VERTEX
  5
124
330
FA
100
AcDbEntity
  8
OracDecor_panel_moldings
 62
    81
420
 10085529
100
AcDbVertex
100
AcDb3dPolylineVertex
 10
-0.0000051828801588
 20
25.85907745361328
 30
40.4119873046875
 70
    32
  0
VERTEX
  5
125
330
FA
100
AcDbEntity
  8
OracDecor_panel_moldings
 62
    81
420
 10085529
100
AcDbVertex
100
AcDb3dPolylineVertex
 10
-0.0000016610306375
 20
24.59767341613769
 30
42.41007232666015
 70
    32
  0
VERTEX
  5
126
330
FA
100
AcDbEntity
  8
OracDecor_panel_moldings
 62
    81
420
 10085529
100
AcDbVertex
100
AcDb3dPolylineVertex
 10
0.0000017487948298
 20
22.65738677978516
 30
44.44064331054687
 70
    32
  0
VERTEX
  5
127
330
FA
100
AcDbEntity
  8
OracDecor_panel_moldings
 62
    81
420
 10085529
100
AcDbVertex
100
AcDb3dPolylineVertex
 10
0.0000012992575193
 20
20.30266189575195
 30
45.94834899902344
 70
    32
  0
VERTEX
  5
128
330
FA
100
AcDbEntity
  8
OracDecor_panel_moldings
 62
    81
420
 10085529
100
AcDbVertex
100
AcDb3dPolylineVertex
 10
0.0000008299743968
 20
17.66195106506347
 30
46.84185791015624
 70
    32
  0
VERTEX
  5
129
330
FA
100
AcDbEntity
  8
OracDecor_panel_moldings
 62
    81
420
 10085529
100
AcDbVertex
100
AcDb3dPolylineVertex
 10
0.0000003680390819
 20
14.88775253295898
 30
47.06974029541015
 70
    32
  0
VERTEX
  5
12A
330
FA
100
AcDbEntity
  8
OracDecor_panel_moldings
 62
    81
420
 10085529
100
AcDbVertex
100
AcDb3dPolylineVertex
 10
-0.0000000637221547
 20
12.12665939331055
 30
46.65616607666016
 70
    32
  0
VERTEX
  5
12B
330
FA
100
AcDbEntity
  8
OracDecor_panel_moldings
 62
    81
420
 10085529
100
AcDbVertex
100
AcDb3dPolylineVertex
 10
-0.0000055144382713
 20
1.240625023841857
 30
43.50959014892578
 70
    32
  0
VERTEX
  5
12C
330
FA
100
AcDbEntity
  8
OracDecor_panel_moldings
 62
    81
420
 10085529
100
AcDbVertex
100
AcDb3dPolylineVertex
 10
-0.0000055859877648
 20
0.795474648475647
 30
43.48728942871093
 70
    32
  0
VERTEX
  5
12D
330
FA
100
AcDbEntity
  8
OracDecor_panel_moldings
 62
    81
420
 10085529
100
AcDbVertex
100
AcDb3dPolylineVertex
 10
-0.0000018457305941
 20
0.387370765209198
 30
43.66919708251953
 70
    32
  0
VERTEX
  5
12E
330
FA
100
AcDbEntity
  8
OracDecor_panel_moldings
 62
    81
420
 10085529
100
AcDbVertex
100
AcDb3dPolylineVertex
 10
-0.0000019073961539
 20
0.1021915748715401
 30
44.01702880859375
 70
    32
  0
VERTEX
  5
12F
330
FA
100
AcDbEntity
  8
OracDecor_panel_moldings
 62
    81
420
 10085529
100
AcDbVertex
100
AcDb3dPolylineVertex
 10
-0.0000019433098259
 20
-0.0000423530109401
 30
44.45758819580078
 70
    32
  0
VERTEX
  5
130
330
FA
100
AcDbEntity
  8
OracDecor_panel_moldings
 62
    81
420
 10085529
100
AcDbVertex
100
AcDb3dPolylineVertex
 10
-0.0000020554250568
 20
-0.0000425772414019
 30
47.02248382568359
 70
    32
  0
VERTEX
  5
131
330
FA
100
AcDbEntity
  8
OracDecor_panel_moldings
 62
    81
420
 10085529
100
AcDbVertex
100
AcDb3dPolylineVertex
 10
-0.0000020547788608
 20
0.0742829591035843
 30
47.28472900390625
 70
    32
  0
VERTEX
  5
132
330
FA
100
AcDbEntity
  8
OracDecor_panel_moldings
 62
    81
420
 10085529
100
AcDbVertex
100
AcDb3dPolylineVertex
 10
-0.000002030112455
 20
0.2745116651058197
 30
47.46672058105469
 70
    32
  0
VERTEX
  5
133
330
FA
100
AcDbEntity
  8
OracDecor_panel_moldings
 62
    81
420
 10085529
100
AcDbVertex
100
AcDb3dPolylineVertex
 10
-0.0000019595490812
 20
0.8472006320953369
 30
47.9869384765625
 70
    32
  0
VERTEX
  5
134
330
FA
100
AcDbEntity
  8
OracDecor_panel_moldings
 62
    81
420
 10085529
100
AcDbVertex
100
AcDb3dPolylineVertex
 10
-0.0000019362566945
 20
1.176330685615539
 30
48.68079376220703
 70
    32
  0
VERTEX
  5
135
330
FA
100
AcDbEntity
  8
OracDecor_panel_moldings
 62
    81
420
 10085529
100
AcDbVertex
100
AcDb3dPolylineVertex
 10
-0.0000019699321001
 20
1.176330685615539
 30
49.45120239257812
 70
    32
  0
VERTEX
  5
136
330
FA
100
AcDbEntity
  8
OracDecor_panel_moldings
 62
    81
420
 10085529
100
AcDbVertex
100
AcDb3dPolylineVertex
 10
-0.0000020538836907
 20
0.8472003936767578
 30
50.14505767822265
 70
    32
  0
VERTEX
  5
137
330
FA
100
AcDbEntity
  8
OracDecor_panel_moldings
 62
    81
420
 10085529
100
AcDbVertex
100
AcDb3dPolylineVertex
 10
-0.0000021699261197
 20
0.2745113670825958
 30
50.66527557373047
 70
    32
  0
VERTEX
  5
138
330
FA
100
AcDbEntity
  8
OracDecor_panel_moldings
 62
    81
420
 10085529
100
AcDbVertex
100
AcDb3dPolylineVertex
 10
-0.0000022105025437
 20
0.0742826461791992
 30
50.8472671508789
 70
    32
  0
VERTEX
  5
139
330
FA
100
AcDbEntity
  8
OracDecor_panel_moldings
 62
    81
420
 10085529
100
AcDbVertex
100
AcDb3dPolylineVertex
 10
-0.0000022340750547
 20
-0.0000429345418524
 30
51.10951995849609
 70
    32
  0
VERTEX
  5
13A
330
FA
100
AcDbEntity
  8
OracDecor_panel_moldings
 62
    81
420
 10085529
100
AcDbVertex
100
AcDb3dPolylineVertex
 10
-0.0000024035098249
 20
-0.00004708810593
 30
54.9857177734375
 70
    32
  0
VERTEX
  5
13B
330
FA
100
AcDbEntity
  8
OracDecor_panel_moldings
 62
    81
420
 10085529
100
AcDbVertex
100
AcDb3dPolylineVertex
 10
0.0000001047696969
 20
15.25055313110351
 30
54.44486999511719
 70
    32
  0
VERTEX
  5
13C
330
FA
100
AcDbEntity
  8
OracDecor_panel_moldings
 62
    81
420
 10085529
100
AcDbVertex
100
AcDb3dPolylineVertex
 10
0.0000003604677659
 20
16.78868865966797
 30
54.3281021118164
 70
    32
  0
VERTEX
  5
13D
330
FA
100
AcDbEntity
  8
OracDecor_panel_moldings
 62
    81
420
 10085529
100
AcDbVertex
100
AcDb3dPolylineVertex
 10
0.0000006192983619
 20
18.31290626525879
 30
54.08779907226563
 70
    32
  0
VERTEX
  5
13E
330
FA
100
AcDbEntity
  8
OracDecor_panel_moldings
 62
    81
420
 10085529
100
AcDbVertex
100
AcDb3dPolylineVertex
 10
0.0000008796059774
 20
19.8134536743164
 30
53.72547912597656
 70
    32
  0
VERTEX
  5
13F
330
FA
100
AcDbEntity
  8
OracDecor_panel_moldings
 62
    81
420
 10085529
100
AcDbVertex
100
AcDb3dPolylineVertex
 10
0.0000011397896742
 20
21.28110504150391
 30
53.24339294433594
 70
    32
  0
VERTEX
  5
140
330
FA
100
AcDbEntity
  8
OracDecor_panel_moldings
 62
    81
420
 10085529
100
AcDbVertex
100
AcDb3dPolylineVertex
 10
0.0000013981584743
 20
22.70632171630859
 30
52.6446533203125
 70
    32
  0
VERTEX
  5
141
330
FA
100
AcDbEntity
  8
OracDecor_panel_moldings
 62
    81
420
 10085529
100
AcDbVertex
100
AcDb3dPolylineVertex
 10
0.0000016531428173
 20
24.0804443359375
 30
51.93291473388672
 70
    32
  0
VERTEX
  5
142
330
FA
100
AcDbEntity
  8
OracDecor_panel_moldings
 62
    81
420
 10085529
100
AcDbVertex
100
AcDb3dPolylineVertex
 10
-0.0000019116225758
 20
25.39448547363281
 30
51.11281585693359
 70
    32
  0
VERTEX
  5
143
330
FA
100
AcDbEntity
  8
OracDecor_panel_moldings
 62
    81
420
 10085529
100
AcDbVertex
100
AcDb3dPolylineVertex
 10
-0.0000016682568003
 20
26.64048385620117
 30
50.18933868408203
 70
    32
  0
VERTEX
  5
144
330
FA
100
AcDbEntity
  8
OracDecor_panel_moldings
 62
    81
420
 10085529
100
AcDbVertex
100
AcDb3dPolylineVertex
 10
-0.0000014330491922
 20
27.81029510498047
 30
49.16852569580078
 70
    32
  0
VERTEX
  5
145
330
FA
100
AcDbEntity
  8
OracDecor_panel_moldings
 62
    81
420
 10085529
100
AcDbVertex
100
AcDb3dPolylineVertex
 10
-0.0000012074303868
 20
28.89679718017578
 30
48.05656433105468
 70
    32
  0
VERTEX
  5
146
330
FA
100
AcDbEntity
  8
OracDecor_panel_moldings
 62
    81
420
 10085529
100
AcDbVertex
100
AcDb3dPolylineVertex
 10
-0.0000009928642157
 20
29.8929443359375
 30
46.8606948852539
 70
    32
  0
VERTEX
  5
147
330
FA
100
AcDbEntity
  8
OracDecor_panel_moldings
 62
    81
420
 10085529
100
AcDbVertex
100
AcDb3dPolylineVertex
 10
-0.0000007906714927
 20
30.79259872436523
 30
45.58824920654297
 70
    32
  0
VERTEX
  5
148
330
FA
100
AcDbEntity
  8
OracDecor_panel_moldings
 62
    81
420
 10085529
100
AcDbVertex
100
AcDb3dPolylineVertex
 10
-0.0000006021462013
 20
31.59001159667969
 30
44.24739837646484
 70
    32
  0
VERTEX
  5
149
330
FA
100
AcDbEntity
  8
OracDecor_panel_moldings
 62
    81
420
 10085529
100
AcDbVertex
100
AcDb3dPolylineVertex
 10
-0.0000042431670408
 20
32.28017807006836
 30
42.84652709960937
 70
    32
  0
VERTEX
  5
14A
330
FA
100
AcDbEntity
  8
OracDecor_panel_moldings
 62
    81
420
 10085529
100
AcDbVertex
100
AcDb3dPolylineVertex
 10
-0.000004085427463
 20
32.85878372192383
 30
41.39443969726563
 70
    32
  0
VERTEX
  5
14B
330
FA
100
AcDbEntity
  8
OracDecor_panel_moldings
 62
    81
420
 10085529
100
AcDbVertex
100
AcDb3dPolylineVertex
 10
-0.0000039446358642
 20
33.32210922241211
 30
39.90040588378906
 70
    32
  0
VERTEX
  5
14C
330
FA
100
AcDbEntity
  8
OracDecor_panel_moldings
 62
    81
420
 10085529
100
AcDbVertex
100
AcDb3dPolylineVertex
 10
-0.0000038216567191
 20
33.66731643676758
 30
38.37361907958984
 70
    32
  0
VERTEX
  5
14D
330
FA
100
AcDbEntity
  8
OracDecor_panel_moldings
 62
    81
420
 10085529
100
AcDbVertex
100
AcDb3dPolylineVertex
 10
-0.0000037172899283
 20
33.89215469360352
 30
36.82400512695313
 70
    32
  0
VERTEX
  5
14E
330
FA
100
AcDbEntity
  8
OracDecor_panel_moldings
 62
    81
420
 10085529
100
AcDbVertex
100
AcDb3dPolylineVertex
 10
-0.0000036321680454
 20
33.99527359008789
 30
35.26097869873047
 70
    32
  0
VERTEX
  5
14F
330
FA
100
AcDbEntity
  8
OracDecor_panel_moldings
 62
    81
420
 10085529
100
AcDbVertex
100
AcDb3dPolylineVertex
 10
-0.0000035668490455
 20
33.97597885131836
 30
33.69475555419922
 70
    32
  0
VERTEX
  5
150
330
FA
100
AcDbEntity
  8
OracDecor_panel_moldings
 62
    81
420
 10085529
100
AcDbVertex
100
AcDb3dPolylineVertex
 10
-0.0000035217290133
 20
33.83440017700195
 30
32.13483428955078
 70
    32
  0
VERTEX
  5
151
330
FA
100
AcDbEntity
  8
OracDecor_panel_moldings
 62
    81
420
 10085529
100
AcDbVertex
100
AcDb3dPolylineVertex
 10
-0.00000349710308
 20
33.57146072387696
 30
30.59143829345703
 70
    32
  0
VERTEX
  5
152
330
FA
100
AcDbEntity
  8
OracDecor_panel_moldings
 62
    81
420
 10085529
100
AcDbVertex
100
AcDb3dPolylineVertex
 10
-0.0000034931204027
 20
33.18875503540039
 30
29.07390213012695
 70
    32
  0
VERTEX
  5
153
330
FA
100
AcDbEntity
  8
OracDecor_panel_moldings
 62
    81
420
 10085529
100
AcDbVertex
100
AcDb3dPolylineVertex
 10
-0.0000035098055378
 20
32.68877792358399
 30
27.59210586547852
 70
    32
  0
VERTEX
  5
154
330
FA
100
AcDbEntity
  8
OracDecor_panel_moldings
 62
    81
420
 10085529
100
AcDbVertex
100
AcDb3dPolylineVertex
 10
-0.0000035470588955
 20
32.07458877563477
 30
26.1551628112793
 70
    32
  0
VERTEX
  5
155
330
FA
100
AcDbEntity
  8
OracDecor_panel_moldings
 62
    81
420
 10085529
100
AcDbVertex
100
AcDb3dPolylineVertex
 10
-0.0000036046385503
 20
31.35013771057129
 30
24.77225875854492
 70
    32
  0
VERTEX
  5
156
330
FA
100
AcDbEntity
  8
OracDecor_panel_moldings
 62
    81
420
 10085529
100
AcDbVertex
100
AcDb3dPolylineVertex
 10
-0.0000036821870708
 20
30.51994895935059
 30
23.45208930969238
 70
    32
  0
VERTEX
  5
157
330
FA
100
AcDbEntity
  8
OracDecor_panel_moldings
 62
    81
420
 10085529
100
AcDbVertex
100
AcDb3dPolylineVertex
 10
-0.0000037792160583
 20
29.58923530578613
 30
22.20290565490723
 70
    32
  0
VERTEX
  5
158
330
FA
100
AcDbEntity
  8
OracDecor_panel_moldings
 62
    81
420
 10085529
100
AcDbVertex
100
AcDb3dPolylineVertex
 10
-0.0000038951056922
 20
28.5639476776123
 30
21.03270721435547
 70
    32
  0
VERTEX
  5
159
330
FA
100
AcDbEntity
  8
OracDecor_panel_moldings
 62
    81
420
 10085529
100
AcDbVertex
100
AcDb3dPolylineVertex
 10
-0.0000040291424739
 20
27.45039558410645
 30
19.94869995117187
 70
    32
  0
VERTEX
  5
15A
330
FA
100
AcDbEntity
  8
OracDecor_panel_moldings
 62
    81
420
 10085529
100
AcDbVertex
100
AcDb3dPolylineVertex
 10
-0.0000041804569264
 20
26.25581169128418
 30
18.95791625976562
 70
    32
  0
VERTEX
  5
15B
330
FA
100
AcDbEntity
  8
OracDecor_panel_moldings
 62
    81
420
 10085529
100
AcDbVertex
100
AcDb3dPolylineVertex
 10
-0.0000005334300113
 20
24.98745918273926
 30
18.06638145446777
 70
    32
  0
VERTEX
  5
15C
330
FA
100
AcDbEntity
  8
OracDecor_panel_moldings
 62
    81
420
 10085529
100
AcDbVertex
100
AcDb3dPolylineVertex
 10
-0.0000007163607734
 20
23.65363121032715
 30
17.27992439270019
 70
    32
  0
VERTEX
  5
15D
330
FA
100
AcDbEntity
  8
OracDecor_panel_moldings
 62
    81
420
 10085529
100
AcDbVertex
100
AcDb3dPolylineVertex
 10
-0.0000009134444099
 20
22.26240730285645
 30
16.60331153869629
 70
    32
  0
VERTEX
  5
15E
330
FA
100
AcDbEntity
  8
OracDecor_panel_moldings
 62
    81
420
 10085529
100
AcDbVertex
100
AcDb3dPolylineVertex
 10
-0.0000011233898931
 20
20.8228931427002
 30
16.04096031188965
 70
    32
  0
VERTEX
  5
15F
330
FA
100
AcDbEntity
  8
OracDecor_panel_moldings
 62
    81
420
 10085529
100
AcDbVertex
100
AcDb3dPolylineVertex
 10
-0.0000013449239304
 20
19.34382820129394
 30
15.5963077545166
 70
    32
  0
VERTEX
  5
160
330
FA
100
AcDbEntity
  8
OracDecor_panel_moldings
 62
    81
420
 10085529
100
AcDbVertex
100
AcDb3dPolylineVertex
 10
-0.0000015766047454
 20
17.83482933044433
 30
15.2722225189209
 70
    32
  0
VERTEX
  5
161
330
FA
100
AcDbEntity
  8
OracDecor_panel_moldings
 62
    81
420
 10085529
100
AcDbVertex
100
AcDb3dPolylineVertex
 10
-0.0000018170112526
 20
16.3051586151123
 30
15.07071113586426
 70
    32
  0
VERTEX
  5
162
330
FA
100
AcDbEntity
  8
OracDecor_panel_moldings
 62
    81
420
 10085529
100
AcDbVertex
100
AcDb3dPolylineVertex
 10
-0.0000020702359507
 20
14.72795295715332
 30
14.98526763916015
 70
    32
  0
VERTEX
  5
163
330
FA
100
AcDbEntity
  8
OracDecor_panel_moldings
 62
    81
420
 10085529
100
AcDbVertex
100
AcDb3dPolylineVertex
 10
-0.0000020841926016
 20
14.62868785858154
 30
14.93457984924316
 70
    32
  0
VERTEX
  5
164
330
FA
100
AcDbEntity
  8
OracDecor_panel_moldings
 62
    81
420
 10085529
100
AcDbVertex
100
AcDb3dPolylineVertex
 10
-0.0000020881861929
 20
14.58706378936767
 30
14.87080192565918
 70
    32
  0
VERTEX
  5
165
330
FA
100
AcDbEntity
  8
OracDecor_panel_moldings
 62
    81
420
 10085529
100
AcDbVertex
100
AcDb3dPolylineVertex
 10
-0.0000020872848836
 20
14.5724573135376
 30
14.79574012756347
 70
    32
  0
VERTEX
  5
166
330
FA
100
AcDbEntity
  8
OracDecor_panel_moldings
 62
    81
420
 10085529
100
AcDbVertex
100
AcDb3dPolylineVertex
 10
-0.000001469792096
 20
14.57246112823486
 30
0.6691678166389466
 70
    32
  0
VERTEX
  5
167
330
FA
100
AcDbEntity
  8
OracDecor_panel_moldings
 62
    81
420
 10085529
100
AcDbVertex
100
AcDb3dPolylineVertex
 10
-0.0000014693753201
 20
14.51018142700195
 30
0.4275029599666596
 70
    32
  0
VERTEX
  5
168
330
FA
100
AcDbEntity
  8
OracDecor_panel_moldings
 62
    81
420
 10085529
100
AcDbVertex
100
AcDb3dPolylineVertex
 10
-0.0000014893591924
 20
14.33930778503418
 30
0.2478039860725403
 70
    32
  0
SEQEND
  5
169
330
FA
100
AcDbEntity
  8
OracDecor_panel_moldings
 62
    81
420
 10085529
  0
ENDSEC
  0
SECTION
  2
OBJECTS
  0
DICTIONARY
  5
C
330
0
100
AcDbDictionary
281
     1
  3
ACAD_COLOR
350
DC
  3
ACAD_DETAILVIEWSTYLE
350
F5
  3
ACAD_GROUP
350
D
  3
ACAD_LAYOUT
350
1A
  3
ACAD_MATERIAL
350
AA
  3
ACAD_MLEADERSTYLE
350
F1
  3
ACAD_MLINESTYLE
350
17
  3
ACAD_PLOTSETTINGS
350
19
  3
ACAD_PLOTSTYLENAME
350
E
  3
ACAD_SCALELIST
350
DF
  3
ACAD_SECTIONVIEWSTYLE
350
F3
  3
ACAD_TABLESTYLE
350
DD
  3
ACAD_VISUALSTYLE
350
C3
  3
ACDB_RECOMPOSE_DATA
350
176
  3
AcDbVariableDictionary
350
16A
  0
DICTIONARY
  5
DC
102
{ACAD_REACTORS
330
C
102
}
330
C
100
AcDbDictionary
281
     1
  0
DICTIONARY
  5
F5
102
{ACAD_REACTORS
330
C
102
}
330
C
100
AcDbDictionary
281
     1
  3
Imperial24
350
F6
  0
DICTIONARY
  5
D
102
{ACAD_REACTORS
330
C
102
}
330
C
100
AcDbDictionary
281
     1
  0
DICTIONARY
  5
1A
102
{ACAD_REACTORS
330
C
102
}
330
C
100
AcDbDictionary
281
     1
  3
Layout1
350
1E
  3
Layout2
350
26
  3
Model
350
22
  0
DICTIONARY
  5
AA
102
{ACAD_REACTORS
330
C
102
}
330
C
100
AcDbDictionary
281
     1
  3
ByBlock
350
B3
  3
ByLayer
350
AB
  3
Global
350
BB
  0
DICTIONARY
  5
F1
102
{ACAD_REACTORS
330
C
102
}
330
C
100
AcDbDictionary
281
     1
  3
Standard
350
F2
  0
DICTIONARY
  5
17
102
{ACAD_REACTORS
330
C
102
}
330
C
100
AcDbDictionary
281
     1
  3
Standard
350
18
  0
DICTIONARY
  5
19
102
{ACAD_REACTORS
330
C
102
}
330
C
100
AcDbDictionary
281
     1
  0
ACDBDICTIONARYWDFLT
  5
E
102
{ACAD_REACTORS
330
C
102
}
330
C
100
AcDbDictionary
281
     1
  3
ByLayer
350
2D
  3
Normal
350
F
100
AcDbDictionaryWithDefault
340
F
  0
DICTIONARY
  5
DF
102
{ACAD_REACTORS
330
C
102
}
330
C
100
AcDbDictionary
281
     1
  3
A0
350
E0
  3
A1
350
E1
  3
A2
350
E2
  3
A3
350
E3
  3
A4
350
E4
  3
A5
350
E5
  3
A6
350
E6
  3
A7
350
E7
  3
A8
350
E8
  3
A9
350
E9
  3
B0
350
EA
  3
B1
350
EB
  3
B2
350
EC
  3
B3
350
ED
  3
B4
350
EE
  3
B5
350
EF
  3
B6
350
F0
  0
DICTIONARY
  5
F3
102
{ACAD_REACTORS
330
C
102
}
330
C
100
AcDbDictionary
281
     1
  3
Imperial24
350
F4
  0
DICTIONARY
  5
DD
102
{ACAD_REACTORS
330
C
102
}
330
C
100
AcDbDictionary
281
     1
  3
Standard
350
DE
  0
DICTIONARY
  5
C3
102
{ACAD_REACTORS
330
C
102
}
330
C
100
AcDbDictionary
281
     1
  3
2dWireframe
350
C9
  3
Basic
350
C8
  3
Brighten
350
CF
  3
ColorChange
350
D3
  3
Conceptual
350
CC
  3
Dim
350
CE
  3
EdgeColorOff
350
DB
  3
Facepattern
350
D2
  3
Flat
350
C4
  3
FlatWithEdges
350
C5
  3
Gouraud
350
C6
  3
GouraudWithEdges
350
C7
  3
Hidden
350
CB
  3
JitterOff
350
D9
  3
Linepattern
350
D1
  3
OverhangOff
350
DA
  3
Realistic
350
CD
  3
Shaded
350
D8
  3
Shaded with edges
350
D7
  3
Shades of Gray
350
D4
  3
Sketchy
350
D5
  3
Thicken
350
D0
  3
Wireframe
350
CA
  3
X-Ray
350
D6
  0
XRECORD
  5
176
102
{ACAD_REACTORS
330
C
102
}
330
C
100
AcDbXrecord
280
     1
 90
        1
330
DE
  0
DICTIONARY
  5
16A
102
{ACAD_REACTORS
330
C
102
}
330
C
100
AcDbDictionary
281
     1
  3
CANNOSCALE
350
170
  3
CMLEADERSTYLE
350
16C
  3
CTABLESTYLE
350
16B
  3
CVIEWDETAILSTYLE
350
16D
  3
CVIEWSECTIONSTYLE
350
16E
  3
LAYEREVAL
350
172
  3
LAYERNOTIFY
350
173
  3
LIGHTINGUNITS
350
171
  3
MSLTSCALE
350
16F
  0
ACDBDETAILVIEWSTYLE
  5
F6
102
{ACAD_XDICTIONARY
360
1AB
102
}
102
{ACAD_REACTORS
330
F5
102
}
330
F5
100
AcDbModelDocViewStyle
 70
     0
  3
Imperial24
290
     0
100
AcDbDetailViewStyle
 70
     0
 71
     0
 90
        3
 71
     1
340
11
 62
   256
 40
0.24
340
0
 62
   256
 40
0.24
300

 40
0.36
280
     3
 71
     2
340
16
 90
       25
 62
   256
 71
     3
340
11
 62
   256
 40
0.24
 90
        1
 40
0.75
 90
        1
300
%<\AcVar ViewType \f "%tc1">% %<\AcVar ViewDetailId>%\PSCALE %<\AcVar ViewScale \f "%sn">%
 71
     4
340
16
 90
       25
 62
   256
340
16
 90
       25
 62
   256
280
     0
  0
LAYOUT
  5
1E
102
{ACAD_REACTORS
330
1A
102
}
330
1A
100
AcDbPlotSettings
  1

  2
\\KTXNTBDC\CASF2PN1
  4

  6

 40
0.0
 41
0.0
 42
0.0
 43
0.0
 44
0.0
 45
0.0
 46
0.0
 47
0.0
 48
0.0
 49
0.0
140
0.0
141
0.0
142
1.0
143
1.0
 70
   688
 72
     0
 73
     0
 74
     5
  7

 75
    16
147
1.0
 76
     0
 77
     2
 78
   300
148
0.0
149
0.0
100
AcDbLayout
  1
Layout1
 70
     1
 71
     1
 10
0.0
 20
0.0
 11
12.0
 21
9.0
 12
0.0
 22
0.0
 32
0.0
 14
1.000000000000000E+20
 24
1.000000000000000E+20
 34
1.000000000000000E+20
 15
-1.000000000000000E+20
 25
-1.000000000000000E+20
 35
-1.000000000000000E+20
146
0.0
 13
0.0
 23
0.0
 33
0.0
 16
1.0
 26
0.0
 36
0.0
 17
0.0
 27
1.0
 37
0.0
 76
     0
330
1B
  0
LAYOUT
  5
26
102
{ACAD_REACTORS
330
1A
102
}
330
1A
100
AcDbPlotSettings
  1

  2
\\KTXNTBDC\CASF2PN1
  4

  6

 40
0.0
 41
0.0
 42
0.0
 43
0.0
 44
0.0
 45
0.0
 46
0.0
 47
0.0
 48
0.0
 49
0.0
140
0.0
141
0.0
142
1.0
143
1.0
 70
   688
 72
     0
 73
     0
 74
     5
  7

 75
    16
147
1.0
 76
     0
 77
     2
 78
   300
148
0.0
149
0.0
100
AcDbLayout
  1
Layout2
 70
     1
 71
     2
 10
0.0
 20
0.0
 11
12.0
 21
9.0
 12
0.0
 22
0.0
 32
0.0
 14
0.0
 24
0.0
 34
0.0
 15
0.0
 25
0.0
 35
0.0
146
0.0
 13
0.0
 23
0.0
 33
0.0
 16
1.0
 26
0.0
 36
0.0
 17
0.0
 27
1.0
 37
0.0
 76
     0
330
23
  0
LAYOUT
  5
22
102
{ACAD_REACTORS
330
1A
102
}
330
1A
100
AcDbPlotSettings
  1

  2
\\KTXNTBDC\CASF2PN1
  4

  6

 40
0.0
 41
0.0
 42
0.0
 43
0.0
 44
0.0
 45
0.0
 46
0.0
 47
0.0
 48
0.0
 49
0.0
140
0.0
141
0.0
142
1.0
143
1.0
 70
  1712
 72
     0
 73
     0
 74
     0
  7

 75
     0
147
1.0
 76
     0
 77
     2
 78
   300
148
0.0
149
0.0
100
AcDbLayout
  1
Model
 70
     1
 71
     0
 10
0.0
 20
0.0
 11
12.0
 21
9.0
 12
0.0
 22
0.0
 32
0.0
 14
0.0
 24
0.0
 34
0.0
 15
0.0
 25
0.0
 35
0.0
146
0.0
 13
0.0
 23
0.0
 33
0.0
 16
1.0
 26
0.0
 36
0.0
 17
0.0
 27
1.0
 37
0.0
 76
     0
330
1F
  0
MATERIAL
  5
B3
102
{ACAD_XDICTIONARY
360
B4
102
}
102
{ACAD_REACTORS
330
AA
102
}
330
AA
100
AcDbMaterial
  1
ByBlock
 72
     0
 43
0.0208333333333333
 43
0.0
 43
0.0
 43
0.0
 43
0.0
 43
0.0208333333333333
 43
0.0
 43
0.0
 43
0.0
 43
0.0
 43
1.0
 43
0.0
 43
0.0
 43
0.0
 43
0.0
 43
1.0
 77
     0
 47
0.0208333333333333
 47
0.0
 47
0.0
 47
0.0
 47
0.0
 47
0.0208333333333333
 47
0.0
 47
0.0
 47
0.0
 47
0.0
 47
1.0
 47
0.0
 47
0.0
 47
0.0
 47
0.0
 47
1.0
171
     0
 49
0.0208333333333333
 49
0.0
 49
0.0
 49
0.0
 49
0.0
 49
0.0208333333333333
 49
0.0
 49
0.0
 49
0.0
 49
0.0
 49
1.0
 49
0.0
 49
0.0
 49
0.0
 49
0.0
 49
1.0
175
     0
142
0.0208333333333333
142
0.0
142
0.0
142
0.0
142
0.0
142
0.0208333333333333
142
0.0
142
0.0
142
0.0
142
0.0
142
1.0
142
0.0
142
0.0
142
0.0
142
0.0
142
1.0
179
     0
144
0.0208333333333333
144
0.0
144
0.0
144
0.0
144
0.0
144
0.0208333333333333
144
0.0
144
0.0
144
0.0
144
0.0
144
1.0
144
0.0
144
0.0
144
0.0
144
0.0
144
1.0
147
0.0208333333333333
147
0.0
147
0.0
147
0.0
147
0.0
147
0.0208333333333333
147
0.0
147
0.0
147
0.0
147
0.0
147
1.0
147
0.0
147
0.0
147
0.0
147
0.0
147
1.0
  0
MATERIAL
  5
AB
102
{ACAD_XDICTIONARY
360
AC
102
}
102
{ACAD_REACTORS
330
AA
102
}
330
AA
100
AcDbMaterial
  1
ByLayer
 72
     0
 43
0.0208333333333333
 43
0.0
 43
0.0
 43
0.0
 43
0.0
 43
0.0208333333333333
 43
0.0
 43
0.0
 43
0.0
 43
0.0
 43
1.0
 43
0.0
 43
0.0
 43
0.0
 43
0.0
 43
1.0
 77
     0
 47
0.0208333333333333
 47
0.0
 47
0.0
 47
0.0
 47
0.0
 47
0.0208333333333333
 47
0.0
 47
0.0
 47
0.0
 47
0.0
 47
1.0
 47
0.0
 47
0.0
 47
0.0
 47
0.0
 47
1.0
171
     0
 49
0.0208333333333333
 49
0.0
 49
0.0
 49
0.0
 49
0.0
 49
0.0208333333333333
 49
0.0
 49
0.0
 49
0.0
 49
0.0
 49
1.0
 49
0.0
 49
0.0
 49
0.0
 49
0.0
 49
1.0
175
     0
142
0.0208333333333333
142
0.0
142
0.0
142
0.0
142
0.0
142
0.0208333333333333
142
0.0
142
0.0
142
0.0
142
0.0
142
1.0
142
0.0
142
0.0
142
0.0
142
0.0
142
1.0
179
     0
144
0.0208333333333333
144
0.0
144
0.0
144
0.0
144
0.0
144
0.0208333333333333
144
0.0
144
0.0
144
0.0
144
0.0
144
1.0
144
0.0
144
0.0
144
0.0
144
0.0
144
1.0
147
0.0208333333333333
147
0.0
147
0.0
147
0.0
147
0.0
147
0.0208333333333333
147
0.0
147
0.0
147
0.0
147
0.0
147
1.0
147
0.0
147
0.0
147
0.0
147
0.0
147
1.0
  0
MATERIAL
  5
BB
102
{ACAD_XDICTIONARY
360
BC
102
}
102
{ACAD_REACTORS
330
AA
102
}
330
AA
100
AcDbMaterial
  1
Global
 72
     0
 43
0.0208333333333333
 43
0.0
 43
0.0
 43
0.0
 43
0.0
 43
0.0208333333333333
 43
0.0
 43
0.0
 43
0.0
 43
0.0
 43
1.0
 43
0.0
 43
0.0
 43
0.0
 43
0.0
 43
1.0
 77
     0
 47
0.0208333333333333
 47
0.0
 47
0.0
 47
0.0
 47
0.0
 47
0.0208333333333333
 47
0.0
 47
0.0
 47
0.0
 47
0.0
 47
1.0
 47
0.0
 47
0.0
 47
0.0
 47
0.0
 47
1.0
171
     0
 49
0.0208333333333333
 49
0.0
 49
0.0
 49
0.0
 49
0.0
 49
0.0208333333333333
 49
0.0
 49
0.0
 49
0.0
 49
0.0
 49
1.0
 49
0.0
 49
0.0
 49
0.0
 49
0.0
 49
1.0
175
     0
142
0.0208333333333333
142
0.0
142
0.0
142
0.0
142
0.0
142
0.0208333333333333
142
0.0
142
0.0
142
0.0
142
0.0
142
1.0
142
0.0
142
0.0
142
0.0
142
0.0
142
1.0
179
     0
144
0.0208333333333333
144
0.0
144
0.0
144
0.0
144
0.0
144
0.0208333333333333
144
0.0
144
0.0
144
0.0
144
0.0
144
1.0
144
0.0
144
0.0
144
0.0
144
0.0
144
1.0
147
0.0208333333333333
147
0.0
147
0.0
147
0.0
147
0.0
147
0.0208333333333333
147
0.0
147
0.0
147
0.0
147
0.0
147
1.0
147
0.0
147
0.0
147
0.0
147
0.0
147
1.0
  0
MLEADERSTYLE
  5
F2
102
{ACAD_XDICTIONARY
360
1A7
102
}
102
{ACAD_REACTORS
330
F1
102
}
330
F1
100
AcDbMLeaderStyle
179
     2
170
     2
171
     1
172
     0
 90
        2
 40
0.0
 41
0.0
173
     1
 91
-1056964608
340
14
 92
       -2
290
     1
 42
0.09
291
     1
 43
0.36
  3
Standard
 44
0.18
300

342
11
174
     1
178
     6
175
     1
176
     0
 93
-1056964608
 45
0.18
292
     0
297
     0
 46
0.18
 94
-1056964608
 47
1.0
 49
1.0
140
1.0
293
     1
141
0.0
294
     1
177
     0
142
1.0
295
     0
296
     0
143
0.125
271
     0
272
     9
273
     9
  0
MLINESTYLE
  5
18
102
{ACAD_REACTORS
330
17
102
}
330
17
100
AcDbMlineStyle
  2
STANDARD
 70
     0
  3

 62
   256
 51
90.0
 52
90.0
 71
     2
 49
0.5
 62
   256
  6
BYLAYER
 49
-0.5
 62
   256
  6
BYLAYER
  0
ACDBPLACEHOLDER
  5
2D
102
{ACAD_REACTORS
330
E
102
}
330
E
  0
ACDBPLACEHOLDER
  5
F
102
{ACAD_REACTORS
330
E
102
}
330
E
  0
SCALE
  5
E0
102
{ACAD_REACTORS
330
DF
102
}
330
DF
100
AcDbScale
 70
     0
300
1:1
140
1.0
141
1.0
290
     1
  0
SCALE
  5
E1
102
{ACAD_REACTORS
330
DF
102
}
330
DF
100
AcDbScale
 70
     0
300
1/128" = 1'-0"
140
0.0078125
141
12.0
290
     0
  0
SCALE
  5
E2
102
{ACAD_REACTORS
330
DF
102
}
330
DF
100
AcDbScale
 70
     0
300
1/64" = 1'-0"
140
0.015625
141
12.0
290
     0
  0
SCALE
  5
E3
102
{ACAD_REACTORS
330
DF
102
}
330
DF
100
AcDbScale
 70
     0
300
1/32" = 1'-0"
140
0.03125
141
12.0
290
     0
  0
SCALE
  5
E4
102
{ACAD_REACTORS
330
DF
102
}
330
DF
100
AcDbScale
 70
     0
300
1/16" = 1'-0"
140
0.0625
141
12.0
290
     0
  0
SCALE
  5
E5
102
{ACAD_REACTORS
330
DF
102
}
330
DF
100
AcDbScale
 70
     0
300
3/32" = 1'-0"
140
0.09375
141
12.0
290
     0
  0
SCALE
  5
E6
102
{ACAD_REACTORS
330
DF
102
}
330
DF
100
AcDbScale
 70
     0
300
1/8" = 1'-0"
140
0.125
141
12.0
290
     0
  0
SCALE
  5
E7
102
{ACAD_REACTORS
330
DF
102
}
330
DF
100
AcDbScale
 70
     0
300
3/16" = 1'-0"
140
0.1875
141
12.0
290
     0
  0
SCALE
  5
E8
102
{ACAD_REACTORS
330
DF
102
}
330
DF
100
AcDbScale
 70
     0
300
1/4" = 1'-0"
140
0.25
141
12.0
290
     0
  0
SCALE
  5
E9
102
{ACAD_REACTORS
330
DF
102
}
330
DF
100
AcDbScale
 70
     0
300
3/8" = 1'-0"
140
0.375
141
12.0
290
     0
  0
SCALE
  5
EA
102
{ACAD_REACTORS
330
DF
102
}
330
DF
100
AcDbScale
 70
     0
300
1/2" = 1'-0"
140
0.5
141
12.0
290
     0
  0
SCALE
  5
EB
102
{ACAD_REACTORS
330
DF
102
}
330
DF
100
AcDbScale
 70
     0
300
3/4" = 1'-0"
140
0.75
141
12.0
290
     0
  0
SCALE
  5
EC
102
{ACAD_REACTORS
330
DF
102
}
330
DF
100
AcDbScale
 70
     0
300
1" = 1'-0"
140
1.0
141
12.0
290
     0
  0
SCALE
  5
ED
102
{ACAD_REACTORS
330
DF
102
}
330
DF
100
AcDbScale
 70
     0
300
1-1/2" = 1'-0"
140
1.5
141
12.0
290
     0
  0
SCALE
  5
EE
102
{ACAD_REACTORS
330
DF
102
}
330
DF
100
AcDbScale
 70
     0
300
3" = 1'-0"
140
3.0
141
12.0
290
     0
  0
SCALE
  5
EF
102
{ACAD_REACTORS
330
DF
102
}
330
DF
100
AcDbScale
 70
     0
300
6" = 1'-0"
140
6.0
141
12.0
290
     0
  0
SCALE
  5
F0
102
{ACAD_REACTORS
330
DF
102
}
330
DF
100
AcDbScale
 70
     0
300
1'-0" = 1'-0"
140
12.0
141
12.0
290
     0
  0
ACDBSECTIONVIEWSTYLE
  5
F4
102
{ACAD_XDICTIONARY
360
1A9
102
}
102
{ACAD_REACTORS
330
F3
102
}
330
F3
100
AcDbModelDocViewStyle
 70
     0
  3
Imperial24
290
     0
100
AcDbSectionViewStyle
 70
     0
 71
     0
 90
       78
 71
     1
340
11
 62
   256
 40
0.24
340
0
340
0
 62
   256
 40
0.24
300
I, O, Q, S, X, Z
 40
0.48
 90
        3
 40
0.18
 90
        1
 71
     2
340
16
 90
       25
 62
   256
340
16
 90
       50
 62
   256
 40
0.24
 40
0.0
 40
0.24
 71
     3
340
11
 62
   256
 40
0.24
 90
        1
 40
0.75
 90
        1
300
%<\AcVar ViewType \f "%tc1">% %<\AcVar ViewSectionStartId>%-%<\AcVar ViewSectionEndId>%\PSCALE %<\AcVar ViewScale \f "%sn">%
 71
     4
 62
   256
 62
   257
300
ANSI31
 40
1.0
 90
        0
290
     0
290
     0
 90
        6
 40
0.0
 40
1.570796326794896
 40
0.2617993877991494
 40
1.308996938995747
 40
-0.2617993877991494
 40
1.832595714594046
  0
TABLESTYLE
  5
DE
102
{ACAD_XDICTIONARY
360
174
102
}
102
{ACAD_REACTORS
330
DD
102
}
330
DD
100
AcDbTableStyle
280
     0
  3
Standard
 70
     0
 71
     0
 40
0.06
 41
0.06
280
     0
281
     0
  7
Standard
140
0.18
170
     2
 62
     0
 63
     7
283
     0
 90
      512
 91
        0
  1

274
    -2
284
     1
 64
     0
275
    -2
285
     1
 65
     0
276
    -2
286
     1
 66
     0
277
    -2
287
     1
 67
     0
278
    -2
288
     1
 68
     0
279
    -2
289
     1
 69
     0
  7
Standard
140
0.25
170
     5
 62
     0
 63
     7
283
     0
 90
      512
 91
        0
  1

274
    -2
284
     1
 64
     0
275
    -2
285
     1
 65
     0
276
    -2
286
     1
 66
     0
277
    -2
287
     1
 67
     0
278
    -2
288
     1
 68
     0
279
    -2
289
     1
 69
     0
  7
Standard
140
0.18
170
     5
 62
     0
 63
     7
283
     0
 90
      512
 91
        0
  1

274
    -2
284
     1
 64
     0
275
    -2
285
     1
 65
     0
276
    -2
286
     1
 66
     0
277
    -2
287
     1
 67
     0
278
    -2
288
     1
 68
     0
279
    -2
289
     1
 69
     0
  0
VISUALSTYLE
  5
C9
102
{ACAD_XDICTIONARY
360
181
102
}
102
{ACAD_REACTORS
330
C3
102
}
330
C3
100
AcDbVisualStyle
  2
2dWireframe
 70
     4
177
     2
291
     0
 71
     0
176
     1
 72
     2
176
     1
 73
     0
176
     1
 90
        0
176
     1
 40
0.6
176
     1
 41
30.0
176
     1
 63
     7
421
 16777215
176
     1
 74
     1
176
     1
 91
        4
176
     1
 64
     7
176
     1
 65
   257
176
     1
 75
     1
176
     1
175
     1
176
     1
 42
1.0
176
     1
 92
        0
176
     1
 66
   257
176
     1
 43
1.0
176
     1
 76
     1
176
     1
 77
     6
176
     1
 78
     2
176
     1
 67
     7
176
     1
 79
     5
176
     1
170
     0
176
     1
171
     0
176
     1
290
     0
176
     1
 93
        1
176
     1
 44
0.0
176
     1
173
     0
176
     1
1001
ACAD
1000
AcDbSavedByObjectVersion
1070
     0
  0
VISUALSTYLE
  5
C8
102
{ACAD_XDICTIONARY
360
17F
102
}
102
{ACAD_REACTORS
330
C3
102
}
330
C3
100
AcDbVisualStyle
  2
Basic
 70
     7
177
     2
291
     1
 71
     1
176
     1
 72
     0
176
     1
 73
     1
176
     1
 90
        0
176
     1
 40
0.6
176
     1
 41
30.0
176
     1
 63
     7
421
 16777215
176
     1
 74
     0
176
     1
 91
        4
176
     1
 64
     7
176
     1
 65
   257
176
     1
 75
     1
176
     1
175
     1
176
     1
 42
1.0
176
     1
 92
        8
176
     1
 66
     7
176
     1
 43
1.0
176
     1
 76
     1
176
     1
 77
     6
176
     1
 78
     2
176
     1
 67
     7
176
     1
 79
     5
176
     1
170
     0
176
     1
171
     0
176
     1
290
     0
176
     1
 93
        1
176
     1
 44
0.0
176
     1
173
     0
176
     1
1001
ACAD
1000
AcDbSavedByObjectVersion
1070
     0
  0
VISUALSTYLE
  5
CF
102
{ACAD_XDICTIONARY
360
18D
102
}
102
{ACAD_REACTORS
330
C3
102
}
330
C3
100
AcDbVisualStyle
  2
Brighten
 70
    12
177
     2
291
     1
 71
     2
176
     1
 72
     2
176
     1
 73
     0
176
     1
 90
        0
176
     1
 40
0.6
176
     1
 41
30.0
176
     1
 63
     7
421
 16777215
176
     1
 74
     1
176
     1
 91
        4
176
     1
 64
     7
176
     1
 65
   257
176
     1
 75
     1
176
     1
175
     1
176
     1
 42
1.0
176
     1
 92
        8
176
     1
 66
     7
176
     1
 43
1.0
176
     1
 76
     1
176
     1
 77
     6
176
     1
 78
     2
176
     1
 67
     7
176
     1
 79
     5
176
     1
170
     0
176
     1
171
     0
176
     1
290
     0
176
     1
 93
        1
176
     1
 44
50.0
176
     1
173
     0
176
     1
1001
ACAD
1000
AcDbSavedByObjectVersion
1070
     0
  0
VISUALSTYLE
  5
D3
102
{ACAD_XDICTIONARY
360
195
102
}
102
{ACAD_REACTORS
330
C3
102
}
330
C3
100
AcDbVisualStyle
  2
ColorChange
 70
    16
177
     2
291
     1
 71
     2
176
     1
 72
     2
176
     1
 73
     3
176
     1
 90
        0
176
     1
 40
0.6
176
     1
 41
30.0
176
     1
 63
     8
421
  8421504
176
     1
 74
     1
176
     1
 91
        4
176
     1
 64
     7
176
     1
 65
   257
176
     1
 75
     1
176
     1
175
     1
176
     1
 42
1.0
176
     1
 92
        8
176
     1
 66
     8
424
  8421504
176
     1
 43
1.0
176
     1
 76
     1
176
     1
 77
     6
176
     1
 78
     2
176
     1
 67
     7
176
     1
 79
     5
176
     1
170
     0
176
     1
171
     0
176
     1
290
     0
176
     1
 93
        1
176
     1
 44
0.0
176
     1
173
     0
176
     1
1001
ACAD
1000
AcDbSavedByObjectVersion
1070
     0
  0
VISUALSTYLE
  5
CC
102
{ACAD_XDICTIONARY
360
187
102
}
102
{ACAD_REACTORS
330
C3
102
}
330
C3
100
AcDbVisualStyle
  2
Conceptual
 70
     9
177
     2
291
     0
 71
     3
176
     1
 72
     2
176
     1
 73
     0
176
     1
 90
        0
176
     1
 40
0.6
176
     1
 41
30.0
176
     1
 63
     7
421
 16777215
176
     1
 74
     2
176
     1
 91
        2
176
     1
 64
     7
176
     1
 65
   257
176
     1
 75
     1
176
     1
175
     1
176
     1
 42
179.0
176
     1
 92
        8
176
     1
 66
     7
176
     1
 43
1.0
176
     1
 76
     1
176
     1
 77
     6
176
     1
 78
     2
176
     1
 67
     7
176
     1
 79
     3
176
     1
170
     0
176
     1
171
     0
176
     1
290
     0
176
     1
 93
        1
176
     1
 44
0.0
176
     1
173
     0
176
     1
1001
ACAD
1000
AcDbSavedByObjectVersion
1070
     0
  0
VISUALSTYLE
  5
CE
102
{ACAD_XDICTIONARY
360
18B
102
}
102
{ACAD_REACTORS
330
C3
102
}
330
C3
100
AcDbVisualStyle
  2
Dim
 70
    11
177
     2
291
     1
 71
     2
176
     1
 72
     2
176
     1
 73
     0
176
     1
 90
        0
176
     1
 40
0.6
176
     1
 41
30.0
176
     1
 63
     7
421
 16777215
176
     1
 74
     1
176
     1
 91
        4
176
     1
 64
     7
176
     1
 65
   257
176
     1
 75
     1
176
     1
175
     1
176
     1
 42
1.0
176
     1
 92
        8
176
     1
 66
     7
176
     1
 43
1.0
176
     1
 76
     1
176
     1
 77
     6
176
     1
 78
     2
176
     1
 67
     7
176
     1
 79
     5
176
     1
170
     0
176
     1
171
     0
176
     1
290
     0
176
     1
 93
        1
176
     1
 44
-50.0
176
     1
173
     0
176
     1
1001
ACAD
1000
AcDbSavedByObjectVersion
1070
     0
  0
VISUALSTYLE
  5
DB
102
{ACAD_XDICTIONARY
360
1A5
102
}
102
{ACAD_REACTORS
330
C3
102
}
330
C3
100
AcDbVisualStyle
  2
EdgeColorOff
 70
    22
177
     2
291
     1
 71
     2
176
     0
 72
     2
176
     0
 73
     0
176
     0
 90
        0
176
     0
 40
0.6
176
     0
 41
30.0
176
     0
 63
     7
421
 16777215
176
     0
 74
     1
176
     0
 91
        4
176
     0
 64
     7
176
     0
 65
   257
176
     0
 75
     1
176
     0
175
     1
176
     0
 42
1.0
176
     0
 92
        8
176
     2
 66
     7
176
     0
 43
1.0
176
     0
 76
     1
176
     0
 77
     6
176
     0
 78
     2
176
     0
 67
     7
176
     0
 79
     5
176
     0
170
     0
176
     0
171
     0
176
     0
290
     0
176
     0
 93
        1
176
     0
 44
0.0
176
     0
173
     0
176
     0
1001
ACAD
1000
AcDbSavedByObjectVersion
1070
     0
  0
VISUALSTYLE
  5
D2
102
{ACAD_XDICTIONARY
360
193
102
}
102
{ACAD_REACTORS
330
C3
102
}
330
C3
100
AcDbVisualStyle
  2
Facepattern
 70
    15
177
     2
291
     1
 71
     2
176
     1
 72
     2
176
     1
 73
     0
176
     1
 90
        0
176
     1
 40
0.6
176
     1
 41
30.0
176
     1
 63
     7
421
 16777215
176
     1
 74
     1
176
     1
 91
        4
176
     1
 64
     7
176
     1
 65
   257
176
     1
 75
     1
176
     1
175
     1
176
     1
 42
1.0
176
     1
 92
        8
176
     1
 66
     7
176
     1
 43
1.0
176
     1
 76
     1
176
     1
 77
     6
176
     1
 78
     2
176
     1
 67
     7
176
     1
 79
     5
176
     1
170
     0
176
     1
171
     0
176
     1
290
     0
176
     1
 93
        1
176
     1
 44
0.0
176
     1
173
     0
176
     1
1001
ACAD
1000
AcDbSavedByObjectVersion
1070
     0
  0
VISUALSTYLE
  5
C4
102
{ACAD_XDICTIONARY
360
177
102
}
102
{ACAD_REACTORS
330
C3
102
}
330
C3
100
AcDbVisualStyle
  2
Flat
 70
     0
177
     2
291
     1
 71
     2
176
     1
 72
     1
176
     1
 73
     1
176
     1
 90
        2
176
     1
 40
0.6
176
     1
 41
30.0
176
     1
 63
     7
421
 16777215
176
     1
 74
     0
176
     1
 91
        0
176
     1
 64
     7
176
     1
 65
   257
176
     1
 75
     1
176
     1
175
     1
176
     1
 42
1.0
176
     1
 92
        8
176
     1
 66
     7
176
     1
 43
1.0
176
     1
 76
     1
176
     1
 77
     6
176
     1
 78
     2
176
     1
 67
     7
176
     1
 79
     5
176
     1
170
     0
176
     1
171
     0
176
     1
290
     0
176
     1
 93
       13
176
     1
 44
0.0
176
     1
173
     0
176
     1
1001
ACAD
1000
AcDbSavedByObjectVersion
1070
     0
  0
VISUALSTYLE
  5
C5
102
{ACAD_XDICTIONARY
360
179
102
}
102
{ACAD_REACTORS
330
C3
102
}
330
C3
100
AcDbVisualStyle
  2
FlatWithEdges
 70
     1
177
     2
291
     1
 71
     2
176
     1
 72
     1
176
     1
 73
     1
176
     1
 90
        2
176
     1
 40
0.6
176
     1
 41
30.0
176
     1
 63
     7
421
 16777215
176
     1
 74
     1
176
     1
 91
        0
176
     1
 64
     7
176
     1
 65
   257
176
     1
 75
     1
176
     1
175
     1
176
     1
 42
1.0
176
     1
 92
        0
176
     1
 66
   257
176
     1
 43
1.0
176
     1
 76
     1
176
     1
 77
     6
176
     1
 78
     2
176
     1
 67
     7
176
     1
 79
     5
176
     1
170
     0
176
     1
171
     0
176
     1
290
     0
176
     1
 93
       13
176
     1
 44
0.0
176
     1
173
     0
176
     1
1001
ACAD
1000
AcDbSavedByObjectVersion
1070
     0
  0
VISUALSTYLE
  5
C6
102
{ACAD_XDICTIONARY
360
17B
102
}
102
{ACAD_REACTORS
330
C3
102
}
330
C3
100
AcDbVisualStyle
  2
Gouraud
 70
     2
177
     2
291
     1
 71
     2
176
     1
 72
     2
176
     1
 73
     1
176
     1
 90
        2
176
     1
 40
0.6
176
     1
 41
30.0
176
     1
 63
     7
421
 16777215
176
     1
 74
     0
176
     1
 91
        0
176
     1
 64
     7
176
     1
 65
   257
176
     1
 75
     1
176
     1
175
     1
176
     1
 42
1.0
176
     1
 92
        0
176
     1
 66
     7
176
     1
 43
1.0
176
     1
 76
     1
176
     1
 77
     6
176
     1
 78
     2
176
     1
 67
     7
176
     1
 79
     5
176
     1
170
     0
176
     1
171
     0
176
     1
290
     0
176
     1
 93
       13
176
     1
 44
0.0
176
     1
173
     0
176
     1
1001
ACAD
1000
AcDbSavedByObjectVersion
1070
     0
  0
VISUALSTYLE
  5
C7
102
{ACAD_XDICTIONARY
360
17D
102
}
102
{ACAD_REACTORS
330
C3
102
}
330
C3
100
AcDbVisualStyle
  2
GouraudWithEdges
 70
     3
177
     2
291
     1
 71
     2
176
     1
 72
     2
176
     1
 73
     1
176
     1
 90
        2
176
     1
 40
0.6
176
     1
 41
30.0
176
     1
 63
     7
421
 16777215
176
     1
 74
     1
176
     1
 91
        0
176
     1
 64
     7
176
     1
 65
   257
176
     1
 75
     1
176
     1
175
     1
176
     1
 42
1.0
176
     1
 92
        0
176
     1
 66
   257
176
     1
 43
1.0
176
     1
 76
     1
176
     1
 77
     6
176
     1
 78
     2
176
     1
 67
     7
176
     1
 79
     5
176
     1
170
     0
176
     1
171
     0
176
     1
290
     0
176
     1
 93
       13
176
     1
 44
0.0
176
     1
173
     0
176
     1
1001
ACAD
1000
AcDbSavedByObjectVersion
1070
     0
  0
VISUALSTYLE
  5
CB
102
{ACAD_XDICTIONARY
360
185
102
}
102
{ACAD_REACTORS
330
C3
102
}
330
C3
100
AcDbVisualStyle
  2
Hidden
 70
     6
177
     2
291
     0
 71
     1
176
     1
 72
     2
176
     1
 73
     2
176
     1
 90
        0
176
     1
 40
0.6
176
     1
 41
30.0
176
     1
 63
     7
421
 16777215
176
     1
 74
     2
176
     1
 91
        2
176
     1
 64
     7
176
     1
 65
   257
176
     1
 75
     2
176
     1
175
     1
176
     1
 42
40.0
176
     1
 92
        0
176
     1
 66
   257
176
     1
 43
1.0
176
     1
 76
     1
176
     1
 77
     6
176
     1
 78
     2
176
     1
 67
     7
176
     1
 79
     3
176
     1
170
     0
176
     1
171
     0
176
     1
290
     0
176
     1
 93
        1
176
     1
 44
0.0
176
     1
173
     0
176
     1
1001
ACAD
1000
AcDbSavedByObjectVersion
1070
     0
  0
VISUALSTYLE
  5
D9
102
{ACAD_XDICTIONARY
360
1A1
102
}
102
{ACAD_REACTORS
330
C3
102
}
330
C3
100
AcDbVisualStyle
  2
JitterOff
 70
    20
177
     2
291
     1
 71
     2
176
     0
 72
     2
176
     0
 73
     0
176
     0
 90
        0
176
     0
 40
0.6
176
     0
 41
30.0
176
     0
 63
     7
421
 16777215
176
     0
 74
     1
176
     0
 91
        4
176
     0
 64
     7
176
     0
 65
   257
176
     0
 75
     1
176
     0
175
     1
176
     0
 42
1.0
176
     0
 92
       10
176
     2
 66
     7
176
     0
 43
1.0
176
     0
 76
     1
176
     0
 77
     6
176
     0
 78
     2
176
     0
 67
     7
176
     0
 79
     5
176
     0
170
     0
176
     0
171
     0
176
     0
290
     0
176
     0
 93
        1
176
     0
 44
0.0
176
     0
173
     0
176
     0
1001
ACAD
1000
AcDbSavedByObjectVersion
1070
     0
  0
VISUALSTYLE
  5
D1
102
{ACAD_XDICTIONARY
360
191
102
}
102
{ACAD_REACTORS
330
C3
102
}
330
C3
100
AcDbVisualStyle
  2
Linepattern
 70
    14
177
     2
291
     1
 71
     2
176
     1
 72
     2
176
     1
 73
     0
176
     1
 90
        0
176
     1
 40
0.6
176
     1
 41
30.0
176
     1
 63
     7
421
 16777215
176
     1
 74
     1
176
     1
 91
        4
176
     1
 64
     7
176
     1
 65
   257
176
     1
 75
     7
176
     1
175
     7
176
     1
 42
1.0
176
     1
 92
        8
176
     1
 66
     7
176
     1
 43
1.0
176
     1
 76
     1
176
     1
 77
     6
176
     1
 78
     2
176
     1
 67
     7
176
     1
 79
     5
176
     1
170
     0
176
     1
171
     0
176
     1
290
     0
176
     1
 93
        1
176
     1
 44
0.0
176
     1
173
     0
176
     1
1001
ACAD
1000
AcDbSavedByObjectVersion
1070
     0
  0
VISUALSTYLE
  5
DA
102
{ACAD_XDICTIONARY
360
1A3
102
}
102
{ACAD_REACTORS
330
C3
102
}
330
C3
100
AcDbVisualStyle
  2
OverhangOff
 70
    21
177
     2
291
     1
 71
     2
176
     0
 72
     2
176
     0
 73
     0
176
     0
 90
        0
176
     0
 40
0.6
176
     0
 41
30.0
176
     0
 63
     7
421
 16777215
176
     0
 74
     1
176
     0
 91
        4
176
     0
 64
     7
176
     0
 65
   257
176
     0
 75
     1
176
     0
175
     1
176
     0
 42
1.0
176
     0
 92
        9
176
     2
 66
     7
176
     0
 43
1.0
176
     0
 76
     1
176
     0
 77
     6
176
     0
 78
     2
176
     0
 67
     7
176
     0
 79
     5
176
     0
170
     0
176
     0
171
     0
176
     0
290
     0
176
     0
 93
        1
176
     0
 44
0.0
176
     0
173
     0
176
     0
1001
ACAD
1000
AcDbSavedByObjectVersion
1070
     0
  0
VISUALSTYLE
  5
CD
102
{ACAD_XDICTIONARY
360
189
102
}
102
{ACAD_REACTORS
330
C3
102
}
330
C3
100
AcDbVisualStyle
  2
Realistic
 70
     8
177
     2
291
     0
 71
     2
176
     1
 72
     3
176
     1
 73
     0
176
     1
 90
        2
176
     1
 40
0.6
176
     1
 41
30.0
176
     1
 63
     7
421
 16777215
176
     1
 74
     0
176
     1
 91
        0
176
     1
 64
     7
176
     1
 65
   257
176
     1
 75
     1
176
     1
175
     1
176
     1
 42
1.0
176
     1
 92
        8
176
     1
 66
   257
176
     1
 43
1.0
176
     1
 76
     1
176
     1
 77
     6
176
     1
 78
     2
176
     1
 67
     7
176
     1
 79
     3
176
     1
170
     0
176
     1
171
     0
176
     1
290
     0
176
     1
 93
       13
176
     1
 44
0.0
176
     1
173
     0
176
     1
1001
ACAD
1000
AcDbSavedByObjectVersion
1070
     0
  0
VISUALSTYLE
  5
D8
102
{ACAD_XDICTIONARY
360
19F
102
}
102
{ACAD_REACTORS
330
C3
102
}
330
C3
100
AcDbVisualStyle
  2
Shaded
 70
    27
177
     2
291
     0
 71
     2
176
     1
 72
     2
176
     1
 73
     1
176
     1
 90
        2
176
     1
 40
0.6
176
     1
 41
30.0
176
     1
 63
     7
421
 16777215
176
     1
 74
     0
176
     1
 91
        4
176
     1
 64
     7
176
     1
 65
   257
176
     1
 75
     1
176
     1
175
     1
176
     1
 42
1.0
176
     1
 92
        8
176
     1
 66
   257
176
     1
 43
1.0
176
     1
 76
     1
176
     1
 77
     6
176
     1
 78
     2
176
     1
 67
     8
425
  7895160
176
     1
 79
     3
176
     1
170
     0
176
     1
171
     0
176
     1
290
     0
176
     1
 93
        5
176
     1
 44
0.0
176
     1
173
     0
176
     1
1001
ACAD
1000
AcDbSavedByObjectVersion
1070
     0
  0
VISUALSTYLE
  5
D7
102
{ACAD_XDICTIONARY
360
19D
102
}
102
{ACAD_REACTORS
330
C3
102
}
330
C3
100
AcDbVisualStyle
  2
Shaded with edges
 70
    26
177
     2
291
     0
 71
     2
176
     1
 72
     2
176
     1
 73
     1
176
     1
 90
        2
176
     1
 40
0.6
176
     1
 41
30.0
176
     1
 63
     7
421
 16777215
176
     1
 74
     1
176
     1
 91
       10
176
     1
 64
     7
176
     1
 65
   257
176
     1
 75
     2
176
     1
175
     1
176
     1
 42
1.0
176
     1
 92
        8
176
     1
 66
   257
176
     1
 43
1.0
176
     1
 76
     1
176
     1
 77
     6
176
     1
 78
     2
176
     1
 67
     7
176
     1
 79
     3
176
     1
170
     0
176
     1
171
     0
176
     1
290
     0
176
     1
 93
        5
176
     1
 44
0.0
176
     1
173
     0
176
     1
1001
ACAD
1000
AcDbSavedByObjectVersion
1070
     0
  0
VISUALSTYLE
  5
D4
102
{ACAD_XDICTIONARY
360
197
102
}
102
{ACAD_REACTORS
330
C3
102
}
330
C3
100
AcDbVisualStyle
  2
Shades of Gray
 70
    23
177
     2
291
     0
 71
     2
176
     1
 72
     2
176
     1
 73
     3
176
     1
 90
        0
176
     1
 40
0.6
176
     1
 41
30.0
176
     1
 63
     7
421
 16777215
176
     1
 74
     2
176
     1
 91
        2
176
     1
 64
     7
176
     1
 65
     7
176
     1
 75
     1
176
     1
175
     1
176
     1
 42
40.0
176
     1
 92
        8
176
     1
 66
     7
176
     1
 43
1.0
176
     1
 76
     1
176
     1
 77
     6
176
     1
 78
     2
176
     1
 67
     7
176
     1
 79
     3
176
     1
170
     0
176
     1
171
     0
176
     1
290
     0
176
     1
 93
        1
176
     1
 44
0.0
176
     1
173
     0
176
     1
1001
ACAD
1000
AcDbSavedByObjectVersion
1070
     0
  0
VISUALSTYLE
  5
D5
102
{ACAD_XDICTIONARY
360
199
102
}
102
{ACAD_REACTORS
330
C3
102
}
330
C3
100
AcDbVisualStyle
  2
Sketchy
 70
    24
177
     2
291
     0
 71
     1
176
     1
 72
     2
176
     1
 73
     2
176
     1
 90
        0
176
     1
 40
0.6
176
     1
 41
30.0
176
     1
 63
     7
421
 16777215
176
     1
 74
     2
176
     1
 91
        2
176
     1
 64
     7
176
     1
 65
     7
176
     1
 75
     1
176
     1
175
     1
176
     1
 42
40.0
176
     1
 92
       11
176
     1
 66
     7
176
     1
 43
1.0
176
     1
 76
     1
176
     1
 77
     6
176
     1
 78
     2
176
     1
 67
     7
176
     1
 79
     6
176
     1
170
     0
176
     1
171
     0
176
     1
290
     0
176
     1
 93
        1
176
     1
 44
0.0
176
     1
173
     0
176
     1
1001
ACAD
1000
AcDbSavedByObjectVersion
1070
     0
  0
VISUALSTYLE
  5
D0
102
{ACAD_XDICTIONARY
360
18F
102
}
102
{ACAD_REACTORS
330
C3
102
}
330
C3
100
AcDbVisualStyle
  2
Thicken
 70
    13
177
     2
291
     1
 71
     2
176
     1
 72
     2
176
     1
 73
     0
176
     1
 90
        0
176
     1
 40
0.6
176
     1
 41
30.0
176
     1
 63
     7
421
 16777215
176
     1
 74
     1
176
     1
 91
        4
176
     1
 64
     7
176
     1
 65
   257
176
     1
 75
     1
176
     1
175
     1
176
     1
 42
1.0
176
     1
 92
       12
176
     1
 66
     7
176
     1
 43
1.0
176
     1
 76
     1
176
     1
 77
     6
176
     1
 78
     2
176
     1
 67
     7
176
     1
 79
     5
176
     1
170
     0
176
     1
171
     0
176
     1
290
     0
176
     1
 93
        1
176
     1
 44
0.0
176
     1
173
     0
176
     1
1001
ACAD
1000
AcDbSavedByObjectVersion
1070
     0
  0
VISUALSTYLE
  5
CA
102
{ACAD_XDICTIONARY
360
183
102
}
102
{ACAD_REACTORS
330
C3
102
}
330
C3
100
AcDbVisualStyle
  2
Wireframe
 70
     5
177
     2
291
     0
 71
     0
176
     1
 72
     2
176
     1
 73
     0
176
     1
 90
        0
176
     1
 40
0.6
176
     1
 41
30.0
176
     1
 63
     7
421
 16777215
176
     1
 74
     1
176
     1
 91
        4
176
     1
 64
     7
176
     1
 65
   257
176
     1
 75
     1
176
     1
175
     1
176
     1
 42
1.0
176
     1
 92
        0
176
     1
 66
   257
176
     1
 43
1.0
176
     1
 76
     1
176
     1
 77
     6
176
     1
 78
     2
176
     1
 67
     7
176
     1
 79
     3
176
     1
170
     0
176
     1
171
     0
176
     1
290
     0
176
     1
 93
        1
176
     1
 44
0.0
176
     1
173
     0
176
     1
1001
ACAD
1000
AcDbSavedByObjectVersion
1070
     0
  0
VISUALSTYLE
  5
D6
102
{ACAD_XDICTIONARY
360
19B
102
}
102
{ACAD_REACTORS
330
C3
102
}
330
C3
100
AcDbVisualStyle
  2
X-Ray
 70
    25
177
     2
291
     0
 71
     2
176
     1
 72
     2
176
     1
 73
     1
176
     1
 90
        1
176
     1
 40
0.5
176
     1
 41
30.0
176
     1
 63
     7
421
 16777215
176
     1
 74
     1
176
     1
 91
        0
176
     1
 64
     7
176
     1
 65
   257
176
     1
 75
     1
176
     1
175
     1
176
     1
 42
1.0
176
     1
 92
        8
176
     1
 66
     7
176
     1
 43
1.0
176
     1
 76
     1
176
     1
 77
     6
176
     1
 78
     2
176
     1
 67
     7
176
     1
 79
     3
176
     1
170
     0
176
     1
171
     0
176
     1
290
     0
176
     1
 93
       13
176
     1
 44
0.0
176
     1
173
     0
176
     1
1001
ACAD
1000
AcDbSavedByObjectVersion
1070
     0
  0
DICTIONARYVAR
  5
170
102
{ACAD_REACTORS
330
16A
102
}
330
16A
100
DictionaryVariables
280
     0
  1
1:1
  0
DICTIONARYVAR
  5
16C
102
{ACAD_REACTORS
330
16A
102
}
330
16A
100
DictionaryVariables
280
     0
  1
STANDARD
  0
DICTIONARYVAR
  5
16B
102
{ACAD_REACTORS
330
16A
102
}
330
16A
100
DictionaryVariables
280
     0
  1
STANDARD
  0
DICTIONARYVAR
  5
16D
102
{ACAD_REACTORS
330
16A
102
}
330
16A
100
DictionaryVariables
280
     0
  1
Imperial24
  0
DICTIONARYVAR
  5
16E
102
{ACAD_REACTORS
330
16A
102
}
330
16A
100
DictionaryVariables
280
     0
  1
Imperial24
  0
DICTIONARYVAR
  5
172
102
{ACAD_REACTORS
330
16A
102
}
330
16A
100
DictionaryVariables
280
     0
  1
1
  0
DICTIONARYVAR
  5
173
102
{ACAD_REACTORS
330
16A
102
}
330
16A
100
DictionaryVariables
280
     0
  1
15
  0
DICTIONARYVAR
  5
171
102
{ACAD_REACTORS
330
16A
102
}
330
16A
100
DictionaryVariables
280
     0
  1
0
  0
DICTIONARYVAR
  5
16F
102
{ACAD_REACTORS
330
16A
102
}
330
16A
100
DictionaryVariables
280
     0
  1
0
  0
DICTIONARY
  5
1AB
330
F6
100
AcDbDictionary
280
     1
281
     1
  3
ACAD_XREC_ROUNDTRIP
360
1AC
  0
DICTIONARY
  5
B4
330
B3
100
AcDbDictionary
280
     1
281
     1
  3
BUMPTILE
360
B6
  3
DIFFUSETILE
360
B5
  3
OPACITYTILE
360
B9
  3
REFLECTIONTILE
360
B8
  3
REFRACTIONTILE
360
BA
  3
SPECULARTILE
360
B7
  0
DICTIONARY
  5
AC
330
AB
100
AcDbDictionary
280
     1
281
     1
  3
BUMPTILE
360
AE
  3
DIFFUSETILE
360
AD
  3
OPACITYTILE
360
B1
  3
REFLECTIONTILE
360
B0
  3
REFRACTIONTILE
360
B2
  3
SPECULARTILE
360
AF
  0
DICTIONARY
  5
BC
330
BB
100
AcDbDictionary
280
     1
281
     1
  3
BUMPTILE
360
BE
  3
DIFFUSETILE
360
BD
  3
OPACITYTILE
360
C1
  3
REFLECTIONTILE
360
C0
  3
REFRACTIONTILE
360
C2
  3
SPECULARTILE
360
BF
  0
DICTIONARY
  5
1A7
330
F2
100
AcDbDictionary
280
     1
281
     1
  3
ACAD_XREC_ROUNDTRIP
360
1A8
  0
DICTIONARY
  5
1A9
330
F4
100
AcDbDictionary
280
     1
281
     1
  3
ACAD_XREC_ROUNDTRIP
360
1AA
  0
DICTIONARY
  5
174
330
DE
100
AcDbDictionary
280
     1
281
     1
  3
ACAD_ROUNDTRIP_2008_TABLESTYLE_CELLSTYLEMAP
360
175
  0
DICTIONARY
  5
181
330
C9
100
AcDbDictionary
280
     1
281
     1
  3
ACAD_XREC_ROUNDTRIP
360
182
  0
DICTIONARY
  5
17F
330
C8
100
AcDbDictionary
280
     1
281
     1
  3
ACAD_XREC_ROUNDTRIP
360
180
  0
DICTIONARY
  5
18D
330
CF
100
AcDbDictionary
280
     1
281
     1
  3
ACAD_XREC_ROUNDTRIP
360
18E
  0
DICTIONARY
  5
195
330
D3
100
AcDbDictionary
280
     1
281
     1
  3
ACAD_XREC_ROUNDTRIP
360
196
  0
DICTIONARY
  5
187
330
CC
100
AcDbDictionary
280
     1
281
     1
  3
ACAD_XREC_ROUNDTRIP
360
188
  0
DICTIONARY
  5
18B
330
CE
100
AcDbDictionary
280
     1
281
     1
  3
ACAD_XREC_ROUNDTRIP
360
18C
  0
DICTIONARY
  5
1A5
330
DB
100
AcDbDictionary
280
     1
281
     1
  3
ACAD_XREC_ROUNDTRIP
360
1A6
  0
DICTIONARY
  5
193
330
D2
100
AcDbDictionary
280
     1
281
     1
  3
ACAD_XREC_ROUNDTRIP
360
194
  0
DICTIONARY
  5
177
330
C4
100
AcDbDictionary
280
     1
281
     1
  3
ACAD_XREC_ROUNDTRIP
360
178
  0
DICTIONARY
  5
179
330
C5
100
AcDbDictionary
280
     1
281
     1
  3
ACAD_XREC_ROUNDTRIP
360
17A
  0
DICTIONARY
  5
17B
330
C6
100
AcDbDictionary
280
     1
281
     1
  3
ACAD_XREC_ROUNDTRIP
360
17C
  0
DICTIONARY
  5
17D
330
C7
100
AcDbDictionary
280
     1
281
     1
  3
ACAD_XREC_ROUNDTRIP
360
17E
  0
DICTIONARY
  5
185
330
CB
100
AcDbDictionary
280
     1
281
     1
  3
ACAD_XREC_ROUNDTRIP
360
186
  0
DICTIONARY
  5
1A1
330
D9
100
AcDbDictionary
280
     1
281
     1
  3
ACAD_XREC_ROUNDTRIP
360
1A2
  0
DICTIONARY
  5
191
330
D1
100
AcDbDictionary
280
     1
281
     1
  3
ACAD_XREC_ROUNDTRIP
360
192
  0
DICTIONARY
  5
1A3
330
DA
100
AcDbDictionary
280
     1
281
     1
  3
ACAD_XREC_ROUNDTRIP
360
1A4
  0
DICTIONARY
  5
189
330
CD
100
AcDbDictionary
280
     1
281
     1
  3
ACAD_XREC_ROUNDTRIP
360
18A
  0
DICTIONARY
  5
19F
330
D8
100
AcDbDictionary
280
     1
281
     1
  3
ACAD_XREC_ROUNDTRIP
360
1A0
  0
DICTIONARY
  5
19D
330
D7
100
AcDbDictionary
280
     1
281
     1
  3
ACAD_XREC_ROUNDTRIP
360
19E
  0
DICTIONARY
  5
197
330
D4
100
AcDbDictionary
280
     1
281
     1
  3
ACAD_XREC_ROUNDTRIP
360
198
  0
DICTIONARY
  5
199
330
D5
100
AcDbDictionary
280
     1
281
     1
  3
ACAD_XREC_ROUNDTRIP
360
19A
  0
DICTIONARY
  5
18F
330
D0
100
AcDbDictionary
280
     1
281
     1
  3
ACAD_XREC_ROUNDTRIP
360
190
  0
DICTIONARY
  5
183
330
CA
100
AcDbDictionary
280
     1
281
     1
  3
ACAD_XREC_ROUNDTRIP
360
184
  0
DICTIONARY
  5
19B
330
D6
100
AcDbDictionary
280
     1
281
     1
  3
ACAD_XREC_ROUNDTRIP
360
19C
  0
XRECORD
  5
1AC
102
{ACAD_REACTORS
330
1AB
102
}
330
1AB
100
AcDbXrecord
280
     1
102
DISPLAYNAME
  1
Imperial24
102
FLAGS
 90
        0
  0
XRECORD
  5
B6
102
{ACAD_REACTORS
330
B4
102
}
330
B4
100
AcDbXrecord
280
     1
270
     1
271
     1
  0
XRECORD
  5
B5
102
{ACAD_REACTORS
330
B4
102
}
330
B4
100
AcDbXrecord
280
     1
270
     1
271
     1
  0
XRECORD
  5
B9
102
{ACAD_REACTORS
330
B4
102
}
330
B4
100
AcDbXrecord
280
     1
270
     1
271
     1
  0
XRECORD
  5
B8
102
{ACAD_REACTORS
330
B4
102
}
330
B4
100
AcDbXrecord
280
     1
270
     1
271
     1
  0
XRECORD
  5
BA
102
{ACAD_REACTORS
330
B4
102
}
330
B4
100
AcDbXrecord
280
     1
270
     1
271
     1
  0
XRECORD
  5
B7
102
{ACAD_REACTORS
330
B4
102
}
330
B4
100
AcDbXrecord
280
     1
270
     1
271
     1
  0
XRECORD
  5
AE
102
{ACAD_REACTORS
330
AC
102
}
330
AC
100
AcDbXrecord
280
     1
270
     1
271
     1
  0
XRECORD
  5
AD
102
{ACAD_REACTORS
330
AC
102
}
330
AC
100
AcDbXrecord
280
     1
270
     1
271
     1
  0
XRECORD
  5
B1
102
{ACAD_REACTORS
330
AC
102
}
330
AC
100
AcDbXrecord
280
     1
270
     1
271
     1
  0
XRECORD
  5
B0
102
{ACAD_REACTORS
330
AC
102
}
330
AC
100
AcDbXrecord
280
     1
270
     1
271
     1
  0
XRECORD
  5
B2
102
{ACAD_REACTORS
330
AC
102
}
330
AC
100
AcDbXrecord
280
     1
270
     1
271
     1
  0
XRECORD
  5
AF
102
{ACAD_REACTORS
330
AC
102
}
330
AC
100
AcDbXrecord
280
     1
270
     1
271
     1
  0
XRECORD
  5
BE
102
{ACAD_REACTORS
330
BC
102
}
330
BC
100
AcDbXrecord
280
     1
270
     1
271
     1
  0
XRECORD
  5
BD
102
{ACAD_REACTORS
330
BC
102
}
330
BC
100
AcDbXrecord
280
     1
270
     1
271
     1
  0
XRECORD
  5
C1
102
{ACAD_REACTORS
330
BC
102
}
330
BC
100
AcDbXrecord
280
     1
270
     1
271
     1
  0
XRECORD
  5
C0
102
{ACAD_REACTORS
330
BC
102
}
330
BC
100
AcDbXrecord
280
     1
270
     1
271
     1
  0
XRECORD
  5
C2
102
{ACAD_REACTORS
330
BC
102
}
330
BC
100
AcDbXrecord
280
     1
270
     1
271
     1
  0
XRECORD
  5
BF
102
{ACAD_REACTORS
330
BC
102
}
330
BC
100
AcDbXrecord
280
     1
270
     1
271
     1
  0
XRECORD
  5
1A8
102
{ACAD_REACTORS
330
1A7
102
}
330
1A7
100
AcDbXrecord
280
     1
102
ACAD_ROUNDTRIP_2012_MLEADER_STYLE
298
     1
  0
XRECORD
  5
1AA
102
{ACAD_REACTORS
330
1A9
102
}
330
1A9
100
AcDbXrecord
280
     1
102
DISPLAYNAME
  1
Imperial24
102
FLAGS
 90
        0
  0
CELLSTYLEMAP
  5
175
102
{ACAD_REACTORS
330
174
102
}
330
174
100
AcDbCellStyleMap
 90
        3
300
CELLSTYLE
  1
TABLEFORMAT_BEGIN
 90
        5
170
     1
 91
        0
 92
    32768
 62
   257
 93
        1
300
CONTENTFORMAT
  1
CONTENTFORMAT_BEGIN
 90
        0
 91
        0
 92
      512
 93
        0
300

 40
0.0
140
1.0
 94
        5
 62
     0
340
11
144
0.25
309
CONTENTFORMAT_END
171
     0
 94
        0
309
TABLEFORMAT_END
  1
CELLSTYLE_BEGIN
 90
        1
 91
        1
300
_TITLE
309
CELLSTYLE_END
300
CELLSTYLE
  1
TABLEFORMAT_BEGIN
 90
        5
170
     1
 91
        0
 92
        0
 62
   257
 93
        1
300
CONTENTFORMAT
  1
CONTENTFORMAT_BEGIN
 90
        0
 91
        0
 92
      512
 93
        0
300

 40
0.0
140
1.0
 94
        5
 62
     0
340
11
144
0.18
309
CONTENTFORMAT_END
171
     0
 94
        0
309
TABLEFORMAT_END
  1
CELLSTYLE_BEGIN
 90
        2
 91
        1
300
_HEADER
309
CELLSTYLE_END
300
CELLSTYLE
  1
TABLEFORMAT_BEGIN
 90
        5
170
     1
 91
        0
 92
        0
 62
   257
 93
        1
300
CONTENTFORMAT
  1
CONTENTFORMAT_BEGIN
 90
        0
 91
        0
 92
      512
 93
        0
300

 40
0.0
140
1.0
 94
        2
 62
     0
340
11
144
0.18
309
CONTENTFORMAT_END
171
     0
 94
        0
309
TABLEFORMAT_END
  1
CELLSTYLE_BEGIN
 90
        3
 91
        2
300
_DATA
309
CELLSTYLE_END
  0
XRECORD
  5
182
102
{ACAD_REACTORS
330
181
102
}
330
181
100
AcDbXrecord
280
     1
102
RTVSPost2010Prop28
280
     1
102
RTVSPost2010PropOp28
 70
     1
102
RTVSPost2010Prop29
280
     1
102
RTVSPost2010PropOp29
 70
     1
102
RTVSPost2010Prop30
280
     0
102
RTVSPost2010PropOp30
 70
     1
102
RTVSPost2010Prop31
280
     0
102
RTVSPost2010PropOp31
 70
     1
102
RTVSPost2010Prop32
280
     0
102
RTVSPost2010PropOp32
 70
     1
102
RTVSPost2010Prop33
280
     0
102
RTVSPost2010PropOp33
 70
     1
102
RTVSPost2010Prop34
280
     0
102
RTVSPost2010PropOp34
 70
     1
102
RTVSPost2010Prop35
280
     0
102
RTVSPost2010PropOp35
 70
     1
102
RTVSPost2010Prop36
280
     0
102
RTVSPost2010PropOp36
 70
     1
102
RTVSPost2010Prop37
 90
       50
102
RTVSPost2010PropOp37
 70
     1
102
RTVSPost2010Prop38
140
0.0
102
RTVSPost2010PropOp38
 70
     1
102
RTVSPost2010Prop39
140
1.0
102
RTVSPost2010PropOp39
 70
     1
102
RTVSPost2010Prop40
 90
        0
102
RTVSPost2010PropOp40
 70
     1
102
RTVSPost2010Prop41ColorIndex
 90
       18
102
RTVSPost2010Prop41ColorRGB
 90
        0
102
RTVSPost2010PropOp41
 70
     1
102
RTVSPost2010Prop42
 90
       50
102
RTVSPost2010PropOp42
 70
     1
102
RTVSPost2010Prop43
 90
        3
102
RTVSPost2010PropOp43
 70
     1
102
RTVSPost2010Prop44ColorIndex
 90
        5
102
RTVSPost2010Prop44ColorRGB
 90
      255
102
RTVSPost2010PropOp44
 70
     1
102
RTVSPost2010Prop45
280
     0
102
RTVSPost2010PropOp45
 70
     1
102
RTVSPost2010Prop46
 90
       50
102
RTVSPost2010PropOp46
 70
     1
102
RTVSPost2010Prop47
 90
       50
102
RTVSPost2010PropOp47
 70
     1
102
RTVSPost2010Prop48
 90
       50
102
RTVSPost2010PropOp48
 70
     1
102
RTVSPost2010Prop49
280
     0
102
RTVSPost2010PropOp49
 70
     1
102
RTVSPost2010Prop50
 90
       50
102
RTVSPost2010PropOp50
 70
     1
102
RTVSPost2010Prop51ColorIndex
 90
      256
102
RTVSPost2010Prop51ColorRGB
 90
-16777216
102
RTVSPost2010PropOp51
 70
     0
102
RTVSPost2010Prop52
140
1.0
102
RTVSPost2010PropOp52
 70
     0
102
RTVSPost2010Prop53
 90
        2
102
RTVSPost2010PropOp53
 70
     1
102
RTVSPost2010Prop54
  1
strokes_ogs.tif
102
RTVSPost2010PropOp54
 70
     1
102
RTVSPost2010Prop55
280
     0
102
RTVSPost2010PropOp55
 70
     1
102
RTVSPost2010Prop56
140
1.0
102
RTVSPost2010PropOp56
 70
     1
102
RTVSPost2010Prop57
140
1.0
102
RTVSPost2010PropOp57
 70
     1
  0
XRECORD
  5
180
102
{ACAD_REACTORS
330
17F
102
}
330
17F
100
AcDbXrecord
280
     1
102
RTVSPost2010Prop28
280
     0
102
RTVSPost2010PropOp28
 70
     1
102
RTVSPost2010Prop29
280
     1
102
RTVSPost2010PropOp29
 70
     1
102
RTVSPost2010Prop30
280
     1
102
RTVSPost2010PropOp30
 70
     1
102
RTVSPost2010Prop31
280
     0
102
RTVSPost2010PropOp31
 70
     1
102
RTVSPost2010Prop32
280
     0
102
RTVSPost2010PropOp32
 70
     1
102
RTVSPost2010Prop33
280
     0
102
RTVSPost2010PropOp33
 70
     1
102
RTVSPost2010Prop34
280
     0
102
RTVSPost2010PropOp34
 70
     1
102
RTVSPost2010Prop35
280
     0
102
RTVSPost2010PropOp35
 70
     1
102
RTVSPost2010Prop36
280
     0
102
RTVSPost2010PropOp36
 70
     1
102
RTVSPost2010Prop37
 90
       50
102
RTVSPost2010PropOp37
 70
     1
102
RTVSPost2010Prop38
140
0.0
102
RTVSPost2010PropOp38
 70
     1
102
RTVSPost2010Prop39
140
1.0
102
RTVSPost2010PropOp39
 70
     1
102
RTVSPost2010Prop40
 90
        0
102
RTVSPost2010PropOp40
 70
     1
102
RTVSPost2010Prop41ColorIndex
 90
       18
102
RTVSPost2010Prop41ColorRGB
 90
        0
102
RTVSPost2010PropOp41
 70
     1
102
RTVSPost2010Prop42
 90
       50
102
RTVSPost2010PropOp42
 70
     1
102
RTVSPost2010Prop43
 90
        3
102
RTVSPost2010PropOp43
 70
     1
102
RTVSPost2010Prop44ColorIndex
 90
        5
102
RTVSPost2010Prop44ColorRGB
 90
      255
102
RTVSPost2010PropOp44
 70
     1
102
RTVSPost2010Prop45
280
     0
102
RTVSPost2010PropOp45
 70
     1
102
RTVSPost2010Prop46
 90
       50
102
RTVSPost2010PropOp46
 70
     1
102
RTVSPost2010Prop47
 90
       50
102
RTVSPost2010PropOp47
 70
     1
102
RTVSPost2010Prop48
 90
       50
102
RTVSPost2010PropOp48
 70
     1
102
RTVSPost2010Prop49
280
     0
102
RTVSPost2010PropOp49
 70
     1
102
RTVSPost2010Prop50
 90
       50
102
RTVSPost2010PropOp50
 70
     1
102
RTVSPost2010Prop51ColorIndex
 90
      256
102
RTVSPost2010Prop51ColorRGB
 90
-16777216
102
RTVSPost2010PropOp51
 70
     0
102
RTVSPost2010Prop52
140
1.0
102
RTVSPost2010PropOp52
 70
     0
102
RTVSPost2010Prop53
 90
        2
102
RTVSPost2010PropOp53
 70
     1
102
RTVSPost2010Prop54
  1
strokes_ogs.tif
102
RTVSPost2010PropOp54
 70
     1
102
RTVSPost2010Prop55
280
     0
102
RTVSPost2010PropOp55
 70
     1
102
RTVSPost2010Prop56
140
1.0
102
RTVSPost2010PropOp56
 70
     1
102
RTVSPost2010Prop57
140
1.0
102
RTVSPost2010PropOp57
 70
     1
  0
XRECORD
  5
18E
102
{ACAD_REACTORS
330
18D
102
}
330
18D
100
AcDbXrecord
280
     1
102
RTVSPost2010Prop28
280
     0
102
RTVSPost2010PropOp28
 70
     1
102
RTVSPost2010Prop29
280
     1
102
RTVSPost2010PropOp29
 70
     1
102
RTVSPost2010Prop30
280
     1
102
RTVSPost2010PropOp30
 70
     1
102
RTVSPost2010Prop31
280
     0
102
RTVSPost2010PropOp31
 70
     1
102
RTVSPost2010Prop32
280
     0
102
RTVSPost2010PropOp32
 70
     1
102
RTVSPost2010Prop33
280
     0
102
RTVSPost2010PropOp33
 70
     1
102
RTVSPost2010Prop34
280
     0
102
RTVSPost2010PropOp34
 70
     1
102
RTVSPost2010Prop35
280
     0
102
RTVSPost2010PropOp35
 70
     1
102
RTVSPost2010Prop36
280
     0
102
RTVSPost2010PropOp36
 70
     1
102
RTVSPost2010Prop37
 90
       50
102
RTVSPost2010PropOp37
 70
     1
102
RTVSPost2010Prop38
140
0.0
102
RTVSPost2010PropOp38
 70
     1
102
RTVSPost2010Prop39
140
1.0
102
RTVSPost2010PropOp39
 70
     1
102
RTVSPost2010Prop40
 90
        0
102
RTVSPost2010PropOp40
 70
     1
102
RTVSPost2010Prop41ColorIndex
 90
       18
102
RTVSPost2010Prop41ColorRGB
 90
        0
102
RTVSPost2010PropOp41
 70
     1
102
RTVSPost2010Prop42
 90
       50
102
RTVSPost2010PropOp42
 70
     1
102
RTVSPost2010Prop43
 90
        3
102
RTVSPost2010PropOp43
 70
     1
102
RTVSPost2010Prop44ColorIndex
 90
        5
102
RTVSPost2010Prop44ColorRGB
 90
      255
102
RTVSPost2010PropOp44
 70
     1
102
RTVSPost2010Prop45
280
     0
102
RTVSPost2010PropOp45
 70
     1
102
RTVSPost2010Prop46
 90
       50
102
RTVSPost2010PropOp46
 70
     1
102
RTVSPost2010Prop47
 90
       50
102
RTVSPost2010PropOp47
 70
     1
102
RTVSPost2010Prop48
 90
       50
102
RTVSPost2010PropOp48
 70
     1
102
RTVSPost2010Prop49
280
     0
102
RTVSPost2010PropOp49
 70
     1
102
RTVSPost2010Prop50
 90
       50
102
RTVSPost2010PropOp50
 70
     1
102
RTVSPost2010Prop51ColorIndex
 90
      256
102
RTVSPost2010Prop51ColorRGB
 90
-16777216
102
RTVSPost2010PropOp51
 70
     0
102
RTVSPost2010Prop52
140
1.0
102
RTVSPost2010PropOp52
 70
     0
102
RTVSPost2010Prop53
 90
        2
102
RTVSPost2010PropOp53
 70
     1
102
RTVSPost2010Prop54
  1
strokes_ogs.tif
102
RTVSPost2010PropOp54
 70
     1
102
RTVSPost2010Prop55
280
     0
102
RTVSPost2010PropOp55
 70
     1
102
RTVSPost2010Prop56
140
1.0
102
RTVSPost2010PropOp56
 70
     1
102
RTVSPost2010Prop57
140
1.0
102
RTVSPost2010PropOp57
 70
     1
  0
XRECORD
  5
196
102
{ACAD_REACTORS
330
195
102
}
330
195
100
AcDbXrecord
280
     1
102
RTVSPost2010Prop28
280
     0
102
RTVSPost2010PropOp28
 70
     1
102
RTVSPost2010Prop29
280
     1
102
RTVSPost2010PropOp29
 70
     1
102
RTVSPost2010Prop30
280
     1
102
RTVSPost2010PropOp30
 70
     1
102
RTVSPost2010Prop31
280
     0
102
RTVSPost2010PropOp31
 70
     1
102
RTVSPost2010Prop32
280
     0
102
RTVSPost2010PropOp32
 70
     1
102
RTVSPost2010Prop33
280
     0
102
RTVSPost2010PropOp33
 70
     1
102
RTVSPost2010Prop34
280
     0
102
RTVSPost2010PropOp34
 70
     1
102
RTVSPost2010Prop35
280
     0
102
RTVSPost2010PropOp35
 70
     1
102
RTVSPost2010Prop36
280
     0
102
RTVSPost2010PropOp36
 70
     1
102
RTVSPost2010Prop37
 90
       50
102
RTVSPost2010PropOp37
 70
     1
102
RTVSPost2010Prop38
140
0.0
102
RTVSPost2010PropOp38
 70
     1
102
RTVSPost2010Prop39
140
1.0
102
RTVSPost2010PropOp39
 70
     1
102
RTVSPost2010Prop40
 90
        0
102
RTVSPost2010PropOp40
 70
     1
102
RTVSPost2010Prop41ColorIndex
 90
       18
102
RTVSPost2010Prop41ColorRGB
 90
        0
102
RTVSPost2010PropOp41
 70
     1
102
RTVSPost2010Prop42
 90
       50
102
RTVSPost2010PropOp42
 70
     1
102
RTVSPost2010Prop43
 90
        3
102
RTVSPost2010PropOp43
 70
     1
102
RTVSPost2010Prop44ColorIndex
 90
        5
102
RTVSPost2010Prop44ColorRGB
 90
      255
102
RTVSPost2010PropOp44
 70
     1
102
RTVSPost2010Prop45
280
     0
102
RTVSPost2010PropOp45
 70
     1
102
RTVSPost2010Prop46
 90
       50
102
RTVSPost2010PropOp46
 70
     1
102
RTVSPost2010Prop47
 90
       50
102
RTVSPost2010PropOp47
 70
     1
102
RTVSPost2010Prop48
 90
       50
102
RTVSPost2010PropOp48
 70
     1
102
RTVSPost2010Prop49
280
     0
102
RTVSPost2010PropOp49
 70
     1
102
RTVSPost2010Prop50
 90
       50
102
RTVSPost2010PropOp50
 70
     1
102
RTVSPost2010Prop51ColorIndex
 90
      256
102
RTVSPost2010Prop51ColorRGB
 90
-16777216
102
RTVSPost2010PropOp51
 70
     0
102
RTVSPost2010Prop52
140
1.0
102
RTVSPost2010PropOp52
 70
     0
102
RTVSPost2010Prop53
 90
        2
102
RTVSPost2010PropOp53
 70
     1
102
RTVSPost2010Prop54
  1
strokes_ogs.tif
102
RTVSPost2010PropOp54
 70
     1
102
RTVSPost2010Prop55
280
     0
102
RTVSPost2010PropOp55
 70
     1
102
RTVSPost2010Prop56
140
1.0
102
RTVSPost2010PropOp56
 70
     1
102
RTVSPost2010Prop57
140
1.0
102
RTVSPost2010PropOp57
 70
     1
  0
XRECORD
  5
188
102
{ACAD_REACTORS
330
187
102
}
330
187
100
AcDbXrecord
280
     1
102
RTVSPost2010Prop28
280
     0
102
RTVSPost2010PropOp28
 70
     1
102
RTVSPost2010Prop29
280
     1
102
RTVSPost2010PropOp29
 70
     1
102
RTVSPost2010Prop30
280
     1
102
RTVSPost2010PropOp30
 70
     1
102
RTVSPost2010Prop31
280
     0
102
RTVSPost2010PropOp31
 70
     1
102
RTVSPost2010Prop32
280
     0
102
RTVSPost2010PropOp32
 70
     1
102
RTVSPost2010Prop33
280
     0
102
RTVSPost2010PropOp33
 70
     1
102
RTVSPost2010Prop34
280
     0
102
RTVSPost2010PropOp34
 70
     1
102
RTVSPost2010Prop35
280
     0
102
RTVSPost2010PropOp35
 70
     1
102
RTVSPost2010Prop36
280
     0
102
RTVSPost2010PropOp36
 70
     1
102
RTVSPost2010Prop37
 90
       50
102
RTVSPost2010PropOp37
 70
     1
102
RTVSPost2010Prop38
140
0.0
102
RTVSPost2010PropOp38
 70
     1
102
RTVSPost2010Prop39
140
1.0
102
RTVSPost2010PropOp39
 70
     1
102
RTVSPost2010Prop40
 90
        0
102
RTVSPost2010PropOp40
 70
     1
102
RTVSPost2010Prop41ColorIndex
 90
       18
102
RTVSPost2010Prop41ColorRGB
 90
        0
102
RTVSPost2010PropOp41
 70
     1
102
RTVSPost2010Prop42
 90
       50
102
RTVSPost2010PropOp42
 70
     1
102
RTVSPost2010Prop43
 90
        3
102
RTVSPost2010PropOp43
 70
     1
102
RTVSPost2010Prop44ColorIndex
 90
        5
102
RTVSPost2010Prop44ColorRGB
 90
      255
102
RTVSPost2010PropOp44
 70
     1
102
RTVSPost2010Prop45
280
     0
102
RTVSPost2010PropOp45
 70
     1
102
RTVSPost2010Prop46
 90
       50
102
RTVSPost2010PropOp46
 70
     1
102
RTVSPost2010Prop47
 90
       50
102
RTVSPost2010PropOp47
 70
     1
102
RTVSPost2010Prop48
 90
       50
102
RTVSPost2010PropOp48
 70
     1
102
RTVSPost2010Prop49
280
     0
102
RTVSPost2010PropOp49
 70
     1
102
RTVSPost2010Prop50
 90
       50
102
RTVSPost2010PropOp50
 70
     1
102
RTVSPost2010Prop51ColorIndex
 90
      256
102
RTVSPost2010Prop51ColorRGB
 90
-16777216
102
RTVSPost2010PropOp51
 70
     0
102
RTVSPost2010Prop52
140
1.0
102
RTVSPost2010PropOp52
 70
     0
102
RTVSPost2010Prop53
 90
        2
102
RTVSPost2010PropOp53
 70
     1
102
RTVSPost2010Prop54
  1
strokes_ogs.tif
102
RTVSPost2010PropOp54
 70
     1
102
RTVSPost2010Prop55
280
     0
102
RTVSPost2010PropOp55
 70
     1
102
RTVSPost2010Prop56
140
1.0
102
RTVSPost2010PropOp56
 70
     1
102
RTVSPost2010Prop57
140
1.0
102
RTVSPost2010PropOp57
 70
     1
  0
XRECORD
  5
18C
102
{ACAD_REACTORS
330
18B
102
}
330
18B
100
AcDbXrecord
280
     1
102
RTVSPost2010Prop28
280
     0
102
RTVSPost2010PropOp28
 70
     1
102
RTVSPost2010Prop29
280
     1
102
RTVSPost2010PropOp29
 70
     1
102
RTVSPost2010Prop30
280
     1
102
RTVSPost2010PropOp30
 70
     1
102
RTVSPost2010Prop31
280
     0
102
RTVSPost2010PropOp31
 70
     1
102
RTVSPost2010Prop32
280
     0
102
RTVSPost2010PropOp32
 70
     1
102
RTVSPost2010Prop33
280
     0
102
RTVSPost2010PropOp33
 70
     1
102
RTVSPost2010Prop34
280
     0
102
RTVSPost2010PropOp34
 70
     1
102
RTVSPost2010Prop35
280
     0
102
RTVSPost2010PropOp35
 70
     1
102
RTVSPost2010Prop36
280
     0
102
RTVSPost2010PropOp36
 70
     1
102
RTVSPost2010Prop37
 90
       50
102
RTVSPost2010PropOp37
 70
     1
102
RTVSPost2010Prop38
140
0.0
102
RTVSPost2010PropOp38
 70
     1
102
RTVSPost2010Prop39
140
1.0
102
RTVSPost2010PropOp39
 70
     1
102
RTVSPost2010Prop40
 90
        0
102
RTVSPost2010PropOp40
 70
     1
102
RTVSPost2010Prop41ColorIndex
 90
       18
102
RTVSPost2010Prop41ColorRGB
 90
        0
102
RTVSPost2010PropOp41
 70
     1
102
RTVSPost2010Prop42
 90
       50
102
RTVSPost2010PropOp42
 70
     1
102
RTVSPost2010Prop43
 90
        3
102
RTVSPost2010PropOp43
 70
     1
102
RTVSPost2010Prop44ColorIndex
 90
        5
102
RTVSPost2010Prop44ColorRGB
 90
      255
102
RTVSPost2010PropOp44
 70
     1
102
RTVSPost2010Prop45
280
     0
102
RTVSPost2010PropOp45
 70
     1
102
RTVSPost2010Prop46
 90
       50
102
RTVSPost2010PropOp46
 70
     1
102
RTVSPost2010Prop47
 90
       50
102
RTVSPost2010PropOp47
 70
     1
102
RTVSPost2010Prop48
 90
       50
102
RTVSPost2010PropOp48
 70
     1
102
RTVSPost2010Prop49
280
     0
102
RTVSPost2010PropOp49
 70
     1
102
RTVSPost2010Prop50
 90
       50
102
RTVSPost2010PropOp50
 70
     1
102
RTVSPost2010Prop51ColorIndex
 90
      256
102
RTVSPost2010Prop51ColorRGB
 90
-16777216
102
RTVSPost2010PropOp51
 70
     0
102
RTVSPost2010Prop52
140
1.0
102
RTVSPost2010PropOp52
 70
     0
102
RTVSPost2010Prop53
 90
        2
102
RTVSPost2010PropOp53
 70
     1
102
RTVSPost2010Prop54
  1
strokes_ogs.tif
102
RTVSPost2010PropOp54
 70
     1
102
RTVSPost2010Prop55
280
     0
102
RTVSPost2010PropOp55
 70
     1
102
RTVSPost2010Prop56
140
1.0
102
RTVSPost2010PropOp56
 70
     1
102
RTVSPost2010Prop57
140
1.0
102
RTVSPost2010PropOp57
 70
     1
  0
XRECORD
  5
1A6
102
{ACAD_REACTORS
330
1A5
102
}
330
1A5
100
AcDbXrecord
280
     1
102
RTVSPost2010Prop28
280
     0
102
RTVSPost2010PropOp28
 70
     0
102
RTVSPost2010Prop29
280
     1
102
RTVSPost2010PropOp29
 70
     0
102
RTVSPost2010Prop30
280
     1
102
RTVSPost2010PropOp30
 70
     0
102
RTVSPost2010Prop31
280
     0
102
RTVSPost2010PropOp31
 70
     0
102
RTVSPost2010Prop32
280
     0
102
RTVSPost2010PropOp32
 70
     0
102
RTVSPost2010Prop33
280
     0
102
RTVSPost2010PropOp33
 70
     0
102
RTVSPost2010Prop34
280
     0
102
RTVSPost2010PropOp34
 70
     0
102
RTVSPost2010Prop35
280
     0
102
RTVSPost2010PropOp35
 70
     0
102
RTVSPost2010Prop36
280
     0
102
RTVSPost2010PropOp36
 70
     0
102
RTVSPost2010Prop37
 90
       50
102
RTVSPost2010PropOp37
 70
     0
102
RTVSPost2010Prop38
140
0.0
102
RTVSPost2010PropOp38
 70
     0
102
RTVSPost2010Prop39
140
1.0
102
RTVSPost2010PropOp39
 70
     0
102
RTVSPost2010Prop40
 90
        0
102
RTVSPost2010PropOp40
 70
     0
102
RTVSPost2010Prop41ColorIndex
 90
       18
102
RTVSPost2010Prop41ColorRGB
 90
        0
102
RTVSPost2010PropOp41
 70
     0
102
RTVSPost2010Prop42
 90
       50
102
RTVSPost2010PropOp42
 70
     0
102
RTVSPost2010Prop43
 90
        3
102
RTVSPost2010PropOp43
 70
     0
102
RTVSPost2010Prop44ColorIndex
 90
        5
102
RTVSPost2010Prop44ColorRGB
 90
      255
102
RTVSPost2010PropOp44
 70
     0
102
RTVSPost2010Prop45
280
     0
102
RTVSPost2010PropOp45
 70
     0
102
RTVSPost2010Prop46
 90
       50
102
RTVSPost2010PropOp46
 70
     0
102
RTVSPost2010Prop47
 90
       50
102
RTVSPost2010PropOp47
 70
     0
102
RTVSPost2010Prop48
 90
       50
102
RTVSPost2010PropOp48
 70
     0
102
RTVSPost2010Prop49
280
     0
102
RTVSPost2010PropOp49
 70
     0
102
RTVSPost2010Prop50
 90
       50
102
RTVSPost2010PropOp50
 70
     0
102
RTVSPost2010Prop51ColorIndex
 90
      256
102
RTVSPost2010Prop51ColorRGB
 90
-16777216
102
RTVSPost2010PropOp51
 70
     0
102
RTVSPost2010Prop52
140
1.0
102
RTVSPost2010PropOp52
 70
     0
102
RTVSPost2010Prop53
 90
        2
102
RTVSPost2010PropOp53
 70
     0
102
RTVSPost2010Prop54
  1
strokes_ogs.tif
102
RTVSPost2010PropOp54
 70
     0
102
RTVSPost2010Prop55
280
     0
102
RTVSPost2010PropOp55
 70
     0
102
RTVSPost2010Prop56
140
1.0
102
RTVSPost2010PropOp56
 70
     0
102
RTVSPost2010Prop57
140
1.0
102
RTVSPost2010PropOp57
 70
     0
  0
XRECORD
  5
194
102
{ACAD_REACTORS
330
193
102
}
330
193
100
AcDbXrecord
280
     1
102
RTVSPost2010Prop28
280
     0
102
RTVSPost2010PropOp28
 70
     1
102
RTVSPost2010Prop29
280
     1
102
RTVSPost2010PropOp29
 70
     1
102
RTVSPost2010Prop30
280
     1
102
RTVSPost2010PropOp30
 70
     1
102
RTVSPost2010Prop31
280
     0
102
RTVSPost2010PropOp31
 70
     1
102
RTVSPost2010Prop32
280
     0
102
RTVSPost2010PropOp32
 70
     1
102
RTVSPost2010Prop33
280
     0
102
RTVSPost2010PropOp33
 70
     1
102
RTVSPost2010Prop34
280
     0
102
RTVSPost2010PropOp34
 70
     1
102
RTVSPost2010Prop35
280
     0
102
RTVSPost2010PropOp35
 70
     1
102
RTVSPost2010Prop36
280
     0
102
RTVSPost2010PropOp36
 70
     1
102
RTVSPost2010Prop37
 90
       50
102
RTVSPost2010PropOp37
 70
     1
102
RTVSPost2010Prop38
140
0.0
102
RTVSPost2010PropOp38
 70
     1
102
RTVSPost2010Prop39
140
1.0
102
RTVSPost2010PropOp39
 70
     1
102
RTVSPost2010Prop40
 90
        0
102
RTVSPost2010PropOp40
 70
     1
102
RTVSPost2010Prop41ColorIndex
 90
       18
102
RTVSPost2010Prop41ColorRGB
 90
        0
102
RTVSPost2010PropOp41
 70
     1
102
RTVSPost2010Prop42
 90
       50
102
RTVSPost2010PropOp42
 70
     1
102
RTVSPost2010Prop43
 90
        3
102
RTVSPost2010PropOp43
 70
     1
102
RTVSPost2010Prop44ColorIndex
 90
        5
102
RTVSPost2010Prop44ColorRGB
 90
      255
102
RTVSPost2010PropOp44
 70
     1
102
RTVSPost2010Prop45
280
     0
102
RTVSPost2010PropOp45
 70
     1
102
RTVSPost2010Prop46
 90
       50
102
RTVSPost2010PropOp46
 70
     1
102
RTVSPost2010Prop47
 90
       50
102
RTVSPost2010PropOp47
 70
     1
102
RTVSPost2010Prop48
 90
       50
102
RTVSPost2010PropOp48
 70
     1
102
RTVSPost2010Prop49
280
     0
102
RTVSPost2010PropOp49
 70
     1
102
RTVSPost2010Prop50
 90
       50
102
RTVSPost2010PropOp50
 70
     1
102
RTVSPost2010Prop51ColorIndex
 90
      256
102
RTVSPost2010Prop51ColorRGB
 90
-16777216
102
RTVSPost2010PropOp51
 70
     0
102
RTVSPost2010Prop52
140
1.0
102
RTVSPost2010PropOp52
 70
     0
102
RTVSPost2010Prop53
 90
        2
102
RTVSPost2010PropOp53
 70
     1
102
RTVSPost2010Prop54
  1
strokes_ogs.tif
102
RTVSPost2010PropOp54
 70
     1
102
RTVSPost2010Prop55
280
     0
102
RTVSPost2010PropOp55
 70
     1
102
RTVSPost2010Prop56
140
1.0
102
RTVSPost2010PropOp56
 70
     1
102
RTVSPost2010Prop57
140
1.0
102
RTVSPost2010PropOp57
 70
     1
  0
XRECORD
  5
178
102
{ACAD_REACTORS
330
177
102
}
330
177
100
AcDbXrecord
280
     1
102
RTVSPost2010Prop28
280
     0
102
RTVSPost2010PropOp28
 70
     1
102
RTVSPost2010Prop29
280
     1
102
RTVSPost2010PropOp29
 70
     1
102
RTVSPost2010Prop30
280
     1
102
RTVSPost2010PropOp30
 70
     1
102
RTVSPost2010Prop31
280
     0
102
RTVSPost2010PropOp31
 70
     1
102
RTVSPost2010Prop32
280
     0
102
RTVSPost2010PropOp32
 70
     1
102
RTVSPost2010Prop33
280
     0
102
RTVSPost2010PropOp33
 70
     1
102
RTVSPost2010Prop34
280
     0
102
RTVSPost2010PropOp34
 70
     1
102
RTVSPost2010Prop35
280
     0
102
RTVSPost2010PropOp35
 70
     1
102
RTVSPost2010Prop36
280
     0
102
RTVSPost2010PropOp36
 70
     1
102
RTVSPost2010Prop37
 90
       50
102
RTVSPost2010PropOp37
 70
     1
102
RTVSPost2010Prop38
140
0.0
102
RTVSPost2010PropOp38
 70
     1
102
RTVSPost2010Prop39
140
1.0
102
RTVSPost2010PropOp39
 70
     1
102
RTVSPost2010Prop40
 90
        0
102
RTVSPost2010PropOp40
 70
     1
102
RTVSPost2010Prop41ColorIndex
 90
       18
102
RTVSPost2010Prop41ColorRGB
 90
        0
102
RTVSPost2010PropOp41
 70
     1
102
RTVSPost2010Prop42
 90
       50
102
RTVSPost2010PropOp42
 70
     1
102
RTVSPost2010Prop43
 90
        3
102
RTVSPost2010PropOp43
 70
     1
102
RTVSPost2010Prop44ColorIndex
 90
        5
102
RTVSPost2010Prop44ColorRGB
 90
      255
102
RTVSPost2010PropOp44
 70
     1
102
RTVSPost2010Prop45
280
     0
102
RTVSPost2010PropOp45
 70
     1
102
RTVSPost2010Prop46
 90
       50
102
RTVSPost2010PropOp46
 70
     1
102
RTVSPost2010Prop47
 90
       50
102
RTVSPost2010PropOp47
 70
     1
102
RTVSPost2010Prop48
 90
       50
102
RTVSPost2010PropOp48
 70
     1
102
RTVSPost2010Prop49
280
     0
102
RTVSPost2010PropOp49
 70
     1
102
RTVSPost2010Prop50
 90
       50
102
RTVSPost2010PropOp50
 70
     1
102
RTVSPost2010Prop51ColorIndex
 90
      256
102
RTVSPost2010Prop51ColorRGB
 90
-16777216
102
RTVSPost2010PropOp51
 70
     0
102
RTVSPost2010Prop52
140
1.0
102
RTVSPost2010PropOp52
 70
     0
102
RTVSPost2010Prop53
 90
        2
102
RTVSPost2010PropOp53
 70
     1
102
RTVSPost2010Prop54
  1
strokes_ogs.tif
102
RTVSPost2010PropOp54
 70
     1
102
RTVSPost2010Prop55
280
     0
102
RTVSPost2010PropOp55
 70
     1
102
RTVSPost2010Prop56
140
1.0
102
RTVSPost2010PropOp56
 70
     1
102
RTVSPost2010Prop57
140
1.0
102
RTVSPost2010PropOp57
 70
     1
  0
XRECORD
  5
17A
102
{ACAD_REACTORS
330
179
102
}
330
179
100
AcDbXrecord
280
     1
102
RTVSPost2010Prop28
280
     0
102
RTVSPost2010PropOp28
 70
     1
102
RTVSPost2010Prop29
280
     1
102
RTVSPost2010PropOp29
 70
     1
102
RTVSPost2010Prop30
280
     1
102
RTVSPost2010PropOp30
 70
     1
102
RTVSPost2010Prop31
280
     0
102
RTVSPost2010PropOp31
 70
     1
102
RTVSPost2010Prop32
280
     0
102
RTVSPost2010PropOp32
 70
     1
102
RTVSPost2010Prop33
280
     0
102
RTVSPost2010PropOp33
 70
     1
102
RTVSPost2010Prop34
280
     0
102
RTVSPost2010PropOp34
 70
     1
102
RTVSPost2010Prop35
280
     0
102
RTVSPost2010PropOp35
 70
     1
102
RTVSPost2010Prop36
280
     0
102
RTVSPost2010PropOp36
 70
     1
102
RTVSPost2010Prop37
 90
       50
102
RTVSPost2010PropOp37
 70
     1
102
RTVSPost2010Prop38
140
0.0
102
RTVSPost2010PropOp38
 70
     1
102
RTVSPost2010Prop39
140
1.0
102
RTVSPost2010PropOp39
 70
     1
102
RTVSPost2010Prop40
 90
        0
102
RTVSPost2010PropOp40
 70
     1
102
RTVSPost2010Prop41ColorIndex
 90
       18
102
RTVSPost2010Prop41ColorRGB
 90
        0
102
RTVSPost2010PropOp41
 70
     1
102
RTVSPost2010Prop42
 90
       50
102
RTVSPost2010PropOp42
 70
     1
102
RTVSPost2010Prop43
 90
        3
102
RTVSPost2010PropOp43
 70
     1
102
RTVSPost2010Prop44ColorIndex
 90
        5
102
RTVSPost2010Prop44ColorRGB
 90
      255
102
RTVSPost2010PropOp44
 70
     1
102
RTVSPost2010Prop45
280
     0
102
RTVSPost2010PropOp45
 70
     1
102
RTVSPost2010Prop46
 90
       50
102
RTVSPost2010PropOp46
 70
     1
102
RTVSPost2010Prop47
 90
       50
102
RTVSPost2010PropOp47
 70
     1
102
RTVSPost2010Prop48
 90
       50
102
RTVSPost2010PropOp48
 70
     1
102
RTVSPost2010Prop49
280
     0
102
RTVSPost2010PropOp49
 70
     1
102
RTVSPost2010Prop50
 90
       50
102
RTVSPost2010PropOp50
 70
     1
102
RTVSPost2010Prop51ColorIndex
 90
      256
102
RTVSPost2010Prop51ColorRGB
 90
-16777216
102
RTVSPost2010PropOp51
 70
     0
102
RTVSPost2010Prop52
140
1.0
102
RTVSPost2010PropOp52
 70
     0
102
RTVSPost2010Prop53
 90
        2
102
RTVSPost2010PropOp53
 70
     1
102
RTVSPost2010Prop54
  1
strokes_ogs.tif
102
RTVSPost2010PropOp54
 70
     1
102
RTVSPost2010Prop55
280
     0
102
RTVSPost2010PropOp55
 70
     1
102
RTVSPost2010Prop56
140
1.0
102
RTVSPost2010PropOp56
 70
     1
102
RTVSPost2010Prop57
140
1.0
102
RTVSPost2010PropOp57
 70
     1
  0
XRECORD
  5
17C
102
{ACAD_REACTORS
330
17B
102
}
330
17B
100
AcDbXrecord
280
     1
102
RTVSPost2010Prop28
280
     0
102
RTVSPost2010PropOp28
 70
     1
102
RTVSPost2010Prop29
280
     1
102
RTVSPost2010PropOp29
 70
     1
102
RTVSPost2010Prop30
280
     1
102
RTVSPost2010PropOp30
 70
     1
102
RTVSPost2010Prop31
280
     0
102
RTVSPost2010PropOp31
 70
     1
102
RTVSPost2010Prop32
280
     0
102
RTVSPost2010PropOp32
 70
     1
102
RTVSPost2010Prop33
280
     0
102
RTVSPost2010PropOp33
 70
     1
102
RTVSPost2010Prop34
280
     0
102
RTVSPost2010PropOp34
 70
     1
102
RTVSPost2010Prop35
280
     0
102
RTVSPost2010PropOp35
 70
     1
102
RTVSPost2010Prop36
280
     0
102
RTVSPost2010PropOp36
 70
     1
102
RTVSPost2010Prop37
 90
       50
102
RTVSPost2010PropOp37
 70
     1
102
RTVSPost2010Prop38
140
0.0
102
RTVSPost2010PropOp38
 70
     1
102
RTVSPost2010Prop39
140
1.0
102
RTVSPost2010PropOp39
 70
     1
102
RTVSPost2010Prop40
 90
        0
102
RTVSPost2010PropOp40
 70
     1
102
RTVSPost2010Prop41ColorIndex
 90
       18
102
RTVSPost2010Prop41ColorRGB
 90
        0
102
RTVSPost2010PropOp41
 70
     1
102
RTVSPost2010Prop42
 90
       50
102
RTVSPost2010PropOp42
 70
     1
102
RTVSPost2010Prop43
 90
        3
102
RTVSPost2010PropOp43
 70
     1
102
RTVSPost2010Prop44ColorIndex
 90
        5
102
RTVSPost2010Prop44ColorRGB
 90
      255
102
RTVSPost2010PropOp44
 70
     1
102
RTVSPost2010Prop45
280
     0
102
RTVSPost2010PropOp45
 70
     1
102
RTVSPost2010Prop46
 90
       50
102
RTVSPost2010PropOp46
 70
     1
102
RTVSPost2010Prop47
 90
       50
102
RTVSPost2010PropOp47
 70
     1
102
RTVSPost2010Prop48
 90
       50
102
RTVSPost2010PropOp48
 70
     1
102
RTVSPost2010Prop49
280
     0
102
RTVSPost2010PropOp49
 70
     1
102
RTVSPost2010Prop50
 90
       50
102
RTVSPost2010PropOp50
 70
     1
102
RTVSPost2010Prop51ColorIndex
 90
      256
102
RTVSPost2010Prop51ColorRGB
 90
-16777216
102
RTVSPost2010PropOp51
 70
     0
102
RTVSPost2010Prop52
140
1.0
102
RTVSPost2010PropOp52
 70
     0
102
RTVSPost2010Prop53
 90
        2
102
RTVSPost2010PropOp53
 70
     1
102
RTVSPost2010Prop54
  1
strokes_ogs.tif
102
RTVSPost2010PropOp54
 70
     1
102
RTVSPost2010Prop55
280
     0
102
RTVSPost2010PropOp55
 70
     1
102
RTVSPost2010Prop56
140
1.0
102
RTVSPost2010PropOp56
 70
     1
102
RTVSPost2010Prop57
140
1.0
102
RTVSPost2010PropOp57
 70
     1
  0
XRECORD
  5
17E
102
{ACAD_REACTORS
330
17D
102
}
330
17D
100
AcDbXrecord
280
     1
102
RTVSPost2010Prop28
280
     0
102
RTVSPost2010PropOp28
 70
     1
102
RTVSPost2010Prop29
280
     1
102
RTVSPost2010PropOp29
 70
     1
102
RTVSPost2010Prop30
280
     1
102
RTVSPost2010PropOp30
 70
     1
102
RTVSPost2010Prop31
280
     0
102
RTVSPost2010PropOp31
 70
     1
102
RTVSPost2010Prop32
280
     0
102
RTVSPost2010PropOp32
 70
     1
102
RTVSPost2010Prop33
280
     0
102
RTVSPost2010PropOp33
 70
     1
102
RTVSPost2010Prop34
280
     0
102
RTVSPost2010PropOp34
 70
     1
102
RTVSPost2010Prop35
280
     0
102
RTVSPost2010PropOp35
 70
     1
102
RTVSPost2010Prop36
280
     0
102
RTVSPost2010PropOp36
 70
     1
102
RTVSPost2010Prop37
 90
       50
102
RTVSPost2010PropOp37
 70
     1
102
RTVSPost2010Prop38
140
0.0
102
RTVSPost2010PropOp38
 70
     1
102
RTVSPost2010Prop39
140
1.0
102
RTVSPost2010PropOp39
 70
     1
102
RTVSPost2010Prop40
 90
        0
102
RTVSPost2010PropOp40
 70
     1
102
RTVSPost2010Prop41ColorIndex
 90
       18
102
RTVSPost2010Prop41ColorRGB
 90
        0
102
RTVSPost2010PropOp41
 70
     1
102
RTVSPost2010Prop42
 90
       50
102
RTVSPost2010PropOp42
 70
     1
102
RTVSPost2010Prop43
 90
        3
102
RTVSPost2010PropOp43
 70
     1
102
RTVSPost2010Prop44ColorIndex
 90
        5
102
RTVSPost2010Prop44ColorRGB
 90
      255
102
RTVSPost2010PropOp44
 70
     1
102
RTVSPost2010Prop45
280
     0
102
RTVSPost2010PropOp45
 70
     1
102
RTVSPost2010Prop46
 90
       50
102
RTVSPost2010PropOp46
 70
     1
102
RTVSPost2010Prop47
 90
       50
102
RTVSPost2010PropOp47
 70
     1
102
RTVSPost2010Prop48
 90
       50
102
RTVSPost2010PropOp48
 70
     1
102
RTVSPost2010Prop49
280
     0
102
RTVSPost2010PropOp49
 70
     1
102
RTVSPost2010Prop50
 90
       50
102
RTVSPost2010PropOp50
 70
     1
102
RTVSPost2010Prop51ColorIndex
 90
      256
102
RTVSPost2010Prop51ColorRGB
 90
-16777216
102
RTVSPost2010PropOp51
 70
     0
102
RTVSPost2010Prop52
140
1.0
102
RTVSPost2010PropOp52
 70
     0
102
RTVSPost2010Prop53
 90
        2
102
RTVSPost2010PropOp53
 70
     1
102
RTVSPost2010Prop54
  1
strokes_ogs.tif
102
RTVSPost2010PropOp54
 70
     1
102
RTVSPost2010Prop55
280
     0
102
RTVSPost2010PropOp55
 70
     1
102
RTVSPost2010Prop56
140
1.0
102
RTVSPost2010PropOp56
 70
     1
102
RTVSPost2010Prop57
140
1.0
102
RTVSPost2010PropOp57
 70
     1
  0
XRECORD
  5
186
102
{ACAD_REACTORS
330
185
102
}
330
185
100
AcDbXrecord
280
     1
102
RTVSPost2010Prop28
280
     0
102
RTVSPost2010PropOp28
 70
     1
102
RTVSPost2010Prop29
280
     1
102
RTVSPost2010PropOp29
 70
     1
102
RTVSPost2010Prop30
280
     1
102
RTVSPost2010PropOp30
 70
     1
102
RTVSPost2010Prop31
280
     0
102
RTVSPost2010PropOp31
 70
     1
102
RTVSPost2010Prop32
280
     0
102
RTVSPost2010PropOp32
 70
     1
102
RTVSPost2010Prop33
280
     0
102
RTVSPost2010PropOp33
 70
     1
102
RTVSPost2010Prop34
280
     0
102
RTVSPost2010PropOp34
 70
     1
102
RTVSPost2010Prop35
280
     0
102
RTVSPost2010PropOp35
 70
     1
102
RTVSPost2010Prop36
280
     0
102
RTVSPost2010PropOp36
 70
     1
102
RTVSPost2010Prop37
 90
       50
102
RTVSPost2010PropOp37
 70
     1
102
RTVSPost2010Prop38
140
0.0
102
RTVSPost2010PropOp38
 70
     1
102
RTVSPost2010Prop39
140
1.0
102
RTVSPost2010PropOp39
 70
     1
102
RTVSPost2010Prop40
 90
        0
102
RTVSPost2010PropOp40
 70
     1
102
RTVSPost2010Prop41ColorIndex
 90
       18
102
RTVSPost2010Prop41ColorRGB
 90
        0
102
RTVSPost2010PropOp41
 70
     1
102
RTVSPost2010Prop42
 90
       50
102
RTVSPost2010PropOp42
 70
     1
102
RTVSPost2010Prop43
 90
        3
102
RTVSPost2010PropOp43
 70
     1
102
RTVSPost2010Prop44ColorIndex
 90
        5
102
RTVSPost2010Prop44ColorRGB
 90
      255
102
RTVSPost2010PropOp44
 70
     1
102
RTVSPost2010Prop45
280
     0
102
RTVSPost2010PropOp45
 70
     1
102
RTVSPost2010Prop46
 90
       50
102
RTVSPost2010PropOp46
 70
     1
102
RTVSPost2010Prop47
 90
       50
102
RTVSPost2010PropOp47
 70
     1
102
RTVSPost2010Prop48
 90
       50
102
RTVSPost2010PropOp48
 70
     1
102
RTVSPost2010Prop49
280
     0
102
RTVSPost2010PropOp49
 70
     1
102
RTVSPost2010Prop50
 90
       50
102
RTVSPost2010PropOp50
 70
     1
102
RTVSPost2010Prop51ColorIndex
 90
      256
102
RTVSPost2010Prop51ColorRGB
 90
-16777216
102
RTVSPost2010PropOp51
 70
     0
102
RTVSPost2010Prop52
140
1.0
102
RTVSPost2010PropOp52
 70
     0
102
RTVSPost2010Prop53
 90
        2
102
RTVSPost2010PropOp53
 70
     1
102
RTVSPost2010Prop54
  1
strokes_ogs.tif
102
RTVSPost2010PropOp54
 70
     1
102
RTVSPost2010Prop55
280
     0
102
RTVSPost2010PropOp55
 70
     1
102
RTVSPost2010Prop56
140
1.0
102
RTVSPost2010PropOp56
 70
     1
102
RTVSPost2010Prop57
140
1.0
102
RTVSPost2010PropOp57
 70
     1
  0
XRECORD
  5
1A2
102
{ACAD_REACTORS
330
1A1
102
}
330
1A1
100
AcDbXrecord
280
     1
102
RTVSPost2010Prop28
280
     0
102
RTVSPost2010PropOp28
 70
     0
102
RTVSPost2010Prop29
280
     1
102
RTVSPost2010PropOp29
 70
     0
102
RTVSPost2010Prop30
280
     1
102
RTVSPost2010PropOp30
 70
     0
102
RTVSPost2010Prop31
280
     0
102
RTVSPost2010PropOp31
 70
     0
102
RTVSPost2010Prop32
280
     0
102
RTVSPost2010PropOp32
 70
     0
102
RTVSPost2010Prop33
280
     0
102
RTVSPost2010PropOp33
 70
     0
102
RTVSPost2010Prop34
280
     0
102
RTVSPost2010PropOp34
 70
     0
102
RTVSPost2010Prop35
280
     0
102
RTVSPost2010PropOp35
 70
     0
102
RTVSPost2010Prop36
280
     0
102
RTVSPost2010PropOp36
 70
     0
102
RTVSPost2010Prop37
 90
       50
102
RTVSPost2010PropOp37
 70
     0
102
RTVSPost2010Prop38
140
0.0
102
RTVSPost2010PropOp38
 70
     0
102
RTVSPost2010Prop39
140
1.0
102
RTVSPost2010PropOp39
 70
     0
102
RTVSPost2010Prop40
 90
        0
102
RTVSPost2010PropOp40
 70
     0
102
RTVSPost2010Prop41ColorIndex
 90
       18
102
RTVSPost2010Prop41ColorRGB
 90
        0
102
RTVSPost2010PropOp41
 70
     0
102
RTVSPost2010Prop42
 90
       50
102
RTVSPost2010PropOp42
 70
     0
102
RTVSPost2010Prop43
 90
        3
102
RTVSPost2010PropOp43
 70
     0
102
RTVSPost2010Prop44ColorIndex
 90
        5
102
RTVSPost2010Prop44ColorRGB
 90
      255
102
RTVSPost2010PropOp44
 70
     0
102
RTVSPost2010Prop45
280
     0
102
RTVSPost2010PropOp45
 70
     0
102
RTVSPost2010Prop46
 90
       50
102
RTVSPost2010PropOp46
 70
     0
102
RTVSPost2010Prop47
 90
       50
102
RTVSPost2010PropOp47
 70
     0
102
RTVSPost2010Prop48
 90
       50
102
RTVSPost2010PropOp48
 70
     0
102
RTVSPost2010Prop49
280
     0
102
RTVSPost2010PropOp49
 70
     0
102
RTVSPost2010Prop50
 90
       50
102
RTVSPost2010PropOp50
 70
     0
102
RTVSPost2010Prop51ColorIndex
 90
      256
102
RTVSPost2010Prop51ColorRGB
 90
-16777216
102
RTVSPost2010PropOp51
 70
     0
102
RTVSPost2010Prop52
140
1.0
102
RTVSPost2010PropOp52
 70
     0
102
RTVSPost2010Prop53
 90
        2
102
RTVSPost2010PropOp53
 70
     0
102
RTVSPost2010Prop54
  1
strokes_ogs.tif
102
RTVSPost2010PropOp54
 70
     0
102
RTVSPost2010Prop55
280
     0
102
RTVSPost2010PropOp55
 70
     0
102
RTVSPost2010Prop56
140
1.0
102
RTVSPost2010PropOp56
 70
     0
102
RTVSPost2010Prop57
140
1.0
102
RTVSPost2010PropOp57
 70
     0
  0
XRECORD
  5
192
102
{ACAD_REACTORS
330
191
102
}
330
191
100
AcDbXrecord
280
     1
102
RTVSPost2010Prop28
280
     0
102
RTVSPost2010PropOp28
 70
     1
102
RTVSPost2010Prop29
280
     1
102
RTVSPost2010PropOp29
 70
     1
102
RTVSPost2010Prop30
280
     1
102
RTVSPost2010PropOp30
 70
     1
102
RTVSPost2010Prop31
280
     0
102
RTVSPost2010PropOp31
 70
     1
102
RTVSPost2010Prop32
280
     0
102
RTVSPost2010PropOp32
 70
     1
102
RTVSPost2010Prop33
280
     0
102
RTVSPost2010PropOp33
 70
     1
102
RTVSPost2010Prop34
280
     0
102
RTVSPost2010PropOp34
 70
     1
102
RTVSPost2010Prop35
280
     0
102
RTVSPost2010PropOp35
 70
     1
102
RTVSPost2010Prop36
280
     0
102
RTVSPost2010PropOp36
 70
     1
102
RTVSPost2010Prop37
 90
       50
102
RTVSPost2010PropOp37
 70
     1
102
RTVSPost2010Prop38
140
0.0
102
RTVSPost2010PropOp38
 70
     1
102
RTVSPost2010Prop39
140
1.0
102
RTVSPost2010PropOp39
 70
     1
102
RTVSPost2010Prop40
 90
        0
102
RTVSPost2010PropOp40
 70
     1
102
RTVSPost2010Prop41ColorIndex
 90
       18
102
RTVSPost2010Prop41ColorRGB
 90
        0
102
RTVSPost2010PropOp41
 70
     1
102
RTVSPost2010Prop42
 90
       50
102
RTVSPost2010PropOp42
 70
     1
102
RTVSPost2010Prop43
 90
        3
102
RTVSPost2010PropOp43
 70
     1
102
RTVSPost2010Prop44ColorIndex
 90
        5
102
RTVSPost2010Prop44ColorRGB
 90
      255
102
RTVSPost2010PropOp44
 70
     1
102
RTVSPost2010Prop45
280
     0
102
RTVSPost2010PropOp45
 70
     1
102
RTVSPost2010Prop46
 90
       50
102
RTVSPost2010PropOp46
 70
     1
102
RTVSPost2010Prop47
 90
       50
102
RTVSPost2010PropOp47
 70
     1
102
RTVSPost2010Prop48
 90
       50
102
RTVSPost2010PropOp48
 70
     1
102
RTVSPost2010Prop49
280
     0
102
RTVSPost2010PropOp49
 70
     1
102
RTVSPost2010Prop50
 90
       50
102
RTVSPost2010PropOp50
 70
     1
102
RTVSPost2010Prop51ColorIndex
 90
      256
102
RTVSPost2010Prop51ColorRGB
 90
-16777216
102
RTVSPost2010PropOp51
 70
     0
102
RTVSPost2010Prop52
140
1.0
102
RTVSPost2010PropOp52
 70
     0
102
RTVSPost2010Prop53
 90
        2
102
RTVSPost2010PropOp53
 70
     1
102
RTVSPost2010Prop54
  1
strokes_ogs.tif
102
RTVSPost2010PropOp54
 70
     1
102
RTVSPost2010Prop55
280
     0
102
RTVSPost2010PropOp55
 70
     1
102
RTVSPost2010Prop56
140
1.0
102
RTVSPost2010PropOp56
 70
     1
102
RTVSPost2010Prop57
140
1.0
102
RTVSPost2010PropOp57
 70
     1
  0
XRECORD
  5
1A4
102
{ACAD_REACTORS
330
1A3
102
}
330
1A3
100
AcDbXrecord
280
     1
102
RTVSPost2010Prop28
280
     0
102
RTVSPost2010PropOp28
 70
     0
102
RTVSPost2010Prop29
280
     1
102
RTVSPost2010PropOp29
 70
     0
102
RTVSPost2010Prop30
280
     1
102
RTVSPost2010PropOp30
 70
     0
102
RTVSPost2010Prop31
280
     0
102
RTVSPost2010PropOp31
 70
     0
102
RTVSPost2010Prop32
280
     0
102
RTVSPost2010PropOp32
 70
     0
102
RTVSPost2010Prop33
280
     0
102
RTVSPost2010PropOp33
 70
     0
102
RTVSPost2010Prop34
280
     0
102
RTVSPost2010PropOp34
 70
     0
102
RTVSPost2010Prop35
280
     0
102
RTVSPost2010PropOp35
 70
     0
102
RTVSPost2010Prop36
280
     0
102
RTVSPost2010PropOp36
 70
     0
102
RTVSPost2010Prop37
 90
       50
102
RTVSPost2010PropOp37
 70
     0
102
RTVSPost2010Prop38
140
0.0
102
RTVSPost2010PropOp38
 70
     0
102
RTVSPost2010Prop39
140
1.0
102
RTVSPost2010PropOp39
 70
     0
102
RTVSPost2010Prop40
 90
        0
102
RTVSPost2010PropOp40
 70
     0
102
RTVSPost2010Prop41ColorIndex
 90
       18
102
RTVSPost2010Prop41ColorRGB
 90
        0
102
RTVSPost2010PropOp41
 70
     0
102
RTVSPost2010Prop42
 90
       50
102
RTVSPost2010PropOp42
 70
     0
102
RTVSPost2010Prop43
 90
        3
102
RTVSPost2010PropOp43
 70
     0
102
RTVSPost2010Prop44ColorIndex
 90
        5
102
RTVSPost2010Prop44ColorRGB
 90
      255
102
RTVSPost2010PropOp44
 70
     0
102
RTVSPost2010Prop45
280
     0
102
RTVSPost2010PropOp45
 70
     0
102
RTVSPost2010Prop46
 90
       50
102
RTVSPost2010PropOp46
 70
     0
102
RTVSPost2010Prop47
 90
       50
102
RTVSPost2010PropOp47
 70
     0
102
RTVSPost2010Prop48
 90
       50
102
RTVSPost2010PropOp48
 70
     0
102
RTVSPost2010Prop49
280
     0
102
RTVSPost2010PropOp49
 70
     0
102
RTVSPost2010Prop50
 90
       50
102
RTVSPost2010PropOp50
 70
     0
102
RTVSPost2010Prop51ColorIndex
 90
      256
102
RTVSPost2010Prop51ColorRGB
 90
-16777216
102
RTVSPost2010PropOp51
 70
     0
102
RTVSPost2010Prop52
140
1.0
102
RTVSPost2010PropOp52
 70
     0
102
RTVSPost2010Prop53
 90
        2
102
RTVSPost2010PropOp53
 70
     0
102
RTVSPost2010Prop54
  1
strokes_ogs.tif
102
RTVSPost2010PropOp54
 70
     0
102
RTVSPost2010Prop55
280
     0
102
RTVSPost2010PropOp55
 70
     0
102
RTVSPost2010Prop56
140
1.0
102
RTVSPost2010PropOp56
 70
     0
102
RTVSPost2010Prop57
140
1.0
102
RTVSPost2010PropOp57
 70
     0
  0
XRECORD
  5
18A
102
{ACAD_REACTORS
330
189
102
}
330
189
100
AcDbXrecord
280
     1
102
RTVSPost2010Prop28
280
     0
102
RTVSPost2010PropOp28
 70
     1
102
RTVSPost2010Prop29
280
     1
102
RTVSPost2010PropOp29
 70
     1
102
RTVSPost2010Prop30
280
     1
102
RTVSPost2010PropOp30
 70
     1
102
RTVSPost2010Prop31
280
     0
102
RTVSPost2010PropOp31
 70
     1
102
RTVSPost2010Prop32
280
     0
102
RTVSPost2010PropOp32
 70
     1
102
RTVSPost2010Prop33
280
     0
102
RTVSPost2010PropOp33
 70
     1
102
RTVSPost2010Prop34
280
     0
102
RTVSPost2010PropOp34
 70
     1
102
RTVSPost2010Prop35
280
     0
102
RTVSPost2010PropOp35
 70
     1
102
RTVSPost2010Prop36
280
     0
102
RTVSPost2010PropOp36
 70
     1
102
RTVSPost2010Prop37
 90
       50
102
RTVSPost2010PropOp37
 70
     1
102
RTVSPost2010Prop38
140
0.0
102
RTVSPost2010PropOp38
 70
     1
102
RTVSPost2010Prop39
140
1.0
102
RTVSPost2010PropOp39
 70
     1
102
RTVSPost2010Prop40
 90
        0
102
RTVSPost2010PropOp40
 70
     1
102
RTVSPost2010Prop41ColorIndex
 90
       18
102
RTVSPost2010Prop41ColorRGB
 90
        0
102
RTVSPost2010PropOp41
 70
     1
102
RTVSPost2010Prop42
 90
       50
102
RTVSPost2010PropOp42
 70
     1
102
RTVSPost2010Prop43
 90
        3
102
RTVSPost2010PropOp43
 70
     1
102
RTVSPost2010Prop44ColorIndex
 90
        5
102
RTVSPost2010Prop44ColorRGB
 90
      255
102
RTVSPost2010PropOp44
 70
     1
102
RTVSPost2010Prop45
280
     0
102
RTVSPost2010PropOp45
 70
     1
102
RTVSPost2010Prop46
 90
       50
102
RTVSPost2010PropOp46
 70
     1
102
RTVSPost2010Prop47
 90
       50
102
RTVSPost2010PropOp47
 70
     1
102
RTVSPost2010Prop48
 90
       50
102
RTVSPost2010PropOp48
 70
     1
102
RTVSPost2010Prop49
280
     0
102
RTVSPost2010PropOp49
 70
     1
102
RTVSPost2010Prop50
 90
       50
102
RTVSPost2010PropOp50
 70
     1
102
RTVSPost2010Prop51ColorIndex
 90
      256
102
RTVSPost2010Prop51ColorRGB
 90
-16777216
102
RTVSPost2010PropOp51
 70
     0
102
RTVSPost2010Prop52
140
1.0
102
RTVSPost2010PropOp52
 70
     0
102
RTVSPost2010Prop53
 90
        2
102
RTVSPost2010PropOp53
 70
     1
102
RTVSPost2010Prop54
  1
strokes_ogs.tif
102
RTVSPost2010PropOp54
 70
     1
102
RTVSPost2010Prop55
280
     0
102
RTVSPost2010PropOp55
 70
     1
102
RTVSPost2010Prop56
140
1.0
102
RTVSPost2010PropOp56
 70
     1
102
RTVSPost2010Prop57
140
1.0
102
RTVSPost2010PropOp57
 70
     1
  0
XRECORD
  5
1A0
102
{ACAD_REACTORS
330
19F
102
}
330
19F
100
AcDbXrecord
280
     1
102
RTVSPost2010Prop28
280
     0
102
RTVSPost2010PropOp28
 70
     1
102
RTVSPost2010Prop29
280
     1
102
RTVSPost2010PropOp29
 70
     1
102
RTVSPost2010Prop30
280
     1
102
RTVSPost2010PropOp30
 70
     1
102
RTVSPost2010Prop31
280
     0
102
RTVSPost2010PropOp31
 70
     1
102
RTVSPost2010Prop32
280
     0
102
RTVSPost2010PropOp32
 70
     1
102
RTVSPost2010Prop33
280
     0
102
RTVSPost2010PropOp33
 70
     1
102
RTVSPost2010Prop34
280
     0
102
RTVSPost2010PropOp34
 70
     1
102
RTVSPost2010Prop35
280
     0
102
RTVSPost2010PropOp35
 70
     1
102
RTVSPost2010Prop36
280
     0
102
RTVSPost2010PropOp36
 70
     1
102
RTVSPost2010Prop37
 90
       50
102
RTVSPost2010PropOp37
 70
     1
102
RTVSPost2010Prop38
140
0.0
102
RTVSPost2010PropOp38
 70
     1
102
RTVSPost2010Prop39
140
1.0
102
RTVSPost2010PropOp39
 70
     1
102
RTVSPost2010Prop40
 90
        0
102
RTVSPost2010PropOp40
 70
     1
102
RTVSPost2010Prop41ColorIndex
 90
       18
102
RTVSPost2010Prop41ColorRGB
 90
        0
102
RTVSPost2010PropOp41
 70
     1
102
RTVSPost2010Prop42
 90
       50
102
RTVSPost2010PropOp42
 70
     1
102
RTVSPost2010Prop43
 90
        3
102
RTVSPost2010PropOp43
 70
     1
102
RTVSPost2010Prop44ColorIndex
 90
        5
102
RTVSPost2010Prop44ColorRGB
 90
      255
102
RTVSPost2010PropOp44
 70
     1
102
RTVSPost2010Prop45
280
     0
102
RTVSPost2010PropOp45
 70
     1
102
RTVSPost2010Prop46
 90
       50
102
RTVSPost2010PropOp46
 70
     1
102
RTVSPost2010Prop47
 90
       50
102
RTVSPost2010PropOp47
 70
     1
102
RTVSPost2010Prop48
 90
       50
102
RTVSPost2010PropOp48
 70
     1
102
RTVSPost2010Prop49
280
     0
102
RTVSPost2010PropOp49
 70
     1
102
RTVSPost2010Prop50
 90
       50
102
RTVSPost2010PropOp50
 70
     1
102
RTVSPost2010Prop51ColorIndex
 90
      256
102
RTVSPost2010Prop51ColorRGB
 90
-16777216
102
RTVSPost2010PropOp51
 70
     0
102
RTVSPost2010Prop52
140
1.0
102
RTVSPost2010PropOp52
 70
     0
102
RTVSPost2010Prop53
 90
        2
102
RTVSPost2010PropOp53
 70
     1
102
RTVSPost2010Prop54
  1
strokes_ogs.tif
102
RTVSPost2010PropOp54
 70
     1
102
RTVSPost2010Prop55
280
     0
102
RTVSPost2010PropOp55
 70
     1
102
RTVSPost2010Prop56
140
1.0
102
RTVSPost2010PropOp56
 70
     1
102
RTVSPost2010Prop57
140
1.0
102
RTVSPost2010PropOp57
 70
     1
  0
XRECORD
  5
19E
102
{ACAD_REACTORS
330
19D
102
}
330
19D
100
AcDbXrecord
280
     1
102
RTVSPost2010Prop28
280
     0
102
RTVSPost2010PropOp28
 70
     1
102
RTVSPost2010Prop29
280
     1
102
RTVSPost2010PropOp29
 70
     1
102
RTVSPost2010Prop30
280
     1
102
RTVSPost2010PropOp30
 70
     1
102
RTVSPost2010Prop31
280
     0
102
RTVSPost2010PropOp31
 70
     1
102
RTVSPost2010Prop32
280
     0
102
RTVSPost2010PropOp32
 70
     1
102
RTVSPost2010Prop33
280
     0
102
RTVSPost2010PropOp33
 70
     1
102
RTVSPost2010Prop34
280
     0
102
RTVSPost2010PropOp34
 70
     1
102
RTVSPost2010Prop35
280
     0
102
RTVSPost2010PropOp35
 70
     1
102
RTVSPost2010Prop36
280
     0
102
RTVSPost2010PropOp36
 70
     1
102
RTVSPost2010Prop37
 90
       50
102
RTVSPost2010PropOp37
 70
     1
102
RTVSPost2010Prop38
140
0.0
102
RTVSPost2010PropOp38
 70
     1
102
RTVSPost2010Prop39
140
1.0
102
RTVSPost2010PropOp39
 70
     1
102
RTVSPost2010Prop40
 90
        0
102
RTVSPost2010PropOp40
 70
     1
102
RTVSPost2010Prop41ColorIndex
 90
       18
102
RTVSPost2010Prop41ColorRGB
 90
        0
102
RTVSPost2010PropOp41
 70
     1
102
RTVSPost2010Prop42
 90
       50
102
RTVSPost2010PropOp42
 70
     1
102
RTVSPost2010Prop43
 90
        3
102
RTVSPost2010PropOp43
 70
     1
102
RTVSPost2010Prop44ColorIndex
 90
        5
102
RTVSPost2010Prop44ColorRGB
 90
      255
102
RTVSPost2010PropOp44
 70
     1
102
RTVSPost2010Prop45
280
     0
102
RTVSPost2010PropOp45
 70
     1
102
RTVSPost2010Prop46
 90
       50
102
RTVSPost2010PropOp46
 70
     1
102
RTVSPost2010Prop47
 90
       50
102
RTVSPost2010PropOp47
 70
     1
102
RTVSPost2010Prop48
 90
       50
102
RTVSPost2010PropOp48
 70
     1
102
RTVSPost2010Prop49
280
     0
102
RTVSPost2010PropOp49
 70
     1
102
RTVSPost2010Prop50
 90
       50
102
RTVSPost2010PropOp50
 70
     1
102
RTVSPost2010Prop51ColorIndex
 90
      256
102
RTVSPost2010Prop51ColorRGB
 90
-16777216
102
RTVSPost2010PropOp51
 70
     0
102
RTVSPost2010Prop52
140
1.0
102
RTVSPost2010PropOp52
 70
     0
102
RTVSPost2010Prop53
 90
        2
102
RTVSPost2010PropOp53
 70
     1
102
RTVSPost2010Prop54
  1
strokes_ogs.tif
102
RTVSPost2010PropOp54
 70
     1
102
RTVSPost2010Prop55
280
     0
102
RTVSPost2010PropOp55
 70
     1
102
RTVSPost2010Prop56
140
1.0
102
RTVSPost2010PropOp56
 70
     1
102
RTVSPost2010Prop57
140
1.0
102
RTVSPost2010PropOp57
 70
     1
  0
XRECORD
  5
198
102
{ACAD_REACTORS
330
197
102
}
330
197
100
AcDbXrecord
280
     1
102
RTVSPost2010Prop28
280
     0
102
RTVSPost2010PropOp28
 70
     1
102
RTVSPost2010Prop29
280
     1
102
RTVSPost2010PropOp29
 70
     1
102
RTVSPost2010Prop30
280
     1
102
RTVSPost2010PropOp30
 70
     1
102
RTVSPost2010Prop31
280
     0
102
RTVSPost2010PropOp31
 70
     1
102
RTVSPost2010Prop32
280
     0
102
RTVSPost2010PropOp32
 70
     1
102
RTVSPost2010Prop33
280
     0
102
RTVSPost2010PropOp33
 70
     1
102
RTVSPost2010Prop34
280
     0
102
RTVSPost2010PropOp34
 70
     1
102
RTVSPost2010Prop35
280
     0
102
RTVSPost2010PropOp35
 70
     1
102
RTVSPost2010Prop36
280
     0
102
RTVSPost2010PropOp36
 70
     1
102
RTVSPost2010Prop37
 90
       50
102
RTVSPost2010PropOp37
 70
     1
102
RTVSPost2010Prop38
140
0.0
102
RTVSPost2010PropOp38
 70
     1
102
RTVSPost2010Prop39
140
1.0
102
RTVSPost2010PropOp39
 70
     1
102
RTVSPost2010Prop40
 90
        0
102
RTVSPost2010PropOp40
 70
     1
102
RTVSPost2010Prop41ColorIndex
 90
       18
102
RTVSPost2010Prop41ColorRGB
 90
        0
102
RTVSPost2010PropOp41
 70
     1
102
RTVSPost2010Prop42
 90
       50
102
RTVSPost2010PropOp42
 70
     1
102
RTVSPost2010Prop43
 90
        3
102
RTVSPost2010PropOp43
 70
     1
102
RTVSPost2010Prop44ColorIndex
 90
        5
102
RTVSPost2010Prop44ColorRGB
 90
      255
102
RTVSPost2010PropOp44
 70
     1
102
RTVSPost2010Prop45
280
     0
102
RTVSPost2010PropOp45
 70
     1
102
RTVSPost2010Prop46
 90
       50
102
RTVSPost2010PropOp46
 70
     1
102
RTVSPost2010Prop47
 90
       50
102
RTVSPost2010PropOp47
 70
     1
102
RTVSPost2010Prop48
 90
       50
102
RTVSPost2010PropOp48
 70
     1
102
RTVSPost2010Prop49
280
     0
102
RTVSPost2010PropOp49
 70
     1
102
RTVSPost2010Prop50
 90
       50
102
RTVSPost2010PropOp50
 70
     1
102
RTVSPost2010Prop51ColorIndex
 90
      256
102
RTVSPost2010Prop51ColorRGB
 90
-16777216
102
RTVSPost2010PropOp51
 70
     0
102
RTVSPost2010Prop52
140
1.0
102
RTVSPost2010PropOp52
 70
     0
102
RTVSPost2010Prop53
 90
        2
102
RTVSPost2010PropOp53
 70
     1
102
RTVSPost2010Prop54
  1
strokes_ogs.tif
102
RTVSPost2010PropOp54
 70
     1
102
RTVSPost2010Prop55
280
     0
102
RTVSPost2010PropOp55
 70
     1
102
RTVSPost2010Prop56
140
1.0
102
RTVSPost2010PropOp56
 70
     1
102
RTVSPost2010Prop57
140
1.0
102
RTVSPost2010PropOp57
 70
     1
  0
XRECORD
  5
19A
102
{ACAD_REACTORS
330
199
102
}
330
199
100
AcDbXrecord
280
     1
102
RTVSPost2010Prop28
280
     0
102
RTVSPost2010PropOp28
 70
     1
102
RTVSPost2010Prop29
280
     1
102
RTVSPost2010PropOp29
 70
     1
102
RTVSPost2010Prop30
280
     1
102
RTVSPost2010PropOp30
 70
     1
102
RTVSPost2010Prop31
280
     0
102
RTVSPost2010PropOp31
 70
     1
102
RTVSPost2010Prop32
280
     0
102
RTVSPost2010PropOp32
 70
     1
102
RTVSPost2010Prop33
280
     0
102
RTVSPost2010PropOp33
 70
     1
102
RTVSPost2010Prop34
280
     0
102
RTVSPost2010PropOp34
 70
     1
102
RTVSPost2010Prop35
280
     0
102
RTVSPost2010PropOp35
 70
     1
102
RTVSPost2010Prop36
280
     0
102
RTVSPost2010PropOp36
 70
     1
102
RTVSPost2010Prop37
 90
       50
102
RTVSPost2010PropOp37
 70
     1
102
RTVSPost2010Prop38
140
0.0
102
RTVSPost2010PropOp38
 70
     1
102
RTVSPost2010Prop39
140
1.0
102
RTVSPost2010PropOp39
 70
     1
102
RTVSPost2010Prop40
 90
        0
102
RTVSPost2010PropOp40
 70
     1
102
RTVSPost2010Prop41ColorIndex
 90
       18
102
RTVSPost2010Prop41ColorRGB
 90
        0
102
RTVSPost2010PropOp41
 70
     1
102
RTVSPost2010Prop42
 90
       50
102
RTVSPost2010PropOp42
 70
     1
102
RTVSPost2010Prop43
 90
        3
102
RTVSPost2010PropOp43
 70
     1
102
RTVSPost2010Prop44ColorIndex
 90
        5
102
RTVSPost2010Prop44ColorRGB
 90
      255
102
RTVSPost2010PropOp44
 70
     1
102
RTVSPost2010Prop45
280
     0
102
RTVSPost2010PropOp45
 70
     1
102
RTVSPost2010Prop46
 90
       50
102
RTVSPost2010PropOp46
 70
     1
102
RTVSPost2010Prop47
 90
       50
102
RTVSPost2010PropOp47
 70
     1
102
RTVSPost2010Prop48
 90
       50
102
RTVSPost2010PropOp48
 70
     1
102
RTVSPost2010Prop49
280
     0
102
RTVSPost2010PropOp49
 70
     1
102
RTVSPost2010Prop50
 90
       50
102
RTVSPost2010PropOp50
 70
     1
102
RTVSPost2010Prop51ColorIndex
 90
      256
102
RTVSPost2010Prop51ColorRGB
 90
-16777216
102
RTVSPost2010PropOp51
 70
     0
102
RTVSPost2010Prop52
140
1.0
102
RTVSPost2010PropOp52
 70
     0
102
RTVSPost2010Prop53
 90
        2
102
RTVSPost2010PropOp53
 70
     1
102
RTVSPost2010Prop54
  1
strokes_ogs.tif
102
RTVSPost2010PropOp54
 70
     1
102
RTVSPost2010Prop55
280
     0
102
RTVSPost2010PropOp55
 70
     1
102
RTVSPost2010Prop56
140
1.0
102
RTVSPost2010PropOp56
 70
     1
102
RTVSPost2010Prop57
140
1.0
102
RTVSPost2010PropOp57
 70
     1
  0
XRECORD
  5
190
102
{ACAD_REACTORS
330
18F
102
}
330
18F
100
AcDbXrecord
280
     1
102
RTVSPost2010Prop28
280
     0
102
RTVSPost2010PropOp28
 70
     1
102
RTVSPost2010Prop29
280
     1
102
RTVSPost2010PropOp29
 70
     1
102
RTVSPost2010Prop30
280
     1
102
RTVSPost2010PropOp30
 70
     1
102
RTVSPost2010Prop31
280
     0
102
RTVSPost2010PropOp31
 70
     1
102
RTVSPost2010Prop32
280
     0
102
RTVSPost2010PropOp32
 70
     1
102
RTVSPost2010Prop33
280
     0
102
RTVSPost2010PropOp33
 70
     1
102
RTVSPost2010Prop34
280
     0
102
RTVSPost2010PropOp34
 70
     1
102
RTVSPost2010Prop35
280
     0
102
RTVSPost2010PropOp35
 70
     1
102
RTVSPost2010Prop36
280
     0
102
RTVSPost2010PropOp36
 70
     1
102
RTVSPost2010Prop37
 90
       50
102
RTVSPost2010PropOp37
 70
     1
102
RTVSPost2010Prop38
140
0.0
102
RTVSPost2010PropOp38
 70
     1
102
RTVSPost2010Prop39
140
1.0
102
RTVSPost2010PropOp39
 70
     1
102
RTVSPost2010Prop40
 90
        0
102
RTVSPost2010PropOp40
 70
     1
102
RTVSPost2010Prop41ColorIndex
 90
       18
102
RTVSPost2010Prop41ColorRGB
 90
        0
102
RTVSPost2010PropOp41
 70
     1
102
RTVSPost2010Prop42
 90
       50
102
RTVSPost2010PropOp42
 70
     1
102
RTVSPost2010Prop43
 90
        3
102
RTVSPost2010PropOp43
 70
     1
102
RTVSPost2010Prop44ColorIndex
 90
        5
102
RTVSPost2010Prop44ColorRGB
 90
      255
102
RTVSPost2010PropOp44
 70
     1
102
RTVSPost2010Prop45
280
     0
102
RTVSPost2010PropOp45
 70
     1
102
RTVSPost2010Prop46
 90
       50
102
RTVSPost2010PropOp46
 70
     1
102
RTVSPost2010Prop47
 90
       50
102
RTVSPost2010PropOp47
 70
     1
102
RTVSPost2010Prop48
 90
       50
102
RTVSPost2010PropOp48
 70
     1
102
RTVSPost2010Prop49
280
     0
102
RTVSPost2010PropOp49
 70
     1
102
RTVSPost2010Prop50
 90
       50
102
RTVSPost2010PropOp50
 70
     1
102
RTVSPost2010Prop51ColorIndex
 90
      256
102
RTVSPost2010Prop51ColorRGB
 90
-16777216
102
RTVSPost2010PropOp51
 70
     0
102
RTVSPost2010Prop52
140
1.0
102
RTVSPost2010PropOp52
 70
     0
102
RTVSPost2010Prop53
 90
        2
102
RTVSPost2010PropOp53
 70
     1
102
RTVSPost2010Prop54
  1
strokes_ogs.tif
102
RTVSPost2010PropOp54
 70
     1
102
RTVSPost2010Prop55
280
     0
102
RTVSPost2010PropOp55
 70
     1
102
RTVSPost2010Prop56
140
1.0
102
RTVSPost2010PropOp56
 70
     1
102
RTVSPost2010Prop57
140
1.0
102
RTVSPost2010PropOp57
 70
     1
  0
XRECORD
  5
184
102
{ACAD_REACTORS
330
183
102
}
330
183
100
AcDbXrecord
280
     1
102
RTVSPost2010Prop28
280
     0
102
RTVSPost2010PropOp28
 70
     1
102
RTVSPost2010Prop29
280
     1
102
RTVSPost2010PropOp29
 70
     1
102
RTVSPost2010Prop30
280
     1
102
RTVSPost2010PropOp30
 70
     1
102
RTVSPost2010Prop31
280
     0
102
RTVSPost2010PropOp31
 70
     1
102
RTVSPost2010Prop32
280
     0
102
RTVSPost2010PropOp32
 70
     1
102
RTVSPost2010Prop33
280
     0
102
RTVSPost2010PropOp33
 70
     1
102
RTVSPost2010Prop34
280
     0
102
RTVSPost2010PropOp34
 70
     1
102
RTVSPost2010Prop35
280
     0
102
RTVSPost2010PropOp35
 70
     1
102
RTVSPost2010Prop36
280
     0
102
RTVSPost2010PropOp36
 70
     1
102
RTVSPost2010Prop37
 90
       50
102
RTVSPost2010PropOp37
 70
     1
102
RTVSPost2010Prop38
140
0.0
102
RTVSPost2010PropOp38
 70
     1
102
RTVSPost2010Prop39
140
1.0
102
RTVSPost2010PropOp39
 70
     1
102
RTVSPost2010Prop40
 90
        0
102
RTVSPost2010PropOp40
 70
     1
102
RTVSPost2010Prop41ColorIndex
 90
       18
102
RTVSPost2010Prop41ColorRGB
 90
        0
102
RTVSPost2010PropOp41
 70
     1
102
RTVSPost2010Prop42
 90
       50
102
RTVSPost2010PropOp42
 70
     1
102
RTVSPost2010Prop43
 90
        3
102
RTVSPost2010PropOp43
 70
     1
102
RTVSPost2010Prop44ColorIndex
 90
        5
102
RTVSPost2010Prop44ColorRGB
 90
      255
102
RTVSPost2010PropOp44
 70
     1
102
RTVSPost2010Prop45
280
     0
102
RTVSPost2010PropOp45
 70
     1
102
RTVSPost2010Prop46
 90
       50
102
RTVSPost2010PropOp46
 70
     1
102
RTVSPost2010Prop47
 90
       50
102
RTVSPost2010PropOp47
 70
     1
102
RTVSPost2010Prop48
 90
       50
102
RTVSPost2010PropOp48
 70
     1
102
RTVSPost2010Prop49
280
     0
102
RTVSPost2010PropOp49
 70
     1
102
RTVSPost2010Prop50
 90
       50
102
RTVSPost2010PropOp50
 70
     1
102
RTVSPost2010Prop51ColorIndex
 90
      256
102
RTVSPost2010Prop51ColorRGB
 90
-16777216
102
RTVSPost2010PropOp51
 70
     0
102
RTVSPost2010Prop52
140
1.0
102
RTVSPost2010PropOp52
 70
     0
102
RTVSPost2010Prop53
 90
        2
102
RTVSPost2010PropOp53
 70
     1
102
RTVSPost2010Prop54
  1
strokes_ogs.tif
102
RTVSPost2010PropOp54
 70
     1
102
RTVSPost2010Prop55
280
     0
102
RTVSPost2010PropOp55
 70
     1
102
RTVSPost2010Prop56
140
1.0
102
RTVSPost2010PropOp56
 70
     1
102
RTVSPost2010Prop57
140
1.0
102
RTVSPost2010PropOp57
 70
     1
  0
XRECORD
  5
19C
102
{ACAD_REACTORS
330
19B
102
}
330
19B
100
AcDbXrecord
280
     1
102
RTVSPost2010Prop28
280
     0
102
RTVSPost2010PropOp28
 70
     1
102
RTVSPost2010Prop29
280
     1
102
RTVSPost2010PropOp29
 70
     1
102
RTVSPost2010Prop30
280
     1
102
RTVSPost2010PropOp30
 70
     1
102
RTVSPost2010Prop31
280
     0
102
RTVSPost2010PropOp31
 70
     1
102
RTVSPost2010Prop32
280
     0
102
RTVSPost2010PropOp32
 70
     1
102
RTVSPost2010Prop33
280
     0
102
RTVSPost2010PropOp33
 70
     1
102
RTVSPost2010Prop34
280
     0
102
RTVSPost2010PropOp34
 70
     1
102
RTVSPost2010Prop35
280
     0
102
RTVSPost2010PropOp35
 70
     1
102
RTVSPost2010Prop36
280
     0
102
RTVSPost2010PropOp36
 70
     1
102
RTVSPost2010Prop37
 90
       50
102
RTVSPost2010PropOp37
 70
     1
102
RTVSPost2010Prop38
140
0.0
102
RTVSPost2010PropOp38
 70
     1
102
RTVSPost2010Prop39
140
1.0
102
RTVSPost2010PropOp39
 70
     1
102
RTVSPost2010Prop40
 90
        0
102
RTVSPost2010PropOp40
 70
     1
102
RTVSPost2010Prop41ColorIndex
 90
       18
102
RTVSPost2010Prop41ColorRGB
 90
        0
102
RTVSPost2010PropOp41
 70
     1
102
RTVSPost2010Prop42
 90
       50
102
RTVSPost2010PropOp42
 70
     1
102
RTVSPost2010Prop43
 90
        3
102
RTVSPost2010PropOp43
 70
     1
102
RTVSPost2010Prop44ColorIndex
 90
        5
102
RTVSPost2010Prop44ColorRGB
 90
      255
102
RTVSPost2010PropOp44
 70
     1
102
RTVSPost2010Prop45
280
     0
102
RTVSPost2010PropOp45
 70
     1
102
RTVSPost2010Prop46
 90
       50
102
RTVSPost2010PropOp46
 70
     1
102
RTVSPost2010Prop47
 90
       50
102
RTVSPost2010PropOp47
 70
     1
102
RTVSPost2010Prop48
 90
       50
102
RTVSPost2010PropOp48
 70
     1
102
RTVSPost2010Prop49
280
     0
102
RTVSPost2010PropOp49
 70
     1
102
RTVSPost2010Prop50
 90
       50
102
RTVSPost2010PropOp50
 70
     1
102
RTVSPost2010Prop51ColorIndex
 90
      256
102
RTVSPost2010Prop51ColorRGB
 90
-16777216
102
RTVSPost2010PropOp51
 70
     0
102
RTVSPost2010Prop52
140
1.0
102
RTVSPost2010PropOp52
 70
     0
102
RTVSPost2010Prop53
 90
        2
102
RTVSPost2010PropOp53
 70
     1
102
RTVSPost2010Prop54
  1
strokes_ogs.tif
102
RTVSPost2010PropOp54
 70
     1
102
RTVSPost2010Prop55
280
     0
102
RTVSPost2010PropOp55
 70
     1
102
RTVSPost2010Prop56
140
1.0
102
RTVSPost2010PropOp56
 70
     1
102
RTVSPost2010Prop57
140
1.0
102
RTVSPost2010PropOp57
 70
     1
  0
ENDSEC
  0
EOF
