  0
SECTION
  2
HEADER
  9
$ACADVER
  1
AC1024
  9
$ACADMAINTVER
 70
   205
  9
$DWGCODEPAGE
  3
ANSI_1251
  9
$INSBASE
 10
0.0
 20
0.0
 30
0.0
  9
$EXTMIN
 10
1.000000000000000E+20
 20
1.000000000000000E+20
 30
1.000000000000000E+20
  9
$EXTMAX
 10
-1.000000000000000E+20
 20
-1.000000000000000E+20
 30
-1.000000000000000E+20
  9
$LIMMIN
 10
0.0
 20
0.0
  9
$LIMMAX
 10
12.0
 20
9.0
  9
$ORTHOMODE
 70
     0
  9
$REGENMODE
 70
     1
  9
$FILLMODE
 70
     1
  9
$QTEXTMODE
 70
     0
  9
$MIRRTEXT
 70
     1
  9
$LTSCALE
 40
1.0
  9
$ATTMODE
 70
     1
  9
$TEXTSIZE
 40
0.2
  9
$TRACEWID
 40
0.05
  9
$TEXTSTYLE
  7
Standard
  9
$CLAYER
  8
OracDecor_panel_moldings
  9
$CELTYPE
  6
ByLayer
  9
$CECOLOR
 62
   256
  9
$CELTSCALE
 40
1.0
  9
$DISPSILH
 70
     0
  9
$DIMSCALE
 40
1.0
  9
$DIMASZ
 40
0.18
  9
$DIMEXO
 40
0.0625
  9
$DIMDLI
 40
0.38
  9
$DIMRND
 40
0.0
  9
$DIMDLE
 40
0.0
  9
$DIMEXE
 40
0.18
  9
$DIMTP
 40
0.0
  9
$DIMTM
 40
0.0
  9
$DIMTXT
 40
0.18
  9
$DIMCEN
 40
0.09
  9
$DIMTSZ
 40
0.0
  9
$DIMTOL
 70
     0
  9
$DIMLIM
 70
     0
  9
$DIMTIH
 70
     1
  9
$DIMTOH
 70
     1
  9
$DIMSE1
 70
     0
  9
$DIMSE2
 70
     0
  9
$DIMTAD
 70
     0
  9
$DIMZIN
 70
     0
  9
$DIMBLK
  1

  9
$DIMASO
 70
     1
  9
$DIMSHO
 70
     1
  9
$DIMPOST
  1

  9
$DIMAPOST
  1

  9
$DIMALT
 70
     0
  9
$DIMALTD
 70
     2
  9
$DIMALTF
 40
25.4
  9
$DIMLFAC
 40
1.0
  9
$DIMTOFL
 70
     0
  9
$DIMTVP
 40
0.0
  9
$DIMTIX
 70
     0
  9
$DIMSOXD
 70
     0
  9
$DIMSAH
 70
     0
  9
$DIMBLK1
  1

  9
$DIMBLK2
  1

  9
$DIMSTYLE
  2
Standard
  9
$DIMCLRD
 70
     0
  9
$DIMCLRE
 70
     0
  9
$DIMCLRT
 70
     0
  9
$DIMTFAC
 40
1.0
  9
$DIMGAP
 40
0.09
  9
$DIMJUST
 70
     0
  9
$DIMSD1
 70
     0
  9
$DIMSD2
 70
     0
  9
$DIMTOLJ
 70
     1
  9
$DIMTZIN
 70
     0
  9
$DIMALTZ
 70
     0
  9
$DIMALTTZ
 70
     0
  9
$DIMUPT
 70
     0
  9
$DIMDEC
 70
     4
  9
$DIMTDEC
 70
     4
  9
$DIMALTU
 70
     2
  9
$DIMALTTD
 70
     2
  9
$DIMTXSTY
  7
Standard
  9
$DIMAUNIT
 70
     0
  9
$DIMADEC
 70
     0
  9
$DIMALTRND
 40
0.0
  9
$DIMAZIN
 70
     0
  9
$DIMDSEP
 70
    46
  9
$DIMATFIT
 70
     3
  9
$DIMFRAC
 70
     0
  9
$DIMLDRBLK
  1

  9
$DIMLUNIT
 70
     2
  9
$DIMLWD
 70
    -2
  9
$DIMLWE
 70
    -2
  9
$DIMTMOVE
 70
     0
  9
$DIMFXL
 40
1.0
  9
$DIMFXLON
 70
     0
  9
$DIMJOGANG
 40
0.7853981633974483
  9
$DIMTFILL
 70
     0
  9
$DIMTFILLCLR
 70
     0
  9
$DIMARCSYM
 70
     0
  9
$DIMLTYPE
  6

  9
$DIMLTEX1
  6

  9
$DIMLTEX2
  6

  9
$DIMTXTDIRECTION
 70
     0
  9
$LUNITS
 70
     2
  9
$LUPREC
 70
     4
  9
$SKETCHINC
 40
0.1
  9
$FILLETRAD
 40
0.5
  9
$AUNITS
 70
     0
  9
$AUPREC
 70
     0
  9
$MENU
  1
.
  9
$ELEVATION
 40
0.0
  9
$PELEVATION
 40
0.0
  9
$THICKNESS
 40
0.0
  9
$LIMCHECK
 70
     0
  9
$CHAMFERA
 40
0.5
  9
$CHAMFERB
 40
0.5
  9
$CHAMFERC
 40
1.0
  9
$CHAMFERD
 40
0.0
  9
$SKPOLY
 70
     0
  9
$TDCREATE
 40
2451380.930432396
  9
$TDUCREATE
 40
2451380.805432396
  9
$TDUPDATE
 40
2451380.966180555
  9
$TDUUPDATE
 40
2451380.841180556
  9
$TDINDWG
 40
0.0075630671
  9
$TDUSRTIMER
 40
0.0075540278
  9
$USRTIMER
 70
     1
  9
$ANGBASE
 50
0.0
  9
$ANGDIR
 70
     0
  9
$PDMODE
 70
     0
  9
$PDSIZE
 40
0.0
  9
$PLINEWID
 40
0.0
  9
$SPLFRAME
 70
     0
  9
$SPLINETYPE
 70
     6
  9
$SPLINESEGS
 70
     8
  9
$HANDSEED
  5
19D
  9
$SURFTAB1
 70
     6
  9
$SURFTAB2
 70
     6
  9
$SURFTYPE
 70
     6
  9
$SURFU
 70
     6
  9
$SURFV
 70
     6
  9
$UCSBASE
  2

  9
$UCSNAME
  2

  9
$UCSORG
 10
0.0
 20
0.0
 30
0.0
  9
$UCSXDIR
 10
1.0
 20
0.0
 30
0.0
  9
$UCSYDIR
 10
0.0
 20
1.0
 30
0.0
  9
$UCSORTHOREF
  2

  9
$UCSORTHOVIEW
 70
     0
  9
$UCSORGTOP
 10
0.0
 20
0.0
 30
0.0
  9
$UCSORGBOTTOM
 10
0.0
 20
0.0
 30
0.0
  9
$UCSORGLEFT
 10
0.0
 20
0.0
 30
0.0
  9
$UCSORGRIGHT
 10
0.0
 20
0.0
 30
0.0
  9
$UCSORGFRONT
 10
0.0
 20
0.0
 30
0.0
  9
$UCSORGBACK
 10
0.0
 20
0.0
 30
0.0
  9
$PUCSBASE
  2

  9
$PUCSNAME
  2

  9
$PUCSORG
 10
0.0
 20
0.0
 30
0.0
  9
$PUCSXDIR
 10
1.0
 20
0.0
 30
0.0
  9
$PUCSYDIR
 10
0.0
 20
1.0
 30
0.0
  9
$PUCSORTHOREF
  2

  9
$PUCSORTHOVIEW
 70
     0
  9
$PUCSORGTOP
 10
0.0
 20
0.0
 30
0.0
  9
$PUCSORGBOTTOM
 10
0.0
 20
0.0
 30
0.0
  9
$PUCSORGLEFT
 10
0.0
 20
0.0
 30
0.0
  9
$PUCSORGRIGHT
 10
0.0
 20
0.0
 30
0.0
  9
$PUCSORGFRONT
 10
0.0
 20
0.0
 30
0.0
  9
$PUCSORGBACK
 10
0.0
 20
0.0
 30
0.0
  9
$USERI1
 70
     0
  9
$USERI2
 70
     0
  9
$USERI3
 70
     0
  9
$USERI4
 70
     0
  9
$USERI5
 70
     0
  9
$USERR1
 40
0.0
  9
$USERR2
 40
0.0
  9
$USERR3
 40
0.0
  9
$USERR4
 40
0.0
  9
$USERR5
 40
0.0
  9
$WORLDVIEW
 70
     1
  9
$SHADEDGE
 70
     3
  9
$SHADEDIF
 70
    70
  9
$TILEMODE
 70
     1
  9
$MAXACTVP
 70
    64
  9
$PINSBASE
 10
0.0
 20
0.0
 30
0.0
  9
$PLIMCHECK
 70
     0
  9
$PEXTMIN
 10
1.000000000000000E+20
 20
1.000000000000000E+20
 30
1.000000000000000E+20
  9
$PEXTMAX
 10
-1.000000000000000E+20
 20
-1.000000000000000E+20
 30
-1.000000000000000E+20
  9
$PLIMMIN
 10
0.0
 20
0.0
  9
$PLIMMAX
 10
12.0
 20
9.0
  9
$UNITMODE
 70
     0
  9
$VISRETAIN
 70
     1
  9
$PLINEGEN
 70
     0
  9
$PSLTSCALE
 70
     1
  9
$TREEDEPTH
 70
  3020
  9
$CMLSTYLE
  2
Standard
  9
$CMLJUST
 70
     0
  9
$CMLSCALE
 40
1.0
  9
$PROXYGRAPHICS
 70
     1
  9
$MEASUREMENT
 70
     1
  9
$CELWEIGHT
370
    -1
  9
$ENDCAPS
280
     0
  9
$JOINSTYLE
280
     0
  9
$LWDISPLAY
290
     0
  9
$INSUNITS
 70
     4
  9
$HYPERLINKBASE
  1

  9
$STYLESHEET
  1

  9
$XEDIT
290
     1
  9
$CEPSNTYPE
380
     0
  9
$PSTYLEMODE
290
     1
  9
$FINGERPRINTGUID
  2
{12F50282-3ED8-11D3-A8B7-0060B0F84BC6}
  9
$VERSIONGUID
  2
{12F50293-3ED8-11D3-A8B7-0060B0F84BC6}
  9
$EXTNAMES
290
     1
  9
$PSVPSCALE
 40
0.0
  9
$OLESTARTUP
290
     0
  9
$SORTENTS
280
   127
  9
$INDEXCTL
280
     0
  9
$HIDETEXT
280
     0
  9
$XCLIPFRAME
280
     2
  9
$HALOGAP
280
     0
  9
$OBSCOLOR
 70
   257
  9
$OBSLTYPE
280
     0
  9
$INTERSECTIONDISPLAY
280
     0
  9
$INTERSECTIONCOLOR
 70
   257
  9
$DIMASSOC
280
     1
  9
$PROJECTNAME
  1

  9
$CAMERADISPLAY
290
     0
  9
$LENSLENGTH
 40
50.0
  9
$CAMERAHEIGHT
 40
0.0
  9
$STEPSPERSEC
 40
2.0
  9
$STEPSIZE
 40
6.0
  9
$3DDWFPREC
 40
2.0
  9
$PSOLWIDTH
 40
0.25
  9
$PSOLHEIGHT
 40
4.0
  9
$LOFTANG1
 40
1.570796326794896
  9
$LOFTANG2
 40
1.570796326794896
  9
$LOFTMAG1
 40
0.0
  9
$LOFTMAG2
 40
0.0
  9
$LOFTPARAM
 70
     7
  9
$LOFTNORMALS
280
     1
  9
$LATITUDE
 40
37.795
  9
$LONGITUDE
 40
-122.394
  9
$NORTHDIRECTION
 40
0.0
  9
$TIMEZONE
 70
 -8000
  9
$LIGHTGLYPHDISPLAY
280
     1
  9
$TILEMODELIGHTSYNCH
280
     1
  9
$CMATERIAL
347
AB
  9
$SOLIDHIST
280
     0
  9
$SHOWHIST
280
     1
  9
$DWFFRAME
280
     2
  9
$DGNFRAME
280
     0
  9
$REALWORLDSCALE
290
     1
  9
$INTERFERECOLOR
 62
     1
  9
$INTERFEREOBJVS
345
CD
  9
$INTERFEREVPVS
346
CA
  9
$CSHADOW
280
     0
  9
$SHADOWPLANELOCATION
 40
0.0
  0
ENDSEC
  0
SECTION
  2
CLASSES
  0
CLASS
  1
ACDBDICTIONARYWDFLT
  2
AcDbDictionaryWithDefault
  3
ObjectDBX Classes
 90
        0
 91
        1
280
     0
281
     0
  0
CLASS
  1
ACDBPLACEHOLDER
  2
AcDbPlaceHolder
  3
ObjectDBX Classes
 90
        0
 91
        2
280
     0
281
     0
  0
CLASS
  1
LAYOUT
  2
AcDbLayout
  3
ObjectDBX Classes
 90
        0
 91
        3
280
     0
281
     0
  0
CLASS
  1
MATERIAL
  2
AcDbMaterial
  3
ObjectDBX Classes
 90
     1153
 91
        3
280
     0
281
     0
  0
CLASS
  1
VISUALSTYLE
  2
AcDbVisualStyle
  3
ObjectDBX Classes
 90
     4095
 91
       24
280
     0
281
     0
  0
CLASS
  1
TABLESTYLE
  2
AcDbTableStyle
  3
ObjectDBX Classes
 90
     4095
 91
        1
280
     0
281
     0
  0
CLASS
  1
SCALE
  2
AcDbScale
  3
ObjectDBX Classes
 90
     1153
 91
       17
280
     0
281
     0
  0
CLASS
  1
MLEADERSTYLE
  2
AcDbMLeaderStyle
  3
ACDB_MLEADERSTYLE_CLASS
 90
     4095
 91
        1
280
     0
281
     0
  0
CLASS
  1
ACDBSECTIONVIEWSTYLE
  2
AcDbSectionViewStyle
  3
ObjectDBX Classes
 90
     1025
 91
        1
280
     0
281
     0
  0
CLASS
  1
ACDBDETAILVIEWSTYLE
  2
AcDbDetailViewStyle
  3
ObjectDBX Classes
 90
     1025
 91
        1
280
     0
281
     0
  0
CLASS
  1
MESH
  2
AcDbSubDMesh
  3
ObjectDBX Classes
 90
        0
 91
        1
280
     0
281
     1
  0
CLASS
  1
DICTIONARYVAR
  2
AcDbDictionaryVar
  3
ObjectDBX Classes
 90
        0
 91
        9
280
     0
281
     0
  0
CLASS
  1
CELLSTYLEMAP
  2
AcDbCellStyleMap
  3
ObjectDBX Classes
 90
     1152
 91
        1
280
     0
281
     0
  0
ENDSEC
  0
SECTION
  2
TABLES
  0
TABLE
  2
VPORT
  5
8
330
0
100
AcDbSymbolTable
 70
     1
  0
VPORT
  5
A8
330
8
100
AcDbSymbolTableRecord
100
AcDbViewportTableRecord
  2
*Active
 70
     0
 10
0.0
 20
0.0
 11
1.0
 21
1.0
 12
0.0000003371748392
 22
19.18766593933105
 13
0.0
 23
0.0
 14
0.5
 24
0.5
 15
0.5
 25
0.5
 16
-1.0
 26
-1.0
 36
1.0
 17
0.0
 27
0.0
 37
0.0
 40
1055.236424896808
 41
1.654905645905491
 42
50.0
 43
0.0
 44
0.0
 50
0.0
 51
0.0
 71
     0
 72
   100
 73
     1
 74
     3
 75
     0
 76
     0
 77
     0
 78
     0
281
     0
 65
     1
110
0.0
120
0.0
130
0.0
111
1.0
121
0.0
131
0.0
112
0.0
122
1.0
132
0.0
 79
     0
146
0.0
348
C9
 60
     3
 61
     5
292
     1
282
     1
141
0.0
142
0.0
 63
   250
421
  3355443
  0
ENDTAB
  0
TABLE
  2
LTYPE
  5
5
330
0
100
AcDbSymbolTable
 70
     1
  0
LTYPE
  5
14
330
5
100
AcDbSymbolTableRecord
100
AcDbLinetypeTableRecord
  2
ByBlock
 70
     0
  3

 72
    65
 73
     0
 40
0.0
  0
LTYPE
  5
15
330
5
100
AcDbSymbolTableRecord
100
AcDbLinetypeTableRecord
  2
ByLayer
 70
     0
  3

 72
    65
 73
     0
 40
0.0
  0
LTYPE
  5
16
330
5
100
AcDbSymbolTableRecord
100
AcDbLinetypeTableRecord
  2
Continuous
 70
     0
  3
Solid line
 72
    65
 73
     0
 40
0.0
  0
ENDTAB
  0
TABLE
  2
LAYER
  5
2
330
0
100
AcDbSymbolTable
 70
     3
  0
LAYER
  5
10
330
2
100
AcDbSymbolTableRecord
100
AcDbLayerTableRecord
  2
0
 70
     0
 62
     7
  6
Continuous
370
    -3
390
F
347
BB
  0
LAYER
  5
2B
330
2
100
AcDbSymbolTableRecord
100
AcDbLayerTableRecord
  2
ASHADE
 70
     4
 62
     7
  6
Continuous
370
    -3
390
2D
347
BB
  0
LAYER
  5
F8
330
2
100
AcDbSymbolTableRecord
100
AcDbLayerTableRecord
  2
OracDecor_panel_moldings
 70
     0
 62
    61
420
 14083494
  6
Continuous
370
    -3
390
F
347
BB
  0
ENDTAB
  0
TABLE
  2
STYLE
  5
3
330
0
100
AcDbSymbolTable
 70
     2
  0
STYLE
  5
11
330
3
100
AcDbSymbolTableRecord
100
AcDbTextStyleTableRecord
  2
Standard
 70
     0
 40
0.0
 41
1.0
 50
0.0
 71
     0
 42
0.2
  3
txt
  4

  0
STYLE
  5
2C
330
3
100
AcDbSymbolTableRecord
100
AcDbTextStyleTableRecord
  2
ASHADE
 70
     0
 40
0.2
 41
1.0
 50
0.0
 71
     0
 42
0.2
  3
simplex
  4

  0
ENDTAB
  0
TABLE
  2
VIEW
  5
6
330
0
100
AcDbSymbolTable
 70
     0
  0
ENDTAB
  0
TABLE
  2
UCS
  5
7
330
0
100
AcDbSymbolTable
 70
     0
  0
ENDTAB
  0
TABLE
  2
APPID
  5
9
330
0
100
AcDbSymbolTable
 70
     6
  0
APPID
  5
12
330
9
100
AcDbSymbolTableRecord
100
AcDbRegAppTableRecord
  2
ACAD
 70
     0
  0
APPID
  5
8F
330
9
100
AcDbSymbolTableRecord
100
AcDbRegAppTableRecord
  2
AVE_RENDER
 70
     0
  0
APPID
  5
90
330
9
100
AcDbSymbolTableRecord
100
AcDbRegAppTableRecord
  2
AVE_ENTITY_MATERIAL
 70
     0
  0
APPID
  5
9C
330
9
100
AcDbSymbolTableRecord
100
AcDbRegAppTableRecord
  2
AVE_FINISH
 70
     0
  0
APPID
  5
9D
330
9
100
AcDbSymbolTableRecord
100
AcDbRegAppTableRecord
  2
AVE_MATERIAL
 70
     0
  0
APPID
  5
9E
330
9
100
AcDbSymbolTableRecord
100
AcDbRegAppTableRecord
  2
AVE_GLOBAL
 70
     0
  0
ENDTAB
  0
TABLE
  2
DIMSTYLE
  5
A
330
0
100
AcDbSymbolTable
 70
     1
100
AcDbDimStyleTable
 71
     0
  0
DIMSTYLE
105
27
330
A
100
AcDbSymbolTableRecord
100
AcDbDimStyleTableRecord
  2
Standard
 70
     0
340
11
  0
ENDTAB
  0
TABLE
  2
BLOCK_RECORD
  5
1
330
0
100
AcDbSymbolTable
 70
     6
  0
BLOCK_RECORD
  5
1F
330
1
100
AcDbSymbolTableRecord
100
AcDbBlockTableRecord
  2
*Model_Space
340
22
 70
     0
280
     1
281
     0
  0
BLOCK_RECORD
  5
1B
330
1
100
AcDbSymbolTableRecord
100
AcDbBlockTableRecord
  2
*Paper_Space
340
1E
 70
     0
280
     1
281
     0
  0
BLOCK_RECORD
  5
23
330
1
100
AcDbSymbolTableRecord
100
AcDbBlockTableRecord
  2
*Paper_Space0
340
26
 70
     0
280
     1
281
     0
  0
BLOCK_RECORD
  5
2E
330
1
100
AcDbSymbolTableRecord
100
AcDbBlockTableRecord
  2
direct
340
0
 70
     0
280
     1
281
     0
  0
BLOCK_RECORD
  5
42
330
1
100
AcDbSymbolTableRecord
100
AcDbBlockTableRecord
  2
overhead
340
0
 70
     0
280
     1
281
     0
  0
BLOCK_RECORD
  5
5F
330
1
100
AcDbSymbolTableRecord
100
AcDbBlockTableRecord
  2
sh_spot
340
0
 70
     0
280
     1
281
     0
  0
BLOCK_RECORD
  5
91
330
1
100
AcDbSymbolTableRecord
100
AcDbBlockTableRecord
  2
AVE_RENDER
340
0
102
{BLKREFS
331
94
331
95
331
96
331
97
331
98
331
99
331
9A
331
9B
102
}
 70
     0
280
     1
281
     0
  0
BLOCK_RECORD
  5
9F
330
1
100
AcDbSymbolTableRecord
100
AcDbBlockTableRecord
  2
AVE_GLOBAL
340
0
102
{BLKREFS
331
A2
102
}
 70
     0
280
     1
281
     0
  0
ENDTAB
  0
ENDSEC
  0
SECTION
  2
BLOCKS
  0
BLOCK
  5
20
330
1F
100
AcDbEntity
  8
0
100
AcDbBlockBegin
  2
*Model_Space
 70
     0
 10
0.0
 20
0.0
 30
0.0
  3
*Model_Space
  1

  0
ENDBLK
  5
21
330
1F
100
AcDbEntity
  8
0
100
AcDbBlockEnd
  0
BLOCK
  5
1C
330
1B
100
AcDbEntity
 67
     1
  8
0
100
AcDbBlockBegin
  2
*Paper_Space
 70
     0
 10
0.0
 20
0.0
 30
0.0
  3
*Paper_Space
  1

  0
ENDBLK
  5
1D
330
1B
100
AcDbEntity
 67
     1
  8
0
100
AcDbBlockEnd
  0
BLOCK
  5
24
330
23
100
AcDbEntity
 67
     1
  8
0
100
AcDbBlockBegin
  2
*Paper_Space0
 70
     0
 10
0.0
 20
0.0
 30
0.0
  3
*Paper_Space0
  1

  0
ENDBLK
  5
25
330
23
100
AcDbEntity
 67
     1
  8
0
100
AcDbBlockEnd
  0
BLOCK
  5
40
330
2E
100
AcDbEntity
  8
0
100
AcDbBlockBegin
  2
direct
 70
     2
 10
0.0
 20
0.0
 30
0.0
  3
direct
  1

  0
ATTDEF
  5
2F
330
2E
100
AcDbEntity
  8
ASHADE
  6
Continuous
 62
     1
100
AcDbText
 10
0.0
 20
-0.1
 30
0.0
 40
0.2
  1

  7
ASHADE
 72
     1
 11
0.0
 21
-0.1
 31
0.0
100
AcDbAttributeDefinition
280
     0
  3
Light Name
  2
SNAME
 70
     0
280
     0
  0
ARC
  5
30
330
2E
100
AcDbEntity
  8
ASHADE
  6
Continuous
 62
     7
100
AcDbCircle
 10
0.0
 20
0.0
 30
0.0
 40
0.3
100
AcDbArc
 50
205.6792886194569
 51
334.3207113805431
  0
ARC
  5
31
330
2E
100
AcDbEntity
  8
ASHADE
  6
Continuous
 62
     7
100
AcDbCircle
 10
0.0
 20
0.0
 30
0.0
 40
0.3
100
AcDbArc
 50
25.67928861945685
 51
154.3207113805431
  0
LINE
  5
32
330
2E
100
AcDbEntity
  8
ASHADE
  6
Continuous
 62
     7
100
AcDbLine
 10
-0.21
 20
0.2142428528562855
 30
0.0
 11
-0.21
 21
0.5
 31
0.0
  0
LINE
  5
33
330
2E
100
AcDbEntity
  8
ASHADE
  6
Continuous
 62
     7
100
AcDbLine
 10
-0.11
 20
0.2791057147390572
 30
0.0
 11
-0.11
 21
0.5
 31
0.0
  0
LINE
  5
34
330
2E
100
AcDbEntity
  8
ASHADE
  6
Continuous
 62
     7
100
AcDbLine
 10
0.21
 20
0.2142428528562855
 30
0.0
 11
0.21
 21
0.5
 31
0.0
  0
ATTDEF
  5
35
330
2E
100
AcDbEntity
  8
ASHADE
  6
Continuous
 62
     7
100
AcDbText
 10
0.0
 20
0.25
 30
0.0
 40
0.01
  1

100
AcDbAttributeDefinition
280
     0
  3
Look-at Y
  2
LAY
 70
     1
280
     0
  0
ATTDEF
  5
36
330
2E
100
AcDbEntity
  8
ASHADE
  6
Continuous
 62
     7
100
AcDbText
 10
0.0
 20
0.22
 30
0.0
 40
0.01
  1
1
100
AcDbAttributeDefinition
280
     0
  3
Light Intensity
  2
INTENSITY
 70
     1
280
     0
  0
ATTDEF
  5
37
330
2E
100
AcDbEntity
  8
ASHADE
  6
Continuous
 62
     7
100
AcDbText
 10
0.0
 20
0.16
 30
0.0
 40
0.01
  1
-1
100
AcDbAttributeDefinition
280
     0
  3
*not used*
  2
BEAMD
 70
     1
280
     0
  0
ATTDEF
  5
38
330
2E
100
AcDbEntity
  8
ASHADE
  6
Continuous
 62
     7
100
AcDbText
 10
0.0
 20
0.175
 30
0.0
 40
0.01
  1
-1
100
AcDbAttributeDefinition
280
     0
  3
*not used*
  2
CONED
 70
     1
280
     0
  0
ATTDEF
  5
39
330
2E
100
AcDbEntity
  8
ASHADE
  6
Continuous
 62
     7
100
AcDbText
 10
0.0
 20
0.19
 30
0.0
 40
0.01
  1
0
100
AcDbAttributeDefinition
280
     0
  3
Depth Map Size
  2
CONEA
 70
     1
280
     0
  0
ATTDEF
  5
3A
330
2E
100
AcDbEntity
  8
ASHADE
  6
Continuous
 62
     7
100
AcDbText
 10
0.0
 20
0.2050000000000001
 30
0.0
 40
0.01
  1
1,1,1
100
AcDbAttributeDefinition
280
     0
  3
Light Color (RGB)
  2
COLOR
 70
     1
280
     0
  0
ATTDEF
  5
3B
330
2E
100
AcDbEntity
  8
ASHADE
  6
Continuous
 62
     7
100
AcDbText
 10
0.0
 20
0.235
 30
0.0
 40
0.01
  1

100
AcDbAttributeDefinition
280
     0
  3
Look-at Z
  2
LAZ
 70
     1
280
     0
  0
LINE
  5
3C
330
2E
100
AcDbEntity
  8
ASHADE
  6
Continuous
 62
     7
100
AcDbLine
 10
0.0
 20
0.3
 30
0.0
 11
0.0
 21
0.5
 31
0.0
  0
LINE
  5
3D
330
2E
100
AcDbEntity
  8
ASHADE
  6
Continuous
 62
     7
100
AcDbLine
 10
0.11
 20
0.2791057147390572
 30
0.0
 11
0.11
 21
0.5
 31
0.0
  0
ATTDEF
  5
3E
330
2E
100
AcDbEntity
  8
ASHADE
  6
Continuous
 62
     7
100
AcDbText
 10
0.0
 20
0.265
 30
0.0
 40
0.01
  1

100
AcDbAttributeDefinition
280
     0
  3
Look-at X
  2
LAX
 70
     1
280
     0
  0
ATTDEF
  5
3F
330
2E
100
AcDbEntity
  8
ASHADE
  6
Continuous
 62
     7
100
AcDbText
 10
0.0
 20
0.28
 30
0.0
 40
0.01
  1

100
AcDbAttributeDefinition
280
     0
  3

  2
GNAME
 70
     1
280
     0
  0
ENDBLK
  5
41
330
2E
100
AcDbEntity
  8
0
100
AcDbBlockEnd
  0
BLOCK
  5
5D
330
42
100
AcDbEntity
  8
0
100
AcDbBlockBegin
  2
overhead
 70
     2
 10
0.0
 20
0.0
 30
0.0
  3
overhead
  1

  0
ATTDEF
  5
43
330
42
100
AcDbEntity
  8
ASHADE
  6
Continuous
 62
     1
100
AcDbText
 10
0.0
 20
-0.1
 30
0.0
 40
0.2
  1

  7
ASHADE
 72
     1
 11
0.0
 21
-0.1
 31
0.0
100
AcDbAttributeDefinition
280
     0
  3
Light Name
  2
SNAME
 70
     0
280
     0
  0
ARC
  5
44
330
42
100
AcDbEntity
  8
ASHADE
  6
Continuous
 62
     7
100
AcDbCircle
 10
0.0
 20
0.0
 30
0.0
 40
0.3
100
AcDbArc
 50
205.6792886194569
 51
334.3207113805431
  0
LINE
  5
45
330
42
100
AcDbEntity
  8
ASHADE
  6
Continuous
 62
     7
100
AcDbLine
 10
-0.2041413561583015
 20
-0.2198324514393848
 30
0.0
 11
-0.2721884748777353
 21
-0.2931099352525131
 31
0.0
  0
LINE
  5
46
330
42
100
AcDbEntity
  8
ASHADE
  6
Continuous
 62
     7
100
AcDbLine
 10
-0.1096591641591904
 20
-0.2792398032442862
 30
0.0
 11
-0.1279356915190555
 21
-0.3257797704516673
 31
0.0
  0
LINE
  5
47
330
42
100
AcDbEntity
  8
ASHADE
  6
Continuous
 62
     7
100
AcDbLine
 10
0.0
 20
-0.2999999999999999
 30
0.0
 11
0.0
 21
-0.4
 31
0.0
  0
LINE
  5
48
330
42
100
AcDbEntity
  8
ASHADE
  6
Continuous
 62
     7
100
AcDbLine
 10
0.1096591641591904
 20
-0.2792398032442862
 30
0.0
 11
0.1279356915190555
 21
-0.3257797704516673
 31
0.0
  0
LINE
  5
49
330
42
100
AcDbEntity
  8
ASHADE
  6
Continuous
 62
     7
100
AcDbLine
 10
0.2041413561583015
 20
-0.2198324514393848
 30
0.0
 11
0.2721884748777353
 21
-0.2931099352525131
 31
0.0
  0
ARC
  5
4A
330
42
100
AcDbEntity
  8
ASHADE
  6
Continuous
 62
     7
100
AcDbCircle
 10
0.0
 20
0.0
 30
0.0
 40
0.3
100
AcDbArc
 50
25.67928861945685
 51
154.3207113805431
  0
LINE
  5
4B
330
42
100
AcDbEntity
  8
ASHADE
  6
Continuous
 62
     7
100
AcDbLine
 10
-0.2703701166919155
 20
0.13
 30
0.0
 11
-0.3154318028072347
 21
0.1516666666666666
 31
0.0
  0
LINE
  5
4C
330
42
100
AcDbEntity
  8
ASHADE
  6
Continuous
 62
     7
100
AcDbLine
 10
-0.2703701166919155
 20
-0.13
 30
0.0
 11
-0.3154318028072347
 21
-0.1516666666666666
 31
0.0
  0
LINE
  5
4D
330
42
100
AcDbEntity
  8
ASHADE
  6
Continuous
 62
     7
100
AcDbLine
 10
-0.2041413561583015
 20
0.2198324514393849
 30
0.0
 11
-0.2721884748777353
 21
0.2931099352525131
 31
0.0
  0
LINE
  5
4E
330
42
100
AcDbEntity
  8
ASHADE
  6
Continuous
 62
     7
100
AcDbLine
 10
-0.1096591641591904
 20
0.2792398032442862
 30
0.0
 11
-0.1279356915190555
 21
0.3257797704516674
 31
0.0
  0
LINE
  5
4F
330
42
100
AcDbEntity
  8
ASHADE
  6
Continuous
 62
     7
100
AcDbLine
 10
0.2703701166919155
 20
-0.13
 30
0.0
 11
0.3154318028072347
 21
-0.1516666666666666
 31
0.0
  0
LINE
  5
50
330
42
100
AcDbEntity
  8
ASHADE
  6
Continuous
 62
     7
100
AcDbLine
 10
0.2703701166919155
 20
0.13
 30
0.0
 11
0.3154318028072347
 21
0.1516666666666666
 31
0.0
  0
LINE
  5
51
330
42
100
AcDbEntity
  8
ASHADE
  6
Continuous
 62
     7
100
AcDbLine
 10
0.0
 20
0.3
 30
0.0
 11
0.0
 21
0.4
 31
0.0
  0
ATTDEF
  5
52
330
42
100
AcDbEntity
  8
ASHADE
  6
Continuous
 62
     7
100
AcDbText
 10
0.0
 20
0.22
 30
0.0
 40
0.01
  1
1
100
AcDbAttributeDefinition
280
     0
  3
Light Intensity
  2
INTENSITY
 70
     1
280
     0
  0
ATTDEF
  5
53
330
42
100
AcDbEntity
  8
ASHADE
  6
Continuous
 62
     7
100
AcDbText
 10
0.0
 20
0.16
 30
0.0
 40
0.01
  1
-1
100
AcDbAttributeDefinition
280
     0
  3
*not used*
  2
BEAMD
 70
     1
280
     0
  0
ATTDEF
  5
54
330
42
100
AcDbEntity
  8
ASHADE
  6
Continuous
 62
     7
100
AcDbText
 10
0.0
 20
0.175
 30
0.0
 40
0.01
  1
-1
100
AcDbAttributeDefinition
280
     0
  3
*not used*
  2
CONED
 70
     1
280
     0
  0
ATTDEF
  5
55
330
42
100
AcDbEntity
  8
ASHADE
  6
Continuous
 62
     7
100
AcDbText
 10
0.0
 20
0.19
 30
0.0
 40
0.01
  1
0
100
AcDbAttributeDefinition
280
     0
  3
Depth Map Size
  2
CONEA
 70
     1
280
     0
  0
ATTDEF
  5
56
330
42
100
AcDbEntity
  8
ASHADE
  6
Continuous
 62
     7
100
AcDbText
 10
0.0
 20
0.2050000000000001
 30
0.0
 40
0.01
  1
1,1,1
100
AcDbAttributeDefinition
280
     0
  3
Light Color (RGB)
  2
COLOR
 70
     1
280
     0
  0
ATTDEF
  5
57
330
42
100
AcDbEntity
  8
ASHADE
  6
Continuous
 62
     7
100
AcDbText
 10
0.0
 20
0.235
 30
0.0
 40
0.01
  1

100
AcDbAttributeDefinition
280
     0
  3
Look-at Z
  2
LAZ
 70
     1
280
     0
  0
ATTDEF
  5
58
330
42
100
AcDbEntity
  8
ASHADE
  6
Continuous
 62
     7
100
AcDbText
 10
0.0
 20
0.25
 30
0.0
 40
0.01
  1

100
AcDbAttributeDefinition
280
     0
  3
Look-at Y
  2
LAY
 70
     1
280
     0
  0
ATTDEF
  5
59
330
42
100
AcDbEntity
  8
ASHADE
  6
Continuous
 62
     7
100
AcDbText
 10
0.0
 20
0.265
 30
0.0
 40
0.01
  1

100
AcDbAttributeDefinition
280
     0
  3
Look-at X
  2
LAX
 70
     1
280
     0
  0
ATTDEF
  5
5A
330
42
100
AcDbEntity
  8
ASHADE
  6
Continuous
 62
     7
100
AcDbText
 10
0.0
 20
0.28
 30
0.0
 40
0.01
  1

100
AcDbAttributeDefinition
280
     0
  3

  2
GNAME
 70
     1
280
     0
  0
LINE
  5
5B
330
42
100
AcDbEntity
  8
ASHADE
  6
Continuous
 62
     7
100
AcDbLine
 10
0.1096591641591904
 20
0.2792398032442862
 30
0.0
 11
0.1279356915190555
 21
0.3257797704516674
 31
0.0
  0
LINE
  5
5C
330
42
100
AcDbEntity
  8
ASHADE
  6
Continuous
 62
     7
100
AcDbLine
 10
0.2041413561583015
 20
0.2198324514393849
 30
0.0
 11
0.2721884748777353
 21
0.2931099352525131
 31
0.0
  0
ENDBLK
  5
5E
330
42
100
AcDbEntity
  8
0
100
AcDbBlockEnd
  0
BLOCK
  5
85
330
5F
100
AcDbEntity
  8
0
100
AcDbBlockBegin
  2
sh_spot
 70
     2
 10
0.0
 20
0.0
 30
0.0
  3
sh_spot
  1

  0
LINE
  5
60
330
5F
100
AcDbEntity
  8
ASHADE
  6
Continuous
 62
     7
100
AcDbLine
 10
0.25
 20
0.26
 30
0.0
 11
-0.25
 21
0.26
 31
0.0
  0
LINE
  5
61
330
5F
100
AcDbEntity
  8
ASHADE
  6
Continuous
 62
     7
100
AcDbLine
 10
-0.25
 20
-0.3399999999999999
 30
0.0
 11
0.25
 21
-0.3399999999999999
 31
0.0
  0
ATTDEF
  5
62
330
5F
100
AcDbEntity
  8
ASHADE
  6
Continuous
 62
     1
100
AcDbText
 10
0.0
 20
-0.1
 30
0.0
 40
0.2
  1

  7
ASHADE
 72
     1
 11
0.0
 21
-0.1
 31
0.0
100
AcDbAttributeDefinition
280
     0
  3
Light Name
  2
SNAME
 70
     0
280
     0
  0
LINE
  5
63
330
5F
100
AcDbEntity
  8
ASHADE
  6
Continuous
 62
     7
100
AcDbLine
 10
-0.25
 20
-0.13
 30
0.0
 11
-0.25
 21
-0.3399999999999999
 31
0.0
  0
LINE
  5
64
330
5F
100
AcDbEntity
  8
ASHADE
  6
Continuous
 62
     7
100
AcDbLine
 10
-0.25
 20
-0.18
 30
0.0
 11
-0.29
 21
-0.18
 31
0.0
  0
LINE
  5
65
330
5F
100
AcDbEntity
  8
ASHADE
  6
Continuous
 62
     7
100
AcDbLine
 10
-0.29
 20
-0.22
 30
0.0
 11
-0.25
 21
-0.22
 31
0.0
  0
LINE
  5
66
330
5F
100
AcDbEntity
  8
ASHADE
  6
Continuous
 62
     7
100
AcDbLine
 10
-0.29
 20
-0.18
 30
0.0
 11
-0.29
 21
-0.22
 31
0.0
  0
LINE
  5
67
330
5F
100
AcDbEntity
  8
ASHADE
  6
Continuous
 62
     7
100
AcDbLine
 10
-0.1045454545454545
 20
0.26
 30
0.0
 11
-0.15
 21
0.46
 31
0.0
  0
LINE
  5
68
330
5F
100
AcDbEntity
  8
ASHADE
  6
Continuous
 62
     7
100
AcDbLine
 10
-0.21
 20
0.26
 30
0.0
 11
-0.301304347826087
 21
0.46
 31
0.0
  0
LINE
  5
69
330
5F
100
AcDbEntity
  8
ASHADE
  6
Continuous
 62
     7
100
AcDbLine
 10
-0.25
 20
0.26
 30
0.0
 11
-0.25
 21
0.13
 31
0.0
  0
LINE
  5
6A
330
5F
100
AcDbEntity
  8
ASHADE
  6
Continuous
 62
     7
100
AcDbLine
 10
-0.25
 20
0.22
 30
0.0
 11
-0.29
 21
0.22
 31
0.0
  0
LINE
  5
6B
330
5F
100
AcDbEntity
  8
ASHADE
  6
Continuous
 62
     7
100
AcDbLine
 10
-0.29
 20
0.1799999999999999
 30
0.0
 11
-0.25
 21
0.1799999999999999
 31
0.0
  0
LINE
  5
6C
330
5F
100
AcDbEntity
  8
ASHADE
  6
Continuous
 62
     7
100
AcDbLine
 10
-0.29
 20
0.22
 30
0.0
 11
-0.29
 21
0.1799999999999999
 31
0.0
  0
ATTDEF
  5
6D
330
5F
100
AcDbEntity
  8
ASHADE
  6
Continuous
 62
     7
100
AcDbText
 10
0.0
 20
-0.24
 30
0.0
 40
0.01
  1
0
100
AcDbAttributeDefinition
280
     0
  3
Depth Map Size
  2
ZSIZE
 70
     1
280
     0
  0
ATTDEF
  5
6E
330
5F
100
AcDbEntity
  8
ASHADE
  6
Continuous
 62
     7
100
AcDbText
 10
0.0
 20
-0.3300000000000001
 30
0.0
 40
0.01
  1
0,0,0
100
AcDbAttributeDefinition
280
     0
  3
Look-from XYZ
  2
LFXYZ
 70
     1
280
     0
  0
ATTDEF
  5
6F
330
5F
100
AcDbEntity
  8
ASHADE
  6
Continuous
 62
     7
100
AcDbText
 10
0.0
 20
-0.315
 30
0.0
 40
0.01
  1
0.0
100
AcDbAttributeDefinition
280
     0
  3
Beam Distribution
  2
BEAMDI
 70
     1
280
     0
  0
ATTDEF
  5
70
330
5F
100
AcDbEntity
  8
ASHADE
  6
Continuous
 62
     7
100
AcDbText
 10
0.0
 20
-0.3
 30
0.0
 40
0.01
  1
0.0
100
AcDbAttributeDefinition
280
     0
  3
Cone Delta
  2
CONEDE
 70
     1
280
     0
  0
ATTDEF
  5
71
330
5F
100
AcDbEntity
  8
ASHADE
  6
Continuous
 62
     7
100
AcDbText
 10
0.0
 20
-0.2850000000000001
 30
0.0
 40
0.01
  1
10.0
100
AcDbAttributeDefinition
280
     0
  3
Cone Angle
  2
CONEAN
 70
     1
280
     0
  0
ATTDEF
  5
72
330
5F
100
AcDbEntity
  8
ASHADE
  6
Continuous
 62
     7
100
AcDbText
 10
0.0
 20
-0.27
 30
0.0
 40
0.01
  1
-1
100
AcDbAttributeDefinition
280
     0
  3
*not used*
  2
BIASMAX
 70
     1
280
     0
  0
ATTDEF
  5
73
330
5F
100
AcDbEntity
  8
ASHADE
  6
Continuous
 62
     7
100
AcDbText
 10
0.0
 20
-0.255
 30
0.0
 40
0.01
  1
-1
100
AcDbAttributeDefinition
280
     0
  3
*not used*
  2
BIASMIN
 70
     1
280
     0
  0
ATTDEF
  5
74
330
5F
100
AcDbEntity
  8
ASHADE
  6
Continuous
 62
     7
100
AcDbText
 10
0.0
 20
-0.225
 30
0.0
 40
0.01
  1
1,1,1
100
AcDbAttributeDefinition
280
     0
  3
Light Color (RGB)
  2
COLOR
 70
     1
280
     0
  0
ATTDEF
  5
75
330
5F
100
AcDbEntity
  8
ASHADE
  6
Continuous
 62
     7
100
AcDbText
 10
0.0
 20
-0.21
 30
0.0
 40
0.01
  1
1
100
AcDbAttributeDefinition
280
     0
  3
Light Intensity
  2
INTENSITY
 70
     1
280
     0
  0
ATTDEF
  5
76
330
5F
100
AcDbEntity
  8
ASHADE
  6
Continuous
 62
     7
100
AcDbText
 10
0.0
 20
-0.15
 30
0.0
 40
0.01
  1

100
AcDbAttributeDefinition
280
     0
  3

  2
GNAME
 70
     1
280
     0
  0
ATTDEF
  5
77
330
5F
100
AcDbEntity
  8
ASHADE
  6
Continuous
 62
     7
100
AcDbText
 10
0.0
 20
-0.195
 30
0.0
 40
0.01
  1

100
AcDbAttributeDefinition
280
     0
  3
Look-at Z
  2
LAZ
 70
     1
280
     0
  0
ATTDEF
  5
78
330
5F
100
AcDbEntity
  8
ASHADE
  6
Continuous
 62
     7
100
AcDbText
 10
0.0
 20
-0.18
 30
0.0
 40
0.01
  1

100
AcDbAttributeDefinition
280
     0
  3
Look-at Y
  2
LAY
 70
     1
280
     0
  0
ATTDEF
  5
79
330
5F
100
AcDbEntity
  8
ASHADE
  6
Continuous
 62
     7
100
AcDbText
 10
0.0
 20
-0.165
 30
0.0
 40
0.01
  1

100
AcDbAttributeDefinition
280
     0
  3
Look-at X
  2
LAX
 70
     1
280
     0
  0
LINE
  5
7A
330
5F
100
AcDbEntity
  8
ASHADE
  6
Continuous
 62
     7
100
AcDbLine
 10
0.25
 20
-0.3399999999999999
 30
0.0
 11
0.25
 21
-0.13
 31
0.0
  0
LINE
  5
7B
330
5F
100
AcDbEntity
  8
ASHADE
  6
Continuous
 62
     7
100
AcDbLine
 10
0.25
 20
-0.18
 30
0.0
 11
0.29
 21
-0.18
 31
0.0
  0
LINE
  5
7C
330
5F
100
AcDbEntity
  8
ASHADE
  6
Continuous
 62
     7
100
AcDbLine
 10
0.29
 20
-0.22
 30
0.0
 11
0.25
 21
-0.22
 31
0.0
  0
LINE
  5
7D
330
5F
100
AcDbEntity
  8
ASHADE
  6
Continuous
 62
     7
100
AcDbLine
 10
0.29
 20
-0.18
 30
0.0
 11
0.29
 21
-0.22
 31
0.0
  0
LINE
  5
7E
330
5F
100
AcDbEntity
  8
ASHADE
  6
Continuous
 62
     7
100
AcDbLine
 10
0.21
 20
0.26
 30
0.0
 11
0.301304347826087
 21
0.46
 31
0.0
  0
LINE
  5
7F
330
5F
100
AcDbEntity
  8
ASHADE
  6
Continuous
 62
     7
100
AcDbLine
 10
0.1045454545454545
 20
0.26
 30
0.0
 11
0.15
 21
0.46
 31
0.0
  0
LINE
  5
80
330
5F
100
AcDbEntity
  8
ASHADE
  6
Continuous
 62
     7
100
AcDbLine
 10
0.0
 20
0.26
 30
0.0
 11
0.0
 21
0.46
 31
0.0
  0
LINE
  5
81
330
5F
100
AcDbEntity
  8
ASHADE
  6
Continuous
 62
     7
100
AcDbLine
 10
0.25
 20
0.13
 30
0.0
 11
0.25
 21
0.26
 31
0.0
  0
LINE
  5
82
330
5F
100
AcDbEntity
  8
ASHADE
  6
Continuous
 62
     7
100
AcDbLine
 10
0.25
 20
0.22
 30
0.0
 11
0.29
 21
0.22
 31
0.0
  0
LINE
  5
83
330
5F
100
AcDbEntity
  8
ASHADE
  6
Continuous
 62
     7
100
AcDbLine
 10
0.29
 20
0.1799999999999999
 30
0.0
 11
0.25
 21
0.1799999999999999
 31
0.0
  0
LINE
  5
84
330
5F
100
AcDbEntity
  8
ASHADE
  6
Continuous
 62
     7
100
AcDbLine
 10
0.29
 20
0.22
 30
0.0
 11
0.29
 21
0.1799999999999999
 31
0.0
  0
ENDBLK
  5
86
330
5F
100
AcDbEntity
  8
0
100
AcDbBlockEnd
  0
BLOCK
  5
92
330
91
100
AcDbEntity
  8
ASHADE
100
AcDbBlockBegin
  2
AVE_RENDER
 70
     0
 10
0.0
 20
0.0
 30
0.0
  3
AVE_RENDER
  1
AVE_RENDER
  0
ENDBLK
  5
93
330
91
100
AcDbEntity
  8
0
100
AcDbBlockEnd
  0
BLOCK
  5
A0
330
9F
100
AcDbEntity
  8
ASHADE
100
AcDbBlockBegin
  2
AVE_GLOBAL
 70
     0
 10
0.0
 20
0.0
 30
0.0
  3
AVE_GLOBAL
  1
AVE_GLOBAL
  0
ENDBLK
  5
A1
330
9F
100
AcDbEntity
  8
0
100
AcDbBlockEnd
  0
ENDSEC
  0
SECTION
  2
ENTITIES
  0
INSERT
  5
94
330
1F
100
AcDbEntity
  8
ASHADE
 62
     1
100
AcDbBlockReference
  2
AVE_RENDER
 10
0.0
 20
0.0
 30
0.0
1001
AVE_RENDER
1002
{
1070
     7
1000
Pref
1070
    30
1070
    20
1070
     1
1070
     0
1000

1070
    10
1070
     1
1070
    10
1040
1.0
1070
     1
1040
0.3
1040
0.7
1040
0.0
1040
10.0
1010
-1.0
1020
-1.0
1030
-1.0
1040
0.3
1070
    49
1070
     0
1070
     0
1010
1.0
1020
1.0
1030
1.0
1040
45.0
1070
     1
1070
     0
1000
WCS
1040
0.0
1070
     0
1040
10.0
1002
}
  0
INSERT
  5
95
330
1F
100
AcDbEntity
  8
ASHADE
 62
     3
100
AcDbBlockReference
  2
AVE_RENDER
 10
0.0
 20
0.0
 30
0.0
1001
AVE_RENDER
1002
{
1070
     0
1000
Full Opt
1070
     0
1070
     1
1070
     1
1070
     1
1070
     0
1070
     0
1070
     0
1070
     1
1070
     1
1040
0.0001
1040
0.0001
1002
}
  0
INSERT
  5
96
330
1F
100
AcDbEntity
  8
ASHADE
 62
     4
100
AcDbBlockReference
  2
AVE_RENDER
 10
0.0
 20
0.0
 30
0.0
1001
AVE_RENDER
1002
{
1070
     0
1000
Quick Opt
1070
     0
1070
     1
1070
     1
1070
     1
1070
     0
1070
     0
1070
     1
1002
}
  0
INSERT
  5
97
330
1F
100
AcDbEntity
  8
ASHADE
 62
     5
100
AcDbBlockReference
  2
AVE_RENDER
 10
0.0
 20
0.0
 30
0.0
1001
AVE_RENDER
1002
{
1070
     1
1000
Scanl Opt
1070
     2
1070
     0
1070
     2
1040
2.0
1040
4.0
1070
     0
1070
     1
1070
     0
1040
0.03
1002
}
  0
INSERT
  5
98
330
1F
100
AcDbEntity
  8
ASHADE
 62
     6
100
AcDbBlockReference
  2
AVE_RENDER
 10
0.0
 20
0.0
 30
0.0
1001
AVE_RENDER
1002
{
1070
     2
1000
Raytr Opt
1070
     2
1070
     0
1070
     2
1040
2.0
1040
4.0
1070
     0
1070
     1
1070
     1
1040
0.03
1070
     3
1040
0.03
1002
}
  0
INSERT
  5
99
330
1F
100
AcDbEntity
  8
ASHADE
 62
     7
100
AcDbBlockReference
  2
AVE_RENDER
 10
0.0
 20
0.0
 30
0.0
1001
AVE_RENDER
1002
{
1070
     0
1000
RFile Opt
1070
     1
1070
   640
1070
   480
1070
 10000
1070
     1
1070
     8
1070
     8
1070
     0
1070
     0
1070
     0
1070
     0
1070
     0
1070
     0
1070
     0
1002
}
  0
INSERT
  5
9A
330
1F
100
AcDbEntity
  8
ASHADE
 62
     8
100
AcDbBlockReference
  2
AVE_RENDER
 10
0.0
 20
0.0
 30
0.0
1001
AVE_RENDER
1002
{
1070
     0
1000
Fog Opt
1070
     0
1070
     0
1040
0.0
1040
1.0
1040
0.0
1040
1.0
1010
0.5
1020
0.5
1030
0.5
1002
}
  0
INSERT
  5
9B
330
1F
100
AcDbEntity
  8
ASHADE
 62
     9
100
AcDbBlockReference
  2
AVE_RENDER
 10
0.0
 20
0.0
 30
0.0
1001
AVE_RENDER
1002
{
1070
     0
1000
BG Opt
1070
     0
1070
     1
1010
0.0
1020
0.0
1030
0.0
1010
1.0
1020
0.0
1030
0.0
1010
0.0
1020
1.0
1030
0.0
1010
0.0
1020
0.0
1030
1.0
1040
0.5
1040
0.33
1040
0.0
1000

1070
     1
1000

1070
     1
1070
     1
1040
1.0
1040
1.0
1040
0.0
1040
0.0
1070
     0
1002
}
  0
INSERT
  5
A2
330
1F
100
AcDbEntity
  8
ASHADE
 62
     1
100
AcDbBlockReference
  2
AVE_GLOBAL
 10
0.0
 20
0.0
 30
0.0
1001
AVE_MATERIAL
1002
{
1000
*GLOBAL*
1000
2
1000
Global finish.
1002
{
1002
}
1002
{
1070
    63
1002
{
1002
{
1010
-1.0
1020
-1.0
1030
-1.0
1002
}
1040
0.1000000014901161
1000

1040
0.0
1002
{
1002
}
1040
0.0
1002
{
1002
}
1040
0.0
1002
}
1002
{
1002
{
1010
-1.0
1020
-1.0
1030
-1.0
1002
}
1040
0.6999999880790711
1000

1040
0.0
1002
{
1002
}
1040
0.0
1002
{
1002
}
1040
0.0
1002
}
1002
{
1002
{
1010
-1.0
1020
-1.0
1030
-1.0
1002
}
1040
0.2000000029802322
1000

1040
0.0
1002
{
1002
}
1040
0.0
1002
{
1002
}
1040
0.0
1002
}
1002
{
1070
     0
1002
{
1070
     1
1002
{
1040
1.0
1040
1.0
1000

1040
0.0
1002
{
1002
}
1040
0.0
1002
{
1002
}
1040
0.0
1002
}
1002
}
1040
1.0
1040
0.0
1040
0.0
1002
}
1002
{
1040
1.0
1040
1.0
1000

1040
0.0
1002
{
1002
}
1040
0.0
1002
{
1002
}
1040
0.0
1002
}
1002
{
1040
0.5
1040
1.0
1000

1040
0.0
1002
{
1002
}
1040
0.0
1002
{
1002
}
1040
0.0
1002
}
1002
{
1070
     0
1040
0.0
1002
{
1002
}
1040
1.0
1002
{
1002
}
1040
0.0
1002
}
1002
{
1040
0.0
1002
{
1002
{
1010
0.0
1020
0.0
1030
0.0
1002
}
1040
1.0
1000

1040
0.0
1002
{
1002
}
1040
0.0
1002
{
1002
}
1040
0.0
1002
}
1002
}
1002
{
1002
{
1070
     1
1002
{
1040
0.0
1040
1.0
1000

1040
0.0
1002
{
1002
}
1040
0.0
1002
{
1002
}
1040
0.0
1002
}
1002
}
1040
0.0
1002
{
1002
}
1010
1.0
1020
0.0
1030
0.0
1010
0.0
1020
1.0
1030
0.0
1010
0.0
1020
0.0
1030
1.0
1070
     0
1002
}
1002
{
1002
{
1040
1.0
1040
1.0
1002
{
1070
     1
1002
{
1040
1.0
1040
1.0
1000

1040
0.0
1002
{
1002
}
1040
0.0
1002
{
1002
}
1040
0.0
1002
}
1002
}
1002
}
1070
     0
1040
0.0
1002
{
1002
}
1002
}
1002
{
1002
}
1002
}
1002
{
1071
        3
1070
     3
1070
     0
1002
{
1070
     2
1070
     0
1070
     0
1040
0.0
1002
}
1070
     0
1070
     2
1002
{
1002
}
1002
}
1002
{
1040
8030.0
1040
190.3000030517578
1040
0.3050000071525574
1040
228.0
1040
545.0
1040
14.0
1040
17.39999961853027
1040
0.4560000002384186
1002
}
1002
}
  0
MESH
  5
F9
330
1F
100
AcDbEntity
  8
OracDecor_panel_moldings
 62
    56
420
  7440134
160
             31256
310
187A0000640300000C00000013000000020000003C00000006000000020000000000000000408F40000000000000CCBE000000000000D8BE0000000000408F40000000000000B8BE00000000CE7F18400C000000130000000A0000003C00000006000000020000000000000000408F4000000040347308C0000000007CC3E7
310
3F0000000000408F40000000000000B8BE00000000CE7F18400C00000013000000120000003C00000006000000020000000000000000408F4000000020531208C000000000102FC43F0000000000408F4000000040347308C0000000007CC3E73F0C000000130000001A0000003C0000000600000002000000000000000040
310
8F40000000000000CCBE000000000000D8BE0000000000408F4000000020531208C000000000102FC43F0C00000013000000220000003C00000006000000020000000000000000408F4000000040000018C0000000006ECD25400000000000408F40000000400000F8BF000000C0690D2B400C000000130000002A0000003C
310
00000006000000020000000000000000408F40000000C0013318C000000040A94F26400000000000408F40000000400000F8BF000000C0690D2B400C00000013000000320000003C00000006000000020000000000000000408F4000000040000018C0000000006ECD25400000000000408F40000000C0013318C000000040
310
A94F26400C000000130000003A0000003C00000006000000020000000000000000408F40000000400000F8BF000000C0690D2B400000000000408F400000004005CC18C00000008027A326400C00000013000000420000003C00000006000000020000000000000000408F40000000C0013318C000000040A94F2640000000
310
0000408F400000004005CC18C00000008027A326400C000000130000004A0000003C00000006000000020000000000000000408F40000000400000F8BF000000C0690D2B400000000000408F40000000000CCB19C000000000E9C726400C00000013000000520000003C00000006000000020000000000000000408F400000
310
004005CC18C00000008027A326400000000000408F40000000000CCB19C000000000E9C726400C000000130000005A0000003C00000006000000020000000000000000408F40000000400000F8BF000000C0690D2B400000000000408F4000000040F3341EC0000000C055F926400C00000013000000620000003C00000006
310
000000020000000000000000408F40000000000CCB19C000000000E9C726400000000000408F4000000040F3341EC0000000C055F926400C000000130000006A0000003C00000006000000020000000000000000408F40000000400000F8BF000000C0690D2B400000000000408F4000000040FA331FC000000000171E2740
310
0C00000013000000720000003C00000006000000020000000000000000408F4000000040F3341EC0000000C055F926400000000000408F4000000040FA331FC000000000171E27400C000000130000007A0000003C00000006000000020000000000000000408F40000000400000F8BF000000C0690D2B400000000000408F
310
4000000040FECC1FC000000080957127400C00000013000000820000003C00000006000000020000000000000000408F4000000040FA331FC000000000171E27400000000000408F4000000040FECC1FC000000080957127400C000000130000008A0000003C00000006000000020000000000000000408F40000000400000
310
F8BF000000C0690D2B400000000000408F40000000C0FFFF1FC000000080D0F327400C00000013000000920000003C00000006000000020000000000000000408F4000000040FECC1FC000000080957127400000000000408F40000000C0FFFF1FC000000080D0F327400C000000130000009A0000003C0000000600000002
310
0000000000000000408F40000000400000F8BF000000C0690D2B400000000000408F40000000C0FDFFF7BF000000805AC340400C00000013000000A20000003C00000006000000020000000000000000408F4000000040FEFF1FC0000000C0C08941400000000000408F40000000C0FDFFF7BF000000805AC340400C000000
310
13000000AA0000003C00000006000000020000000000000000408F40000000C0FFFF1FC000000080D0F327400000000000408F4000000040FEFF1FC0000000C0C08941400C00000013000000B20000003C00000006000000020000000000000000408F40000000C0FDFFF7BF000000805AC340400000000000408F40000000
310
E0003318C0000000C0CAF241400C00000013000000BA0000003C00000006000000020000000000000000408F40000000C0FDFFF7BF000000805AC340400000000000408F4000000080FFFF17C0000000C0591342400C00000013000000C20000003C00000006000000020000000000000000408F40000000E0003318C00000
310
00C0CAF241400000000000408F4000000080FFFF17C0000000C0591342400C00000013000000CA0000003C00000006000000020000000000000000408F40000000C0FDFFF7BF000000805AC340400000000000408F4000000000FFFF17C0000000C0C08942400C00000013000000D20000003C000000060000000200000000
310
00000000408F4000000080FFFF17C0000000C0591342400000000000408F4000000000FFFF17C0000000C0C08942400C00000013000000DA0000003C00000006000000020000000000000000408F40000000C0FDFFF7BF000000805AC340400000000000408F40000000E004CC18C000000040EBDD41400C00000013000000
310
E20000003C00000006000000020000000000000000408F40000000E0003318C0000000C0CAF241400000000000408F40000000E004CC18C000000040EBDD41400C00000013000000EA0000003C00000006000000020000000000000000408F40000000C0FDFFF7BF000000805AC340400000000000408F40000000600BCB19
310
C000000000BBD441400C00000013000000F20000003C00000006000000020000000000000000408F40000000E004CC18C000000040EBDD41400000000000408F40000000600BCB19C000000000BBD441400C00000013000000FA0000003C00000006000000020000000000000000408F40000000C0FDFFF7BF000000805AC3
310
40400000000000408F4000000040F9331FC0000000402FBF41400C00000013000000020100003C00000006000000020000000000000000408F40000000C0FDFFF7BF000000805AC340400000000000408F4000000040F2341EC0000000805FC841400C000000130000000A0100003C00000006000000020000000000000000
310
408F4000000040F9331FC0000000402FBF41400000000000408F4000000040F2341EC0000000805FC841400C00000013000000120100003C00000006000000020000000000000000408F40000000600BCB19C000000000BBD441400000000000408F4000000040F2341EC0000000805FC841400C000000130000001A010000
310
3C00000006000000020000000000000000408F40000000C0FDFFF7BF000000805AC340400000000000408F4000000000FDCC1FC0000000C04FAA41400C00000013000000220100003C00000006000000020000000000000000408F4000000040FEFF1FC0000000C0C08941400000000000408F4000000000FDCC1FC0000000
310
C04FAA41400C000000130000002A0100003C00000006000000020000000000000000408F4000000040F9331FC0000000402FBF41400000000000408F4000000000FDCC1FC0000000C04FAA41400C00000013000000320100003C00000006000000020000000000000000408F4000000040352B09C0000000C047E446400000
310
000000408F40000000000000D03E00000000BBF644400C000000130000003A0100003C00000006000000020000000000000000408F4000000080BF8008C000000040EA2047400000000000408F40000000000000D03E00000000BBF644400C00000013000000420100003C00000006000000020000000000000000408F4000
310
000040352B09C0000000C047E446400000000000408F4000000080BF8008C000000040EA2047400C000000130000004A0100003C00000006000000020000000000000000408F40000000000000D03E00000000BBF644400000000000408F40000000000000D43E000000C0FF7F47400C00000013000000520100003C000000
310
06000000020000000000000000408F40000000A0271708C000000080CC6B47400000000000408F40000000000000D43E000000C0FF7F47400C000000130000005A0100003C00000006000000020000000000000000408F4000000080BF8008C000000040EA2047400000000000408F40000000A0271708C000000080CC6B47
310
400C00000013000000620100003C00000006000000020000000000000000408F40000000000000D03E00000000BBF644400000000000408F4000000000C9220AC0000000006DAD46400C000000130000006A0100003C00000006000000020000000000000000408F4000000040352B09C0000000C047E44640000000000040
310
8F4000000000C9220AC0000000006DAD46400C00000013000000720100003C00000006000000020000000000000000408F40000000000000D03E00000000BBF644400000000000408F40000000005B6C0BC0000000807B7C46400C000000130000007A0100003C00000006000000020000000000000000408F4000000000C9
310
220AC0000000006DAD46400000000000408F40000000005B6C0BC0000000807B7C46400C00000013000000820100003C00000006000000020000000000000000408F40000000000000D03E00000000BBF644400000000000408F400000000023190DC000000000824F46400C000000130000008A0100003C00000006000000
310
020000000000000000408F40000000005B6C0BC0000000807B7C46400000000000408F400000000023190DC000000000824F46400C00000013000000920100003C00000006000000020000000000000000408F40000000000000D03E00000000BBF644400000000000408F4000000080B2330FC0000000002F2546400C0000
310
00130000009A0100003C00000006000000020000000000000000408F400000000023190DC000000000824F46400000000000408F4000000080B2330FC0000000002F2546400C00000013000000A20100003C00000006000000020000000000000000408F40000000000000D03E00000000BBF644400000000000408F400000
310
008003E510C000000080B0FB45400C00000013000000AA0100003C00000006000000020000000000000000408F4000000080B2330FC0000000002F2546400000000000408F400000008003E510C000000080B0FB45400C00000013000000B20100003C00000006000000020000000000000000408F40000000000000D03E00
310
000000BBF644400000000000408F4000000000796812C00000008089D245400C00000013000000BA0100003C00000006000000020000000000000000408F400000008003E510C000000080B0FB45400000000000408F4000000000796812C00000008089D245400C00000013000000C20100003C0000000600000002000000
310
0000000000408F40000000E0F4EE15C000000000CA7F45400000000000408F40000000001497C5BF0000004077BD44400C00000013000000CA0100003C00000006000000020000000000000000408F40000000C08D1B14C00000004077A945400000000000408F40000000001497C5BF0000004077BD44400C000000130000
310
00D20100003C00000006000000020000000000000000408F40000000E0F4EE15C000000000CA7F45400000000000408F40000000C08D1B14C00000004077A945400C00000013000000DA0100003C00000006000000020000000000000000408F40000000000000D03E00000000BBF644400000000000408F40000000001497
310
C5BF0000004077BD44400C00000013000000E20100003C00000006000000020000000000000000408F4000000000796812C00000008089D245400000000000408F40000000C08D1B14C00000004077A945400C00000013000000EA0100003C00000006000000020000000000000000408F40000000001497C5BF0000004077
310
BD44400000000000408F4000000080A2BE19C0000000408E2845400C00000013000000F20100003C00000006000000020000000000000000408F40000000001497C5BF0000004077BD44400000000000408F4000000000ACE317C000000080AB5345400C00000013000000FA0100003C000000060000000200000000000000
310
00408F4000000080A2BE19C0000000408E2845400000000000408F4000000000ACE317C000000080AB5345400C00000013000000020200003C00000006000000020000000000000000408F40000000E0F4EE15C000000000CA7F45400000000000408F4000000000ACE317C000000080AB5345400C000000130000000A0200
310
003C00000006000000020000000000000000408F40000000001497C5BF0000004077BD44400000000000408F40000000E00B1F1DC00000000019CF44400C00000013000000120200003C00000006000000020000000000000000408F40000000001497C5BF0000004077BD44400000000000408F400000000081891BC00000
310
00C0B5FB44400C000000130000001A0200003C00000006000000020000000000000000408F40000000E00B1F1DC00000000019CF44400000000000408F400000000081891BC0000000C0B5FB44400C00000013000000220200003C00000006000000020000000000000000408F4000000080A2BE19C0000000408E28454000
310
00000000408F400000000081891BC0000000C0B5FB44400C000000130000002A0200003C00000006000000020000000000000000408F40000000001497C5BF0000004077BD44400000000000408F4000000080F7871FC0000000C0D77444400C00000013000000320200003C00000006000000020000000000000000408F40
310
000000001497C5BF0000004077BD44400000000000408F4000000080A3741EC0000000C06AA244400C000000130000003A0200003C00000006000000020000000000000000408F4000000080F7871FC0000000C0D77444400000000000408F4000000080A3741EC0000000C06AA244400C00000013000000420200003C0000
310
0006000000020000000000000000408F40000000E00B1F1DC00000000019CF44400000000000408F4000000080A3741EC0000000C06AA244400C000000130000004A0200003C00000006000000020000000000000000408F4000000080AF6B20C000000080641044400000000000408F4000000000145DCCBF000000C04C98
310
44400C00000013000000520200003C00000006000000020000000000000000408F40000000C0572F20C000000040974244400000000000408F4000000000145DCCBF000000C04C9844400C000000130000005A0200003C00000006000000020000000000000000408F4000000080AF6B20C000000080641044400000000000
310
408F40000000C0572F20C000000040974244400C00000013000000620200003C00000006000000020000000000000000408F40000000001497C5BF0000004077BD44400000000000408F4000000000145DCCBF000000C04C9844400C000000130000006A0200003C00000006000000020000000000000000408F4000000080
310
F7871FC0000000C0D77444400000000000408F40000000C0572F20C000000040974244400C00000013000000720200003C00000006000000020000000000000000408F4000000000145DCCBF000000C04C9844400000000000408F4000000040535720C00000000034AD43400C000000130000007A0200003C000000060000
310
00020000000000000000408F4000000000145DCCBF000000C04C9844400000000000408F4000000000AE7820C0000000804DDF43400C00000013000000820200003C00000006000000020000000000000000408F4000000040535720C00000000034AD43400000000000408F4000000000AE7820C0000000804DDF43400C00
310
0000130000008A0200003C00000006000000020000000000000000408F4000000080AF6B20C000000080641044400000000000408F4000000000AE7820C0000000804DDF43400C00000013000000920200003C00000006000000020000000000000000408F4000000000145DCCBF000000C04C9844400000000000408F4000
310
000080CB021FC0000000400B4543400C000000130000009A0200003C00000006000000020000000000000000408F4000000000145DCCBF000000C04C9844400000000000408F40000000C0540320C000000000A57843400C00000013000000A20200003C00000006000000020000000000000000408F4000000080CB021FC0
310
000000400B4543400000000000408F40000000C0540320C000000000A57843400C00000013000000AA0200003C00000006000000020000000000000000408F4000000040535720C00000000034AD43400000000000408F40000000C0540320C000000000A57843400C00000013000000B20200003C00000006000000020000
310
000000000000408F400000000076681CC0000000C00DF942400000000000408F4000000000145DCCBF00000000686E44400C00000013000000BA0200003C00000006000000020000000000000000408F40000000403DC61DC0000000001F1943400000000000408F4000000000145DCCBF00000000686E44400C0000001300
310
0000C20200003C00000006000000020000000000000000408F400000000076681CC0000000C00DF942400000000000408F40000000403DC61DC0000000001F1943400C00000013000000CA0200003C00000006000000020000000000000000408F4000000000145DCCBF000000C04C9844400000000000408F400000000014
310
5DCCBF00000000686E44400C00000013000000D20200003C00000006000000020000000000000000408F4000000080CB021FC0000000400B4543400000000000408F40000000403DC61DC0000000001F1943400C00000013000000DA0200003C00000006000000020000000000000000408F40000000401EB419C000000040
310
F3D542400000000000408F40000000001497C5BF000000C03D4944400C00000013000000E20200003C00000006000000020000000000000000408F40000000804CE41AC000000000ECE242400000000000408F40000000001497C5BF000000C03D4944400C00000013000000EA0200003C0000000600000002000000000000
310
0000408F40000000401EB419C000000040F3D542400000000000408F40000000804CE41AC000000000ECE242400C00000013000000F20200003C00000006000000020000000000000000408F4000000000145DCCBF00000000686E44400000000000408F40000000001497C5BF000000C03D4944400C00000013000000FA02
310
00003C00000006000000020000000000000000408F400000000076681CC0000000C00DF942400000000000408F40000000804CE41AC000000000ECE242400C00000013000000020300003C00000006000000020000000000000000408F4000000060743018C0000000C0D1AB42400000000000408F40000000000000C43E00
310
0000C0F90F44400C000000130000000A0300003C00000006000000020000000000000000408F4000000000D4C118C00000000038C542400000000000408F40000000000000C43E000000C0F90F44400C00000013000000120300003C00000006000000020000000000000000408F4000000060743018C0000000C0D1AB4240
310
0000000000408F4000000000D4C118C00000000038C542400C000000130000001A0300003C00000006000000020000000000000000408F40000000001497C5BF000000C03D4944400000000000408F40000000000000C43E000000C0F90F44400C00000013000000220300003C00000006000000020000000000000000408F
310
40000000401EB419C000000040F3D542400000000000408F4000000000D4C118C00000000038C542400C000000130000002A0300003C00000006000000020000000000000000408F4000000000FFFF17C0000000C0C08942400000000000408F40000000000000C43E000000C0F90F44400C00000013000000320300003C00
310
000006000000020000000000000000408F4000000000FFFF17C0000000C0C08942400000000000408F4000000060743018C0000000C0D1AB42400C000000130000003A0300003C00000006000000020000000000000000408F40000000C0FDFFF7BF000000805AC340400000000000408F40000000000000CC3E000000805A
310
C340400C00000013000000420300003C00000006000000020000000000000000408F40000000000000C43E000000C0F90F44400000000000408F40000000000000CC3E000000805AC340400C000000130000004A0300003C00000006000000020000000000000000408F40000000000000B8BE00000000CE7F184000000000
310
00408F40000000C0A21309C0000000003277F33F0C00000013000000520300003C00000006000000020000000000000000408F4000000040347308C0000000007CC3E73F0000000000408F40000000C0A21309C0000000003277F33F0C000000130000005A0300003C00000006000000020000000000000000408F40000000
310
000000B8BE00000000CE7F18400000000000408F4000000000DF120AC0000000005AC7FA3F0C00000013000000620300003C00000006000000020000000000000000408F40000000C0A21309C0000000003277F33F0000000000408F4000000000DF120AC0000000005AC7FA3F0C000000130000006A0300003C0000000600
310
0000020000000000000000408F40000000000000B8BE00000000CE7F18400000000000408F4000000080CD7D0BC00000000083C400400C00000013000000720300003C00000006000000020000000000000000408F4000000000DF120AC0000000005AC7FA3F0000000000408F4000000080CD7D0BC00000000083C400400C
310
000000130000007A0300003C00000006000000020000000000000000408F40000000000000B8BE00000000CE7F18400000000000408F400000008018530DC00000000097C403400C00000013000000820300003C00000006000000020000000000000000408F4000000080CD7D0BC00000000083C400400000000000408F40
310
0000008018530DC00000000097C403400C000000130000008A0300003C00000006000000020000000000000000408F40000000000000B8BE00000000CE7F18400000000000408F4000000000F3860FC000000000417306400C00000013000000920300003C00000006000000020000000000000000408F400000008018530D
310
C00000000097C403400000000000408F4000000000F3860FC000000000417306400C000000130000009A0300003C00000006000000020000000000000000408F40000000000000B8BE00000000CE7F18400000000000408F40000000C0BF1D11C000000000A11609400C00000013000000A20300003C000000060000000200
310
00000000000000408F4000000000F3860FC000000000417306400000000000408F40000000C0BF1D11C000000000A11609400C00000013000000AA0300003C00000006000000020000000000000000408F40000000000000B8BE00000000CE7F18400000000000408F40000000E0319412C000000000C7870B400C00000013
310
000000B20300003C00000006000000020000000000000000408F40000000C0BF1D11C000000000A11609400000000000408F40000000E0319412C000000000C7870B400C00000013000000BA0300003C00000006000000020000000000000000408F40000000000000B8BE00000000CE7F18400000000000408F4000000000
310
3497C5BF00000000ED491A400C00000013000000C20300003C00000006000000020000000000000000408F40000000E07B2914C0000000008FE80D400000000000408F40000000003497C5BF00000000ED491A400C00000013000000CA0300003C00000006000000020000000000000000408F40000000E0319412C0000000
310
00C7870B400000000000408F40000000E07B2914C0000000008FE80D400C00000013000000D20300003C00000006000000020000000000000000408F40000000003497C5BF00000000ED491A400000000000408F40000000E099DF15C000000080A72C10400C00000013000000DA0300003C00000006000000020000000000
310
000000408F40000000E07B2914C0000000008FE80D400000000000408F40000000E099DF15C000000080A72C10400C00000013000000E20300003C00000006000000020000000000000000408F40000000003497C5BF00000000ED491A400000000000408F40000000C055CD17C000000000538811400C00000013000000EA
310
0300003C00000006000000020000000000000000408F40000000E099DF15C000000080A72C10400000000000408F40000000C055CD17C000000000538811400C00000013000000F20300003C00000006000000020000000000000000408F40000000003497C5BF00000000ED491A400000000000408F4000000000999C19C0
310
00000000BED712400C00000013000000FA0300003C00000006000000020000000000000000408F40000000C055CD17C000000000538811400000000000408F4000000000999C19C000000000BED712400C00000013000000020400003C00000006000000020000000000000000408F40000000003497C5BF00000000ED491A
310
400000000000408F400000008039681BC000000000B13C14400C000000130000000A0400003C00000006000000020000000000000000408F4000000000999C19C000000000BED712400000000000408F400000008039681BC000000000B13C14400C00000013000000120400003C0000000600000002000000000000000040
310
8F40000000003497C5BF00000000ED491A400000000000408F4000000080CC061DC00000000026A615400C000000130000001A0400003C00000006000000020000000000000000408F400000008039681BC000000000B13C14400000000000408F4000000080CC061DC00000000026A615400C00000013000000220400003C
310
00000006000000020000000000000000408F40000000003497C5BF00000000ED491A400000000000408F4000000060A7651EC0000000000D1117400C000000130000002A0400003C00000006000000020000000000000000408F4000000080CC061DC00000000026A615400000000000408F4000000060A7651EC000000000
310
0D1117400C00000013000000320400003C00000006000000020000000000000000408F40000000003497C5BF00000000ED491A400000000000408F4000000060F47E1FC000000000438118400C000000130000003A0400003C00000006000000020000000000000000408F4000000060A7651EC0000000000D111740000000
310
0000408F4000000060F47E1FC000000000438118400C00000013000000420400003C00000006000000020000000000000000408F40000000003497C5BF00000000ED491A400000000000408F4000000000305DCCBF0000000040731B400C000000130000004A0400003C00000006000000020000000000000000408F400000
310
0020FE2C20C000000000E4151A400000000000408F4000000000305DCCBF0000000040731B400C00000013000000520400003C00000006000000020000000000000000408F4000000060F47E1FC000000000438118400000000000408F4000000020FE2C20C000000000E4151A400C000000130000005A0400003C00000006
310
000000020000000000000000408F4000000000305DCCBF0000000040731B400000000000408F40000000A0BA6A20C000000080E9A71B400C00000013000000620400003C00000006000000020000000000000000408F4000000020FE2C20C000000000E4151A400000000000408F40000000A0BA6A20C000000080E9A71B40
310
0C000000130000006A0400003C00000006000000020000000000000000408F4000000000305DCCBF0000000040731B400000000000408F40000000E00C7920C000000080362D1D400C00000013000000720400003C00000006000000020000000000000000408F40000000A0BA6A20C000000080E9A71B400000000000408F
310
40000000E00C7920C000000080362D1D400C000000130000007A0400003C00000006000000020000000000000000408F4000000000305DCCBF0000000040731B400000000000408F40000000E0EC5920C0000000008CB91E400C00000013000000820400003C00000006000000020000000000000000408F40000000E00C79
310
20C000000080362D1D400000000000408F40000000E0EC5920C0000000008CB91E400C000000130000008A0400003C00000006000000020000000000000000408F4000000000305DCCBF0000000040731B400000000000408F40000000E00E0920C000000080FE2C20400C00000013000000920400003C0000000600000002
310
0000000000000000408F40000000E0EC5920C0000000008CB91E400000000000408F40000000E00E0920C000000080FE2C20400C000000130000009A0400003C00000006000000020000000000000000408F4000000000305DCCBF0000000040731B400000000000408F4000000060A3131FC00000008045FB20400C000000
310
13000000A20400003C00000006000000020000000000000000408F40000000E00E0920C000000080FE2C20400000000000408F4000000060A3131FC00000008045FB20400C00000013000000AA0400003C00000006000000020000000000000000408F4000000000305DCCBF0000000040731B400000000000408F40000000
310
00305DCCBF0000000067C21C400C00000013000000B20400003C00000006000000020000000000000000408F40000000602EE61DC000000040F6A721400000000000408F4000000000305DCCBF0000000067C21C400C00000013000000BA0400003C00000006000000020000000000000000408F4000000060A3131FC00000
310
008045FB20400000000000408F40000000602EE61DC000000040F6A721400C00000013000000C20400003C00000006000000020000000000000000408F4000000000305DCCBF0000000067C21C400000000000408F40000000A0F5971CC000000000BF2822400C00000013000000CA0400003C000000060000000200000000
310
00000000408F40000000602EE61DC000000040F6A721400000000000408F40000000A0F5971CC000000000BF2822400C00000013000000D20400003C00000006000000020000000000000000408F4000000000305DCCBF0000000067C21C400000000000408F40000000004097C5BF00000000BAEB1D400C00000013000000
310
DA0400003C00000006000000020000000000000000408F4000000000540B1BC0000000804C8722400000000000408F40000000004097C5BF00000000BAEB1D400C00000013000000E20400003C00000006000000020000000000000000408F40000000A0F5971CC000000000BF2822400000000000408F4000000000540B1B
310
C0000000804C8722400C00000013000000EA0400003C00000006000000020000000000000000408F40000000004097C5BF00000000BAEB1D400000000000408F40000000C0B6B319C0000000006FC222400C00000013000000F20400003C00000006000000020000000000000000408F4000000000540B1BC0000000804C87
310
22400000000000408F40000000C0B6B319C0000000006FC222400C00000013000000FA0400003C00000006000000020000000000000000408F40000000004097C5BF00000000BAEB1D400000000000408F40000000000000C4BE00000080D9B51F400C00000013000000020500003C00000006000000020000000000000000
310
408F40000000C0A6C118C000000000B10523400000000000408F40000000000000C4BE00000080D9B51F400C000000130000000A0500003C00000006000000020000000000000000408F40000000C0B6B319C0000000006FC222400000000000408F40000000C0A6C118C000000000B10523400C0000001300000012050000
310
3C00000006000000020000000000000000408F40000000000000C4BE00000080D9B51F400000000000408F4000000060693018C0000000807C6B23400C000000130000001A0500003C00000006000000020000000000000000408F40000000000000C4BE00000080D9B51F400000000000408F40000000E0FFFF17C0000000
310
80D1F323400C00000013000000220500003C00000006000000020000000000000000408F4000000060693018C0000000807C6B23400000000000408F40000000E0FFFF17C000000080D1F323400C000000130000002A0500003C00000006000000020000000000000000408F40000000000000C4BE00000080D9B51F400000
310
000000408F40000000000000A0BE000000C0690D2B400C00000013000000320500003C00000006000000020000000000000000408F40000000400000F8BF000000C0690D2B400000000000408F40000000000000A0BE000000C0690D2B400C000000130000003A0500003C00000006000000020000000000000000408F4000
310
0000400000F8BF000000C0690D2B400000000000408F40000000E0FFFF17C000000080D1F323400C00000013000000420500003C00000006000000020000000000000000408F40000000C0A6C118C000000000B10523400000000000408F4000000060693018C0000000807C6B23400C000000130000004A0500003C000000
310
06000000020000000000000000408F4000000040000018C0000000006ECD25400000000000408F40000000E0FFFF17C000000080D1F323400C00000013000000520500003C00000006000000020000000000000000408FC0000000000000C8BE000000000000D8BE0000000000408FC000000020531208C000000000102FC4
310
3F0C000000130000005A0500003C00000006000000020000000000000000408F40000000000000CCBE000000000000D8BE0000000000408FC0000000000000C8BE000000000000D8BE0C00000013000000620500003C00000006000000020000000000000000408F4000000020531208C000000000102FC43F000000000040
310
8FC000000020531208C000000000102FC43F0C000000130000006A0500003C00000006000000020000000000000000408FC0000000000000C8BE000000000000D8BE0000000000408FC0000000000000A03E00000000CE7F18400C00000013000000720500003C00000006000000020000000000000000408F400000000000
310
00B8BE00000000CE7F18400000000000408FC0000000000000A03E00000000CE7F18400C000000130000007A0500003C00000006000000020000000000000000408FC0000000002097C5BF00000000ED491A400000000000408FC0000000000000A03E00000000CE7F18400C00000013000000820500003C00000006000000
310
020000000000000000408F40000000003497C5BF00000000ED491A400000000000408FC0000000002097C5BF00000000ED491A400C000000130000008A0500003C00000006000000020000000000000000408FC000000000205DCCBF0000000040731B400000000000408FC0000000002097C5BF00000000ED491A400C0000
310
0013000000920500003C00000006000000020000000000000000408FC000000000205DCCBF0000000040731B400000000000408F4000000000305DCCBF0000000040731B400C000000130000009A0500003C00000006000000020000000000000000408FC000000000205DCCBF0000000040731B400000000000408FC00000
310
00001C5DCCBF0000000067C21C400C00000013000000A20500003C00000006000000020000000000000000408F4000000000305DCCBF0000000067C21C400000000000408FC0000000001C5DCCBF0000000067C21C400C00000013000000AA0500003C00000006000000020000000000000000408FC0000000001C5DCCBF00
310
00000067C21C400000000000408FC0000000002C97C5BF00000000BAEB1D400C00000013000000B20500003C00000006000000020000000000000000408F40000000004097C5BF00000000BAEB1D400000000000408FC0000000002C97C5BF00000000BAEB1D400C00000013000000BA0500003C0000000600000002000000
310
0000000000408FC0000000002C97C5BF00000000BAEB1D400000000000408FC0000000000000B8BE00000080D9B51F400C00000013000000C20500003C00000006000000020000000000000000408F40000000000000C4BE00000080D9B51F400000000000408FC0000000000000B8BE00000080D9B51F400C000000130000
310
00CA0500003C00000006000000020000000000000000408FC0000000000000B83E000000C0690D2B400000000000408FC0000000000000B8BE00000080D9B51F400C00000013000000D20500003C00000006000000020000000000000000408FC0000000000000B83E000000C0690D2B400000000000408F40000000000000
310
A0BE000000C0690D2B400C00000013000000DA0500003C00000006000000020000000000000000408FC0000000000000B83E000000C0690D2B400000000000408FC0000000800000F8BF000000C0690D2B400C00000013000000E20500003C00000006000000020000000000000000408F40000000400000F8BF000000C069
310
0D2B400000000000408FC0000000800000F8BF000000C0690D2B400C00000013000000EA0500003C00000006000000020000000000000000408FC0000000800000F8BF000000C0690D2B400000000000408FC000000040FEFFF7BF000000805AC340400C00000013000000F20500003C000000060000000200000000000000
310
00408F40000000C0FDFFF7BF000000805AC340400000000000408FC000000040FEFFF7BF000000805AC340400C00000013000000FA0500003C00000006000000020000000000000000408FC0000000000000C83E000000805AC340400000000000408FC000000040FEFFF7BF000000805AC340400C00000013000000020600
310
003C00000006000000020000000000000000408FC0000000000000C83E000000805AC340400000000000408F40000000000000CC3E000000805AC340400C000000130000000A0600003C00000006000000020000000000000000408FC0000000000000C83E000000805AC340400000000000408FC0000000000000D03E0000
310
00C0F90F44400C00000013000000120600003C00000006000000020000000000000000408F40000000000000C43E000000C0F90F44400000000000408FC0000000000000D03E000000C0F90F44400C000000130000001A0600003C00000006000000020000000000000000408FC0000000000097C5BF000000C03D49444000
310
00000000408FC0000000000000D03E000000C0F90F44400C00000013000000220600003C00000006000000020000000000000000408F40000000001497C5BF000000C03D4944400000000000408FC0000000000097C5BF000000C03D4944400C000000130000002A0600003C00000006000000020000000000000000408FC0
310
00000000005DCCBF00000000686E44400000000000408FC0000000000097C5BF000000C03D4944400C00000013000000320600003C00000006000000020000000000000000408FC000000000005DCCBF00000000686E44400000000000408F4000000000145DCCBF00000000686E44400C000000130000003A0600003C0000
310
0006000000020000000000000000408FC000000000005DCCBF00000000686E44400000000000408FC000000000045DCCBF000000C04C9844400C00000013000000420600003C00000006000000020000000000000000408F4000000000145DCCBF000000C04C9844400000000000408FC000000000045DCCBF000000C04C98
310
44400C000000130000004A0600003C00000006000000020000000000000000408FC0000000000497C5BF0000004077BD44400000000000408FC000000000045DCCBF000000C04C9844400C00000013000000520600003C00000006000000020000000000000000408FC0000000000497C5BF0000004077BD44400000000000
310
408F40000000001497C5BF0000004077BD44400C000000130000005A0600003C00000006000000020000000000000000408FC0000000000497C5BF0000004077BD44400000000000408FC0000000000000CC3E00000000BBF644400C00000013000000620600003C00000006000000020000000000000000408FC000000000
310
0000CC3E00000000BBF644400000000000408F40000000000000D03E00000000BBF644400C000000130000006A0600003C00000006000000020000000000000000408FC0000000000000CC3E00000000BBF644400000000000408FC0000000000000DC3E000000C0FF7F47400C00000013000000720600003C000000060000
310
00020000000000000000408F40000000000000D43E000000C0FF7F47400000000000408FC0000000000000DC3E000000C0FF7F47400C000000130000007A0600003C00000006000000020000000000000000408FC0000000000000DC3E000000C0FF7F47400000000000408FC0000000A0271708C000000080CC6B47400C00
310
000013000000820600003C00000006000000020000000000000000408F40000000A0271708C000000080CC6B47400000000000408FC0000000A0271708C000000080CC6B47400C000000130000008A0600003C00000006000000020000000000000000408FC000000080BF8008C000000040EA2047400000000000408FC000
310
0000A0271708C000000080CC6B47400C00000013000000920600003C00000006000000020000000000000000408FC000000080BF8008C000000040EA2047400000000000408F4000000080BF8008C000000040EA2047400C000000130000009A0600003C00000006000000020000000000000000408FC000000080BF8008C0
310
00000040EA2047400000000000408FC000000040352B09C0000000C047E446400C00000013000000A20600003C00000006000000020000000000000000408F4000000040352B09C0000000C047E446400000000000408FC000000040352B09C0000000C047E446400C00000013000000AA0600003C00000006000000020000
310
000000000000408FC0000000C0C8220AC0000000006DAD46400000000000408FC000000040352B09C0000000C047E446400C00000013000000B20600003C00000006000000020000000000000000408F4000000000C9220AC0000000006DAD46400000000000408FC0000000C0C8220AC0000000006DAD46400C0000001300
310
0000BA0600003C00000006000000020000000000000000408FC0000000C05A6C0BC0000000807B7C46400000000000408FC0000000C0C8220AC0000000006DAD46400C00000013000000C20600003C00000006000000020000000000000000408FC0000000C05A6C0BC0000000807B7C46400000000000408F40000000005B
310
6C0BC0000000807B7C46400C00000013000000CA0600003C00000006000000020000000000000000408FC0000000C05A6C0BC0000000807B7C46400000000000408FC00000000023190DC000000000824F46400C00000013000000D20600003C00000006000000020000000000000000408F400000000023190DC000000000
310
824F46400000000000408FC00000000023190DC000000000824F46400C00000013000000DA0600003C00000006000000020000000000000000408FC000000080B2330FC0000000002F2546400000000000408FC00000000023190DC000000000824F46400C00000013000000E20600003C0000000600000002000000000000
310
0000408FC000000080B2330FC0000000002F2546400000000000408F4000000080B2330FC0000000002F2546400C00000013000000EA0600003C00000006000000020000000000000000408FC000000080B2330FC0000000002F2546400000000000408FC0000000A003E510C000000080B0FB45400C00000013000000F206
310
00003C00000006000000020000000000000000408F400000008003E510C000000080B0FB45400000000000408FC0000000A003E510C000000080B0FB45400C00000013000000FA0600003C00000006000000020000000000000000408FC0000000A003E510C000000080B0FB45400000000000408FC000000020796812C000
310
00008089D245400C00000013000000020700003C00000006000000020000000000000000408F4000000000796812C00000008089D245400000000000408FC000000020796812C00000008089D245400C000000130000000A0700003C00000006000000020000000000000000408FC0000000608E1B14C00000004077A94540
310
0000000000408FC000000020796812C00000008089D245400C00000013000000120700003C00000006000000020000000000000000408F40000000C08D1B14C00000004077A945400000000000408FC0000000608E1B14C00000004077A945400C000000130000001A0700003C00000006000000020000000000000000408F
310
C0000000A0F5EE15C000000000CA7F45400000000000408FC0000000608E1B14C00000004077A945400C00000013000000220700003C00000006000000020000000000000000408FC0000000A0F5EE15C000000000CA7F45400000000000408F40000000E0F4EE15C000000000CA7F45400C000000130000002A0700003C00
310
000006000000020000000000000000408FC0000000A0F5EE15C000000000CA7F45400000000000408FC000000080ACE317C000000080AB5345400C00000013000000320700003C00000006000000020000000000000000408FC000000080ACE317C000000080AB5345400000000000408F4000000000ACE317C000000080AB
310
5345400C000000130000003A0700003C00000006000000020000000000000000408FC000000080ACE317C000000080AB5345400000000000408FC0000000C0A2BE19C0000000408E2845400C00000013000000420700003C00000006000000020000000000000000408F4000000080A2BE19C0000000408E28454000000000
310
00408FC0000000C0A2BE19C0000000408E2845400C000000130000004A0700003C00000006000000020000000000000000408FC00000000081891BC0000000C0B5FB44400000000000408FC0000000C0A2BE19C0000000408E2845400C00000013000000520700003C00000006000000020000000000000000408FC0000000
310
0081891BC0000000C0B5FB44400000000000408F400000000081891BC0000000C0B5FB44400C000000130000005A0700003C00000006000000020000000000000000408FC00000000081891BC0000000C0B5FB44400000000000408FC0000000600C1F1DC00000000019CF44400C00000013000000620700003C0000000600
310
0000020000000000000000408F40000000E00B1F1DC00000000019CF44400000000000408FC0000000600C1F1DC00000000019CF44400C000000130000006A0700003C00000006000000020000000000000000408FC000000040A4741EC0000000C06AA244400000000000408FC0000000600C1F1DC00000000019CF44400C
310
00000013000000720700003C00000006000000020000000000000000408FC000000040A4741EC0000000C06AA244400000000000408F4000000080A3741EC0000000C06AA244400C000000130000007A0700003C00000006000000020000000000000000408FC000000040A4741EC0000000C06AA244400000000000408FC0
310
00000040F8871FC0000000C0D77444400C00000013000000820700003C00000006000000020000000000000000408F4000000080F7871FC0000000C0D77444400000000000408FC000000040F8871FC0000000C0D77444400C000000130000008A0700003C00000006000000020000000000000000408FC0000000E0572F20
310
C000000040974244400000000000408FC000000040F8871FC0000000C0D77444400C00000013000000920700003C00000006000000020000000000000000408FC0000000E0572F20C000000040974244400000000000408F40000000C0572F20C000000040974244400C000000130000009A0700003C000000060000000200
310
00000000000000408FC0000000E0572F20C000000040974244400000000000408FC0000000A0AF6B20C000000080641044400C00000013000000A20700003C00000006000000020000000000000000408F4000000080AF6B20C000000080641044400000000000408FC0000000A0AF6B20C000000080641044400C00000013
310
000000AA0700003C00000006000000020000000000000000408FC0000000A0AF6B20C000000080641044400000000000408FC000000040AE7820C0000000804DDF43400C00000013000000B20700003C00000006000000020000000000000000408F4000000000AE7820C0000000804DDF43400000000000408FC000000040
310
AE7820C0000000804DDF43400C00000013000000BA0700003C00000006000000020000000000000000408FC000000060535720C00000000034AD43400000000000408FC000000040AE7820C0000000804DDF43400C00000013000000C20700003C00000006000000020000000000000000408F4000000040535720C0000000
310
0034AD43400000000000408FC000000060535720C00000000034AD43400C00000013000000CA0700003C00000006000000020000000000000000408FC0000000C0540320C000000000A57843400000000000408FC000000060535720C00000000034AD43400C00000013000000D20700003C00000006000000020000000000
310
000000408F40000000C0540320C000000000A57843400000000000408FC0000000C0540320C000000000A57843400C00000013000000DA0700003C00000006000000020000000000000000408FC0000000C0540320C000000000A57843400000000000408FC000000040CC021FC0000000400B4543400C00000013000000E2
310
0700003C00000006000000020000000000000000408F4000000080CB021FC0000000400B4543400000000000408FC000000040CC021FC0000000400B4543400C00000013000000EA0700003C00000006000000020000000000000000408FC0000000C03DC61DC0000000001F1943400000000000408FC000000040CC021FC0
310
000000400B4543400C00000013000000F20700003C00000006000000020000000000000000408F40000000403DC61DC0000000001F1943400000000000408FC0000000C03DC61DC0000000001F1943400C00000013000000FA0700003C00000006000000020000000000000000408FC0000000C03DC61DC0000000001F1943
310
400000000000408FC00000006076681CC0000000C00DF942400C00000013000000020800003C00000006000000020000000000000000408F400000000076681CC0000000C00DF942400000000000408FC00000006076681CC0000000C00DF942400C000000130000000A0800003C0000000600000002000000000000000040
310
8FC0000000804CE41AC000000000ECE242400000000000408FC00000006076681CC0000000C00DF942400C00000013000000120800003C00000006000000020000000000000000408FC0000000804CE41AC000000000ECE242400000000000408F40000000804CE41AC000000000ECE242400C000000130000001A0800003C
310
00000006000000020000000000000000408FC0000000804CE41AC000000000ECE242400000000000408FC0000000801EB419C000000040F3D542400C00000013000000220800003C00000006000000020000000000000000408F40000000401EB419C000000040F3D542400000000000408FC0000000801EB419C000000040
310
F3D542400C000000130000002A0800003C00000006000000020000000000000000408FC0000000801EB419C000000040F3D542400000000000408FC000000040D4C118C00000000038C542400C00000013000000320800003C00000006000000020000000000000000408F4000000000D4C118C00000000038C54240000000
310
0000408FC000000040D4C118C00000000038C542400C000000130000003A0800003C00000006000000020000000000000000408FC000000000753018C0000000C0D1AB42400000000000408FC000000040D4C118C00000000038C542400C00000013000000420800003C00000006000000020000000000000000408FC00000
310
0000753018C0000000C0D1AB42400000000000408F4000000060743018C0000000C0D1AB42400C000000130000004A0800003C00000006000000020000000000000000408FC0000000C0FFFF17C0000000C0C08942400000000000408FC000000000753018C0000000C0D1AB42400C00000013000000520800003C00000006
310
000000020000000000000000408FC0000000C0FFFF17C0000000C0C08942400000000000408F4000000000FFFF17C0000000C0C08942400C000000130000005A0800003C00000006000000020000000000000000408FC0000000C0FFFF17C0000000C0C08942400000000000408FC000000080FFFF17C0000000C059134240
310
0C00000013000000620800003C00000006000000020000000000000000408F4000000080FFFF17C0000000C0591342400000000000408FC000000080FFFF17C0000000C0591342400C000000130000006A0800003C00000006000000020000000000000000408FC0000000C0003318C0000000C0CAF241400000000000408F
310
C000000080FFFF17C0000000C0591342400C00000013000000720800003C00000006000000020000000000000000408FC0000000C0003318C0000000C0CAF241400000000000408F40000000E0003318C0000000C0CAF241400C000000130000007A0800003C00000006000000020000000000000000408FC0000000C00033
310
18C0000000C0CAF241400000000000408FC0000000C004CC18C000000040EBDD41400C00000013000000820800003C00000006000000020000000000000000408F40000000E004CC18C000000040EBDD41400000000000408FC0000000C004CC18C000000040EBDD41400C000000130000008A0800003C0000000600000002
310
0000000000000000408FC0000000400BCB19C000000000BBD441400000000000408FC0000000C004CC18C000000040EBDD41400C00000013000000920800003C00000006000000020000000000000000408FC0000000400BCB19C000000000BBD441400000000000408F40000000600BCB19C000000000BBD441400C000000
310
130000009A0800003C00000006000000020000000000000000408FC0000000400BCB19C000000000BBD441400000000000408FC000000000F3341EC0000000805FC841400C00000013000000A20800003C00000006000000020000000000000000408F4000000040F2341EC0000000805FC841400000000000408FC0000000
310
00F3341EC0000000805FC841400C00000013000000AA0800003C00000006000000020000000000000000408FC0000000C0F9331FC0000000402FBF41400000000000408FC000000000F3341EC0000000805FC841400C00000013000000B20800003C00000006000000020000000000000000408FC0000000C0F9331FC00000
310
00402FBF41400000000000408F4000000040F9331FC0000000402FBF41400C00000013000000BA0800003C00000006000000020000000000000000408FC0000000C0F9331FC0000000402FBF41400000000000408FC0000000C0FDCC1FC0000000C04FAA41400C00000013000000C20800003C000000060000000200000000
310
00000000408F4000000000FDCC1FC0000000C04FAA41400000000000408FC0000000C0FDCC1FC0000000C04FAA41400C00000013000000CA0800003C00000006000000020000000000000000408FC000000000FFFF1FC0000000C0C08941400000000000408FC0000000C0FDCC1FC0000000C04FAA41400C00000013000000
310
D20800003C00000006000000020000000000000000408F4000000040FEFF1FC0000000C0C08941400000000000408FC000000000FFFF1FC0000000C0C08941400C00000013000000DA0800003C00000006000000020000000000000000408FC000000000FFFF1FC0000000C0C08941400000000000408FC000000020000020
310
C000000080D0F327400C00000013000000E20800003C00000006000000020000000000000000408F40000000C0FFFF1FC000000080D0F327400000000000408FC000000020000020C000000080D0F327400C00000013000000EA0800003C00000006000000020000000000000000408FC000000020000020C000000080D0F3
310
27400000000000408FC0000000C0FECC1FC000000080957127400C00000013000000F20800003C00000006000000020000000000000000408F4000000040FECC1FC000000080957127400000000000408FC0000000C0FECC1FC000000080957127400C00000013000000FA0800003C00000006000000020000000000000000
310
408FC0000000C0FA331FC000000000171E27400000000000408FC0000000C0FECC1FC000000080957127400C00000013000000020900003C00000006000000020000000000000000408FC0000000C0FA331FC000000000171E27400000000000408F4000000040FA331FC000000000171E27400C000000130000000A090000
310
3C00000006000000020000000000000000408FC0000000C0FA331FC000000000171E27400000000000408FC000000000F4341EC0000000C055F926400C00000013000000120900003C00000006000000020000000000000000408F4000000040F3341EC0000000C055F926400000000000408FC000000000F4341EC0000000
310
C055F926400C000000130000001A0900003C00000006000000020000000000000000408FC000000000F4341EC0000000C055F926400000000000408FC0000000200CCB19C0000000C0E8C726400C00000013000000220900003C00000006000000020000000000000000408F40000000000CCB19C000000000E9C726400000
310
000000408FC0000000200CCB19C0000000C0E8C726400C000000130000002A0900003C00000006000000020000000000000000408FC00000006005CC18C00000004027A326400000000000408FC0000000200CCB19C0000000C0E8C726400C00000013000000320900003C00000006000000020000000000000000408FC000
310
00006005CC18C00000004027A326400000000000408F400000004005CC18C00000008027A326400C000000130000003A0900003C00000006000000020000000000000000408FC00000006005CC18C00000004027A326400000000000408FC0000000C0013318C000000000A94F26400C00000013000000420900003C000000
310
06000000020000000000000000408F40000000C0013318C000000040A94F26400000000000408FC0000000C0013318C000000000A94F26400C000000130000004A0900003C00000006000000020000000000000000408FC000000040000018C0000000C06DCD25400000000000408FC0000000C0013318C000000000A94F26
310
400C00000013000000520900003C00000006000000020000000000000000408F4000000040000018C0000000006ECD25400000000000408FC000000040000018C0000000C06DCD25400C000000130000005A0900003C00000006000000020000000000000000408FC000000040000018C0000000C06DCD2540000000000040
310
8FC000000060000018C000000040D1F323400C00000013000000620900003C00000006000000020000000000000000408F40000000E0FFFF17C000000080D1F323400000000000408FC000000060000018C000000040D1F323400C000000130000006A0900003C00000006000000020000000000000000408FC0000000006A
310
3018C0000000407C6B23400000000000408FC000000060000018C000000040D1F323400C00000013000000720900003C00000006000000020000000000000000408FC0000000006A3018C0000000407C6B23400000000000408F4000000060693018C0000000807C6B23400C000000130000007A0900003C00000006000000
310
020000000000000000408FC0000000006A3018C0000000407C6B23400000000000408FC0000000E0A6C118C0000000C0B00523400C00000013000000820900003C00000006000000020000000000000000408F40000000C0A6C118C000000000B10523400000000000408FC0000000E0A6C118C0000000C0B00523400C0000
310
00130000008A0900003C00000006000000020000000000000000408FC000000000B7B319C0000000C06EC222400000000000408FC0000000E0A6C118C0000000C0B00523400C00000013000000920900003C00000006000000020000000000000000408FC000000000B7B319C0000000C06EC222400000000000408F400000
310
00C0B6B319C0000000006FC222400C000000130000009A0900003C00000006000000020000000000000000408FC000000000B7B319C0000000C06EC222400000000000408FC000000020540B1BC0000000404C8722400C00000013000000A20900003C00000006000000020000000000000000408F4000000000540B1BC000
310
0000804C8722400000000000408FC000000020540B1BC0000000404C8722400C00000013000000AA0900003C00000006000000020000000000000000408FC000000020540B1BC0000000404C8722400000000000408FC000000020F6971CC0000000C0BE2822400C00000013000000B20900003C0000000600000002000000
310
0000000000408F40000000A0F5971CC000000000BF2822400000000000408FC000000020F6971CC0000000C0BE2822400C00000013000000BA0900003C00000006000000020000000000000000408FC0000000E02EE61DC000000040F6A721400000000000408FC000000020F6971CC0000000C0BE2822400C000000130000
310
00C20900003C00000006000000020000000000000000408FC0000000E02EE61DC000000040F6A721400000000000408F40000000602EE61DC000000040F6A721400C00000013000000CA0900003C00000006000000020000000000000000408FC0000000E02EE61DC000000040F6A721400000000000408FC000000020A413
310
1FC00000008045FB20400C00000013000000D20900003C00000006000000020000000000000000408FC000000020A4131FC00000008045FB20400000000000408F4000000060A3131FC00000008045FB20400C00000013000000DA0900003C00000006000000020000000000000000408FC000000020A4131FC00000008045
310
FB20400000000000408FC0000000000F0920C000000080FE2C20400C00000013000000E20900003C00000006000000020000000000000000408F40000000E00E0920C000000080FE2C20400000000000408FC0000000000F0920C000000080FE2C20400C00000013000000EA0900003C000000060000000200000000000000
310
00408FC0000000000F0920C000000080FE2C20400000000000408FC000000000ED5920C0000000008CB91E400C00000013000000F20900003C00000006000000020000000000000000408F40000000E0EC5920C0000000008CB91E400000000000408FC000000000ED5920C0000000008CB91E400C00000013000000FA0900
310
003C00000006000000020000000000000000408FC0000000000D7920C000000000362D1D400000000000408FC000000000ED5920C0000000008CB91E400C00000013000000020A00003C00000006000000020000000000000000408F40000000E00C7920C000000080362D1D400000000000408FC0000000000D7920C00000
310
0000362D1D400C000000130000000A0A00003C00000006000000020000000000000000408FC0000000C0BA6A20C000000000E9A71B400000000000408FC0000000000D7920C000000000362D1D400C00000013000000120A00003C00000006000000020000000000000000408FC0000000C0BA6A20C000000000E9A71B4000
310
00000000408F40000000A0BA6A20C000000080E9A71B400C000000130000001A0A00003C00000006000000020000000000000000408FC0000000C0BA6A20C000000000E9A71B400000000000408FC000000040FE2C20C000000080E3151A400C00000013000000220A00003C00000006000000020000000000000000408F40
310
00000020FE2C20C000000000E4151A400000000000408FC000000040FE2C20C000000080E3151A400C000000130000002A0A00003C00000006000000020000000000000000408FC000000040FE2C20C000000080E3151A400000000000408FC000000020F57E1FC000000080428118400C00000013000000320A00003C0000
310
0006000000020000000000000000408F4000000060F47E1FC000000000438118400000000000408FC000000020F57E1FC000000080428118400C000000130000003A0A00003C00000006000000020000000000000000408FC000000020F57E1FC000000080428118400000000000408FC0000000E0A7651EC0000000800C11
310
17400C00000013000000420A00003C00000006000000020000000000000000408F4000000060A7651EC0000000000D1117400000000000408FC0000000E0A7651EC0000000800C1117400C000000130000004A0A00003C00000006000000020000000000000000408FC0000000E0A7651EC0000000800C1117400000000000
310
408FC000000000CD061DC00000008025A615400C00000013000000520A00003C00000006000000020000000000000000408F4000000080CC061DC00000000026A615400000000000408FC000000000CD061DC00000008025A615400C000000130000005A0A00003C00000006000000020000000000000000408FC000000000
310
CD061DC00000008025A615400000000000408FC00000008039681BC000000080B03C14400C00000013000000620A00003C00000006000000020000000000000000408F400000008039681BC000000000B13C14400000000000408FC00000008039681BC000000080B03C14400C000000130000006A0A00003C000000060000
310
00020000000000000000408FC000000040999C19C000000080BDD712400000000000408FC00000008039681BC000000080B03C14400C00000013000000720A00003C00000006000000020000000000000000408FC000000040999C19C000000080BDD712400000000000408F4000000000999C19C000000000BED712400C00
310
0000130000007A0A00003C00000006000000020000000000000000408FC000000040999C19C000000080BDD712400000000000408FC00000004056CD17C000000080528811400C00000013000000820A00003C00000006000000020000000000000000408FC00000004056CD17C000000080528811400000000000408F4000
310
0000C055CD17C000000000538811400C000000130000008A0A00003C00000006000000020000000000000000408FC00000004056CD17C000000080528811400000000000408FC0000000009ADF15C000000080A72C10400C00000013000000920A00003C00000006000000020000000000000000408F40000000E099DF15C0
310
00000080A72C10400000000000408FC0000000009ADF15C000000080A72C10400C000000130000009A0A00003C00000006000000020000000000000000408FC0000000207C2914C0000000008FE80D400000000000408FC0000000009ADF15C000000080A72C10400C00000013000000A20A00003C00000006000000020000
310
000000000000408F40000000E07B2914C0000000008FE80D400000000000408FC0000000207C2914C0000000008FE80D400C00000013000000AA0A00003C00000006000000020000000000000000408FC0000000C0319412C000000000C7870B400000000000408FC0000000207C2914C0000000008FE80D400C0000001300
310
0000B20A00003C00000006000000020000000000000000408FC0000000C0319412C000000000C7870B400000000000408F40000000E0319412C000000000C7870B400C00000013000000BA0A00003C00000006000000020000000000000000408FC0000000C0319412C000000000C7870B400000000000408FC0000000C0BF
310
1D11C000000000A11609400C00000013000000C20A00003C00000006000000020000000000000000408F40000000C0BF1D11C000000000A11609400000000000408FC0000000C0BF1D11C000000000A11609400C00000013000000CA0A00003C00000006000000020000000000000000408FC0000000C0BF1D11C000000000
310
A11609400000000000408FC000000040F2860FC000000000417306400C00000013000000D20A00003C00000006000000020000000000000000408F4000000000F3860FC000000000417306400000000000408FC000000040F2860FC000000000417306400C00000013000000DA0A00003C0000000600000002000000000000
310
0000408FC000000040F2860FC000000000417306400000000000408FC00000008018530DC00000000097C403400C00000013000000E20A00003C00000006000000020000000000000000408F400000008018530DC00000000097C403400000000000408FC00000008018530DC00000000097C403400C00000013000000EA0A
310
00003C00000006000000020000000000000000408FC00000008018530DC00000000097C403400000000000408FC000000080CD7D0BC00000000083C400400C00000013000000F20A00003C00000006000000020000000000000000408F4000000080CD7D0BC00000000083C400400000000000408FC000000080CD7D0BC000
310
00000083C400400C00000013000000FA0A00003C00000006000000020000000000000000408FC0000000C0DE120AC0000000005AC7FA3F0000000000408FC000000080CD7D0BC00000000083C400400C00000013000000020B00003C00000006000000020000000000000000408FC0000000C0DE120AC0000000005AC7FA3F
310
0000000000408F4000000000DF120AC0000000005AC7FA3F0C000000130000000A0B00003C00000006000000020000000000000000408FC0000000C0DE120AC0000000005AC7FA3F0000000000408FC000000080A21309C0000000003277F33F0C00000013000000120B00003C00000006000000020000000000000000408F
310
40000000C0A21309C0000000003277F33F0000000000408FC000000080A21309C0000000003277F33F0C000000130000001A0B00003C00000006000000020000000000000000408FC000000080A21309C0000000003277F33F0000000000408FC000000000347308C0000000007CC3E73F0C00000013000000220B00003C00
310
000006000000020000000000000000408F4000000040347308C0000000007CC3E73F0000000000408FC000000000347308C0000000007CC3E73F0C000000130000002A0B00003C00000006000000020000000000000000408FC000000000347308C0000000007CC3E73F0000000000408FC000000020531208C00000000010
310
2FC43F0C00000013000000320B00003C00000006000000020000000000000000408FC0000000000000A03E00000000CE7F18400000000000408FC000000000347308C0000000007CC3E73F0C000000130000003A0B00003C00000006000000020000000000000000408FC0000000800000F8BF000000C0690D2B4000000000
310
00408FC0000000C0013318C000000000A94F26400C00000013000000420B00003C00000006000000020000000000000000408FC0000000800000F8BF000000C0690D2B400000000000408FC000000040000018C0000000C06DCD25400C000000130000004A0B00003C00000006000000020000000000000000408FC0000000
310
6005CC18C00000004027A326400000000000408FC0000000800000F8BF000000C0690D2B400C00000013000000520B00003C00000006000000020000000000000000408FC0000000800000F8BF000000C0690D2B400000000000408FC0000000200CCB19C0000000C0E8C726400C000000130000005A0B00003C0000000600
310
0000020000000000000000408FC0000000800000F8BF000000C0690D2B400000000000408FC000000000F4341EC0000000C055F926400C00000013000000620B00003C00000006000000020000000000000000408FC0000000C0FA331FC000000000171E27400000000000408FC0000000800000F8BF000000C0690D2B400C
310
000000130000006A0B00003C00000006000000020000000000000000408FC0000000800000F8BF000000C0690D2B400000000000408FC0000000C0FECC1FC000000080957127400C00000013000000720B00003C00000006000000020000000000000000408FC0000000800000F8BF000000C0690D2B400000000000408FC0
310
00000020000020C000000080D0F327400C000000130000007A0B00003C00000006000000020000000000000000408FC000000000FFFF1FC0000000C0C08941400000000000408FC000000040FEFFF7BF000000805AC340400C00000013000000820B00003C00000006000000020000000000000000408FC000000040FEFFF7
310
BF000000805AC340400000000000408FC000000080FFFF17C0000000C0591342400C000000130000008A0B00003C00000006000000020000000000000000408FC0000000C0003318C0000000C0CAF241400000000000408FC000000040FEFFF7BF000000805AC340400C00000013000000920B00003C000000060000000200
310
00000000000000408FC0000000C0FFFF17C0000000C0C08942400000000000408FC000000040FEFFF7BF000000805AC340400C000000130000009A0B00003C00000006000000020000000000000000408FC000000040FEFFF7BF000000805AC340400000000000408FC0000000C004CC18C000000040EBDD41400C00000013
310
000000A20B00003C00000006000000020000000000000000408FC0000000400BCB19C000000000BBD441400000000000408FC000000040FEFFF7BF000000805AC340400C00000013000000AA0B00003C00000006000000020000000000000000408FC000000000F3341EC0000000805FC841400000000000408FC000000040
310
FEFFF7BF000000805AC340400C00000013000000B20B00003C00000006000000020000000000000000408FC0000000C0F9331FC0000000402FBF41400000000000408FC000000040FEFFF7BF000000805AC340400C00000013000000BA0B00003C00000006000000020000000000000000408FC000000040FEFFF7BF000000
310
805AC340400000000000408FC0000000C0FDCC1FC0000000C04FAA41400C00000013000000C20B00003C00000006000000020000000000000000408FC0000000000000CC3E00000000BBF644400000000000408FC000000080BF8008C000000040EA2047400C00000013000000CA0B00003C00000006000000020000000000
310
000000408FC0000000000000CC3E00000000BBF644400000000000408FC000000040352B09C0000000C047E446400C00000013000000D20B00003C00000006000000020000000000000000408FC0000000000000CC3E00000000BBF644400000000000408FC0000000C0C8220AC0000000006DAD46400C00000013000000DA
310
0B00003C00000006000000020000000000000000408FC0000000000000CC3E00000000BBF644400000000000408FC0000000C05A6C0BC0000000807B7C46400C00000013000000E20B00003C00000006000000020000000000000000408FC0000000000000CC3E00000000BBF644400000000000408FC00000000023190DC0
310
00000000824F46400C00000013000000EA0B00003C00000006000000020000000000000000408FC0000000000000CC3E00000000BBF644400000000000408FC000000080B2330FC0000000002F2546400C00000013000000F20B00003C00000006000000020000000000000000408FC0000000000000CC3E00000000BBF644
310
400000000000408FC0000000A003E510C000000080B0FB45400C00000013000000FA0B00003C00000006000000020000000000000000408FC0000000000000CC3E00000000BBF644400000000000408FC000000020796812C00000008089D245400C00000013000000020C00003C0000000600000002000000000000000040
310
8FC0000000000497C5BF0000004077BD44400000000000408FC0000000608E1B14C00000004077A945400C000000130000000A0C00003C00000006000000020000000000000000408FC0000000000497C5BF0000004077BD44400000000000408FC0000000A0F5EE15C000000000CA7F45400C00000013000000120C00003C
310
00000006000000020000000000000000408FC0000000000497C5BF0000004077BD44400000000000408FC000000080ACE317C000000080AB5345400C000000130000001A0C00003C00000006000000020000000000000000408FC0000000000497C5BF0000004077BD44400000000000408FC0000000C0A2BE19C000000040
310
8E2845400C00000013000000220C00003C00000006000000020000000000000000408FC0000000000497C5BF0000004077BD44400000000000408FC00000000081891BC0000000C0B5FB44400C000000130000002A0C00003C00000006000000020000000000000000408FC0000000000497C5BF0000004077BD4440000000
310
0000408FC0000000600C1F1DC00000000019CF44400C00000013000000320C00003C00000006000000020000000000000000408FC0000000000497C5BF0000004077BD44400000000000408FC000000040A4741EC0000000C06AA244400C000000130000003A0C00003C00000006000000020000000000000000408FC00000
310
00000497C5BF0000004077BD44400000000000408FC000000040F8871FC0000000C0D77444400C00000013000000420C00003C00000006000000020000000000000000408FC0000000E0572F20C000000040974244400000000000408FC000000000045DCCBF000000C04C9844400C000000130000004A0C00003C00000006
310
000000020000000000000000408FC0000000A0AF6B20C000000080641044400000000000408FC000000000045DCCBF000000C04C9844400C00000013000000520C00003C00000006000000020000000000000000408FC000000040AE7820C0000000804DDF43400000000000408FC000000000045DCCBF000000C04C984440
310
0C000000130000005A0C00003C00000006000000020000000000000000408FC000000060535720C00000000034AD43400000000000408FC000000000045DCCBF000000C04C9844400C00000013000000620C00003C00000006000000020000000000000000408FC0000000C0540320C000000000A57843400000000000408F
310
C000000000045DCCBF000000C04C9844400C000000130000006A0C00003C00000006000000020000000000000000408FC000000040CC021FC0000000400B4543400000000000408FC000000000045DCCBF000000C04C9844400C00000013000000720C00003C00000006000000020000000000000000408FC000000000005D
310
CCBF00000000686E44400000000000408FC0000000C03DC61DC0000000001F1943400C000000130000007A0C00003C00000006000000020000000000000000408FC000000000005DCCBF00000000686E44400000000000408FC00000006076681CC0000000C00DF942400C00000013000000820C00003C0000000600000002
310
0000000000000000408FC0000000804CE41AC000000000ECE242400000000000408FC0000000000097C5BF000000C03D4944400C000000130000008A0C00003C00000006000000020000000000000000408FC0000000000097C5BF000000C03D4944400000000000408FC0000000801EB419C000000040F3D542400C000000
310
13000000920C00003C00000006000000020000000000000000408FC000000040D4C118C00000000038C542400000000000408FC0000000000000D03E000000C0F90F44400C000000130000009A0C00003C00000006000000020000000000000000408FC000000000753018C0000000C0D1AB42400000000000408FC0000000
310
000000D03E000000C0F90F44400C00000013000000A20C00003C00000006000000020000000000000000408FC0000000C0FFFF17C0000000C0C08942400000000000408FC0000000000000D03E000000C0F90F44400C00000013000000AA0C00003C00000006000000020000000000000000408FC0000000000000A03E0000
310
0000CE7F18400000000000408FC000000080A21309C0000000003277F33F0C00000013000000B20C00003C00000006000000020000000000000000408FC0000000C0DE120AC0000000005AC7FA3F0000000000408FC0000000000000A03E00000000CE7F18400C00000013000000BA0C00003C000000060000000200000000
310
00000000408FC0000000000000A03E00000000CE7F18400000000000408FC000000080CD7D0BC00000000083C400400C00000013000000C20C00003C00000006000000020000000000000000408FC00000008018530DC00000000097C403400000000000408FC0000000000000A03E00000000CE7F18400C00000013000000
310
CA0C00003C00000006000000020000000000000000408FC000000040F2860FC000000000417306400000000000408FC0000000000000A03E00000000CE7F18400C00000013000000D20C00003C00000006000000020000000000000000408FC0000000C0BF1D11C000000000A11609400000000000408FC0000000000000A0
310
3E00000000CE7F18400C00000013000000DA0C00003C00000006000000020000000000000000408FC0000000C0319412C000000000C7870B400000000000408FC0000000000000A03E00000000CE7F18400C00000013000000E20C00003C00000006000000020000000000000000408FC0000000207C2914C0000000008FE8
310
0D400000000000408FC0000000002097C5BF00000000ED491A400C00000013000000EA0C00003C00000006000000020000000000000000408FC0000000002097C5BF00000000ED491A400000000000408FC0000000009ADF15C000000080A72C10400C00000013000000F20C00003C00000006000000020000000000000000
310
408FC00000004056CD17C000000080528811400000000000408FC0000000002097C5BF00000000ED491A400C00000013000000FA0C00003C00000006000000020000000000000000408FC000000040999C19C000000080BDD712400000000000408FC0000000002097C5BF00000000ED491A400C00000013000000020D0000
310
3C00000006000000020000000000000000408FC0000000002097C5BF00000000ED491A400000000000408FC00000008039681BC000000080B03C14400C000000130000000A0D00003C00000006000000020000000000000000408FC0000000002097C5BF00000000ED491A400000000000408FC000000000CD061DC0000000
310
8025A615400C00000013000000120D00003C00000006000000020000000000000000408FC0000000E0A7651EC0000000800C1117400000000000408FC0000000002097C5BF00000000ED491A400C000000130000001A0D00003C00000006000000020000000000000000408FC000000020F57E1FC000000080428118400000
310
000000408FC0000000002097C5BF00000000ED491A400C00000013000000220D00003C00000006000000020000000000000000408FC000000000205DCCBF0000000040731B400000000000408FC000000040FE2C20C000000080E3151A400C000000130000002A0D00003C00000006000000020000000000000000408FC000
310
000000205DCCBF0000000040731B400000000000408FC0000000C0BA6A20C000000000E9A71B400C00000013000000320D00003C00000006000000020000000000000000408FC000000000205DCCBF0000000040731B400000000000408FC0000000000D7920C000000000362D1D400C000000130000003A0D00003C000000
310
06000000020000000000000000408FC000000000205DCCBF0000000040731B400000000000408FC000000000ED5920C0000000008CB91E400C00000013000000420D00003C00000006000000020000000000000000408FC000000000205DCCBF0000000040731B400000000000408FC0000000000F0920C000000080FE2C20
310
400C000000130000004A0D00003C00000006000000020000000000000000408FC000000000205DCCBF0000000040731B400000000000408FC000000020A4131FC00000008045FB20400C00000013000000520D00003C00000006000000020000000000000000408FC0000000E02EE61DC000000040F6A72140000000000040
310
8FC0000000001C5DCCBF0000000067C21C400C000000130000005A0D00003C00000006000000020000000000000000408FC0000000001C5DCCBF0000000067C21C400000000000408FC000000020F6971CC0000000C0BE2822400C00000013000000620D00003C00000006000000020000000000000000408FC0000000002C
310
97C5BF00000000BAEB1D400000000000408FC000000020540B1BC0000000404C8722400C000000130000006A0D00003C00000006000000020000000000000000408FC000000000B7B319C0000000C06EC222400000000000408FC0000000002C97C5BF00000000BAEB1D400C00000013000000720D00003C00000006000000
310
020000000000000000408FC0000000000000B8BE00000080D9B51F400000000000408FC0000000E0A6C118C0000000C0B00523400C000000130000007A0D00003C00000006000000020000000000000000408FC0000000000000B8BE00000080D9B51F400000000000408FC000000060000018C000000040D1F323400C0000
310
0013000000820D00003C00000006000000020000000000000000408FC0000000006A3018C0000000407C6B23400000000000408FC0000000000000B8BE00000080D9B51F400C000000130000008A0D00003C00000006000000020000000000000000408FC0000000800000F8BF000000C0690D2B400000000000408FC00000
310
0060000018C000000040D1F32340
100
AcDbSubDMesh
 71
     2
 72
     0
 91
        0
 92
      188
 10
-1000.0
 20
-0.2215919494628906
 30
6.862548828125
 10
-1000.0
 20
0.0000014305114746
 30
13.52619743347168
 10
-1000.0
 20
0.0000028610229492
 30
33.52619934082031
 10
-1000.0
 20
-0.221588134765625
 30
40.86254882812499
 10
-1000.0
 20
-0.1686711311340332
 30
41.4802017211914
 10
-1000.0
 20
0.0000033378601074
 30
41.92758178710938
 10
-1000.0
 20
-3.062865257263183
 30
46.25714874267578
 10
-1000.0
 20
-3.427907466888427
 30
44.97251892089844
 10
-1000.0
 20
-3.900242805480957
 30
44.29049682617187
 10
-1000.0
 20
-5.483358860015869
 30
42.99835205078125
 10
-1000.0
 20
-5.97233772277832
 30
42.65367126464844
 10
-1000.0
 20
-6.884281158447265
 30
41.96648406982421
 10
-1000.0
 20
-7.613907814025878
 30
41.26888275146484
 10
-1000.0
 20
-8.092467308044433
 30
40.5202407836914
 10
-1000.0
 20
-6.72294807434082
 30
37.7728271484375
 10
-1000.0
 20
-6.448285102844238
 30
35.66195678710938
 10
-1000.0
 20
-6.425502777099609
 30
9.379751205444335
 10
-1000.0
 20
-7.474788188934326
 30
8.82805061340332
 10
-1000.0
 20
-7.76918077468872
 30
8.490764617919921
 10
-1000.0
 20
-8.20845603942871
 30
6.91397476196289
 10
-1000.0
 20
-6.402928352355957
 30
4.710683822631835
 10
-1000.0
 20
-5.95052433013916
 30
4.383127212524414
 10
-1000.0
 20
-4.644721031188964
 30
3.441297531127929
 10
-1000.0
 20
-3.259213924407958
 30
1.673669815063476
 10
-1000.0
 20
-5.999999046325683
 30
37.0761947631836
 10
-1000.0
 20
-7.800761222839355
 30
11.55876922607422
 10
-1000.0
 20
-6.199239253997802
 30
11.31865882873535
 10
-1000.0
 20
-6.047279357910156
 30
9.709932327270507
 10
-1000.0
 20
-6.049807548522949
 30
35.89681243896484
 10
-1000.0
 20
-7.800757408142089
 30
35.49362945556641
 10
-1000.0
 20
-6.047321319580078
 30
37.34233856201172
 10
1000.0
 20
-0.0000033378601074
 30
-0.0000057220458984
 10
1000.0
 20
-3.008947610855102
 30
0.1576862335205078
 10
1000.0
 20
-3.056252002716064
 30
0.7426128387451172
 10
1000.0
 20
-0.0000014305114746
 30
6.124809265136718
 10
1000.0
 20
-6.000000953674316
 30
10.90122985839844
 10
1000.0
 20
-6.049811363220214
 30
11.15558815002441
 10
1000.0
 20
-1.500000238418579
 30
13.52619743347168
 10
1000.0
 20
-6.199238777160644
 30
11.31866073608398
 10
1000.0
 20
-6.448287963867187
 30
11.39044952392578
 10
1000.0
 20
-7.551709175109863
 30
11.48698234558105
 10
1000.0
 20
-7.800759315490722
 30
11.55876922607422
 10
1000.0
 20
-7.950188636779785
 30
11.72184371948242
 10
1000.0
 20
-7.999999046325683
 30
11.97620010375976
 10
1000.0
 20
-7.999993324279785
 30
35.07619476318359
 10
1000.0
 20
-1.499997854232788
 30
33.52619934082031
 10
1000.0
 20
-6.049808025360107
 30
35.89681243896484
 10
1000.0
 20
-5.999998092651367
 30
36.15117645263672
 10
1000.0
 20
-5.999996185302734
 30
37.0761947631836
 10
1000.0
 20
-6.199237346649169
 30
35.73374176025391
 10
1000.0
 20
-6.448285579681396
 30
35.66195678710938
 10
1000.0
 20
-7.800755500793457
 30
35.49362945556641
 10
1000.0
 20
-7.551705360412597
 30
35.56541442871094
 10
1000.0
 20
-7.950183868408203
 30
35.33055877685547
 10
1000.0
 20
-3.146097660064697
 30
45.78343963623047
 10
1000.0
 20
-3.062865257263183
 30
46.25714874267578
 10
1000.0
 20
0.0000038146972656
 30
41.92758178710938
 10
1000.0
 20
-3.011306047439575
 30
46.84217834472656
 10
1000.0
 20
0.000004768371582
 30
46.99999237060547
 10
1000.0
 20
-3.266984939575195
 30
45.35488891601562
 10
1000.0
 20
-3.427907943725585
 30
44.97251892089844
 10
1000.0
 20
-3.637273788452148
 30
44.62115478515625
 10
1000.0
 20
-3.900242805480957
 30
44.29049682617187
 10
1000.0
 20
-4.223646163940429
 30
43.96632385253906
 10
1000.0
 20
-4.60202407836914
 30
43.64482116699218
 10
1000.0
 20
-5.483355998992919
 30
42.99835205078125
 10
1000.0
 20
-5.026907920837402
 30
43.32395172119141
 10
1000.0
 20
-0.168673038482666
 30
41.4802017211914
 10
1000.0
 20
-6.436166763305664
 30
42.31684112548828
 10
1000.0
 20
-5.972335815429687
 30
42.65367126464844
 10
1000.0
 20
-7.280318737030029
 30
41.61795043945312
 10
1000.0
 20
-6.884281158447265
 30
41.96648406982421
 10
1000.0
 20
-7.882780075073242
 30
40.91283416748047
 10
1000.0
 20
-7.613904953002929
 30
41.26888275146484
 10
1000.0
 20
-8.210323333740234
 30
40.12806701660156
 10
1000.0
 20
-8.092466354370117
 30
40.5202407836914
 10
1000.0
 20
-0.221590518951416
 30
41.18984222412109
 10
1000.0
 20
-8.170557022094726
 30
39.3531494140625
 10
1000.0
 20
-8.235702514648437
 30
39.74455261230469
 10
1000.0
 20
-7.752729415893554
 30
38.53940582275391
 10
1000.0
 20
-8.006505966186523
 30
38.94253540039063
 10
1000.0
 20
-7.102012634277343
 30
37.94573211669922
 10
1000.0
 20
-7.443593025207519
 30
38.19625854492187
 10
1000.0
 20
-0.221590518951416
 30
40.86254882812499
 10
1000.0
 20
-6.425896644592285
 30
37.67148590087891
 10
1000.0
 20
-6.72294807434082
 30
37.7728271484375
 10
1000.0
 20
-0.168673038482666
 30
40.57219696044922
 10
1000.0
 20
-6.047318935394287
 30
37.34233856201172
 10
1000.0
 20
-6.189285278320312
 30
37.540771484375
 10
1000.0
 20
0.000002384185791
 30
40.12480926513672
 10
1000.0
 20
0.0000033378601074
 30
33.52619934082031
 10
1000.0
 20
-3.13458776473999
 30
1.21660041809082
 10
1000.0
 20
-3.259214401245117
 30
1.673669815063476
 10
1000.0
 20
-3.436427116394042
 30
2.095952987670898
 10
1000.0
 20
-3.665574073791503
 30
2.470991134643554
 10
1000.0
 20
-3.940893173217773
 30
2.806276321411132
 10
1000.0
 20
-4.279051780700683
 30
3.136049270629882
 10
1000.0
 20
-4.644721508026123
 30
3.441297531127929
 10
1000.0
 20
-5.040511608123779
 30
3.738554000854492
 10
1000.0
 20
-0.1686768531799316
 30
6.572193145751953
 10
1000.0
 20
-5.468360424041748
 30
4.043607711791992
 10
1000.0
 20
-5.950522422790527
 30
4.383129119873046
 10
1000.0
 20
-6.40292739868164
 30
4.710685729980468
 10
1000.0
 20
-6.851781845092773
 30
5.059268951416015
 10
1000.0
 20
-7.25663948059082
 30
5.412254333496093
 10
1000.0
 20
-7.599271297454833
 30
5.766651153564453
 10
1000.0
 20
-7.873979091644287
 30
6.126232147216796
 10
1000.0
 20
-8.087876319885253
 30
6.521377563476562
 10
1000.0
 20
-0.2215938568115234
 30
6.862548828125
 10
1000.0
 20
-8.208455085754394
 30
6.913976669311523
 10
1000.0
 20
-8.236426353454589
 30
7.294153213500976
 10
1000.0
 20
-8.175635337829589
 30
7.681198120117187
 10
1000.0
 20
-8.017691612243652
 30
8.087879180908203
 10
1000.0
 20
-7.769177913665771
 30
8.490764617919921
 10
1000.0
 20
-7.474786281585693
 30
8.82805061340332
 10
1000.0
 20
-0.2215938568115234
 30
7.189846038818359
 10
1000.0
 20
-7.148397922515869
 30
9.079582214355468
 10
1000.0
 20
-6.761062622070312
 30
9.26425552368164
 10
1000.0
 20
-0.1686782836914062
 30
7.480201721191406
 10
1000.0
 20
-6.425501823425292
 30
9.379753112792968
 10
1000.0
 20
-6.189112663269042
 30
9.511116027832031
 10
1000.0
 20
-0.000002384185791
 30
7.927587509155273
 10
1000.0
 20
-6.047276973724365
 30
9.70993423461914
 10
1000.0
 20
-5.999999523162841
 30
9.976207733154296
 10
1000.0
 20
-0.0000004768371582
 30
13.52619743347168
 10
-1000.0
 20
-0.0000028610229492
 30
-0.0000057220458984
 10
-1000.0
 20
-1.500000476837158
 30
13.52619743347168
 10
-1000.0
 20
-4.223646640777587
 30
43.96632385253906
 10
-1000.0
 20
-7.280320644378662
 30
41.61795043945312
 10
-1000.0
 20
-8.006505966186523
 30
38.94253540039063
 10
-1000.0
 20
-7.443594932556152
 30
38.19625854492187
 10
-1000.0
 20
-7.999996185302734
 30
35.07619476318359
 10
-1000.0
 20
-8.017692565917968
 30
8.087879180908203
 10
-1000.0
 20
-8.236427307128906
 30
7.294151306152343
 10
-1000.0
 20
-5.040512561798095
 30
3.738554000854492
 10
-1000.0
 20
0.0000066757202148
 30
46.99999237060547
 10
-1000.0
 20
-3.011306047439575
 30
46.84217834472656
 10
-1000.0
 20
-0.168670654296875
 30
40.57219696044922
 10
-1000.0
 20
-0.2215914726257324
 30
7.189846038818359
 10
-1000.0
 20
-8.000000953674316
 30
11.97620010375976
 10
-1000.0
 20
-7.950190544128417
 30
11.72184371948242
 10
-1000.0
 20
-7.551708221435546
 30
35.56541442871094
 10
-1000.0
 20
-0.1686758995056152
 30
7.480201721191406
 10
-1000.0
 20
-0.0000014305114746
 30
7.927587509155273
 10
-1000.0
 20
-1.499998331069946
 30
33.52619934082031
 10
-1000.0
 20
-3.266984462738037
 30
45.35488891601562
 10
-1000.0
 20
-5.026910305023193
 30
43.32395172119141
 10
-1000.0
 20
-7.882782936096191
 30
40.91283416748047
 10
-1000.0
 20
-8.170557975769042
 30
39.3531494140625
 10
-1000.0
 20
-7.102014064788818
 30
37.94573211669922
 10
-1000.0
 20
-6.000000953674316
 30
10.9012279510498
 10
-1000.0
 20
-6.76106309890747
 30
9.264253616333007
 10
-1000.0
 20
-7.148399829864501
 30
9.079580307006835
 10
-1000.0
 20
-8.08787727355957
 30
6.521375656127929
 10
-1000.0
 20
-7.873981952667236
 30
6.126230239868164
 10
-1000.0
 20
-7.599273204803466
 30
5.76664924621582
 10
-1000.0
 20
-4.279051780700683
 30
3.136049270629882
 10
-1000.0
 20
-3.940891742706298
 30
2.806276321411132
 10
-1000.0
 20
-3.665574073791503
 30
2.470991134643554
 10
-1000.0
 20
-0.1686744689941406
 30
6.572193145751953
 10
-1000.0
 20
-6.000001430511474
 30
9.976205825805664
 10
-1000.0
 20
-6.049811363220214
 30
11.15558624267578
 10
-1000.0
 20
-5.999998092651367
 30
36.15117645263672
 10
-1000.0
 20
-6.199236869812011
 30
35.73374176025391
 10
-1000.0
 20
-7.950186729431152
 30
35.33055877685547
 10
-1000.0
 20
-6.425897598266601
 30
37.67148590087891
 10
-1000.0
 20
-6.189286231994628
 30
37.540771484375
 10
-1000.0
 20
0.0000004768371582
 30
6.124809265136718
 10
-1000.0
 20
0.0000038146972656
 30
40.12480926513672
 10
-1000.0
 20
-3.146097660064697
 30
45.78343963623047
 10
-1000.0
 20
-3.637273788452148
 30
44.62115478515625
 10
-1000.0
 20
-4.602024555206298
 30
43.64482116699218
 10
-1000.0
 20
-6.43616771697998
 30
42.31684112548828
 10
-1000.0
 20
-8.21032428741455
 30
40.12806701660156
 10
-1000.0
 20
-8.23570442199707
 30
39.74455261230469
 10
-1000.0
 20
-7.752732276916503
 30
38.53940582275391
 10
-1000.0
 20
-7.551712036132812
 30
11.48698234558105
 10
-1000.0
 20
-8.175636291503906
 30
7.681198120117187
 10
-1000.0
 20
-7.256641387939453
 30
5.41225242614746
 10
-1000.0
 20
-6.851781845092773
 30
5.059267044067382
 10
-1000.0
 20
-5.468360900878906
 30
4.043607711791992
 10
-1000.0
 20
-3.436427116394042
 30
2.095952987670898
 10
-1000.0
 20
-3.134587287902832
 30
1.21660041809082
 10
-1000.0
 20
-3.056251525878906
 30
0.7426128387451172
 10
-1000.0
 20
-3.008947610855102
 30
0.1576862335205078
 10
-1000.0
 20
-0.2215886116027832
 30
41.18984222412109
 10
-1000.0
 20
-6.448288440704345
 30
11.39044761657715
 10
-1000.0
 20
-6.189113140106201
 30
9.511114120483398
 93
     1116
 90
        4
 90
       31
 90
       34
 90
       33
 90
       32
 90
        3
 90
       35
 90
       37
 90
       36
 90
        3
 90
       36
 90
       37
 90
       38
 90
        3
 90
       38
 90
       37
 90
       39
 90
        3
 90
       39
 90
       37
 90
       40
 90
        3
 90
       40
 90
       37
 90
       41
 90
        3
 90
       41
 90
       37
 90
       42
 90
        3
 90
       42
 90
       37
 90
       43
 90
        4
 90
       43
 90
       37
 90
       45
 90
       44
 90
        3
 90
       46
 90
       45
 90
       47
 90
        3
 90
       47
 90
       45
 90
       48
 90
        3
 90
       49
 90
       45
 90
       46
 90
        3
 90
       50
 90
       45
 90
       49
 90
        3
 90
       51
 90
       45
 90
       52
 90
        3
 90
       52
 90
       45
 90
       50
 90
        3
 90
       44
 90
       45
 90
       53
 90
        3
 90
       53
 90
       45
 90
       51
 90
        3
 90
       54
 90
       56
 90
       55
 90
        4
 90
       55
 90
       56
 90
       58
 90
       57
 90
        3
 90
       59
 90
       56
 90
       54
 90
        3
 90
       60
 90
       56
 90
       59
 90
        3
 90
       61
 90
       56
 90
       60
 90
        3
 90
       62
 90
       56
 90
       61
 90
        3
 90
       63
 90
       56
 90
       62
 90
        3
 90
       64
 90
       56
 90
       63
 90
        3
 90
       65
 90
       67
 90
       66
 90
        4
 90
       66
 90
       67
 90
       56
 90
       64
 90
        3
 90
       68
 90
       67
 90
       69
 90
        3
 90
       69
 90
       67
 90
       65
 90
        3
 90
       70
 90
       67
 90
       71
 90
        3
 90
       71
 90
       67
 90
       68
 90
        3
 90
       72
 90
       67
 90
       73
 90
        3
 90
       73
 90
       67
 90
       70
 90
        3
 90
       74
 90
       76
 90
       75
 90
        4
 90
       75
 90
       76
 90
       67
 90
       72
 90
        3
 90
       77
 90
       76
 90
       78
 90
        3
 90
       78
 90
       76
 90
       74
 90
        3
 90
       79
 90
       76
 90
       80
 90
        3
 90
       80
 90
       76
 90
       77
 90
        3
 90
       81
 90
       83
 90
       82
 90
        4
 90
       82
 90
       83
 90
       76
 90
       79
 90
        3
 90
       84
 90
       86
 90
       85
 90
        4
 90
       85
 90
       86
 90
       83
 90
       81
 90
        3
 90
       87
 90
       89
 90
       88
 90
        4
 90
       88
 90
       89
 90
       86
 90
       84
 90
        3
 90
       48
 90
       89
 90
       87
 90
        4
 90
       48
 90
       45
 90
       90
 90
       89
 90
        3
 90
       33
 90
       34
 90
       91
 90
        3
 90
       91
 90
       34
 90
       92
 90
        3
 90
       92
 90
       34
 90
       93
 90
        3
 90
       93
 90
       34
 90
       94
 90
        3
 90
       94
 90
       34
 90
       95
 90
        3
 90
       95
 90
       34
 90
       96
 90
        3
 90
       96
 90
       34
 90
       97
 90
        4
 90
       97
 90
       34
 90
       99
 90
       98
 90
        3
 90
       98
 90
       99
 90
      100
 90
        3
 90
      100
 90
       99
 90
      101
 90
        3
 90
      101
 90
       99
 90
      102
 90
        3
 90
      102
 90
       99
 90
      103
 90
        3
 90
      103
 90
       99
 90
      104
 90
        3
 90
      104
 90
       99
 90
      105
 90
        3
 90
      105
 90
       99
 90
      106
 90
        4
 90
      106
 90
       99
 90
      108
 90
      107
 90
        3
 90
      107
 90
      108
 90
      109
 90
        3
 90
      109
 90
      108
 90
      110
 90
        3
 90
      110
 90
      108
 90
      111
 90
        3
 90
      111
 90
      108
 90
      112
 90
        3
 90
      112
 90
      108
 90
      113
 90
        4
 90
      113
 90
      108
 90
      115
 90
      114
 90
        3
 90
      114
 90
      115
 90
      116
 90
        4
 90
      116
 90
      115
 90
      118
 90
      117
 90
        3
 90
      117
 90
      118
 90
      119
 90
        4
 90
      119
 90
      118
 90
      121
 90
      120
 90
        3
 90
      122
 90
      121
 90
      123
 90
        4
 90
      123
 90
      121
 90
      124
 90
       37
 90
        3
 90
      120
 90
      121
 90
      122
 90
        3
 90
      123
 90
       37
 90
       35
 90
        4
 90
      184
 90
      125
 90
       31
 90
       32
 90
        4
 90
      125
 90
      167
 90
       34
 90
       31
 90
        4
 90
      167
 90
      159
 90
       99
 90
       34
 90
        4
 90
      159
 90
        0
 90
      108
 90
       99
 90
        4
 90
        0
 90
      138
 90
      115
 90
      108
 90
        4
 90
      138
 90
      142
 90
      118
 90
      115
 90
        4
 90
      142
 90
      143
 90
      121
 90
      118
 90
        4
 90
      143
 90
        1
 90
      124
 90
      121
 90
        4
 90
        1
 90
      126
 90
       37
 90
      124
 90
        4
 90
      126
 90
      144
 90
       45
 90
       37
 90
        4
 90
      144
 90
        2
 90
       90
 90
       45
 90
        4
 90
        2
 90
      168
 90
       89
 90
       90
 90
        4
 90
      168
 90
      137
 90
       86
 90
       89
 90
        4
 90
      137
 90
        3
 90
       83
 90
       86
 90
        4
 90
        3
 90
      185
 90
       76
 90
       83
 90
        4
 90
      185
 90
        4
 90
       67
 90
       76
 90
        4
 90
        4
 90
        5
 90
       56
 90
       67
 90
        4
 90
        5
 90
      135
 90
       58
 90
       56
 90
        4
 90
      135
 90
      136
 90
       57
 90
       58
 90
        4
 90
      136
 90
        6
 90
       55
 90
       57
 90
        4
 90
        6
 90
      169
 90
       54
 90
       55
 90
        4
 90
      169
 90
      145
 90
       59
 90
       54
 90
        4
 90
      145
 90
        7
 90
       60
 90
       59
 90
        4
 90
        7
 90
      170
 90
       61
 90
       60
 90
        4
 90
      170
 90
        8
 90
       62
 90
       61
 90
        4
 90
        8
 90
      127
 90
       63
 90
       62
 90
        4
 90
      127
 90
      171
 90
       64
 90
       63
 90
        4
 90
      171
 90
      146
 90
       66
 90
       64
 90
        4
 90
      146
 90
        9
 90
       65
 90
       66
 90
        4
 90
        9
 90
       10
 90
       69
 90
       65
 90
        4
 90
       10
 90
      172
 90
       68
 90
       69
 90
        4
 90
      172
 90
       11
 90
       71
 90
       68
 90
        4
 90
       11
 90
      128
 90
       70
 90
       71
 90
        4
 90
      128
 90
       12
 90
       73
 90
       70
 90
        4
 90
       12
 90
      147
 90
       72
 90
       73
 90
        4
 90
      147
 90
       13
 90
       75
 90
       72
 90
        4
 90
       13
 90
      173
 90
       74
 90
       75
 90
        4
 90
      173
 90
      174
 90
       78
 90
       74
 90
        4
 90
      174
 90
      148
 90
       77
 90
       78
 90
        4
 90
      148
 90
      129
 90
       80
 90
       77
 90
        4
 90
      129
 90
      175
 90
       79
 90
       80
 90
        4
 90
      175
 90
      130
 90
       82
 90
       79
 90
        4
 90
      130
 90
      149
 90
       81
 90
       82
 90
        4
 90
      149
 90
       14
 90
       85
 90
       81
 90
        4
 90
       14
 90
      165
 90
       84
 90
       85
 90
        4
 90
      165
 90
      166
 90
       88
 90
       84
 90
        4
 90
      166
 90
       30
 90
       87
 90
       88
 90
        4
 90
       30
 90
       24
 90
       48
 90
       87
 90
        4
 90
       24
 90
      162
 90
       47
 90
       48
 90
        4
 90
      162
 90
       28
 90
       46
 90
       47
 90
        4
 90
       28
 90
      163
 90
       49
 90
       46
 90
        4
 90
      163
 90
       15
 90
       50
 90
       49
 90
        4
 90
       15
 90
      141
 90
       52
 90
       50
 90
        4
 90
      141
 90
       29
 90
       51
 90
       52
 90
        4
 90
       29
 90
      164
 90
       53
 90
       51
 90
        4
 90
      164
 90
      131
 90
       44
 90
       53
 90
        4
 90
      131
 90
      139
 90
       43
 90
       44
 90
        4
 90
      139
 90
      140
 90
       42
 90
       43
 90
        4
 90
      140
 90
       25
 90
       41
 90
       42
 90
        4
 90
       25
 90
      176
 90
       40
 90
       41
 90
        4
 90
      176
 90
      186
 90
       39
 90
       40
 90
        4
 90
      186
 90
       26
 90
       38
 90
       39
 90
        4
 90
       26
 90
      161
 90
       36
 90
       38
 90
        4
 90
      161
 90
      150
 90
       35
 90
       36
 90
        4
 90
      150
 90
      160
 90
      123
 90
       35
 90
        4
 90
      160
 90
       27
 90
      122
 90
      123
 90
        4
 90
       27
 90
      187
 90
      120
 90
      122
 90
        4
 90
      187
 90
       16
 90
      119
 90
      120
 90
        4
 90
       16
 90
      151
 90
      117
 90
      119
 90
        4
 90
      151
 90
      152
 90
      116
 90
      117
 90
        4
 90
      152
 90
       17
 90
      114
 90
      116
 90
        4
 90
       17
 90
       18
 90
      113
 90
      114
 90
        4
 90
       18
 90
      132
 90
      112
 90
      113
 90
        4
 90
      132
 90
      177
 90
      111
 90
      112
 90
        4
 90
      177
 90
      133
 90
      110
 90
      111
 90
        4
 90
      133
 90
       19
 90
      109
 90
      110
 90
        4
 90
       19
 90
      153
 90
      107
 90
      109
 90
        4
 90
      153
 90
      154
 90
      106
 90
      107
 90
        4
 90
      154
 90
      155
 90
      105
 90
      106
 90
        4
 90
      155
 90
      178
 90
      104
 90
      105
 90
        4
 90
      178
 90
      179
 90
      103
 90
      104
 90
        4
 90
      179
 90
       20
 90
      102
 90
      103
 90
        4
 90
       20
 90
       21
 90
      101
 90
      102
 90
        4
 90
       21
 90
      180
 90
      100
 90
      101
 90
        4
 90
      180
 90
      134
 90
       98
 90
      100
 90
        4
 90
      134
 90
       22
 90
       97
 90
       98
 90
        4
 90
       22
 90
      156
 90
       96
 90
       97
 90
        4
 90
      156
 90
      157
 90
       95
 90
       96
 90
        4
 90
      157
 90
      158
 90
       94
 90
       95
 90
        4
 90
      158
 90
      181
 90
       93
 90
       94
 90
        4
 90
      181
 90
       23
 90
       92
 90
       93
 90
        4
 90
       23
 90
      182
 90
       91
 90
       92
 90
        4
 90
      182
 90
      183
 90
       33
 90
       91
 90
        4
 90
      183
 90
      184
 90
       32
 90
       33
 90
        4
 90
      125
 90
      184
 90
      183
 90
      167
 90
        3
 90
      150
 90
      161
 90
      126
 90
        3
 90
      161
 90
       26
 90
      126
 90
        3
 90
       26
 90
      186
 90
      126
 90
        3
 90
      186
 90
      176
 90
      126
 90
        3
 90
      176
 90
       25
 90
      126
 90
        3
 90
       25
 90
      140
 90
      126
 90
        3
 90
      140
 90
      139
 90
      126
 90
        4
 90
      139
 90
      131
 90
      144
 90
      126
 90
        3
 90
       28
 90
      162
 90
      144
 90
        3
 90
      162
 90
       24
 90
      144
 90
        3
 90
      163
 90
       28
 90
      144
 90
        3
 90
       15
 90
      163
 90
      144
 90
        3
 90
       29
 90
      141
 90
      144
 90
        3
 90
      141
 90
       15
 90
      144
 90
        3
 90
      131
 90
      164
 90
      144
 90
        3
 90
      164
 90
       29
 90
      144
 90
        3
 90
      169
 90
        6
 90
        5
 90
        4
 90
        6
 90
      136
 90
      135
 90
        5
 90
        3
 90
      145
 90
      169
 90
        5
 90
        3
 90
        7
 90
      145
 90
        5
 90
        3
 90
      170
 90
        7
 90
        5
 90
        3
 90
        8
 90
      170
 90
        5
 90
        3
 90
      127
 90
        8
 90
        5
 90
        3
 90
      171
 90
      127
 90
        5
 90
        3
 90
        9
 90
      146
 90
        4
 90
        4
 90
      146
 90
      171
 90
        5
 90
        4
 90
        3
 90
      172
 90
       10
 90
        4
 90
        3
 90
       10
 90
        9
 90
        4
 90
        3
 90
      128
 90
       11
 90
        4
 90
        3
 90
       11
 90
      172
 90
        4
 90
        3
 90
      147
 90
       12
 90
        4
 90
        3
 90
       12
 90
      128
 90
        4
 90
        3
 90
      173
 90
       13
 90
      185
 90
        4
 90
       13
 90
      147
 90
        4
 90
      185
 90
        3
 90
      148
 90
      174
 90
      185
 90
        3
 90
      174
 90
      173
 90
      185
 90
        3
 90
      175
 90
      129
 90
      185
 90
        3
 90
      129
 90
      148
 90
      185
 90
        3
 90
      149
 90
      130
 90
        3
 90
        4
 90
      130
 90
      175
 90
      185
 90
        3
 90
        3
 90
      165
 90
       14
 90
      137
 90
        4
 90
       14
 90
      149
 90
        3
 90
      137
 90
        3
 90
       30
 90
      166
 90
      168
 90
        4
 90
      166
 90
      165
 90
      137
 90
      168
 90
        3
 90
       24
 90
       30
 90
      168
 90
        4
 90
       24
 90
      168
 90
        2
 90
      144
 90
        3
 90
      183
 90
      182
 90
      167
 90
        3
 90
      182
 90
       23
 90
      167
 90
        3
 90
       23
 90
      181
 90
      167
 90
        3
 90
      181
 90
      158
 90
      167
 90
        3
 90
      158
 90
      157
 90
      167
 90
        3
 90
      157
 90
      156
 90
      167
 90
        3
 90
      156
 90
       22
 90
      167
 90
        4
 90
       22
 90
      134
 90
      159
 90
      167
 90
        3
 90
      134
 90
      180
 90
      159
 90
        3
 90
      180
 90
       21
 90
      159
 90
        3
 90
       21
 90
       20
 90
      159
 90
        3
 90
       20
 90
      179
 90
      159
 90
        3
 90
      179
 90
      178
 90
      159
 90
        3
 90
      178
 90
      155
 90
      159
 90
        3
 90
      155
 90
      154
 90
      159
 90
        4
 90
      154
 90
      153
 90
        0
 90
      159
 90
        3
 90
      153
 90
       19
 90
        0
 90
        3
 90
       19
 90
      133
 90
        0
 90
        3
 90
      133
 90
      177
 90
        0
 90
        3
 90
      177
 90
      132
 90
        0
 90
        3
 90
      132
 90
       18
 90
        0
 90
        4
 90
       18
 90
       17
 90
      138
 90
        0
 90
        3
 90
       17
 90
      152
 90
      138
 90
        4
 90
      152
 90
      151
 90
      142
 90
      138
 90
        3
 90
      151
 90
       16
 90
      142
 90
        4
 90
       16
 90
      187
 90
      143
 90
      142
 90
        3
 90
       27
 90
      160
 90
      143
 90
        4
 90
      160
 90
      126
 90
        1
 90
      143
 90
        3
 90
      187
 90
       27
 90
      143
 90
        3
 90
      160
 90
      150
 90
      126
 94
      434
 90
       31
 90
       34
 90
       33
 90
       34
 90
       32
 90
       33
 90
       31
 90
       32
 90
       35
 90
       37
 90
       36
 90
       37
 90
       35
 90
       36
 90
       37
 90
       38
 90
       36
 90
       38
 90
       37
 90
       39
 90
       38
 90
       39
 90
       37
 90
       40
 90
       39
 90
       40
 90
       37
 90
       41
 90
       40
 90
       41
 90
       37
 90
       42
 90
       41
 90
       42
 90
       37
 90
       43
 90
       42
 90
       43
 90
       37
 90
       45
 90
       44
 90
       45
 90
       43
 90
       44
 90
       45
 90
       46
 90
       45
 90
       47
 90
       46
 90
       47
 90
       45
 90
       48
 90
       47
 90
       48
 90
       45
 90
       49
 90
       46
 90
       49
 90
       45
 90
       50
 90
       49
 90
       50
 90
       45
 90
       51
 90
       45
 90
       52
 90
       51
 90
       52
 90
       50
 90
       52
 90
       45
 90
       53
 90
       44
 90
       53
 90
       51
 90
       53
 90
       54
 90
       56
 90
       55
 90
       56
 90
       54
 90
       55
 90
       56
 90
       58
 90
       57
 90
       58
 90
       55
 90
       57
 90
       56
 90
       59
 90
       54
 90
       59
 90
       56
 90
       60
 90
       59
 90
       60
 90
       56
 90
       61
 90
       60
 90
       61
 90
       56
 90
       62
 90
       61
 90
       62
 90
       56
 90
       63
 90
       62
 90
       63
 90
       56
 90
       64
 90
       63
 90
       64
 90
       65
 90
       67
 90
       66
 90
       67
 90
       65
 90
       66
 90
       56
 90
       67
 90
       64
 90
       66
 90
       67
 90
       68
 90
       67
 90
       69
 90
       68
 90
       69
 90
       65
 90
       69
 90
       67
 90
       70
 90
       67
 90
       71
 90
       70
 90
       71
 90
       68
 90
       71
 90
       67
 90
       72
 90
       67
 90
       73
 90
       72
 90
       73
 90
       70
 90
       73
 90
       74
 90
       76
 90
       75
 90
       76
 90
       74
 90
       75
 90
       67
 90
       76
 90
       72
 90
       75
 90
       76
 90
       77
 90
       76
 90
       78
 90
       77
 90
       78
 90
       74
 90
       78
 90
       76
 90
       79
 90
       76
 90
       80
 90
       79
 90
       80
 90
       77
 90
       80
 90
       81
 90
       83
 90
       82
 90
       83
 90
       81
 90
       82
 90
       76
 90
       83
 90
       79
 90
       82
 90
       84
 90
       86
 90
       85
 90
       86
 90
       84
 90
       85
 90
       83
 90
       86
 90
       81
 90
       85
 90
       87
 90
       89
 90
       88
 90
       89
 90
       87
 90
       88
 90
       86
 90
       89
 90
       84
 90
       88
 90
       48
 90
       89
 90
       48
 90
       87
 90
       45
 90
       90
 90
       89
 90
       90
 90
       34
 90
       91
 90
       33
 90
       91
 90
       34
 90
       92
 90
       91
 90
       92
 90
       34
 90
       93
 90
       92
 90
       93
 90
       34
 90
       94
 90
       93
 90
       94
 90
       34
 90
       95
 90
       94
 90
       95
 90
       34
 90
       96
 90
       95
 90
       96
 90
       34
 90
       97
 90
       96
 90
       97
 90
       34
 90
       99
 90
       98
 90
       99
 90
       97
 90
       98
 90
       99
 90
      100
 90
       98
 90
      100
 90
       99
 90
      101
 90
      100
 90
      101
 90
       99
 90
      102
 90
      101
 90
      102
 90
       99
 90
      103
 90
      102
 90
      103
 90
       99
 90
      104
 90
      103
 90
      104
 90
       99
 90
      105
 90
      104
 90
      105
 90
       99
 90
      106
 90
      105
 90
      106
 90
       99
 90
      108
 90
      107
 90
      108
 90
      106
 90
      107
 90
      108
 90
      109
 90
      107
 90
      109
 90
      108
 90
      110
 90
      109
 90
      110
 90
      108
 90
      111
 90
      110
 90
      111
 90
      108
 90
      112
 90
      111
 90
      112
 90
      108
 90
      113
 90
      112
 90
      113
 90
      108
 90
      115
 90
      114
 90
      115
 90
      113
 90
      114
 90
      115
 90
      116
 90
      114
 90
      116
 90
      115
 90
      118
 90
      117
 90
      118
 90
      116
 90
      117
 90
      118
 90
      119
 90
      117
 90
      119
 90
      118
 90
      121
 90
      120
 90
      121
 90
      119
 90
      120
 90
      121
 90
      122
 90
      121
 90
      123
 90
      122
 90
      123
 90
      121
 90
      124
 90
       37
 90
      124
 90
       37
 90
      123
 90
      120
 90
      122
 90
       35
 90
      123
 90
      125
 90
      184
 90
       31
 90
      125
 90
       32
 90
      184
 90
      125
 90
      167
 90
       34
 90
      167
 90
      159
 90
      167
 90
       99
 90
      159
 90
        0
 90
      159
 90
        0
 90
      108
 90
        0
 90
      138
 90
      115
 90
      138
 90
      138
 90
      142
 90
      118
 90
      142
 90
      142
 90
      143
 90
      121
 90
      143
 90
        1
 90
      143
 90
        1
 90
      124
 90
        1
 90
      126
 90
       37
 90
      126
 90
      126
 90
      144
 90
       45
 90
      144
 90
        2
 90
      144
 90
        2
 90
       90
 90
        2
 90
      168
 90
       89
 90
      168
 90
      137
 90
      168
 90
       86
 90
      137
 90
        3
 90
      137
 90
        3
 90
       83
 90
        3
 90
      185
 90
       76
 90
      185
 90
        4
 90
      185
 90
        4
 90
       67
 90
        4
 90
        5
 90
        5
 90
       56
 90
        5
 90
      135
 90
       58
 90
      135
 90
      135
 90
      136
 90
       57
 90
      136
 90
        6
 90
      136
 90
        6
 90
       55
 90
        6
 90
      169
 90
       54
 90
      169
 90
      145
 90
      169
 90
       59
 90
      145
 90
        7
 90
      145
 90
        7
 90
       60
 90
        7
 90
      170
 90
       61
 90
      170
 90
        8
 90
      170
 90
        8
 90
       62
 90
        8
 90
      127
 90
       63
 90
      127
 90
      127
 90
      171
 90
       64
 90
      171
 90
      146
 90
      171
 90
       66
 90
      146
 90
        9
 90
      146
 90
        9
 90
       65
 90
        9
 90
       10
 90
       10
 90
       69
 90
       10
 90
      172
 90
       68
 90
      172
 90
       11
 90
      172
 90
       11
 90
       71
 90
       11
 90
      128
 90
       70
 90
      128
 90
       12
 90
      128
 90
       12
 90
       73
 90
       12
 90
      147
 90
       72
 90
      147
 90
       13
 90
      147
 90
       13
 90
       75
 90
       13
 90
      173
 90
       74
 90
      173
 90
      173
 90
      174
 90
       78
 90
      174
 90
      148
 90
      174
 90
       77
 90
      148
 90
      129
 90
      148
 90
       80
 90
      129
 90
      129
 90
      175
 90
       79
 90
      175
 90
      130
 90
      175
 90
       82
 90
      130
 90
      130
 90
      149
 90
       81
 90
      149
 90
       14
 90
      149
 90
       14
 90
       85
 90
       14
 90
      165
 90
       84
 90
      165
 90
      165
 90
      166
 90
       88
 90
      166
 90
       30
 90
      166
 90
       30
 90
       87
 90
       24
 90
       30
 90
       24
 90
       48
 90
       24
 90
      162
 90
       47
 90
      162
 90
       28
 90
      162
 90
       28
 90
       46
 90
       28
 90
      163
 90
       49
 90
      163
 90
       15
 90
      163
 90
       15
 90
       50
 90
       15
 90
      141
 90
       52
 90
      141
 90
       29
 90
      141
 90
       29
 90
       51
 90
       29
 90
      164
 90
       53
 90
      164
 90
      131
 90
      164
 90
       44
 90
      131
 90
      131
 90
      139
 90
       43
 90
      139
 90
      139
 90
      140
 90
       42
 90
      140
 90
       25
 90
      140
 90
       25
 90
       41
 90
       25
 90
      176
 90
       40
 90
      176
 90
      176
 90
      186
 90
       39
 90
      186
 90
       26
 90
      186
 90
       26
 90
       38
 90
       26
 90
      161
 90
       36
 90
      161
 90
      150
 90
      161
 90
       35
 90
      150
 90
      150
 90
      160
 90
      123
 90
      160
 90
       27
 90
      160
 90
       27
 90
      122
 90
       27
 90
      187
 90
      120
 90
      187
 90
       16
 90
      187
 90
       16
 90
      119
 90
       16
 90
      151
 90
      117
 90
      151
 90
      151
 90
      152
 90
      116
 90
      152
 90
       17
 90
      152
 90
       17
 90
      114
 90
       17
 90
       18
 90
       18
 90
      113
 90
       18
 90
      132
 90
      112
 90
      132
 90
      132
 90
      177
 90
      111
 90
      177
 90
      133
 90
      177
 90
      110
 90
      133
 90
       19
 90
      133
 90
       19
 90
      109
 90
       19
 90
      153
 90
      107
 90
      153
 90
      153
 90
      154
 90
      106
 90
      154
 90
      154
 90
      155
 90
      105
 90
      155
 90
      155
 90
      178
 90
      104
 90
      178
 90
      178
 90
      179
 90
      103
 90
      179
 90
       20
 90
      179
 90
       20
 90
      102
 90
       20
 90
       21
 90
       21
 90
      101
 90
       21
 90
      180
 90
      100
 90
      180
 90
      134
 90
      180
 90
       98
 90
      134
 90
       22
 90
      134
 90
       22
 90
       97
 90
       22
 90
      156
 90
       96
 90
      156
 90
      156
 90
      157
 90
       95
 90
      157
 90
      157
 90
      158
 90
       94
 90
      158
 90
      158
 90
      181
 90
       93
 90
      181
 90
       23
 90
      181
 90
       23
 90
       92
 90
       23
 90
      182
 90
       91
 90
      182
 90
      182
 90
      183
 90
       33
 90
      183
 90
      183
 90
      184
 90
      167
 90
      183
 90
      126
 90
      161
 90
      126
 90
      150
 90
       26
 90
      126
 90
      126
 90
      186
 90
      126
 90
      176
 90
       25
 90
      126
 90
      126
 90
      140
 90
      126
 90
      139
 90
      131
 90
      144
 90
      144
 90
      162
 90
       28
 90
      144
 90
       24
 90
      144
 90
      144
 90
      163
 90
       15
 90
      144
 90
      141
 90
      144
 90
       29
 90
      144
 90
      144
 90
      164
 90
        5
 90
        6
 90
        5
 90
      169
 90
        5
 90
      145
 90
        5
 90
        7
 90
        5
 90
      170
 90
        5
 90
        8
 90
        5
 90
      127
 90
        5
 90
      171
 90
        4
 90
      146
 90
        4
 90
        9
 90
        4
 90
       10
 90
        4
 90
      172
 90
        4
 90
       11
 90
        4
 90
      128
 90
        4
 90
       12
 90
        4
 90
      147
 90
       13
 90
      185
 90
      173
 90
      185
 90
      174
 90
      185
 90
      148
 90
      185
 90
      129
 90
      185
 90
      175
 90
      185
 90
        3
 90
      130
 90
        3
 90
      149
 90
       14
 90
      137
 90
      137
 90
      165
 90
      166
 90
      168
 90
       30
 90
      168
 90
       24
 90
      168
 90
      167
 90
      182
 90
       23
 90
      167
 90
      167
 90
      181
 90
      158
 90
      167
 90
      157
 90
      167
 90
      156
 90
      167
 90
       22
 90
      167
 90
      134
 90
      159
 90
      159
 90
      180
 90
       21
 90
      159
 90
       20
 90
      159
 90
      159
 90
      179
 90
      159
 90
      178
 90
      155
 90
      159
 90
      154
 90
      159
 90
        0
 90
      153
 90
        0
 90
       19
 90
        0
 90
      133
 90
        0
 90
      177
 90
        0
 90
      132
 90
        0
 90
       18
 90
       17
 90
      138
 90
      138
 90
      152
 90
      142
 90
      151
 90
       16
 90
      142
 90
      143
 90
      187
 90
      143
 90
      160
 90
       27
 90
      143
 90
      126
 90
      160
 95
      434
140
0.0
140
0.0
140
0.0
140
0.0
140
0.0
140
0.0
140
0.0
140
0.0
140
0.0
140
0.0
140
0.0
140
0.0
140
0.0
140
0.0
140
0.0
140
0.0
140
0.0
140
0.0
140
0.0
140
0.0
140
0.0
140
0.0
140
0.0
140
0.0
140
0.0
140
0.0
140
0.0
140
0.0
140
0.0
140
0.0
140
0.0
140
0.0
140
0.0
140
0.0
140
0.0
140
0.0
140
0.0
140
0.0
140
0.0
140
0.0
140
0.0
140
0.0
140
0.0
140
0.0
140
0.0
140
0.0
140
0.0
140
0.0
140
0.0
140
0.0
140
0.0
140
0.0
140
0.0
140
0.0
140
0.0
140
0.0
140
0.0
140
0.0
140
0.0
140
0.0
140
0.0
140
0.0
140
0.0
140
0.0
140
0.0
140
0.0
140
0.0
140
0.0
140
0.0
140
0.0
140
0.0
140
0.0
140
0.0
140
0.0
140
0.0
140
0.0
140
0.0
140
0.0
140
0.0
140
0.0
140
0.0
140
0.0
140
0.0
140
0.0
140
0.0
140
0.0
140
0.0
140
0.0
140
0.0
140
0.0
140
0.0
140
0.0
140
0.0
140
0.0
140
0.0
140
0.0
140
0.0
140
0.0
140
0.0
140
0.0
140
0.0
140
0.0
140
0.0
140
0.0
140
0.0
140
0.0
140
0.0
140
0.0
140
0.0
140
0.0
140
0.0
140
0.0
140
0.0
140
0.0
140
0.0
140
0.0
140
0.0
140
0.0
140
0.0
140
0.0
140
0.0
140
0.0
140
0.0
140
0.0
140
0.0
140
0.0
140
0.0
140
0.0
140
0.0
140
0.0
140
0.0
140
0.0
140
0.0
140
0.0
140
0.0
140
0.0
140
0.0
140
0.0
140
0.0
140
0.0
140
0.0
140
0.0
140
0.0
140
0.0
140
0.0
140
0.0
140
0.0
140
0.0
140
0.0
140
0.0
140
0.0
140
0.0
140
0.0
140
0.0
140
0.0
140
0.0
140
0.0
140
0.0
140
0.0
140
0.0
140
0.0
140
0.0
140
0.0
140
0.0
140
0.0
140
0.0
140
0.0
140
0.0
140
0.0
140
0.0
140
0.0
140
0.0
140
0.0
140
0.0
140
0.0
140
0.0
140
0.0
140
0.0
140
0.0
140
0.0
140
0.0
140
0.0
140
0.0
140
0.0
140
0.0
140
0.0
140
0.0
140
0.0
140
0.0
140
0.0
140
0.0
140
0.0
140
0.0
140
0.0
140
0.0
140
0.0
140
0.0
140
0.0
140
0.0
140
0.0
140
0.0
140
0.0
140
0.0
140
0.0
140
0.0
140
0.0
140
0.0
140
0.0
140
0.0
140
0.0
140
0.0
140
0.0
140
0.0
140
0.0
140
0.0
140
0.0
140
0.0
140
0.0
140
0.0
140
0.0
140
0.0
140
0.0
140
0.0
140
0.0
140
0.0
140
0.0
140
0.0
140
0.0
140
0.0
140
0.0
140
0.0
140
0.0
140
0.0
140
0.0
140
0.0
140
0.0
140
0.0
140
0.0
140
0.0
140
0.0
140
0.0
140
0.0
140
0.0
140
0.0
140
0.0
140
0.0
140
0.0
140
0.0
140
0.0
140
0.0
140
0.0
140
0.0
140
0.0
140
0.0
140
0.0
140
0.0
140
0.0
140
0.0
140
0.0
140
0.0
140
0.0
140
0.0
140
0.0
140
0.0
140
0.0
140
0.0
140
0.0
140
0.0
140
0.0
140
0.0
140
0.0
140
0.0
140
0.0
140
0.0
140
0.0
140
0.0
140
0.0
140
0.0
140
0.0
140
0.0
140
0.0
140
0.0
140
0.0
140
0.0
140
0.0
140
0.0
140
0.0
140
0.0
140
0.0
140
0.0
140
0.0
140
0.0
140
0.0
140
0.0
140
0.0
140
0.0
140
0.0
140
0.0
140
0.0
140
0.0
140
0.0
140
0.0
140
0.0
140
0.0
140
0.0
140
0.0
140
0.0
140
0.0
140
0.0
140
0.0
140
0.0
140
0.0
140
0.0
140
0.0
140
0.0
140
0.0
140
0.0
140
0.0
140
0.0
140
0.0
140
0.0
140
0.0
140
0.0
140
0.0
140
0.0
140
0.0
140
0.0
140
0.0
140
0.0
140
0.0
140
0.0
140
0.0
140
0.0
140
0.0
140
0.0
140
0.0
140
0.0
140
0.0
140
0.0
140
0.0
140
0.0
140
0.0
140
0.0
140
0.0
140
0.0
140
0.0
140
0.0
140
0.0
140
0.0
140
0.0
140
0.0
140
0.0
140
0.0
140
0.0
140
0.0
140
0.0
140
0.0
140
0.0
140
0.0
140
0.0
140
0.0
140
0.0
140
0.0
140
0.0
140
0.0
140
0.0
140
0.0
140
0.0
140
0.0
140
0.0
140
0.0
140
0.0
140
0.0
140
0.0
140
0.0
140
0.0
140
0.0
140
0.0
140
0.0
140
0.0
140
0.0
140
0.0
140
0.0
140
0.0
140
0.0
140
0.0
140
0.0
140
0.0
140
0.0
140
0.0
140
0.0
140
0.0
140
0.0
140
0.0
140
0.0
140
0.0
140
0.0
140
0.0
140
0.0
140
0.0
140
0.0
140
0.0
140
0.0
140
0.0
140
0.0
140
0.0
140
0.0
140
0.0
140
0.0
140
0.0
140
0.0
140
0.0
140
0.0
140
0.0
140
0.0
140
0.0
140
0.0
140
0.0
140
0.0
140
0.0
140
0.0
140
0.0
140
0.0
140
0.0
140
0.0
140
0.0
140
0.0
140
0.0
140
0.0
140
0.0
140
0.0
140
0.0
140
0.0
140
0.0
 90
        0
  0
POLYLINE
  5
FA
330
1F
100
AcDbEntity
  8
OracDecor_panel_moldings
 62
    24
420
 11541018
100
AcDb2dPolyline
 66
     1
 10
0.0
 20
0.0
 30
-0.0000005077947094
 70
     1
210
-0.9999999999999769
220
0.0000001788139343
230
-0.0000001192092896
  0
VERTEX
  5
FB
330
FA
100
AcDbEntity
  8
OracDecor_panel_moldings
 62
    24
420
 11541018
100
AcDbVertex
100
AcDb2dVertex
 10
-7.873981475830078
 20
6.126230239868164
 30
-0.0000005077947094
  0
VERTEX
  5
FC
330
FA
100
AcDbEntity
  8
OracDecor_panel_moldings
 62
    24
420
 11541018
100
AcDbVertex
100
AcDb2dVertex
 10
-7.599272727966308
 20
5.76664924621582
 30
-0.0000005077947094
  0
VERTEX
  5
FD
330
FA
100
AcDbEntity
  8
OracDecor_panel_moldings
 62
    24
420
 11541018
100
AcDbVertex
100
AcDb2dVertex
 10
-7.256640911102294
 20
5.41225242614746
 30
-0.0000005077947094
  0
VERTEX
  5
FE
330
FA
100
AcDbEntity
  8
OracDecor_panel_moldings
 62
    24
420
 11541018
100
AcDbVertex
100
AcDb2dVertex
 10
-6.851781368255615
 20
5.059267044067382
 30
-0.0000005077947094
  0
VERTEX
  5
FF
330
FA
100
AcDbEntity
  8
OracDecor_panel_moldings
 62
    24
420
 11541018
100
AcDbVertex
100
AcDb2dVertex
 10
-6.402927875518798
 20
4.710683822631835
 30
-0.0000005077947094
  0
VERTEX
  5
100
330
FA
100
AcDbEntity
  8
OracDecor_panel_moldings
 62
    24
420
 11541018
100
AcDbVertex
100
AcDb2dVertex
 10
-5.950523853302001
 20
4.383127212524414
 30
-0.0000005077947094
  0
VERTEX
  5
101
330
FA
100
AcDbEntity
  8
OracDecor_panel_moldings
 62
    24
420
 11541018
100
AcDbVertex
100
AcDb2dVertex
 10
-5.468360424041748
 20
4.043607711791992
 30
-0.0000005077947094
  0
VERTEX
  5
102
330
FA
100
AcDbEntity
  8
OracDecor_panel_moldings
 62
    24
420
 11541018
100
AcDbVertex
100
AcDb2dVertex
 10
-5.040512084960937
 20
3.738554239273071
 30
-0.0000005077947094
  0
VERTEX
  5
103
330
FA
100
AcDbEntity
  8
OracDecor_panel_moldings
 62
    24
420
 11541018
100
AcDbVertex
100
AcDb2dVertex
 10
-4.644720554351806
 20
3.441297769546508
 30
-0.0000005077947094
  0
VERTEX
  5
104
330
FA
100
AcDbEntity
  8
OracDecor_panel_moldings
 62
    24
420
 11541018
100
AcDbVertex
100
AcDb2dVertex
 10
-4.279051303863525
 20
3.136049509048461
 30
-0.0000005077947094
  0
VERTEX
  5
105
330
FA
100
AcDbEntity
  8
OracDecor_panel_moldings
 62
    24
420
 11541018
100
AcDbVertex
100
AcDb2dVertex
 10
-3.940891504287719
 20
2.806276321411132
 30
-0.0000005077947094
  0
VERTEX
  5
106
330
FA
100
AcDbEntity
  8
OracDecor_panel_moldings
 62
    24
420
 11541018
100
AcDbVertex
100
AcDb2dVertex
 10
-3.665573835372924
 20
2.470991134643554
 30
-0.0000005077947094
  0
VERTEX
  5
107
330
FA
100
AcDbEntity
  8
OracDecor_panel_moldings
 62
    24
420
 11541018
100
AcDbVertex
100
AcDb2dVertex
 10
-3.436426877975463
 20
2.095952987670898
 30
-0.0000005077947094
  0
VERTEX
  5
108
330
FA
100
AcDbEntity
  8
OracDecor_panel_moldings
 62
    24
420
 11541018
100
AcDbVertex
100
AcDb2dVertex
 10
-3.259213685989379
 20
1.673669815063476
 30
-0.0000005077947094
  0
VERTEX
  5
109
330
FA
100
AcDbEntity
  8
OracDecor_panel_moldings
 62
    24
420
 11541018
100
AcDbVertex
100
AcDb2dVertex
 10
-3.134587287902832
 20
1.21660041809082
 30
-0.0000005077947094
  0
VERTEX
  5
10A
330
FA
100
AcDbEntity
  8
OracDecor_panel_moldings
 62
    24
420
 11541018
100
AcDbVertex
100
AcDb2dVertex
 10
-3.056251525878906
 20
0.742612898349762
 30
-0.0000005077947094
  0
VERTEX
  5
10B
330
FA
100
AcDbEntity
  8
OracDecor_panel_moldings
 62
    24
420
 11541018
100
AcDbVertex
100
AcDb2dVertex
 10
-3.008947610855102
 20
0.157686322927475
 30
-0.0000005077947094
  0
VERTEX
  5
10C
330
FA
100
AcDbEntity
  8
OracDecor_panel_moldings
 62
    24
420
 11541018
100
AcDbVertex
100
AcDb2dVertex
 10
-0.000002861023404
 20
-0.0000057220454437
 30
-0.0000005077947094
  0
VERTEX
  5
10D
330
FA
100
AcDbEntity
  8
OracDecor_panel_moldings
 62
    24
420
 11541018
100
AcDbVertex
100
AcDb2dVertex
 10
0.0000010122852245
 20
6.124809265136718
 30
-0.0000005077947094
  0
VERTEX
  5
10E
330
FA
100
AcDbEntity
  8
OracDecor_panel_moldings
 62
    24
420
 11541018
100
AcDbVertex
100
AcDb2dVertex
 10
-0.1686738878488541
 20
6.572193145751953
 30
-0.0000005077947094
  0
VERTEX
  5
10F
330
FA
100
AcDbEntity
  8
OracDecor_panel_moldings
 62
    24
420
 11541018
100
AcDbVertex
100
AcDb2dVertex
 10
-0.2215913534164429
 20
6.862548828125
 30
-0.0000005077947094
  0
VERTEX
  5
110
330
FA
100
AcDbEntity
  8
OracDecor_panel_moldings
 62
    24
420
 11541018
100
AcDbVertex
100
AcDb2dVertex
 10
-0.2215908467769623
 20
7.189846038818359
 30
-0.0000005077947094
  0
VERTEX
  5
111
330
FA
100
AcDbEntity
  8
OracDecor_panel_moldings
 62
    24
420
 11541018
100
AcDbVertex
100
AcDb2dVertex
 10
-0.1686752438545227
 20
7.480201721191406
 30
-0.0000005077947094
  0
VERTEX
  5
112
330
FA
100
AcDbEntity
  8
OracDecor_panel_moldings
 62
    24
420
 11541018
100
AcDbVertex
100
AcDb2dVertex
 10
-0.0000007374596294
 20
7.927587509155273
 30
-0.0000005077947094
  0
VERTEX
  5
113
330
FA
100
AcDbEntity
  8
OracDecor_panel_moldings
 62
    24
420
 11541018
100
AcDbVertex
100
AcDb2dVertex
 10
0.0000026130094284
 20
13.52619743347168
 30
-0.0000005077947094
  0
VERTEX
  5
114
330
FA
100
AcDbEntity
  8
OracDecor_panel_moldings
 62
    24
420
 11541018
100
AcDbVertex
100
AcDb2dVertex
 10
-1.499999284744262
 20
13.52619743347168
 30
-0.0000005077947094
  0
VERTEX
  5
115
330
FA
100
AcDbEntity
  8
OracDecor_panel_moldings
 62
    24
420
 11541018
100
AcDbVertex
100
AcDb2dVertex
 10
-1.499995350837707
 20
33.52619934082031
 30
-0.0000005077947094
  0
VERTEX
  5
116
330
FA
100
AcDbEntity
  8
OracDecor_panel_moldings
 62
    24
420
 11541018
100
AcDbVertex
100
AcDb2dVertex
 10
0.0000057919774008
 20
33.52619934082031
 30
-0.0000005077947094
  0
VERTEX
  5
117
330
FA
100
AcDbEntity
  8
OracDecor_panel_moldings
 62
    24
420
 11541018
100
AcDbVertex
100
AcDb2dVertex
 10
0.0000073225205597
 20
40.12480926513672
 30
-0.0000005077947094
  0
VERTEX
  5
118
330
FA
100
AcDbEntity
  8
OracDecor_panel_moldings
 62
    24
420
 11541018
100
AcDbVertex
100
AcDb2dVertex
 10
-0.1686671078205109
 20
40.57219696044922
 30
-0.0000005077947094
  0
VERTEX
  5
119
330
FA
100
AcDbEntity
  8
OracDecor_panel_moldings
 62
    24
420
 11541018
100
AcDbVertex
100
AcDb2dVertex
 10
-0.2215845584869385
 20
40.86254882812499
 30
-0.0000005077947094
  0
VERTEX
  5
11A
330
FA
100
AcDbEntity
  8
OracDecor_panel_moldings
 62
    24
420
 11541018
100
AcDbVertex
100
AcDb2dVertex
 10
-0.2215850055217743
 20
41.18984222412109
 30
-0.0000005077947094
  0
VERTEX
  5
11B
330
FA
100
AcDbEntity
  8
OracDecor_panel_moldings
 62
    24
420
 11541018
100
AcDbVertex
100
AcDb2dVertex
 10
-0.1686675101518631
 20
41.4802017211914
 30
-0.0000005077947094
  0
VERTEX
  5
11C
330
FA
100
AcDbEntity
  8
OracDecor_panel_moldings
 62
    24
420
 11541018
100
AcDbVertex
100
AcDb2dVertex
 10
0.0000070032865551
 20
41.92758178710938
 30
-0.0000005077947094
  0
VERTEX
  5
11D
330
FA
100
AcDbEntity
  8
OracDecor_panel_moldings
 62
    24
420
 11541018
100
AcDbVertex
100
AcDb2dVertex
 10
0.0000107845908133
 20
46.99999237060547
 30
-0.0000005077947094
  0
VERTEX
  5
11E
330
FA
100
AcDbEntity
  8
OracDecor_panel_moldings
 62
    24
420
 11541018
100
AcDbVertex
100
AcDb2dVertex
 10
-3.01130199432373
 20
46.84217834472656
 30
-0.0000005077947094
  0
VERTEX
  5
11F
330
FA
100
AcDbEntity
  8
OracDecor_panel_moldings
 62
    24
420
 11541018
100
AcDbVertex
100
AcDb2dVertex
 10
-3.062861204147338
 20
46.25714874267578
 30
-0.0000005077947094
  0
VERTEX
  5
120
330
FA
100
AcDbEntity
  8
OracDecor_panel_moldings
 62
    24
420
 11541018
100
AcDbVertex
100
AcDb2dVertex
 10
-3.146093606948852
 20
45.78343963623047
 30
-0.0000005077947094
  0
VERTEX
  5
121
330
FA
100
AcDbEntity
  8
OracDecor_panel_moldings
 62
    24
420
 11541018
100
AcDbVertex
100
AcDb2dVertex
 10
-3.266980409622192
 20
45.35488891601562
 30
-0.0000005077947094
  0
VERTEX
  5
122
330
FA
100
AcDbEntity
  8
OracDecor_panel_moldings
 62
    24
420
 11541018
100
AcDbVertex
100
AcDb2dVertex
 10
-3.427903652191162
 20
44.97251892089844
 30
-0.0000005077947094
  0
VERTEX
  5
123
330
FA
100
AcDbEntity
  8
OracDecor_panel_moldings
 62
    24
420
 11541018
100
AcDbVertex
100
AcDb2dVertex
 10
-3.637269973754882
 20
44.62115478515625
 30
-0.0000005077947094
  0
VERTEX
  5
124
330
FA
100
AcDbEntity
  8
OracDecor_panel_moldings
 62
    24
420
 11541018
100
AcDbVertex
100
AcDb2dVertex
 10
-3.900238990783691
 20
44.29049682617187
 30
-0.0000005077947094
  0
VERTEX
  5
125
330
FA
100
AcDbEntity
  8
OracDecor_panel_moldings
 62
    24
420
 11541018
100
AcDbVertex
100
AcDb2dVertex
 10
-4.223642826080322
 20
43.96632385253906
 30
-0.0000005077947094
  0
VERTEX
  5
126
330
FA
100
AcDbEntity
  8
OracDecor_panel_moldings
 62
    24
420
 11541018
100
AcDbVertex
100
AcDb2dVertex
 10
-4.602020740509033
 20
43.64482116699218
 30
-0.0000005077947094
  0
VERTEX
  5
127
330
FA
100
AcDbEntity
  8
OracDecor_panel_moldings
 62
    24
420
 11541018
100
AcDbVertex
100
AcDb2dVertex
 10
-5.026906490325927
 20
43.32395172119141
 30
-0.0000005077947094
  0
VERTEX
  5
128
330
FA
100
AcDbEntity
  8
OracDecor_panel_moldings
 62
    24
420
 11541018
100
AcDbVertex
100
AcDb2dVertex
 10
-5.483355045318603
 20
42.99835205078125
 30
-0.0000005077947094
  0
VERTEX
  5
129
330
FA
100
AcDbEntity
  8
OracDecor_panel_moldings
 62
    24
420
 11541018
100
AcDbVertex
100
AcDb2dVertex
 10
-5.972333908081054
 20
42.65367126464844
 30
-0.0000005077947094
  0
VERTEX
  5
12A
330
FA
100
AcDbEntity
  8
OracDecor_panel_moldings
 62
    24
420
 11541018
100
AcDbVertex
100
AcDb2dVertex
 10
-6.436163902282714
 20
42.31684112548828
 30
-0.0000005077947094
  0
VERTEX
  5
12B
330
FA
100
AcDbEntity
  8
OracDecor_panel_moldings
 62
    24
420
 11541018
100
AcDbVertex
100
AcDb2dVertex
 10
-6.88427734375
 20
41.96648406982421
 30
-0.0000005077947094
  0
VERTEX
  5
12C
330
FA
100
AcDbEntity
  8
OracDecor_panel_moldings
 62
    24
420
 11541018
100
AcDbVertex
100
AcDb2dVertex
 10
-7.280316829681396
 20
41.61795043945312
 30
-0.0000005077947094
  0
VERTEX
  5
12D
330
FA
100
AcDbEntity
  8
OracDecor_panel_moldings
 62
    24
420
 11541018
100
AcDbVertex
100
AcDb2dVertex
 10
-7.613903999328613
 20
41.26888275146484
 30
-0.0000005077947094
  0
VERTEX
  5
12E
330
FA
100
AcDbEntity
  8
OracDecor_panel_moldings
 62
    24
420
 11541018
100
AcDbVertex
100
AcDb2dVertex
 10
-7.882779121398925
 20
40.91283416748047
 30
-0.0000005077947094
  0
VERTEX
  5
12F
330
FA
100
AcDbEntity
  8
OracDecor_panel_moldings
 62
    24
420
 11541018
100
AcDbVertex
100
AcDb2dVertex
 10
-8.092463493347167
 20
40.5202407836914
 30
-0.0000005077947094
  0
VERTEX
  5
130
330
FA
100
AcDbEntity
  8
OracDecor_panel_moldings
 62
    24
420
 11541018
100
AcDbVertex
100
AcDb2dVertex
 10
-8.210320472717285
 20
40.12806701660156
 30
-0.0000005077947094
  0
VERTEX
  5
131
330
FA
100
AcDbEntity
  8
OracDecor_panel_moldings
 62
    24
420
 11541018
100
AcDbVertex
100
AcDb2dVertex
 10
-8.235700607299804
 20
39.74455261230469
 30
-0.0000005077947094
  0
VERTEX
  5
132
330
FA
100
AcDbEntity
  8
OracDecor_panel_moldings
 62
    24
420
 11541018
100
AcDbVertex
100
AcDb2dVertex
 10
-8.170554161071777
 20
39.3531494140625
 30
-0.0000005077947094
  0
VERTEX
  5
133
330
FA
100
AcDbEntity
  8
OracDecor_panel_moldings
 62
    24
420
 11541018
100
AcDbVertex
100
AcDb2dVertex
 10
-8.006502151489257
 20
38.94253540039063
 30
-0.0000005077947094
  0
VERTEX
  5
134
330
FA
100
AcDbEntity
  8
OracDecor_panel_moldings
 62
    24
420
 11541018
100
AcDbVertex
100
AcDb2dVertex
 10
-7.752728939056396
 20
38.53940582275391
 30
-0.0000005077947094
  0
VERTEX
  5
135
330
FA
100
AcDbEntity
  8
OracDecor_panel_moldings
 62
    24
420
 11541018
100
AcDbVertex
100
AcDb2dVertex
 10
-7.443591594696044
 20
38.19625854492187
 30
-0.0000005077947094
  0
VERTEX
  5
136
330
FA
100
AcDbEntity
  8
OracDecor_panel_moldings
 62
    24
420
 11541018
100
AcDbVertex
100
AcDb2dVertex
 10
-7.10201072692871
 20
37.94573211669922
 30
-0.0000005077947094
  0
VERTEX
  5
137
330
FA
100
AcDbEntity
  8
OracDecor_panel_moldings
 62
    24
420
 11541018
100
AcDbVertex
100
AcDb2dVertex
 10
-6.722944736480712
 20
37.7728271484375
 30
-0.0000005077947094
  0
VERTEX
  5
138
330
FA
100
AcDbEntity
  8
OracDecor_panel_moldings
 62
    24
420
 11541018
100
AcDbVertex
100
AcDb2dVertex
 10
-6.425894260406494
 20
37.67148590087891
 30
-0.0000005077947094
  0
VERTEX
  5
139
330
FA
100
AcDbEntity
  8
OracDecor_panel_moldings
 62
    24
420
 11541018
100
AcDbVertex
100
AcDb2dVertex
 10
-6.189282894134521
 20
37.540771484375
 30
-0.0000005077947094
  0
VERTEX
  5
13A
330
FA
100
AcDbEntity
  8
OracDecor_panel_moldings
 62
    24
420
 11541018
100
AcDbVertex
100
AcDb2dVertex
 10
-6.04731798171997
 20
37.34233856201172
 30
-0.0000005077947094
  0
VERTEX
  5
13B
330
FA
100
AcDbEntity
  8
OracDecor_panel_moldings
 62
    24
420
 11541018
100
AcDbVertex
100
AcDb2dVertex
 10
-5.999995708465576
 20
37.0761947631836
 30
-0.0000005077947094
  0
VERTEX
  5
13C
330
FA
100
AcDbEntity
  8
OracDecor_panel_moldings
 62
    24
420
 11541018
100
AcDbVertex
100
AcDb2dVertex
 10
-5.999994754791259
 20
36.15117645263672
 30
-0.0000005077947094
  0
VERTEX
  5
13D
330
FA
100
AcDbEntity
  8
OracDecor_panel_moldings
 62
    24
420
 11541018
100
AcDbVertex
100
AcDb2dVertex
 10
-6.049804210662841
 20
35.89681243896484
 30
-0.0000005077947094
  0
VERTEX
  5
13E
330
FA
100
AcDbEntity
  8
OracDecor_panel_moldings
 62
    24
420
 11541018
100
AcDbVertex
100
AcDb2dVertex
 10
-6.199233531951904
 20
35.73374176025391
 30
-0.0000005077947094
  0
VERTEX
  5
13F
330
FA
100
AcDbEntity
  8
OracDecor_panel_moldings
 62
    24
420
 11541018
100
AcDbVertex
100
AcDb2dVertex
 10
-6.44828176498413
 20
35.66195678710938
 30
-0.0000005077947094
  0
VERTEX
  5
140
330
FA
100
AcDbEntity
  8
OracDecor_panel_moldings
 62
    24
420
 11541018
100
AcDbVertex
100
AcDb2dVertex
 10
-7.551704883575439
 20
35.56541442871094
 30
-0.0000005077947094
  0
VERTEX
  5
141
330
FA
100
AcDbEntity
  8
OracDecor_panel_moldings
 62
    24
420
 11541018
100
AcDbVertex
100
AcDb2dVertex
 10
-7.800754070281982
 20
35.49362945556641
 30
-0.0000005077947094
  0
VERTEX
  5
142
330
FA
100
AcDbEntity
  8
OracDecor_panel_moldings
 62
    24
420
 11541018
100
AcDbVertex
100
AcDb2dVertex
 10
-7.950183868408203
 20
35.33055877685547
 30
-0.0000005077947094
  0
VERTEX
  5
143
330
FA
100
AcDbEntity
  8
OracDecor_panel_moldings
 62
    24
420
 11541018
100
AcDbVertex
100
AcDb2dVertex
 10
-7.999993324279785
 20
35.07619476318359
 30
-0.0000005077947094
  0
VERTEX
  5
144
330
FA
100
AcDbEntity
  8
OracDecor_panel_moldings
 62
    24
420
 11541018
100
AcDbVertex
100
AcDb2dVertex
 10
-8.0
 20
11.97620010375976
 30
-0.0000005077947094
  0
VERTEX
  5
145
330
FA
100
AcDbEntity
  8
OracDecor_panel_moldings
 62
    24
420
 11541018
100
AcDbVertex
100
AcDb2dVertex
 10
-7.950189590454101
 20
11.72184467315674
 30
-0.0000005077947094
  0
VERTEX
  5
146
330
FA
100
AcDbEntity
  8
OracDecor_panel_moldings
 62
    24
420
 11541018
100
AcDbVertex
100
AcDb2dVertex
 10
-7.800760269165039
 20
11.55877017974853
 30
-0.0000005077947094
  0
VERTEX
  5
147
330
FA
100
AcDbEntity
  8
OracDecor_panel_moldings
 62
    24
420
 11541018
100
AcDbVertex
100
AcDb2dVertex
 10
-7.551711082458496
 20
11.48698329925537
 30
-0.0000005077947094
  0
VERTEX
  5
148
330
FA
100
AcDbEntity
  8
OracDecor_panel_moldings
 62
    24
420
 11541018
100
AcDbVertex
100
AcDb2dVertex
 10
-6.448287487030029
 20
11.39044857025146
 30
-0.0000005077947094
  0
VERTEX
  5
149
330
FA
100
AcDbEntity
  8
OracDecor_panel_moldings
 62
    24
420
 11541018
100
AcDbVertex
100
AcDb2dVertex
 10
-6.199238300323486
 20
11.31865978240967
 30
-0.0000005077947094
  0
VERTEX
  5
14A
330
FA
100
AcDbEntity
  8
OracDecor_panel_moldings
 62
    24
420
 11541018
100
AcDbVertex
100
AcDb2dVertex
 10
-6.049810409545898
 20
11.1555871963501
 30
-0.0000005077947094
  0
VERTEX
  5
14B
330
FA
100
AcDbEntity
  8
OracDecor_panel_moldings
 62
    24
420
 11541018
100
AcDbVertex
100
AcDb2dVertex
 10
-6.0
 20
10.90122890472412
 30
-0.0000005077947094
  0
VERTEX
  5
14C
330
FA
100
AcDbEntity
  8
OracDecor_panel_moldings
 62
    24
420
 11541018
100
AcDbVertex
100
AcDb2dVertex
 10
-6.000000476837158
 20
9.97620677947998
 30
-0.0000005077947094
  0
VERTEX
  5
14D
330
FA
100
AcDbEntity
  8
OracDecor_panel_moldings
 62
    24
420
 11541018
100
AcDbVertex
100
AcDb2dVertex
 10
-6.047278404235839
 20
9.709933280944824
 30
-0.0000005077947094
  0
VERTEX
  5
14E
330
FA
100
AcDbEntity
  8
OracDecor_panel_moldings
 62
    24
420
 11541018
100
AcDbVertex
100
AcDb2dVertex
 10
-6.189112186431884
 20
9.511115074157714
 30
-0.0000005077947094
  0
VERTEX
  5
14F
330
FA
100
AcDbEntity
  8
OracDecor_panel_moldings
 62
    24
420
 11541018
100
AcDbVertex
100
AcDb2dVertex
 10
-6.425501823425292
 20
9.379752159118652
 30
-0.0000005077947094
  0
VERTEX
  5
150
330
FA
100
AcDbEntity
  8
OracDecor_panel_moldings
 62
    24
420
 11541018
100
AcDbVertex
100
AcDb2dVertex
 10
-6.761062145233154
 20
9.264254570007324
 30
-0.0000005077947094
  0
VERTEX
  5
151
330
FA
100
AcDbEntity
  8
OracDecor_panel_moldings
 62
    24
420
 11541018
100
AcDbVertex
100
AcDb2dVertex
 10
-7.148398876190185
 20
9.079581260681152
 30
-0.0000005077947094
  0
VERTEX
  5
152
330
FA
100
AcDbEntity
  8
OracDecor_panel_moldings
 62
    24
420
 11541018
100
AcDbVertex
100
AcDb2dVertex
 10
-7.474787235260009
 20
8.828051567077636
 30
-0.0000005077947094
  0
VERTEX
  5
153
330
FA
100
AcDbEntity
  8
OracDecor_panel_moldings
 62
    24
420
 11541018
100
AcDbVertex
100
AcDb2dVertex
 10
-7.769179821014404
 20
8.490765571594238
 30
-0.0000005077947094
  0
VERTEX
  5
154
330
FA
100
AcDbEntity
  8
OracDecor_panel_moldings
 62
    24
420
 11541018
100
AcDbVertex
100
AcDb2dVertex
 10
-8.017691612243652
 20
8.087879180908203
 30
-0.0000005077947094
  0
VERTEX
  5
155
330
FA
100
AcDbEntity
  8
OracDecor_panel_moldings
 62
    24
420
 11541018
100
AcDbVertex
100
AcDb2dVertex
 10
-8.175635337829589
 20
7.681198120117187
 30
-0.0000005077947094
  0
VERTEX
  5
156
330
FA
100
AcDbEntity
  8
OracDecor_panel_moldings
 62
    24
420
 11541018
100
AcDbVertex
100
AcDb2dVertex
 10
-8.236426353454589
 20
7.294151782989501
 30
-0.0000005077947094
  0
VERTEX
  5
157
330
FA
100
AcDbEntity
  8
OracDecor_panel_moldings
 62
    24
420
 11541018
100
AcDbVertex
100
AcDb2dVertex
 10
-8.208455085754394
 20
6.913975238800048
 30
-0.0000005077947094
  0
VERTEX
  5
158
330
FA
100
AcDbEntity
  8
OracDecor_panel_moldings
 62
    24
420
 11541018
100
AcDbVertex
100
AcDb2dVertex
 10
-8.087876319885253
 20
6.521375656127929
 30
-0.0000005077947094
  0
SEQEND
  5
159
330
FA
100
AcDbEntity
  8
OracDecor_panel_moldings
 62
    24
420
 11541018
  0
ENDSEC
  0
SECTION
  2
OBJECTS
  0
DICTIONARY
  5
C
330
0
100
AcDbDictionary
281
     1
  3
ACAD_COLOR
350
DC
  3
ACAD_DETAILVIEWSTYLE
350
F5
  3
ACAD_GROUP
350
D
  3
ACAD_LAYOUT
350
1A
  3
ACAD_MATERIAL
350
AA
  3
ACAD_MLEADERSTYLE
350
F1
  3
ACAD_MLINESTYLE
350
17
  3
ACAD_PLOTSETTINGS
350
19
  3
ACAD_PLOTSTYLENAME
350
E
  3
ACAD_SCALELIST
350
DF
  3
ACAD_SECTIONVIEWSTYLE
350
F3
  3
ACAD_TABLESTYLE
350
DD
  3
ACAD_VISUALSTYLE
350
C3
  3
ACDB_RECOMPOSE_DATA
350
166
  3
AcDbVariableDictionary
350
15A
  0
DICTIONARY
  5
DC
102
{ACAD_REACTORS
330
C
102
}
330
C
100
AcDbDictionary
281
     1
  0
DICTIONARY
  5
F5
102
{ACAD_REACTORS
330
C
102
}
330
C
100
AcDbDictionary
281
     1
  3
Imperial24
350
F6
  0
DICTIONARY
  5
D
102
{ACAD_REACTORS
330
C
102
}
330
C
100
AcDbDictionary
281
     1
  0
DICTIONARY
  5
1A
102
{ACAD_REACTORS
330
C
102
}
330
C
100
AcDbDictionary
281
     1
  3
Layout1
350
1E
  3
Layout2
350
26
  3
Model
350
22
  0
DICTIONARY
  5
AA
102
{ACAD_REACTORS
330
C
102
}
330
C
100
AcDbDictionary
281
     1
  3
ByBlock
350
B3
  3
ByLayer
350
AB
  3
Global
350
BB
  0
DICTIONARY
  5
F1
102
{ACAD_REACTORS
330
C
102
}
330
C
100
AcDbDictionary
281
     1
  3
Standard
350
F2
  0
DICTIONARY
  5
17
102
{ACAD_REACTORS
330
C
102
}
330
C
100
AcDbDictionary
281
     1
  3
Standard
350
18
  0
DICTIONARY
  5
19
102
{ACAD_REACTORS
330
C
102
}
330
C
100
AcDbDictionary
281
     1
  0
ACDBDICTIONARYWDFLT
  5
E
102
{ACAD_REACTORS
330
C
102
}
330
C
100
AcDbDictionary
281
     1
  3
ByLayer
350
2D
  3
Normal
350
F
100
AcDbDictionaryWithDefault
340
F
  0
DICTIONARY
  5
DF
102
{ACAD_REACTORS
330
C
102
}
330
C
100
AcDbDictionary
281
     1
  3
A0
350
E0
  3
A1
350
E1
  3
A2
350
E2
  3
A3
350
E3
  3
A4
350
E4
  3
A5
350
E5
  3
A6
350
E6
  3
A7
350
E7
  3
A8
350
E8
  3
A9
350
E9
  3
B0
350
EA
  3
B1
350
EB
  3
B2
350
EC
  3
B3
350
ED
  3
B4
350
EE
  3
B5
350
EF
  3
B6
350
F0
  0
DICTIONARY
  5
F3
102
{ACAD_REACTORS
330
C
102
}
330
C
100
AcDbDictionary
281
     1
  3
Imperial24
350
F4
  0
DICTIONARY
  5
DD
102
{ACAD_REACTORS
330
C
102
}
330
C
100
AcDbDictionary
281
     1
  3
Standard
350
DE
  0
DICTIONARY
  5
C3
102
{ACAD_REACTORS
330
C
102
}
330
C
100
AcDbDictionary
281
     1
  3
2dWireframe
350
C9
  3
Basic
350
C8
  3
Brighten
350
CF
  3
ColorChange
350
D3
  3
Conceptual
350
CC
  3
Dim
350
CE
  3
EdgeColorOff
350
DB
  3
Facepattern
350
D2
  3
Flat
350
C4
  3
FlatWithEdges
350
C5
  3
Gouraud
350
C6
  3
GouraudWithEdges
350
C7
  3
Hidden
350
CB
  3
JitterOff
350
D9
  3
Linepattern
350
D1
  3
OverhangOff
350
DA
  3
Realistic
350
CD
  3
Shaded
350
D8
  3
Shaded with edges
350
D7
  3
Shades of Gray
350
D4
  3
Sketchy
350
D5
  3
Thicken
350
D0
  3
Wireframe
350
CA
  3
X-Ray
350
D6
  0
XRECORD
  5
166
102
{ACAD_REACTORS
330
C
102
}
330
C
100
AcDbXrecord
280
     1
 90
        1
330
DE
  0
DICTIONARY
  5
15A
102
{ACAD_REACTORS
330
C
102
}
330
C
100
AcDbDictionary
281
     1
  3
CANNOSCALE
350
160
  3
CMLEADERSTYLE
350
15C
  3
CTABLESTYLE
350
15B
  3
CVIEWDETAILSTYLE
350
15D
  3
CVIEWSECTIONSTYLE
350
15E
  3
LAYEREVAL
350
162
  3
LAYERNOTIFY
350
163
  3
LIGHTINGUNITS
350
161
  3
MSLTSCALE
350
15F
  0
ACDBDETAILVIEWSTYLE
  5
F6
102
{ACAD_XDICTIONARY
360
19B
102
}
102
{ACAD_REACTORS
330
F5
102
}
330
F5
100
AcDbModelDocViewStyle
 70
     0
  3
Imperial24
290
     0
100
AcDbDetailViewStyle
 70
     0
 71
     0
 90
        3
 71
     1
340
11
 62
   256
 40
0.24
340
0
 62
   256
 40
0.24
300

 40
0.36
280
     3
 71
     2
340
16
 90
       25
 62
   256
 71
     3
340
11
 62
   256
 40
0.24
 90
        1
 40
0.75
 90
        1
300
%<\AcVar ViewType \f "%tc1">% %<\AcVar ViewDetailId>%\PSCALE %<\AcVar ViewScale \f "%sn">%
 71
     4
340
16
 90
       25
 62
   256
340
16
 90
       25
 62
   256
280
     0
  0
LAYOUT
  5
1E
102
{ACAD_REACTORS
330
1A
102
}
330
1A
100
AcDbPlotSettings
  1

  2
\\KTXNTBDC\CASF2PN1
  4

  6

 40
0.0
 41
0.0
 42
0.0
 43
0.0
 44
0.0
 45
0.0
 46
0.0
 47
0.0
 48
0.0
 49
0.0
140
0.0
141
0.0
142
1.0
143
1.0
 70
   688
 72
     0
 73
     0
 74
     5
  7

 75
    16
147
1.0
 76
     0
 77
     2
 78
   300
148
0.0
149
0.0
100
AcDbLayout
  1
Layout1
 70
     1
 71
     1
 10
0.0
 20
0.0
 11
12.0
 21
9.0
 12
0.0
 22
0.0
 32
0.0
 14
1.000000000000000E+20
 24
1.000000000000000E+20
 34
1.000000000000000E+20
 15
-1.000000000000000E+20
 25
-1.000000000000000E+20
 35
-1.000000000000000E+20
146
0.0
 13
0.0
 23
0.0
 33
0.0
 16
1.0
 26
0.0
 36
0.0
 17
0.0
 27
1.0
 37
0.0
 76
     0
330
1B
  0
LAYOUT
  5
26
102
{ACAD_REACTORS
330
1A
102
}
330
1A
100
AcDbPlotSettings
  1

  2
\\KTXNTBDC\CASF2PN1
  4

  6

 40
0.0
 41
0.0
 42
0.0
 43
0.0
 44
0.0
 45
0.0
 46
0.0
 47
0.0
 48
0.0
 49
0.0
140
0.0
141
0.0
142
1.0
143
1.0
 70
   688
 72
     0
 73
     0
 74
     5
  7

 75
    16
147
1.0
 76
     0
 77
     2
 78
   300
148
0.0
149
0.0
100
AcDbLayout
  1
Layout2
 70
     1
 71
     2
 10
0.0
 20
0.0
 11
12.0
 21
9.0
 12
0.0
 22
0.0
 32
0.0
 14
0.0
 24
0.0
 34
0.0
 15
0.0
 25
0.0
 35
0.0
146
0.0
 13
0.0
 23
0.0
 33
0.0
 16
1.0
 26
0.0
 36
0.0
 17
0.0
 27
1.0
 37
0.0
 76
     0
330
23
  0
LAYOUT
  5
22
102
{ACAD_REACTORS
330
1A
102
}
330
1A
100
AcDbPlotSettings
  1

  2
\\KTXNTBDC\CASF2PN1
  4

  6

 40
0.0
 41
0.0
 42
0.0
 43
0.0
 44
0.0
 45
0.0
 46
0.0
 47
0.0
 48
0.0
 49
0.0
140
0.0
141
0.0
142
1.0
143
1.0
 70
  1712
 72
     0
 73
     0
 74
     0
  7

 75
     0
147
1.0
 76
     0
 77
     2
 78
   300
148
0.0
149
0.0
100
AcDbLayout
  1
Model
 70
     1
 71
     0
 10
0.0
 20
0.0
 11
12.0
 21
9.0
 12
0.0
 22
0.0
 32
0.0
 14
0.0
 24
0.0
 34
0.0
 15
0.0
 25
0.0
 35
0.0
146
0.0
 13
0.0
 23
0.0
 33
0.0
 16
1.0
 26
0.0
 36
0.0
 17
0.0
 27
1.0
 37
0.0
 76
     0
330
1F
  0
MATERIAL
  5
B3
102
{ACAD_XDICTIONARY
360
B4
102
}
102
{ACAD_REACTORS
330
AA
102
}
330
AA
100
AcDbMaterial
  1
ByBlock
 72
     0
 43
0.0208333333333333
 43
0.0
 43
0.0
 43
0.0
 43
0.0
 43
0.0208333333333333
 43
0.0
 43
0.0
 43
0.0
 43
0.0
 43
1.0
 43
0.0
 43
0.0
 43
0.0
 43
0.0
 43
1.0
 77
     0
 47
0.0208333333333333
 47
0.0
 47
0.0
 47
0.0
 47
0.0
 47
0.0208333333333333
 47
0.0
 47
0.0
 47
0.0
 47
0.0
 47
1.0
 47
0.0
 47
0.0
 47
0.0
 47
0.0
 47
1.0
171
     0
 49
0.0208333333333333
 49
0.0
 49
0.0
 49
0.0
 49
0.0
 49
0.0208333333333333
 49
0.0
 49
0.0
 49
0.0
 49
0.0
 49
1.0
 49
0.0
 49
0.0
 49
0.0
 49
0.0
 49
1.0
175
     0
142
0.0208333333333333
142
0.0
142
0.0
142
0.0
142
0.0
142
0.0208333333333333
142
0.0
142
0.0
142
0.0
142
0.0
142
1.0
142
0.0
142
0.0
142
0.0
142
0.0
142
1.0
179
     0
144
0.0208333333333333
144
0.0
144
0.0
144
0.0
144
0.0
144
0.0208333333333333
144
0.0
144
0.0
144
0.0
144
0.0
144
1.0
144
0.0
144
0.0
144
0.0
144
0.0
144
1.0
147
0.0208333333333333
147
0.0
147
0.0
147
0.0
147
0.0
147
0.0208333333333333
147
0.0
147
0.0
147
0.0
147
0.0
147
1.0
147
0.0
147
0.0
147
0.0
147
0.0
147
1.0
  0
MATERIAL
  5
AB
102
{ACAD_XDICTIONARY
360
AC
102
}
102
{ACAD_REACTORS
330
AA
102
}
330
AA
100
AcDbMaterial
  1
ByLayer
 72
     0
 43
0.0208333333333333
 43
0.0
 43
0.0
 43
0.0
 43
0.0
 43
0.0208333333333333
 43
0.0
 43
0.0
 43
0.0
 43
0.0
 43
1.0
 43
0.0
 43
0.0
 43
0.0
 43
0.0
 43
1.0
 77
     0
 47
0.0208333333333333
 47
0.0
 47
0.0
 47
0.0
 47
0.0
 47
0.0208333333333333
 47
0.0
 47
0.0
 47
0.0
 47
0.0
 47
1.0
 47
0.0
 47
0.0
 47
0.0
 47
0.0
 47
1.0
171
     0
 49
0.0208333333333333
 49
0.0
 49
0.0
 49
0.0
 49
0.0
 49
0.0208333333333333
 49
0.0
 49
0.0
 49
0.0
 49
0.0
 49
1.0
 49
0.0
 49
0.0
 49
0.0
 49
0.0
 49
1.0
175
     0
142
0.0208333333333333
142
0.0
142
0.0
142
0.0
142
0.0
142
0.0208333333333333
142
0.0
142
0.0
142
0.0
142
0.0
142
1.0
142
0.0
142
0.0
142
0.0
142
0.0
142
1.0
179
     0
144
0.0208333333333333
144
0.0
144
0.0
144
0.0
144
0.0
144
0.0208333333333333
144
0.0
144
0.0
144
0.0
144
0.0
144
1.0
144
0.0
144
0.0
144
0.0
144
0.0
144
1.0
147
0.0208333333333333
147
0.0
147
0.0
147
0.0
147
0.0
147
0.0208333333333333
147
0.0
147
0.0
147
0.0
147
0.0
147
1.0
147
0.0
147
0.0
147
0.0
147
0.0
147
1.0
  0
MATERIAL
  5
BB
102
{ACAD_XDICTIONARY
360
BC
102
}
102
{ACAD_REACTORS
330
AA
102
}
330
AA
100
AcDbMaterial
  1
Global
 72
     0
 43
0.0208333333333333
 43
0.0
 43
0.0
 43
0.0
 43
0.0
 43
0.0208333333333333
 43
0.0
 43
0.0
 43
0.0
 43
0.0
 43
1.0
 43
0.0
 43
0.0
 43
0.0
 43
0.0
 43
1.0
 77
     0
 47
0.0208333333333333
 47
0.0
 47
0.0
 47
0.0
 47
0.0
 47
0.0208333333333333
 47
0.0
 47
0.0
 47
0.0
 47
0.0
 47
1.0
 47
0.0
 47
0.0
 47
0.0
 47
0.0
 47
1.0
171
     0
 49
0.0208333333333333
 49
0.0
 49
0.0
 49
0.0
 49
0.0
 49
0.0208333333333333
 49
0.0
 49
0.0
 49
0.0
 49
0.0
 49
1.0
 49
0.0
 49
0.0
 49
0.0
 49
0.0
 49
1.0
175
     0
142
0.0208333333333333
142
0.0
142
0.0
142
0.0
142
0.0
142
0.0208333333333333
142
0.0
142
0.0
142
0.0
142
0.0
142
1.0
142
0.0
142
0.0
142
0.0
142
0.0
142
1.0
179
     0
144
0.0208333333333333
144
0.0
144
0.0
144
0.0
144
0.0
144
0.0208333333333333
144
0.0
144
0.0
144
0.0
144
0.0
144
1.0
144
0.0
144
0.0
144
0.0
144
0.0
144
1.0
147
0.0208333333333333
147
0.0
147
0.0
147
0.0
147
0.0
147
0.0208333333333333
147
0.0
147
0.0
147
0.0
147
0.0
147
1.0
147
0.0
147
0.0
147
0.0
147
0.0
147
1.0
  0
MLEADERSTYLE
  5
F2
102
{ACAD_XDICTIONARY
360
197
102
}
102
{ACAD_REACTORS
330
F1
102
}
330
F1
100
AcDbMLeaderStyle
179
     2
170
     2
171
     1
172
     0
 90
        2
 40
0.0
 41
0.0
173
     1
 91
-1056964608
340
14
 92
       -2
290
     1
 42
0.09
291
     1
 43
0.36
  3
Standard
 44
0.18
300

342
11
174
     1
178
     6
175
     1
176
     0
 93
-1056964608
 45
0.18
292
     0
297
     0
 46
0.18
 94
-1056964608
 47
1.0
 49
1.0
140
1.0
293
     1
141
0.0
294
     1
177
     0
142
1.0
295
     0
296
     0
143
0.125
271
     0
272
     9
273
     9
  0
MLINESTYLE
  5
18
102
{ACAD_REACTORS
330
17
102
}
330
17
100
AcDbMlineStyle
  2
STANDARD
 70
     0
  3

 62
   256
 51
90.0
 52
90.0
 71
     2
 49
0.5
 62
   256
  6
BYLAYER
 49
-0.5
 62
   256
  6
BYLAYER
  0
ACDBPLACEHOLDER
  5
2D
102
{ACAD_REACTORS
330
E
102
}
330
E
  0
ACDBPLACEHOLDER
  5
F
102
{ACAD_REACTORS
330
E
102
}
330
E
  0
SCALE
  5
E0
102
{ACAD_REACTORS
330
DF
102
}
330
DF
100
AcDbScale
 70
     0
300
1:1
140
1.0
141
1.0
290
     1
  0
SCALE
  5
E1
102
{ACAD_REACTORS
330
DF
102
}
330
DF
100
AcDbScale
 70
     0
300
1/128" = 1'-0"
140
0.0078125
141
12.0
290
     0
  0
SCALE
  5
E2
102
{ACAD_REACTORS
330
DF
102
}
330
DF
100
AcDbScale
 70
     0
300
1/64" = 1'-0"
140
0.015625
141
12.0
290
     0
  0
SCALE
  5
E3
102
{ACAD_REACTORS
330
DF
102
}
330
DF
100
AcDbScale
 70
     0
300
1/32" = 1'-0"
140
0.03125
141
12.0
290
     0
  0
SCALE
  5
E4
102
{ACAD_REACTORS
330
DF
102
}
330
DF
100
AcDbScale
 70
     0
300
1/16" = 1'-0"
140
0.0625
141
12.0
290
     0
  0
SCALE
  5
E5
102
{ACAD_REACTORS
330
DF
102
}
330
DF
100
AcDbScale
 70
     0
300
3/32" = 1'-0"
140
0.09375
141
12.0
290
     0
  0
SCALE
  5
E6
102
{ACAD_REACTORS
330
DF
102
}
330
DF
100
AcDbScale
 70
     0
300
1/8" = 1'-0"
140
0.125
141
12.0
290
     0
  0
SCALE
  5
E7
102
{ACAD_REACTORS
330
DF
102
}
330
DF
100
AcDbScale
 70
     0
300
3/16" = 1'-0"
140
0.1875
141
12.0
290
     0
  0
SCALE
  5
E8
102
{ACAD_REACTORS
330
DF
102
}
330
DF
100
AcDbScale
 70
     0
300
1/4" = 1'-0"
140
0.25
141
12.0
290
     0
  0
SCALE
  5
E9
102
{ACAD_REACTORS
330
DF
102
}
330
DF
100
AcDbScale
 70
     0
300
3/8" = 1'-0"
140
0.375
141
12.0
290
     0
  0
SCALE
  5
EA
102
{ACAD_REACTORS
330
DF
102
}
330
DF
100
AcDbScale
 70
     0
300
1/2" = 1'-0"
140
0.5
141
12.0
290
     0
  0
SCALE
  5
EB
102
{ACAD_REACTORS
330
DF
102
}
330
DF
100
AcDbScale
 70
     0
300
3/4" = 1'-0"
140
0.75
141
12.0
290
     0
  0
SCALE
  5
EC
102
{ACAD_REACTORS
330
DF
102
}
330
DF
100
AcDbScale
 70
     0
300
1" = 1'-0"
140
1.0
141
12.0
290
     0
  0
SCALE
  5
ED
102
{ACAD_REACTORS
330
DF
102
}
330
DF
100
AcDbScale
 70
     0
300
1-1/2" = 1'-0"
140
1.5
141
12.0
290
     0
  0
SCALE
  5
EE
102
{ACAD_REACTORS
330
DF
102
}
330
DF
100
AcDbScale
 70
     0
300
3" = 1'-0"
140
3.0
141
12.0
290
     0
  0
SCALE
  5
EF
102
{ACAD_REACTORS
330
DF
102
}
330
DF
100
AcDbScale
 70
     0
300
6" = 1'-0"
140
6.0
141
12.0
290
     0
  0
SCALE
  5
F0
102
{ACAD_REACTORS
330
DF
102
}
330
DF
100
AcDbScale
 70
     0
300
1'-0" = 1'-0"
140
12.0
141
12.0
290
     0
  0
ACDBSECTIONVIEWSTYLE
  5
F4
102
{ACAD_XDICTIONARY
360
199
102
}
102
{ACAD_REACTORS
330
F3
102
}
330
F3
100
AcDbModelDocViewStyle
 70
     0
  3
Imperial24
290
     0
100
AcDbSectionViewStyle
 70
     0
 71
     0
 90
       78
 71
     1
340
11
 62
   256
 40
0.24
340
0
340
0
 62
   256
 40
0.24
300
I, O, Q, S, X, Z
 40
0.48
 90
        3
 40
0.18
 90
        1
 71
     2
340
16
 90
       25
 62
   256
340
16
 90
       50
 62
   256
 40
0.24
 40
0.0
 40
0.24
 71
     3
340
11
 62
   256
 40
0.24
 90
        1
 40
0.75
 90
        1
300
%<\AcVar ViewType \f "%tc1">% %<\AcVar ViewSectionStartId>%-%<\AcVar ViewSectionEndId>%\PSCALE %<\AcVar ViewScale \f "%sn">%
 71
     4
 62
   256
 62
   257
300
ANSI31
 40
1.0
 90
        0
290
     0
290
     0
 90
        6
 40
0.0
 40
1.570796326794896
 40
0.2617993877991494
 40
1.308996938995747
 40
-0.2617993877991494
 40
1.832595714594046
  0
TABLESTYLE
  5
DE
102
{ACAD_XDICTIONARY
360
164
102
}
102
{ACAD_REACTORS
330
DD
102
}
330
DD
100
AcDbTableStyle
280
     0
  3
Standard
 70
     0
 71
     0
 40
0.06
 41
0.06
280
     0
281
     0
  7
Standard
140
0.18
170
     2
 62
     0
 63
     7
283
     0
 90
      512
 91
        0
  1

274
    -2
284
     1
 64
     0
275
    -2
285
     1
 65
     0
276
    -2
286
     1
 66
     0
277
    -2
287
     1
 67
     0
278
    -2
288
     1
 68
     0
279
    -2
289
     1
 69
     0
  7
Standard
140
0.25
170
     5
 62
     0
 63
     7
283
     0
 90
      512
 91
        0
  1

274
    -2
284
     1
 64
     0
275
    -2
285
     1
 65
     0
276
    -2
286
     1
 66
     0
277
    -2
287
     1
 67
     0
278
    -2
288
     1
 68
     0
279
    -2
289
     1
 69
     0
  7
Standard
140
0.18
170
     5
 62
     0
 63
     7
283
     0
 90
      512
 91
        0
  1

274
    -2
284
     1
 64
     0
275
    -2
285
     1
 65
     0
276
    -2
286
     1
 66
     0
277
    -2
287
     1
 67
     0
278
    -2
288
     1
 68
     0
279
    -2
289
     1
 69
     0
  0
VISUALSTYLE
  5
C9
102
{ACAD_XDICTIONARY
360
171
102
}
102
{ACAD_REACTORS
330
C3
102
}
330
C3
100
AcDbVisualStyle
  2
2dWireframe
 70
     4
177
     2
291
     0
 71
     0
176
     1
 72
     2
176
     1
 73
     0
176
     1
 90
        0
176
     1
 40
0.6
176
     1
 41
30.0
176
     1
 63
     7
421
 16777215
176
     1
 74
     1
176
     1
 91
        4
176
     1
 64
     7
176
     1
 65
   257
176
     1
 75
     1
176
     1
175
     1
176
     1
 42
1.0
176
     1
 92
        0
176
     1
 66
   257
176
     1
 43
1.0
176
     1
 76
     1
176
     1
 77
     6
176
     1
 78
     2
176
     1
 67
     7
176
     1
 79
     5
176
     1
170
     0
176
     1
171
     0
176
     1
290
     0
176
     1
 93
        1
176
     1
 44
0.0
176
     1
173
     0
176
     1
1001
ACAD
1000
AcDbSavedByObjectVersion
1070
     0
  0
VISUALSTYLE
  5
C8
102
{ACAD_XDICTIONARY
360
16F
102
}
102
{ACAD_REACTORS
330
C3
102
}
330
C3
100
AcDbVisualStyle
  2
Basic
 70
     7
177
     2
291
     1
 71
     1
176
     1
 72
     0
176
     1
 73
     1
176
     1
 90
        0
176
     1
 40
0.6
176
     1
 41
30.0
176
     1
 63
     7
421
 16777215
176
     1
 74
     0
176
     1
 91
        4
176
     1
 64
     7
176
     1
 65
   257
176
     1
 75
     1
176
     1
175
     1
176
     1
 42
1.0
176
     1
 92
        8
176
     1
 66
     7
176
     1
 43
1.0
176
     1
 76
     1
176
     1
 77
     6
176
     1
 78
     2
176
     1
 67
     7
176
     1
 79
     5
176
     1
170
     0
176
     1
171
     0
176
     1
290
     0
176
     1
 93
        1
176
     1
 44
0.0
176
     1
173
     0
176
     1
1001
ACAD
1000
AcDbSavedByObjectVersion
1070
     0
  0
VISUALSTYLE
  5
CF
102
{ACAD_XDICTIONARY
360
17D
102
}
102
{ACAD_REACTORS
330
C3
102
}
330
C3
100
AcDbVisualStyle
  2
Brighten
 70
    12
177
     2
291
     1
 71
     2
176
     1
 72
     2
176
     1
 73
     0
176
     1
 90
        0
176
     1
 40
0.6
176
     1
 41
30.0
176
     1
 63
     7
421
 16777215
176
     1
 74
     1
176
     1
 91
        4
176
     1
 64
     7
176
     1
 65
   257
176
     1
 75
     1
176
     1
175
     1
176
     1
 42
1.0
176
     1
 92
        8
176
     1
 66
     7
176
     1
 43
1.0
176
     1
 76
     1
176
     1
 77
     6
176
     1
 78
     2
176
     1
 67
     7
176
     1
 79
     5
176
     1
170
     0
176
     1
171
     0
176
     1
290
     0
176
     1
 93
        1
176
     1
 44
50.0
176
     1
173
     0
176
     1
1001
ACAD
1000
AcDbSavedByObjectVersion
1070
     0
  0
VISUALSTYLE
  5
D3
102
{ACAD_XDICTIONARY
360
185
102
}
102
{ACAD_REACTORS
330
C3
102
}
330
C3
100
AcDbVisualStyle
  2
ColorChange
 70
    16
177
     2
291
     1
 71
     2
176
     1
 72
     2
176
     1
 73
     3
176
     1
 90
        0
176
     1
 40
0.6
176
     1
 41
30.0
176
     1
 63
     8
421
  8421504
176
     1
 74
     1
176
     1
 91
        4
176
     1
 64
     7
176
     1
 65
   257
176
     1
 75
     1
176
     1
175
     1
176
     1
 42
1.0
176
     1
 92
        8
176
     1
 66
     8
424
  8421504
176
     1
 43
1.0
176
     1
 76
     1
176
     1
 77
     6
176
     1
 78
     2
176
     1
 67
     7
176
     1
 79
     5
176
     1
170
     0
176
     1
171
     0
176
     1
290
     0
176
     1
 93
        1
176
     1
 44
0.0
176
     1
173
     0
176
     1
1001
ACAD
1000
AcDbSavedByObjectVersion
1070
     0
  0
VISUALSTYLE
  5
CC
102
{ACAD_XDICTIONARY
360
177
102
}
102
{ACAD_REACTORS
330
C3
102
}
330
C3
100
AcDbVisualStyle
  2
Conceptual
 70
     9
177
     2
291
     0
 71
     3
176
     1
 72
     2
176
     1
 73
     0
176
     1
 90
        0
176
     1
 40
0.6
176
     1
 41
30.0
176
     1
 63
     7
421
 16777215
176
     1
 74
     2
176
     1
 91
        2
176
     1
 64
     7
176
     1
 65
   257
176
     1
 75
     1
176
     1
175
     1
176
     1
 42
179.0
176
     1
 92
        8
176
     1
 66
     7
176
     1
 43
1.0
176
     1
 76
     1
176
     1
 77
     6
176
     1
 78
     2
176
     1
 67
     7
176
     1
 79
     3
176
     1
170
     0
176
     1
171
     0
176
     1
290
     0
176
     1
 93
        1
176
     1
 44
0.0
176
     1
173
     0
176
     1
1001
ACAD
1000
AcDbSavedByObjectVersion
1070
     0
  0
VISUALSTYLE
  5
CE
102
{ACAD_XDICTIONARY
360
17B
102
}
102
{ACAD_REACTORS
330
C3
102
}
330
C3
100
AcDbVisualStyle
  2
Dim
 70
    11
177
     2
291
     1
 71
     2
176
     1
 72
     2
176
     1
 73
     0
176
     1
 90
        0
176
     1
 40
0.6
176
     1
 41
30.0
176
     1
 63
     7
421
 16777215
176
     1
 74
     1
176
     1
 91
        4
176
     1
 64
     7
176
     1
 65
   257
176
     1
 75
     1
176
     1
175
     1
176
     1
 42
1.0
176
     1
 92
        8
176
     1
 66
     7
176
     1
 43
1.0
176
     1
 76
     1
176
     1
 77
     6
176
     1
 78
     2
176
     1
 67
     7
176
     1
 79
     5
176
     1
170
     0
176
     1
171
     0
176
     1
290
     0
176
     1
 93
        1
176
     1
 44
-50.0
176
     1
173
     0
176
     1
1001
ACAD
1000
AcDbSavedByObjectVersion
1070
     0
  0
VISUALSTYLE
  5
DB
102
{ACAD_XDICTIONARY
360
195
102
}
102
{ACAD_REACTORS
330
C3
102
}
330
C3
100
AcDbVisualStyle
  2
EdgeColorOff
 70
    22
177
     2
291
     1
 71
     2
176
     0
 72
     2
176
     0
 73
     0
176
     0
 90
        0
176
     0
 40
0.6
176
     0
 41
30.0
176
     0
 63
     7
421
 16777215
176
     0
 74
     1
176
     0
 91
        4
176
     0
 64
     7
176
     0
 65
   257
176
     0
 75
     1
176
     0
175
     1
176
     0
 42
1.0
176
     0
 92
        8
176
     2
 66
     7
176
     0
 43
1.0
176
     0
 76
     1
176
     0
 77
     6
176
     0
 78
     2
176
     0
 67
     7
176
     0
 79
     5
176
     0
170
     0
176
     0
171
     0
176
     0
290
     0
176
     0
 93
        1
176
     0
 44
0.0
176
     0
173
     0
176
     0
1001
ACAD
1000
AcDbSavedByObjectVersion
1070
     0
  0
VISUALSTYLE
  5
D2
102
{ACAD_XDICTIONARY
360
183
102
}
102
{ACAD_REACTORS
330
C3
102
}
330
C3
100
AcDbVisualStyle
  2
Facepattern
 70
    15
177
     2
291
     1
 71
     2
176
     1
 72
     2
176
     1
 73
     0
176
     1
 90
        0
176
     1
 40
0.6
176
     1
 41
30.0
176
     1
 63
     7
421
 16777215
176
     1
 74
     1
176
     1
 91
        4
176
     1
 64
     7
176
     1
 65
   257
176
     1
 75
     1
176
     1
175
     1
176
     1
 42
1.0
176
     1
 92
        8
176
     1
 66
     7
176
     1
 43
1.0
176
     1
 76
     1
176
     1
 77
     6
176
     1
 78
     2
176
     1
 67
     7
176
     1
 79
     5
176
     1
170
     0
176
     1
171
     0
176
     1
290
     0
176
     1
 93
        1
176
     1
 44
0.0
176
     1
173
     0
176
     1
1001
ACAD
1000
AcDbSavedByObjectVersion
1070
     0
  0
VISUALSTYLE
  5
C4
102
{ACAD_XDICTIONARY
360
167
102
}
102
{ACAD_REACTORS
330
C3
102
}
330
C3
100
AcDbVisualStyle
  2
Flat
 70
     0
177
     2
291
     1
 71
     2
176
     1
 72
     1
176
     1
 73
     1
176
     1
 90
        2
176
     1
 40
0.6
176
     1
 41
30.0
176
     1
 63
     7
421
 16777215
176
     1
 74
     0
176
     1
 91
        0
176
     1
 64
     7
176
     1
 65
   257
176
     1
 75
     1
176
     1
175
     1
176
     1
 42
1.0
176
     1
 92
        8
176
     1
 66
     7
176
     1
 43
1.0
176
     1
 76
     1
176
     1
 77
     6
176
     1
 78
     2
176
     1
 67
     7
176
     1
 79
     5
176
     1
170
     0
176
     1
171
     0
176
     1
290
     0
176
     1
 93
       13
176
     1
 44
0.0
176
     1
173
     0
176
     1
1001
ACAD
1000
AcDbSavedByObjectVersion
1070
     0
  0
VISUALSTYLE
  5
C5
102
{ACAD_XDICTIONARY
360
169
102
}
102
{ACAD_REACTORS
330
C3
102
}
330
C3
100
AcDbVisualStyle
  2
FlatWithEdges
 70
     1
177
     2
291
     1
 71
     2
176
     1
 72
     1
176
     1
 73
     1
176
     1
 90
        2
176
     1
 40
0.6
176
     1
 41
30.0
176
     1
 63
     7
421
 16777215
176
     1
 74
     1
176
     1
 91
        0
176
     1
 64
     7
176
     1
 65
   257
176
     1
 75
     1
176
     1
175
     1
176
     1
 42
1.0
176
     1
 92
        0
176
     1
 66
   257
176
     1
 43
1.0
176
     1
 76
     1
176
     1
 77
     6
176
     1
 78
     2
176
     1
 67
     7
176
     1
 79
     5
176
     1
170
     0
176
     1
171
     0
176
     1
290
     0
176
     1
 93
       13
176
     1
 44
0.0
176
     1
173
     0
176
     1
1001
ACAD
1000
AcDbSavedByObjectVersion
1070
     0
  0
VISUALSTYLE
  5
C6
102
{ACAD_XDICTIONARY
360
16B
102
}
102
{ACAD_REACTORS
330
C3
102
}
330
C3
100
AcDbVisualStyle
  2
Gouraud
 70
     2
177
     2
291
     1
 71
     2
176
     1
 72
     2
176
     1
 73
     1
176
     1
 90
        2
176
     1
 40
0.6
176
     1
 41
30.0
176
     1
 63
     7
421
 16777215
176
     1
 74
     0
176
     1
 91
        0
176
     1
 64
     7
176
     1
 65
   257
176
     1
 75
     1
176
     1
175
     1
176
     1
 42
1.0
176
     1
 92
        0
176
     1
 66
     7
176
     1
 43
1.0
176
     1
 76
     1
176
     1
 77
     6
176
     1
 78
     2
176
     1
 67
     7
176
     1
 79
     5
176
     1
170
     0
176
     1
171
     0
176
     1
290
     0
176
     1
 93
       13
176
     1
 44
0.0
176
     1
173
     0
176
     1
1001
ACAD
1000
AcDbSavedByObjectVersion
1070
     0
  0
VISUALSTYLE
  5
C7
102
{ACAD_XDICTIONARY
360
16D
102
}
102
{ACAD_REACTORS
330
C3
102
}
330
C3
100
AcDbVisualStyle
  2
GouraudWithEdges
 70
     3
177
     2
291
     1
 71
     2
176
     1
 72
     2
176
     1
 73
     1
176
     1
 90
        2
176
     1
 40
0.6
176
     1
 41
30.0
176
     1
 63
     7
421
 16777215
176
     1
 74
     1
176
     1
 91
        0
176
     1
 64
     7
176
     1
 65
   257
176
     1
 75
     1
176
     1
175
     1
176
     1
 42
1.0
176
     1
 92
        0
176
     1
 66
   257
176
     1
 43
1.0
176
     1
 76
     1
176
     1
 77
     6
176
     1
 78
     2
176
     1
 67
     7
176
     1
 79
     5
176
     1
170
     0
176
     1
171
     0
176
     1
290
     0
176
     1
 93
       13
176
     1
 44
0.0
176
     1
173
     0
176
     1
1001
ACAD
1000
AcDbSavedByObjectVersion
1070
     0
  0
VISUALSTYLE
  5
CB
102
{ACAD_XDICTIONARY
360
175
102
}
102
{ACAD_REACTORS
330
C3
102
}
330
C3
100
AcDbVisualStyle
  2
Hidden
 70
     6
177
     2
291
     0
 71
     1
176
     1
 72
     2
176
     1
 73
     2
176
     1
 90
        0
176
     1
 40
0.6
176
     1
 41
30.0
176
     1
 63
     7
421
 16777215
176
     1
 74
     2
176
     1
 91
        2
176
     1
 64
     7
176
     1
 65
   257
176
     1
 75
     2
176
     1
175
     1
176
     1
 42
40.0
176
     1
 92
        0
176
     1
 66
   257
176
     1
 43
1.0
176
     1
 76
     1
176
     1
 77
     6
176
     1
 78
     2
176
     1
 67
     7
176
     1
 79
     3
176
     1
170
     0
176
     1
171
     0
176
     1
290
     0
176
     1
 93
        1
176
     1
 44
0.0
176
     1
173
     0
176
     1
1001
ACAD
1000
AcDbSavedByObjectVersion
1070
     0
  0
VISUALSTYLE
  5
D9
102
{ACAD_XDICTIONARY
360
191
102
}
102
{ACAD_REACTORS
330
C3
102
}
330
C3
100
AcDbVisualStyle
  2
JitterOff
 70
    20
177
     2
291
     1
 71
     2
176
     0
 72
     2
176
     0
 73
     0
176
     0
 90
        0
176
     0
 40
0.6
176
     0
 41
30.0
176
     0
 63
     7
421
 16777215
176
     0
 74
     1
176
     0
 91
        4
176
     0
 64
     7
176
     0
 65
   257
176
     0
 75
     1
176
     0
175
     1
176
     0
 42
1.0
176
     0
 92
       10
176
     2
 66
     7
176
     0
 43
1.0
176
     0
 76
     1
176
     0
 77
     6
176
     0
 78
     2
176
     0
 67
     7
176
     0
 79
     5
176
     0
170
     0
176
     0
171
     0
176
     0
290
     0
176
     0
 93
        1
176
     0
 44
0.0
176
     0
173
     0
176
     0
1001
ACAD
1000
AcDbSavedByObjectVersion
1070
     0
  0
VISUALSTYLE
  5
D1
102
{ACAD_XDICTIONARY
360
181
102
}
102
{ACAD_REACTORS
330
C3
102
}
330
C3
100
AcDbVisualStyle
  2
Linepattern
 70
    14
177
     2
291
     1
 71
     2
176
     1
 72
     2
176
     1
 73
     0
176
     1
 90
        0
176
     1
 40
0.6
176
     1
 41
30.0
176
     1
 63
     7
421
 16777215
176
     1
 74
     1
176
     1
 91
        4
176
     1
 64
     7
176
     1
 65
   257
176
     1
 75
     7
176
     1
175
     7
176
     1
 42
1.0
176
     1
 92
        8
176
     1
 66
     7
176
     1
 43
1.0
176
     1
 76
     1
176
     1
 77
     6
176
     1
 78
     2
176
     1
 67
     7
176
     1
 79
     5
176
     1
170
     0
176
     1
171
     0
176
     1
290
     0
176
     1
 93
        1
176
     1
 44
0.0
176
     1
173
     0
176
     1
1001
ACAD
1000
AcDbSavedByObjectVersion
1070
     0
  0
VISUALSTYLE
  5
DA
102
{ACAD_XDICTIONARY
360
193
102
}
102
{ACAD_REACTORS
330
C3
102
}
330
C3
100
AcDbVisualStyle
  2
OverhangOff
 70
    21
177
     2
291
     1
 71
     2
176
     0
 72
     2
176
     0
 73
     0
176
     0
 90
        0
176
     0
 40
0.6
176
     0
 41
30.0
176
     0
 63
     7
421
 16777215
176
     0
 74
     1
176
     0
 91
        4
176
     0
 64
     7
176
     0
 65
   257
176
     0
 75
     1
176
     0
175
     1
176
     0
 42
1.0
176
     0
 92
        9
176
     2
 66
     7
176
     0
 43
1.0
176
     0
 76
     1
176
     0
 77
     6
176
     0
 78
     2
176
     0
 67
     7
176
     0
 79
     5
176
     0
170
     0
176
     0
171
     0
176
     0
290
     0
176
     0
 93
        1
176
     0
 44
0.0
176
     0
173
     0
176
     0
1001
ACAD
1000
AcDbSavedByObjectVersion
1070
     0
  0
VISUALSTYLE
  5
CD
102
{ACAD_XDICTIONARY
360
179
102
}
102
{ACAD_REACTORS
330
C3
102
}
330
C3
100
AcDbVisualStyle
  2
Realistic
 70
     8
177
     2
291
     0
 71
     2
176
     1
 72
     3
176
     1
 73
     0
176
     1
 90
        2
176
     1
 40
0.6
176
     1
 41
30.0
176
     1
 63
     7
421
 16777215
176
     1
 74
     0
176
     1
 91
        0
176
     1
 64
     7
176
     1
 65
   257
176
     1
 75
     1
176
     1
175
     1
176
     1
 42
1.0
176
     1
 92
        8
176
     1
 66
   257
176
     1
 43
1.0
176
     1
 76
     1
176
     1
 77
     6
176
     1
 78
     2
176
     1
 67
     7
176
     1
 79
     3
176
     1
170
     0
176
     1
171
     0
176
     1
290
     0
176
     1
 93
       13
176
     1
 44
0.0
176
     1
173
     0
176
     1
1001
ACAD
1000
AcDbSavedByObjectVersion
1070
     0
  0
VISUALSTYLE
  5
D8
102
{ACAD_XDICTIONARY
360
18F
102
}
102
{ACAD_REACTORS
330
C3
102
}
330
C3
100
AcDbVisualStyle
  2
Shaded
 70
    27
177
     2
291
     0
 71
     2
176
     1
 72
     2
176
     1
 73
     1
176
     1
 90
        2
176
     1
 40
0.6
176
     1
 41
30.0
176
     1
 63
     7
421
 16777215
176
     1
 74
     0
176
     1
 91
        4
176
     1
 64
     7
176
     1
 65
   257
176
     1
 75
     1
176
     1
175
     1
176
     1
 42
1.0
176
     1
 92
        8
176
     1
 66
   257
176
     1
 43
1.0
176
     1
 76
     1
176
     1
 77
     6
176
     1
 78
     2
176
     1
 67
     8
425
  7895160
176
     1
 79
     3
176
     1
170
     0
176
     1
171
     0
176
     1
290
     0
176
     1
 93
        5
176
     1
 44
0.0
176
     1
173
     0
176
     1
1001
ACAD
1000
AcDbSavedByObjectVersion
1070
     0
  0
VISUALSTYLE
  5
D7
102
{ACAD_XDICTIONARY
360
18D
102
}
102
{ACAD_REACTORS
330
C3
102
}
330
C3
100
AcDbVisualStyle
  2
Shaded with edges
 70
    26
177
     2
291
     0
 71
     2
176
     1
 72
     2
176
     1
 73
     1
176
     1
 90
        2
176
     1
 40
0.6
176
     1
 41
30.0
176
     1
 63
     7
421
 16777215
176
     1
 74
     1
176
     1
 91
       10
176
     1
 64
     7
176
     1
 65
   257
176
     1
 75
     2
176
     1
175
     1
176
     1
 42
1.0
176
     1
 92
        8
176
     1
 66
   257
176
     1
 43
1.0
176
     1
 76
     1
176
     1
 77
     6
176
     1
 78
     2
176
     1
 67
     7
176
     1
 79
     3
176
     1
170
     0
176
     1
171
     0
176
     1
290
     0
176
     1
 93
        5
176
     1
 44
0.0
176
     1
173
     0
176
     1
1001
ACAD
1000
AcDbSavedByObjectVersion
1070
     0
  0
VISUALSTYLE
  5
D4
102
{ACAD_XDICTIONARY
360
187
102
}
102
{ACAD_REACTORS
330
C3
102
}
330
C3
100
AcDbVisualStyle
  2
Shades of Gray
 70
    23
177
     2
291
     0
 71
     2
176
     1
 72
     2
176
     1
 73
     3
176
     1
 90
        0
176
     1
 40
0.6
176
     1
 41
30.0
176
     1
 63
     7
421
 16777215
176
     1
 74
     2
176
     1
 91
        2
176
     1
 64
     7
176
     1
 65
     7
176
     1
 75
     1
176
     1
175
     1
176
     1
 42
40.0
176
     1
 92
        8
176
     1
 66
     7
176
     1
 43
1.0
176
     1
 76
     1
176
     1
 77
     6
176
     1
 78
     2
176
     1
 67
     7
176
     1
 79
     3
176
     1
170
     0
176
     1
171
     0
176
     1
290
     0
176
     1
 93
        1
176
     1
 44
0.0
176
     1
173
     0
176
     1
1001
ACAD
1000
AcDbSavedByObjectVersion
1070
     0
  0
VISUALSTYLE
  5
D5
102
{ACAD_XDICTIONARY
360
189
102
}
102
{ACAD_REACTORS
330
C3
102
}
330
C3
100
AcDbVisualStyle
  2
Sketchy
 70
    24
177
     2
291
     0
 71
     1
176
     1
 72
     2
176
     1
 73
     2
176
     1
 90
        0
176
     1
 40
0.6
176
     1
 41
30.0
176
     1
 63
     7
421
 16777215
176
     1
 74
     2
176
     1
 91
        2
176
     1
 64
     7
176
     1
 65
     7
176
     1
 75
     1
176
     1
175
     1
176
     1
 42
40.0
176
     1
 92
       11
176
     1
 66
     7
176
     1
 43
1.0
176
     1
 76
     1
176
     1
 77
     6
176
     1
 78
     2
176
     1
 67
     7
176
     1
 79
     6
176
     1
170
     0
176
     1
171
     0
176
     1
290
     0
176
     1
 93
        1
176
     1
 44
0.0
176
     1
173
     0
176
     1
1001
ACAD
1000
AcDbSavedByObjectVersion
1070
     0
  0
VISUALSTYLE
  5
D0
102
{ACAD_XDICTIONARY
360
17F
102
}
102
{ACAD_REACTORS
330
C3
102
}
330
C3
100
AcDbVisualStyle
  2
Thicken
 70
    13
177
     2
291
     1
 71
     2
176
     1
 72
     2
176
     1
 73
     0
176
     1
 90
        0
176
     1
 40
0.6
176
     1
 41
30.0
176
     1
 63
     7
421
 16777215
176
     1
 74
     1
176
     1
 91
        4
176
     1
 64
     7
176
     1
 65
   257
176
     1
 75
     1
176
     1
175
     1
176
     1
 42
1.0
176
     1
 92
       12
176
     1
 66
     7
176
     1
 43
1.0
176
     1
 76
     1
176
     1
 77
     6
176
     1
 78
     2
176
     1
 67
     7
176
     1
 79
     5
176
     1
170
     0
176
     1
171
     0
176
     1
290
     0
176
     1
 93
        1
176
     1
 44
0.0
176
     1
173
     0
176
     1
1001
ACAD
1000
AcDbSavedByObjectVersion
1070
     0
  0
VISUALSTYLE
  5
CA
102
{ACAD_XDICTIONARY
360
173
102
}
102
{ACAD_REACTORS
330
C3
102
}
330
C3
100
AcDbVisualStyle
  2
Wireframe
 70
     5
177
     2
291
     0
 71
     0
176
     1
 72
     2
176
     1
 73
     0
176
     1
 90
        0
176
     1
 40
0.6
176
     1
 41
30.0
176
     1
 63
     7
421
 16777215
176
     1
 74
     1
176
     1
 91
        4
176
     1
 64
     7
176
     1
 65
   257
176
     1
 75
     1
176
     1
175
     1
176
     1
 42
1.0
176
     1
 92
        0
176
     1
 66
   257
176
     1
 43
1.0
176
     1
 76
     1
176
     1
 77
     6
176
     1
 78
     2
176
     1
 67
     7
176
     1
 79
     3
176
     1
170
     0
176
     1
171
     0
176
     1
290
     0
176
     1
 93
        1
176
     1
 44
0.0
176
     1
173
     0
176
     1
1001
ACAD
1000
AcDbSavedByObjectVersion
1070
     0
  0
VISUALSTYLE
  5
D6
102
{ACAD_XDICTIONARY
360
18B
102
}
102
{ACAD_REACTORS
330
C3
102
}
330
C3
100
AcDbVisualStyle
  2
X-Ray
 70
    25
177
     2
291
     0
 71
     2
176
     1
 72
     2
176
     1
 73
     1
176
     1
 90
        1
176
     1
 40
0.5
176
     1
 41
30.0
176
     1
 63
     7
421
 16777215
176
     1
 74
     1
176
     1
 91
        0
176
     1
 64
     7
176
     1
 65
   257
176
     1
 75
     1
176
     1
175
     1
176
     1
 42
1.0
176
     1
 92
        8
176
     1
 66
     7
176
     1
 43
1.0
176
     1
 76
     1
176
     1
 77
     6
176
     1
 78
     2
176
     1
 67
     7
176
     1
 79
     3
176
     1
170
     0
176
     1
171
     0
176
     1
290
     0
176
     1
 93
       13
176
     1
 44
0.0
176
     1
173
     0
176
     1
1001
ACAD
1000
AcDbSavedByObjectVersion
1070
     0
  0
DICTIONARYVAR
  5
160
102
{ACAD_REACTORS
330
15A
102
}
330
15A
100
DictionaryVariables
280
     0
  1
1:1
  0
DICTIONARYVAR
  5
15C
102
{ACAD_REACTORS
330
15A
102
}
330
15A
100
DictionaryVariables
280
     0
  1
STANDARD
  0
DICTIONARYVAR
  5
15B
102
{ACAD_REACTORS
330
15A
102
}
330
15A
100
DictionaryVariables
280
     0
  1
STANDARD
  0
DICTIONARYVAR
  5
15D
102
{ACAD_REACTORS
330
15A
102
}
330
15A
100
DictionaryVariables
280
     0
  1
Imperial24
  0
DICTIONARYVAR
  5
15E
102
{ACAD_REACTORS
330
15A
102
}
330
15A
100
DictionaryVariables
280
     0
  1
Imperial24
  0
DICTIONARYVAR
  5
162
102
{ACAD_REACTORS
330
15A
102
}
330
15A
100
DictionaryVariables
280
     0
  1
1
  0
DICTIONARYVAR
  5
163
102
{ACAD_REACTORS
330
15A
102
}
330
15A
100
DictionaryVariables
280
     0
  1
15
  0
DICTIONARYVAR
  5
161
102
{ACAD_REACTORS
330
15A
102
}
330
15A
100
DictionaryVariables
280
     0
  1
0
  0
DICTIONARYVAR
  5
15F
102
{ACAD_REACTORS
330
15A
102
}
330
15A
100
DictionaryVariables
280
     0
  1
0
  0
DICTIONARY
  5
19B
330
F6
100
AcDbDictionary
280
     1
281
     1
  3
ACAD_XREC_ROUNDTRIP
360
19C
  0
DICTIONARY
  5
B4
330
B3
100
AcDbDictionary
280
     1
281
     1
  3
BUMPTILE
360
B6
  3
DIFFUSETILE
360
B5
  3
OPACITYTILE
360
B9
  3
REFLECTIONTILE
360
B8
  3
REFRACTIONTILE
360
BA
  3
SPECULARTILE
360
B7
  0
DICTIONARY
  5
AC
330
AB
100
AcDbDictionary
280
     1
281
     1
  3
BUMPTILE
360
AE
  3
DIFFUSETILE
360
AD
  3
OPACITYTILE
360
B1
  3
REFLECTIONTILE
360
B0
  3
REFRACTIONTILE
360
B2
  3
SPECULARTILE
360
AF
  0
DICTIONARY
  5
BC
330
BB
100
AcDbDictionary
280
     1
281
     1
  3
BUMPTILE
360
BE
  3
DIFFUSETILE
360
BD
  3
OPACITYTILE
360
C1
  3
REFLECTIONTILE
360
C0
  3
REFRACTIONTILE
360
C2
  3
SPECULARTILE
360
BF
  0
DICTIONARY
  5
197
330
F2
100
AcDbDictionary
280
     1
281
     1
  3
ACAD_XREC_ROUNDTRIP
360
198
  0
DICTIONARY
  5
199
330
F4
100
AcDbDictionary
280
     1
281
     1
  3
ACAD_XREC_ROUNDTRIP
360
19A
  0
DICTIONARY
  5
164
330
DE
100
AcDbDictionary
280
     1
281
     1
  3
ACAD_ROUNDTRIP_2008_TABLESTYLE_CELLSTYLEMAP
360
165
  0
DICTIONARY
  5
171
330
C9
100
AcDbDictionary
280
     1
281
     1
  3
ACAD_XREC_ROUNDTRIP
360
172
  0
DICTIONARY
  5
16F
330
C8
100
AcDbDictionary
280
     1
281
     1
  3
ACAD_XREC_ROUNDTRIP
360
170
  0
DICTIONARY
  5
17D
330
CF
100
AcDbDictionary
280
     1
281
     1
  3
ACAD_XREC_ROUNDTRIP
360
17E
  0
DICTIONARY
  5
185
330
D3
100
AcDbDictionary
280
     1
281
     1
  3
ACAD_XREC_ROUNDTRIP
360
186
  0
DICTIONARY
  5
177
330
CC
100
AcDbDictionary
280
     1
281
     1
  3
ACAD_XREC_ROUNDTRIP
360
178
  0
DICTIONARY
  5
17B
330
CE
100
AcDbDictionary
280
     1
281
     1
  3
ACAD_XREC_ROUNDTRIP
360
17C
  0
DICTIONARY
  5
195
330
DB
100
AcDbDictionary
280
     1
281
     1
  3
ACAD_XREC_ROUNDTRIP
360
196
  0
DICTIONARY
  5
183
330
D2
100
AcDbDictionary
280
     1
281
     1
  3
ACAD_XREC_ROUNDTRIP
360
184
  0
DICTIONARY
  5
167
330
C4
100
AcDbDictionary
280
     1
281
     1
  3
ACAD_XREC_ROUNDTRIP
360
168
  0
DICTIONARY
  5
169
330
C5
100
AcDbDictionary
280
     1
281
     1
  3
ACAD_XREC_ROUNDTRIP
360
16A
  0
DICTIONARY
  5
16B
330
C6
100
AcDbDictionary
280
     1
281
     1
  3
ACAD_XREC_ROUNDTRIP
360
16C
  0
DICTIONARY
  5
16D
330
C7
100
AcDbDictionary
280
     1
281
     1
  3
ACAD_XREC_ROUNDTRIP
360
16E
  0
DICTIONARY
  5
175
330
CB
100
AcDbDictionary
280
     1
281
     1
  3
ACAD_XREC_ROUNDTRIP
360
176
  0
DICTIONARY
  5
191
330
D9
100
AcDbDictionary
280
     1
281
     1
  3
ACAD_XREC_ROUNDTRIP
360
192
  0
DICTIONARY
  5
181
330
D1
100
AcDbDictionary
280
     1
281
     1
  3
ACAD_XREC_ROUNDTRIP
360
182
  0
DICTIONARY
  5
193
330
DA
100
AcDbDictionary
280
     1
281
     1
  3
ACAD_XREC_ROUNDTRIP
360
194
  0
DICTIONARY
  5
179
330
CD
100
AcDbDictionary
280
     1
281
     1
  3
ACAD_XREC_ROUNDTRIP
360
17A
  0
DICTIONARY
  5
18F
330
D8
100
AcDbDictionary
280
     1
281
     1
  3
ACAD_XREC_ROUNDTRIP
360
190
  0
DICTIONARY
  5
18D
330
D7
100
AcDbDictionary
280
     1
281
     1
  3
ACAD_XREC_ROUNDTRIP
360
18E
  0
DICTIONARY
  5
187
330
D4
100
AcDbDictionary
280
     1
281
     1
  3
ACAD_XREC_ROUNDTRIP
360
188
  0
DICTIONARY
  5
189
330
D5
100
AcDbDictionary
280
     1
281
     1
  3
ACAD_XREC_ROUNDTRIP
360
18A
  0
DICTIONARY
  5
17F
330
D0
100
AcDbDictionary
280
     1
281
     1
  3
ACAD_XREC_ROUNDTRIP
360
180
  0
DICTIONARY
  5
173
330
CA
100
AcDbDictionary
280
     1
281
     1
  3
ACAD_XREC_ROUNDTRIP
360
174
  0
DICTIONARY
  5
18B
330
D6
100
AcDbDictionary
280
     1
281
     1
  3
ACAD_XREC_ROUNDTRIP
360
18C
  0
XRECORD
  5
19C
102
{ACAD_REACTORS
330
19B
102
}
330
19B
100
AcDbXrecord
280
     1
102
DISPLAYNAME
  1
Imperial24
102
FLAGS
 90
        0
  0
XRECORD
  5
B6
102
{ACAD_REACTORS
330
B4
102
}
330
B4
100
AcDbXrecord
280
     1
270
     1
271
     1
  0
XRECORD
  5
B5
102
{ACAD_REACTORS
330
B4
102
}
330
B4
100
AcDbXrecord
280
     1
270
     1
271
     1
  0
XRECORD
  5
B9
102
{ACAD_REACTORS
330
B4
102
}
330
B4
100
AcDbXrecord
280
     1
270
     1
271
     1
  0
XRECORD
  5
B8
102
{ACAD_REACTORS
330
B4
102
}
330
B4
100
AcDbXrecord
280
     1
270
     1
271
     1
  0
XRECORD
  5
BA
102
{ACAD_REACTORS
330
B4
102
}
330
B4
100
AcDbXrecord
280
     1
270
     1
271
     1
  0
XRECORD
  5
B7
102
{ACAD_REACTORS
330
B4
102
}
330
B4
100
AcDbXrecord
280
     1
270
     1
271
     1
  0
XRECORD
  5
AE
102
{ACAD_REACTORS
330
AC
102
}
330
AC
100
AcDbXrecord
280
     1
270
     1
271
     1
  0
XRECORD
  5
AD
102
{ACAD_REACTORS
330
AC
102
}
330
AC
100
AcDbXrecord
280
     1
270
     1
271
     1
  0
XRECORD
  5
B1
102
{ACAD_REACTORS
330
AC
102
}
330
AC
100
AcDbXrecord
280
     1
270
     1
271
     1
  0
XRECORD
  5
B0
102
{ACAD_REACTORS
330
AC
102
}
330
AC
100
AcDbXrecord
280
     1
270
     1
271
     1
  0
XRECORD
  5
B2
102
{ACAD_REACTORS
330
AC
102
}
330
AC
100
AcDbXrecord
280
     1
270
     1
271
     1
  0
XRECORD
  5
AF
102
{ACAD_REACTORS
330
AC
102
}
330
AC
100
AcDbXrecord
280
     1
270
     1
271
     1
  0
XRECORD
  5
BE
102
{ACAD_REACTORS
330
BC
102
}
330
BC
100
AcDbXrecord
280
     1
270
     1
271
     1
  0
XRECORD
  5
BD
102
{ACAD_REACTORS
330
BC
102
}
330
BC
100
AcDbXrecord
280
     1
270
     1
271
     1
  0
XRECORD
  5
C1
102
{ACAD_REACTORS
330
BC
102
}
330
BC
100
AcDbXrecord
280
     1
270
     1
271
     1
  0
XRECORD
  5
C0
102
{ACAD_REACTORS
330
BC
102
}
330
BC
100
AcDbXrecord
280
     1
270
     1
271
     1
  0
XRECORD
  5
C2
102
{ACAD_REACTORS
330
BC
102
}
330
BC
100
AcDbXrecord
280
     1
270
     1
271
     1
  0
XRECORD
  5
BF
102
{ACAD_REACTORS
330
BC
102
}
330
BC
100
AcDbXrecord
280
     1
270
     1
271
     1
  0
XRECORD
  5
198
102
{ACAD_REACTORS
330
197
102
}
330
197
100
AcDbXrecord
280
     1
102
ACAD_ROUNDTRIP_2012_MLEADER_STYLE
298
     1
  0
XRECORD
  5
19A
102
{ACAD_REACTORS
330
199
102
}
330
199
100
AcDbXrecord
280
     1
102
DISPLAYNAME
  1
Imperial24
102
FLAGS
 90
        0
  0
CELLSTYLEMAP
  5
165
102
{ACAD_REACTORS
330
164
102
}
330
164
100
AcDbCellStyleMap
 90
        3
300
CELLSTYLE
  1
TABLEFORMAT_BEGIN
 90
        5
170
     1
 91
        0
 92
    32768
 62
   257
 93
        1
300
CONTENTFORMAT
  1
CONTENTFORMAT_BEGIN
 90
        0
 91
        0
 92
      512
 93
        0
300

 40
0.0
140
1.0
 94
        5
 62
     0
340
11
144
0.25
309
CONTENTFORMAT_END
171
     0
 94
        0
309
TABLEFORMAT_END
  1
CELLSTYLE_BEGIN
 90
        1
 91
        1
300
_TITLE
309
CELLSTYLE_END
300
CELLSTYLE
  1
TABLEFORMAT_BEGIN
 90
        5
170
     1
 91
        0
 92
        0
 62
   257
 93
        1
300
CONTENTFORMAT
  1
CONTENTFORMAT_BEGIN
 90
        0
 91
        0
 92
      512
 93
        0
300

 40
0.0
140
1.0
 94
        5
 62
     0
340
11
144
0.18
309
CONTENTFORMAT_END
171
     0
 94
        0
309
TABLEFORMAT_END
  1
CELLSTYLE_BEGIN
 90
        2
 91
        1
300
_HEADER
309
CELLSTYLE_END
300
CELLSTYLE
  1
TABLEFORMAT_BEGIN
 90
        5
170
     1
 91
        0
 92
        0
 62
   257
 93
        1
300
CONTENTFORMAT
  1
CONTENTFORMAT_BEGIN
 90
        0
 91
        0
 92
      512
 93
        0
300

 40
0.0
140
1.0
 94
        2
 62
     0
340
11
144
0.18
309
CONTENTFORMAT_END
171
     0
 94
        0
309
TABLEFORMAT_END
  1
CELLSTYLE_BEGIN
 90
        3
 91
        2
300
_DATA
309
CELLSTYLE_END
  0
XRECORD
  5
172
102
{ACAD_REACTORS
330
171
102
}
330
171
100
AcDbXrecord
280
     1
102
RTVSPost2010Prop28
280
     1
102
RTVSPost2010PropOp28
 70
     1
102
RTVSPost2010Prop29
280
     1
102
RTVSPost2010PropOp29
 70
     1
102
RTVSPost2010Prop30
280
     0
102
RTVSPost2010PropOp30
 70
     1
102
RTVSPost2010Prop31
280
     0
102
RTVSPost2010PropOp31
 70
     1
102
RTVSPost2010Prop32
280
     0
102
RTVSPost2010PropOp32
 70
     1
102
RTVSPost2010Prop33
280
     0
102
RTVSPost2010PropOp33
 70
     1
102
RTVSPost2010Prop34
280
     0
102
RTVSPost2010PropOp34
 70
     1
102
RTVSPost2010Prop35
280
     0
102
RTVSPost2010PropOp35
 70
     1
102
RTVSPost2010Prop36
280
     0
102
RTVSPost2010PropOp36
 70
     1
102
RTVSPost2010Prop37
 90
       50
102
RTVSPost2010PropOp37
 70
     1
102
RTVSPost2010Prop38
140
0.0
102
RTVSPost2010PropOp38
 70
     1
102
RTVSPost2010Prop39
140
1.0
102
RTVSPost2010PropOp39
 70
     1
102
RTVSPost2010Prop40
 90
        0
102
RTVSPost2010PropOp40
 70
     1
102
RTVSPost2010Prop41ColorIndex
 90
       18
102
RTVSPost2010Prop41ColorRGB
 90
        0
102
RTVSPost2010PropOp41
 70
     1
102
RTVSPost2010Prop42
 90
       50
102
RTVSPost2010PropOp42
 70
     1
102
RTVSPost2010Prop43
 90
        3
102
RTVSPost2010PropOp43
 70
     1
102
RTVSPost2010Prop44ColorIndex
 90
        5
102
RTVSPost2010Prop44ColorRGB
 90
      255
102
RTVSPost2010PropOp44
 70
     1
102
RTVSPost2010Prop45
280
     0
102
RTVSPost2010PropOp45
 70
     1
102
RTVSPost2010Prop46
 90
       50
102
RTVSPost2010PropOp46
 70
     1
102
RTVSPost2010Prop47
 90
       50
102
RTVSPost2010PropOp47
 70
     1
102
RTVSPost2010Prop48
 90
       50
102
RTVSPost2010PropOp48
 70
     1
102
RTVSPost2010Prop49
280
     0
102
RTVSPost2010PropOp49
 70
     1
102
RTVSPost2010Prop50
 90
       50
102
RTVSPost2010PropOp50
 70
     1
102
RTVSPost2010Prop51ColorIndex
 90
      256
102
RTVSPost2010Prop51ColorRGB
 90
-16777216
102
RTVSPost2010PropOp51
 70
     0
102
RTVSPost2010Prop52
140
1.0
102
RTVSPost2010PropOp52
 70
     0
102
RTVSPost2010Prop53
 90
        2
102
RTVSPost2010PropOp53
 70
     1
102
RTVSPost2010Prop54
  1
strokes_ogs.tif
102
RTVSPost2010PropOp54
 70
     1
102
RTVSPost2010Prop55
280
     0
102
RTVSPost2010PropOp55
 70
     1
102
RTVSPost2010Prop56
140
1.0
102
RTVSPost2010PropOp56
 70
     1
102
RTVSPost2010Prop57
140
1.0
102
RTVSPost2010PropOp57
 70
     1
  0
XRECORD
  5
170
102
{ACAD_REACTORS
330
16F
102
}
330
16F
100
AcDbXrecord
280
     1
102
RTVSPost2010Prop28
280
     0
102
RTVSPost2010PropOp28
 70
     1
102
RTVSPost2010Prop29
280
     1
102
RTVSPost2010PropOp29
 70
     1
102
RTVSPost2010Prop30
280
     1
102
RTVSPost2010PropOp30
 70
     1
102
RTVSPost2010Prop31
280
     0
102
RTVSPost2010PropOp31
 70
     1
102
RTVSPost2010Prop32
280
     0
102
RTVSPost2010PropOp32
 70
     1
102
RTVSPost2010Prop33
280
     0
102
RTVSPost2010PropOp33
 70
     1
102
RTVSPost2010Prop34
280
     0
102
RTVSPost2010PropOp34
 70
     1
102
RTVSPost2010Prop35
280
     0
102
RTVSPost2010PropOp35
 70
     1
102
RTVSPost2010Prop36
280
     0
102
RTVSPost2010PropOp36
 70
     1
102
RTVSPost2010Prop37
 90
       50
102
RTVSPost2010PropOp37
 70
     1
102
RTVSPost2010Prop38
140
0.0
102
RTVSPost2010PropOp38
 70
     1
102
RTVSPost2010Prop39
140
1.0
102
RTVSPost2010PropOp39
 70
     1
102
RTVSPost2010Prop40
 90
        0
102
RTVSPost2010PropOp40
 70
     1
102
RTVSPost2010Prop41ColorIndex
 90
       18
102
RTVSPost2010Prop41ColorRGB
 90
        0
102
RTVSPost2010PropOp41
 70
     1
102
RTVSPost2010Prop42
 90
       50
102
RTVSPost2010PropOp42
 70
     1
102
RTVSPost2010Prop43
 90
        3
102
RTVSPost2010PropOp43
 70
     1
102
RTVSPost2010Prop44ColorIndex
 90
        5
102
RTVSPost2010Prop44ColorRGB
 90
      255
102
RTVSPost2010PropOp44
 70
     1
102
RTVSPost2010Prop45
280
     0
102
RTVSPost2010PropOp45
 70
     1
102
RTVSPost2010Prop46
 90
       50
102
RTVSPost2010PropOp46
 70
     1
102
RTVSPost2010Prop47
 90
       50
102
RTVSPost2010PropOp47
 70
     1
102
RTVSPost2010Prop48
 90
       50
102
RTVSPost2010PropOp48
 70
     1
102
RTVSPost2010Prop49
280
     0
102
RTVSPost2010PropOp49
 70
     1
102
RTVSPost2010Prop50
 90
       50
102
RTVSPost2010PropOp50
 70
     1
102
RTVSPost2010Prop51ColorIndex
 90
      256
102
RTVSPost2010Prop51ColorRGB
 90
-16777216
102
RTVSPost2010PropOp51
 70
     0
102
RTVSPost2010Prop52
140
1.0
102
RTVSPost2010PropOp52
 70
     0
102
RTVSPost2010Prop53
 90
        2
102
RTVSPost2010PropOp53
 70
     1
102
RTVSPost2010Prop54
  1
strokes_ogs.tif
102
RTVSPost2010PropOp54
 70
     1
102
RTVSPost2010Prop55
280
     0
102
RTVSPost2010PropOp55
 70
     1
102
RTVSPost2010Prop56
140
1.0
102
RTVSPost2010PropOp56
 70
     1
102
RTVSPost2010Prop57
140
1.0
102
RTVSPost2010PropOp57
 70
     1
  0
XRECORD
  5
17E
102
{ACAD_REACTORS
330
17D
102
}
330
17D
100
AcDbXrecord
280
     1
102
RTVSPost2010Prop28
280
     0
102
RTVSPost2010PropOp28
 70
     1
102
RTVSPost2010Prop29
280
     1
102
RTVSPost2010PropOp29
 70
     1
102
RTVSPost2010Prop30
280
     1
102
RTVSPost2010PropOp30
 70
     1
102
RTVSPost2010Prop31
280
     0
102
RTVSPost2010PropOp31
 70
     1
102
RTVSPost2010Prop32
280
     0
102
RTVSPost2010PropOp32
 70
     1
102
RTVSPost2010Prop33
280
     0
102
RTVSPost2010PropOp33
 70
     1
102
RTVSPost2010Prop34
280
     0
102
RTVSPost2010PropOp34
 70
     1
102
RTVSPost2010Prop35
280
     0
102
RTVSPost2010PropOp35
 70
     1
102
RTVSPost2010Prop36
280
     0
102
RTVSPost2010PropOp36
 70
     1
102
RTVSPost2010Prop37
 90
       50
102
RTVSPost2010PropOp37
 70
     1
102
RTVSPost2010Prop38
140
0.0
102
RTVSPost2010PropOp38
 70
     1
102
RTVSPost2010Prop39
140
1.0
102
RTVSPost2010PropOp39
 70
     1
102
RTVSPost2010Prop40
 90
        0
102
RTVSPost2010PropOp40
 70
     1
102
RTVSPost2010Prop41ColorIndex
 90
       18
102
RTVSPost2010Prop41ColorRGB
 90
        0
102
RTVSPost2010PropOp41
 70
     1
102
RTVSPost2010Prop42
 90
       50
102
RTVSPost2010PropOp42
 70
     1
102
RTVSPost2010Prop43
 90
        3
102
RTVSPost2010PropOp43
 70
     1
102
RTVSPost2010Prop44ColorIndex
 90
        5
102
RTVSPost2010Prop44ColorRGB
 90
      255
102
RTVSPost2010PropOp44
 70
     1
102
RTVSPost2010Prop45
280
     0
102
RTVSPost2010PropOp45
 70
     1
102
RTVSPost2010Prop46
 90
       50
102
RTVSPost2010PropOp46
 70
     1
102
RTVSPost2010Prop47
 90
       50
102
RTVSPost2010PropOp47
 70
     1
102
RTVSPost2010Prop48
 90
       50
102
RTVSPost2010PropOp48
 70
     1
102
RTVSPost2010Prop49
280
     0
102
RTVSPost2010PropOp49
 70
     1
102
RTVSPost2010Prop50
 90
       50
102
RTVSPost2010PropOp50
 70
     1
102
RTVSPost2010Prop51ColorIndex
 90
      256
102
RTVSPost2010Prop51ColorRGB
 90
-16777216
102
RTVSPost2010PropOp51
 70
     0
102
RTVSPost2010Prop52
140
1.0
102
RTVSPost2010PropOp52
 70
     0
102
RTVSPost2010Prop53
 90
        2
102
RTVSPost2010PropOp53
 70
     1
102
RTVSPost2010Prop54
  1
strokes_ogs.tif
102
RTVSPost2010PropOp54
 70
     1
102
RTVSPost2010Prop55
280
     0
102
RTVSPost2010PropOp55
 70
     1
102
RTVSPost2010Prop56
140
1.0
102
RTVSPost2010PropOp56
 70
     1
102
RTVSPost2010Prop57
140
1.0
102
RTVSPost2010PropOp57
 70
     1
  0
XRECORD
  5
186
102
{ACAD_REACTORS
330
185
102
}
330
185
100
AcDbXrecord
280
     1
102
RTVSPost2010Prop28
280
     0
102
RTVSPost2010PropOp28
 70
     1
102
RTVSPost2010Prop29
280
     1
102
RTVSPost2010PropOp29
 70
     1
102
RTVSPost2010Prop30
280
     1
102
RTVSPost2010PropOp30
 70
     1
102
RTVSPost2010Prop31
280
     0
102
RTVSPost2010PropOp31
 70
     1
102
RTVSPost2010Prop32
280
     0
102
RTVSPost2010PropOp32
 70
     1
102
RTVSPost2010Prop33
280
     0
102
RTVSPost2010PropOp33
 70
     1
102
RTVSPost2010Prop34
280
     0
102
RTVSPost2010PropOp34
 70
     1
102
RTVSPost2010Prop35
280
     0
102
RTVSPost2010PropOp35
 70
     1
102
RTVSPost2010Prop36
280
     0
102
RTVSPost2010PropOp36
 70
     1
102
RTVSPost2010Prop37
 90
       50
102
RTVSPost2010PropOp37
 70
     1
102
RTVSPost2010Prop38
140
0.0
102
RTVSPost2010PropOp38
 70
     1
102
RTVSPost2010Prop39
140
1.0
102
RTVSPost2010PropOp39
 70
     1
102
RTVSPost2010Prop40
 90
        0
102
RTVSPost2010PropOp40
 70
     1
102
RTVSPost2010Prop41ColorIndex
 90
       18
102
RTVSPost2010Prop41ColorRGB
 90
        0
102
RTVSPost2010PropOp41
 70
     1
102
RTVSPost2010Prop42
 90
       50
102
RTVSPost2010PropOp42
 70
     1
102
RTVSPost2010Prop43
 90
        3
102
RTVSPost2010PropOp43
 70
     1
102
RTVSPost2010Prop44ColorIndex
 90
        5
102
RTVSPost2010Prop44ColorRGB
 90
      255
102
RTVSPost2010PropOp44
 70
     1
102
RTVSPost2010Prop45
280
     0
102
RTVSPost2010PropOp45
 70
     1
102
RTVSPost2010Prop46
 90
       50
102
RTVSPost2010PropOp46
 70
     1
102
RTVSPost2010Prop47
 90
       50
102
RTVSPost2010PropOp47
 70
     1
102
RTVSPost2010Prop48
 90
       50
102
RTVSPost2010PropOp48
 70
     1
102
RTVSPost2010Prop49
280
     0
102
RTVSPost2010PropOp49
 70
     1
102
RTVSPost2010Prop50
 90
       50
102
RTVSPost2010PropOp50
 70
     1
102
RTVSPost2010Prop51ColorIndex
 90
      256
102
RTVSPost2010Prop51ColorRGB
 90
-16777216
102
RTVSPost2010PropOp51
 70
     0
102
RTVSPost2010Prop52
140
1.0
102
RTVSPost2010PropOp52
 70
     0
102
RTVSPost2010Prop53
 90
        2
102
RTVSPost2010PropOp53
 70
     1
102
RTVSPost2010Prop54
  1
strokes_ogs.tif
102
RTVSPost2010PropOp54
 70
     1
102
RTVSPost2010Prop55
280
     0
102
RTVSPost2010PropOp55
 70
     1
102
RTVSPost2010Prop56
140
1.0
102
RTVSPost2010PropOp56
 70
     1
102
RTVSPost2010Prop57
140
1.0
102
RTVSPost2010PropOp57
 70
     1
  0
XRECORD
  5
178
102
{ACAD_REACTORS
330
177
102
}
330
177
100
AcDbXrecord
280
     1
102
RTVSPost2010Prop28
280
     0
102
RTVSPost2010PropOp28
 70
     1
102
RTVSPost2010Prop29
280
     1
102
RTVSPost2010PropOp29
 70
     1
102
RTVSPost2010Prop30
280
     1
102
RTVSPost2010PropOp30
 70
     1
102
RTVSPost2010Prop31
280
     0
102
RTVSPost2010PropOp31
 70
     1
102
RTVSPost2010Prop32
280
     0
102
RTVSPost2010PropOp32
 70
     1
102
RTVSPost2010Prop33
280
     0
102
RTVSPost2010PropOp33
 70
     1
102
RTVSPost2010Prop34
280
     0
102
RTVSPost2010PropOp34
 70
     1
102
RTVSPost2010Prop35
280
     0
102
RTVSPost2010PropOp35
 70
     1
102
RTVSPost2010Prop36
280
     0
102
RTVSPost2010PropOp36
 70
     1
102
RTVSPost2010Prop37
 90
       50
102
RTVSPost2010PropOp37
 70
     1
102
RTVSPost2010Prop38
140
0.0
102
RTVSPost2010PropOp38
 70
     1
102
RTVSPost2010Prop39
140
1.0
102
RTVSPost2010PropOp39
 70
     1
102
RTVSPost2010Prop40
 90
        0
102
RTVSPost2010PropOp40
 70
     1
102
RTVSPost2010Prop41ColorIndex
 90
       18
102
RTVSPost2010Prop41ColorRGB
 90
        0
102
RTVSPost2010PropOp41
 70
     1
102
RTVSPost2010Prop42
 90
       50
102
RTVSPost2010PropOp42
 70
     1
102
RTVSPost2010Prop43
 90
        3
102
RTVSPost2010PropOp43
 70
     1
102
RTVSPost2010Prop44ColorIndex
 90
        5
102
RTVSPost2010Prop44ColorRGB
 90
      255
102
RTVSPost2010PropOp44
 70
     1
102
RTVSPost2010Prop45
280
     0
102
RTVSPost2010PropOp45
 70
     1
102
RTVSPost2010Prop46
 90
       50
102
RTVSPost2010PropOp46
 70
     1
102
RTVSPost2010Prop47
 90
       50
102
RTVSPost2010PropOp47
 70
     1
102
RTVSPost2010Prop48
 90
       50
102
RTVSPost2010PropOp48
 70
     1
102
RTVSPost2010Prop49
280
     0
102
RTVSPost2010PropOp49
 70
     1
102
RTVSPost2010Prop50
 90
       50
102
RTVSPost2010PropOp50
 70
     1
102
RTVSPost2010Prop51ColorIndex
 90
      256
102
RTVSPost2010Prop51ColorRGB
 90
-16777216
102
RTVSPost2010PropOp51
 70
     0
102
RTVSPost2010Prop52
140
1.0
102
RTVSPost2010PropOp52
 70
     0
102
RTVSPost2010Prop53
 90
        2
102
RTVSPost2010PropOp53
 70
     1
102
RTVSPost2010Prop54
  1
strokes_ogs.tif
102
RTVSPost2010PropOp54
 70
     1
102
RTVSPost2010Prop55
280
     0
102
RTVSPost2010PropOp55
 70
     1
102
RTVSPost2010Prop56
140
1.0
102
RTVSPost2010PropOp56
 70
     1
102
RTVSPost2010Prop57
140
1.0
102
RTVSPost2010PropOp57
 70
     1
  0
XRECORD
  5
17C
102
{ACAD_REACTORS
330
17B
102
}
330
17B
100
AcDbXrecord
280
     1
102
RTVSPost2010Prop28
280
     0
102
RTVSPost2010PropOp28
 70
     1
102
RTVSPost2010Prop29
280
     1
102
RTVSPost2010PropOp29
 70
     1
102
RTVSPost2010Prop30
280
     1
102
RTVSPost2010PropOp30
 70
     1
102
RTVSPost2010Prop31
280
     0
102
RTVSPost2010PropOp31
 70
     1
102
RTVSPost2010Prop32
280
     0
102
RTVSPost2010PropOp32
 70
     1
102
RTVSPost2010Prop33
280
     0
102
RTVSPost2010PropOp33
 70
     1
102
RTVSPost2010Prop34
280
     0
102
RTVSPost2010PropOp34
 70
     1
102
RTVSPost2010Prop35
280
     0
102
RTVSPost2010PropOp35
 70
     1
102
RTVSPost2010Prop36
280
     0
102
RTVSPost2010PropOp36
 70
     1
102
RTVSPost2010Prop37
 90
       50
102
RTVSPost2010PropOp37
 70
     1
102
RTVSPost2010Prop38
140
0.0
102
RTVSPost2010PropOp38
 70
     1
102
RTVSPost2010Prop39
140
1.0
102
RTVSPost2010PropOp39
 70
     1
102
RTVSPost2010Prop40
 90
        0
102
RTVSPost2010PropOp40
 70
     1
102
RTVSPost2010Prop41ColorIndex
 90
       18
102
RTVSPost2010Prop41ColorRGB
 90
        0
102
RTVSPost2010PropOp41
 70
     1
102
RTVSPost2010Prop42
 90
       50
102
RTVSPost2010PropOp42
 70
     1
102
RTVSPost2010Prop43
 90
        3
102
RTVSPost2010PropOp43
 70
     1
102
RTVSPost2010Prop44ColorIndex
 90
        5
102
RTVSPost2010Prop44ColorRGB
 90
      255
102
RTVSPost2010PropOp44
 70
     1
102
RTVSPost2010Prop45
280
     0
102
RTVSPost2010PropOp45
 70
     1
102
RTVSPost2010Prop46
 90
       50
102
RTVSPost2010PropOp46
 70
     1
102
RTVSPost2010Prop47
 90
       50
102
RTVSPost2010PropOp47
 70
     1
102
RTVSPost2010Prop48
 90
       50
102
RTVSPost2010PropOp48
 70
     1
102
RTVSPost2010Prop49
280
     0
102
RTVSPost2010PropOp49
 70
     1
102
RTVSPost2010Prop50
 90
       50
102
RTVSPost2010PropOp50
 70
     1
102
RTVSPost2010Prop51ColorIndex
 90
      256
102
RTVSPost2010Prop51ColorRGB
 90
-16777216
102
RTVSPost2010PropOp51
 70
     0
102
RTVSPost2010Prop52
140
1.0
102
RTVSPost2010PropOp52
 70
     0
102
RTVSPost2010Prop53
 90
        2
102
RTVSPost2010PropOp53
 70
     1
102
RTVSPost2010Prop54
  1
strokes_ogs.tif
102
RTVSPost2010PropOp54
 70
     1
102
RTVSPost2010Prop55
280
     0
102
RTVSPost2010PropOp55
 70
     1
102
RTVSPost2010Prop56
140
1.0
102
RTVSPost2010PropOp56
 70
     1
102
RTVSPost2010Prop57
140
1.0
102
RTVSPost2010PropOp57
 70
     1
  0
XRECORD
  5
196
102
{ACAD_REACTORS
330
195
102
}
330
195
100
AcDbXrecord
280
     1
102
RTVSPost2010Prop28
280
     0
102
RTVSPost2010PropOp28
 70
     0
102
RTVSPost2010Prop29
280
     1
102
RTVSPost2010PropOp29
 70
     0
102
RTVSPost2010Prop30
280
     1
102
RTVSPost2010PropOp30
 70
     0
102
RTVSPost2010Prop31
280
     0
102
RTVSPost2010PropOp31
 70
     0
102
RTVSPost2010Prop32
280
     0
102
RTVSPost2010PropOp32
 70
     0
102
RTVSPost2010Prop33
280
     0
102
RTVSPost2010PropOp33
 70
     0
102
RTVSPost2010Prop34
280
     0
102
RTVSPost2010PropOp34
 70
     0
102
RTVSPost2010Prop35
280
     0
102
RTVSPost2010PropOp35
 70
     0
102
RTVSPost2010Prop36
280
     0
102
RTVSPost2010PropOp36
 70
     0
102
RTVSPost2010Prop37
 90
       50
102
RTVSPost2010PropOp37
 70
     0
102
RTVSPost2010Prop38
140
0.0
102
RTVSPost2010PropOp38
 70
     0
102
RTVSPost2010Prop39
140
1.0
102
RTVSPost2010PropOp39
 70
     0
102
RTVSPost2010Prop40
 90
        0
102
RTVSPost2010PropOp40
 70
     0
102
RTVSPost2010Prop41ColorIndex
 90
       18
102
RTVSPost2010Prop41ColorRGB
 90
        0
102
RTVSPost2010PropOp41
 70
     0
102
RTVSPost2010Prop42
 90
       50
102
RTVSPost2010PropOp42
 70
     0
102
RTVSPost2010Prop43
 90
        3
102
RTVSPost2010PropOp43
 70
     0
102
RTVSPost2010Prop44ColorIndex
 90
        5
102
RTVSPost2010Prop44ColorRGB
 90
      255
102
RTVSPost2010PropOp44
 70
     0
102
RTVSPost2010Prop45
280
     0
102
RTVSPost2010PropOp45
 70
     0
102
RTVSPost2010Prop46
 90
       50
102
RTVSPost2010PropOp46
 70
     0
102
RTVSPost2010Prop47
 90
       50
102
RTVSPost2010PropOp47
 70
     0
102
RTVSPost2010Prop48
 90
       50
102
RTVSPost2010PropOp48
 70
     0
102
RTVSPost2010Prop49
280
     0
102
RTVSPost2010PropOp49
 70
     0
102
RTVSPost2010Prop50
 90
       50
102
RTVSPost2010PropOp50
 70
     0
102
RTVSPost2010Prop51ColorIndex
 90
      256
102
RTVSPost2010Prop51ColorRGB
 90
-16777216
102
RTVSPost2010PropOp51
 70
     0
102
RTVSPost2010Prop52
140
1.0
102
RTVSPost2010PropOp52
 70
     0
102
RTVSPost2010Prop53
 90
        2
102
RTVSPost2010PropOp53
 70
     0
102
RTVSPost2010Prop54
  1
strokes_ogs.tif
102
RTVSPost2010PropOp54
 70
     0
102
RTVSPost2010Prop55
280
     0
102
RTVSPost2010PropOp55
 70
     0
102
RTVSPost2010Prop56
140
1.0
102
RTVSPost2010PropOp56
 70
     0
102
RTVSPost2010Prop57
140
1.0
102
RTVSPost2010PropOp57
 70
     0
  0
XRECORD
  5
184
102
{ACAD_REACTORS
330
183
102
}
330
183
100
AcDbXrecord
280
     1
102
RTVSPost2010Prop28
280
     0
102
RTVSPost2010PropOp28
 70
     1
102
RTVSPost2010Prop29
280
     1
102
RTVSPost2010PropOp29
 70
     1
102
RTVSPost2010Prop30
280
     1
102
RTVSPost2010PropOp30
 70
     1
102
RTVSPost2010Prop31
280
     0
102
RTVSPost2010PropOp31
 70
     1
102
RTVSPost2010Prop32
280
     0
102
RTVSPost2010PropOp32
 70
     1
102
RTVSPost2010Prop33
280
     0
102
RTVSPost2010PropOp33
 70
     1
102
RTVSPost2010Prop34
280
     0
102
RTVSPost2010PropOp34
 70
     1
102
RTVSPost2010Prop35
280
     0
102
RTVSPost2010PropOp35
 70
     1
102
RTVSPost2010Prop36
280
     0
102
RTVSPost2010PropOp36
 70
     1
102
RTVSPost2010Prop37
 90
       50
102
RTVSPost2010PropOp37
 70
     1
102
RTVSPost2010Prop38
140
0.0
102
RTVSPost2010PropOp38
 70
     1
102
RTVSPost2010Prop39
140
1.0
102
RTVSPost2010PropOp39
 70
     1
102
RTVSPost2010Prop40
 90
        0
102
RTVSPost2010PropOp40
 70
     1
102
RTVSPost2010Prop41ColorIndex
 90
       18
102
RTVSPost2010Prop41ColorRGB
 90
        0
102
RTVSPost2010PropOp41
 70
     1
102
RTVSPost2010Prop42
 90
       50
102
RTVSPost2010PropOp42
 70
     1
102
RTVSPost2010Prop43
 90
        3
102
RTVSPost2010PropOp43
 70
     1
102
RTVSPost2010Prop44ColorIndex
 90
        5
102
RTVSPost2010Prop44ColorRGB
 90
      255
102
RTVSPost2010PropOp44
 70
     1
102
RTVSPost2010Prop45
280
     0
102
RTVSPost2010PropOp45
 70
     1
102
RTVSPost2010Prop46
 90
       50
102
RTVSPost2010PropOp46
 70
     1
102
RTVSPost2010Prop47
 90
       50
102
RTVSPost2010PropOp47
 70
     1
102
RTVSPost2010Prop48
 90
       50
102
RTVSPost2010PropOp48
 70
     1
102
RTVSPost2010Prop49
280
     0
102
RTVSPost2010PropOp49
 70
     1
102
RTVSPost2010Prop50
 90
       50
102
RTVSPost2010PropOp50
 70
     1
102
RTVSPost2010Prop51ColorIndex
 90
      256
102
RTVSPost2010Prop51ColorRGB
 90
-16777216
102
RTVSPost2010PropOp51
 70
     0
102
RTVSPost2010Prop52
140
1.0
102
RTVSPost2010PropOp52
 70
     0
102
RTVSPost2010Prop53
 90
        2
102
RTVSPost2010PropOp53
 70
     1
102
RTVSPost2010Prop54
  1
strokes_ogs.tif
102
RTVSPost2010PropOp54
 70
     1
102
RTVSPost2010Prop55
280
     0
102
RTVSPost2010PropOp55
 70
     1
102
RTVSPost2010Prop56
140
1.0
102
RTVSPost2010PropOp56
 70
     1
102
RTVSPost2010Prop57
140
1.0
102
RTVSPost2010PropOp57
 70
     1
  0
XRECORD
  5
168
102
{ACAD_REACTORS
330
167
102
}
330
167
100
AcDbXrecord
280
     1
102
RTVSPost2010Prop28
280
     0
102
RTVSPost2010PropOp28
 70
     1
102
RTVSPost2010Prop29
280
     1
102
RTVSPost2010PropOp29
 70
     1
102
RTVSPost2010Prop30
280
     1
102
RTVSPost2010PropOp30
 70
     1
102
RTVSPost2010Prop31
280
     0
102
RTVSPost2010PropOp31
 70
     1
102
RTVSPost2010Prop32
280
     0
102
RTVSPost2010PropOp32
 70
     1
102
RTVSPost2010Prop33
280
     0
102
RTVSPost2010PropOp33
 70
     1
102
RTVSPost2010Prop34
280
     0
102
RTVSPost2010PropOp34
 70
     1
102
RTVSPost2010Prop35
280
     0
102
RTVSPost2010PropOp35
 70
     1
102
RTVSPost2010Prop36
280
     0
102
RTVSPost2010PropOp36
 70
     1
102
RTVSPost2010Prop37
 90
       50
102
RTVSPost2010PropOp37
 70
     1
102
RTVSPost2010Prop38
140
0.0
102
RTVSPost2010PropOp38
 70
     1
102
RTVSPost2010Prop39
140
1.0
102
RTVSPost2010PropOp39
 70
     1
102
RTVSPost2010Prop40
 90
        0
102
RTVSPost2010PropOp40
 70
     1
102
RTVSPost2010Prop41ColorIndex
 90
       18
102
RTVSPost2010Prop41ColorRGB
 90
        0
102
RTVSPost2010PropOp41
 70
     1
102
RTVSPost2010Prop42
 90
       50
102
RTVSPost2010PropOp42
 70
     1
102
RTVSPost2010Prop43
 90
        3
102
RTVSPost2010PropOp43
 70
     1
102
RTVSPost2010Prop44ColorIndex
 90
        5
102
RTVSPost2010Prop44ColorRGB
 90
      255
102
RTVSPost2010PropOp44
 70
     1
102
RTVSPost2010Prop45
280
     0
102
RTVSPost2010PropOp45
 70
     1
102
RTVSPost2010Prop46
 90
       50
102
RTVSPost2010PropOp46
 70
     1
102
RTVSPost2010Prop47
 90
       50
102
RTVSPost2010PropOp47
 70
     1
102
RTVSPost2010Prop48
 90
       50
102
RTVSPost2010PropOp48
 70
     1
102
RTVSPost2010Prop49
280
     0
102
RTVSPost2010PropOp49
 70
     1
102
RTVSPost2010Prop50
 90
       50
102
RTVSPost2010PropOp50
 70
     1
102
RTVSPost2010Prop51ColorIndex
 90
      256
102
RTVSPost2010Prop51ColorRGB
 90
-16777216
102
RTVSPost2010PropOp51
 70
     0
102
RTVSPost2010Prop52
140
1.0
102
RTVSPost2010PropOp52
 70
     0
102
RTVSPost2010Prop53
 90
        2
102
RTVSPost2010PropOp53
 70
     1
102
RTVSPost2010Prop54
  1
strokes_ogs.tif
102
RTVSPost2010PropOp54
 70
     1
102
RTVSPost2010Prop55
280
     0
102
RTVSPost2010PropOp55
 70
     1
102
RTVSPost2010Prop56
140
1.0
102
RTVSPost2010PropOp56
 70
     1
102
RTVSPost2010Prop57
140
1.0
102
RTVSPost2010PropOp57
 70
     1
  0
XRECORD
  5
16A
102
{ACAD_REACTORS
330
169
102
}
330
169
100
AcDbXrecord
280
     1
102
RTVSPost2010Prop28
280
     0
102
RTVSPost2010PropOp28
 70
     1
102
RTVSPost2010Prop29
280
     1
102
RTVSPost2010PropOp29
 70
     1
102
RTVSPost2010Prop30
280
     1
102
RTVSPost2010PropOp30
 70
     1
102
RTVSPost2010Prop31
280
     0
102
RTVSPost2010PropOp31
 70
     1
102
RTVSPost2010Prop32
280
     0
102
RTVSPost2010PropOp32
 70
     1
102
RTVSPost2010Prop33
280
     0
102
RTVSPost2010PropOp33
 70
     1
102
RTVSPost2010Prop34
280
     0
102
RTVSPost2010PropOp34
 70
     1
102
RTVSPost2010Prop35
280
     0
102
RTVSPost2010PropOp35
 70
     1
102
RTVSPost2010Prop36
280
     0
102
RTVSPost2010PropOp36
 70
     1
102
RTVSPost2010Prop37
 90
       50
102
RTVSPost2010PropOp37
 70
     1
102
RTVSPost2010Prop38
140
0.0
102
RTVSPost2010PropOp38
 70
     1
102
RTVSPost2010Prop39
140
1.0
102
RTVSPost2010PropOp39
 70
     1
102
RTVSPost2010Prop40
 90
        0
102
RTVSPost2010PropOp40
 70
     1
102
RTVSPost2010Prop41ColorIndex
 90
       18
102
RTVSPost2010Prop41ColorRGB
 90
        0
102
RTVSPost2010PropOp41
 70
     1
102
RTVSPost2010Prop42
 90
       50
102
RTVSPost2010PropOp42
 70
     1
102
RTVSPost2010Prop43
 90
        3
102
RTVSPost2010PropOp43
 70
     1
102
RTVSPost2010Prop44ColorIndex
 90
        5
102
RTVSPost2010Prop44ColorRGB
 90
      255
102
RTVSPost2010PropOp44
 70
     1
102
RTVSPost2010Prop45
280
     0
102
RTVSPost2010PropOp45
 70
     1
102
RTVSPost2010Prop46
 90
       50
102
RTVSPost2010PropOp46
 70
     1
102
RTVSPost2010Prop47
 90
       50
102
RTVSPost2010PropOp47
 70
     1
102
RTVSPost2010Prop48
 90
       50
102
RTVSPost2010PropOp48
 70
     1
102
RTVSPost2010Prop49
280
     0
102
RTVSPost2010PropOp49
 70
     1
102
RTVSPost2010Prop50
 90
       50
102
RTVSPost2010PropOp50
 70
     1
102
RTVSPost2010Prop51ColorIndex
 90
      256
102
RTVSPost2010Prop51ColorRGB
 90
-16777216
102
RTVSPost2010PropOp51
 70
     0
102
RTVSPost2010Prop52
140
1.0
102
RTVSPost2010PropOp52
 70
     0
102
RTVSPost2010Prop53
 90
        2
102
RTVSPost2010PropOp53
 70
     1
102
RTVSPost2010Prop54
  1
strokes_ogs.tif
102
RTVSPost2010PropOp54
 70
     1
102
RTVSPost2010Prop55
280
     0
102
RTVSPost2010PropOp55
 70
     1
102
RTVSPost2010Prop56
140
1.0
102
RTVSPost2010PropOp56
 70
     1
102
RTVSPost2010Prop57
140
1.0
102
RTVSPost2010PropOp57
 70
     1
  0
XRECORD
  5
16C
102
{ACAD_REACTORS
330
16B
102
}
330
16B
100
AcDbXrecord
280
     1
102
RTVSPost2010Prop28
280
     0
102
RTVSPost2010PropOp28
 70
     1
102
RTVSPost2010Prop29
280
     1
102
RTVSPost2010PropOp29
 70
     1
102
RTVSPost2010Prop30
280
     1
102
RTVSPost2010PropOp30
 70
     1
102
RTVSPost2010Prop31
280
     0
102
RTVSPost2010PropOp31
 70
     1
102
RTVSPost2010Prop32
280
     0
102
RTVSPost2010PropOp32
 70
     1
102
RTVSPost2010Prop33
280
     0
102
RTVSPost2010PropOp33
 70
     1
102
RTVSPost2010Prop34
280
     0
102
RTVSPost2010PropOp34
 70
     1
102
RTVSPost2010Prop35
280
     0
102
RTVSPost2010PropOp35
 70
     1
102
RTVSPost2010Prop36
280
     0
102
RTVSPost2010PropOp36
 70
     1
102
RTVSPost2010Prop37
 90
       50
102
RTVSPost2010PropOp37
 70
     1
102
RTVSPost2010Prop38
140
0.0
102
RTVSPost2010PropOp38
 70
     1
102
RTVSPost2010Prop39
140
1.0
102
RTVSPost2010PropOp39
 70
     1
102
RTVSPost2010Prop40
 90
        0
102
RTVSPost2010PropOp40
 70
     1
102
RTVSPost2010Prop41ColorIndex
 90
       18
102
RTVSPost2010Prop41ColorRGB
 90
        0
102
RTVSPost2010PropOp41
 70
     1
102
RTVSPost2010Prop42
 90
       50
102
RTVSPost2010PropOp42
 70
     1
102
RTVSPost2010Prop43
 90
        3
102
RTVSPost2010PropOp43
 70
     1
102
RTVSPost2010Prop44ColorIndex
 90
        5
102
RTVSPost2010Prop44ColorRGB
 90
      255
102
RTVSPost2010PropOp44
 70
     1
102
RTVSPost2010Prop45
280
     0
102
RTVSPost2010PropOp45
 70
     1
102
RTVSPost2010Prop46
 90
       50
102
RTVSPost2010PropOp46
 70
     1
102
RTVSPost2010Prop47
 90
       50
102
RTVSPost2010PropOp47
 70
     1
102
RTVSPost2010Prop48
 90
       50
102
RTVSPost2010PropOp48
 70
     1
102
RTVSPost2010Prop49
280
     0
102
RTVSPost2010PropOp49
 70
     1
102
RTVSPost2010Prop50
 90
       50
102
RTVSPost2010PropOp50
 70
     1
102
RTVSPost2010Prop51ColorIndex
 90
      256
102
RTVSPost2010Prop51ColorRGB
 90
-16777216
102
RTVSPost2010PropOp51
 70
     0
102
RTVSPost2010Prop52
140
1.0
102
RTVSPost2010PropOp52
 70
     0
102
RTVSPost2010Prop53
 90
        2
102
RTVSPost2010PropOp53
 70
     1
102
RTVSPost2010Prop54
  1
strokes_ogs.tif
102
RTVSPost2010PropOp54
 70
     1
102
RTVSPost2010Prop55
280
     0
102
RTVSPost2010PropOp55
 70
     1
102
RTVSPost2010Prop56
140
1.0
102
RTVSPost2010PropOp56
 70
     1
102
RTVSPost2010Prop57
140
1.0
102
RTVSPost2010PropOp57
 70
     1
  0
XRECORD
  5
16E
102
{ACAD_REACTORS
330
16D
102
}
330
16D
100
AcDbXrecord
280
     1
102
RTVSPost2010Prop28
280
     0
102
RTVSPost2010PropOp28
 70
     1
102
RTVSPost2010Prop29
280
     1
102
RTVSPost2010PropOp29
 70
     1
102
RTVSPost2010Prop30
280
     1
102
RTVSPost2010PropOp30
 70
     1
102
RTVSPost2010Prop31
280
     0
102
RTVSPost2010PropOp31
 70
     1
102
RTVSPost2010Prop32
280
     0
102
RTVSPost2010PropOp32
 70
     1
102
RTVSPost2010Prop33
280
     0
102
RTVSPost2010PropOp33
 70
     1
102
RTVSPost2010Prop34
280
     0
102
RTVSPost2010PropOp34
 70
     1
102
RTVSPost2010Prop35
280
     0
102
RTVSPost2010PropOp35
 70
     1
102
RTVSPost2010Prop36
280
     0
102
RTVSPost2010PropOp36
 70
     1
102
RTVSPost2010Prop37
 90
       50
102
RTVSPost2010PropOp37
 70
     1
102
RTVSPost2010Prop38
140
0.0
102
RTVSPost2010PropOp38
 70
     1
102
RTVSPost2010Prop39
140
1.0
102
RTVSPost2010PropOp39
 70
     1
102
RTVSPost2010Prop40
 90
        0
102
RTVSPost2010PropOp40
 70
     1
102
RTVSPost2010Prop41ColorIndex
 90
       18
102
RTVSPost2010Prop41ColorRGB
 90
        0
102
RTVSPost2010PropOp41
 70
     1
102
RTVSPost2010Prop42
 90
       50
102
RTVSPost2010PropOp42
 70
     1
102
RTVSPost2010Prop43
 90
        3
102
RTVSPost2010PropOp43
 70
     1
102
RTVSPost2010Prop44ColorIndex
 90
        5
102
RTVSPost2010Prop44ColorRGB
 90
      255
102
RTVSPost2010PropOp44
 70
     1
102
RTVSPost2010Prop45
280
     0
102
RTVSPost2010PropOp45
 70
     1
102
RTVSPost2010Prop46
 90
       50
102
RTVSPost2010PropOp46
 70
     1
102
RTVSPost2010Prop47
 90
       50
102
RTVSPost2010PropOp47
 70
     1
102
RTVSPost2010Prop48
 90
       50
102
RTVSPost2010PropOp48
 70
     1
102
RTVSPost2010Prop49
280
     0
102
RTVSPost2010PropOp49
 70
     1
102
RTVSPost2010Prop50
 90
       50
102
RTVSPost2010PropOp50
 70
     1
102
RTVSPost2010Prop51ColorIndex
 90
      256
102
RTVSPost2010Prop51ColorRGB
 90
-16777216
102
RTVSPost2010PropOp51
 70
     0
102
RTVSPost2010Prop52
140
1.0
102
RTVSPost2010PropOp52
 70
     0
102
RTVSPost2010Prop53
 90
        2
102
RTVSPost2010PropOp53
 70
     1
102
RTVSPost2010Prop54
  1
strokes_ogs.tif
102
RTVSPost2010PropOp54
 70
     1
102
RTVSPost2010Prop55
280
     0
102
RTVSPost2010PropOp55
 70
     1
102
RTVSPost2010Prop56
140
1.0
102
RTVSPost2010PropOp56
 70
     1
102
RTVSPost2010Prop57
140
1.0
102
RTVSPost2010PropOp57
 70
     1
  0
XRECORD
  5
176
102
{ACAD_REACTORS
330
175
102
}
330
175
100
AcDbXrecord
280
     1
102
RTVSPost2010Prop28
280
     0
102
RTVSPost2010PropOp28
 70
     1
102
RTVSPost2010Prop29
280
     1
102
RTVSPost2010PropOp29
 70
     1
102
RTVSPost2010Prop30
280
     1
102
RTVSPost2010PropOp30
 70
     1
102
RTVSPost2010Prop31
280
     0
102
RTVSPost2010PropOp31
 70
     1
102
RTVSPost2010Prop32
280
     0
102
RTVSPost2010PropOp32
 70
     1
102
RTVSPost2010Prop33
280
     0
102
RTVSPost2010PropOp33
 70
     1
102
RTVSPost2010Prop34
280
     0
102
RTVSPost2010PropOp34
 70
     1
102
RTVSPost2010Prop35
280
     0
102
RTVSPost2010PropOp35
 70
     1
102
RTVSPost2010Prop36
280
     0
102
RTVSPost2010PropOp36
 70
     1
102
RTVSPost2010Prop37
 90
       50
102
RTVSPost2010PropOp37
 70
     1
102
RTVSPost2010Prop38
140
0.0
102
RTVSPost2010PropOp38
 70
     1
102
RTVSPost2010Prop39
140
1.0
102
RTVSPost2010PropOp39
 70
     1
102
RTVSPost2010Prop40
 90
        0
102
RTVSPost2010PropOp40
 70
     1
102
RTVSPost2010Prop41ColorIndex
 90
       18
102
RTVSPost2010Prop41ColorRGB
 90
        0
102
RTVSPost2010PropOp41
 70
     1
102
RTVSPost2010Prop42
 90
       50
102
RTVSPost2010PropOp42
 70
     1
102
RTVSPost2010Prop43
 90
        3
102
RTVSPost2010PropOp43
 70
     1
102
RTVSPost2010Prop44ColorIndex
 90
        5
102
RTVSPost2010Prop44ColorRGB
 90
      255
102
RTVSPost2010PropOp44
 70
     1
102
RTVSPost2010Prop45
280
     0
102
RTVSPost2010PropOp45
 70
     1
102
RTVSPost2010Prop46
 90
       50
102
RTVSPost2010PropOp46
 70
     1
102
RTVSPost2010Prop47
 90
       50
102
RTVSPost2010PropOp47
 70
     1
102
RTVSPost2010Prop48
 90
       50
102
RTVSPost2010PropOp48
 70
     1
102
RTVSPost2010Prop49
280
     0
102
RTVSPost2010PropOp49
 70
     1
102
RTVSPost2010Prop50
 90
       50
102
RTVSPost2010PropOp50
 70
     1
102
RTVSPost2010Prop51ColorIndex
 90
      256
102
RTVSPost2010Prop51ColorRGB
 90
-16777216
102
RTVSPost2010PropOp51
 70
     0
102
RTVSPost2010Prop52
140
1.0
102
RTVSPost2010PropOp52
 70
     0
102
RTVSPost2010Prop53
 90
        2
102
RTVSPost2010PropOp53
 70
     1
102
RTVSPost2010Prop54
  1
strokes_ogs.tif
102
RTVSPost2010PropOp54
 70
     1
102
RTVSPost2010Prop55
280
     0
102
RTVSPost2010PropOp55
 70
     1
102
RTVSPost2010Prop56
140
1.0
102
RTVSPost2010PropOp56
 70
     1
102
RTVSPost2010Prop57
140
1.0
102
RTVSPost2010PropOp57
 70
     1
  0
XRECORD
  5
192
102
{ACAD_REACTORS
330
191
102
}
330
191
100
AcDbXrecord
280
     1
102
RTVSPost2010Prop28
280
     0
102
RTVSPost2010PropOp28
 70
     0
102
RTVSPost2010Prop29
280
     1
102
RTVSPost2010PropOp29
 70
     0
102
RTVSPost2010Prop30
280
     1
102
RTVSPost2010PropOp30
 70
     0
102
RTVSPost2010Prop31
280
     0
102
RTVSPost2010PropOp31
 70
     0
102
RTVSPost2010Prop32
280
     0
102
RTVSPost2010PropOp32
 70
     0
102
RTVSPost2010Prop33
280
     0
102
RTVSPost2010PropOp33
 70
     0
102
RTVSPost2010Prop34
280
     0
102
RTVSPost2010PropOp34
 70
     0
102
RTVSPost2010Prop35
280
     0
102
RTVSPost2010PropOp35
 70
     0
102
RTVSPost2010Prop36
280
     0
102
RTVSPost2010PropOp36
 70
     0
102
RTVSPost2010Prop37
 90
       50
102
RTVSPost2010PropOp37
 70
     0
102
RTVSPost2010Prop38
140
0.0
102
RTVSPost2010PropOp38
 70
     0
102
RTVSPost2010Prop39
140
1.0
102
RTVSPost2010PropOp39
 70
     0
102
RTVSPost2010Prop40
 90
        0
102
RTVSPost2010PropOp40
 70
     0
102
RTVSPost2010Prop41ColorIndex
 90
       18
102
RTVSPost2010Prop41ColorRGB
 90
        0
102
RTVSPost2010PropOp41
 70
     0
102
RTVSPost2010Prop42
 90
       50
102
RTVSPost2010PropOp42
 70
     0
102
RTVSPost2010Prop43
 90
        3
102
RTVSPost2010PropOp43
 70
     0
102
RTVSPost2010Prop44ColorIndex
 90
        5
102
RTVSPost2010Prop44ColorRGB
 90
      255
102
RTVSPost2010PropOp44
 70
     0
102
RTVSPost2010Prop45
280
     0
102
RTVSPost2010PropOp45
 70
     0
102
RTVSPost2010Prop46
 90
       50
102
RTVSPost2010PropOp46
 70
     0
102
RTVSPost2010Prop47
 90
       50
102
RTVSPost2010PropOp47
 70
     0
102
RTVSPost2010Prop48
 90
       50
102
RTVSPost2010PropOp48
 70
     0
102
RTVSPost2010Prop49
280
     0
102
RTVSPost2010PropOp49
 70
     0
102
RTVSPost2010Prop50
 90
       50
102
RTVSPost2010PropOp50
 70
     0
102
RTVSPost2010Prop51ColorIndex
 90
      256
102
RTVSPost2010Prop51ColorRGB
 90
-16777216
102
RTVSPost2010PropOp51
 70
     0
102
RTVSPost2010Prop52
140
1.0
102
RTVSPost2010PropOp52
 70
     0
102
RTVSPost2010Prop53
 90
        2
102
RTVSPost2010PropOp53
 70
     0
102
RTVSPost2010Prop54
  1
strokes_ogs.tif
102
RTVSPost2010PropOp54
 70
     0
102
RTVSPost2010Prop55
280
     0
102
RTVSPost2010PropOp55
 70
     0
102
RTVSPost2010Prop56
140
1.0
102
RTVSPost2010PropOp56
 70
     0
102
RTVSPost2010Prop57
140
1.0
102
RTVSPost2010PropOp57
 70
     0
  0
XRECORD
  5
182
102
{ACAD_REACTORS
330
181
102
}
330
181
100
AcDbXrecord
280
     1
102
RTVSPost2010Prop28
280
     0
102
RTVSPost2010PropOp28
 70
     1
102
RTVSPost2010Prop29
280
     1
102
RTVSPost2010PropOp29
 70
     1
102
RTVSPost2010Prop30
280
     1
102
RTVSPost2010PropOp30
 70
     1
102
RTVSPost2010Prop31
280
     0
102
RTVSPost2010PropOp31
 70
     1
102
RTVSPost2010Prop32
280
     0
102
RTVSPost2010PropOp32
 70
     1
102
RTVSPost2010Prop33
280
     0
102
RTVSPost2010PropOp33
 70
     1
102
RTVSPost2010Prop34
280
     0
102
RTVSPost2010PropOp34
 70
     1
102
RTVSPost2010Prop35
280
     0
102
RTVSPost2010PropOp35
 70
     1
102
RTVSPost2010Prop36
280
     0
102
RTVSPost2010PropOp36
 70
     1
102
RTVSPost2010Prop37
 90
       50
102
RTVSPost2010PropOp37
 70
     1
102
RTVSPost2010Prop38
140
0.0
102
RTVSPost2010PropOp38
 70
     1
102
RTVSPost2010Prop39
140
1.0
102
RTVSPost2010PropOp39
 70
     1
102
RTVSPost2010Prop40
 90
        0
102
RTVSPost2010PropOp40
 70
     1
102
RTVSPost2010Prop41ColorIndex
 90
       18
102
RTVSPost2010Prop41ColorRGB
 90
        0
102
RTVSPost2010PropOp41
 70
     1
102
RTVSPost2010Prop42
 90
       50
102
RTVSPost2010PropOp42
 70
     1
102
RTVSPost2010Prop43
 90
        3
102
RTVSPost2010PropOp43
 70
     1
102
RTVSPost2010Prop44ColorIndex
 90
        5
102
RTVSPost2010Prop44ColorRGB
 90
      255
102
RTVSPost2010PropOp44
 70
     1
102
RTVSPost2010Prop45
280
     0
102
RTVSPost2010PropOp45
 70
     1
102
RTVSPost2010Prop46
 90
       50
102
RTVSPost2010PropOp46
 70
     1
102
RTVSPost2010Prop47
 90
       50
102
RTVSPost2010PropOp47
 70
     1
102
RTVSPost2010Prop48
 90
       50
102
RTVSPost2010PropOp48
 70
     1
102
RTVSPost2010Prop49
280
     0
102
RTVSPost2010PropOp49
 70
     1
102
RTVSPost2010Prop50
 90
       50
102
RTVSPost2010PropOp50
 70
     1
102
RTVSPost2010Prop51ColorIndex
 90
      256
102
RTVSPost2010Prop51ColorRGB
 90
-16777216
102
RTVSPost2010PropOp51
 70
     0
102
RTVSPost2010Prop52
140
1.0
102
RTVSPost2010PropOp52
 70
     0
102
RTVSPost2010Prop53
 90
        2
102
RTVSPost2010PropOp53
 70
     1
102
RTVSPost2010Prop54
  1
strokes_ogs.tif
102
RTVSPost2010PropOp54
 70
     1
102
RTVSPost2010Prop55
280
     0
102
RTVSPost2010PropOp55
 70
     1
102
RTVSPost2010Prop56
140
1.0
102
RTVSPost2010PropOp56
 70
     1
102
RTVSPost2010Prop57
140
1.0
102
RTVSPost2010PropOp57
 70
     1
  0
XRECORD
  5
194
102
{ACAD_REACTORS
330
193
102
}
330
193
100
AcDbXrecord
280
     1
102
RTVSPost2010Prop28
280
     0
102
RTVSPost2010PropOp28
 70
     0
102
RTVSPost2010Prop29
280
     1
102
RTVSPost2010PropOp29
 70
     0
102
RTVSPost2010Prop30
280
     1
102
RTVSPost2010PropOp30
 70
     0
102
RTVSPost2010Prop31
280
     0
102
RTVSPost2010PropOp31
 70
     0
102
RTVSPost2010Prop32
280
     0
102
RTVSPost2010PropOp32
 70
     0
102
RTVSPost2010Prop33
280
     0
102
RTVSPost2010PropOp33
 70
     0
102
RTVSPost2010Prop34
280
     0
102
RTVSPost2010PropOp34
 70
     0
102
RTVSPost2010Prop35
280
     0
102
RTVSPost2010PropOp35
 70
     0
102
RTVSPost2010Prop36
280
     0
102
RTVSPost2010PropOp36
 70
     0
102
RTVSPost2010Prop37
 90
       50
102
RTVSPost2010PropOp37
 70
     0
102
RTVSPost2010Prop38
140
0.0
102
RTVSPost2010PropOp38
 70
     0
102
RTVSPost2010Prop39
140
1.0
102
RTVSPost2010PropOp39
 70
     0
102
RTVSPost2010Prop40
 90
        0
102
RTVSPost2010PropOp40
 70
     0
102
RTVSPost2010Prop41ColorIndex
 90
       18
102
RTVSPost2010Prop41ColorRGB
 90
        0
102
RTVSPost2010PropOp41
 70
     0
102
RTVSPost2010Prop42
 90
       50
102
RTVSPost2010PropOp42
 70
     0
102
RTVSPost2010Prop43
 90
        3
102
RTVSPost2010PropOp43
 70
     0
102
RTVSPost2010Prop44ColorIndex
 90
        5
102
RTVSPost2010Prop44ColorRGB
 90
      255
102
RTVSPost2010PropOp44
 70
     0
102
RTVSPost2010Prop45
280
     0
102
RTVSPost2010PropOp45
 70
     0
102
RTVSPost2010Prop46
 90
       50
102
RTVSPost2010PropOp46
 70
     0
102
RTVSPost2010Prop47
 90
       50
102
RTVSPost2010PropOp47
 70
     0
102
RTVSPost2010Prop48
 90
       50
102
RTVSPost2010PropOp48
 70
     0
102
RTVSPost2010Prop49
280
     0
102
RTVSPost2010PropOp49
 70
     0
102
RTVSPost2010Prop50
 90
       50
102
RTVSPost2010PropOp50
 70
     0
102
RTVSPost2010Prop51ColorIndex
 90
      256
102
RTVSPost2010Prop51ColorRGB
 90
-16777216
102
RTVSPost2010PropOp51
 70
     0
102
RTVSPost2010Prop52
140
1.0
102
RTVSPost2010PropOp52
 70
     0
102
RTVSPost2010Prop53
 90
        2
102
RTVSPost2010PropOp53
 70
     0
102
RTVSPost2010Prop54
  1
strokes_ogs.tif
102
RTVSPost2010PropOp54
 70
     0
102
RTVSPost2010Prop55
280
     0
102
RTVSPost2010PropOp55
 70
     0
102
RTVSPost2010Prop56
140
1.0
102
RTVSPost2010PropOp56
 70
     0
102
RTVSPost2010Prop57
140
1.0
102
RTVSPost2010PropOp57
 70
     0
  0
XRECORD
  5
17A
102
{ACAD_REACTORS
330
179
102
}
330
179
100
AcDbXrecord
280
     1
102
RTVSPost2010Prop28
280
     0
102
RTVSPost2010PropOp28
 70
     1
102
RTVSPost2010Prop29
280
     1
102
RTVSPost2010PropOp29
 70
     1
102
RTVSPost2010Prop30
280
     1
102
RTVSPost2010PropOp30
 70
     1
102
RTVSPost2010Prop31
280
     0
102
RTVSPost2010PropOp31
 70
     1
102
RTVSPost2010Prop32
280
     0
102
RTVSPost2010PropOp32
 70
     1
102
RTVSPost2010Prop33
280
     0
102
RTVSPost2010PropOp33
 70
     1
102
RTVSPost2010Prop34
280
     0
102
RTVSPost2010PropOp34
 70
     1
102
RTVSPost2010Prop35
280
     0
102
RTVSPost2010PropOp35
 70
     1
102
RTVSPost2010Prop36
280
     0
102
RTVSPost2010PropOp36
 70
     1
102
RTVSPost2010Prop37
 90
       50
102
RTVSPost2010PropOp37
 70
     1
102
RTVSPost2010Prop38
140
0.0
102
RTVSPost2010PropOp38
 70
     1
102
RTVSPost2010Prop39
140
1.0
102
RTVSPost2010PropOp39
 70
     1
102
RTVSPost2010Prop40
 90
        0
102
RTVSPost2010PropOp40
 70
     1
102
RTVSPost2010Prop41ColorIndex
 90
       18
102
RTVSPost2010Prop41ColorRGB
 90
        0
102
RTVSPost2010PropOp41
 70
     1
102
RTVSPost2010Prop42
 90
       50
102
RTVSPost2010PropOp42
 70
     1
102
RTVSPost2010Prop43
 90
        3
102
RTVSPost2010PropOp43
 70
     1
102
RTVSPost2010Prop44ColorIndex
 90
        5
102
RTVSPost2010Prop44ColorRGB
 90
      255
102
RTVSPost2010PropOp44
 70
     1
102
RTVSPost2010Prop45
280
     0
102
RTVSPost2010PropOp45
 70
     1
102
RTVSPost2010Prop46
 90
       50
102
RTVSPost2010PropOp46
 70
     1
102
RTVSPost2010Prop47
 90
       50
102
RTVSPost2010PropOp47
 70
     1
102
RTVSPost2010Prop48
 90
       50
102
RTVSPost2010PropOp48
 70
     1
102
RTVSPost2010Prop49
280
     0
102
RTVSPost2010PropOp49
 70
     1
102
RTVSPost2010Prop50
 90
       50
102
RTVSPost2010PropOp50
 70
     1
102
RTVSPost2010Prop51ColorIndex
 90
      256
102
RTVSPost2010Prop51ColorRGB
 90
-16777216
102
RTVSPost2010PropOp51
 70
     0
102
RTVSPost2010Prop52
140
1.0
102
RTVSPost2010PropOp52
 70
     0
102
RTVSPost2010Prop53
 90
        2
102
RTVSPost2010PropOp53
 70
     1
102
RTVSPost2010Prop54
  1
strokes_ogs.tif
102
RTVSPost2010PropOp54
 70
     1
102
RTVSPost2010Prop55
280
     0
102
RTVSPost2010PropOp55
 70
     1
102
RTVSPost2010Prop56
140
1.0
102
RTVSPost2010PropOp56
 70
     1
102
RTVSPost2010Prop57
140
1.0
102
RTVSPost2010PropOp57
 70
     1
  0
XRECORD
  5
190
102
{ACAD_REACTORS
330
18F
102
}
330
18F
100
AcDbXrecord
280
     1
102
RTVSPost2010Prop28
280
     0
102
RTVSPost2010PropOp28
 70
     1
102
RTVSPost2010Prop29
280
     1
102
RTVSPost2010PropOp29
 70
     1
102
RTVSPost2010Prop30
280
     1
102
RTVSPost2010PropOp30
 70
     1
102
RTVSPost2010Prop31
280
     0
102
RTVSPost2010PropOp31
 70
     1
102
RTVSPost2010Prop32
280
     0
102
RTVSPost2010PropOp32
 70
     1
102
RTVSPost2010Prop33
280
     0
102
RTVSPost2010PropOp33
 70
     1
102
RTVSPost2010Prop34
280
     0
102
RTVSPost2010PropOp34
 70
     1
102
RTVSPost2010Prop35
280
     0
102
RTVSPost2010PropOp35
 70
     1
102
RTVSPost2010Prop36
280
     0
102
RTVSPost2010PropOp36
 70
     1
102
RTVSPost2010Prop37
 90
       50
102
RTVSPost2010PropOp37
 70
     1
102
RTVSPost2010Prop38
140
0.0
102
RTVSPost2010PropOp38
 70
     1
102
RTVSPost2010Prop39
140
1.0
102
RTVSPost2010PropOp39
 70
     1
102
RTVSPost2010Prop40
 90
        0
102
RTVSPost2010PropOp40
 70
     1
102
RTVSPost2010Prop41ColorIndex
 90
       18
102
RTVSPost2010Prop41ColorRGB
 90
        0
102
RTVSPost2010PropOp41
 70
     1
102
RTVSPost2010Prop42
 90
       50
102
RTVSPost2010PropOp42
 70
     1
102
RTVSPost2010Prop43
 90
        3
102
RTVSPost2010PropOp43
 70
     1
102
RTVSPost2010Prop44ColorIndex
 90
        5
102
RTVSPost2010Prop44ColorRGB
 90
      255
102
RTVSPost2010PropOp44
 70
     1
102
RTVSPost2010Prop45
280
     0
102
RTVSPost2010PropOp45
 70
     1
102
RTVSPost2010Prop46
 90
       50
102
RTVSPost2010PropOp46
 70
     1
102
RTVSPost2010Prop47
 90
       50
102
RTVSPost2010PropOp47
 70
     1
102
RTVSPost2010Prop48
 90
       50
102
RTVSPost2010PropOp48
 70
     1
102
RTVSPost2010Prop49
280
     0
102
RTVSPost2010PropOp49
 70
     1
102
RTVSPost2010Prop50
 90
       50
102
RTVSPost2010PropOp50
 70
     1
102
RTVSPost2010Prop51ColorIndex
 90
      256
102
RTVSPost2010Prop51ColorRGB
 90
-16777216
102
RTVSPost2010PropOp51
 70
     0
102
RTVSPost2010Prop52
140
1.0
102
RTVSPost2010PropOp52
 70
     0
102
RTVSPost2010Prop53
 90
        2
102
RTVSPost2010PropOp53
 70
     1
102
RTVSPost2010Prop54
  1
strokes_ogs.tif
102
RTVSPost2010PropOp54
 70
     1
102
RTVSPost2010Prop55
280
     0
102
RTVSPost2010PropOp55
 70
     1
102
RTVSPost2010Prop56
140
1.0
102
RTVSPost2010PropOp56
 70
     1
102
RTVSPost2010Prop57
140
1.0
102
RTVSPost2010PropOp57
 70
     1
  0
XRECORD
  5
18E
102
{ACAD_REACTORS
330
18D
102
}
330
18D
100
AcDbXrecord
280
     1
102
RTVSPost2010Prop28
280
     0
102
RTVSPost2010PropOp28
 70
     1
102
RTVSPost2010Prop29
280
     1
102
RTVSPost2010PropOp29
 70
     1
102
RTVSPost2010Prop30
280
     1
102
RTVSPost2010PropOp30
 70
     1
102
RTVSPost2010Prop31
280
     0
102
RTVSPost2010PropOp31
 70
     1
102
RTVSPost2010Prop32
280
     0
102
RTVSPost2010PropOp32
 70
     1
102
RTVSPost2010Prop33
280
     0
102
RTVSPost2010PropOp33
 70
     1
102
RTVSPost2010Prop34
280
     0
102
RTVSPost2010PropOp34
 70
     1
102
RTVSPost2010Prop35
280
     0
102
RTVSPost2010PropOp35
 70
     1
102
RTVSPost2010Prop36
280
     0
102
RTVSPost2010PropOp36
 70
     1
102
RTVSPost2010Prop37
 90
       50
102
RTVSPost2010PropOp37
 70
     1
102
RTVSPost2010Prop38
140
0.0
102
RTVSPost2010PropOp38
 70
     1
102
RTVSPost2010Prop39
140
1.0
102
RTVSPost2010PropOp39
 70
     1
102
RTVSPost2010Prop40
 90
        0
102
RTVSPost2010PropOp40
 70
     1
102
RTVSPost2010Prop41ColorIndex
 90
       18
102
RTVSPost2010Prop41ColorRGB
 90
        0
102
RTVSPost2010PropOp41
 70
     1
102
RTVSPost2010Prop42
 90
       50
102
RTVSPost2010PropOp42
 70
     1
102
RTVSPost2010Prop43
 90
        3
102
RTVSPost2010PropOp43
 70
     1
102
RTVSPost2010Prop44ColorIndex
 90
        5
102
RTVSPost2010Prop44ColorRGB
 90
      255
102
RTVSPost2010PropOp44
 70
     1
102
RTVSPost2010Prop45
280
     0
102
RTVSPost2010PropOp45
 70
     1
102
RTVSPost2010Prop46
 90
       50
102
RTVSPost2010PropOp46
 70
     1
102
RTVSPost2010Prop47
 90
       50
102
RTVSPost2010PropOp47
 70
     1
102
RTVSPost2010Prop48
 90
       50
102
RTVSPost2010PropOp48
 70
     1
102
RTVSPost2010Prop49
280
     0
102
RTVSPost2010PropOp49
 70
     1
102
RTVSPost2010Prop50
 90
       50
102
RTVSPost2010PropOp50
 70
     1
102
RTVSPost2010Prop51ColorIndex
 90
      256
102
RTVSPost2010Prop51ColorRGB
 90
-16777216
102
RTVSPost2010PropOp51
 70
     0
102
RTVSPost2010Prop52
140
1.0
102
RTVSPost2010PropOp52
 70
     0
102
RTVSPost2010Prop53
 90
        2
102
RTVSPost2010PropOp53
 70
     1
102
RTVSPost2010Prop54
  1
strokes_ogs.tif
102
RTVSPost2010PropOp54
 70
     1
102
RTVSPost2010Prop55
280
     0
102
RTVSPost2010PropOp55
 70
     1
102
RTVSPost2010Prop56
140
1.0
102
RTVSPost2010PropOp56
 70
     1
102
RTVSPost2010Prop57
140
1.0
102
RTVSPost2010PropOp57
 70
     1
  0
XRECORD
  5
188
102
{ACAD_REACTORS
330
187
102
}
330
187
100
AcDbXrecord
280
     1
102
RTVSPost2010Prop28
280
     0
102
RTVSPost2010PropOp28
 70
     1
102
RTVSPost2010Prop29
280
     1
102
RTVSPost2010PropOp29
 70
     1
102
RTVSPost2010Prop30
280
     1
102
RTVSPost2010PropOp30
 70
     1
102
RTVSPost2010Prop31
280
     0
102
RTVSPost2010PropOp31
 70
     1
102
RTVSPost2010Prop32
280
     0
102
RTVSPost2010PropOp32
 70
     1
102
RTVSPost2010Prop33
280
     0
102
RTVSPost2010PropOp33
 70
     1
102
RTVSPost2010Prop34
280
     0
102
RTVSPost2010PropOp34
 70
     1
102
RTVSPost2010Prop35
280
     0
102
RTVSPost2010PropOp35
 70
     1
102
RTVSPost2010Prop36
280
     0
102
RTVSPost2010PropOp36
 70
     1
102
RTVSPost2010Prop37
 90
       50
102
RTVSPost2010PropOp37
 70
     1
102
RTVSPost2010Prop38
140
0.0
102
RTVSPost2010PropOp38
 70
     1
102
RTVSPost2010Prop39
140
1.0
102
RTVSPost2010PropOp39
 70
     1
102
RTVSPost2010Prop40
 90
        0
102
RTVSPost2010PropOp40
 70
     1
102
RTVSPost2010Prop41ColorIndex
 90
       18
102
RTVSPost2010Prop41ColorRGB
 90
        0
102
RTVSPost2010PropOp41
 70
     1
102
RTVSPost2010Prop42
 90
       50
102
RTVSPost2010PropOp42
 70
     1
102
RTVSPost2010Prop43
 90
        3
102
RTVSPost2010PropOp43
 70
     1
102
RTVSPost2010Prop44ColorIndex
 90
        5
102
RTVSPost2010Prop44ColorRGB
 90
      255
102
RTVSPost2010PropOp44
 70
     1
102
RTVSPost2010Prop45
280
     0
102
RTVSPost2010PropOp45
 70
     1
102
RTVSPost2010Prop46
 90
       50
102
RTVSPost2010PropOp46
 70
     1
102
RTVSPost2010Prop47
 90
       50
102
RTVSPost2010PropOp47
 70
     1
102
RTVSPost2010Prop48
 90
       50
102
RTVSPost2010PropOp48
 70
     1
102
RTVSPost2010Prop49
280
     0
102
RTVSPost2010PropOp49
 70
     1
102
RTVSPost2010Prop50
 90
       50
102
RTVSPost2010PropOp50
 70
     1
102
RTVSPost2010Prop51ColorIndex
 90
      256
102
RTVSPost2010Prop51ColorRGB
 90
-16777216
102
RTVSPost2010PropOp51
 70
     0
102
RTVSPost2010Prop52
140
1.0
102
RTVSPost2010PropOp52
 70
     0
102
RTVSPost2010Prop53
 90
        2
102
RTVSPost2010PropOp53
 70
     1
102
RTVSPost2010Prop54
  1
strokes_ogs.tif
102
RTVSPost2010PropOp54
 70
     1
102
RTVSPost2010Prop55
280
     0
102
RTVSPost2010PropOp55
 70
     1
102
RTVSPost2010Prop56
140
1.0
102
RTVSPost2010PropOp56
 70
     1
102
RTVSPost2010Prop57
140
1.0
102
RTVSPost2010PropOp57
 70
     1
  0
XRECORD
  5
18A
102
{ACAD_REACTORS
330
189
102
}
330
189
100
AcDbXrecord
280
     1
102
RTVSPost2010Prop28
280
     0
102
RTVSPost2010PropOp28
 70
     1
102
RTVSPost2010Prop29
280
     1
102
RTVSPost2010PropOp29
 70
     1
102
RTVSPost2010Prop30
280
     1
102
RTVSPost2010PropOp30
 70
     1
102
RTVSPost2010Prop31
280
     0
102
RTVSPost2010PropOp31
 70
     1
102
RTVSPost2010Prop32
280
     0
102
RTVSPost2010PropOp32
 70
     1
102
RTVSPost2010Prop33
280
     0
102
RTVSPost2010PropOp33
 70
     1
102
RTVSPost2010Prop34
280
     0
102
RTVSPost2010PropOp34
 70
     1
102
RTVSPost2010Prop35
280
     0
102
RTVSPost2010PropOp35
 70
     1
102
RTVSPost2010Prop36
280
     0
102
RTVSPost2010PropOp36
 70
     1
102
RTVSPost2010Prop37
 90
       50
102
RTVSPost2010PropOp37
 70
     1
102
RTVSPost2010Prop38
140
0.0
102
RTVSPost2010PropOp38
 70
     1
102
RTVSPost2010Prop39
140
1.0
102
RTVSPost2010PropOp39
 70
     1
102
RTVSPost2010Prop40
 90
        0
102
RTVSPost2010PropOp40
 70
     1
102
RTVSPost2010Prop41ColorIndex
 90
       18
102
RTVSPost2010Prop41ColorRGB
 90
        0
102
RTVSPost2010PropOp41
 70
     1
102
RTVSPost2010Prop42
 90
       50
102
RTVSPost2010PropOp42
 70
     1
102
RTVSPost2010Prop43
 90
        3
102
RTVSPost2010PropOp43
 70
     1
102
RTVSPost2010Prop44ColorIndex
 90
        5
102
RTVSPost2010Prop44ColorRGB
 90
      255
102
RTVSPost2010PropOp44
 70
     1
102
RTVSPost2010Prop45
280
     0
102
RTVSPost2010PropOp45
 70
     1
102
RTVSPost2010Prop46
 90
       50
102
RTVSPost2010PropOp46
 70
     1
102
RTVSPost2010Prop47
 90
       50
102
RTVSPost2010PropOp47
 70
     1
102
RTVSPost2010Prop48
 90
       50
102
RTVSPost2010PropOp48
 70
     1
102
RTVSPost2010Prop49
280
     0
102
RTVSPost2010PropOp49
 70
     1
102
RTVSPost2010Prop50
 90
       50
102
RTVSPost2010PropOp50
 70
     1
102
RTVSPost2010Prop51ColorIndex
 90
      256
102
RTVSPost2010Prop51ColorRGB
 90
-16777216
102
RTVSPost2010PropOp51
 70
     0
102
RTVSPost2010Prop52
140
1.0
102
RTVSPost2010PropOp52
 70
     0
102
RTVSPost2010Prop53
 90
        2
102
RTVSPost2010PropOp53
 70
     1
102
RTVSPost2010Prop54
  1
strokes_ogs.tif
102
RTVSPost2010PropOp54
 70
     1
102
RTVSPost2010Prop55
280
     0
102
RTVSPost2010PropOp55
 70
     1
102
RTVSPost2010Prop56
140
1.0
102
RTVSPost2010PropOp56
 70
     1
102
RTVSPost2010Prop57
140
1.0
102
RTVSPost2010PropOp57
 70
     1
  0
XRECORD
  5
180
102
{ACAD_REACTORS
330
17F
102
}
330
17F
100
AcDbXrecord
280
     1
102
RTVSPost2010Prop28
280
     0
102
RTVSPost2010PropOp28
 70
     1
102
RTVSPost2010Prop29
280
     1
102
RTVSPost2010PropOp29
 70
     1
102
RTVSPost2010Prop30
280
     1
102
RTVSPost2010PropOp30
 70
     1
102
RTVSPost2010Prop31
280
     0
102
RTVSPost2010PropOp31
 70
     1
102
RTVSPost2010Prop32
280
     0
102
RTVSPost2010PropOp32
 70
     1
102
RTVSPost2010Prop33
280
     0
102
RTVSPost2010PropOp33
 70
     1
102
RTVSPost2010Prop34
280
     0
102
RTVSPost2010PropOp34
 70
     1
102
RTVSPost2010Prop35
280
     0
102
RTVSPost2010PropOp35
 70
     1
102
RTVSPost2010Prop36
280
     0
102
RTVSPost2010PropOp36
 70
     1
102
RTVSPost2010Prop37
 90
       50
102
RTVSPost2010PropOp37
 70
     1
102
RTVSPost2010Prop38
140
0.0
102
RTVSPost2010PropOp38
 70
     1
102
RTVSPost2010Prop39
140
1.0
102
RTVSPost2010PropOp39
 70
     1
102
RTVSPost2010Prop40
 90
        0
102
RTVSPost2010PropOp40
 70
     1
102
RTVSPost2010Prop41ColorIndex
 90
       18
102
RTVSPost2010Prop41ColorRGB
 90
        0
102
RTVSPost2010PropOp41
 70
     1
102
RTVSPost2010Prop42
 90
       50
102
RTVSPost2010PropOp42
 70
     1
102
RTVSPost2010Prop43
 90
        3
102
RTVSPost2010PropOp43
 70
     1
102
RTVSPost2010Prop44ColorIndex
 90
        5
102
RTVSPost2010Prop44ColorRGB
 90
      255
102
RTVSPost2010PropOp44
 70
     1
102
RTVSPost2010Prop45
280
     0
102
RTVSPost2010PropOp45
 70
     1
102
RTVSPost2010Prop46
 90
       50
102
RTVSPost2010PropOp46
 70
     1
102
RTVSPost2010Prop47
 90
       50
102
RTVSPost2010PropOp47
 70
     1
102
RTVSPost2010Prop48
 90
       50
102
RTVSPost2010PropOp48
 70
     1
102
RTVSPost2010Prop49
280
     0
102
RTVSPost2010PropOp49
 70
     1
102
RTVSPost2010Prop50
 90
       50
102
RTVSPost2010PropOp50
 70
     1
102
RTVSPost2010Prop51ColorIndex
 90
      256
102
RTVSPost2010Prop51ColorRGB
 90
-16777216
102
RTVSPost2010PropOp51
 70
     0
102
RTVSPost2010Prop52
140
1.0
102
RTVSPost2010PropOp52
 70
     0
102
RTVSPost2010Prop53
 90
        2
102
RTVSPost2010PropOp53
 70
     1
102
RTVSPost2010Prop54
  1
strokes_ogs.tif
102
RTVSPost2010PropOp54
 70
     1
102
RTVSPost2010Prop55
280
     0
102
RTVSPost2010PropOp55
 70
     1
102
RTVSPost2010Prop56
140
1.0
102
RTVSPost2010PropOp56
 70
     1
102
RTVSPost2010Prop57
140
1.0
102
RTVSPost2010PropOp57
 70
     1
  0
XRECORD
  5
174
102
{ACAD_REACTORS
330
173
102
}
330
173
100
AcDbXrecord
280
     1
102
RTVSPost2010Prop28
280
     0
102
RTVSPost2010PropOp28
 70
     1
102
RTVSPost2010Prop29
280
     1
102
RTVSPost2010PropOp29
 70
     1
102
RTVSPost2010Prop30
280
     1
102
RTVSPost2010PropOp30
 70
     1
102
RTVSPost2010Prop31
280
     0
102
RTVSPost2010PropOp31
 70
     1
102
RTVSPost2010Prop32
280
     0
102
RTVSPost2010PropOp32
 70
     1
102
RTVSPost2010Prop33
280
     0
102
RTVSPost2010PropOp33
 70
     1
102
RTVSPost2010Prop34
280
     0
102
RTVSPost2010PropOp34
 70
     1
102
RTVSPost2010Prop35
280
     0
102
RTVSPost2010PropOp35
 70
     1
102
RTVSPost2010Prop36
280
     0
102
RTVSPost2010PropOp36
 70
     1
102
RTVSPost2010Prop37
 90
       50
102
RTVSPost2010PropOp37
 70
     1
102
RTVSPost2010Prop38
140
0.0
102
RTVSPost2010PropOp38
 70
     1
102
RTVSPost2010Prop39
140
1.0
102
RTVSPost2010PropOp39
 70
     1
102
RTVSPost2010Prop40
 90
        0
102
RTVSPost2010PropOp40
 70
     1
102
RTVSPost2010Prop41ColorIndex
 90
       18
102
RTVSPost2010Prop41ColorRGB
 90
        0
102
RTVSPost2010PropOp41
 70
     1
102
RTVSPost2010Prop42
 90
       50
102
RTVSPost2010PropOp42
 70
     1
102
RTVSPost2010Prop43
 90
        3
102
RTVSPost2010PropOp43
 70
     1
102
RTVSPost2010Prop44ColorIndex
 90
        5
102
RTVSPost2010Prop44ColorRGB
 90
      255
102
RTVSPost2010PropOp44
 70
     1
102
RTVSPost2010Prop45
280
     0
102
RTVSPost2010PropOp45
 70
     1
102
RTVSPost2010Prop46
 90
       50
102
RTVSPost2010PropOp46
 70
     1
102
RTVSPost2010Prop47
 90
       50
102
RTVSPost2010PropOp47
 70
     1
102
RTVSPost2010Prop48
 90
       50
102
RTVSPost2010PropOp48
 70
     1
102
RTVSPost2010Prop49
280
     0
102
RTVSPost2010PropOp49
 70
     1
102
RTVSPost2010Prop50
 90
       50
102
RTVSPost2010PropOp50
 70
     1
102
RTVSPost2010Prop51ColorIndex
 90
      256
102
RTVSPost2010Prop51ColorRGB
 90
-16777216
102
RTVSPost2010PropOp51
 70
     0
102
RTVSPost2010Prop52
140
1.0
102
RTVSPost2010PropOp52
 70
     0
102
RTVSPost2010Prop53
 90
        2
102
RTVSPost2010PropOp53
 70
     1
102
RTVSPost2010Prop54
  1
strokes_ogs.tif
102
RTVSPost2010PropOp54
 70
     1
102
RTVSPost2010Prop55
280
     0
102
RTVSPost2010PropOp55
 70
     1
102
RTVSPost2010Prop56
140
1.0
102
RTVSPost2010PropOp56
 70
     1
102
RTVSPost2010Prop57
140
1.0
102
RTVSPost2010PropOp57
 70
     1
  0
XRECORD
  5
18C
102
{ACAD_REACTORS
330
18B
102
}
330
18B
100
AcDbXrecord
280
     1
102
RTVSPost2010Prop28
280
     0
102
RTVSPost2010PropOp28
 70
     1
102
RTVSPost2010Prop29
280
     1
102
RTVSPost2010PropOp29
 70
     1
102
RTVSPost2010Prop30
280
     1
102
RTVSPost2010PropOp30
 70
     1
102
RTVSPost2010Prop31
280
     0
102
RTVSPost2010PropOp31
 70
     1
102
RTVSPost2010Prop32
280
     0
102
RTVSPost2010PropOp32
 70
     1
102
RTVSPost2010Prop33
280
     0
102
RTVSPost2010PropOp33
 70
     1
102
RTVSPost2010Prop34
280
     0
102
RTVSPost2010PropOp34
 70
     1
102
RTVSPost2010Prop35
280
     0
102
RTVSPost2010PropOp35
 70
     1
102
RTVSPost2010Prop36
280
     0
102
RTVSPost2010PropOp36
 70
     1
102
RTVSPost2010Prop37
 90
       50
102
RTVSPost2010PropOp37
 70
     1
102
RTVSPost2010Prop38
140
0.0
102
RTVSPost2010PropOp38
 70
     1
102
RTVSPost2010Prop39
140
1.0
102
RTVSPost2010PropOp39
 70
     1
102
RTVSPost2010Prop40
 90
        0
102
RTVSPost2010PropOp40
 70
     1
102
RTVSPost2010Prop41ColorIndex
 90
       18
102
RTVSPost2010Prop41ColorRGB
 90
        0
102
RTVSPost2010PropOp41
 70
     1
102
RTVSPost2010Prop42
 90
       50
102
RTVSPost2010PropOp42
 70
     1
102
RTVSPost2010Prop43
 90
        3
102
RTVSPost2010PropOp43
 70
     1
102
RTVSPost2010Prop44ColorIndex
 90
        5
102
RTVSPost2010Prop44ColorRGB
 90
      255
102
RTVSPost2010PropOp44
 70
     1
102
RTVSPost2010Prop45
280
     0
102
RTVSPost2010PropOp45
 70
     1
102
RTVSPost2010Prop46
 90
       50
102
RTVSPost2010PropOp46
 70
     1
102
RTVSPost2010Prop47
 90
       50
102
RTVSPost2010PropOp47
 70
     1
102
RTVSPost2010Prop48
 90
       50
102
RTVSPost2010PropOp48
 70
     1
102
RTVSPost2010Prop49
280
     0
102
RTVSPost2010PropOp49
 70
     1
102
RTVSPost2010Prop50
 90
       50
102
RTVSPost2010PropOp50
 70
     1
102
RTVSPost2010Prop51ColorIndex
 90
      256
102
RTVSPost2010Prop51ColorRGB
 90
-16777216
102
RTVSPost2010PropOp51
 70
     0
102
RTVSPost2010Prop52
140
1.0
102
RTVSPost2010PropOp52
 70
     0
102
RTVSPost2010Prop53
 90
        2
102
RTVSPost2010PropOp53
 70
     1
102
RTVSPost2010Prop54
  1
strokes_ogs.tif
102
RTVSPost2010PropOp54
 70
     1
102
RTVSPost2010Prop55
280
     0
102
RTVSPost2010PropOp55
 70
     1
102
RTVSPost2010Prop56
140
1.0
102
RTVSPost2010PropOp56
 70
     1
102
RTVSPost2010Prop57
140
1.0
102
RTVSPost2010PropOp57
 70
     1
  0
ENDSEC
  0
EOF
