  0
SECTION
  2
HEADER
  9
$ACADVER
  1
AC1024
  9
$ACADMAINTVER
 70
   205
  9
$DWGCODEPAGE
  3
ANSI_1251
  9
$INSBASE
 10
0.0
 20
0.0
 30
0.0
  9
$EXTMIN
 10
1.000000000000000E+20
 20
1.000000000000000E+20
 30
1.000000000000000E+20
  9
$EXTMAX
 10
-1.000000000000000E+20
 20
-1.000000000000000E+20
 30
-1.000000000000000E+20
  9
$LIMMIN
 10
0.0
 20
0.0
  9
$LIMMAX
 10
12.0
 20
9.0
  9
$ORTHOMODE
 70
     0
  9
$REGENMODE
 70
     1
  9
$FILLMODE
 70
     1
  9
$QTEXTMODE
 70
     0
  9
$MIRRTEXT
 70
     1
  9
$LTSCALE
 40
1.0
  9
$ATTMODE
 70
     1
  9
$TEXTSIZE
 40
0.2
  9
$TRACEWID
 40
0.05
  9
$TEXTSTYLE
  7
Standard
  9
$CLAYER
  8
OracDecor_panel_moldings
  9
$CELTYPE
  6
ByLayer
  9
$CECOLOR
 62
   256
  9
$CELTSCALE
 40
1.0
  9
$DISPSILH
 70
     0
  9
$DIMSCALE
 40
1.0
  9
$DIMASZ
 40
0.18
  9
$DIMEXO
 40
0.0625
  9
$DIMDLI
 40
0.38
  9
$DIMRND
 40
0.0
  9
$DIMDLE
 40
0.0
  9
$DIMEXE
 40
0.18
  9
$DIMTP
 40
0.0
  9
$DIMTM
 40
0.0
  9
$DIMTXT
 40
0.18
  9
$DIMCEN
 40
0.09
  9
$DIMTSZ
 40
0.0
  9
$DIMTOL
 70
     0
  9
$DIMLIM
 70
     0
  9
$DIMTIH
 70
     1
  9
$DIMTOH
 70
     1
  9
$DIMSE1
 70
     0
  9
$DIMSE2
 70
     0
  9
$DIMTAD
 70
     0
  9
$DIMZIN
 70
     0
  9
$DIMBLK
  1

  9
$DIMASO
 70
     1
  9
$DIMSHO
 70
     1
  9
$DIMPOST
  1

  9
$DIMAPOST
  1

  9
$DIMALT
 70
     0
  9
$DIMALTD
 70
     2
  9
$DIMALTF
 40
25.4
  9
$DIMLFAC
 40
1.0
  9
$DIMTOFL
 70
     0
  9
$DIMTVP
 40
0.0
  9
$DIMTIX
 70
     0
  9
$DIMSOXD
 70
     0
  9
$DIMSAH
 70
     0
  9
$DIMBLK1
  1

  9
$DIMBLK2
  1

  9
$DIMSTYLE
  2
Standard
  9
$DIMCLRD
 70
     0
  9
$DIMCLRE
 70
     0
  9
$DIMCLRT
 70
     0
  9
$DIMTFAC
 40
1.0
  9
$DIMGAP
 40
0.09
  9
$DIMJUST
 70
     0
  9
$DIMSD1
 70
     0
  9
$DIMSD2
 70
     0
  9
$DIMTOLJ
 70
     1
  9
$DIMTZIN
 70
     0
  9
$DIMALTZ
 70
     0
  9
$DIMALTTZ
 70
     0
  9
$DIMUPT
 70
     0
  9
$DIMDEC
 70
     4
  9
$DIMTDEC
 70
     4
  9
$DIMALTU
 70
     2
  9
$DIMALTTD
 70
     2
  9
$DIMTXSTY
  7
Standard
  9
$DIMAUNIT
 70
     0
  9
$DIMADEC
 70
     0
  9
$DIMALTRND
 40
0.0
  9
$DIMAZIN
 70
     0
  9
$DIMDSEP
 70
    46
  9
$DIMATFIT
 70
     3
  9
$DIMFRAC
 70
     0
  9
$DIMLDRBLK
  1

  9
$DIMLUNIT
 70
     2
  9
$DIMLWD
 70
    -2
  9
$DIMLWE
 70
    -2
  9
$DIMTMOVE
 70
     0
  9
$DIMFXL
 40
1.0
  9
$DIMFXLON
 70
     0
  9
$DIMJOGANG
 40
0.7853981633974483
  9
$DIMTFILL
 70
     0
  9
$DIMTFILLCLR
 70
     0
  9
$DIMARCSYM
 70
     0
  9
$DIMLTYPE
  6

  9
$DIMLTEX1
  6

  9
$DIMLTEX2
  6

  9
$DIMTXTDIRECTION
 70
     0
  9
$LUNITS
 70
     2
  9
$LUPREC
 70
     4
  9
$SKETCHINC
 40
0.1
  9
$FILLETRAD
 40
0.5
  9
$AUNITS
 70
     0
  9
$AUPREC
 70
     0
  9
$MENU
  1
.
  9
$ELEVATION
 40
0.0
  9
$PELEVATION
 40
0.0
  9
$THICKNESS
 40
0.0
  9
$LIMCHECK
 70
     0
  9
$CHAMFERA
 40
0.5
  9
$CHAMFERB
 40
0.5
  9
$CHAMFERC
 40
1.0
  9
$CHAMFERD
 40
0.0
  9
$SKPOLY
 70
     0
  9
$TDCREATE
 40
2451380.930432396
  9
$TDUCREATE
 40
2451380.805432396
  9
$TDUPDATE
 40
2451380.966180555
  9
$TDUUPDATE
 40
2451380.841180556
  9
$TDINDWG
 40
0.0075615625
  9
$TDUSRTIMER
 40
0.0075525231
  9
$USRTIMER
 70
     1
  9
$ANGBASE
 50
0.0
  9
$ANGDIR
 70
     0
  9
$PDMODE
 70
     0
  9
$PDSIZE
 40
0.0
  9
$PLINEWID
 40
0.0
  9
$SPLFRAME
 70
     0
  9
$SPLINETYPE
 70
     6
  9
$SPLINESEGS
 70
     8
  9
$HANDSEED
  5
1A2
  9
$SURFTAB1
 70
     6
  9
$SURFTAB2
 70
     6
  9
$SURFTYPE
 70
     6
  9
$SURFU
 70
     6
  9
$SURFV
 70
     6
  9
$UCSBASE
  2

  9
$UCSNAME
  2

  9
$UCSORG
 10
0.0
 20
0.0
 30
0.0
  9
$UCSXDIR
 10
1.0
 20
0.0
 30
0.0
  9
$UCSYDIR
 10
0.0
 20
1.0
 30
0.0
  9
$UCSORTHOREF
  2

  9
$UCSORTHOVIEW
 70
     0
  9
$UCSORGTOP
 10
0.0
 20
0.0
 30
0.0
  9
$UCSORGBOTTOM
 10
0.0
 20
0.0
 30
0.0
  9
$UCSORGLEFT
 10
0.0
 20
0.0
 30
0.0
  9
$UCSORGRIGHT
 10
0.0
 20
0.0
 30
0.0
  9
$UCSORGFRONT
 10
0.0
 20
0.0
 30
0.0
  9
$UCSORGBACK
 10
0.0
 20
0.0
 30
0.0
  9
$PUCSBASE
  2

  9
$PUCSNAME
  2

  9
$PUCSORG
 10
0.0
 20
0.0
 30
0.0
  9
$PUCSXDIR
 10
1.0
 20
0.0
 30
0.0
  9
$PUCSYDIR
 10
0.0
 20
1.0
 30
0.0
  9
$PUCSORTHOREF
  2

  9
$PUCSORTHOVIEW
 70
     0
  9
$PUCSORGTOP
 10
0.0
 20
0.0
 30
0.0
  9
$PUCSORGBOTTOM
 10
0.0
 20
0.0
 30
0.0
  9
$PUCSORGLEFT
 10
0.0
 20
0.0
 30
0.0
  9
$PUCSORGRIGHT
 10
0.0
 20
0.0
 30
0.0
  9
$PUCSORGFRONT
 10
0.0
 20
0.0
 30
0.0
  9
$PUCSORGBACK
 10
0.0
 20
0.0
 30
0.0
  9
$USERI1
 70
     0
  9
$USERI2
 70
     0
  9
$USERI3
 70
     0
  9
$USERI4
 70
     0
  9
$USERI5
 70
     0
  9
$USERR1
 40
0.0
  9
$USERR2
 40
0.0
  9
$USERR3
 40
0.0
  9
$USERR4
 40
0.0
  9
$USERR5
 40
0.0
  9
$WORLDVIEW
 70
     1
  9
$SHADEDGE
 70
     3
  9
$SHADEDIF
 70
    70
  9
$TILEMODE
 70
     1
  9
$MAXACTVP
 70
    64
  9
$PINSBASE
 10
0.0
 20
0.0
 30
0.0
  9
$PLIMCHECK
 70
     0
  9
$PEXTMIN
 10
1.000000000000000E+20
 20
1.000000000000000E+20
 30
1.000000000000000E+20
  9
$PEXTMAX
 10
-1.000000000000000E+20
 20
-1.000000000000000E+20
 30
-1.000000000000000E+20
  9
$PLIMMIN
 10
0.0
 20
0.0
  9
$PLIMMAX
 10
12.0
 20
9.0
  9
$UNITMODE
 70
     0
  9
$VISRETAIN
 70
     1
  9
$PLINEGEN
 70
     0
  9
$PSLTSCALE
 70
     1
  9
$TREEDEPTH
 70
  3020
  9
$CMLSTYLE
  2
Standard
  9
$CMLJUST
 70
     0
  9
$CMLSCALE
 40
1.0
  9
$PROXYGRAPHICS
 70
     1
  9
$MEASUREMENT
 70
     1
  9
$CELWEIGHT
370
    -1
  9
$ENDCAPS
280
     0
  9
$JOINSTYLE
280
     0
  9
$LWDISPLAY
290
     0
  9
$INSUNITS
 70
     4
  9
$HYPERLINKBASE
  1

  9
$STYLESHEET
  1

  9
$XEDIT
290
     1
  9
$CEPSNTYPE
380
     0
  9
$PSTYLEMODE
290
     1
  9
$FINGERPRINTGUID
  2
{12F50282-3ED8-11D3-A8B7-0060B0F84BC6}
  9
$VERSIONGUID
  2
{12F50293-3ED8-11D3-A8B7-0060B0F84BC6}
  9
$EXTNAMES
290
     1
  9
$PSVPSCALE
 40
0.0
  9
$OLESTARTUP
290
     0
  9
$SORTENTS
280
   127
  9
$INDEXCTL
280
     0
  9
$HIDETEXT
280
     0
  9
$XCLIPFRAME
280
     2
  9
$HALOGAP
280
     0
  9
$OBSCOLOR
 70
   257
  9
$OBSLTYPE
280
     0
  9
$INTERSECTIONDISPLAY
280
     0
  9
$INTERSECTIONCOLOR
 70
   257
  9
$DIMASSOC
280
     1
  9
$PROJECTNAME
  1

  9
$CAMERADISPLAY
290
     0
  9
$LENSLENGTH
 40
50.0
  9
$CAMERAHEIGHT
 40
0.0
  9
$STEPSPERSEC
 40
2.0
  9
$STEPSIZE
 40
6.0
  9
$3DDWFPREC
 40
2.0
  9
$PSOLWIDTH
 40
0.25
  9
$PSOLHEIGHT
 40
4.0
  9
$LOFTANG1
 40
1.570796326794896
  9
$LOFTANG2
 40
1.570796326794896
  9
$LOFTMAG1
 40
0.0
  9
$LOFTMAG2
 40
0.0
  9
$LOFTPARAM
 70
     7
  9
$LOFTNORMALS
280
     1
  9
$LATITUDE
 40
37.795
  9
$LONGITUDE
 40
-122.394
  9
$NORTHDIRECTION
 40
0.0
  9
$TIMEZONE
 70
 -8000
  9
$LIGHTGLYPHDISPLAY
280
     1
  9
$TILEMODELIGHTSYNCH
280
     1
  9
$CMATERIAL
347
AB
  9
$SOLIDHIST
280
     0
  9
$SHOWHIST
280
     1
  9
$DWFFRAME
280
     2
  9
$DGNFRAME
280
     0
  9
$REALWORLDSCALE
290
     1
  9
$INTERFERECOLOR
 62
     1
  9
$INTERFEREOBJVS
345
CD
  9
$INTERFEREVPVS
346
CA
  9
$CSHADOW
280
     0
  9
$SHADOWPLANELOCATION
 40
0.0
  0
ENDSEC
  0
SECTION
  2
CLASSES
  0
CLASS
  1
ACDBDICTIONARYWDFLT
  2
AcDbDictionaryWithDefault
  3
ObjectDBX Classes
 90
        0
 91
        1
280
     0
281
     0
  0
CLASS
  1
ACDBPLACEHOLDER
  2
AcDbPlaceHolder
  3
ObjectDBX Classes
 90
        0
 91
        2
280
     0
281
     0
  0
CLASS
  1
LAYOUT
  2
AcDbLayout
  3
ObjectDBX Classes
 90
        0
 91
        3
280
     0
281
     0
  0
CLASS
  1
MATERIAL
  2
AcDbMaterial
  3
ObjectDBX Classes
 90
     1153
 91
        3
280
     0
281
     0
  0
CLASS
  1
VISUALSTYLE
  2
AcDbVisualStyle
  3
ObjectDBX Classes
 90
     4095
 91
       24
280
     0
281
     0
  0
CLASS
  1
TABLESTYLE
  2
AcDbTableStyle
  3
ObjectDBX Classes
 90
     4095
 91
        1
280
     0
281
     0
  0
CLASS
  1
SCALE
  2
AcDbScale
  3
ObjectDBX Classes
 90
     1153
 91
       17
280
     0
281
     0
  0
CLASS
  1
MLEADERSTYLE
  2
AcDbMLeaderStyle
  3
ACDB_MLEADERSTYLE_CLASS
 90
     4095
 91
        1
280
     0
281
     0
  0
CLASS
  1
ACDBSECTIONVIEWSTYLE
  2
AcDbSectionViewStyle
  3
ObjectDBX Classes
 90
     1025
 91
        1
280
     0
281
     0
  0
CLASS
  1
ACDBDETAILVIEWSTYLE
  2
AcDbDetailViewStyle
  3
ObjectDBX Classes
 90
     1025
 91
        1
280
     0
281
     0
  0
CLASS
  1
MESH
  2
AcDbSubDMesh
  3
ObjectDBX Classes
 90
        0
 91
        1
280
     0
281
     1
  0
CLASS
  1
DICTIONARYVAR
  2
AcDbDictionaryVar
  3
ObjectDBX Classes
 90
        0
 91
        9
280
     0
281
     0
  0
CLASS
  1
CELLSTYLEMAP
  2
AcDbCellStyleMap
  3
ObjectDBX Classes
 90
     1152
 91
        1
280
     0
281
     0
  0
ENDSEC
  0
SECTION
  2
TABLES
  0
TABLE
  2
VPORT
  5
8
330
0
100
AcDbSymbolTable
 70
     1
  0
VPORT
  5
A8
330
8
100
AcDbSymbolTableRecord
100
AcDbViewportTableRecord
  2
*Active
 70
     0
 10
0.0
 20
0.0
 11
1.0
 21
1.0
 12
0.0
 22
16.329927444458
 13
0.0
 23
0.0
 14
0.5
 24
0.5
 15
0.5
 25
0.5
 16
-1.0
 26
-1.0
 36
1.0
 17
0.0
 27
0.0
 37
0.0
 40
1059.756429645808
 41
1.666675380725521
 42
50.0
 43
0.0
 44
0.0
 50
0.0
 51
0.0
 71
     0
 72
   100
 73
     1
 74
     3
 75
     0
 76
     0
 77
     0
 78
     0
281
     0
 65
     1
110
0.0
120
0.0
130
0.0
111
1.0
121
0.0
131
0.0
112
0.0
122
1.0
132
0.0
 79
     0
146
0.0
348
C9
 60
     3
 61
     5
292
     1
282
     1
141
0.0
142
0.0
 63
   250
421
  3355443
  0
ENDTAB
  0
TABLE
  2
LTYPE
  5
5
330
0
100
AcDbSymbolTable
 70
     1
  0
LTYPE
  5
14
330
5
100
AcDbSymbolTableRecord
100
AcDbLinetypeTableRecord
  2
ByBlock
 70
     0
  3

 72
    65
 73
     0
 40
0.0
  0
LTYPE
  5
15
330
5
100
AcDbSymbolTableRecord
100
AcDbLinetypeTableRecord
  2
ByLayer
 70
     0
  3

 72
    65
 73
     0
 40
0.0
  0
LTYPE
  5
16
330
5
100
AcDbSymbolTableRecord
100
AcDbLinetypeTableRecord
  2
Continuous
 70
     0
  3
Solid line
 72
    65
 73
     0
 40
0.0
  0
ENDTAB
  0
TABLE
  2
LAYER
  5
2
330
0
100
AcDbSymbolTable
 70
     3
  0
LAYER
  5
10
330
2
100
AcDbSymbolTableRecord
100
AcDbLayerTableRecord
  2
0
 70
     0
 62
     7
  6
Continuous
370
    -3
390
F
347
BB
  0
LAYER
  5
2B
330
2
100
AcDbSymbolTableRecord
100
AcDbLayerTableRecord
  2
ASHADE
 70
     4
 62
     7
  6
Continuous
370
    -3
390
2D
347
BB
  0
LAYER
  5
F8
330
2
100
AcDbSymbolTableRecord
100
AcDbLayerTableRecord
  2
OracDecor_panel_moldings
 70
     0
 62
   224
420
  9046126
  6
Continuous
370
    -3
390
F
347
BB
  0
ENDTAB
  0
TABLE
  2
STYLE
  5
3
330
0
100
AcDbSymbolTable
 70
     2
  0
STYLE
  5
11
330
3
100
AcDbSymbolTableRecord
100
AcDbTextStyleTableRecord
  2
Standard
 70
     0
 40
0.0
 41
1.0
 50
0.0
 71
     0
 42
0.2
  3
txt
  4

  0
STYLE
  5
2C
330
3
100
AcDbSymbolTableRecord
100
AcDbTextStyleTableRecord
  2
ASHADE
 70
     0
 40
0.2
 41
1.0
 50
0.0
 71
     0
 42
0.2
  3
simplex
  4

  0
ENDTAB
  0
TABLE
  2
VIEW
  5
6
330
0
100
AcDbSymbolTable
 70
     0
  0
ENDTAB
  0
TABLE
  2
UCS
  5
7
330
0
100
AcDbSymbolTable
 70
     0
  0
ENDTAB
  0
TABLE
  2
APPID
  5
9
330
0
100
AcDbSymbolTable
 70
     6
  0
APPID
  5
12
330
9
100
AcDbSymbolTableRecord
100
AcDbRegAppTableRecord
  2
ACAD
 70
     0
  0
APPID
  5
8F
330
9
100
AcDbSymbolTableRecord
100
AcDbRegAppTableRecord
  2
AVE_RENDER
 70
     0
  0
APPID
  5
90
330
9
100
AcDbSymbolTableRecord
100
AcDbRegAppTableRecord
  2
AVE_ENTITY_MATERIAL
 70
     0
  0
APPID
  5
9C
330
9
100
AcDbSymbolTableRecord
100
AcDbRegAppTableRecord
  2
AVE_FINISH
 70
     0
  0
APPID
  5
9D
330
9
100
AcDbSymbolTableRecord
100
AcDbRegAppTableRecord
  2
AVE_MATERIAL
 70
     0
  0
APPID
  5
9E
330
9
100
AcDbSymbolTableRecord
100
AcDbRegAppTableRecord
  2
AVE_GLOBAL
 70
     0
  0
ENDTAB
  0
TABLE
  2
DIMSTYLE
  5
A
330
0
100
AcDbSymbolTable
 70
     1
100
AcDbDimStyleTable
 71
     0
  0
DIMSTYLE
105
27
330
A
100
AcDbSymbolTableRecord
100
AcDbDimStyleTableRecord
  2
Standard
 70
     0
340
11
  0
ENDTAB
  0
TABLE
  2
BLOCK_RECORD
  5
1
330
0
100
AcDbSymbolTable
 70
     6
  0
BLOCK_RECORD
  5
1F
330
1
100
AcDbSymbolTableRecord
100
AcDbBlockTableRecord
  2
*Model_Space
340
22
 70
     0
280
     1
281
     0
  0
BLOCK_RECORD
  5
1B
330
1
100
AcDbSymbolTableRecord
100
AcDbBlockTableRecord
  2
*Paper_Space
340
1E
 70
     0
280
     1
281
     0
  0
BLOCK_RECORD
  5
23
330
1
100
AcDbSymbolTableRecord
100
AcDbBlockTableRecord
  2
*Paper_Space0
340
26
 70
     0
280
     1
281
     0
  0
BLOCK_RECORD
  5
2E
330
1
100
AcDbSymbolTableRecord
100
AcDbBlockTableRecord
  2
direct
340
0
 70
     0
280
     1
281
     0
  0
BLOCK_RECORD
  5
42
330
1
100
AcDbSymbolTableRecord
100
AcDbBlockTableRecord
  2
overhead
340
0
 70
     0
280
     1
281
     0
  0
BLOCK_RECORD
  5
5F
330
1
100
AcDbSymbolTableRecord
100
AcDbBlockTableRecord
  2
sh_spot
340
0
 70
     0
280
     1
281
     0
  0
BLOCK_RECORD
  5
91
330
1
100
AcDbSymbolTableRecord
100
AcDbBlockTableRecord
  2
AVE_RENDER
340
0
102
{BLKREFS
331
94
331
95
331
96
331
97
331
98
331
99
331
9A
331
9B
102
}
 70
     0
280
     1
281
     0
  0
BLOCK_RECORD
  5
9F
330
1
100
AcDbSymbolTableRecord
100
AcDbBlockTableRecord
  2
AVE_GLOBAL
340
0
102
{BLKREFS
331
A2
102
}
 70
     0
280
     1
281
     0
  0
ENDTAB
  0
ENDSEC
  0
SECTION
  2
BLOCKS
  0
BLOCK
  5
20
330
1F
100
AcDbEntity
  8
0
100
AcDbBlockBegin
  2
*Model_Space
 70
     0
 10
0.0
 20
0.0
 30
0.0
  3
*Model_Space
  1

  0
ENDBLK
  5
21
330
1F
100
AcDbEntity
  8
0
100
AcDbBlockEnd
  0
BLOCK
  5
1C
330
1B
100
AcDbEntity
 67
     1
  8
0
100
AcDbBlockBegin
  2
*Paper_Space
 70
     0
 10
0.0
 20
0.0
 30
0.0
  3
*Paper_Space
  1

  0
ENDBLK
  5
1D
330
1B
100
AcDbEntity
 67
     1
  8
0
100
AcDbBlockEnd
  0
BLOCK
  5
24
330
23
100
AcDbEntity
 67
     1
  8
0
100
AcDbBlockBegin
  2
*Paper_Space0
 70
     0
 10
0.0
 20
0.0
 30
0.0
  3
*Paper_Space0
  1

  0
ENDBLK
  5
25
330
23
100
AcDbEntity
 67
     1
  8
0
100
AcDbBlockEnd
  0
BLOCK
  5
40
330
2E
100
AcDbEntity
  8
0
100
AcDbBlockBegin
  2
direct
 70
     2
 10
0.0
 20
0.0
 30
0.0
  3
direct
  1

  0
ATTDEF
  5
2F
330
2E
100
AcDbEntity
  8
ASHADE
  6
Continuous
 62
     1
100
AcDbText
 10
0.0
 20
-0.1
 30
0.0
 40
0.2
  1

  7
ASHADE
 72
     1
 11
0.0
 21
-0.1
 31
0.0
100
AcDbAttributeDefinition
280
     0
  3
Light Name
  2
SNAME
 70
     0
280
     0
  0
ARC
  5
30
330
2E
100
AcDbEntity
  8
ASHADE
  6
Continuous
 62
     7
100
AcDbCircle
 10
0.0
 20
0.0
 30
0.0
 40
0.3
100
AcDbArc
 50
205.6792886194569
 51
334.3207113805431
  0
ARC
  5
31
330
2E
100
AcDbEntity
  8
ASHADE
  6
Continuous
 62
     7
100
AcDbCircle
 10
0.0
 20
0.0
 30
0.0
 40
0.3
100
AcDbArc
 50
25.67928861945685
 51
154.3207113805431
  0
LINE
  5
32
330
2E
100
AcDbEntity
  8
ASHADE
  6
Continuous
 62
     7
100
AcDbLine
 10
-0.21
 20
0.2142428528562855
 30
0.0
 11
-0.21
 21
0.5
 31
0.0
  0
LINE
  5
33
330
2E
100
AcDbEntity
  8
ASHADE
  6
Continuous
 62
     7
100
AcDbLine
 10
-0.11
 20
0.2791057147390572
 30
0.0
 11
-0.11
 21
0.5
 31
0.0
  0
LINE
  5
34
330
2E
100
AcDbEntity
  8
ASHADE
  6
Continuous
 62
     7
100
AcDbLine
 10
0.21
 20
0.2142428528562855
 30
0.0
 11
0.21
 21
0.5
 31
0.0
  0
ATTDEF
  5
35
330
2E
100
AcDbEntity
  8
ASHADE
  6
Continuous
 62
     7
100
AcDbText
 10
0.0
 20
0.25
 30
0.0
 40
0.01
  1

100
AcDbAttributeDefinition
280
     0
  3
Look-at Y
  2
LAY
 70
     1
280
     0
  0
ATTDEF
  5
36
330
2E
100
AcDbEntity
  8
ASHADE
  6
Continuous
 62
     7
100
AcDbText
 10
0.0
 20
0.22
 30
0.0
 40
0.01
  1
1
100
AcDbAttributeDefinition
280
     0
  3
Light Intensity
  2
INTENSITY
 70
     1
280
     0
  0
ATTDEF
  5
37
330
2E
100
AcDbEntity
  8
ASHADE
  6
Continuous
 62
     7
100
AcDbText
 10
0.0
 20
0.16
 30
0.0
 40
0.01
  1
-1
100
AcDbAttributeDefinition
280
     0
  3
*not used*
  2
BEAMD
 70
     1
280
     0
  0
ATTDEF
  5
38
330
2E
100
AcDbEntity
  8
ASHADE
  6
Continuous
 62
     7
100
AcDbText
 10
0.0
 20
0.175
 30
0.0
 40
0.01
  1
-1
100
AcDbAttributeDefinition
280
     0
  3
*not used*
  2
CONED
 70
     1
280
     0
  0
ATTDEF
  5
39
330
2E
100
AcDbEntity
  8
ASHADE
  6
Continuous
 62
     7
100
AcDbText
 10
0.0
 20
0.19
 30
0.0
 40
0.01
  1
0
100
AcDbAttributeDefinition
280
     0
  3
Depth Map Size
  2
CONEA
 70
     1
280
     0
  0
ATTDEF
  5
3A
330
2E
100
AcDbEntity
  8
ASHADE
  6
Continuous
 62
     7
100
AcDbText
 10
0.0
 20
0.2050000000000001
 30
0.0
 40
0.01
  1
1,1,1
100
AcDbAttributeDefinition
280
     0
  3
Light Color (RGB)
  2
COLOR
 70
     1
280
     0
  0
ATTDEF
  5
3B
330
2E
100
AcDbEntity
  8
ASHADE
  6
Continuous
 62
     7
100
AcDbText
 10
0.0
 20
0.235
 30
0.0
 40
0.01
  1

100
AcDbAttributeDefinition
280
     0
  3
Look-at Z
  2
LAZ
 70
     1
280
     0
  0
LINE
  5
3C
330
2E
100
AcDbEntity
  8
ASHADE
  6
Continuous
 62
     7
100
AcDbLine
 10
0.0
 20
0.3
 30
0.0
 11
0.0
 21
0.5
 31
0.0
  0
LINE
  5
3D
330
2E
100
AcDbEntity
  8
ASHADE
  6
Continuous
 62
     7
100
AcDbLine
 10
0.11
 20
0.2791057147390572
 30
0.0
 11
0.11
 21
0.5
 31
0.0
  0
ATTDEF
  5
3E
330
2E
100
AcDbEntity
  8
ASHADE
  6
Continuous
 62
     7
100
AcDbText
 10
0.0
 20
0.265
 30
0.0
 40
0.01
  1

100
AcDbAttributeDefinition
280
     0
  3
Look-at X
  2
LAX
 70
     1
280
     0
  0
ATTDEF
  5
3F
330
2E
100
AcDbEntity
  8
ASHADE
  6
Continuous
 62
     7
100
AcDbText
 10
0.0
 20
0.28
 30
0.0
 40
0.01
  1

100
AcDbAttributeDefinition
280
     0
  3

  2
GNAME
 70
     1
280
     0
  0
ENDBLK
  5
41
330
2E
100
AcDbEntity
  8
0
100
AcDbBlockEnd
  0
BLOCK
  5
5D
330
42
100
AcDbEntity
  8
0
100
AcDbBlockBegin
  2
overhead
 70
     2
 10
0.0
 20
0.0
 30
0.0
  3
overhead
  1

  0
ATTDEF
  5
43
330
42
100
AcDbEntity
  8
ASHADE
  6
Continuous
 62
     1
100
AcDbText
 10
0.0
 20
-0.1
 30
0.0
 40
0.2
  1

  7
ASHADE
 72
     1
 11
0.0
 21
-0.1
 31
0.0
100
AcDbAttributeDefinition
280
     0
  3
Light Name
  2
SNAME
 70
     0
280
     0
  0
ARC
  5
44
330
42
100
AcDbEntity
  8
ASHADE
  6
Continuous
 62
     7
100
AcDbCircle
 10
0.0
 20
0.0
 30
0.0
 40
0.3
100
AcDbArc
 50
205.6792886194569
 51
334.3207113805431
  0
LINE
  5
45
330
42
100
AcDbEntity
  8
ASHADE
  6
Continuous
 62
     7
100
AcDbLine
 10
-0.2041413561583015
 20
-0.2198324514393848
 30
0.0
 11
-0.2721884748777353
 21
-0.2931099352525131
 31
0.0
  0
LINE
  5
46
330
42
100
AcDbEntity
  8
ASHADE
  6
Continuous
 62
     7
100
AcDbLine
 10
-0.1096591641591904
 20
-0.2792398032442862
 30
0.0
 11
-0.1279356915190555
 21
-0.3257797704516673
 31
0.0
  0
LINE
  5
47
330
42
100
AcDbEntity
  8
ASHADE
  6
Continuous
 62
     7
100
AcDbLine
 10
0.0
 20
-0.2999999999999999
 30
0.0
 11
0.0
 21
-0.4
 31
0.0
  0
LINE
  5
48
330
42
100
AcDbEntity
  8
ASHADE
  6
Continuous
 62
     7
100
AcDbLine
 10
0.1096591641591904
 20
-0.2792398032442862
 30
0.0
 11
0.1279356915190555
 21
-0.3257797704516673
 31
0.0
  0
LINE
  5
49
330
42
100
AcDbEntity
  8
ASHADE
  6
Continuous
 62
     7
100
AcDbLine
 10
0.2041413561583015
 20
-0.2198324514393848
 30
0.0
 11
0.2721884748777353
 21
-0.2931099352525131
 31
0.0
  0
ARC
  5
4A
330
42
100
AcDbEntity
  8
ASHADE
  6
Continuous
 62
     7
100
AcDbCircle
 10
0.0
 20
0.0
 30
0.0
 40
0.3
100
AcDbArc
 50
25.67928861945685
 51
154.3207113805431
  0
LINE
  5
4B
330
42
100
AcDbEntity
  8
ASHADE
  6
Continuous
 62
     7
100
AcDbLine
 10
-0.2703701166919155
 20
0.13
 30
0.0
 11
-0.3154318028072347
 21
0.1516666666666666
 31
0.0
  0
LINE
  5
4C
330
42
100
AcDbEntity
  8
ASHADE
  6
Continuous
 62
     7
100
AcDbLine
 10
-0.2703701166919155
 20
-0.13
 30
0.0
 11
-0.3154318028072347
 21
-0.1516666666666666
 31
0.0
  0
LINE
  5
4D
330
42
100
AcDbEntity
  8
ASHADE
  6
Continuous
 62
     7
100
AcDbLine
 10
-0.2041413561583015
 20
0.2198324514393849
 30
0.0
 11
-0.2721884748777353
 21
0.2931099352525131
 31
0.0
  0
LINE
  5
4E
330
42
100
AcDbEntity
  8
ASHADE
  6
Continuous
 62
     7
100
AcDbLine
 10
-0.1096591641591904
 20
0.2792398032442862
 30
0.0
 11
-0.1279356915190555
 21
0.3257797704516674
 31
0.0
  0
LINE
  5
4F
330
42
100
AcDbEntity
  8
ASHADE
  6
Continuous
 62
     7
100
AcDbLine
 10
0.2703701166919155
 20
-0.13
 30
0.0
 11
0.3154318028072347
 21
-0.1516666666666666
 31
0.0
  0
LINE
  5
50
330
42
100
AcDbEntity
  8
ASHADE
  6
Continuous
 62
     7
100
AcDbLine
 10
0.2703701166919155
 20
0.13
 30
0.0
 11
0.3154318028072347
 21
0.1516666666666666
 31
0.0
  0
LINE
  5
51
330
42
100
AcDbEntity
  8
ASHADE
  6
Continuous
 62
     7
100
AcDbLine
 10
0.0
 20
0.3
 30
0.0
 11
0.0
 21
0.4
 31
0.0
  0
ATTDEF
  5
52
330
42
100
AcDbEntity
  8
ASHADE
  6
Continuous
 62
     7
100
AcDbText
 10
0.0
 20
0.22
 30
0.0
 40
0.01
  1
1
100
AcDbAttributeDefinition
280
     0
  3
Light Intensity
  2
INTENSITY
 70
     1
280
     0
  0
ATTDEF
  5
53
330
42
100
AcDbEntity
  8
ASHADE
  6
Continuous
 62
     7
100
AcDbText
 10
0.0
 20
0.16
 30
0.0
 40
0.01
  1
-1
100
AcDbAttributeDefinition
280
     0
  3
*not used*
  2
BEAMD
 70
     1
280
     0
  0
ATTDEF
  5
54
330
42
100
AcDbEntity
  8
ASHADE
  6
Continuous
 62
     7
100
AcDbText
 10
0.0
 20
0.175
 30
0.0
 40
0.01
  1
-1
100
AcDbAttributeDefinition
280
     0
  3
*not used*
  2
CONED
 70
     1
280
     0
  0
ATTDEF
  5
55
330
42
100
AcDbEntity
  8
ASHADE
  6
Continuous
 62
     7
100
AcDbText
 10
0.0
 20
0.19
 30
0.0
 40
0.01
  1
0
100
AcDbAttributeDefinition
280
     0
  3
Depth Map Size
  2
CONEA
 70
     1
280
     0
  0
ATTDEF
  5
56
330
42
100
AcDbEntity
  8
ASHADE
  6
Continuous
 62
     7
100
AcDbText
 10
0.0
 20
0.2050000000000001
 30
0.0
 40
0.01
  1
1,1,1
100
AcDbAttributeDefinition
280
     0
  3
Light Color (RGB)
  2
COLOR
 70
     1
280
     0
  0
ATTDEF
  5
57
330
42
100
AcDbEntity
  8
ASHADE
  6
Continuous
 62
     7
100
AcDbText
 10
0.0
 20
0.235
 30
0.0
 40
0.01
  1

100
AcDbAttributeDefinition
280
     0
  3
Look-at Z
  2
LAZ
 70
     1
280
     0
  0
ATTDEF
  5
58
330
42
100
AcDbEntity
  8
ASHADE
  6
Continuous
 62
     7
100
AcDbText
 10
0.0
 20
0.25
 30
0.0
 40
0.01
  1

100
AcDbAttributeDefinition
280
     0
  3
Look-at Y
  2
LAY
 70
     1
280
     0
  0
ATTDEF
  5
59
330
42
100
AcDbEntity
  8
ASHADE
  6
Continuous
 62
     7
100
AcDbText
 10
0.0
 20
0.265
 30
0.0
 40
0.01
  1

100
AcDbAttributeDefinition
280
     0
  3
Look-at X
  2
LAX
 70
     1
280
     0
  0
ATTDEF
  5
5A
330
42
100
AcDbEntity
  8
ASHADE
  6
Continuous
 62
     7
100
AcDbText
 10
0.0
 20
0.28
 30
0.0
 40
0.01
  1

100
AcDbAttributeDefinition
280
     0
  3

  2
GNAME
 70
     1
280
     0
  0
LINE
  5
5B
330
42
100
AcDbEntity
  8
ASHADE
  6
Continuous
 62
     7
100
AcDbLine
 10
0.1096591641591904
 20
0.2792398032442862
 30
0.0
 11
0.1279356915190555
 21
0.3257797704516674
 31
0.0
  0
LINE
  5
5C
330
42
100
AcDbEntity
  8
ASHADE
  6
Continuous
 62
     7
100
AcDbLine
 10
0.2041413561583015
 20
0.2198324514393849
 30
0.0
 11
0.2721884748777353
 21
0.2931099352525131
 31
0.0
  0
ENDBLK
  5
5E
330
42
100
AcDbEntity
  8
0
100
AcDbBlockEnd
  0
BLOCK
  5
85
330
5F
100
AcDbEntity
  8
0
100
AcDbBlockBegin
  2
sh_spot
 70
     2
 10
0.0
 20
0.0
 30
0.0
  3
sh_spot
  1

  0
LINE
  5
60
330
5F
100
AcDbEntity
  8
ASHADE
  6
Continuous
 62
     7
100
AcDbLine
 10
0.25
 20
0.26
 30
0.0
 11
-0.25
 21
0.26
 31
0.0
  0
LINE
  5
61
330
5F
100
AcDbEntity
  8
ASHADE
  6
Continuous
 62
     7
100
AcDbLine
 10
-0.25
 20
-0.3399999999999999
 30
0.0
 11
0.25
 21
-0.3399999999999999
 31
0.0
  0
ATTDEF
  5
62
330
5F
100
AcDbEntity
  8
ASHADE
  6
Continuous
 62
     1
100
AcDbText
 10
0.0
 20
-0.1
 30
0.0
 40
0.2
  1

  7
ASHADE
 72
     1
 11
0.0
 21
-0.1
 31
0.0
100
AcDbAttributeDefinition
280
     0
  3
Light Name
  2
SNAME
 70
     0
280
     0
  0
LINE
  5
63
330
5F
100
AcDbEntity
  8
ASHADE
  6
Continuous
 62
     7
100
AcDbLine
 10
-0.25
 20
-0.13
 30
0.0
 11
-0.25
 21
-0.3399999999999999
 31
0.0
  0
LINE
  5
64
330
5F
100
AcDbEntity
  8
ASHADE
  6
Continuous
 62
     7
100
AcDbLine
 10
-0.25
 20
-0.18
 30
0.0
 11
-0.29
 21
-0.18
 31
0.0
  0
LINE
  5
65
330
5F
100
AcDbEntity
  8
ASHADE
  6
Continuous
 62
     7
100
AcDbLine
 10
-0.29
 20
-0.22
 30
0.0
 11
-0.25
 21
-0.22
 31
0.0
  0
LINE
  5
66
330
5F
100
AcDbEntity
  8
ASHADE
  6
Continuous
 62
     7
100
AcDbLine
 10
-0.29
 20
-0.18
 30
0.0
 11
-0.29
 21
-0.22
 31
0.0
  0
LINE
  5
67
330
5F
100
AcDbEntity
  8
ASHADE
  6
Continuous
 62
     7
100
AcDbLine
 10
-0.1045454545454545
 20
0.26
 30
0.0
 11
-0.15
 21
0.46
 31
0.0
  0
LINE
  5
68
330
5F
100
AcDbEntity
  8
ASHADE
  6
Continuous
 62
     7
100
AcDbLine
 10
-0.21
 20
0.26
 30
0.0
 11
-0.301304347826087
 21
0.46
 31
0.0
  0
LINE
  5
69
330
5F
100
AcDbEntity
  8
ASHADE
  6
Continuous
 62
     7
100
AcDbLine
 10
-0.25
 20
0.26
 30
0.0
 11
-0.25
 21
0.13
 31
0.0
  0
LINE
  5
6A
330
5F
100
AcDbEntity
  8
ASHADE
  6
Continuous
 62
     7
100
AcDbLine
 10
-0.25
 20
0.22
 30
0.0
 11
-0.29
 21
0.22
 31
0.0
  0
LINE
  5
6B
330
5F
100
AcDbEntity
  8
ASHADE
  6
Continuous
 62
     7
100
AcDbLine
 10
-0.29
 20
0.1799999999999999
 30
0.0
 11
-0.25
 21
0.1799999999999999
 31
0.0
  0
LINE
  5
6C
330
5F
100
AcDbEntity
  8
ASHADE
  6
Continuous
 62
     7
100
AcDbLine
 10
-0.29
 20
0.22
 30
0.0
 11
-0.29
 21
0.1799999999999999
 31
0.0
  0
ATTDEF
  5
6D
330
5F
100
AcDbEntity
  8
ASHADE
  6
Continuous
 62
     7
100
AcDbText
 10
0.0
 20
-0.24
 30
0.0
 40
0.01
  1
0
100
AcDbAttributeDefinition
280
     0
  3
Depth Map Size
  2
ZSIZE
 70
     1
280
     0
  0
ATTDEF
  5
6E
330
5F
100
AcDbEntity
  8
ASHADE
  6
Continuous
 62
     7
100
AcDbText
 10
0.0
 20
-0.3300000000000001
 30
0.0
 40
0.01
  1
0,0,0
100
AcDbAttributeDefinition
280
     0
  3
Look-from XYZ
  2
LFXYZ
 70
     1
280
     0
  0
ATTDEF
  5
6F
330
5F
100
AcDbEntity
  8
ASHADE
  6
Continuous
 62
     7
100
AcDbText
 10
0.0
 20
-0.315
 30
0.0
 40
0.01
  1
0.0
100
AcDbAttributeDefinition
280
     0
  3
Beam Distribution
  2
BEAMDI
 70
     1
280
     0
  0
ATTDEF
  5
70
330
5F
100
AcDbEntity
  8
ASHADE
  6
Continuous
 62
     7
100
AcDbText
 10
0.0
 20
-0.3
 30
0.0
 40
0.01
  1
0.0
100
AcDbAttributeDefinition
280
     0
  3
Cone Delta
  2
CONEDE
 70
     1
280
     0
  0
ATTDEF
  5
71
330
5F
100
AcDbEntity
  8
ASHADE
  6
Continuous
 62
     7
100
AcDbText
 10
0.0
 20
-0.2850000000000001
 30
0.0
 40
0.01
  1
10.0
100
AcDbAttributeDefinition
280
     0
  3
Cone Angle
  2
CONEAN
 70
     1
280
     0
  0
ATTDEF
  5
72
330
5F
100
AcDbEntity
  8
ASHADE
  6
Continuous
 62
     7
100
AcDbText
 10
0.0
 20
-0.27
 30
0.0
 40
0.01
  1
-1
100
AcDbAttributeDefinition
280
     0
  3
*not used*
  2
BIASMAX
 70
     1
280
     0
  0
ATTDEF
  5
73
330
5F
100
AcDbEntity
  8
ASHADE
  6
Continuous
 62
     7
100
AcDbText
 10
0.0
 20
-0.255
 30
0.0
 40
0.01
  1
-1
100
AcDbAttributeDefinition
280
     0
  3
*not used*
  2
BIASMIN
 70
     1
280
     0
  0
ATTDEF
  5
74
330
5F
100
AcDbEntity
  8
ASHADE
  6
Continuous
 62
     7
100
AcDbText
 10
0.0
 20
-0.225
 30
0.0
 40
0.01
  1
1,1,1
100
AcDbAttributeDefinition
280
     0
  3
Light Color (RGB)
  2
COLOR
 70
     1
280
     0
  0
ATTDEF
  5
75
330
5F
100
AcDbEntity
  8
ASHADE
  6
Continuous
 62
     7
100
AcDbText
 10
0.0
 20
-0.21
 30
0.0
 40
0.01
  1
1
100
AcDbAttributeDefinition
280
     0
  3
Light Intensity
  2
INTENSITY
 70
     1
280
     0
  0
ATTDEF
  5
76
330
5F
100
AcDbEntity
  8
ASHADE
  6
Continuous
 62
     7
100
AcDbText
 10
0.0
 20
-0.15
 30
0.0
 40
0.01
  1

100
AcDbAttributeDefinition
280
     0
  3

  2
GNAME
 70
     1
280
     0
  0
ATTDEF
  5
77
330
5F
100
AcDbEntity
  8
ASHADE
  6
Continuous
 62
     7
100
AcDbText
 10
0.0
 20
-0.195
 30
0.0
 40
0.01
  1

100
AcDbAttributeDefinition
280
     0
  3
Look-at Z
  2
LAZ
 70
     1
280
     0
  0
ATTDEF
  5
78
330
5F
100
AcDbEntity
  8
ASHADE
  6
Continuous
 62
     7
100
AcDbText
 10
0.0
 20
-0.18
 30
0.0
 40
0.01
  1

100
AcDbAttributeDefinition
280
     0
  3
Look-at Y
  2
LAY
 70
     1
280
     0
  0
ATTDEF
  5
79
330
5F
100
AcDbEntity
  8
ASHADE
  6
Continuous
 62
     7
100
AcDbText
 10
0.0
 20
-0.165
 30
0.0
 40
0.01
  1

100
AcDbAttributeDefinition
280
     0
  3
Look-at X
  2
LAX
 70
     1
280
     0
  0
LINE
  5
7A
330
5F
100
AcDbEntity
  8
ASHADE
  6
Continuous
 62
     7
100
AcDbLine
 10
0.25
 20
-0.3399999999999999
 30
0.0
 11
0.25
 21
-0.13
 31
0.0
  0
LINE
  5
7B
330
5F
100
AcDbEntity
  8
ASHADE
  6
Continuous
 62
     7
100
AcDbLine
 10
0.25
 20
-0.18
 30
0.0
 11
0.29
 21
-0.18
 31
0.0
  0
LINE
  5
7C
330
5F
100
AcDbEntity
  8
ASHADE
  6
Continuous
 62
     7
100
AcDbLine
 10
0.29
 20
-0.22
 30
0.0
 11
0.25
 21
-0.22
 31
0.0
  0
LINE
  5
7D
330
5F
100
AcDbEntity
  8
ASHADE
  6
Continuous
 62
     7
100
AcDbLine
 10
0.29
 20
-0.18
 30
0.0
 11
0.29
 21
-0.22
 31
0.0
  0
LINE
  5
7E
330
5F
100
AcDbEntity
  8
ASHADE
  6
Continuous
 62
     7
100
AcDbLine
 10
0.21
 20
0.26
 30
0.0
 11
0.301304347826087
 21
0.46
 31
0.0
  0
LINE
  5
7F
330
5F
100
AcDbEntity
  8
ASHADE
  6
Continuous
 62
     7
100
AcDbLine
 10
0.1045454545454545
 20
0.26
 30
0.0
 11
0.15
 21
0.46
 31
0.0
  0
LINE
  5
80
330
5F
100
AcDbEntity
  8
ASHADE
  6
Continuous
 62
     7
100
AcDbLine
 10
0.0
 20
0.26
 30
0.0
 11
0.0
 21
0.46
 31
0.0
  0
LINE
  5
81
330
5F
100
AcDbEntity
  8
ASHADE
  6
Continuous
 62
     7
100
AcDbLine
 10
0.25
 20
0.13
 30
0.0
 11
0.25
 21
0.26
 31
0.0
  0
LINE
  5
82
330
5F
100
AcDbEntity
  8
ASHADE
  6
Continuous
 62
     7
100
AcDbLine
 10
0.25
 20
0.22
 30
0.0
 11
0.29
 21
0.22
 31
0.0
  0
LINE
  5
83
330
5F
100
AcDbEntity
  8
ASHADE
  6
Continuous
 62
     7
100
AcDbLine
 10
0.29
 20
0.1799999999999999
 30
0.0
 11
0.25
 21
0.1799999999999999
 31
0.0
  0
LINE
  5
84
330
5F
100
AcDbEntity
  8
ASHADE
  6
Continuous
 62
     7
100
AcDbLine
 10
0.29
 20
0.22
 30
0.0
 11
0.29
 21
0.1799999999999999
 31
0.0
  0
ENDBLK
  5
86
330
5F
100
AcDbEntity
  8
0
100
AcDbBlockEnd
  0
BLOCK
  5
92
330
91
100
AcDbEntity
  8
ASHADE
100
AcDbBlockBegin
  2
AVE_RENDER
 70
     0
 10
0.0
 20
0.0
 30
0.0
  3
AVE_RENDER
  1
AVE_RENDER
  0
ENDBLK
  5
93
330
91
100
AcDbEntity
  8
0
100
AcDbBlockEnd
  0
BLOCK
  5
A0
330
9F
100
AcDbEntity
  8
ASHADE
100
AcDbBlockBegin
  2
AVE_GLOBAL
 70
     0
 10
0.0
 20
0.0
 30
0.0
  3
AVE_GLOBAL
  1
AVE_GLOBAL
  0
ENDBLK
  5
A1
330
9F
100
AcDbEntity
  8
0
100
AcDbBlockEnd
  0
ENDSEC
  0
SECTION
  2
ENTITIES
  0
INSERT
  5
94
330
1F
100
AcDbEntity
  8
ASHADE
 62
     1
100
AcDbBlockReference
  2
AVE_RENDER
 10
0.0
 20
0.0
 30
0.0
1001
AVE_RENDER
1002
{
1070
     7
1000
Pref
1070
    30
1070
    20
1070
     1
1070
     0
1000

1070
    10
1070
     1
1070
    10
1040
1.0
1070
     1
1040
0.3
1040
0.7
1040
0.0
1040
10.0
1010
-1.0
1020
-1.0
1030
-1.0
1040
0.3
1070
    49
1070
     0
1070
     0
1010
1.0
1020
1.0
1030
1.0
1040
45.0
1070
     1
1070
     0
1000
WCS
1040
0.0
1070
     0
1040
10.0
1002
}
  0
INSERT
  5
95
330
1F
100
AcDbEntity
  8
ASHADE
 62
     3
100
AcDbBlockReference
  2
AVE_RENDER
 10
0.0
 20
0.0
 30
0.0
1001
AVE_RENDER
1002
{
1070
     0
1000
Full Opt
1070
     0
1070
     1
1070
     1
1070
     1
1070
     0
1070
     0
1070
     0
1070
     1
1070
     1
1040
0.0001
1040
0.0001
1002
}
  0
INSERT
  5
96
330
1F
100
AcDbEntity
  8
ASHADE
 62
     4
100
AcDbBlockReference
  2
AVE_RENDER
 10
0.0
 20
0.0
 30
0.0
1001
AVE_RENDER
1002
{
1070
     0
1000
Quick Opt
1070
     0
1070
     1
1070
     1
1070
     1
1070
     0
1070
     0
1070
     1
1002
}
  0
INSERT
  5
97
330
1F
100
AcDbEntity
  8
ASHADE
 62
     5
100
AcDbBlockReference
  2
AVE_RENDER
 10
0.0
 20
0.0
 30
0.0
1001
AVE_RENDER
1002
{
1070
     1
1000
Scanl Opt
1070
     2
1070
     0
1070
     2
1040
2.0
1040
4.0
1070
     0
1070
     1
1070
     0
1040
0.03
1002
}
  0
INSERT
  5
98
330
1F
100
AcDbEntity
  8
ASHADE
 62
     6
100
AcDbBlockReference
  2
AVE_RENDER
 10
0.0
 20
0.0
 30
0.0
1001
AVE_RENDER
1002
{
1070
     2
1000
Raytr Opt
1070
     2
1070
     0
1070
     2
1040
2.0
1040
4.0
1070
     0
1070
     1
1070
     1
1040
0.03
1070
     3
1040
0.03
1002
}
  0
INSERT
  5
99
330
1F
100
AcDbEntity
  8
ASHADE
 62
     7
100
AcDbBlockReference
  2
AVE_RENDER
 10
0.0
 20
0.0
 30
0.0
1001
AVE_RENDER
1002
{
1070
     0
1000
RFile Opt
1070
     1
1070
   640
1070
   480
1070
 10000
1070
     1
1070
     8
1070
     8
1070
     0
1070
     0
1070
     0
1070
     0
1070
     0
1070
     0
1070
     0
1002
}
  0
INSERT
  5
9A
330
1F
100
AcDbEntity
  8
ASHADE
 62
     8
100
AcDbBlockReference
  2
AVE_RENDER
 10
0.0
 20
0.0
 30
0.0
1001
AVE_RENDER
1002
{
1070
     0
1000
Fog Opt
1070
     0
1070
     0
1040
0.0
1040
1.0
1040
0.0
1040
1.0
1010
0.5
1020
0.5
1030
0.5
1002
}
  0
INSERT
  5
9B
330
1F
100
AcDbEntity
  8
ASHADE
 62
     9
100
AcDbBlockReference
  2
AVE_RENDER
 10
0.0
 20
0.0
 30
0.0
1001
AVE_RENDER
1002
{
1070
     0
1000
BG Opt
1070
     0
1070
     1
1010
0.0
1020
0.0
1030
0.0
1010
1.0
1020
0.0
1030
0.0
1010
0.0
1020
1.0
1030
0.0
1010
0.0
1020
0.0
1030
1.0
1040
0.5
1040
0.33
1040
0.0
1000

1070
     1
1000

1070
     1
1070
     1
1040
1.0
1040
1.0
1040
0.0
1040
0.0
1070
     0
1002
}
  0
INSERT
  5
A2
330
1F
100
AcDbEntity
  8
ASHADE
 62
     1
100
AcDbBlockReference
  2
AVE_GLOBAL
 10
0.0
 20
0.0
 30
0.0
1001
AVE_MATERIAL
1002
{
1000
*GLOBAL*
1000
2
1000
Global finish.
1002
{
1002
}
1002
{
1070
    63
1002
{
1002
{
1010
-1.0
1020
-1.0
1030
-1.0
1002
}
1040
0.1000000014901161
1000

1040
0.0
1002
{
1002
}
1040
0.0
1002
{
1002
}
1040
0.0
1002
}
1002
{
1002
{
1010
-1.0
1020
-1.0
1030
-1.0
1002
}
1040
0.6999999880790711
1000

1040
0.0
1002
{
1002
}
1040
0.0
1002
{
1002
}
1040
0.0
1002
}
1002
{
1002
{
1010
-1.0
1020
-1.0
1030
-1.0
1002
}
1040
0.2000000029802322
1000

1040
0.0
1002
{
1002
}
1040
0.0
1002
{
1002
}
1040
0.0
1002
}
1002
{
1070
     0
1002
{
1070
     1
1002
{
1040
1.0
1040
1.0
1000

1040
0.0
1002
{
1002
}
1040
0.0
1002
{
1002
}
1040
0.0
1002
}
1002
}
1040
1.0
1040
0.0
1040
0.0
1002
}
1002
{
1040
1.0
1040
1.0
1000

1040
0.0
1002
{
1002
}
1040
0.0
1002
{
1002
}
1040
0.0
1002
}
1002
{
1040
0.5
1040
1.0
1000

1040
0.0
1002
{
1002
}
1040
0.0
1002
{
1002
}
1040
0.0
1002
}
1002
{
1070
     0
1040
0.0
1002
{
1002
}
1040
1.0
1002
{
1002
}
1040
0.0
1002
}
1002
{
1040
0.0
1002
{
1002
{
1010
0.0
1020
0.0
1030
0.0
1002
}
1040
1.0
1000

1040
0.0
1002
{
1002
}
1040
0.0
1002
{
1002
}
1040
0.0
1002
}
1002
}
1002
{
1002
{
1070
     1
1002
{
1040
0.0
1040
1.0
1000

1040
0.0
1002
{
1002
}
1040
0.0
1002
{
1002
}
1040
0.0
1002
}
1002
}
1040
0.0
1002
{
1002
}
1010
1.0
1020
0.0
1030
0.0
1010
0.0
1020
1.0
1030
0.0
1010
0.0
1020
0.0
1030
1.0
1070
     0
1002
}
1002
{
1002
{
1040
1.0
1040
1.0
1002
{
1070
     1
1002
{
1040
1.0
1040
1.0
1000

1040
0.0
1002
{
1002
}
1040
0.0
1002
{
1002
}
1040
0.0
1002
}
1002
}
1002
}
1070
     0
1040
0.0
1002
{
1002
}
1002
}
1002
{
1002
}
1002
}
1002
{
1071
        3
1070
     3
1070
     0
1002
{
1070
     2
1070
     0
1070
     0
1040
0.0
1002
}
1070
     0
1070
     2
1002
{
1002
}
1002
}
1002
{
1040
8030.0
1040
190.3000030517578
1040
0.3050000071525574
1040
228.0
1040
545.0
1040
14.0
1040
17.39999961853027
1040
0.4560000002384186
1002
}
1002
}
  0
MESH
  5
F9
330
1F
100
AcDbEntity
  8
OracDecor_panel_moldings
 62
    84
420
  1814811
160
             29888
310
C07400003E0300000C00000013000000020000003C00000006000000020000000000000000408F40000000C04A062EC000000000AB0427400000000000408F4000000000CA6E29C000000040178024400C000000130000000A0000003C00000006000000020000000000000000408F4000000080F75418C00000008035A22A
310
400000000000408F4000000000CA6E29C000000040178024400C00000013000000120000003C00000006000000020000000000000000408F40000000C04A062EC000000000AB0427400000000000408F4000000080F75418C00000008035A22A400C000000130000001A0000003C0000000600000002000000000000000040
310
8F40000000000000E1BE000000001C6E07400000000000408F400000002058161EC0000000009804D53F0C00000013000000220000003C00000006000000020000000000000000408F40000000000000E4BE000000000000D0BE0000000000408F400000002058161EC0000000009804D53F0C000000130000002A0000003C
310
00000006000000020000000000000000408F40000000000000E1BE000000001C6E07400000000000408F40000000000000E4BE000000000000D0BE0C00000013000000320000003C00000006000000020000000000000000408F40000000006096B3BF000000007A8E09400000000000408F40000000C0DC711FC000000000
310
F0DBDE3F0C000000130000003A0000003C00000006000000020000000000000000408F400000002058161EC0000000009804D53F0000000000408F40000000C0DC711FC000000000F0DBDE3F0C00000013000000420000003C00000006000000020000000000000000408F40000000000000E1BE000000001C6E0740000000
310
0000408F40000000006096B3BF000000007A8E09400C000000130000004A0000003C00000006000000020000000000000000408F40000000006216D2BF0000000042080B400000000000408F4000000080010020C000000000647EEA3F0C00000013000000520000003C00000006000000020000000000000000408F400000
310
00C0DC711FC000000000F0DBDE3F0000000000408F4000000080010020C000000000647EEA3F0C000000130000005A0000003C00000006000000020000000000000000408F40000000006096B3BF000000007A8E09400000000000408F40000000006216D2BF0000000042080B400C00000013000000620000003C00000006
310
000000020000000000000000408F4000000000D4CFEABF00000000B2010F400000000000408F4000000080010020C000000000AA47F53F0C000000130000006A0000003C00000006000000020000000000000000408F4000000080010020C000000000647EEA3F0000000000408F4000000080010020C000000000AA47F53F
310
0C00000013000000720000003C00000006000000020000000000000000408F40000000006216D2BF0000000042080B400000000000408F4000000000D4CFEABF00000000B2010F400C000000130000007A0000003C00000006000000020000000000000000408F4000000000707EF1BF000000008C2111400000000000408F
310
40000000C0068020C000000000881103400C00000013000000820000003C00000006000000020000000000000000408F4000000080010020C000000000AA47F53F0000000000408F40000000C0068020C000000000881103400C000000130000008A0000003C00000006000000020000000000000000408F4000000000D4CF
310
EABF00000000B2010F400000000000408F4000000000707EF1BF000000008C2111400C00000013000000920000003C00000006000000020000000000000000408F4000000080F75418C00000008035A22A400000000000408F4000000080BAD12FC000000000D04428400C000000130000009A0000003C0000000600000002
310
0000000000000000408F4000000080F75418C00000008035A22A400000000000408F40000000606D8F1CC0000000C0F3B12E400C00000013000000A20000003C00000006000000020000000000000000408F40000000C090C630C0000000C046C629400000000000408F40000000606D8F1CC0000000C0F3B12E400C000000
310
13000000AA0000003C00000006000000020000000000000000408F40000000C090C630C0000000C046C629400000000000408F4000000080BAD12FC000000000D04428400C00000013000000B20000003C00000006000000020000000000000000408F40000000606D8F1CC0000000C0F3B12E400000000000408F40000000
310
400A8531C000000000B5602B400C00000013000000BA0000003C00000006000000020000000000000000408F40000000606D8F1CC0000000C0F3B12E400000000000408F40000000804C1E1FC0000000203DEE30400C00000013000000C20000003C00000006000000020000000000000000408F4000000080F11132C00000
310
00004DDA2C400000000000408F40000000804C1E1FC0000000203DEE30400C00000013000000CA0000003C00000006000000020000000000000000408F4000000080F11132C0000000004DDA2C400000000000408F40000000400A8531C000000000B5602B400C00000013000000D20000003C000000060000000200000000
310
00000000408F40000000804C1E1FC0000000203DEE30400000000000408F400000006079A032C0000000404ABC2E400C00000013000000DA0000003C00000006000000020000000000000000408F40000000804C1E1FC0000000203DEE30400000000000408F4000000040B26B20C0000000209B2533400C00000013000000
310
E20000003C00000006000000020000000000000000408F40000000A0241A33C000000020856930400000000000408F4000000040B26B20C0000000209B2533400C00000013000000EA0000003C00000006000000020000000000000000408F40000000A0241A33C000000020856930400000000000408F400000006079A032
310
C0000000404ABC2E400C00000013000000F20000003C00000006000000020000000000000000408F4000000080F75418C0000000A0E4AE3A400000000000408F400000004024032EC0000000A0D17E3C400C00000013000000FA0000003C00000006000000020000000000000000408F4000000000CA6E29C000000080F4BF
310
3D400000000000408F4000000080F75418C0000000A0E4AE3A400C00000013000000020100003C00000006000000020000000000000000408F4000000000CA6E29C000000080F4BF3D400000000000408F400000004024032EC0000000A0D17E3C400C000000130000000A0100003C00000006000000020000000000000000
310
408F40000000A06D8F1CC00000008005A738400000000000408F400000000045C530C0000000E0471E3B400C00000013000000120100003C00000006000000020000000000000000408F4000000080F75418C0000000A0E4AE3A400000000000408F40000000A06D8F1CC00000008005A738400C000000130000001A010000
310
3C00000006000000020000000000000000408F4000000080C5CE2FC0000000E0DFDE3B400000000000408F4000000080F75418C0000000A0E4AE3A400C00000013000000220100003C00000006000000020000000000000000408F4000000080C5CE2FC0000000E0DFDE3B400000000000408F400000000045C530C0000000
310
E0471E3B400C000000130000002A0100003C00000006000000020000000000000000408F40000000E04C1E1FC000000060C21137400000000000408F4000000000DD0F32C000000080389639400C00000013000000320100003C00000006000000020000000000000000408F40000000A06D8F1CC00000008005A738400000
310
000000408F40000000E04C1E1FC000000060C21137400C000000130000003A0100003C00000006000000020000000000000000408F4000000000F28331C0000000C03E513A400000000000408F40000000A06D8F1CC00000008005A738400C00000013000000420100003C00000006000000020000000000000000408F4000
310
000000F28331C0000000C03E513A400000000000408F4000000000DD0F32C000000080389639400C000000130000004A0100003C00000006000000020000000000000000408F4000000040B26B20C00000006064DA34400000000000408F4000000020D31833C0000000A02E9A37400C00000013000000520100003C000000
310
06000000020000000000000000408F40000000E04C1E1FC000000060C21137400000000000408F4000000040B26B20C00000006064DA34400C000000130000005A0100003C00000006000000020000000000000000408F40000000E0B89E32C0000000006AA538400000000000408F40000000E04C1E1FC000000060C21137
310
400C00000013000000620100003C00000006000000020000000000000000408F40000000E0B89E32C0000000006AA538400000000000408F4000000020D31833C0000000A02E9A37400C000000130000006A0100003C00000006000000020000000000000000408F4000000040B26B20C00000006064DA3440000000000040
310
8F400000008033A333C00000000035AC35400C00000013000000720100003C00000006000000020000000000000000408F40000000C05C7133C0000000208E9036400000000000408F4000000040B26B20C00000006064DA34400C000000130000007A0100003C00000006000000020000000000000000408F40000000C05C
310
7133C0000000208E9036400000000000408F400000008033A333C00000000035AC35400C00000013000000820100003C00000006000000020000000000000000408F4000000040B26B20C0000000209B2533400000000000408F4000000080377233C0000000A04B7331400C000000130000008A0100003C00000006000000
310
020000000000000000408F4000000040B26B20C0000000209B2533400000000000408F400000004006A433C000000060A55932400C00000013000000920100003C00000006000000020000000000000000408F400000004006A433C000000060A55932400000000000408F4000000080377233C0000000A04B7331400C0000
310
00130000009A0100003C00000006000000020000000000000000408F4000000040B26B20C0000000209B2533400000000000408F4000000020A5C133C0000000C0107033400C00000013000000A20100003C00000006000000020000000000000000408F4000000040B26B20C0000000209B2533400000000000408F400000
310
0040B26B20C00000006064DA34400C00000013000000AA0100003C00000006000000020000000000000000408F4000000040B26B20C00000006064DA34400000000000408F40000000605CC133C000000060D89534400C00000013000000B20100003C00000006000000020000000000000000408F40000000605CC133C000
310
000060D89534400000000000408F4000000020A5C133C0000000C0107033400C00000013000000BA0100003C00000006000000020000000000000000408F400000000021B1F3BF00000000FF0913400000000000408F4000000000F63221C00000000022A208400C00000013000000C20100003C0000000600000002000000
310
0000000000408F40000000C0068020C000000000881103400000000000408F4000000000F63221C00000000022A208400C00000013000000CA0100003C00000006000000020000000000000000408F4000000000707EF1BF000000008C2111400000000000408F400000000021B1F3BF00000000FF0913400C000000130000
310
00D20100003C00000006000000020000000000000000408F400000008021B1F3BF00000080FFF514400000000000408F4000000000421522C000000000E5D80C400C00000013000000DA0100003C00000006000000020000000000000000408F4000000000F63221C00000000022A208400000000000408F40000000004215
310
22C000000000E5D80C400C00000013000000E20100003C00000006000000020000000000000000408F400000000021B1F3BF00000000FF0913400000000000408F400000008021B1F3BF00000080FFF514400C00000013000000EA0100003C00000006000000020000000000000000408F4000000080707EF1BF0000008072
310
DE16400000000000408F4000000040ED5423C000000000924810400C00000013000000F20100003C00000006000000020000000000000000408F4000000000421522C000000000E5D80C400000000000408F4000000040ED5423C000000000924810400C00000013000000FA0100003C000000060000000200000000000000
310
00408F400000008021B1F3BF00000080FFF514400000000000408F4000000080707EF1BF0000008072DE16400C00000013000000020200003C00000006000000020000000000000000408F4000000080F75418C00000008035A22A400000000000408F4000000080E3CE28C000000020AF1024400C000000130000000A0200
310
003C00000006000000020000000000000000408F40000000407C3D28C0000000400C4E23400000000000408F4000000080E3CE28C000000020AF1024400C00000013000000120200003C00000006000000020000000000000000408F4000000080F75418C00000008035A22A400000000000408F40000000407C3D28C00000
310
00400C4E23400C000000130000001A0200003C00000006000000020000000000000000408F4000000000CA6E29C000000040178024400000000000408F4000000080E3CE28C000000020AF1024400C00000013000000220200003C00000006000000020000000000000000408F4000000080F75418C00000008035A22A4000
310
00000000408F4000000080010028C0000000A01D9522400C000000130000002A0200003C00000006000000020000000000000000408F4000000080010028C000000000A29F14400000000000408F4000000080010028C0000000A01D9522400C00000013000000320200003C00000006000000020000000000000000408F40
310
0000008053BC10C000000020F8C824400000000000408F4000000080010028C000000000A29F14400C000000130000003A0200003C00000006000000020000000000000000408F4000000080F75418C00000008035A22A400000000000408F400000008053BC10C000000020F8C824400C00000013000000420200003C0000
310
0006000000020000000000000000408F40000000407C3D28C0000000400C4E23400000000000408F4000000080010028C0000000A01D9522400C000000130000004A0200003C00000006000000020000000000000000408F4000000080010028C000000000A29F14400000000000408F40000000C015C427C0000000009256
310
13400C00000013000000520200003C00000006000000020000000000000000408F4000000000EE0C10C0000000A0307624400000000000408F40000000C015C427C000000000925613400C000000130000005A0200003C00000006000000020000000000000000408F400000008053BC10C000000020F8C824400000000000
310
408F4000000000EE0C10C0000000A0307624400C00000013000000620200003C00000006000000020000000000000000408F40000000C015C427C000000000925613400000000000408F40000000C0752C27C00000000069A712400C000000130000006A0200003C00000006000000020000000000000000408F4000000080
310
844A0EC000000000A45424400000000000408F40000000C0752C27C00000000069A712400C00000013000000720200003C00000006000000020000000000000000408F4000000000EE0C10C0000000A0307624400000000000408F4000000080844A0EC000000000A45424400C000000130000007A0200003C000000060000
310
00020000000000000000408F40000000C0752C27C00000000069A712400000000000408F40000000C0EC5125C000000080100012400C00000013000000820200003C00000006000000020000000000000000408F4000000000BE9AEEBF000000A0601524400000000000408F40000000C0EC5125C000000080100012400C00
310
0000130000008A0200003C00000006000000020000000000000000408F4000000080844A0EC000000000A45424400000000000408F4000000000BE9AEEBF000000A0601524400C00000013000000920200003C00000006000000020000000000000000408F4000000040ED5423C000000000924810400000000000408F4000
310
0000C0EC5125C000000080100012400C000000130000009A0200003C00000006000000020000000000000000408F4000000040ED5423C000000000924810400000000000408F4000000000BE9AEEBF000000A0601524400C00000013000000A20200003C00000006000000020000000000000000408F4000000000AC9DC7BF
310
000000E0220123400000000000408F40000000007896B3BF00000000C1381B400C00000013000000AA0200003C00000006000000020000000000000000408F40000000000000E4BE00000040F0481C400000000000408F40000000007896B3BF00000000C1381B400C00000013000000B20200003C00000006000000020000
310
000000000000408F40000000000000E4BE00000080DD1522400000000000408F40000000000000E4BE00000040F0481C400C00000013000000BA0200003C00000006000000020000000000000000408F4000000000AC9DC7BF000000E0220123400000000000408F40000000000000E4BE00000080DD1522400C0000001300
310
0000C20200003C00000006000000020000000000000000408F4000000000EB2BE0BF00000000BFAC23400000000000408F40000000006A16D2BF00000040DD7B1A400C00000013000000CA0200003C00000006000000020000000000000000408F40000000007896B3BF00000000C1381B400000000000408F40000000006A
310
16D2BF00000040DD7B1A400C00000013000000D20200003C00000006000000020000000000000000408F4000000000AC9DC7BF000000E0220123400000000000408F4000000000EB2BE0BF00000000BFAC23400C00000013000000DA0200003C00000006000000020000000000000000408F4000000000BE9AEEBF000000A0
310
601524400000000000408F4000000000D5CFEABF00000040257F18400C00000013000000E20200003C00000006000000020000000000000000408F40000000006A16D2BF00000040DD7B1A400000000000408F4000000000D5CFEABF00000040257F18400C00000013000000EA0200003C0000000600000002000000000000
310
0000408F4000000000BE9AEEBF000000A0601524400000000000408F4000000000EB2BE0BF00000000BFAC23400C00000013000000F20200003C00000006000000020000000000000000408F4000000080707EF1BF0000008072DE16400000000000408F4000000000D5CFEABF00000040257F18400C00000013000000FA02
310
00003C00000006000000020000000000000000408F4000000080F75418C0000000A0E4AE3A400000000000408F4000000080E3CE28C000000060A8F73D400C00000013000000020300003C00000006000000020000000000000000408F4000000000CA6E29C000000080F4BF3D400000000000408F4000000080E3CE28C000
310
000060A8F73D400C000000130000000A0300003C00000006000000020000000000000000408F4000000080F75418C0000000A0E4AE3A400000000000408F40000000407C3D28C000000000FA583E400C00000013000000120300003C00000006000000020000000000000000408F4000000080E3CE28C000000060A8F73D40
310
0000000000408F40000000407C3D28C000000000FA583E400C000000130000001A0300003C00000006000000020000000000000000408F4000000080F75418C0000000A0E4AE3A400000000000408F4000000080010028C00000002071B53E400C00000013000000220300003C00000006000000020000000000000000408F
310
40000000407C3D28C000000000FA583E400000000000408F4000000080010028C00000002071B53E400C000000130000002A0300003C00000006000000020000000000000000408F4000000080F75418C0000000A0E4AE3A400000000000408F400000008053BC10C0000000C0839B3D400C00000013000000320300003C00
310
000006000000020000000000000000408F4000000080010028C0000000800B6C41400000000000408F400000008053BC10C0000000C0839B3D400C000000130000003A0300003C00000006000000020000000000000000408F4000000080010028C00000002071B53E400000000000408F4000000080010028C0000000800B
310
6C41400C00000013000000420300003C00000006000000020000000000000000408F400000008053BC10C0000000C0839B3D400000000000408F4000000000EE0C10C000000080E7C43D400C000000130000004A0300003C00000006000000020000000000000000408F40000000C015C427C0000000802D95414000000000
310
00408F4000000000EE0C10C000000080E7C43D400C00000013000000520300003C00000006000000020000000000000000408F4000000080010028C0000000800B6C41400000000000408F40000000C015C427C0000000802D9541400C000000130000005A0300003C00000006000000020000000000000000408F40000000
310
00EE0C10C000000080E7C43D400000000000408F4000000080844A0EC0000000A0ADD53D400C00000013000000620300003C00000006000000020000000000000000408F40000000C0752C27C0000000A012AB41400000000000408F4000000080844A0EC0000000A0ADD53D400C000000130000006A0300003C0000000600
310
0000020000000000000000408F40000000C015C427C0000000802D9541400000000000408F40000000C0752C27C0000000A012AB41400C00000013000000720300003C00000006000000020000000000000000408F4000000080844A0EC0000000A0ADD53D400000000000408F4000000000BF9AEEBF000000804FF53D400C
310
000000130000007A0300003C00000006000000020000000000000000408F40000000C0EC5125C0000000C0FDBF41400000000000408F4000000000BF9AEEBF000000804FF53D400C00000013000000820300003C00000006000000020000000000000000408F40000000C0752C27C0000000A012AB41400000000000408F40
310
000000C0EC5125C0000000C0FDBF41400C000000130000008A0300003C00000006000000020000000000000000408F40000000007096B3BF000000A0E79840400000000000408F4000000000F2C4D1BF000000E009443E400C00000013000000920300003C00000006000000020000000000000000408F40000000000000E4
310
BE000000E010F53E400000000000408F4000000000F2C4D1BF000000E009443E400C000000130000009A0300003C00000006000000020000000000000000408F40000000000000E4BE000000C0E17640400000000000408F40000000000000E4BE000000E010F53E400C00000013000000A20300003C000000060000000200
310
00000000000000408F40000000007096B3BF000000A0E79840400000000000408F40000000000000E4BE000000C0E17640400C00000013000000AA0300003C00000006000000020000000000000000408F4000000000BF9AEEBF000000804FF53D400000000000408F40000000006816D2BF0000002084B040400C00000013
310
000000B20300003C00000006000000020000000000000000408F4000000000BF9AEEBF000000804FF53D400000000000408F4000000000F2C4D1BF000000E009443E400C00000013000000BA0300003C00000006000000020000000000000000408F40000000007096B3BF000000A0E79840400000000000408F4000000000
310
6816D2BF0000002084B040400C00000013000000C20300003C00000006000000020000000000000000408F40000000C057161EC000000080F6D543400000000000408F40000000000000E3BE000000001E8942400C00000013000000CA0300003C00000006000000020000000000000000408F40000000000000E4BE000000
310
C0FFFF43400000000000408F40000000000000E3BE000000001E8942400C00000013000000D20300003C00000006000000020000000000000000408F40000000C057161EC000000080F6D543400000000000408F40000000000000E4BE000000C0FFFF43400C00000013000000DA0300003C00000006000000020000000000
310
000000408F4000000040DC711FC0000000C047C243400000000000408F40000000007096B3BF00000000186742400C00000013000000E20300003C00000006000000020000000000000000408F40000000000000E3BE000000001E8942400000000000408F40000000007096B3BF00000000186742400C00000013000000EA
310
0300003C00000006000000020000000000000000408F40000000C057161EC000000080F6D543400000000000408F4000000040DC711FC0000000C047C243400C00000013000000F20300003C00000006000000020000000000000000408F4000000040010020C000000020069643400000000000408F40000000006A16D2BF
310
000000807B4F42400C00000013000000FA0300003C00000006000000020000000000000000408F40000000007096B3BF00000000186742400000000000408F40000000006A16D2BF000000807B4F42400C00000013000000020400003C00000006000000020000000000000000408F4000000040DC711FC0000000C047C243
310
400000000000408F4000000040010020C000000020069643400C000000130000000A0400003C00000006000000020000000000000000408F4000000040010020C000000060C25543400000000000408F4000000000D2CFEABF000000A0E40F42400C00000013000000120400003C0000000600000002000000000000000040
310
8F40000000006A16D2BF000000807B4F42400000000000408F4000000000D2CFEABF000000A0E40F42400C000000130000001A0400003C00000006000000020000000000000000408F4000000040010020C000000020069643400000000000408F4000000040010020C000000060C25543400C00000013000000220400003C
310
00000006000000020000000000000000408F4000000080148020C000000040A9CE42400000000000408F40000000006F7EF1BF00000040CEDB41400C000000130000002A0400003C00000006000000020000000000000000408F4000000000D2CFEABF000000A0E40F42400000000000408F40000000006F7EF1BF00000040
310
CEDB41400C00000013000000320400003C00000006000000020000000000000000408F4000000040010020C000000060C25543400000000000408F4000000080148020C000000040A9CE42400C000000130000003A0400003C00000006000000020000000000000000408F4000000000F43221C0000000C09E754240000000
310
0000408F400000000020B1F3BF000000E0BF9E41400C00000013000000420400003C00000006000000020000000000000000408F40000000006F7EF1BF00000040CEDB41400000000000408F400000000020B1F3BF000000E0BF9E41400C000000130000004A0400003C00000006000000020000000000000000408F400000
310
0080148020C000000040A9CE42400000000000408F4000000000F43221C0000000C09E7542400C00000013000000520400003C00000006000000020000000000000000408F40000000004A1422C0000000C07B3242400000000000408F400000000020B1F3BF000000C03F6141400C000000130000005A0400003C00000006
310
000000020000000000000000408F400000000020B1F3BF000000E0BF9E41400000000000408F400000000020B1F3BF000000C03F6141400C00000013000000620400003C00000006000000020000000000000000408F4000000000F43221C0000000C09E7542400000000000408F40000000004A1422C0000000C07B324240
310
0C000000130000006A0400003C00000006000000020000000000000000408F40000000C0FB5323C0000000A0FBF641400000000000408F40000000006F7EF1BF00000080312441400C00000013000000720400003C00000006000000020000000000000000408F400000000020B1F3BF000000C03F6141400000000000408F
310
40000000006F7EF1BF00000080312441400C000000130000007A0400003C00000006000000020000000000000000408F40000000004A1422C0000000C07B3242400000000000408F40000000C0FB5323C0000000A0FBF641400C00000013000000820400003C00000006000000020000000000000000408F40000000C0EC51
310
25C0000000C0FDBF41400000000000408F4000000000D2CFEABF000000201BF040400C000000130000008A0400003C00000006000000020000000000000000408F40000000006F7EF1BF00000080312441400000000000408F4000000000D2CFEABF000000201BF040400C00000013000000920400003C0000000600000002
310
0000000000000000408F40000000C0EC5125C0000000C0FDBF41400000000000408F40000000C0FB5323C0000000A0FBF641400C000000130000009A0400003C00000006000000020000000000000000408F40000000006816D2BF0000002084B040400000000000408F4000000000D2CFEABF000000201BF040400C000000
310
13000000A20400003C00000006000000020000000000000000408FC00000004057161EC000000080F6D543400000000000408FC0000000000000E8BE000000C0FFFF43400C00000013000000AA0400003C00000006000000020000000000000000408F40000000C057161EC000000080F6D543400000000000408FC0000000
310
4057161EC000000080F6D543400C00000013000000B20400003C00000006000000020000000000000000408F40000000000000E4BE000000C0FFFF43400000000000408FC0000000000000E8BE000000C0FFFF43400C00000013000000BA0400003C00000006000000020000000000000000408FC00000004057161EC00000
310
0080F6D543400000000000408FC0000000C0DB711FC0000000C047C243400C00000013000000C20400003C00000006000000020000000000000000408F4000000040DC711FC0000000C047C243400000000000408FC0000000C0DB711FC0000000C047C243400C00000013000000CA0400003C000000060000000200000000
310
00000000408FC000000000010020C000000000069643400000000000408FC0000000C0DB711FC0000000C047C243400C00000013000000D20400003C00000006000000020000000000000000408F4000000040010020C000000020069643400000000000408FC000000000010020C000000000069643400C00000013000000
310
DA0400003C00000006000000020000000000000000408FC000000000010020C000000040C25543400000000000408FC000000000010020C000000000069643400C00000013000000E20400003C00000006000000020000000000000000408F4000000040010020C000000060C25543400000000000408FC000000000010020
310
C000000040C25543400C00000013000000EA0400003C00000006000000020000000000000000408FC000000000010020C000000040C25543400000000000408FC000000080148020C000000040A9CE42400C00000013000000F20400003C00000006000000020000000000000000408F4000000080148020C000000040A9CE
310
42400000000000408FC000000080148020C000000040A9CE42400C00000013000000FA0400003C00000006000000020000000000000000408FC0000000C0F33221C0000000C09E7542400000000000408FC000000080148020C000000040A9CE42400C00000013000000020500003C00000006000000020000000000000000
310
408FC0000000C0F33221C0000000C09E7542400000000000408F4000000000F43221C0000000C09E7542400C000000130000000A0500003C00000006000000020000000000000000408FC0000000C0F33221C0000000C09E7542400000000000408FC0000000004A1422C0000000C07B3242400C0000001300000012050000
310
3C00000006000000020000000000000000408F40000000004A1422C0000000C07B3242400000000000408FC0000000004A1422C0000000C07B3242400C000000130000001A0500003C00000006000000020000000000000000408FC000000080FB5323C0000000A0FBF641400000000000408FC0000000004A1422C0000000
310
C07B3242400C00000013000000220500003C00000006000000020000000000000000408F40000000C0FB5323C0000000A0FBF641400000000000408FC000000080FB5323C0000000A0FBF641400C000000130000002A0500003C00000006000000020000000000000000408FC0000000C0EC5125C0000000C0FDBF41400000
310
000000408FC000000080FB5323C0000000A0FBF641400C00000013000000320500003C00000006000000020000000000000000408F40000000C0EC5125C0000000C0FDBF41400000000000408FC0000000C0EC5125C0000000C0FDBF41400C000000130000003A0500003C00000006000000020000000000000000408FC000
310
0000C0752C27C0000000A012AB41400000000000408FC0000000C0EC5125C0000000C0FDBF41400C00000013000000420500003C00000006000000020000000000000000408F40000000C0752C27C0000000A012AB41400000000000408FC0000000C0752C27C0000000A012AB41400C000000130000004A0500003C000000
310
06000000020000000000000000408FC0000000C015C427C0000000802D9541400000000000408FC0000000C0752C27C0000000A012AB41400C00000013000000520500003C00000006000000020000000000000000408FC0000000C015C427C0000000802D9541400000000000408F40000000C015C427C0000000802D9541
310
400C000000130000005A0500003C00000006000000020000000000000000408FC000000080010028C0000000800B6C41400000000000408FC0000000C015C427C0000000802D9541400C00000013000000620500003C00000006000000020000000000000000408FC000000080010028C0000000800B6C4140000000000040
310
8F4000000080010028C0000000800B6C41400C000000130000006A0500003C00000006000000020000000000000000408FC000000080010028C0000000800B6C41400000000000408FC0000000C0010028C00000002071B53E400C00000013000000720500003C00000006000000020000000000000000408FC0000000C001
310
0028C00000002071B53E400000000000408F4000000080010028C00000002071B53E400C000000130000007A0500003C00000006000000020000000000000000408FC0000000C0010028C00000002071B53E400000000000408FC0000000807C3D28C000000000FA583E400C00000013000000820500003C00000006000000
310
020000000000000000408FC0000000807C3D28C000000000FA583E400000000000408F40000000407C3D28C000000000FA583E400C000000130000008A0500003C00000006000000020000000000000000408FC0000000807C3D28C000000000FA583E400000000000408FC0000000C0E3CE28C000000060A8F73D400C0000
310
0013000000920500003C00000006000000020000000000000000408F4000000080E3CE28C000000060A8F73D400000000000408FC0000000C0E3CE28C000000060A8F73D400C000000130000009A0500003C00000006000000020000000000000000408FC000000040CA6E29C000000080F4BF3D400000000000408FC00000
310
00C0E3CE28C000000060A8F73D400C00000013000000A20500003C00000006000000020000000000000000408FC000000040CA6E29C000000080F4BF3D400000000000408F4000000000CA6E29C000000080F4BF3D400C00000013000000AA0500003C00000006000000020000000000000000408FC000000040CA6E29C000
310
000080F4BF3D400000000000408FC00000004024032EC0000000A0D17E3C400C00000013000000B20500003C00000006000000020000000000000000408FC00000004024032EC0000000A0D17E3C400000000000408F400000004024032EC0000000A0D17E3C400C00000013000000BA0500003C0000000600000002000000
310
0000000000408FC000000080C5CE2FC0000000E0DFDE3B400000000000408FC00000006045C530C000000000481E3B400C00000013000000C20500003C00000006000000020000000000000000408FC00000006045C530C000000000481E3B400000000000408F400000000045C530C0000000E0471E3B400C000000130000
310
00CA0500003C00000006000000020000000000000000408FC000000080C5CE2FC0000000E0DFDE3B400000000000408F4000000080C5CE2FC0000000E0DFDE3B400C00000013000000D20500003C00000006000000020000000000000000408FC000000060F28331C0000000C03E513A400000000000408FC000000060DD0F
310
32C000000060389639400C00000013000000DA0500003C00000006000000020000000000000000408F4000000000DD0F32C000000080389639400000000000408FC000000060DD0F32C000000060389639400C00000013000000E20500003C00000006000000020000000000000000408F4000000000F28331C0000000C03E
310
513A400000000000408FC000000060F28331C0000000C03E513A400C00000013000000EA0500003C00000006000000020000000000000000408FC000000040B99E32C0000000E069A538400000000000408FC000000080D31833C0000000A02E9A37400C00000013000000F20500003C000000060000000200000000000000
310
00408F4000000020D31833C0000000A02E9A37400000000000408FC000000080D31833C0000000A02E9A37400C00000013000000FA0500003C00000006000000020000000000000000408FC000000040B99E32C0000000E069A538400000000000408F40000000E0B89E32C0000000006AA538400C00000013000000020600
310
003C00000006000000020000000000000000408FC0000000205D7133C0000000208E9036400000000000408FC0000000E033A333C00000000035AC35400C000000130000000A0600003C00000006000000020000000000000000408F400000008033A333C00000000035AC35400000000000408FC0000000E033A333C00000
310
000035AC35400C00000013000000120600003C00000006000000020000000000000000408FC0000000205D7133C0000000208E9036400000000000408F40000000C05C7133C0000000208E9036400C000000130000001A0600003C00000006000000020000000000000000408FC0000000C05CC133C000000060D895344000
310
00000000408FC000000080A5C133C0000000C0107033400C00000013000000220600003C00000006000000020000000000000000408FC000000080A5C133C0000000C0107033400000000000408F4000000020A5C133C0000000C0107033400C000000130000002A0600003C00000006000000020000000000000000408FC0
310
000000C05CC133C000000060D89534400000000000408F40000000605CC133C000000060D89534400C00000013000000320600003C00000006000000020000000000000000408FC0000000E0377233C0000000A04B7331400000000000408FC0000000A006A433C000000060A55932400C000000130000003A0600003C0000
310
0006000000020000000000000000408FC0000000E0377233C0000000A04B7331400000000000408F4000000080377233C0000000A04B7331400C00000013000000420600003C00000006000000020000000000000000408F400000004006A433C000000060A55932400000000000408FC0000000A006A433C000000060A559
310
32400C000000130000004A0600003C00000006000000020000000000000000408FC0000000C079A032C0000000004ABC2E400000000000408FC000000000251A33C000000020856930400C00000013000000520600003C00000006000000020000000000000000408FC0000000C079A032C0000000004ABC2E400000000000
310
408F400000006079A032C0000000404ABC2E400C000000130000005A0600003C00000006000000020000000000000000408F40000000A0241A33C000000020856930400000000000408FC000000000251A33C000000020856930400C00000013000000620600003C00000006000000020000000000000000408FC0000000E0
310
F11132C0000000404DDA2C400000000000408FC0000000A00A8531C0000000C0B4602B400C000000130000006A0600003C00000006000000020000000000000000408F40000000400A8531C000000000B5602B400000000000408FC0000000A00A8531C0000000C0B4602B400C00000013000000720600003C000000060000
310
00020000000000000000408FC0000000E0F11132C0000000404DDA2C400000000000408F4000000080F11132C0000000004DDA2C400C000000130000007A0600003C00000006000000020000000000000000408FC00000002091C630C00000000047C629400000000000408FC000000080BAD12FC000000000D04428400C00
310
000013000000820600003C00000006000000020000000000000000408F4000000080BAD12FC000000000D04428400000000000408FC000000080BAD12FC000000000D04428400C000000130000008A0600003C00000006000000020000000000000000408FC00000002091C630C00000000047C629400000000000408F4000
310
0000C090C630C0000000C046C629400C00000013000000920600003C00000006000000020000000000000000408FC000000000CA6E29C000000040178024400000000000408FC0000000C04A062EC000000000AB0427400C000000130000009A0600003C00000006000000020000000000000000408FC000000000CA6E29C0
310
00000040178024400000000000408F4000000000CA6E29C000000040178024400C00000013000000A20600003C00000006000000020000000000000000408F40000000C04A062EC000000000AB0427400000000000408FC0000000C04A062EC000000000AB0427400C00000013000000AA0600003C00000006000000020000
310
000000000000408FC000000000CA6E29C000000040178024400000000000408FC000000080E3CE28C000000020AF1024400C00000013000000B20600003C00000006000000020000000000000000408FC000000080E3CE28C000000020AF1024400000000000408F4000000080E3CE28C000000020AF1024400C0000001300
310
0000BA0600003C00000006000000020000000000000000408FC0000000407C3D28C0000000400C4E23400000000000408FC000000080E3CE28C000000020AF1024400C00000013000000C20600003C00000006000000020000000000000000408FC0000000407C3D28C0000000400C4E23400000000000408F40000000407C
310
3D28C0000000400C4E23400C00000013000000CA0600003C00000006000000020000000000000000408FC000000080010028C0000000A01D9522400000000000408FC0000000407C3D28C0000000400C4E23400C00000013000000D20600003C00000006000000020000000000000000408FC000000080010028C0000000A0
310
1D9522400000000000408F4000000080010028C0000000A01D9522400C00000013000000DA0600003C00000006000000020000000000000000408FC0000000C0010028C000000000A29F14400000000000408FC000000080010028C0000000A01D9522400C00000013000000E20600003C0000000600000002000000000000
310
0000408FC0000000C0010028C000000000A29F14400000000000408F4000000080010028C000000000A29F14400C00000013000000EA0600003C00000006000000020000000000000000408FC0000000C0010028C000000000A29F14400000000000408FC0000000E015C427C000000000925613400C00000013000000F206
310
00003C00000006000000020000000000000000408F40000000C015C427C000000000925613400000000000408FC0000000E015C427C000000000925613400C00000013000000FA0600003C00000006000000020000000000000000408FC0000000E0752C27C00000000069A712400000000000408FC0000000E015C427C000
310
000000925613400C00000013000000020700003C00000006000000020000000000000000408FC0000000E0752C27C00000000069A712400000000000408F40000000C0752C27C00000000069A712400C000000130000000A0700003C00000006000000020000000000000000408FC0000000C0EC5125C00000008010001240
310
0000000000408FC0000000E0752C27C00000000069A712400C00000013000000120700003C00000006000000020000000000000000408FC0000000C0EC5125C000000080100012400000000000408F40000000C0EC5125C000000080100012400C000000130000001A0700003C00000006000000020000000000000000408F
310
C0000000C0EC5125C000000080100012400000000000408FC000000040ED5423C000000000924810400C00000013000000220700003C00000006000000020000000000000000408FC000000040ED5423C000000000924810400000000000408F4000000040ED5423C000000000924810400C000000130000002A0700003C00
310
000006000000020000000000000000408FC000000040ED5423C000000000924810400000000000408FC000000020421522C000000000E4D80C400C00000013000000320700003C00000006000000020000000000000000408F4000000000421522C000000000E5D80C400000000000408FC000000020421522C000000000E4
310
D80C400C000000130000003A0700003C00000006000000020000000000000000408FC000000020F63221C00000000021A208400000000000408FC000000020421522C000000000E4D80C400C00000013000000420700003C00000006000000020000000000000000408FC000000020F63221C00000000021A2084000000000
310
00408F4000000000F63221C00000000022A208400C000000130000004A0700003C00000006000000020000000000000000408FC0000000E0068020C000000000871103400000000000408FC000000020F63221C00000000021A208400C00000013000000520700003C00000006000000020000000000000000408FC0000000
310
E0068020C000000000871103400000000000408F40000000C0068020C000000000881103400C000000130000005A0700003C00000006000000020000000000000000408FC0000000E0068020C000000000871103400000000000408FC000000040010020C000000000A847F53F0C00000013000000620700003C0000000600
310
0000020000000000000000408F4000000080010020C000000000AA47F53F0000000000408FC000000040010020C000000000A847F53F0C000000130000006A0700003C00000006000000020000000000000000408FC000000040010020C000000000607EEA3F0000000000408FC000000040010020C000000000A847F53F0C
310
00000013000000720700003C00000006000000020000000000000000408FC000000040010020C000000000607EEA3F0000000000408F4000000080010020C000000000647EEA3F0C000000130000007A0700003C00000006000000020000000000000000408FC000000040010020C000000000607EEA3F0000000000408FC0
310
00000040DC711FC000000000E8DBDE3F0C00000013000000820700003C00000006000000020000000000000000408FC000000040DC711FC000000000E8DBDE3F0000000000408F40000000C0DC711FC000000000F0DBDE3F0C000000130000008A0700003C00000006000000020000000000000000408FC0000000C057161E
310
C0000000009004D53F0000000000408FC000000040DC711FC000000000E8DBDE3F0C00000013000000920700003C00000006000000020000000000000000408FC0000000C057161EC0000000009004D53F0000000000408F400000002058161EC0000000009804D53F0C000000130000009A0700003C000000060000000200
310
00000000000000408FC0000000C057161EC0000000009004D53F0000000000408FC0000000000000E5BE000000000000D8BE0C00000013000000A20700003C00000006000000020000000000000000408F40000000000000E4BE000000000000D0BE0000000000408FC0000000000000E5BE000000000000D8BE0C00000013
310
000000AA0700003C00000006000000020000000000000000408FC0000000000000E5BE000000000000D8BE0000000000408FC0000000000000E5BE000000001B6E07400C00000013000000B20700003C00000006000000020000000000000000408F40000000000000E1BE000000001C6E07400000000000408FC000000000
310
0000E5BE000000001B6E07400C00000013000000BA0700003C00000006000000020000000000000000408FC0000000008096B3BF00000000798E09400000000000408FC0000000000000E5BE000000001B6E07400C00000013000000C20700003C00000006000000020000000000000000408FC0000000008096B3BF000000
310
00798E09400000000000408F40000000006096B3BF000000007A8E09400C00000013000000CA0700003C00000006000000020000000000000000408FC0000000006C16D2BF0000000041080B400000000000408FC0000000008096B3BF00000000798E09400C00000013000000D20700003C00000006000000020000000000
310
000000408FC0000000006C16D2BF0000000041080B400000000000408F40000000006216D2BF0000000042080B400C00000013000000DA0700003C00000006000000020000000000000000408FC0000000006C16D2BF0000000041080B400000000000408FC000000000D9CFEABF00000000B1010F400C00000013000000E2
310
0700003C00000006000000020000000000000000408F4000000000D4CFEABF00000000B2010F400000000000408FC000000000D9CFEABF00000000B1010F400C00000013000000EA0700003C00000006000000020000000000000000408FC000000080737EF1BF000000008C2111400000000000408FC000000000D9CFEABF
310
00000000B1010F400C00000013000000F20700003C00000006000000020000000000000000408FC000000080737EF1BF000000008C2111400000000000408F4000000000707EF1BF000000008C2111400C00000013000000FA0700003C00000006000000020000000000000000408FC000000080737EF1BF000000008C2111
310
400000000000408FC00000008024B1F3BF00000000FF0913400C00000013000000020800003C00000006000000020000000000000000408F400000000021B1F3BF00000000FF0913400000000000408FC00000008024B1F3BF00000000FF0913400C000000130000000A0800003C0000000600000002000000000000000040
310
8FC00000008024B1F3BF00000080FFF514400000000000408FC00000008024B1F3BF00000000FF0913400C00000013000000120800003C00000006000000020000000000000000408F400000008021B1F3BF00000080FFF514400000000000408FC00000008024B1F3BF00000080FFF514400C000000130000001A0800003C
310
00000006000000020000000000000000408FC00000008024B1F3BF00000080FFF514400000000000408FC000000080737EF1BF0000008072DE16400C00000013000000220800003C00000006000000020000000000000000408F4000000080707EF1BF0000008072DE16400000000000408FC000000080737EF1BF00000080
310
72DE16400C000000130000002A0800003C00000006000000020000000000000000408FC000000000D9CFEABF00000040257F18400000000000408FC000000080737EF1BF0000008072DE16400C00000013000000320800003C00000006000000020000000000000000408FC000000000D9CFEABF00000040257F1840000000
310
0000408F4000000000D5CFEABF00000040257F18400C000000130000003A0800003C00000006000000020000000000000000408FC0000000007416D2BF00000040DD7B1A400000000000408FC000000000D9CFEABF00000040257F18400C00000013000000420800003C00000006000000020000000000000000408FC00000
310
00007416D2BF00000040DD7B1A400000000000408F40000000006A16D2BF00000040DD7B1A400C000000130000004A0800003C00000006000000020000000000000000408FC0000000007416D2BF00000040DD7B1A400000000000408FC0000000009896B3BF00000000C1381B400C00000013000000520800003C00000006
310
000000020000000000000000408FC0000000009896B3BF00000000C1381B400000000000408F40000000007896B3BF00000000C1381B400C000000130000005A0800003C00000006000000020000000000000000408FC0000000009896B3BF00000000C1381B400000000000408FC0000000000000E8BE00000040F0481C40
310
0C00000013000000620800003C00000006000000020000000000000000408FC0000000000000E8BE00000040F0481C400000000000408F40000000000000E4BE00000040F0481C400C000000130000006A0800003C00000006000000020000000000000000408FC0000000000000E8BE00000040F0481C400000000000408F
310
C0000000000000E8BE00000080DD1522400C00000013000000720800003C00000006000000020000000000000000408FC0000000000000E8BE00000080DD1522400000000000408F40000000000000E4BE00000080DD1522400C000000130000007A0800003C00000006000000020000000000000000408FC0000000000000
310
E8BE00000080DD1522400000000000408FC000000000C09DC7BF000000E0220123400C00000013000000820800003C00000006000000020000000000000000408F4000000000AC9DC7BF000000E0220123400000000000408FC000000000C09DC7BF000000E0220123400C000000130000008A0800003C0000000600000002
310
0000000000000000408FC000000000F02BE0BF00000000BFAC23400000000000408FC000000000C09DC7BF000000E0220123400C00000013000000920800003C00000006000000020000000000000000408F4000000000EB2BE0BF00000000BFAC23400000000000408FC000000000F02BE0BF00000000BFAC23400C000000
310
130000009A0800003C00000006000000020000000000000000408FC000000000C49AEEBF000000A0601524400000000000408FC000000000F02BE0BF00000000BFAC23400C00000013000000A20800003C00000006000000020000000000000000408FC000000000C49AEEBF000000A0601524400000000000408F40000000
310
00BE9AEEBF000000A0601524400C00000013000000AA0800003C00000006000000020000000000000000408FC000000000854A0EC000000000A45424400000000000408FC000000000C49AEEBF000000A0601524400C00000013000000B20800003C00000006000000020000000000000000408FC000000000854A0EC00000
310
0000A45424400000000000408F4000000080844A0EC000000000A45424400C00000013000000BA0800003C00000006000000020000000000000000408FC000000000854A0EC000000000A45424400000000000408FC000000000EE0C10C0000000A0307624400C00000013000000C20800003C000000060000000200000000
310
00000000408F4000000000EE0C10C0000000A0307624400000000000408FC000000000EE0C10C0000000A0307624400C00000013000000CA0800003C00000006000000020000000000000000408FC00000008053BC10C000000020F8C824400000000000408FC000000000EE0C10C0000000A0307624400C00000013000000
310
D20800003C00000006000000020000000000000000408FC00000008053BC10C000000020F8C824400000000000408F400000008053BC10C000000020F8C824400C00000013000000DA0800003C00000006000000020000000000000000408FC00000008053BC10C000000020F8C824400000000000408FC000000000F75418
310
C00000008035A22A400C00000013000000E20800003C00000006000000020000000000000000408F4000000080F75418C00000008035A22A400000000000408FC000000000F75418C00000008035A22A400C00000013000000EA0800003C00000006000000020000000000000000408FC000000000F75418C00000008035A2
310
2A400000000000408FC0000000E06C8F1CC000000020F4B12E400C00000013000000F20800003C00000006000000020000000000000000408F40000000606D8F1CC0000000C0F3B12E400000000000408FC0000000E06C8F1CC000000020F4B12E400C00000013000000FA0800003C00000006000000020000000000000000
310
408FC0000000004C1E1FC0000000203DEE30400000000000408FC0000000E06C8F1CC000000020F4B12E400C00000013000000020900003C00000006000000020000000000000000408F40000000804C1E1FC0000000203DEE30400000000000408FC0000000004C1E1FC0000000203DEE30400C000000130000000A090000
310
3C00000006000000020000000000000000408FC0000000004C1E1FC0000000203DEE30400000000000408FC000000040B26B20C0000000209B2533400C00000013000000120900003C00000006000000020000000000000000408F4000000040B26B20C0000000209B2533400000000000408FC000000040B26B20C0000000
310
209B2533400C000000130000001A0900003C00000006000000020000000000000000408FC000000040B26B20C00000006064DA34400000000000408FC000000040B26B20C0000000209B2533400C00000013000000220900003C00000006000000020000000000000000408F4000000040B26B20C00000006064DA34400000
310
000000408FC000000040B26B20C00000006064DA34400C000000130000002A0900003C00000006000000020000000000000000408FC000000040B26B20C00000006064DA34400000000000408FC0000000804C1E1FC000000060C21137400C00000013000000320900003C00000006000000020000000000000000408F4000
310
0000E04C1E1FC000000060C21137400000000000408FC0000000804C1E1FC000000060C21137400C000000130000003A0900003C00000006000000020000000000000000408FC0000000804C1E1FC000000060C21137400000000000408FC0000000406D8F1CC00000008005A738400C00000013000000420900003C000000
310
06000000020000000000000000408F40000000A06D8F1CC00000008005A738400000000000408FC0000000406D8F1CC00000008005A738400C000000130000004A0900003C00000006000000020000000000000000408FC000000020F75418C0000000A0E4AE3A400000000000408FC0000000406D8F1CC00000008005A738
310
400C00000013000000520900003C00000006000000020000000000000000408F4000000080F75418C0000000A0E4AE3A400000000000408FC000000020F75418C0000000A0E4AE3A400C000000130000005A0900003C00000006000000020000000000000000408FC00000004053BC10C0000000C0839B3D40000000000040
310
8FC000000020F75418C0000000A0E4AE3A400C00000013000000620900003C00000006000000020000000000000000408FC00000004053BC10C0000000C0839B3D400000000000408F400000008053BC10C0000000C0839B3D400C000000130000006A0900003C00000006000000020000000000000000408FC00000004053
310
BC10C0000000C0839B3D400000000000408FC000000000EE0C10C000000080E7C43D400C00000013000000720900003C00000006000000020000000000000000408F4000000000EE0C10C000000080E7C43D400000000000408FC000000000EE0C10C000000080E7C43D400C000000130000007A0900003C00000006000000
310
020000000000000000408FC000000080854A0EC0000000A0ADD53D400000000000408FC000000000EE0C10C000000080E7C43D400C00000013000000820900003C00000006000000020000000000000000408FC000000080854A0EC0000000A0ADD53D400000000000408F4000000080844A0EC0000000A0ADD53D400C0000
310
00130000008A0900003C00000006000000020000000000000000408FC000000080854A0EC0000000A0ADD53D400000000000408FC000000000C49AEEBF000000804FF53D400C00000013000000920900003C00000006000000020000000000000000408F4000000000BF9AEEBF000000804FF53D400000000000408FC00000
310
0000C49AEEBF000000804FF53D400C000000130000009A0900003C00000006000000020000000000000000408FC000000000FAC4D1BF000000E009443E400000000000408FC000000000C49AEEBF000000804FF53D400C00000013000000A20900003C00000006000000020000000000000000408FC000000000FAC4D1BF00
310
0000E009443E400000000000408F4000000000F2C4D1BF000000E009443E400C00000013000000AA0900003C00000006000000020000000000000000408FC000000000FAC4D1BF000000E009443E400000000000408FC0000000000000E8BE000000E010F53E400C00000013000000B20900003C0000000600000002000000
310
0000000000408FC0000000000000E8BE000000E010F53E400000000000408F40000000000000E4BE000000E010F53E400C00000013000000BA0900003C00000006000000020000000000000000408FC0000000000000E8BE000000E010F53E400000000000408FC0000000000000E5BE000000C0E17640400C000000130000
310
00C20900003C00000006000000020000000000000000408F40000000000000E4BE000000C0E17640400000000000408FC0000000000000E5BE000000C0E17640400C00000013000000CA0900003C00000006000000020000000000000000408FC0000000000000E5BE000000C0E17640400000000000408FC0000000008096
310
B3BF000000A0E79840400C00000013000000D20900003C00000006000000020000000000000000408F40000000007096B3BF000000A0E79840400000000000408FC0000000008096B3BF000000A0E79840400C00000013000000DA0900003C00000006000000020000000000000000408FC0000000006E16D2BF0000002084
310
B040400000000000408FC0000000008096B3BF000000A0E79840400C00000013000000E20900003C00000006000000020000000000000000408F40000000006816D2BF0000002084B040400000000000408FC0000000006E16D2BF0000002084B040400C00000013000000EA0900003C000000060000000200000000000000
310
00408FC000000000D6CFEABF000000201BF040400000000000408FC0000000006E16D2BF0000002084B040400C00000013000000F20900003C00000006000000020000000000000000408FC000000000D6CFEABF000000201BF040400000000000408F4000000000D2CFEABF000000201BF040400C00000013000000FA0900
310
003C00000006000000020000000000000000408FC000000000D6CFEABF000000201BF040400000000000408FC000000000727EF1BF00000080312441400C00000013000000020A00003C00000006000000020000000000000000408F40000000006F7EF1BF00000080312441400000000000408FC000000000727EF1BF0000
310
0080312441400C000000130000000A0A00003C00000006000000020000000000000000408FC00000000023B1F3BF000000C03F6141400000000000408FC000000000727EF1BF00000080312441400C00000013000000120A00003C00000006000000020000000000000000408FC00000000023B1F3BF000000C03F61414000
310
00000000408F400000000020B1F3BF000000C03F6141400C000000130000001A0A00003C00000006000000020000000000000000408FC00000000023B1F3BF000000C03F6141400000000000408FC00000008022B1F3BF000000E0BF9E41400C00000013000000220A00003C00000006000000020000000000000000408F40
310
0000000020B1F3BF000000E0BF9E41400000000000408FC00000008022B1F3BF000000E0BF9E41400C000000130000002A0A00003C00000006000000020000000000000000408FC00000008022B1F3BF000000E0BF9E41400000000000408FC000000080717EF1BF00000040CEDB41400C00000013000000320A00003C0000
310
0006000000020000000000000000408F40000000006F7EF1BF00000040CEDB41400000000000408FC000000080717EF1BF00000040CEDB41400C000000130000003A0A00003C00000006000000020000000000000000408FC000000000D5CFEABF00000080E40F42400000000000408FC000000080717EF1BF00000040CEDB
310
41400C00000013000000420A00003C00000006000000020000000000000000408FC000000000D5CFEABF00000080E40F42400000000000408F4000000000D2CFEABF000000A0E40F42400C000000130000004A0A00003C00000006000000020000000000000000408FC000000000D5CFEABF00000080E40F42400000000000
310
408FC0000000007416D2BF000000807B4F42400C00000013000000520A00003C00000006000000020000000000000000408F40000000006A16D2BF000000807B4F42400000000000408FC0000000007416D2BF000000807B4F42400C000000130000005A0A00003C00000006000000020000000000000000408FC000000000
310
9096B3BF00000000186742400000000000408FC0000000007416D2BF000000807B4F42400C00000013000000620A00003C00000006000000020000000000000000408FC0000000009096B3BF00000000186742400000000000408F40000000007096B3BF00000000186742400C000000130000006A0A00003C000000060000
310
00020000000000000000408FC0000000009096B3BF00000000186742400000000000408FC0000000000000E7BE000000E01D8942400C00000013000000720A00003C00000006000000020000000000000000408F40000000000000E3BE000000001E8942400000000000408FC0000000000000E7BE000000E01D8942400C00
310
0000130000007A0A00003C00000006000000020000000000000000408FC0000000000000E8BE000000C0FFFF43400000000000408FC0000000000000E7BE000000E01D8942400C00000013000000820A00003C00000006000000020000000000000000408F40000000C04A062EC000000000AB0427400000000000408F4000
310
000080BAD12FC000000000D04428400C000000130000008A0A00003C00000006000000020000000000000000408F40000000C090C630C0000000C046C629400000000000408F40000000400A8531C000000000B5602B400C00000013000000920A00003C00000006000000020000000000000000408F4000000080F11132C0
310
000000004DDA2C400000000000408F400000006079A032C0000000404ABC2E400C000000130000009A0A00003C00000006000000020000000000000000408F40000000A0241A33C000000020856930400000000000408F4000000080377233C0000000A04B7331400C00000013000000A20A00003C00000006000000020000
310
000000000000408F4000000080C5CE2FC0000000E0DFDE3B400000000000408F400000004024032EC0000000A0D17E3C400C00000013000000AA0A00003C00000006000000020000000000000000408F4000000000F28331C0000000C03E513A400000000000408F400000000045C530C0000000E0471E3B400C0000001300
310
0000B20A00003C00000006000000020000000000000000408F40000000E0B89E32C0000000006AA538400000000000408F4000000000DD0F32C000000080389639400C00000013000000BA0A00003C00000006000000020000000000000000408F40000000C05C7133C0000000208E9036400000000000408F4000000020D3
310
1833C0000000A02E9A37400C00000013000000C20A00003C00000006000000020000000000000000408F40000000605CC133C000000060D89534400000000000408F400000008033A333C00000000035AC35400C00000013000000CA0A00003C00000006000000020000000000000000408F400000004006A433C000000060
310
A55932400000000000408F4000000020A5C133C0000000C0107033400C00000013000000D20A00003C00000006000000020000000000000000408FC000000080C5CE2FC0000000E0DFDE3B400000000000408FC00000004024032EC0000000A0D17E3C400C00000013000000DA0A00003C0000000600000002000000000000
310
0000408FC00000006045C530C000000000481E3B400000000000408FC000000060F28331C0000000C03E513A400C00000013000000E20A00003C00000006000000020000000000000000408FC000000040B99E32C0000000E069A538400000000000408FC000000060DD0F32C000000060389639400C00000013000000EA0A
310
00003C00000006000000020000000000000000408FC0000000205D7133C0000000208E9036400000000000408FC000000080D31833C0000000A02E9A37400C00000013000000F20A00003C00000006000000020000000000000000408FC0000000C05CC133C000000060D89534400000000000408FC0000000E033A333C000
310
00000035AC35400C00000013000000FA0A00003C00000006000000020000000000000000408FC000000080A5C133C0000000C0107033400000000000408FC0000000A006A433C000000060A55932400C00000013000000020B00003C00000006000000020000000000000000408FC0000000E0377233C0000000A04B733140
310
0000000000408FC000000000251A33C000000020856930400C000000130000000A0B00003C00000006000000020000000000000000408FC0000000E0F11132C0000000404DDA2C400000000000408FC0000000C079A032C0000000004ABC2E400C00000013000000120B00003C00000006000000020000000000000000408F
310
C00000002091C630C00000000047C629400000000000408FC0000000A00A8531C0000000C0B4602B400C000000130000001A0B00003C00000006000000020000000000000000408FC0000000C04A062EC000000000AB0427400000000000408FC000000080BAD12FC000000000D04428400C00000013000000220B00003C00
310
000006000000020000000000000000408FC0000000C04A062EC000000000AB0427400000000000408FC000000000F75418C00000008035A22A400C000000130000002A0B00003C00000006000000020000000000000000408FC000000000CA6E29C000000040178024400000000000408FC000000000F75418C00000008035
310
A22A400C00000013000000320B00003C00000006000000020000000000000000408FC0000000C057161EC0000000009004D53F0000000000408FC0000000000000E5BE000000001B6E07400C000000130000003A0B00003C00000006000000020000000000000000408FC0000000008096B3BF00000000798E094000000000
310
00408FC000000040DC711FC000000000E8DBDE3F0C00000013000000420B00003C00000006000000020000000000000000408FC000000040010020C000000000607EEA3F0000000000408FC0000000006C16D2BF0000000041080B400C000000130000004A0B00003C00000006000000020000000000000000408FC0000000
310
40010020C000000000A847F53F0000000000408FC000000000D9CFEABF00000000B1010F400C00000013000000520B00003C00000006000000020000000000000000408FC0000000E0068020C000000000871103400000000000408FC000000080737EF1BF000000008C2111400C000000130000005A0B00003C0000000600
310
0000020000000000000000408FC000000080BAD12FC000000000D04428400000000000408FC000000000F75418C00000008035A22A400C00000013000000620B00003C00000006000000020000000000000000408FC00000002091C630C00000000047C629400000000000408FC0000000E06C8F1CC000000020F4B12E400C
310
000000130000006A0B00003C00000006000000020000000000000000408FC0000000A00A8531C0000000C0B4602B400000000000408FC0000000E06C8F1CC000000020F4B12E400C00000013000000720B00003C00000006000000020000000000000000408FC0000000E0F11132C0000000404DDA2C400000000000408FC0
310
000000004C1E1FC0000000203DEE30400C000000130000007A0B00003C00000006000000020000000000000000408FC0000000C079A032C0000000004ABC2E400000000000408FC0000000004C1E1FC0000000203DEE30400C00000013000000820B00003C00000006000000020000000000000000408FC000000000251A33
310
C000000020856930400000000000408FC000000040B26B20C0000000209B2533400C000000130000008A0B00003C00000006000000020000000000000000408FC00000004024032EC0000000A0D17E3C400000000000408FC000000020F75418C0000000A0E4AE3A400C00000013000000920B00003C000000060000000200
310
00000000000000408FC000000040CA6E29C000000080F4BF3D400000000000408FC000000020F75418C0000000A0E4AE3A400C000000130000009A0B00003C00000006000000020000000000000000408FC00000006045C530C000000000481E3B400000000000408FC0000000406D8F1CC00000008005A738400C00000013
310
000000A20B00003C00000006000000020000000000000000408FC000000080C5CE2FC0000000E0DFDE3B400000000000408FC000000020F75418C0000000A0E4AE3A400C00000013000000AA0B00003C00000006000000020000000000000000408FC0000000804C1E1FC000000060C21137400000000000408FC000000060
310
DD0F32C000000060389639400C00000013000000B20B00003C00000006000000020000000000000000408FC000000060F28331C0000000C03E513A400000000000408FC0000000406D8F1CC00000008005A738400C00000013000000BA0B00003C00000006000000020000000000000000408FC000000040B26B20C0000000
310
6064DA34400000000000408FC000000080D31833C0000000A02E9A37400C00000013000000C20B00003C00000006000000020000000000000000408FC000000040B99E32C0000000E069A538400000000000408FC0000000804C1E1FC000000060C21137400C00000013000000CA0B00003C00000006000000020000000000
310
000000408FC000000040B26B20C00000006064DA34400000000000408FC0000000E033A333C00000000035AC35400C00000013000000D20B00003C00000006000000020000000000000000408FC0000000205D7133C0000000208E9036400000000000408FC000000040B26B20C00000006064DA34400C00000013000000DA
310
0B00003C00000006000000020000000000000000408FC0000000E0377233C0000000A04B7331400000000000408FC000000040B26B20C0000000209B2533400C00000013000000E20B00003C00000006000000020000000000000000408FC0000000A006A433C000000060A55932400000000000408FC000000040B26B20C0
310
000000209B2533400C00000013000000EA0B00003C00000006000000020000000000000000408FC000000080A5C133C0000000C0107033400000000000408FC000000040B26B20C0000000209B2533400C00000013000000F20B00003C00000006000000020000000000000000408FC0000000C05CC133C000000060D89534
310
400000000000408FC000000040B26B20C00000006064DA34400C00000013000000FA0B00003C00000006000000020000000000000000408FC000000020F63221C00000000021A208400000000000408FC00000008024B1F3BF00000000FF0913400C00000013000000020C00003C0000000600000002000000000000000040
310
8FC000000020421522C000000000E4D80C400000000000408FC00000008024B1F3BF00000080FFF514400C000000130000000A0C00003C00000006000000020000000000000000408FC000000040ED5423C000000000924810400000000000408FC000000080737EF1BF0000008072DE16400C00000013000000120C00003C
310
00000006000000020000000000000000408FC0000000407C3D28C0000000400C4E23400000000000408FC000000000F75418C00000008035A22A400C000000130000001A0C00003C00000006000000020000000000000000408FC000000080E3CE28C000000020AF1024400000000000408FC000000000F75418C000000080
310
35A22A400C00000013000000220C00003C00000006000000020000000000000000408FC0000000C0010028C000000000A29F14400000000000408FC00000008053BC10C000000020F8C824400C000000130000002A0C00003C00000006000000020000000000000000408FC000000080010028C0000000A01D952240000000
310
0000408FC000000000F75418C00000008035A22A400C00000013000000320C00003C00000006000000020000000000000000408FC000000000EE0C10C0000000A0307624400000000000408FC0000000E015C427C000000000925613400C000000130000003A0C00003C00000006000000020000000000000000408FC00000
310
00E0752C27C00000000069A712400000000000408FC000000000854A0EC000000000A45424400C00000013000000420C00003C00000006000000020000000000000000408FC0000000C0EC5125C000000080100012400000000000408FC000000000C49AEEBF000000A0601524400C000000130000004A0C00003C00000006
310
000000020000000000000000408FC000000000C49AEEBF000000A0601524400000000000408FC000000040ED5423C000000000924810400C00000013000000520C00003C00000006000000020000000000000000408FC0000000009896B3BF00000000C1381B400000000000408FC000000000C09DC7BF000000E022012340
310
0C000000130000005A0C00003C00000006000000020000000000000000408FC0000000007416D2BF00000040DD7B1A400000000000408FC000000000F02BE0BF00000000BFAC23400C00000013000000620C00003C00000006000000020000000000000000408FC000000000C49AEEBF000000A0601524400000000000408F
310
C000000000D9CFEABF00000040257F18400C000000130000006A0C00003C00000006000000020000000000000000408FC000000020F75418C0000000A0E4AE3A400000000000408FC0000000C0E3CE28C000000060A8F73D400C00000013000000720C00003C00000006000000020000000000000000408FC0000000807C3D
310
28C000000000FA583E400000000000408FC000000020F75418C0000000A0E4AE3A400C000000130000007A0C00003C00000006000000020000000000000000408FC0000000C0010028C00000002071B53E400000000000408FC000000020F75418C0000000A0E4AE3A400C00000013000000820C00003C0000000600000002
310
0000000000000000408FC000000080010028C0000000800B6C41400000000000408FC00000004053BC10C0000000C0839B3D400C000000130000008A0C00003C00000006000000020000000000000000408FC0000000C015C427C0000000802D9541400000000000408FC000000000EE0C10C000000080E7C43D400C000000
310
13000000920C00003C00000006000000020000000000000000408FC000000080854A0EC0000000A0ADD53D400000000000408FC0000000C0752C27C0000000A012AB41400C000000130000009A0C00003C00000006000000020000000000000000408FC0000000C0EC5125C0000000C0FDBF41400000000000408FC0000000
310
00C49AEEBF000000804FF53D400C00000013000000A20C00003C00000006000000020000000000000000408FC000000000FAC4D1BF000000E009443E400000000000408FC0000000008096B3BF000000A0E79840400C00000013000000AA0C00003C00000006000000020000000000000000408FC0000000006E16D2BF0000
310
002084B040400000000000408FC000000000C49AEEBF000000804FF53D400C00000013000000B20C00003C00000006000000020000000000000000408FC00000004057161EC000000080F6D543400000000000408FC0000000000000E7BE000000E01D8942400C00000013000000BA0C00003C000000060000000200000000
310
00000000408FC0000000009096B3BF00000000186742400000000000408FC0000000C0DB711FC0000000C047C243400C00000013000000C20C00003C00000006000000020000000000000000408FC000000000010020C000000000069643400000000000408FC0000000007416D2BF000000807B4F42400C00000013000000
310
CA0C00003C00000006000000020000000000000000408FC000000000D5CFEABF00000080E40F42400000000000408FC000000000010020C000000040C25543400C00000013000000D20C00003C00000006000000020000000000000000408FC000000080148020C000000040A9CE42400000000000408FC000000080717EF1
310
BF00000040CEDB41400C00000013000000DA0C00003C00000006000000020000000000000000408FC0000000C0F33221C0000000C09E7542400000000000408FC00000008022B1F3BF000000E0BF9E41400C00000013000000E20C00003C00000006000000020000000000000000408FC00000000023B1F3BF000000C03F61
310
41400000000000408FC0000000004A1422C0000000C07B3242400C00000013000000EA0C00003C00000006000000020000000000000000408FC000000080FB5323C0000000A0FBF641400000000000408FC000000000727EF1BF00000080312441400C00000013000000F20C00003C00000006000000020000000000000000
310
408FC000000000D6CFEABF000000201BF040400000000000408FC0000000C0EC5125C0000000C0FDBF4140
100
AcDbSubDMesh
 71
     2
 72
     0
 91
        0
 92
      198
 10
-1000.0
 20
-12.71638488769531
 30
10.25017738342285
 10
-1000.0
 20
-18.07009696960449
 30
14.42637062072754
 10
-1000.0
 20
-19.44282722473144
 30
22.56466865539551
 10
-1000.0
 20
-12.71638679504394
 30
29.74982452392578
 10
-1000.0
 20
-12.00001335144043
 30
5.155891418457031
 10
-1000.0
 20
-12.0000114440918
 30
9.291241645812988
 10
-1000.0
 20
-10.66000938415527
 30
4.500062942504882
 10
-1000.0
 20
-11.58683681488037
 30
4.66348648071289
 10
-1000.0
 20
-8.250052452087402
 30
2.383558273315429
 10
-1000.0
 20
-8.000009536743164
 30
0.8279266357421875
 10
-1000.0
 20
-7.521819114685058
 30
0.3284034729003906
 10
-1000.0
 20
-12.0000114440918
 30
34.84410095214844
 10
-1000.0
 20
-12.00001335144043
 30
30.7087574005127
 10
-1000.0
 20
-8.599515914916992
 30
36.91890716552734
 10
-1000.0
 20
-12.12008857727051
 30
9.652437210083007
 10
-1000.0
 20
-3.786386489868164
 30
10.16531372070312
 10
-1000.0
 20
-0.9563922882080078
 30
10.04175281524658
 10
-1000.0
 20
-0.2826204299926758
 30
6.620961189270019
 10
-1000.0
 20
-0.83787202835083
 30
6.124165534973144
 10
-1000.0
 20
-1.093371868133544
 30
4.282760620117187
 10
-1000.0
 20
-0.282618522644043
 30
3.379030227661132
 10
-1000.0
 20
-0.8378701210021972
 30
36.12416076660156
 10
-1000.0
 20
-3.78638744354248
 30
29.83468055725098
 10
-1000.0
 20
-4.183911323547363
 30
29.60747909545899
 10
-1000.0
 20
-4.183912277221679
 30
10.39251804351806
 10
-1000.0
 20
-0.0765151977539063
 30
3.19456672668457
 10
-1000.0
 20
-0.0765166282653809
 30
6.805423736572265
 10
-1000.0
 20
-0.0000114440917969
 30
7.071228981018066
 10
-1000.0
 20
-0.0000114440917969
 30
9.042705535888671
 10
-1000.0
 20
-0.2776474952697754
 30
30.26577568054199
 10
-1000.0
 20
-0.0000114440917969
 30
30.95728874206543
 10
-1000.0
 20
-0.0765161514282227
 30
36.805419921875
 10
-1000.0
 20
-11.88297843933105
 30
35.16545104980469
 10
-1000.0
 20
-7.861191749572753
 30
0.4821720123291016
 10
-1000.0
 20
-16.77565193176269
 30
12.88726043701172
 10
-1000.0
 20
-19.75532150268555
 30
20.5853328704834
 10
-1000.0
 20
-18.62001419067382
 30
24.64614677429199
 10
-1000.0
 20
-15.90385055541992
 30
27.87060356140137
 10
-1000.0
 20
-8.599534034729003
 30
3.079164505004882
 10
-1000.0
 20
-9.665872573852539
 30
4.070869445800781
 10
-1000.0
 20
-1.230746269226074
 30
34.75975799560547
 10
-1000.0
 20
-0.8378705978393554
 30
33.87582778930664
 10
-1000.0
 20
-12.40407943725586
 30
10.03258609771728
 10
-1000.0
 20
-12.12009048461914
 30
30.34756469726563
 10
1000.0
 20
-15.01228904724121
 30
11.50911712646484
 10
1000.0
 20
-6.082975387573242
 30
13.31681442260742
 10
1000.0
 20
-12.71638488769531
 30
10.25017738342285
 10
1000.0
 20
-0.0000081062316895
 30
2.928764343261718
 10
1000.0
 20
-0.0000095367431641
 30
-0.0000038146972656
 10
1000.0
 20
-7.521820545196533
 30
0.3284053802490234
 10
1000.0
 20
-0.0765132904052734
 30
3.194568634033203
 10
1000.0
 20
-7.861193656921386
 30
0.4821739196777344
 10
1000.0
 20
-0.2826161384582519
 30
3.379032135009765
 10
1000.0
 20
-8.000011444091796
 30
0.8279285430908203
 10
1000.0
 20
-0.837869644165039
 30
3.87582778930664
 10
1000.0
 20
-8.000011444091796
 30
1.329996109008789
 10
1000.0
 20
-1.093368530273437
 30
4.282760620117187
 10
1000.0
 20
-8.250051498413085
 30
2.383560180664062
 10
1000.0
 20
-16.77564620971679
 30
12.88725852966308
 10
1000.0
 20
-7.140065670013427
 30
15.34756278991699
 10
1000.0
 20
-18.07009124755859
 30
14.4263687133789
 10
1000.0
 20
-7.77958869934082
 30
16.93062019348144
 10
1000.0
 20
-19.10212135314941
 30
16.41218757629394
 10
1000.0
 20
-8.210344314575195
 30
19.14689826965332
 10
1000.0
 20
-15.90385055541992
 30
27.87060356140137
 10
1000.0
 20
-12.71638488769531
 30
29.74982452392578
 10
1000.0
 20
-6.082975387573242
 30
26.68317604064942
 10
1000.0
 20
-17.51541137695312
 30
26.31736373901367
 10
1000.0
 20
-7.140066623687744
 30
24.65242767333985
 10
1000.0
 20
-18.62000846862793
 30
24.64614868164062
 10
1000.0
 20
-7.779590129852294
 30
23.06937217712402
 10
1000.0
 20
-19.44282150268555
 30
22.56466865539551
 10
1000.0
 20
-8.210344314575195
 30
20.85309410095215
 10
1000.0
 20
-19.75531578063965
 30
20.5853328704834
 10
1000.0
 20
-19.64072036743164
 30
18.35017967224121
 10
1000.0
 20
-1.230744361877441
 30
4.759761810302734
 10
1000.0
 20
-8.599533081054687
 30
3.079166412353515
 10
1000.0
 20
-1.230744838714599
 30
5.240232467651367
 10
1000.0
 20
-9.041519165039062
 30
3.605905532836914
 10
1000.0
 20
-1.093369007110595
 30
5.717233657836914
 10
1000.0
 20
-9.665872573852539
 30
4.070869445800781
 10
1000.0
 20
-12.12008857727051
 30
9.652437210083007
 10
1000.0
 20
-12.40407943725586
 30
10.03258609771728
 10
1000.0
 20
-4.183912277221679
 30
10.39251804351806
 10
1000.0
 20
-12.0000114440918
 30
5.155891418457031
 10
1000.0
 20
-12.0000114440918
 30
9.291241645812988
 10
1000.0
 20
-4.012626647949218
 30
10.23083972930908
 10
1000.0
 20
-11.88297843933105
 30
4.834541320800781
 10
1000.0
 20
-3.786385536193847
 30
10.16531372070312
 10
1000.0
 20
-11.58683586120605
 30
4.66348648071289
 10
1000.0
 20
-0.9563894271850585
 30
10.04175281524658
 10
1000.0
 20
-10.66000938415527
 30
4.500062942504882
 10
1000.0
 20
-0.1844992637634277
 30
9.502219200134277
 10
1000.0
 20
-0.0000095367431641
 30
9.042705535888671
 10
1000.0
 20
-0.0000095367431641
 30
7.071228981018066
 10
1000.0
 20
-0.0765147209167481
 30
6.805423736572265
 10
1000.0
 20
-0.5053610801696778
 30
9.837394714355468
 10
1000.0
 20
-0.2826180458068848
 30
6.620961189270019
 10
1000.0
 20
-0.8378701210021972
 30
6.124165534973144
 10
1000.0
 20
-12.40407943725586
 30
29.9674129486084
 10
1000.0
 20
-12.12008857727051
 30
30.34756469726563
 10
1000.0
 20
-12.0000114440918
 30
30.7087574005127
 10
1000.0
 20
-12.0000114440918
 30
34.84410095214844
 10
1000.0
 20
-4.183912277221679
 30
29.60747909545899
 10
1000.0
 20
-11.88297843933105
 30
35.16545104980469
 10
1000.0
 20
-4.012626647949218
 30
29.76915740966797
 10
1000.0
 20
-11.58683586120605
 30
35.33650588989258
 10
1000.0
 20
-3.786385536193847
 30
29.83468055725098
 10
1000.0
 20
-10.66000938415527
 30
35.49993133544922
 10
1000.0
 20
-0.9563899040222167
 30
29.95824432373047
 10
1000.0
 20
-0.0765142440795899
 30
33.19456863403321
 10
1000.0
 20
-0.0000095367431641
 30
32.92876434326172
 10
1000.0
 20
-0.0000095367431641
 30
30.95728874206543
 10
1000.0
 20
-0.2776455879211426
 30
30.26577568054199
 10
1000.0
 20
-0.2826175689697265
 30
33.37903213500977
 10
1000.0
 20
-7.521819114685058
 30
39.67158508300781
 10
1000.0
 20
-0.0000095367431641
 30
39.99999237060547
 10
1000.0
 20
-0.0000090599060059
 30
37.07122802734375
 10
1000.0
 20
-7.861191749572753
 30
39.51781463623047
 10
1000.0
 20
-0.0765142440795899
 30
36.805419921875
 10
1000.0
 20
-8.000009536743164
 30
39.17206192016602
 10
1000.0
 20
-0.2826180458068848
 30
36.62095642089844
 10
1000.0
 20
-8.000009536743164
 30
38.66999435424805
 10
1000.0
 20
-0.8378686904907226
 30
36.12416458129883
 10
1000.0
 20
-8.25015640258789
 30
37.61454010009766
 10
1000.0
 20
-1.093367576599121
 30
35.71723175048828
 10
1000.0
 20
-8.599517822265625
 30
36.91890716552734
 10
1000.0
 20
-1.230743408203125
 30
35.24023056030273
 10
1000.0
 20
-9.039627075195312
 30
36.39440155029297
 10
1000.0
 20
-1.230743408203125
 30
34.75975799560547
 10
1000.0
 20
-9.664030075073242
 30
35.92955398559571
 10
1000.0
 20
-1.093367576599121
 30
34.28276062011719
 10
1000.0
 20
-0.8378686904907226
 30
33.87582778930664
 10
-1000.0
 20
-18.62685775756836
 30
15.36775207519531
 10
-1000.0
 20
-7.779586791992187
 30
16.93062019348144
 10
-1000.0
 20
-19.75643157958984
 30
19.4377555847168
 10
-1000.0
 20
-16.77058982849121
 30
27.1182861328125
 10
-1000.0
 20
-19.44616508483887
 30
17.45037269592285
 10
-1000.0
 20
-8.210344314575195
 30
20.85309410095215
 10
-1000.0
 20
-7.77958869934082
 30
23.06937217712402
 10
-1000.0
 20
-15.00613594055176
 30
28.49538612365723
 10
-1000.0
 20
-6.082973957061767
 30
26.68317604064942
 10
1000.0
 20
-15.90962600708008
 30
12.1343994140625
 10
1000.0
 20
-17.51968765258789
 30
13.68888092041016
 10
1000.0
 20
-18.62685203552246
 30
15.36775398254394
 10
1000.0
 20
-19.44615936279297
 30
17.45037269592285
 10
1000.0
 20
-15.00613594055176
 30
28.49538612365723
 10
1000.0
 20
-16.77058410644531
 30
27.11828422546387
 10
1000.0
 20
-18.06196594238281
 30
25.58679962158203
 10
1000.0
 20
-19.09697151184082
 30
23.60227394104004
 10
1000.0
 20
-19.63750457763672
 30
21.67268371582031
 10
1000.0
 20
-19.75642585754394
 30
19.4377555847168
 10
-1000.0
 20
-15.01228904724121
 30
11.50911712646484
 10
-1000.0
 20
-17.51541709899902
 30
26.31736373901367
 10
-1000.0
 20
-8.000009536743164
 30
1.329994201660156
 10
-1000.0
 20
-9.041520118713378
 30
3.605903625488281
 10
-1000.0
 20
-0.0000100135803223
 30
-0.0000057220458984
 10
-1000.0
 20
-11.58683586120605
 30
35.33650588989258
 10
-1000.0
 20
-10.66000938415527
 30
35.49993133544922
 10
-1000.0
 20
-9.664028167724609
 30
35.92955398559571
 10
-1000.0
 20
-8.000007629394531
 30
38.66999053955078
 10
-1000.0
 20
-8.000007629394531
 30
39.17205810546875
 10
-1000.0
 20
-7.521817207336425
 30
39.67158508300781
 10
-1000.0
 20
-0.0000114440917969
 30
39.99999237060547
 10
-1000.0
 20
-12.40408134460449
 30
29.9674129486084
 10
-1000.0
 20
-1.230747699737548
 30
5.240232467651367
 10
-1000.0
 20
-0.2826204299926758
 30
36.62095642089844
 10
-1000.0
 20
-1.230745792388916
 30
35.24023056030273
 10
-1000.0
 20
-1.09337043762207
 30
34.28276062011719
 10
-1000.0
 20
-0.2826189994812012
 30
33.37903213500977
 10
-1000.0
 20
-0.9563922882080078
 30
29.95824432373047
 10
-1000.0
 20
-4.012626647949218
 30
29.76915740966797
 10
-1000.0
 20
-4.012626647949218
 30
10.23083972930908
 10
-1000.0
 20
-0.0000100135803223
 30
2.928762435913085
 10
-1000.0
 20
-0.5053634643554688
 30
9.837394714355468
 10
-1000.0
 20
-0.0000100135803223
 30
32.92876434326172
 10
-1000.0
 20
-0.0765151977539063
 30
33.19456863403321
 10
-1000.0
 20
-0.0000109672546387
 30
37.07122421264648
 10
-1000.0
 20
-7.861189842224121
 30
39.51781463623047
 10
-1000.0
 20
-11.88297939300537
 30
4.834541320800781
 10
-1000.0
 20
-19.10212707519531
 30
16.41218757629394
 10
-1000.0
 20
-9.039627075195312
 30
36.39440155029297
 10
-1000.0
 20
-8.25015640258789
 30
37.61454010009766
 10
-1000.0
 20
-1.093369960784912
 30
35.71723175048828
 10
-1000.0
 20
-1.093371868133544
 30
5.717233657836914
 10
-1000.0
 20
-1.230747699737548
 30
4.759761810302734
 10
-1000.0
 20
-0.83787202835083
 30
3.875825881958007
 10
-1000.0
 20
-0.1845016479492187
 30
9.502219200134277
 10
-1000.0
 20
-15.90962600708008
 30
12.1343994140625
 10
-1000.0
 20
-6.082973480224609
 30
13.31681442260742
 10
-1000.0
 20
-19.64072608947754
 30
18.35017967224121
 10
-1000.0
 20
-19.09697723388672
 30
23.60227394104004
 10
-1000.0
 20
-7.140065193176269
 30
24.65242767333985
 10
-1000.0
 20
-17.51969337463379
 30
13.68887901306152
 10
-1000.0
 20
-7.140063762664794
 30
15.34756565093994
 10
-1000.0
 20
-8.210344314575195
 30
19.14689826965332
 10
-1000.0
 20
-19.63751029968262
 30
21.67268371582031
 10
-1000.0
 20
-18.06197166442871
 30
25.5867977142334
 93
     1049
 90
        3
 90
       44
 90
       46
 90
       45
 90
        3
 90
       47
 90
       49
 90
       48
 90
        4
 90
       50
 90
       51
 90
       49
 90
       47
 90
        4
 90
       52
 90
       53
 90
       51
 90
       50
 90
        4
 90
       54
 90
       55
 90
       53
 90
       52
 90
        4
 90
       56
 90
       57
 90
       55
 90
       54
 90
        4
 90
      142
 90
       45
 90
       59
 90
       58
 90
        4
 90
      143
 90
       59
 90
       61
 90
       60
 90
        4
 90
      144
 90
       61
 90
       63
 90
       62
 90
        3
 90
      146
 90
       66
 90
       65
 90
        4
 90
      147
 90
       68
 90
       66
 90
       64
 90
        4
 90
      148
 90
       70
 90
       68
 90
       67
 90
        4
 90
      149
 90
       72
 90
       70
 90
       69
 90
        3
 90
      150
 90
       72
 90
       71
 90
        3
 90
      145
 90
       63
 90
       74
 90
        4
 90
      151
 90
       63
 90
       72
 90
       73
 90
        4
 90
       75
 90
       76
 90
       57
 90
       56
 90
        4
 90
       77
 90
       78
 90
       76
 90
       75
 90
        4
 90
       79
 90
       80
 90
       78
 90
       77
 90
        3
 90
       45
 90
       82
 90
       81
 90
        3
 90
       45
 90
       46
 90
       82
 90
        4
 90
       45
 90
       85
 90
       84
 90
       83
 90
        3
 90
       45
 90
       81
 90
       85
 90
        4
 90
       83
 90
       84
 90
       87
 90
       86
 90
        4
 90
       86
 90
       87
 90
       89
 90
       88
 90
        4
 90
       88
 90
       89
 90
       91
 90
       90
 90
        3
 90
       90
 90
       91
 90
       80
 90
        4
 90
       92
 90
       95
 90
       94
 90
       93
 90
        4
 90
       96
 90
       97
 90
       95
 90
       92
 90
        4
 90
       90
 90
       98
 90
       97
 90
       96
 90
        4
 90
       90
 90
       80
 90
       79
 90
       98
 90
        3
 90
       65
 90
       66
 90
       99
 90
        3
 90
       99
 90
       66
 90
      100
 90
        3
 90
      100
 90
       66
 90
      101
 90
        4
 90
      101
 90
       66
 90
      103
 90
      102
 90
        4
 90
      102
 90
      103
 90
      105
 90
      104
 90
        4
 90
      104
 90
      105
 90
      107
 90
      106
 90
        4
 90
      106
 90
      107
 90
      109
 90
      108
 90
        4
 90
      110
 90
      113
 90
      112
 90
      111
 90
        4
 90
      114
 90
      109
 90
      113
 90
      110
 90
        3
 90
      115
 90
      117
 90
      116
 90
        4
 90
      118
 90
      119
 90
      117
 90
      115
 90
        4
 90
      120
 90
      121
 90
      119
 90
      118
 90
        4
 90
      122
 90
      123
 90
      121
 90
      120
 90
        4
 90
      124
 90
      125
 90
      123
 90
      122
 90
        4
 90
      126
 90
      127
 90
      125
 90
      124
 90
        4
 90
      128
 90
      129
 90
      127
 90
      126
 90
        4
 90
      130
 90
      131
 90
      129
 90
      128
 90
        4
 90
      108
 90
      132
 90
      131
 90
      130
 90
        4
 90
      108
 90
      109
 90
      114
 90
      132
 90
        4
 90
      163
 90
      162
 90
      115
 90
      116
 90
        4
 90
      162
 90
      178
 90
      118
 90
      115
 90
        4
 90
      178
 90
      161
 90
      120
 90
      118
 90
        4
 90
      161
 90
      160
 90
      122
 90
      120
 90
        4
 90
      160
 90
      182
 90
      124
 90
      122
 90
        4
 90
      182
 90
       13
 90
      126
 90
      124
 90
        4
 90
       13
 90
      181
 90
      128
 90
      126
 90
        4
 90
      181
 90
      159
 90
      130
 90
      128
 90
        4
 90
      159
 90
      158
 90
      108
 90
      130
 90
        4
 90
      158
 90
      157
 90
      106
 90
      108
 90
        4
 90
      157
 90
       32
 90
      104
 90
      106
 90
        4
 90
       32
 90
       11
 90
      102
 90
      104
 90
        4
 90
       11
 90
       12
 90
      101
 90
      102
 90
        4
 90
       12
 90
       43
 90
      100
 90
      101
 90
        4
 90
       43
 90
      164
 90
       99
 90
      100
 90
        4
 90
      164
 90
        3
 90
       65
 90
       99
 90
        4
 90
        3
 90
      140
 90
      146
 90
       65
 90
        4
 90
       37
 90
      136
 90
      147
 90
       64
 90
        4
 90
      153
 90
      197
 90
      148
 90
       67
 90
        4
 90
       36
 90
      191
 90
      149
 90
       69
 90
        4
 90
        2
 90
      196
 90
      150
 90
       71
 90
        4
 90
       35
 90
      135
 90
      151
 90
       73
 90
        4
 90
      190
 90
      137
 90
      145
 90
       74
 90
        4
 90
      180
 90
      133
 90
      144
 90
       62
 90
        4
 90
        1
 90
      193
 90
      143
 90
       60
 90
        4
 90
       34
 90
      188
 90
      142
 90
       58
 90
        4
 90
      152
 90
        0
 90
       46
 90
       44
 90
        4
 90
        0
 90
       42
 90
       82
 90
       46
 90
        4
 90
       42
 90
       14
 90
       81
 90
       82
 90
        4
 90
       14
 90
        5
 90
       85
 90
       81
 90
        4
 90
        5
 90
        4
 90
       84
 90
       85
 90
        4
 90
        4
 90
      179
 90
       87
 90
       84
 90
        4
 90
      179
 90
        7
 90
       89
 90
       87
 90
        4
 90
        7
 90
        6
 90
       91
 90
       89
 90
        4
 90
        6
 90
       39
 90
       80
 90
       91
 90
        4
 90
       39
 90
      155
 90
       78
 90
       80
 90
        4
 90
      155
 90
       38
 90
       76
 90
       78
 90
        4
 90
       38
 90
        8
 90
       57
 90
       76
 90
        4
 90
        8
 90
      154
 90
       55
 90
       57
 90
        4
 90
      154
 90
        9
 90
       53
 90
       55
 90
        4
 90
        9
 90
       33
 90
       51
 90
       53
 90
        4
 90
       33
 90
       10
 90
       49
 90
       51
 90
        4
 90
       10
 90
      156
 90
       48
 90
       49
 90
        4
 90
      156
 90
      173
 90
       47
 90
       48
 90
        4
 90
      173
 90
       25
 90
       50
 90
       47
 90
        4
 90
       25
 90
       20
 90
       52
 90
       50
 90
        4
 90
       20
 90
      186
 90
       54
 90
       52
 90
        4
 90
      186
 90
       19
 90
       56
 90
       54
 90
        4
 90
       19
 90
      185
 90
       75
 90
       56
 90
        4
 90
      185
 90
      165
 90
       77
 90
       75
 90
        4
 90
      165
 90
      184
 90
       79
 90
       77
 90
        4
 90
      184
 90
       18
 90
       98
 90
       79
 90
        4
 90
       18
 90
       17
 90
       97
 90
       98
 90
        4
 90
       17
 90
       26
 90
       95
 90
       97
 90
        4
 90
       26
 90
       27
 90
       94
 90
       95
 90
        4
 90
       27
 90
       28
 90
       93
 90
       94
 90
        4
 90
       28
 90
      187
 90
       92
 90
       93
 90
        4
 90
      187
 90
      174
 90
       96
 90
       92
 90
        4
 90
      174
 90
       16
 90
       90
 90
       96
 90
        4
 90
       16
 90
       15
 90
       88
 90
       90
 90
        4
 90
       15
 90
      172
 90
       86
 90
       88
 90
        4
 90
      172
 90
       24
 90
       83
 90
       86
 90
        4
 90
       24
 90
      189
 90
       45
 90
       83
 90
        4
 90
      189
 90
      194
 90
       59
 90
       45
 90
        4
 90
      194
 90
      134
 90
       61
 90
       59
 90
        4
 90
      134
 90
      195
 90
       63
 90
       61
 90
        4
 90
      195
 90
      138
 90
       72
 90
       63
 90
        4
 90
      138
 90
      139
 90
       70
 90
       72
 90
        4
 90
      139
 90
      192
 90
       68
 90
       70
 90
        4
 90
      192
 90
      141
 90
       66
 90
       68
 90
        4
 90
      141
 90
       23
 90
      103
 90
       66
 90
        4
 90
       23
 90
      171
 90
      105
 90
      103
 90
        4
 90
      171
 90
       22
 90
      107
 90
      105
 90
        4
 90
       22
 90
      170
 90
      109
 90
      107
 90
        4
 90
      170
 90
       29
 90
      113
 90
      109
 90
        4
 90
       29
 90
       30
 90
      112
 90
      113
 90
        4
 90
       30
 90
      175
 90
      111
 90
      112
 90
        4
 90
      175
 90
      176
 90
      110
 90
      111
 90
        4
 90
      176
 90
      169
 90
      114
 90
      110
 90
        4
 90
      169
 90
       41
 90
      132
 90
      114
 90
        4
 90
       41
 90
      168
 90
      131
 90
      132
 90
        4
 90
      168
 90
       40
 90
      129
 90
      131
 90
        4
 90
       40
 90
      167
 90
      127
 90
      129
 90
        4
 90
      167
 90
      183
 90
      125
 90
      127
 90
        4
 90
      183
 90
       21
 90
      123
 90
      125
 90
        4
 90
       21
 90
      166
 90
      121
 90
      123
 90
        4
 90
      166
 90
       31
 90
      119
 90
      121
 90
        4
 90
       31
 90
      177
 90
      117
 90
      119
 90
        4
 90
      177
 90
      163
 90
      116
 90
      117
 90
        3
 90
       44
 90
       45
 90
      142
 90
        3
 90
       58
 90
       59
 90
      143
 90
        3
 90
       60
 90
       61
 90
      144
 90
        3
 90
       62
 90
       63
 90
      145
 90
        3
 90
       64
 90
       66
 90
      146
 90
        3
 90
       67
 90
       68
 90
      147
 90
        3
 90
       69
 90
       70
 90
      148
 90
        3
 90
       71
 90
       72
 90
      149
 90
        3
 90
       73
 90
       72
 90
      150
 90
        3
 90
       74
 90
       63
 90
      151
 90
        4
 90
      140
 90
       37
 90
       64
 90
      146
 90
        4
 90
      136
 90
      153
 90
       67
 90
      147
 90
        4
 90
      197
 90
       36
 90
       69
 90
      148
 90
        4
 90
      191
 90
        2
 90
       71
 90
      149
 90
        4
 90
      196
 90
       35
 90
       73
 90
      150
 90
        4
 90
      135
 90
      190
 90
       74
 90
      151
 90
        4
 90
      137
 90
      180
 90
       62
 90
      145
 90
        4
 90
      133
 90
        1
 90
       60
 90
      144
 90
        4
 90
      193
 90
       34
 90
       58
 90
      143
 90
        4
 90
      188
 90
      152
 90
       44
 90
      142
 90
        3
 90
      152
 90
      189
 90
        0
 90
        3
 90
      173
 90
      156
 90
       10
 90
        4
 90
       25
 90
      173
 90
       10
 90
       33
 90
        4
 90
       20
 90
       25
 90
       33
 90
        9
 90
        4
 90
      186
 90
       20
 90
        9
 90
      154
 90
        4
 90
       19
 90
      186
 90
      154
 90
        8
 90
        4
 90
      189
 90
      188
 90
       34
 90
      194
 90
        4
 90
      194
 90
      193
 90
        1
 90
      134
 90
        4
 90
      134
 90
      133
 90
      180
 90
      195
 90
        3
 90
      141
 90
      140
 90
        3
 90
        4
 90
      192
 90
      136
 90
       37
 90
      141
 90
        4
 90
      139
 90
      197
 90
      153
 90
      192
 90
        4
 90
      138
 90
      191
 90
       36
 90
      139
 90
        3
 90
      138
 90
      196
 90
        2
 90
        3
 90
      195
 90
      137
 90
      190
 90
        4
 90
      195
 90
      135
 90
       35
 90
      138
 90
        4
 90
      185
 90
       19
 90
        8
 90
       38
 90
        4
 90
      165
 90
      185
 90
       38
 90
      155
 90
        4
 90
      184
 90
      165
 90
      155
 90
       39
 90
        3
 90
      189
 90
       14
 90
       42
 90
        3
 90
      189
 90
       42
 90
        0
 90
        4
 90
      189
 90
       24
 90
        4
 90
        5
 90
        3
 90
      189
 90
        5
 90
       14
 90
        4
 90
       24
 90
      172
 90
      179
 90
        4
 90
        4
 90
      172
 90
       15
 90
        7
 90
      179
 90
        4
 90
       15
 90
       16
 90
        6
 90
        7
 90
        3
 90
       16
 90
       39
 90
        6
 90
        4
 90
      187
 90
       28
 90
       27
 90
       26
 90
        4
 90
      174
 90
      187
 90
       26
 90
       17
 90
        4
 90
       16
 90
      174
 90
       17
 90
       18
 90
        4
 90
       16
 90
       18
 90
      184
 90
       39
 90
        3
 90
        3
 90
      164
 90
      141
 90
        3
 90
      164
 90
       43
 90
      141
 90
        3
 90
       43
 90
       12
 90
      141
 90
        4
 90
       12
 90
       11
 90
       23
 90
      141
 90
        4
 90
       11
 90
       32
 90
      171
 90
       23
 90
        4
 90
       32
 90
      157
 90
       22
 90
      171
 90
        4
 90
      157
 90
      158
 90
      170
 90
       22
 90
        4
 90
      176
 90
      175
 90
       30
 90
       29
 90
        4
 90
      169
 90
      176
 90
       29
 90
      170
 90
        3
 90
      162
 90
      163
 90
      177
 90
        4
 90
      178
 90
      162
 90
      177
 90
       31
 90
        4
 90
      161
 90
      178
 90
       31
 90
      166
 90
        4
 90
      160
 90
      161
 90
      166
 90
       21
 90
        4
 90
      182
 90
      160
 90
       21
 90
      183
 90
        4
 90
       13
 90
      182
 90
      183
 90
      167
 90
        4
 90
      181
 90
       13
 90
      167
 90
       40
 90
        4
 90
      159
 90
      181
 90
       40
 90
      168
 90
        4
 90
      158
 90
      159
 90
      168
 90
       41
 90
        4
 90
      158
 90
       41
 90
      169
 90
      170
 90
        3
 90
      152
 90
      188
 90
      189
 90
        3
 90
        1
 90
      133
 90
      134
 90
        3
 90
      195
 90
      190
 90
      135
 90
        3
 90
        2
 90
      191
 90
      138
 90
        3
 90
      153
 90
      136
 90
      192
 90
        3
 90
       34
 90
      193
 90
      194
 90
        3
 90
      180
 90
      137
 90
      195
 90
        3
 90
       35
 90
      196
 90
      138
 90
        3
 90
       36
 90
      197
 90
      139
 90
        3
 90
       37
 90
      140
 90
      141
 94
      415
 90
       44
 90
       46
 90
       45
 90
       46
 90
       44
 90
       45
 90
       47
 90
       49
 90
       48
 90
       49
 90
       47
 90
       48
 90
       50
 90
       51
 90
       49
 90
       51
 90
       47
 90
       50
 90
       52
 90
       53
 90
       51
 90
       53
 90
       50
 90
       52
 90
       54
 90
       55
 90
       53
 90
       55
 90
       52
 90
       54
 90
       56
 90
       57
 90
       55
 90
       57
 90
       54
 90
       56
 90
       45
 90
      142
 90
       45
 90
       59
 90
       58
 90
       59
 90
       58
 90
      142
 90
       59
 90
      143
 90
       59
 90
       61
 90
       60
 90
       61
 90
       60
 90
      143
 90
       61
 90
      144
 90
       61
 90
       63
 90
       62
 90
       63
 90
       62
 90
      144
 90
       66
 90
      146
 90
       65
 90
       66
 90
       65
 90
      146
 90
       68
 90
      147
 90
       66
 90
       68
 90
       64
 90
       66
 90
       64
 90
      147
 90
       70
 90
      148
 90
       68
 90
       70
 90
       67
 90
       68
 90
       67
 90
      148
 90
       72
 90
      149
 90
       70
 90
       72
 90
       69
 90
       70
 90
       69
 90
      149
 90
       72
 90
      150
 90
       71
 90
       72
 90
       71
 90
      150
 90
       63
 90
      145
 90
       63
 90
       74
 90
       74
 90
      145
 90
       63
 90
      151
 90
       63
 90
       72
 90
       72
 90
       73
 90
       73
 90
      151
 90
       75
 90
       76
 90
       57
 90
       76
 90
       56
 90
       75
 90
       77
 90
       78
 90
       76
 90
       78
 90
       75
 90
       77
 90
       79
 90
       80
 90
       78
 90
       80
 90
       77
 90
       79
 90
       45
 90
       82
 90
       81
 90
       82
 90
       45
 90
       81
 90
       46
 90
       82
 90
       45
 90
       85
 90
       84
 90
       85
 90
       83
 90
       84
 90
       45
 90
       83
 90
       81
 90
       85
 90
       84
 90
       87
 90
       86
 90
       87
 90
       83
 90
       86
 90
       87
 90
       89
 90
       88
 90
       89
 90
       86
 90
       88
 90
       89
 90
       91
 90
       90
 90
       91
 90
       88
 90
       90
 90
       80
 90
       91
 90
       80
 90
       90
 90
       92
 90
       95
 90
       94
 90
       95
 90
       93
 90
       94
 90
       92
 90
       93
 90
       96
 90
       97
 90
       95
 90
       97
 90
       92
 90
       96
 90
       90
 90
       98
 90
       97
 90
       98
 90
       90
 90
       96
 90
       79
 90
       98
 90
       66
 90
       99
 90
       65
 90
       99
 90
       66
 90
      100
 90
       99
 90
      100
 90
       66
 90
      101
 90
      100
 90
      101
 90
       66
 90
      103
 90
      102
 90
      103
 90
      101
 90
      102
 90
      103
 90
      105
 90
      104
 90
      105
 90
      102
 90
      104
 90
      105
 90
      107
 90
      106
 90
      107
 90
      104
 90
      106
 90
      107
 90
      109
 90
      108
 90
      109
 90
      106
 90
      108
 90
      110
 90
      113
 90
      112
 90
      113
 90
      111
 90
      112
 90
      110
 90
      111
 90
      109
 90
      114
 90
      109
 90
      113
 90
      110
 90
      114
 90
      115
 90
      117
 90
      116
 90
      117
 90
      115
 90
      116
 90
      118
 90
      119
 90
      117
 90
      119
 90
      115
 90
      118
 90
      120
 90
      121
 90
      119
 90
      121
 90
      118
 90
      120
 90
      122
 90
      123
 90
      121
 90
      123
 90
      120
 90
      122
 90
      124
 90
      125
 90
      123
 90
      125
 90
      122
 90
      124
 90
      126
 90
      127
 90
      125
 90
      127
 90
      124
 90
      126
 90
      128
 90
      129
 90
      127
 90
      129
 90
      126
 90
      128
 90
      130
 90
      131
 90
      129
 90
      131
 90
      128
 90
      130
 90
      108
 90
      132
 90
      131
 90
      132
 90
      108
 90
      130
 90
      114
 90
      132
 90
      162
 90
      163
 90
      115
 90
      162
 90
      116
 90
      163
 90
      162
 90
      178
 90
      118
 90
      178
 90
      161
 90
      178
 90
      120
 90
      161
 90
      160
 90
      161
 90
      122
 90
      160
 90
      160
 90
      182
 90
      124
 90
      182
 90
       13
 90
      182
 90
       13
 90
      126
 90
       13
 90
      181
 90
      128
 90
      181
 90
      159
 90
      181
 90
      130
 90
      159
 90
      158
 90
      159
 90
      108
 90
      158
 90
      157
 90
      158
 90
      106
 90
      157
 90
       32
 90
      157
 90
       32
 90
      104
 90
       11
 90
       32
 90
       11
 90
      102
 90
       11
 90
       12
 90
       12
 90
      101
 90
       12
 90
       43
 90
       43
 90
      100
 90
       43
 90
      164
 90
       99
 90
      164
 90
        3
 90
      164
 90
        3
 90
       65
 90
        3
 90
      140
 90
      140
 90
      146
 90
       37
 90
      136
 90
      136
 90
      147
 90
       37
 90
       64
 90
      153
 90
      197
 90
      148
 90
      197
 90
       67
 90
      153
 90
       36
 90
      191
 90
      149
 90
      191
 90
       36
 90
       69
 90
        2
 90
      196
 90
      150
 90
      196
 90
        2
 90
       71
 90
       35
 90
      135
 90
      135
 90
      151
 90
       35
 90
       73
 90
      137
 90
      190
 90
      137
 90
      145
 90
       74
 90
      190
 90
      133
 90
      180
 90
      133
 90
      144
 90
       62
 90
      180
 90
        1
 90
      193
 90
      143
 90
      193
 90
        1
 90
       60
 90
       34
 90
      188
 90
      142
 90
      188
 90
       34
 90
       58
 90
        0
 90
      152
 90
        0
 90
       46
 90
       44
 90
      152
 90
        0
 90
       42
 90
       42
 90
       82
 90
       14
 90
       42
 90
       14
 90
       81
 90
        5
 90
       14
 90
        5
 90
       85
 90
        4
 90
        5
 90
        4
 90
       84
 90
        4
 90
      179
 90
       87
 90
      179
 90
        7
 90
      179
 90
        7
 90
       89
 90
        6
 90
        7
 90
        6
 90
       91
 90
        6
 90
       39
 90
       39
 90
       80
 90
       39
 90
      155
 90
       78
 90
      155
 90
       38
 90
      155
 90
       38
 90
       76
 90
        8
 90
       38
 90
        8
 90
       57
 90
        8
 90
      154
 90
       55
 90
      154
 90
        9
 90
      154
 90
        9
 90
       53
 90
        9
 90
       33
 90
       33
 90
       51
 90
       10
 90
       33
 90
       10
 90
       49
 90
       10
 90
      156
 90
       48
 90
      156
 90
      156
 90
      173
 90
       47
 90
      173
 90
       25
 90
      173
 90
       25
 90
       50
 90
       20
 90
       25
 90
       20
 90
       52
 90
       20
 90
      186
 90
       54
 90
      186
 90
       19
 90
      186
 90
       19
 90
       56
 90
       19
 90
      185
 90
       75
 90
      185
 90
      165
 90
      185
 90
       77
 90
      165
 90
      165
 90
      184
 90
       79
 90
      184
 90
       18
 90
      184
 90
       18
 90
       98
 90
       17
 90
       18
 90
       17
 90
       97
 90
       17
 90
       26
 90
       26
 90
       95
 90
       26
 90
       27
 90
       27
 90
       94
 90
       27
 90
       28
 90
       28
 90
       93
 90
       28
 90
      187
 90
       92
 90
      187
 90
      174
 90
      187
 90
       96
 90
      174
 90
       16
 90
      174
 90
       16
 90
       90
 90
       15
 90
       16
 90
       15
 90
       88
 90
       15
 90
      172
 90
       86
 90
      172
 90
       24
 90
      172
 90
       24
 90
       83
 90
       24
 90
      189
 90
       45
 90
      189
 90
      189
 90
      194
 90
       59
 90
      194
 90
      134
 90
      194
 90
       61
 90
      134
 90
      134
 90
      195
 90
       63
 90
      195
 90
      138
 90
      195
 90
       72
 90
      138
 90
      138
 90
      139
 90
       70
 90
      139
 90
      139
 90
      192
 90
       68
 90
      192
 90
      141
 90
      192
 90
       66
 90
      141
 90
       23
 90
      141
 90
       23
 90
      103
 90
       23
 90
      171
 90
      105
 90
      171
 90
       22
 90
      171
 90
       22
 90
      107
 90
       22
 90
      170
 90
      109
 90
      170
 90
       29
 90
      170
 90
       29
 90
      113
 90
       29
 90
       30
 90
       30
 90
      112
 90
       30
 90
      175
 90
      111
 90
      175
 90
      175
 90
      176
 90
      110
 90
      176
 90
      169
 90
      176
 90
      114
 90
      169
 90
       41
 90
      169
 90
       41
 90
      132
 90
       41
 90
      168
 90
      131
 90
      168
 90
       40
 90
      168
 90
       40
 90
      129
 90
       40
 90
      167
 90
      127
 90
      167
 90
      167
 90
      183
 90
      125
 90
      183
 90
       21
 90
      183
 90
       21
 90
      123
 90
       21
 90
      166
 90
      121
 90
      166
 90
       31
 90
      166
 90
       31
 90
      119
 90
       31
 90
      177
 90
      117
 90
      177
 90
      163
 90
      177
 90
       44
 90
      142
 90
       58
 90
      143
 90
       60
 90
      144
 90
       62
 90
      145
 90
       64
 90
      146
 90
       67
 90
      147
 90
       69
 90
      148
 90
       71
 90
      149
 90
       73
 90
      150
 90
       74
 90
      151
 90
       37
 90
      140
 90
      136
 90
      153
 90
       36
 90
      197
 90
        2
 90
      191
 90
       35
 90
      196
 90
      135
 90
      190
 90
      137
 90
      180
 90
        1
 90
      133
 90
       34
 90
      193
 90
      152
 90
      188
 90
      152
 90
      189
 90
        0
 90
      189
 90
       10
 90
      173
 90
       25
 90
       33
 90
        9
 90
       20
 90
      154
 90
      186
 90
        8
 90
       19
 90
      188
 90
      189
 90
       34
 90
      194
 90
      193
 90
      194
 90
        1
 90
      134
 90
      133
 90
      134
 90
      180
 90
      195
 90
      140
 90
      141
 90
        3
 90
      141
 90
      136
 90
      192
 90
       37
 90
      141
 90
      139
 90
      197
 90
      153
 90
      192
 90
      138
 90
      191
 90
       36
 90
      139
 90
      138
 90
      196
 90
        2
 90
      138
 90
      137
 90
      195
 90
      190
 90
      195
 90
      135
 90
      195
 90
       35
 90
      138
 90
       38
 90
      185
 90
      155
 90
      165
 90
       39
 90
      184
 90
       14
 90
      189
 90
       42
 90
      189
 90
        4
 90
       24
 90
        5
 90
      189
 90
      172
 90
      179
 90
        7
 90
       15
 90
        6
 90
       16
 90
       16
 90
       39
 90
       26
 90
      187
 90
       17
 90
      174
 90
       16
 90
       18
 90
      141
 90
      164
 90
       43
 90
      141
 90
       12
 90
      141
 90
       11
 90
       23
 90
       32
 90
      171
 90
       22
 90
      157
 90
      158
 90
      170
 90
       29
 90
      176
 90
      169
 90
      170
 90
      162
 90
      177
 90
       31
 90
      178
 90
      161
 90
      166
 90
       21
 90
      160
 90
      182
 90
      183
 90
       13
 90
      167
 90
       40
 90
      181
 90
      159
 90
      168
 90
       41
 90
      158
 95
      415
140
0.0
140
0.0
140
0.0
140
0.0
140
0.0
140
0.0
140
0.0
140
0.0
140
0.0
140
0.0
140
0.0
140
0.0
140
0.0
140
0.0
140
0.0
140
0.0
140
0.0
140
0.0
140
0.0
140
0.0
140
0.0
140
0.0
140
0.0
140
0.0
140
0.0
140
0.0
140
0.0
140
0.0
140
0.0
140
0.0
140
0.0
140
0.0
140
0.0
140
0.0
140
0.0
140
0.0
140
0.0
140
0.0
140
0.0
140
0.0
140
0.0
140
0.0
140
0.0
140
0.0
140
0.0
140
0.0
140
0.0
140
0.0
140
0.0
140
0.0
140
0.0
140
0.0
140
0.0
140
0.0
140
0.0
140
0.0
140
0.0
140
0.0
140
0.0
140
0.0
140
0.0
140
0.0
140
0.0
140
0.0
140
0.0
140
0.0
140
0.0
140
0.0
140
0.0
140
0.0
140
0.0
140
0.0
140
0.0
140
0.0
140
0.0
140
0.0
140
0.0
140
0.0
140
0.0
140
0.0
140
0.0
140
0.0
140
0.0
140
0.0
140
0.0
140
0.0
140
0.0
140
0.0
140
0.0
140
0.0
140
0.0
140
0.0
140
0.0
140
0.0
140
0.0
140
0.0
140
0.0
140
0.0
140
0.0
140
0.0
140
0.0
140
0.0
140
0.0
140
0.0
140
0.0
140
0.0
140
0.0
140
0.0
140
0.0
140
0.0
140
0.0
140
0.0
140
0.0
140
0.0
140
0.0
140
0.0
140
0.0
140
0.0
140
0.0
140
0.0
140
0.0
140
0.0
140
0.0
140
0.0
140
0.0
140
0.0
140
0.0
140
0.0
140
0.0
140
0.0
140
0.0
140
0.0
140
0.0
140
0.0
140
0.0
140
0.0
140
0.0
140
0.0
140
0.0
140
0.0
140
0.0
140
0.0
140
0.0
140
0.0
140
0.0
140
0.0
140
0.0
140
0.0
140
0.0
140
0.0
140
0.0
140
0.0
140
0.0
140
0.0
140
0.0
140
0.0
140
0.0
140
0.0
140
0.0
140
0.0
140
0.0
140
0.0
140
0.0
140
0.0
140
0.0
140
0.0
140
0.0
140
0.0
140
0.0
140
0.0
140
0.0
140
0.0
140
0.0
140
0.0
140
0.0
140
0.0
140
0.0
140
0.0
140
0.0
140
0.0
140
0.0
140
0.0
140
0.0
140
0.0
140
0.0
140
0.0
140
0.0
140
0.0
140
0.0
140
0.0
140
0.0
140
0.0
140
0.0
140
0.0
140
0.0
140
0.0
140
0.0
140
0.0
140
0.0
140
0.0
140
0.0
140
0.0
140
0.0
140
0.0
140
0.0
140
0.0
140
0.0
140
0.0
140
0.0
140
0.0
140
0.0
140
0.0
140
0.0
140
0.0
140
0.0
140
0.0
140
0.0
140
0.0
140
0.0
140
0.0
140
0.0
140
0.0
140
0.0
140
0.0
140
0.0
140
0.0
140
0.0
140
0.0
140
0.0
140
0.0
140
0.0
140
0.0
140
0.0
140
0.0
140
0.0
140
0.0
140
0.0
140
0.0
140
0.0
140
0.0
140
0.0
140
0.0
140
0.0
140
0.0
140
0.0
140
0.0
140
0.0
140
0.0
140
0.0
140
0.0
140
0.0
140
0.0
140
0.0
140
0.0
140
0.0
140
0.0
140
0.0
140
0.0
140
0.0
140
0.0
140
0.0
140
0.0
140
0.0
140
0.0
140
0.0
140
0.0
140
0.0
140
0.0
140
0.0
140
0.0
140
0.0
140
0.0
140
0.0
140
0.0
140
0.0
140
0.0
140
0.0
140
0.0
140
0.0
140
0.0
140
0.0
140
0.0
140
0.0
140
0.0
140
0.0
140
0.0
140
0.0
140
0.0
140
0.0
140
0.0
140
0.0
140
0.0
140
0.0
140
0.0
140
0.0
140
0.0
140
0.0
140
0.0
140
0.0
140
0.0
140
0.0
140
0.0
140
0.0
140
0.0
140
0.0
140
0.0
140
0.0
140
0.0
140
0.0
140
0.0
140
0.0
140
0.0
140
0.0
140
0.0
140
0.0
140
0.0
140
0.0
140
0.0
140
0.0
140
0.0
140
0.0
140
0.0
140
0.0
140
0.0
140
0.0
140
0.0
140
0.0
140
0.0
140
0.0
140
0.0
140
0.0
140
0.0
140
0.0
140
0.0
140
0.0
140
0.0
140
0.0
140
0.0
140
0.0
140
0.0
140
0.0
140
0.0
140
0.0
140
0.0
140
0.0
140
0.0
140
0.0
140
0.0
140
0.0
140
0.0
140
0.0
140
0.0
140
0.0
140
0.0
140
0.0
140
0.0
140
0.0
140
0.0
140
0.0
140
0.0
140
0.0
140
0.0
140
0.0
140
0.0
140
0.0
140
0.0
140
0.0
140
0.0
140
0.0
140
0.0
140
0.0
140
0.0
140
0.0
140
0.0
140
0.0
140
0.0
140
0.0
140
0.0
140
0.0
140
0.0
140
0.0
140
0.0
140
0.0
140
0.0
140
0.0
140
0.0
140
0.0
140
0.0
140
0.0
140
0.0
140
0.0
140
0.0
140
0.0
140
0.0
140
0.0
140
0.0
140
0.0
140
0.0
140
0.0
140
0.0
140
0.0
140
0.0
140
0.0
140
0.0
140
0.0
140
0.0
140
0.0
140
0.0
140
0.0
140
0.0
140
0.0
140
0.0
140
0.0
140
0.0
140
0.0
 90
        0
  0
POLYLINE
  5
FA
330
1F
100
AcDbEntity
  8
OracDecor_panel_moldings
 62
   236
420
  9242426
100
AcDb3dPolyline
 66
     1
 10
0.0
 20
0.0
 30
0.0
 70
     9
  0
VERTEX
  5
FB
330
FA
100
AcDbEntity
  8
OracDecor_panel_moldings
 62
   236
420
  9242426
100
AcDbVertex
100
AcDb3dPolylineVertex
 10
-26.65120887756348
 20
15.01228904724121
 30
11.50911712646484
 70
    32
  0
VERTEX
  5
FC
330
FA
100
AcDbEntity
  8
OracDecor_panel_moldings
 62
   236
420
  9242426
100
AcDbVertex
100
AcDb3dPolylineVertex
 10
-26.65120506286621
 20
12.71638488769531
 30
10.25017738342285
 70
    32
  0
VERTEX
  5
FD
330
FA
100
AcDbEntity
  8
OracDecor_panel_moldings
 62
   236
420
  9242426
100
AcDbVertex
100
AcDb3dPolylineVertex
 10
-26.65120506286621
 20
12.40407943725586
 30
10.03258609771728
 70
    32
  0
VERTEX
  5
FE
330
FA
100
AcDbEntity
  8
OracDecor_panel_moldings
 62
   236
420
  9242426
100
AcDbVertex
100
AcDb3dPolylineVertex
 10
-26.65120506286621
 20
12.12008857727051
 30
9.652437210083007
 70
    32
  0
VERTEX
  5
FF
330
FA
100
AcDbEntity
  8
OracDecor_panel_moldings
 62
   236
420
  9242426
100
AcDbVertex
100
AcDb3dPolylineVertex
 10
-26.65120506286621
 20
12.0000114440918
 30
9.291241645812988
 70
    32
  0
VERTEX
  5
100
330
FA
100
AcDbEntity
  8
OracDecor_panel_moldings
 62
   236
420
  9242426
100
AcDbVertex
100
AcDb3dPolylineVertex
 10
-26.65120506286621
 20
12.00001335144043
 30
5.155891418457031
 70
    32
  0
VERTEX
  5
101
330
FA
100
AcDbEntity
  8
OracDecor_panel_moldings
 62
   236
420
  9242426
100
AcDbVertex
100
AcDb3dPolylineVertex
 10
-26.65120506286621
 20
11.88297939300537
 30
4.834541320800781
 70
    32
  0
VERTEX
  5
102
330
FA
100
AcDbEntity
  8
OracDecor_panel_moldings
 62
   236
420
  9242426
100
AcDbVertex
100
AcDb3dPolylineVertex
 10
-26.65120506286621
 20
11.58683681488037
 30
4.66348648071289
 70
    32
  0
VERTEX
  5
103
330
FA
100
AcDbEntity
  8
OracDecor_panel_moldings
 62
   236
420
  9242426
100
AcDbVertex
100
AcDb3dPolylineVertex
 10
-26.65120506286621
 20
10.66000938415527
 30
4.500062942504882
 70
    32
  0
VERTEX
  5
104
330
FA
100
AcDbEntity
  8
OracDecor_panel_moldings
 62
   236
420
  9242426
100
AcDbVertex
100
AcDb3dPolylineVertex
 10
-26.65120506286621
 20
9.665872573852539
 30
4.070869445800781
 70
    32
  0
VERTEX
  5
105
330
FA
100
AcDbEntity
  8
OracDecor_panel_moldings
 62
   236
420
  9242426
100
AcDbVertex
100
AcDb3dPolylineVertex
 10
-26.65120506286621
 20
9.041520118713378
 30
3.605903625488281
 70
    32
  0
VERTEX
  5
106
330
FA
100
AcDbEntity
  8
OracDecor_panel_moldings
 62
   236
420
  9242426
100
AcDbVertex
100
AcDb3dPolylineVertex
 10
-26.65120506286621
 20
8.599534034729003
 30
3.079164505004882
 70
    32
  0
VERTEX
  5
107
330
FA
100
AcDbEntity
  8
OracDecor_panel_moldings
 62
   236
420
  9242426
100
AcDbVertex
100
AcDb3dPolylineVertex
 10
-26.65120506286621
 20
8.250052452087402
 30
2.383558273315429
 70
    32
  0
VERTEX
  5
108
330
FA
100
AcDbEntity
  8
OracDecor_panel_moldings
 62
   236
420
  9242426
100
AcDbVertex
100
AcDb3dPolylineVertex
 10
-26.65120506286621
 20
8.000009536743164
 30
1.329994201660156
 70
    32
  0
VERTEX
  5
109
330
FA
100
AcDbEntity
  8
OracDecor_panel_moldings
 62
   236
420
  9242426
100
AcDbVertex
100
AcDb3dPolylineVertex
 10
-26.65120506286621
 20
8.000009536743164
 30
0.8279266357421875
 70
    32
  0
VERTEX
  5
10A
330
FA
100
AcDbEntity
  8
OracDecor_panel_moldings
 62
   236
420
  9242426
100
AcDbVertex
100
AcDb3dPolylineVertex
 10
-26.65120506286621
 20
7.861191749572753
 30
0.4821720123291016
 70
    32
  0
VERTEX
  5
10B
330
FA
100
AcDbEntity
  8
OracDecor_panel_moldings
 62
   236
420
  9242426
100
AcDbVertex
100
AcDb3dPolylineVertex
 10
-26.65120506286621
 20
7.521819114685058
 30
0.3284034729003906
 70
    32
  0
VERTEX
  5
10C
330
FA
100
AcDbEntity
  8
OracDecor_panel_moldings
 62
   236
420
  9242426
100
AcDbVertex
100
AcDb3dPolylineVertex
 10
-26.65120506286621
 20
0.0000100135803223
 30
-0.0000057220458984
 70
    32
  0
VERTEX
  5
10D
330
FA
100
AcDbEntity
  8
OracDecor_panel_moldings
 62
   236
420
  9242426
100
AcDbVertex
100
AcDb3dPolylineVertex
 10
-26.65120506286621
 20
0.0000100135803223
 30
2.928762435913085
 70
    32
  0
VERTEX
  5
10E
330
FA
100
AcDbEntity
  8
OracDecor_panel_moldings
 62
   236
420
  9242426
100
AcDbVertex
100
AcDb3dPolylineVertex
 10
-26.65120506286621
 20
0.0765151977539063
 30
3.19456672668457
 70
    32
  0
VERTEX
  5
10F
330
FA
100
AcDbEntity
  8
OracDecor_panel_moldings
 62
   236
420
  9242426
100
AcDbVertex
100
AcDb3dPolylineVertex
 10
-26.65120506286621
 20
0.282618522644043
 30
3.379030227661132
 70
    32
  0
VERTEX
  5
110
330
FA
100
AcDbEntity
  8
OracDecor_panel_moldings
 62
   236
420
  9242426
100
AcDbVertex
100
AcDb3dPolylineVertex
 10
-26.65120506286621
 20
0.83787202835083
 30
3.875825881958007
 70
    32
  0
VERTEX
  5
111
330
FA
100
AcDbEntity
  8
OracDecor_panel_moldings
 62
   236
420
  9242426
100
AcDbVertex
100
AcDb3dPolylineVertex
 10
-26.65120506286621
 20
1.093371868133544
 30
4.282760620117187
 70
    32
  0
VERTEX
  5
112
330
FA
100
AcDbEntity
  8
OracDecor_panel_moldings
 62
   236
420
  9242426
100
AcDbVertex
100
AcDb3dPolylineVertex
 10
-26.65120506286621
 20
1.230747699737548
 30
4.759761810302734
 70
    32
  0
VERTEX
  5
113
330
FA
100
AcDbEntity
  8
OracDecor_panel_moldings
 62
   236
420
  9242426
100
AcDbVertex
100
AcDb3dPolylineVertex
 10
-26.65120506286621
 20
1.230747699737548
 30
5.240232467651367
 70
    32
  0
VERTEX
  5
114
330
FA
100
AcDbEntity
  8
OracDecor_panel_moldings
 62
   236
420
  9242426
100
AcDbVertex
100
AcDb3dPolylineVertex
 10
-26.65120506286621
 20
1.093371868133544
 30
5.717233657836914
 70
    32
  0
VERTEX
  5
115
330
FA
100
AcDbEntity
  8
OracDecor_panel_moldings
 62
   236
420
  9242426
100
AcDbVertex
100
AcDb3dPolylineVertex
 10
-26.65120506286621
 20
0.83787202835083
 30
6.124165534973144
 70
    32
  0
VERTEX
  5
116
330
FA
100
AcDbEntity
  8
OracDecor_panel_moldings
 62
   236
420
  9242426
100
AcDbVertex
100
AcDb3dPolylineVertex
 10
-26.65120506286621
 20
0.2826204299926758
 30
6.620961189270019
 70
    32
  0
VERTEX
  5
117
330
FA
100
AcDbEntity
  8
OracDecor_panel_moldings
 62
   236
420
  9242426
100
AcDbVertex
100
AcDb3dPolylineVertex
 10
-26.65120506286621
 20
0.0765166282653809
 30
6.805423736572265
 70
    32
  0
VERTEX
  5
118
330
FA
100
AcDbEntity
  8
OracDecor_panel_moldings
 62
   236
420
  9242426
100
AcDbVertex
100
AcDb3dPolylineVertex
 10
-26.65120506286621
 20
0.0000114440917969
 30
7.071228981018066
 70
    32
  0
VERTEX
  5
119
330
FA
100
AcDbEntity
  8
OracDecor_panel_moldings
 62
   236
420
  9242426
100
AcDbVertex
100
AcDb3dPolylineVertex
 10
-26.65120506286621
 20
0.0000114440917969
 30
9.042705535888671
 70
    32
  0
VERTEX
  5
11A
330
FA
100
AcDbEntity
  8
OracDecor_panel_moldings
 62
   236
420
  9242426
100
AcDbVertex
100
AcDb3dPolylineVertex
 10
-26.65120506286621
 20
0.1845016479492187
 30
9.502219200134277
 70
    32
  0
VERTEX
  5
11B
330
FA
100
AcDbEntity
  8
OracDecor_panel_moldings
 62
   236
420
  9242426
100
AcDbVertex
100
AcDb3dPolylineVertex
 10
-26.65120506286621
 20
0.5053634643554688
 30
9.837394714355468
 70
    32
  0
VERTEX
  5
11C
330
FA
100
AcDbEntity
  8
OracDecor_panel_moldings
 62
   236
420
  9242426
100
AcDbVertex
100
AcDb3dPolylineVertex
 10
-26.65120506286621
 20
0.9563922882080078
 30
10.04175281524658
 70
    32
  0
VERTEX
  5
11D
330
FA
100
AcDbEntity
  8
OracDecor_panel_moldings
 62
   236
420
  9242426
100
AcDbVertex
100
AcDb3dPolylineVertex
 10
-26.65120506286621
 20
3.786386489868164
 30
10.16531372070312
 70
    32
  0
VERTEX
  5
11E
330
FA
100
AcDbEntity
  8
OracDecor_panel_moldings
 62
   236
420
  9242426
100
AcDbVertex
100
AcDb3dPolylineVertex
 10
-26.65120506286621
 20
4.012626647949218
 30
10.23083972930908
 70
    32
  0
VERTEX
  5
11F
330
FA
100
AcDbEntity
  8
OracDecor_panel_moldings
 62
   236
420
  9242426
100
AcDbVertex
100
AcDb3dPolylineVertex
 10
-26.65120506286621
 20
4.183912277221679
 30
10.39251804351806
 70
    32
  0
VERTEX
  5
120
330
FA
100
AcDbEntity
  8
OracDecor_panel_moldings
 62
   236
420
  9242426
100
AcDbVertex
100
AcDb3dPolylineVertex
 10
-26.65120697021484
 20
6.082973480224609
 30
13.31681442260742
 70
    32
  0
VERTEX
  5
121
330
FA
100
AcDbEntity
  8
OracDecor_panel_moldings
 62
   236
420
  9242426
100
AcDbVertex
100
AcDb3dPolylineVertex
 10
-26.65120697021484
 20
7.140063762664794
 30
15.34756565093994
 70
    32
  0
VERTEX
  5
122
330
FA
100
AcDbEntity
  8
OracDecor_panel_moldings
 62
   236
420
  9242426
100
AcDbVertex
100
AcDb3dPolylineVertex
 10
-26.65120697021484
 20
7.779586791992187
 30
16.93062019348144
 70
    32
  0
VERTEX
  5
123
330
FA
100
AcDbEntity
  8
OracDecor_panel_moldings
 62
   236
420
  9242426
100
AcDbVertex
100
AcDb3dPolylineVertex
 10
-26.65120697021484
 20
8.210344314575195
 30
19.14689826965332
 70
    32
  0
VERTEX
  5
124
330
FA
100
AcDbEntity
  8
OracDecor_panel_moldings
 62
   236
420
  9242426
100
AcDbVertex
100
AcDb3dPolylineVertex
 10
-26.65120697021484
 20
8.210344314575195
 30
20.85309410095215
 70
    32
  0
VERTEX
  5
125
330
FA
100
AcDbEntity
  8
OracDecor_panel_moldings
 62
   236
420
  9242426
100
AcDbVertex
100
AcDb3dPolylineVertex
 10
-26.65120506286621
 20
7.77958869934082
 30
23.06937217712402
 70
    32
  0
VERTEX
  5
126
330
FA
100
AcDbEntity
  8
OracDecor_panel_moldings
 62
   236
420
  9242426
100
AcDbVertex
100
AcDb3dPolylineVertex
 10
-26.65120506286621
 20
7.140065193176269
 30
24.65242767333985
 70
    32
  0
VERTEX
  5
127
330
FA
100
AcDbEntity
  8
OracDecor_panel_moldings
 62
   236
420
  9242426
100
AcDbVertex
100
AcDb3dPolylineVertex
 10
-26.65120506286621
 20
6.082973957061767
 30
26.68317604064942
 70
    32
  0
VERTEX
  5
128
330
FA
100
AcDbEntity
  8
OracDecor_panel_moldings
 62
   236
420
  9242426
100
AcDbVertex
100
AcDb3dPolylineVertex
 10
-26.65120315551758
 20
4.183911323547363
 30
29.60747909545899
 70
    32
  0
VERTEX
  5
129
330
FA
100
AcDbEntity
  8
OracDecor_panel_moldings
 62
   236
420
  9242426
100
AcDbVertex
100
AcDb3dPolylineVertex
 10
-26.65120315551758
 20
4.012626647949218
 30
29.76915740966797
 70
    32
  0
VERTEX
  5
12A
330
FA
100
AcDbEntity
  8
OracDecor_panel_moldings
 62
   236
420
  9242426
100
AcDbVertex
100
AcDb3dPolylineVertex
 10
-26.65120315551758
 20
3.78638744354248
 30
29.83468055725098
 70
    32
  0
VERTEX
  5
12B
330
FA
100
AcDbEntity
  8
OracDecor_panel_moldings
 62
   236
420
  9242426
100
AcDbVertex
100
AcDb3dPolylineVertex
 10
-26.65120506286621
 20
0.9563922882080078
 30
29.95824432373047
 70
    32
  0
VERTEX
  5
12C
330
FA
100
AcDbEntity
  8
OracDecor_panel_moldings
 62
   236
420
  9242426
100
AcDbVertex
100
AcDb3dPolylineVertex
 10
-26.65120506286621
 20
0.2776474952697754
 30
30.26577568054199
 70
    32
  0
VERTEX
  5
12D
330
FA
100
AcDbEntity
  8
OracDecor_panel_moldings
 62
   236
420
  9242426
100
AcDbVertex
100
AcDb3dPolylineVertex
 10
-26.65120506286621
 20
0.0000114440917969
 30
30.95728874206543
 70
    32
  0
VERTEX
  5
12E
330
FA
100
AcDbEntity
  8
OracDecor_panel_moldings
 62
   236
420
  9242426
100
AcDbVertex
100
AcDb3dPolylineVertex
 10
-26.65120506286621
 20
0.0000100135803223
 30
32.92876434326172
 70
    32
  0
VERTEX
  5
12F
330
FA
100
AcDbEntity
  8
OracDecor_panel_moldings
 62
   236
420
  9242426
100
AcDbVertex
100
AcDb3dPolylineVertex
 10
-26.65120506286621
 20
0.0765151977539063
 30
33.19456863403321
 70
    32
  0
VERTEX
  5
130
330
FA
100
AcDbEntity
  8
OracDecor_panel_moldings
 62
   236
420
  9242426
100
AcDbVertex
100
AcDb3dPolylineVertex
 10
-26.65120506286621
 20
0.2826189994812012
 30
33.37903213500977
 70
    32
  0
VERTEX
  5
131
330
FA
100
AcDbEntity
  8
OracDecor_panel_moldings
 62
   236
420
  9242426
100
AcDbVertex
100
AcDb3dPolylineVertex
 10
-26.65120506286621
 20
0.8378705978393554
 30
33.87582778930664
 70
    32
  0
VERTEX
  5
132
330
FA
100
AcDbEntity
  8
OracDecor_panel_moldings
 62
   236
420
  9242426
100
AcDbVertex
100
AcDb3dPolylineVertex
 10
-26.65120506286621
 20
1.09337043762207
 30
34.28276062011719
 70
    32
  0
VERTEX
  5
133
330
FA
100
AcDbEntity
  8
OracDecor_panel_moldings
 62
   236
420
  9242426
100
AcDbVertex
100
AcDb3dPolylineVertex
 10
-26.65120506286621
 20
1.230746269226074
 30
34.75975799560547
 70
    32
  0
VERTEX
  5
134
330
FA
100
AcDbEntity
  8
OracDecor_panel_moldings
 62
   236
420
  9242426
100
AcDbVertex
100
AcDb3dPolylineVertex
 10
-26.65120506286621
 20
1.230745792388916
 30
35.24023056030273
 70
    32
  0
VERTEX
  5
135
330
FA
100
AcDbEntity
  8
OracDecor_panel_moldings
 62
   236
420
  9242426
100
AcDbVertex
100
AcDb3dPolylineVertex
 10
-26.65120506286621
 20
1.093369960784912
 30
35.71723175048828
 70
    32
  0
VERTEX
  5
136
330
FA
100
AcDbEntity
  8
OracDecor_panel_moldings
 62
   236
420
  9242426
100
AcDbVertex
100
AcDb3dPolylineVertex
 10
-26.65120506286621
 20
0.8378701210021972
 30
36.12416076660156
 70
    32
  0
VERTEX
  5
137
330
FA
100
AcDbEntity
  8
OracDecor_panel_moldings
 62
   236
420
  9242426
100
AcDbVertex
100
AcDb3dPolylineVertex
 10
-26.65120506286621
 20
0.2826204299926758
 30
36.62095642089844
 70
    32
  0
VERTEX
  5
138
330
FA
100
AcDbEntity
  8
OracDecor_panel_moldings
 62
   236
420
  9242426
100
AcDbVertex
100
AcDb3dPolylineVertex
 10
-26.65120506286621
 20
0.0765161514282227
 30
36.805419921875
 70
    32
  0
VERTEX
  5
139
330
FA
100
AcDbEntity
  8
OracDecor_panel_moldings
 62
   236
420
  9242426
100
AcDbVertex
100
AcDb3dPolylineVertex
 10
-26.65120506286621
 20
0.0000109672546387
 30
37.07122421264648
 70
    32
  0
VERTEX
  5
13A
330
FA
100
AcDbEntity
  8
OracDecor_panel_moldings
 62
   236
420
  9242426
100
AcDbVertex
100
AcDb3dPolylineVertex
 10
-26.65120506286621
 20
0.0000114440917969
 30
39.99999237060547
 70
    32
  0
VERTEX
  5
13B
330
FA
100
AcDbEntity
  8
OracDecor_panel_moldings
 62
   236
420
  9242426
100
AcDbVertex
100
AcDb3dPolylineVertex
 10
-26.65121269226074
 20
7.521817207336425
 30
39.67158508300781
 70
    32
  0
VERTEX
  5
13C
330
FA
100
AcDbEntity
  8
OracDecor_panel_moldings
 62
   236
420
  9242426
100
AcDbVertex
100
AcDb3dPolylineVertex
 10
-26.65121269226074
 20
7.861189842224121
 30
39.51781463623047
 70
    32
  0
VERTEX
  5
13D
330
FA
100
AcDbEntity
  8
OracDecor_panel_moldings
 62
   236
420
  9242426
100
AcDbVertex
100
AcDb3dPolylineVertex
 10
-26.65121269226074
 20
8.000007629394531
 30
39.17205810546875
 70
    32
  0
VERTEX
  5
13E
330
FA
100
AcDbEntity
  8
OracDecor_panel_moldings
 62
   236
420
  9242426
100
AcDbVertex
100
AcDb3dPolylineVertex
 10
-26.65121269226074
 20
8.000007629394531
 30
38.66999053955078
 70
    32
  0
VERTEX
  5
13F
330
FA
100
AcDbEntity
  8
OracDecor_panel_moldings
 62
   236
420
  9242426
100
AcDbVertex
100
AcDb3dPolylineVertex
 10
-26.65121269226074
 20
8.25015640258789
 30
37.61454010009766
 70
    32
  0
VERTEX
  5
140
330
FA
100
AcDbEntity
  8
OracDecor_panel_moldings
 62
   236
420
  9242426
100
AcDbVertex
100
AcDb3dPolylineVertex
 10
-26.65121269226074
 20
8.599515914916992
 30
36.91890716552734
 70
    32
  0
VERTEX
  5
141
330
FA
100
AcDbEntity
  8
OracDecor_panel_moldings
 62
   236
420
  9242426
100
AcDbVertex
100
AcDb3dPolylineVertex
 10
-26.65121269226074
 20
9.039627075195312
 30
36.39440155029297
 70
    32
  0
VERTEX
  5
142
330
FA
100
AcDbEntity
  8
OracDecor_panel_moldings
 62
   236
420
  9242426
100
AcDbVertex
100
AcDb3dPolylineVertex
 10
-26.65121269226074
 20
9.664028167724609
 30
35.92955398559571
 70
    32
  0
VERTEX
  5
143
330
FA
100
AcDbEntity
  8
OracDecor_panel_moldings
 62
   236
420
  9242426
100
AcDbVertex
100
AcDb3dPolylineVertex
 10
-26.65121269226074
 20
10.66000938415527
 30
35.49993133544922
 70
    32
  0
VERTEX
  5
144
330
FA
100
AcDbEntity
  8
OracDecor_panel_moldings
 62
   236
420
  9242426
100
AcDbVertex
100
AcDb3dPolylineVertex
 10
-26.65121269226074
 20
11.58683586120605
 30
35.33650588989258
 70
    32
  0
VERTEX
  5
145
330
FA
100
AcDbEntity
  8
OracDecor_panel_moldings
 62
   236
420
  9242426
100
AcDbVertex
100
AcDb3dPolylineVertex
 10
-26.65121269226074
 20
11.88297843933105
 30
35.16545104980469
 70
    32
  0
VERTEX
  5
146
330
FA
100
AcDbEntity
  8
OracDecor_panel_moldings
 62
   236
420
  9242426
100
AcDbVertex
100
AcDb3dPolylineVertex
 10
-26.65121269226074
 20
12.0000114440918
 30
34.84410095214844
 70
    32
  0
VERTEX
  5
147
330
FA
100
AcDbEntity
  8
OracDecor_panel_moldings
 62
   236
420
  9242426
100
AcDbVertex
100
AcDb3dPolylineVertex
 10
-26.65121269226074
 20
12.00001335144043
 30
30.7087574005127
 70
    32
  0
VERTEX
  5
148
330
FA
100
AcDbEntity
  8
OracDecor_panel_moldings
 62
   236
420
  9242426
100
AcDbVertex
100
AcDb3dPolylineVertex
 10
-26.65121269226074
 20
12.12009048461914
 30
30.34756469726563
 70
    32
  0
VERTEX
  5
149
330
FA
100
AcDbEntity
  8
OracDecor_panel_moldings
 62
   236
420
  9242426
100
AcDbVertex
100
AcDb3dPolylineVertex
 10
-26.65121269226074
 20
12.40408134460449
 30
29.9674129486084
 70
    32
  0
VERTEX
  5
14A
330
FA
100
AcDbEntity
  8
OracDecor_panel_moldings
 62
   236
420
  9242426
100
AcDbVertex
100
AcDb3dPolylineVertex
 10
-26.65120887756348
 20
12.71638679504394
 30
29.74982452392578
 70
    32
  0
VERTEX
  5
14B
330
FA
100
AcDbEntity
  8
OracDecor_panel_moldings
 62
   236
420
  9242426
100
AcDbVertex
100
AcDb3dPolylineVertex
 10
-26.65120697021484
 20
15.00613594055176
 30
28.49538612365723
 70
    32
  0
VERTEX
  5
14C
330
FA
100
AcDbEntity
  8
OracDecor_panel_moldings
 62
   236
420
  9242426
100
AcDbVertex
100
AcDb3dPolylineVertex
 10
-26.65120697021484
 20
15.90385055541992
 30
27.87060356140137
 70
    32
  0
VERTEX
  5
14D
330
FA
100
AcDbEntity
  8
OracDecor_panel_moldings
 62
   236
420
  9242426
100
AcDbVertex
100
AcDb3dPolylineVertex
 10
-26.65120697021484
 20
16.77058982849121
 30
27.1182861328125
 70
    32
  0
VERTEX
  5
14E
330
FA
100
AcDbEntity
  8
OracDecor_panel_moldings
 62
   236
420
  9242426
100
AcDbVertex
100
AcDb3dPolylineVertex
 10
-26.65120697021484
 20
17.51541709899902
 30
26.31736373901367
 70
    32
  0
VERTEX
  5
14F
330
FA
100
AcDbEntity
  8
OracDecor_panel_moldings
 62
   236
420
  9242426
100
AcDbVertex
100
AcDb3dPolylineVertex
 10
-26.65120887756348
 20
18.06197166442871
 30
25.5867977142334
 70
    32
  0
VERTEX
  5
150
330
FA
100
AcDbEntity
  8
OracDecor_panel_moldings
 62
   236
420
  9242426
100
AcDbVertex
100
AcDb3dPolylineVertex
 10
-26.65120887756348
 20
18.62001419067382
 30
24.64614677429199
 70
    32
  0
VERTEX
  5
151
330
FA
100
AcDbEntity
  8
OracDecor_panel_moldings
 62
   236
420
  9242426
100
AcDbVertex
100
AcDb3dPolylineVertex
 10
-26.65120887756348
 20
19.09697723388672
 30
23.60227394104004
 70
    32
  0
VERTEX
  5
152
330
FA
100
AcDbEntity
  8
OracDecor_panel_moldings
 62
   236
420
  9242426
100
AcDbVertex
100
AcDb3dPolylineVertex
 10
-26.65120887756348
 20
19.44282722473144
 30
22.56466865539551
 70
    32
  0
VERTEX
  5
153
330
FA
100
AcDbEntity
  8
OracDecor_panel_moldings
 62
   236
420
  9242426
100
AcDbVertex
100
AcDb3dPolylineVertex
 10
-26.65121078491211
 20
19.63751029968262
 30
21.67268371582031
 70
    32
  0
VERTEX
  5
154
330
FA
100
AcDbEntity
  8
OracDecor_panel_moldings
 62
   236
420
  9242426
100
AcDbVertex
100
AcDb3dPolylineVertex
 10
-26.65121078491211
 20
19.75532150268555
 30
20.5853328704834
 70
    32
  0
VERTEX
  5
155
330
FA
100
AcDbEntity
  8
OracDecor_panel_moldings
 62
   236
420
  9242426
100
AcDbVertex
100
AcDb3dPolylineVertex
 10
-26.65121078491211
 20
19.75643157958984
 30
19.4377555847168
 70
    32
  0
VERTEX
  5
156
330
FA
100
AcDbEntity
  8
OracDecor_panel_moldings
 62
   236
420
  9242426
100
AcDbVertex
100
AcDb3dPolylineVertex
 10
-26.65121078491211
 20
19.64072608947754
 30
18.35017967224121
 70
    32
  0
VERTEX
  5
157
330
FA
100
AcDbEntity
  8
OracDecor_panel_moldings
 62
   236
420
  9242426
100
AcDbVertex
100
AcDb3dPolylineVertex
 10
-26.65121078491211
 20
19.44616508483887
 30
17.45037269592285
 70
    32
  0
VERTEX
  5
158
330
FA
100
AcDbEntity
  8
OracDecor_panel_moldings
 62
   236
420
  9242426
100
AcDbVertex
100
AcDb3dPolylineVertex
 10
-26.65121078491211
 20
19.10212707519531
 30
16.41218757629394
 70
    32
  0
VERTEX
  5
159
330
FA
100
AcDbEntity
  8
OracDecor_panel_moldings
 62
   236
420
  9242426
100
AcDbVertex
100
AcDb3dPolylineVertex
 10
-26.65121078491211
 20
18.62685775756836
 30
15.36775207519531
 70
    32
  0
VERTEX
  5
15A
330
FA
100
AcDbEntity
  8
OracDecor_panel_moldings
 62
   236
420
  9242426
100
AcDbVertex
100
AcDb3dPolylineVertex
 10
-26.65121078491211
 20
18.07009696960449
 30
14.42637062072754
 70
    32
  0
VERTEX
  5
15B
330
FA
100
AcDbEntity
  8
OracDecor_panel_moldings
 62
   236
420
  9242426
100
AcDbVertex
100
AcDb3dPolylineVertex
 10
-26.65120887756348
 20
17.51969337463379
 30
13.68887901306152
 70
    32
  0
VERTEX
  5
15C
330
FA
100
AcDbEntity
  8
OracDecor_panel_moldings
 62
   236
420
  9242426
100
AcDbVertex
100
AcDb3dPolylineVertex
 10
-26.65120887756348
 20
16.77565193176269
 30
12.88726043701172
 70
    32
  0
VERTEX
  5
15D
330
FA
100
AcDbEntity
  8
OracDecor_panel_moldings
 62
   236
420
  9242426
100
AcDbVertex
100
AcDb3dPolylineVertex
 10
-26.65120887756348
 20
15.90962600708008
 30
12.1343994140625
 70
    32
  0
SEQEND
  5
15E
330
FA
100
AcDbEntity
  8
OracDecor_panel_moldings
 62
   236
420
  9242426
  0
ENDSEC
  0
SECTION
  2
OBJECTS
  0
DICTIONARY
  5
C
330
0
100
AcDbDictionary
281
     1
  3
ACAD_COLOR
350
DC
  3
ACAD_DETAILVIEWSTYLE
350
F5
  3
ACAD_GROUP
350
D
  3
ACAD_LAYOUT
350
1A
  3
ACAD_MATERIAL
350
AA
  3
ACAD_MLEADERSTYLE
350
F1
  3
ACAD_MLINESTYLE
350
17
  3
ACAD_PLOTSETTINGS
350
19
  3
ACAD_PLOTSTYLENAME
350
E
  3
ACAD_SCALELIST
350
DF
  3
ACAD_SECTIONVIEWSTYLE
350
F3
  3
ACAD_TABLESTYLE
350
DD
  3
ACAD_VISUALSTYLE
350
C3
  3
ACDB_RECOMPOSE_DATA
350
16B
  3
AcDbVariableDictionary
350
15F
  0
DICTIONARY
  5
DC
102
{ACAD_REACTORS
330
C
102
}
330
C
100
AcDbDictionary
281
     1
  0
DICTIONARY
  5
F5
102
{ACAD_REACTORS
330
C
102
}
330
C
100
AcDbDictionary
281
     1
  3
Imperial24
350
F6
  0
DICTIONARY
  5
D
102
{ACAD_REACTORS
330
C
102
}
330
C
100
AcDbDictionary
281
     1
  0
DICTIONARY
  5
1A
102
{ACAD_REACTORS
330
C
102
}
330
C
100
AcDbDictionary
281
     1
  3
Layout1
350
1E
  3
Layout2
350
26
  3
Model
350
22
  0
DICTIONARY
  5
AA
102
{ACAD_REACTORS
330
C
102
}
330
C
100
AcDbDictionary
281
     1
  3
ByBlock
350
B3
  3
ByLayer
350
AB
  3
Global
350
BB
  0
DICTIONARY
  5
F1
102
{ACAD_REACTORS
330
C
102
}
330
C
100
AcDbDictionary
281
     1
  3
Standard
350
F2
  0
DICTIONARY
  5
17
102
{ACAD_REACTORS
330
C
102
}
330
C
100
AcDbDictionary
281
     1
  3
Standard
350
18
  0
DICTIONARY
  5
19
102
{ACAD_REACTORS
330
C
102
}
330
C
100
AcDbDictionary
281
     1
  0
ACDBDICTIONARYWDFLT
  5
E
102
{ACAD_REACTORS
330
C
102
}
330
C
100
AcDbDictionary
281
     1
  3
ByLayer
350
2D
  3
Normal
350
F
100
AcDbDictionaryWithDefault
340
F
  0
DICTIONARY
  5
DF
102
{ACAD_REACTORS
330
C
102
}
330
C
100
AcDbDictionary
281
     1
  3
A0
350
E0
  3
A1
350
E1
  3
A2
350
E2
  3
A3
350
E3
  3
A4
350
E4
  3
A5
350
E5
  3
A6
350
E6
  3
A7
350
E7
  3
A8
350
E8
  3
A9
350
E9
  3
B0
350
EA
  3
B1
350
EB
  3
B2
350
EC
  3
B3
350
ED
  3
B4
350
EE
  3
B5
350
EF
  3
B6
350
F0
  0
DICTIONARY
  5
F3
102
{ACAD_REACTORS
330
C
102
}
330
C
100
AcDbDictionary
281
     1
  3
Imperial24
350
F4
  0
DICTIONARY
  5
DD
102
{ACAD_REACTORS
330
C
102
}
330
C
100
AcDbDictionary
281
     1
  3
Standard
350
DE
  0
DICTIONARY
  5
C3
102
{ACAD_REACTORS
330
C
102
}
330
C
100
AcDbDictionary
281
     1
  3
2dWireframe
350
C9
  3
Basic
350
C8
  3
Brighten
350
CF
  3
ColorChange
350
D3
  3
Conceptual
350
CC
  3
Dim
350
CE
  3
EdgeColorOff
350
DB
  3
Facepattern
350
D2
  3
Flat
350
C4
  3
FlatWithEdges
350
C5
  3
Gouraud
350
C6
  3
GouraudWithEdges
350
C7
  3
Hidden
350
CB
  3
JitterOff
350
D9
  3
Linepattern
350
D1
  3
OverhangOff
350
DA
  3
Realistic
350
CD
  3
Shaded
350
D8
  3
Shaded with edges
350
D7
  3
Shades of Gray
350
D4
  3
Sketchy
350
D5
  3
Thicken
350
D0
  3
Wireframe
350
CA
  3
X-Ray
350
D6
  0
XRECORD
  5
16B
102
{ACAD_REACTORS
330
C
102
}
330
C
100
AcDbXrecord
280
     1
 90
        1
330
DE
  0
DICTIONARY
  5
15F
102
{ACAD_REACTORS
330
C
102
}
330
C
100
AcDbDictionary
281
     1
  3
CANNOSCALE
350
165
  3
CMLEADERSTYLE
350
161
  3
CTABLESTYLE
350
160
  3
CVIEWDETAILSTYLE
350
162
  3
CVIEWSECTIONSTYLE
350
163
  3
LAYEREVAL
350
167
  3
LAYERNOTIFY
350
168
  3
LIGHTINGUNITS
350
166
  3
MSLTSCALE
350
164
  0
ACDBDETAILVIEWSTYLE
  5
F6
102
{ACAD_XDICTIONARY
360
1A0
102
}
102
{ACAD_REACTORS
330
F5
102
}
330
F5
100
AcDbModelDocViewStyle
 70
     0
  3
Imperial24
290
     0
100
AcDbDetailViewStyle
 70
     0
 71
     0
 90
        3
 71
     1
340
11
 62
   256
 40
0.24
340
0
 62
   256
 40
0.24
300

 40
0.36
280
     3
 71
     2
340
16
 90
       25
 62
   256
 71
     3
340
11
 62
   256
 40
0.24
 90
        1
 40
0.75
 90
        1
300
%<\AcVar ViewType \f "%tc1">% %<\AcVar ViewDetailId>%\PSCALE %<\AcVar ViewScale \f "%sn">%
 71
     4
340
16
 90
       25
 62
   256
340
16
 90
       25
 62
   256
280
     0
  0
LAYOUT
  5
1E
102
{ACAD_REACTORS
330
1A
102
}
330
1A
100
AcDbPlotSettings
  1

  2
\\KTXNTBDC\CASF2PN1
  4

  6

 40
0.0
 41
0.0
 42
0.0
 43
0.0
 44
0.0
 45
0.0
 46
0.0
 47
0.0
 48
0.0
 49
0.0
140
0.0
141
0.0
142
1.0
143
1.0
 70
   688
 72
     0
 73
     0
 74
     5
  7

 75
    16
147
1.0
 76
     0
 77
     2
 78
   300
148
0.0
149
0.0
100
AcDbLayout
  1
Layout1
 70
     1
 71
     1
 10
0.0
 20
0.0
 11
12.0
 21
9.0
 12
0.0
 22
0.0
 32
0.0
 14
1.000000000000000E+20
 24
1.000000000000000E+20
 34
1.000000000000000E+20
 15
-1.000000000000000E+20
 25
-1.000000000000000E+20
 35
-1.000000000000000E+20
146
0.0
 13
0.0
 23
0.0
 33
0.0
 16
1.0
 26
0.0
 36
0.0
 17
0.0
 27
1.0
 37
0.0
 76
     0
330
1B
  0
LAYOUT
  5
26
102
{ACAD_REACTORS
330
1A
102
}
330
1A
100
AcDbPlotSettings
  1

  2
\\KTXNTBDC\CASF2PN1
  4

  6

 40
0.0
 41
0.0
 42
0.0
 43
0.0
 44
0.0
 45
0.0
 46
0.0
 47
0.0
 48
0.0
 49
0.0
140
0.0
141
0.0
142
1.0
143
1.0
 70
   688
 72
     0
 73
     0
 74
     5
  7

 75
    16
147
1.0
 76
     0
 77
     2
 78
   300
148
0.0
149
0.0
100
AcDbLayout
  1
Layout2
 70
     1
 71
     2
 10
0.0
 20
0.0
 11
12.0
 21
9.0
 12
0.0
 22
0.0
 32
0.0
 14
0.0
 24
0.0
 34
0.0
 15
0.0
 25
0.0
 35
0.0
146
0.0
 13
0.0
 23
0.0
 33
0.0
 16
1.0
 26
0.0
 36
0.0
 17
0.0
 27
1.0
 37
0.0
 76
     0
330
23
  0
LAYOUT
  5
22
102
{ACAD_REACTORS
330
1A
102
}
330
1A
100
AcDbPlotSettings
  1

  2
\\KTXNTBDC\CASF2PN1
  4

  6

 40
0.0
 41
0.0
 42
0.0
 43
0.0
 44
0.0
 45
0.0
 46
0.0
 47
0.0
 48
0.0
 49
0.0
140
0.0
141
0.0
142
1.0
143
1.0
 70
  1712
 72
     0
 73
     0
 74
     0
  7

 75
     0
147
1.0
 76
     0
 77
     2
 78
   300
148
0.0
149
0.0
100
AcDbLayout
  1
Model
 70
     1
 71
     0
 10
0.0
 20
0.0
 11
12.0
 21
9.0
 12
0.0
 22
0.0
 32
0.0
 14
0.0
 24
0.0
 34
0.0
 15
0.0
 25
0.0
 35
0.0
146
0.0
 13
0.0
 23
0.0
 33
0.0
 16
1.0
 26
0.0
 36
0.0
 17
0.0
 27
1.0
 37
0.0
 76
     0
330
1F
  0
MATERIAL
  5
B3
102
{ACAD_XDICTIONARY
360
B4
102
}
102
{ACAD_REACTORS
330
AA
102
}
330
AA
100
AcDbMaterial
  1
ByBlock
 72
     0
 43
0.0208333333333333
 43
0.0
 43
0.0
 43
0.0
 43
0.0
 43
0.0208333333333333
 43
0.0
 43
0.0
 43
0.0
 43
0.0
 43
1.0
 43
0.0
 43
0.0
 43
0.0
 43
0.0
 43
1.0
 77
     0
 47
0.0208333333333333
 47
0.0
 47
0.0
 47
0.0
 47
0.0
 47
0.0208333333333333
 47
0.0
 47
0.0
 47
0.0
 47
0.0
 47
1.0
 47
0.0
 47
0.0
 47
0.0
 47
0.0
 47
1.0
171
     0
 49
0.0208333333333333
 49
0.0
 49
0.0
 49
0.0
 49
0.0
 49
0.0208333333333333
 49
0.0
 49
0.0
 49
0.0
 49
0.0
 49
1.0
 49
0.0
 49
0.0
 49
0.0
 49
0.0
 49
1.0
175
     0
142
0.0208333333333333
142
0.0
142
0.0
142
0.0
142
0.0
142
0.0208333333333333
142
0.0
142
0.0
142
0.0
142
0.0
142
1.0
142
0.0
142
0.0
142
0.0
142
0.0
142
1.0
179
     0
144
0.0208333333333333
144
0.0
144
0.0
144
0.0
144
0.0
144
0.0208333333333333
144
0.0
144
0.0
144
0.0
144
0.0
144
1.0
144
0.0
144
0.0
144
0.0
144
0.0
144
1.0
147
0.0208333333333333
147
0.0
147
0.0
147
0.0
147
0.0
147
0.0208333333333333
147
0.0
147
0.0
147
0.0
147
0.0
147
1.0
147
0.0
147
0.0
147
0.0
147
0.0
147
1.0
  0
MATERIAL
  5
AB
102
{ACAD_XDICTIONARY
360
AC
102
}
102
{ACAD_REACTORS
330
AA
102
}
330
AA
100
AcDbMaterial
  1
ByLayer
 72
     0
 43
0.0208333333333333
 43
0.0
 43
0.0
 43
0.0
 43
0.0
 43
0.0208333333333333
 43
0.0
 43
0.0
 43
0.0
 43
0.0
 43
1.0
 43
0.0
 43
0.0
 43
0.0
 43
0.0
 43
1.0
 77
     0
 47
0.0208333333333333
 47
0.0
 47
0.0
 47
0.0
 47
0.0
 47
0.0208333333333333
 47
0.0
 47
0.0
 47
0.0
 47
0.0
 47
1.0
 47
0.0
 47
0.0
 47
0.0
 47
0.0
 47
1.0
171
     0
 49
0.0208333333333333
 49
0.0
 49
0.0
 49
0.0
 49
0.0
 49
0.0208333333333333
 49
0.0
 49
0.0
 49
0.0
 49
0.0
 49
1.0
 49
0.0
 49
0.0
 49
0.0
 49
0.0
 49
1.0
175
     0
142
0.0208333333333333
142
0.0
142
0.0
142
0.0
142
0.0
142
0.0208333333333333
142
0.0
142
0.0
142
0.0
142
0.0
142
1.0
142
0.0
142
0.0
142
0.0
142
0.0
142
1.0
179
     0
144
0.0208333333333333
144
0.0
144
0.0
144
0.0
144
0.0
144
0.0208333333333333
144
0.0
144
0.0
144
0.0
144
0.0
144
1.0
144
0.0
144
0.0
144
0.0
144
0.0
144
1.0
147
0.0208333333333333
147
0.0
147
0.0
147
0.0
147
0.0
147
0.0208333333333333
147
0.0
147
0.0
147
0.0
147
0.0
147
1.0
147
0.0
147
0.0
147
0.0
147
0.0
147
1.0
  0
MATERIAL
  5
BB
102
{ACAD_XDICTIONARY
360
BC
102
}
102
{ACAD_REACTORS
330
AA
102
}
330
AA
100
AcDbMaterial
  1
Global
 72
     0
 43
0.0208333333333333
 43
0.0
 43
0.0
 43
0.0
 43
0.0
 43
0.0208333333333333
 43
0.0
 43
0.0
 43
0.0
 43
0.0
 43
1.0
 43
0.0
 43
0.0
 43
0.0
 43
0.0
 43
1.0
 77
     0
 47
0.0208333333333333
 47
0.0
 47
0.0
 47
0.0
 47
0.0
 47
0.0208333333333333
 47
0.0
 47
0.0
 47
0.0
 47
0.0
 47
1.0
 47
0.0
 47
0.0
 47
0.0
 47
0.0
 47
1.0
171
     0
 49
0.0208333333333333
 49
0.0
 49
0.0
 49
0.0
 49
0.0
 49
0.0208333333333333
 49
0.0
 49
0.0
 49
0.0
 49
0.0
 49
1.0
 49
0.0
 49
0.0
 49
0.0
 49
0.0
 49
1.0
175
     0
142
0.0208333333333333
142
0.0
142
0.0
142
0.0
142
0.0
142
0.0208333333333333
142
0.0
142
0.0
142
0.0
142
0.0
142
1.0
142
0.0
142
0.0
142
0.0
142
0.0
142
1.0
179
     0
144
0.0208333333333333
144
0.0
144
0.0
144
0.0
144
0.0
144
0.0208333333333333
144
0.0
144
0.0
144
0.0
144
0.0
144
1.0
144
0.0
144
0.0
144
0.0
144
0.0
144
1.0
147
0.0208333333333333
147
0.0
147
0.0
147
0.0
147
0.0
147
0.0208333333333333
147
0.0
147
0.0
147
0.0
147
0.0
147
1.0
147
0.0
147
0.0
147
0.0
147
0.0
147
1.0
  0
MLEADERSTYLE
  5
F2
102
{ACAD_XDICTIONARY
360
19C
102
}
102
{ACAD_REACTORS
330
F1
102
}
330
F1
100
AcDbMLeaderStyle
179
     2
170
     2
171
     1
172
     0
 90
        2
 40
0.0
 41
0.0
173
     1
 91
-1056964608
340
14
 92
       -2
290
     1
 42
0.09
291
     1
 43
0.36
  3
Standard
 44
0.18
300

342
11
174
     1
178
     6
175
     1
176
     0
 93
-1056964608
 45
0.18
292
     0
297
     0
 46
0.18
 94
-1056964608
 47
1.0
 49
1.0
140
1.0
293
     1
141
0.0
294
     1
177
     0
142
1.0
295
     0
296
     0
143
0.125
271
     0
272
     9
273
     9
  0
MLINESTYLE
  5
18
102
{ACAD_REACTORS
330
17
102
}
330
17
100
AcDbMlineStyle
  2
STANDARD
 70
     0
  3

 62
   256
 51
90.0
 52
90.0
 71
     2
 49
0.5
 62
   256
  6
BYLAYER
 49
-0.5
 62
   256
  6
BYLAYER
  0
ACDBPLACEHOLDER
  5
2D
102
{ACAD_REACTORS
330
E
102
}
330
E
  0
ACDBPLACEHOLDER
  5
F
102
{ACAD_REACTORS
330
E
102
}
330
E
  0
SCALE
  5
E0
102
{ACAD_REACTORS
330
DF
102
}
330
DF
100
AcDbScale
 70
     0
300
1:1
140
1.0
141
1.0
290
     1
  0
SCALE
  5
E1
102
{ACAD_REACTORS
330
DF
102
}
330
DF
100
AcDbScale
 70
     0
300
1/128" = 1'-0"
140
0.0078125
141
12.0
290
     0
  0
SCALE
  5
E2
102
{ACAD_REACTORS
330
DF
102
}
330
DF
100
AcDbScale
 70
     0
300
1/64" = 1'-0"
140
0.015625
141
12.0
290
     0
  0
SCALE
  5
E3
102
{ACAD_REACTORS
330
DF
102
}
330
DF
100
AcDbScale
 70
     0
300
1/32" = 1'-0"
140
0.03125
141
12.0
290
     0
  0
SCALE
  5
E4
102
{ACAD_REACTORS
330
DF
102
}
330
DF
100
AcDbScale
 70
     0
300
1/16" = 1'-0"
140
0.0625
141
12.0
290
     0
  0
SCALE
  5
E5
102
{ACAD_REACTORS
330
DF
102
}
330
DF
100
AcDbScale
 70
     0
300
3/32" = 1'-0"
140
0.09375
141
12.0
290
     0
  0
SCALE
  5
E6
102
{ACAD_REACTORS
330
DF
102
}
330
DF
100
AcDbScale
 70
     0
300
1/8" = 1'-0"
140
0.125
141
12.0
290
     0
  0
SCALE
  5
E7
102
{ACAD_REACTORS
330
DF
102
}
330
DF
100
AcDbScale
 70
     0
300
3/16" = 1'-0"
140
0.1875
141
12.0
290
     0
  0
SCALE
  5
E8
102
{ACAD_REACTORS
330
DF
102
}
330
DF
100
AcDbScale
 70
     0
300
1/4" = 1'-0"
140
0.25
141
12.0
290
     0
  0
SCALE
  5
E9
102
{ACAD_REACTORS
330
DF
102
}
330
DF
100
AcDbScale
 70
     0
300
3/8" = 1'-0"
140
0.375
141
12.0
290
     0
  0
SCALE
  5
EA
102
{ACAD_REACTORS
330
DF
102
}
330
DF
100
AcDbScale
 70
     0
300
1/2" = 1'-0"
140
0.5
141
12.0
290
     0
  0
SCALE
  5
EB
102
{ACAD_REACTORS
330
DF
102
}
330
DF
100
AcDbScale
 70
     0
300
3/4" = 1'-0"
140
0.75
141
12.0
290
     0
  0
SCALE
  5
EC
102
{ACAD_REACTORS
330
DF
102
}
330
DF
100
AcDbScale
 70
     0
300
1" = 1'-0"
140
1.0
141
12.0
290
     0
  0
SCALE
  5
ED
102
{ACAD_REACTORS
330
DF
102
}
330
DF
100
AcDbScale
 70
     0
300
1-1/2" = 1'-0"
140
1.5
141
12.0
290
     0
  0
SCALE
  5
EE
102
{ACAD_REACTORS
330
DF
102
}
330
DF
100
AcDbScale
 70
     0
300
3" = 1'-0"
140
3.0
141
12.0
290
     0
  0
SCALE
  5
EF
102
{ACAD_REACTORS
330
DF
102
}
330
DF
100
AcDbScale
 70
     0
300
6" = 1'-0"
140
6.0
141
12.0
290
     0
  0
SCALE
  5
F0
102
{ACAD_REACTORS
330
DF
102
}
330
DF
100
AcDbScale
 70
     0
300
1'-0" = 1'-0"
140
12.0
141
12.0
290
     0
  0
ACDBSECTIONVIEWSTYLE
  5
F4
102
{ACAD_XDICTIONARY
360
19E
102
}
102
{ACAD_REACTORS
330
F3
102
}
330
F3
100
AcDbModelDocViewStyle
 70
     0
  3
Imperial24
290
     0
100
AcDbSectionViewStyle
 70
     0
 71
     0
 90
       78
 71
     1
340
11
 62
   256
 40
0.24
340
0
340
0
 62
   256
 40
0.24
300
I, O, Q, S, X, Z
 40
0.48
 90
        3
 40
0.18
 90
        1
 71
     2
340
16
 90
       25
 62
   256
340
16
 90
       50
 62
   256
 40
0.24
 40
0.0
 40
0.24
 71
     3
340
11
 62
   256
 40
0.24
 90
        1
 40
0.75
 90
        1
300
%<\AcVar ViewType \f "%tc1">% %<\AcVar ViewSectionStartId>%-%<\AcVar ViewSectionEndId>%\PSCALE %<\AcVar ViewScale \f "%sn">%
 71
     4
 62
   256
 62
   257
300
ANSI31
 40
1.0
 90
        0
290
     0
290
     0
 90
        6
 40
0.0
 40
1.570796326794896
 40
0.2617993877991494
 40
1.308996938995747
 40
-0.2617993877991494
 40
1.832595714594046
  0
TABLESTYLE
  5
DE
102
{ACAD_XDICTIONARY
360
169
102
}
102
{ACAD_REACTORS
330
DD
102
}
330
DD
100
AcDbTableStyle
280
     0
  3
Standard
 70
     0
 71
     0
 40
0.06
 41
0.06
280
     0
281
     0
  7
Standard
140
0.18
170
     2
 62
     0
 63
     7
283
     0
 90
      512
 91
        0
  1

274
    -2
284
     1
 64
     0
275
    -2
285
     1
 65
     0
276
    -2
286
     1
 66
     0
277
    -2
287
     1
 67
     0
278
    -2
288
     1
 68
     0
279
    -2
289
     1
 69
     0
  7
Standard
140
0.25
170
     5
 62
     0
 63
     7
283
     0
 90
      512
 91
        0
  1

274
    -2
284
     1
 64
     0
275
    -2
285
     1
 65
     0
276
    -2
286
     1
 66
     0
277
    -2
287
     1
 67
     0
278
    -2
288
     1
 68
     0
279
    -2
289
     1
 69
     0
  7
Standard
140
0.18
170
     5
 62
     0
 63
     7
283
     0
 90
      512
 91
        0
  1

274
    -2
284
     1
 64
     0
275
    -2
285
     1
 65
     0
276
    -2
286
     1
 66
     0
277
    -2
287
     1
 67
     0
278
    -2
288
     1
 68
     0
279
    -2
289
     1
 69
     0
  0
VISUALSTYLE
  5
C9
102
{ACAD_XDICTIONARY
360
176
102
}
102
{ACAD_REACTORS
330
C3
102
}
330
C3
100
AcDbVisualStyle
  2
2dWireframe
 70
     4
177
     2
291
     0
 71
     0
176
     1
 72
     2
176
     1
 73
     0
176
     1
 90
        0
176
     1
 40
0.6
176
     1
 41
30.0
176
     1
 63
     7
421
 16777215
176
     1
 74
     1
176
     1
 91
        4
176
     1
 64
     7
176
     1
 65
   257
176
     1
 75
     1
176
     1
175
     1
176
     1
 42
1.0
176
     1
 92
        0
176
     1
 66
   257
176
     1
 43
1.0
176
     1
 76
     1
176
     1
 77
     6
176
     1
 78
     2
176
     1
 67
     7
176
     1
 79
     5
176
     1
170
     0
176
     1
171
     0
176
     1
290
     0
176
     1
 93
        1
176
     1
 44
0.0
176
     1
173
     0
176
     1
1001
ACAD
1000
AcDbSavedByObjectVersion
1070
     0
  0
VISUALSTYLE
  5
C8
102
{ACAD_XDICTIONARY
360
174
102
}
102
{ACAD_REACTORS
330
C3
102
}
330
C3
100
AcDbVisualStyle
  2
Basic
 70
     7
177
     2
291
     1
 71
     1
176
     1
 72
     0
176
     1
 73
     1
176
     1
 90
        0
176
     1
 40
0.6
176
     1
 41
30.0
176
     1
 63
     7
421
 16777215
176
     1
 74
     0
176
     1
 91
        4
176
     1
 64
     7
176
     1
 65
   257
176
     1
 75
     1
176
     1
175
     1
176
     1
 42
1.0
176
     1
 92
        8
176
     1
 66
     7
176
     1
 43
1.0
176
     1
 76
     1
176
     1
 77
     6
176
     1
 78
     2
176
     1
 67
     7
176
     1
 79
     5
176
     1
170
     0
176
     1
171
     0
176
     1
290
     0
176
     1
 93
        1
176
     1
 44
0.0
176
     1
173
     0
176
     1
1001
ACAD
1000
AcDbSavedByObjectVersion
1070
     0
  0
VISUALSTYLE
  5
CF
102
{ACAD_XDICTIONARY
360
182
102
}
102
{ACAD_REACTORS
330
C3
102
}
330
C3
100
AcDbVisualStyle
  2
Brighten
 70
    12
177
     2
291
     1
 71
     2
176
     1
 72
     2
176
     1
 73
     0
176
     1
 90
        0
176
     1
 40
0.6
176
     1
 41
30.0
176
     1
 63
     7
421
 16777215
176
     1
 74
     1
176
     1
 91
        4
176
     1
 64
     7
176
     1
 65
   257
176
     1
 75
     1
176
     1
175
     1
176
     1
 42
1.0
176
     1
 92
        8
176
     1
 66
     7
176
     1
 43
1.0
176
     1
 76
     1
176
     1
 77
     6
176
     1
 78
     2
176
     1
 67
     7
176
     1
 79
     5
176
     1
170
     0
176
     1
171
     0
176
     1
290
     0
176
     1
 93
        1
176
     1
 44
50.0
176
     1
173
     0
176
     1
1001
ACAD
1000
AcDbSavedByObjectVersion
1070
     0
  0
VISUALSTYLE
  5
D3
102
{ACAD_XDICTIONARY
360
18A
102
}
102
{ACAD_REACTORS
330
C3
102
}
330
C3
100
AcDbVisualStyle
  2
ColorChange
 70
    16
177
     2
291
     1
 71
     2
176
     1
 72
     2
176
     1
 73
     3
176
     1
 90
        0
176
     1
 40
0.6
176
     1
 41
30.0
176
     1
 63
     8
421
  8421504
176
     1
 74
     1
176
     1
 91
        4
176
     1
 64
     7
176
     1
 65
   257
176
     1
 75
     1
176
     1
175
     1
176
     1
 42
1.0
176
     1
 92
        8
176
     1
 66
     8
424
  8421504
176
     1
 43
1.0
176
     1
 76
     1
176
     1
 77
     6
176
     1
 78
     2
176
     1
 67
     7
176
     1
 79
     5
176
     1
170
     0
176
     1
171
     0
176
     1
290
     0
176
     1
 93
        1
176
     1
 44
0.0
176
     1
173
     0
176
     1
1001
ACAD
1000
AcDbSavedByObjectVersion
1070
     0
  0
VISUALSTYLE
  5
CC
102
{ACAD_XDICTIONARY
360
17C
102
}
102
{ACAD_REACTORS
330
C3
102
}
330
C3
100
AcDbVisualStyle
  2
Conceptual
 70
     9
177
     2
291
     0
 71
     3
176
     1
 72
     2
176
     1
 73
     0
176
     1
 90
        0
176
     1
 40
0.6
176
     1
 41
30.0
176
     1
 63
     7
421
 16777215
176
     1
 74
     2
176
     1
 91
        2
176
     1
 64
     7
176
     1
 65
   257
176
     1
 75
     1
176
     1
175
     1
176
     1
 42
179.0
176
     1
 92
        8
176
     1
 66
     7
176
     1
 43
1.0
176
     1
 76
     1
176
     1
 77
     6
176
     1
 78
     2
176
     1
 67
     7
176
     1
 79
     3
176
     1
170
     0
176
     1
171
     0
176
     1
290
     0
176
     1
 93
        1
176
     1
 44
0.0
176
     1
173
     0
176
     1
1001
ACAD
1000
AcDbSavedByObjectVersion
1070
     0
  0
VISUALSTYLE
  5
CE
102
{ACAD_XDICTIONARY
360
180
102
}
102
{ACAD_REACTORS
330
C3
102
}
330
C3
100
AcDbVisualStyle
  2
Dim
 70
    11
177
     2
291
     1
 71
     2
176
     1
 72
     2
176
     1
 73
     0
176
     1
 90
        0
176
     1
 40
0.6
176
     1
 41
30.0
176
     1
 63
     7
421
 16777215
176
     1
 74
     1
176
     1
 91
        4
176
     1
 64
     7
176
     1
 65
   257
176
     1
 75
     1
176
     1
175
     1
176
     1
 42
1.0
176
     1
 92
        8
176
     1
 66
     7
176
     1
 43
1.0
176
     1
 76
     1
176
     1
 77
     6
176
     1
 78
     2
176
     1
 67
     7
176
     1
 79
     5
176
     1
170
     0
176
     1
171
     0
176
     1
290
     0
176
     1
 93
        1
176
     1
 44
-50.0
176
     1
173
     0
176
     1
1001
ACAD
1000
AcDbSavedByObjectVersion
1070
     0
  0
VISUALSTYLE
  5
DB
102
{ACAD_XDICTIONARY
360
19A
102
}
102
{ACAD_REACTORS
330
C3
102
}
330
C3
100
AcDbVisualStyle
  2
EdgeColorOff
 70
    22
177
     2
291
     1
 71
     2
176
     0
 72
     2
176
     0
 73
     0
176
     0
 90
        0
176
     0
 40
0.6
176
     0
 41
30.0
176
     0
 63
     7
421
 16777215
176
     0
 74
     1
176
     0
 91
        4
176
     0
 64
     7
176
     0
 65
   257
176
     0
 75
     1
176
     0
175
     1
176
     0
 42
1.0
176
     0
 92
        8
176
     2
 66
     7
176
     0
 43
1.0
176
     0
 76
     1
176
     0
 77
     6
176
     0
 78
     2
176
     0
 67
     7
176
     0
 79
     5
176
     0
170
     0
176
     0
171
     0
176
     0
290
     0
176
     0
 93
        1
176
     0
 44
0.0
176
     0
173
     0
176
     0
1001
ACAD
1000
AcDbSavedByObjectVersion
1070
     0
  0
VISUALSTYLE
  5
D2
102
{ACAD_XDICTIONARY
360
188
102
}
102
{ACAD_REACTORS
330
C3
102
}
330
C3
100
AcDbVisualStyle
  2
Facepattern
 70
    15
177
     2
291
     1
 71
     2
176
     1
 72
     2
176
     1
 73
     0
176
     1
 90
        0
176
     1
 40
0.6
176
     1
 41
30.0
176
     1
 63
     7
421
 16777215
176
     1
 74
     1
176
     1
 91
        4
176
     1
 64
     7
176
     1
 65
   257
176
     1
 75
     1
176
     1
175
     1
176
     1
 42
1.0
176
     1
 92
        8
176
     1
 66
     7
176
     1
 43
1.0
176
     1
 76
     1
176
     1
 77
     6
176
     1
 78
     2
176
     1
 67
     7
176
     1
 79
     5
176
     1
170
     0
176
     1
171
     0
176
     1
290
     0
176
     1
 93
        1
176
     1
 44
0.0
176
     1
173
     0
176
     1
1001
ACAD
1000
AcDbSavedByObjectVersion
1070
     0
  0
VISUALSTYLE
  5
C4
102
{ACAD_XDICTIONARY
360
16C
102
}
102
{ACAD_REACTORS
330
C3
102
}
330
C3
100
AcDbVisualStyle
  2
Flat
 70
     0
177
     2
291
     1
 71
     2
176
     1
 72
     1
176
     1
 73
     1
176
     1
 90
        2
176
     1
 40
0.6
176
     1
 41
30.0
176
     1
 63
     7
421
 16777215
176
     1
 74
     0
176
     1
 91
        0
176
     1
 64
     7
176
     1
 65
   257
176
     1
 75
     1
176
     1
175
     1
176
     1
 42
1.0
176
     1
 92
        8
176
     1
 66
     7
176
     1
 43
1.0
176
     1
 76
     1
176
     1
 77
     6
176
     1
 78
     2
176
     1
 67
     7
176
     1
 79
     5
176
     1
170
     0
176
     1
171
     0
176
     1
290
     0
176
     1
 93
       13
176
     1
 44
0.0
176
     1
173
     0
176
     1
1001
ACAD
1000
AcDbSavedByObjectVersion
1070
     0
  0
VISUALSTYLE
  5
C5
102
{ACAD_XDICTIONARY
360
16E
102
}
102
{ACAD_REACTORS
330
C3
102
}
330
C3
100
AcDbVisualStyle
  2
FlatWithEdges
 70
     1
177
     2
291
     1
 71
     2
176
     1
 72
     1
176
     1
 73
     1
176
     1
 90
        2
176
     1
 40
0.6
176
     1
 41
30.0
176
     1
 63
     7
421
 16777215
176
     1
 74
     1
176
     1
 91
        0
176
     1
 64
     7
176
     1
 65
   257
176
     1
 75
     1
176
     1
175
     1
176
     1
 42
1.0
176
     1
 92
        0
176
     1
 66
   257
176
     1
 43
1.0
176
     1
 76
     1
176
     1
 77
     6
176
     1
 78
     2
176
     1
 67
     7
176
     1
 79
     5
176
     1
170
     0
176
     1
171
     0
176
     1
290
     0
176
     1
 93
       13
176
     1
 44
0.0
176
     1
173
     0
176
     1
1001
ACAD
1000
AcDbSavedByObjectVersion
1070
     0
  0
VISUALSTYLE
  5
C6
102
{ACAD_XDICTIONARY
360
170
102
}
102
{ACAD_REACTORS
330
C3
102
}
330
C3
100
AcDbVisualStyle
  2
Gouraud
 70
     2
177
     2
291
     1
 71
     2
176
     1
 72
     2
176
     1
 73
     1
176
     1
 90
        2
176
     1
 40
0.6
176
     1
 41
30.0
176
     1
 63
     7
421
 16777215
176
     1
 74
     0
176
     1
 91
        0
176
     1
 64
     7
176
     1
 65
   257
176
     1
 75
     1
176
     1
175
     1
176
     1
 42
1.0
176
     1
 92
        0
176
     1
 66
     7
176
     1
 43
1.0
176
     1
 76
     1
176
     1
 77
     6
176
     1
 78
     2
176
     1
 67
     7
176
     1
 79
     5
176
     1
170
     0
176
     1
171
     0
176
     1
290
     0
176
     1
 93
       13
176
     1
 44
0.0
176
     1
173
     0
176
     1
1001
ACAD
1000
AcDbSavedByObjectVersion
1070
     0
  0
VISUALSTYLE
  5
C7
102
{ACAD_XDICTIONARY
360
172
102
}
102
{ACAD_REACTORS
330
C3
102
}
330
C3
100
AcDbVisualStyle
  2
GouraudWithEdges
 70
     3
177
     2
291
     1
 71
     2
176
     1
 72
     2
176
     1
 73
     1
176
     1
 90
        2
176
     1
 40
0.6
176
     1
 41
30.0
176
     1
 63
     7
421
 16777215
176
     1
 74
     1
176
     1
 91
        0
176
     1
 64
     7
176
     1
 65
   257
176
     1
 75
     1
176
     1
175
     1
176
     1
 42
1.0
176
     1
 92
        0
176
     1
 66
   257
176
     1
 43
1.0
176
     1
 76
     1
176
     1
 77
     6
176
     1
 78
     2
176
     1
 67
     7
176
     1
 79
     5
176
     1
170
     0
176
     1
171
     0
176
     1
290
     0
176
     1
 93
       13
176
     1
 44
0.0
176
     1
173
     0
176
     1
1001
ACAD
1000
AcDbSavedByObjectVersion
1070
     0
  0
VISUALSTYLE
  5
CB
102
{ACAD_XDICTIONARY
360
17A
102
}
102
{ACAD_REACTORS
330
C3
102
}
330
C3
100
AcDbVisualStyle
  2
Hidden
 70
     6
177
     2
291
     0
 71
     1
176
     1
 72
     2
176
     1
 73
     2
176
     1
 90
        0
176
     1
 40
0.6
176
     1
 41
30.0
176
     1
 63
     7
421
 16777215
176
     1
 74
     2
176
     1
 91
        2
176
     1
 64
     7
176
     1
 65
   257
176
     1
 75
     2
176
     1
175
     1
176
     1
 42
40.0
176
     1
 92
        0
176
     1
 66
   257
176
     1
 43
1.0
176
     1
 76
     1
176
     1
 77
     6
176
     1
 78
     2
176
     1
 67
     7
176
     1
 79
     3
176
     1
170
     0
176
     1
171
     0
176
     1
290
     0
176
     1
 93
        1
176
     1
 44
0.0
176
     1
173
     0
176
     1
1001
ACAD
1000
AcDbSavedByObjectVersion
1070
     0
  0
VISUALSTYLE
  5
D9
102
{ACAD_XDICTIONARY
360
196
102
}
102
{ACAD_REACTORS
330
C3
102
}
330
C3
100
AcDbVisualStyle
  2
JitterOff
 70
    20
177
     2
291
     1
 71
     2
176
     0
 72
     2
176
     0
 73
     0
176
     0
 90
        0
176
     0
 40
0.6
176
     0
 41
30.0
176
     0
 63
     7
421
 16777215
176
     0
 74
     1
176
     0
 91
        4
176
     0
 64
     7
176
     0
 65
   257
176
     0
 75
     1
176
     0
175
     1
176
     0
 42
1.0
176
     0
 92
       10
176
     2
 66
     7
176
     0
 43
1.0
176
     0
 76
     1
176
     0
 77
     6
176
     0
 78
     2
176
     0
 67
     7
176
     0
 79
     5
176
     0
170
     0
176
     0
171
     0
176
     0
290
     0
176
     0
 93
        1
176
     0
 44
0.0
176
     0
173
     0
176
     0
1001
ACAD
1000
AcDbSavedByObjectVersion
1070
     0
  0
VISUALSTYLE
  5
D1
102
{ACAD_XDICTIONARY
360
186
102
}
102
{ACAD_REACTORS
330
C3
102
}
330
C3
100
AcDbVisualStyle
  2
Linepattern
 70
    14
177
     2
291
     1
 71
     2
176
     1
 72
     2
176
     1
 73
     0
176
     1
 90
        0
176
     1
 40
0.6
176
     1
 41
30.0
176
     1
 63
     7
421
 16777215
176
     1
 74
     1
176
     1
 91
        4
176
     1
 64
     7
176
     1
 65
   257
176
     1
 75
     7
176
     1
175
     7
176
     1
 42
1.0
176
     1
 92
        8
176
     1
 66
     7
176
     1
 43
1.0
176
     1
 76
     1
176
     1
 77
     6
176
     1
 78
     2
176
     1
 67
     7
176
     1
 79
     5
176
     1
170
     0
176
     1
171
     0
176
     1
290
     0
176
     1
 93
        1
176
     1
 44
0.0
176
     1
173
     0
176
     1
1001
ACAD
1000
AcDbSavedByObjectVersion
1070
     0
  0
VISUALSTYLE
  5
DA
102
{ACAD_XDICTIONARY
360
198
102
}
102
{ACAD_REACTORS
330
C3
102
}
330
C3
100
AcDbVisualStyle
  2
OverhangOff
 70
    21
177
     2
291
     1
 71
     2
176
     0
 72
     2
176
     0
 73
     0
176
     0
 90
        0
176
     0
 40
0.6
176
     0
 41
30.0
176
     0
 63
     7
421
 16777215
176
     0
 74
     1
176
     0
 91
        4
176
     0
 64
     7
176
     0
 65
   257
176
     0
 75
     1
176
     0
175
     1
176
     0
 42
1.0
176
     0
 92
        9
176
     2
 66
     7
176
     0
 43
1.0
176
     0
 76
     1
176
     0
 77
     6
176
     0
 78
     2
176
     0
 67
     7
176
     0
 79
     5
176
     0
170
     0
176
     0
171
     0
176
     0
290
     0
176
     0
 93
        1
176
     0
 44
0.0
176
     0
173
     0
176
     0
1001
ACAD
1000
AcDbSavedByObjectVersion
1070
     0
  0
VISUALSTYLE
  5
CD
102
{ACAD_XDICTIONARY
360
17E
102
}
102
{ACAD_REACTORS
330
C3
102
}
330
C3
100
AcDbVisualStyle
  2
Realistic
 70
     8
177
     2
291
     0
 71
     2
176
     1
 72
     3
176
     1
 73
     0
176
     1
 90
        2
176
     1
 40
0.6
176
     1
 41
30.0
176
     1
 63
     7
421
 16777215
176
     1
 74
     0
176
     1
 91
        0
176
     1
 64
     7
176
     1
 65
   257
176
     1
 75
     1
176
     1
175
     1
176
     1
 42
1.0
176
     1
 92
        8
176
     1
 66
   257
176
     1
 43
1.0
176
     1
 76
     1
176
     1
 77
     6
176
     1
 78
     2
176
     1
 67
     7
176
     1
 79
     3
176
     1
170
     0
176
     1
171
     0
176
     1
290
     0
176
     1
 93
       13
176
     1
 44
0.0
176
     1
173
     0
176
     1
1001
ACAD
1000
AcDbSavedByObjectVersion
1070
     0
  0
VISUALSTYLE
  5
D8
102
{ACAD_XDICTIONARY
360
194
102
}
102
{ACAD_REACTORS
330
C3
102
}
330
C3
100
AcDbVisualStyle
  2
Shaded
 70
    27
177
     2
291
     0
 71
     2
176
     1
 72
     2
176
     1
 73
     1
176
     1
 90
        2
176
     1
 40
0.6
176
     1
 41
30.0
176
     1
 63
     7
421
 16777215
176
     1
 74
     0
176
     1
 91
        4
176
     1
 64
     7
176
     1
 65
   257
176
     1
 75
     1
176
     1
175
     1
176
     1
 42
1.0
176
     1
 92
        8
176
     1
 66
   257
176
     1
 43
1.0
176
     1
 76
     1
176
     1
 77
     6
176
     1
 78
     2
176
     1
 67
     8
425
  7895160
176
     1
 79
     3
176
     1
170
     0
176
     1
171
     0
176
     1
290
     0
176
     1
 93
        5
176
     1
 44
0.0
176
     1
173
     0
176
     1
1001
ACAD
1000
AcDbSavedByObjectVersion
1070
     0
  0
VISUALSTYLE
  5
D7
102
{ACAD_XDICTIONARY
360
192
102
}
102
{ACAD_REACTORS
330
C3
102
}
330
C3
100
AcDbVisualStyle
  2
Shaded with edges
 70
    26
177
     2
291
     0
 71
     2
176
     1
 72
     2
176
     1
 73
     1
176
     1
 90
        2
176
     1
 40
0.6
176
     1
 41
30.0
176
     1
 63
     7
421
 16777215
176
     1
 74
     1
176
     1
 91
       10
176
     1
 64
     7
176
     1
 65
   257
176
     1
 75
     2
176
     1
175
     1
176
     1
 42
1.0
176
     1
 92
        8
176
     1
 66
   257
176
     1
 43
1.0
176
     1
 76
     1
176
     1
 77
     6
176
     1
 78
     2
176
     1
 67
     7
176
     1
 79
     3
176
     1
170
     0
176
     1
171
     0
176
     1
290
     0
176
     1
 93
        5
176
     1
 44
0.0
176
     1
173
     0
176
     1
1001
ACAD
1000
AcDbSavedByObjectVersion
1070
     0
  0
VISUALSTYLE
  5
D4
102
{ACAD_XDICTIONARY
360
18C
102
}
102
{ACAD_REACTORS
330
C3
102
}
330
C3
100
AcDbVisualStyle
  2
Shades of Gray
 70
    23
177
     2
291
     0
 71
     2
176
     1
 72
     2
176
     1
 73
     3
176
     1
 90
        0
176
     1
 40
0.6
176
     1
 41
30.0
176
     1
 63
     7
421
 16777215
176
     1
 74
     2
176
     1
 91
        2
176
     1
 64
     7
176
     1
 65
     7
176
     1
 75
     1
176
     1
175
     1
176
     1
 42
40.0
176
     1
 92
        8
176
     1
 66
     7
176
     1
 43
1.0
176
     1
 76
     1
176
     1
 77
     6
176
     1
 78
     2
176
     1
 67
     7
176
     1
 79
     3
176
     1
170
     0
176
     1
171
     0
176
     1
290
     0
176
     1
 93
        1
176
     1
 44
0.0
176
     1
173
     0
176
     1
1001
ACAD
1000
AcDbSavedByObjectVersion
1070
     0
  0
VISUALSTYLE
  5
D5
102
{ACAD_XDICTIONARY
360
18E
102
}
102
{ACAD_REACTORS
330
C3
102
}
330
C3
100
AcDbVisualStyle
  2
Sketchy
 70
    24
177
     2
291
     0
 71
     1
176
     1
 72
     2
176
     1
 73
     2
176
     1
 90
        0
176
     1
 40
0.6
176
     1
 41
30.0
176
     1
 63
     7
421
 16777215
176
     1
 74
     2
176
     1
 91
        2
176
     1
 64
     7
176
     1
 65
     7
176
     1
 75
     1
176
     1
175
     1
176
     1
 42
40.0
176
     1
 92
       11
176
     1
 66
     7
176
     1
 43
1.0
176
     1
 76
     1
176
     1
 77
     6
176
     1
 78
     2
176
     1
 67
     7
176
     1
 79
     6
176
     1
170
     0
176
     1
171
     0
176
     1
290
     0
176
     1
 93
        1
176
     1
 44
0.0
176
     1
173
     0
176
     1
1001
ACAD
1000
AcDbSavedByObjectVersion
1070
     0
  0
VISUALSTYLE
  5
D0
102
{ACAD_XDICTIONARY
360
184
102
}
102
{ACAD_REACTORS
330
C3
102
}
330
C3
100
AcDbVisualStyle
  2
Thicken
 70
    13
177
     2
291
     1
 71
     2
176
     1
 72
     2
176
     1
 73
     0
176
     1
 90
        0
176
     1
 40
0.6
176
     1
 41
30.0
176
     1
 63
     7
421
 16777215
176
     1
 74
     1
176
     1
 91
        4
176
     1
 64
     7
176
     1
 65
   257
176
     1
 75
     1
176
     1
175
     1
176
     1
 42
1.0
176
     1
 92
       12
176
     1
 66
     7
176
     1
 43
1.0
176
     1
 76
     1
176
     1
 77
     6
176
     1
 78
     2
176
     1
 67
     7
176
     1
 79
     5
176
     1
170
     0
176
     1
171
     0
176
     1
290
     0
176
     1
 93
        1
176
     1
 44
0.0
176
     1
173
     0
176
     1
1001
ACAD
1000
AcDbSavedByObjectVersion
1070
     0
  0
VISUALSTYLE
  5
CA
102
{ACAD_XDICTIONARY
360
178
102
}
102
{ACAD_REACTORS
330
C3
102
}
330
C3
100
AcDbVisualStyle
  2
Wireframe
 70
     5
177
     2
291
     0
 71
     0
176
     1
 72
     2
176
     1
 73
     0
176
     1
 90
        0
176
     1
 40
0.6
176
     1
 41
30.0
176
     1
 63
     7
421
 16777215
176
     1
 74
     1
176
     1
 91
        4
176
     1
 64
     7
176
     1
 65
   257
176
     1
 75
     1
176
     1
175
     1
176
     1
 42
1.0
176
     1
 92
        0
176
     1
 66
   257
176
     1
 43
1.0
176
     1
 76
     1
176
     1
 77
     6
176
     1
 78
     2
176
     1
 67
     7
176
     1
 79
     3
176
     1
170
     0
176
     1
171
     0
176
     1
290
     0
176
     1
 93
        1
176
     1
 44
0.0
176
     1
173
     0
176
     1
1001
ACAD
1000
AcDbSavedByObjectVersion
1070
     0
  0
VISUALSTYLE
  5
D6
102
{ACAD_XDICTIONARY
360
190
102
}
102
{ACAD_REACTORS
330
C3
102
}
330
C3
100
AcDbVisualStyle
  2
X-Ray
 70
    25
177
     2
291
     0
 71
     2
176
     1
 72
     2
176
     1
 73
     1
176
     1
 90
        1
176
     1
 40
0.5
176
     1
 41
30.0
176
     1
 63
     7
421
 16777215
176
     1
 74
     1
176
     1
 91
        0
176
     1
 64
     7
176
     1
 65
   257
176
     1
 75
     1
176
     1
175
     1
176
     1
 42
1.0
176
     1
 92
        8
176
     1
 66
     7
176
     1
 43
1.0
176
     1
 76
     1
176
     1
 77
     6
176
     1
 78
     2
176
     1
 67
     7
176
     1
 79
     3
176
     1
170
     0
176
     1
171
     0
176
     1
290
     0
176
     1
 93
       13
176
     1
 44
0.0
176
     1
173
     0
176
     1
1001
ACAD
1000
AcDbSavedByObjectVersion
1070
     0
  0
DICTIONARYVAR
  5
165
102
{ACAD_REACTORS
330
15F
102
}
330
15F
100
DictionaryVariables
280
     0
  1
1:1
  0
DICTIONARYVAR
  5
161
102
{ACAD_REACTORS
330
15F
102
}
330
15F
100
DictionaryVariables
280
     0
  1
STANDARD
  0
DICTIONARYVAR
  5
160
102
{ACAD_REACTORS
330
15F
102
}
330
15F
100
DictionaryVariables
280
     0
  1
STANDARD
  0
DICTIONARYVAR
  5
162
102
{ACAD_REACTORS
330
15F
102
}
330
15F
100
DictionaryVariables
280
     0
  1
Imperial24
  0
DICTIONARYVAR
  5
163
102
{ACAD_REACTORS
330
15F
102
}
330
15F
100
DictionaryVariables
280
     0
  1
Imperial24
  0
DICTIONARYVAR
  5
167
102
{ACAD_REACTORS
330
15F
102
}
330
15F
100
DictionaryVariables
280
     0
  1
1
  0
DICTIONARYVAR
  5
168
102
{ACAD_REACTORS
330
15F
102
}
330
15F
100
DictionaryVariables
280
     0
  1
15
  0
DICTIONARYVAR
  5
166
102
{ACAD_REACTORS
330
15F
102
}
330
15F
100
DictionaryVariables
280
     0
  1
0
  0
DICTIONARYVAR
  5
164
102
{ACAD_REACTORS
330
15F
102
}
330
15F
100
DictionaryVariables
280
     0
  1
0
  0
DICTIONARY
  5
1A0
330
F6
100
AcDbDictionary
280
     1
281
     1
  3
ACAD_XREC_ROUNDTRIP
360
1A1
  0
DICTIONARY
  5
B4
330
B3
100
AcDbDictionary
280
     1
281
     1
  3
BUMPTILE
360
B6
  3
DIFFUSETILE
360
B5
  3
OPACITYTILE
360
B9
  3
REFLECTIONTILE
360
B8
  3
REFRACTIONTILE
360
BA
  3
SPECULARTILE
360
B7
  0
DICTIONARY
  5
AC
330
AB
100
AcDbDictionary
280
     1
281
     1
  3
BUMPTILE
360
AE
  3
DIFFUSETILE
360
AD
  3
OPACITYTILE
360
B1
  3
REFLECTIONTILE
360
B0
  3
REFRACTIONTILE
360
B2
  3
SPECULARTILE
360
AF
  0
DICTIONARY
  5
BC
330
BB
100
AcDbDictionary
280
     1
281
     1
  3
BUMPTILE
360
BE
  3
DIFFUSETILE
360
BD
  3
OPACITYTILE
360
C1
  3
REFLECTIONTILE
360
C0
  3
REFRACTIONTILE
360
C2
  3
SPECULARTILE
360
BF
  0
DICTIONARY
  5
19C
330
F2
100
AcDbDictionary
280
     1
281
     1
  3
ACAD_XREC_ROUNDTRIP
360
19D
  0
DICTIONARY
  5
19E
330
F4
100
AcDbDictionary
280
     1
281
     1
  3
ACAD_XREC_ROUNDTRIP
360
19F
  0
DICTIONARY
  5
169
330
DE
100
AcDbDictionary
280
     1
281
     1
  3
ACAD_ROUNDTRIP_2008_TABLESTYLE_CELLSTYLEMAP
360
16A
  0
DICTIONARY
  5
176
330
C9
100
AcDbDictionary
280
     1
281
     1
  3
ACAD_XREC_ROUNDTRIP
360
177
  0
DICTIONARY
  5
174
330
C8
100
AcDbDictionary
280
     1
281
     1
  3
ACAD_XREC_ROUNDTRIP
360
175
  0
DICTIONARY
  5
182
330
CF
100
AcDbDictionary
280
     1
281
     1
  3
ACAD_XREC_ROUNDTRIP
360
183
  0
DICTIONARY
  5
18A
330
D3
100
AcDbDictionary
280
     1
281
     1
  3
ACAD_XREC_ROUNDTRIP
360
18B
  0
DICTIONARY
  5
17C
330
CC
100
AcDbDictionary
280
     1
281
     1
  3
ACAD_XREC_ROUNDTRIP
360
17D
  0
DICTIONARY
  5
180
330
CE
100
AcDbDictionary
280
     1
281
     1
  3
ACAD_XREC_ROUNDTRIP
360
181
  0
DICTIONARY
  5
19A
330
DB
100
AcDbDictionary
280
     1
281
     1
  3
ACAD_XREC_ROUNDTRIP
360
19B
  0
DICTIONARY
  5
188
330
D2
100
AcDbDictionary
280
     1
281
     1
  3
ACAD_XREC_ROUNDTRIP
360
189
  0
DICTIONARY
  5
16C
330
C4
100
AcDbDictionary
280
     1
281
     1
  3
ACAD_XREC_ROUNDTRIP
360
16D
  0
DICTIONARY
  5
16E
330
C5
100
AcDbDictionary
280
     1
281
     1
  3
ACAD_XREC_ROUNDTRIP
360
16F
  0
DICTIONARY
  5
170
330
C6
100
AcDbDictionary
280
     1
281
     1
  3
ACAD_XREC_ROUNDTRIP
360
171
  0
DICTIONARY
  5
172
330
C7
100
AcDbDictionary
280
     1
281
     1
  3
ACAD_XREC_ROUNDTRIP
360
173
  0
DICTIONARY
  5
17A
330
CB
100
AcDbDictionary
280
     1
281
     1
  3
ACAD_XREC_ROUNDTRIP
360
17B
  0
DICTIONARY
  5
196
330
D9
100
AcDbDictionary
280
     1
281
     1
  3
ACAD_XREC_ROUNDTRIP
360
197
  0
DICTIONARY
  5
186
330
D1
100
AcDbDictionary
280
     1
281
     1
  3
ACAD_XREC_ROUNDTRIP
360
187
  0
DICTIONARY
  5
198
330
DA
100
AcDbDictionary
280
     1
281
     1
  3
ACAD_XREC_ROUNDTRIP
360
199
  0
DICTIONARY
  5
17E
330
CD
100
AcDbDictionary
280
     1
281
     1
  3
ACAD_XREC_ROUNDTRIP
360
17F
  0
DICTIONARY
  5
194
330
D8
100
AcDbDictionary
280
     1
281
     1
  3
ACAD_XREC_ROUNDTRIP
360
195
  0
DICTIONARY
  5
192
330
D7
100
AcDbDictionary
280
     1
281
     1
  3
ACAD_XREC_ROUNDTRIP
360
193
  0
DICTIONARY
  5
18C
330
D4
100
AcDbDictionary
280
     1
281
     1
  3
ACAD_XREC_ROUNDTRIP
360
18D
  0
DICTIONARY
  5
18E
330
D5
100
AcDbDictionary
280
     1
281
     1
  3
ACAD_XREC_ROUNDTRIP
360
18F
  0
DICTIONARY
  5
184
330
D0
100
AcDbDictionary
280
     1
281
     1
  3
ACAD_XREC_ROUNDTRIP
360
185
  0
DICTIONARY
  5
178
330
CA
100
AcDbDictionary
280
     1
281
     1
  3
ACAD_XREC_ROUNDTRIP
360
179
  0
DICTIONARY
  5
190
330
D6
100
AcDbDictionary
280
     1
281
     1
  3
ACAD_XREC_ROUNDTRIP
360
191
  0
XRECORD
  5
1A1
102
{ACAD_REACTORS
330
1A0
102
}
330
1A0
100
AcDbXrecord
280
     1
102
DISPLAYNAME
  1
Imperial24
102
FLAGS
 90
        0
  0
XRECORD
  5
B6
102
{ACAD_REACTORS
330
B4
102
}
330
B4
100
AcDbXrecord
280
     1
270
     1
271
     1
  0
XRECORD
  5
B5
102
{ACAD_REACTORS
330
B4
102
}
330
B4
100
AcDbXrecord
280
     1
270
     1
271
     1
  0
XRECORD
  5
B9
102
{ACAD_REACTORS
330
B4
102
}
330
B4
100
AcDbXrecord
280
     1
270
     1
271
     1
  0
XRECORD
  5
B8
102
{ACAD_REACTORS
330
B4
102
}
330
B4
100
AcDbXrecord
280
     1
270
     1
271
     1
  0
XRECORD
  5
BA
102
{ACAD_REACTORS
330
B4
102
}
330
B4
100
AcDbXrecord
280
     1
270
     1
271
     1
  0
XRECORD
  5
B7
102
{ACAD_REACTORS
330
B4
102
}
330
B4
100
AcDbXrecord
280
     1
270
     1
271
     1
  0
XRECORD
  5
AE
102
{ACAD_REACTORS
330
AC
102
}
330
AC
100
AcDbXrecord
280
     1
270
     1
271
     1
  0
XRECORD
  5
AD
102
{ACAD_REACTORS
330
AC
102
}
330
AC
100
AcDbXrecord
280
     1
270
     1
271
     1
  0
XRECORD
  5
B1
102
{ACAD_REACTORS
330
AC
102
}
330
AC
100
AcDbXrecord
280
     1
270
     1
271
     1
  0
XRECORD
  5
B0
102
{ACAD_REACTORS
330
AC
102
}
330
AC
100
AcDbXrecord
280
     1
270
     1
271
     1
  0
XRECORD
  5
B2
102
{ACAD_REACTORS
330
AC
102
}
330
AC
100
AcDbXrecord
280
     1
270
     1
271
     1
  0
XRECORD
  5
AF
102
{ACAD_REACTORS
330
AC
102
}
330
AC
100
AcDbXrecord
280
     1
270
     1
271
     1
  0
XRECORD
  5
BE
102
{ACAD_REACTORS
330
BC
102
}
330
BC
100
AcDbXrecord
280
     1
270
     1
271
     1
  0
XRECORD
  5
BD
102
{ACAD_REACTORS
330
BC
102
}
330
BC
100
AcDbXrecord
280
     1
270
     1
271
     1
  0
XRECORD
  5
C1
102
{ACAD_REACTORS
330
BC
102
}
330
BC
100
AcDbXrecord
280
     1
270
     1
271
     1
  0
XRECORD
  5
C0
102
{ACAD_REACTORS
330
BC
102
}
330
BC
100
AcDbXrecord
280
     1
270
     1
271
     1
  0
XRECORD
  5
C2
102
{ACAD_REACTORS
330
BC
102
}
330
BC
100
AcDbXrecord
280
     1
270
     1
271
     1
  0
XRECORD
  5
BF
102
{ACAD_REACTORS
330
BC
102
}
330
BC
100
AcDbXrecord
280
     1
270
     1
271
     1
  0
XRECORD
  5
19D
102
{ACAD_REACTORS
330
19C
102
}
330
19C
100
AcDbXrecord
280
     1
102
ACAD_ROUNDTRIP_2012_MLEADER_STYLE
298
     1
  0
XRECORD
  5
19F
102
{ACAD_REACTORS
330
19E
102
}
330
19E
100
AcDbXrecord
280
     1
102
DISPLAYNAME
  1
Imperial24
102
FLAGS
 90
        0
  0
CELLSTYLEMAP
  5
16A
102
{ACAD_REACTORS
330
169
102
}
330
169
100
AcDbCellStyleMap
 90
        3
300
CELLSTYLE
  1
TABLEFORMAT_BEGIN
 90
        5
170
     1
 91
        0
 92
    32768
 62
   257
 93
        1
300
CONTENTFORMAT
  1
CONTENTFORMAT_BEGIN
 90
        0
 91
        0
 92
      512
 93
        0
300

 40
0.0
140
1.0
 94
        5
 62
     0
340
11
144
0.25
309
CONTENTFORMAT_END
171
     0
 94
        0
309
TABLEFORMAT_END
  1
CELLSTYLE_BEGIN
 90
        1
 91
        1
300
_TITLE
309
CELLSTYLE_END
300
CELLSTYLE
  1
TABLEFORMAT_BEGIN
 90
        5
170
     1
 91
        0
 92
        0
 62
   257
 93
        1
300
CONTENTFORMAT
  1
CONTENTFORMAT_BEGIN
 90
        0
 91
        0
 92
      512
 93
        0
300

 40
0.0
140
1.0
 94
        5
 62
     0
340
11
144
0.18
309
CONTENTFORMAT_END
171
     0
 94
        0
309
TABLEFORMAT_END
  1
CELLSTYLE_BEGIN
 90
        2
 91
        1
300
_HEADER
309
CELLSTYLE_END
300
CELLSTYLE
  1
TABLEFORMAT_BEGIN
 90
        5
170
     1
 91
        0
 92
        0
 62
   257
 93
        1
300
CONTENTFORMAT
  1
CONTENTFORMAT_BEGIN
 90
        0
 91
        0
 92
      512
 93
        0
300

 40
0.0
140
1.0
 94
        2
 62
     0
340
11
144
0.18
309
CONTENTFORMAT_END
171
     0
 94
        0
309
TABLEFORMAT_END
  1
CELLSTYLE_BEGIN
 90
        3
 91
        2
300
_DATA
309
CELLSTYLE_END
  0
XRECORD
  5
177
102
{ACAD_REACTORS
330
176
102
}
330
176
100
AcDbXrecord
280
     1
102
RTVSPost2010Prop28
280
     1
102
RTVSPost2010PropOp28
 70
     1
102
RTVSPost2010Prop29
280
     1
102
RTVSPost2010PropOp29
 70
     1
102
RTVSPost2010Prop30
280
     0
102
RTVSPost2010PropOp30
 70
     1
102
RTVSPost2010Prop31
280
     0
102
RTVSPost2010PropOp31
 70
     1
102
RTVSPost2010Prop32
280
     0
102
RTVSPost2010PropOp32
 70
     1
102
RTVSPost2010Prop33
280
     0
102
RTVSPost2010PropOp33
 70
     1
102
RTVSPost2010Prop34
280
     0
102
RTVSPost2010PropOp34
 70
     1
102
RTVSPost2010Prop35
280
     0
102
RTVSPost2010PropOp35
 70
     1
102
RTVSPost2010Prop36
280
     0
102
RTVSPost2010PropOp36
 70
     1
102
RTVSPost2010Prop37
 90
       50
102
RTVSPost2010PropOp37
 70
     1
102
RTVSPost2010Prop38
140
0.0
102
RTVSPost2010PropOp38
 70
     1
102
RTVSPost2010Prop39
140
1.0
102
RTVSPost2010PropOp39
 70
     1
102
RTVSPost2010Prop40
 90
        0
102
RTVSPost2010PropOp40
 70
     1
102
RTVSPost2010Prop41ColorIndex
 90
       18
102
RTVSPost2010Prop41ColorRGB
 90
        0
102
RTVSPost2010PropOp41
 70
     1
102
RTVSPost2010Prop42
 90
       50
102
RTVSPost2010PropOp42
 70
     1
102
RTVSPost2010Prop43
 90
        3
102
RTVSPost2010PropOp43
 70
     1
102
RTVSPost2010Prop44ColorIndex
 90
        5
102
RTVSPost2010Prop44ColorRGB
 90
      255
102
RTVSPost2010PropOp44
 70
     1
102
RTVSPost2010Prop45
280
     0
102
RTVSPost2010PropOp45
 70
     1
102
RTVSPost2010Prop46
 90
       50
102
RTVSPost2010PropOp46
 70
     1
102
RTVSPost2010Prop47
 90
       50
102
RTVSPost2010PropOp47
 70
     1
102
RTVSPost2010Prop48
 90
       50
102
RTVSPost2010PropOp48
 70
     1
102
RTVSPost2010Prop49
280
     0
102
RTVSPost2010PropOp49
 70
     1
102
RTVSPost2010Prop50
 90
       50
102
RTVSPost2010PropOp50
 70
     1
102
RTVSPost2010Prop51ColorIndex
 90
      256
102
RTVSPost2010Prop51ColorRGB
 90
-16777216
102
RTVSPost2010PropOp51
 70
     0
102
RTVSPost2010Prop52
140
1.0
102
RTVSPost2010PropOp52
 70
     0
102
RTVSPost2010Prop53
 90
        2
102
RTVSPost2010PropOp53
 70
     1
102
RTVSPost2010Prop54
  1
strokes_ogs.tif
102
RTVSPost2010PropOp54
 70
     1
102
RTVSPost2010Prop55
280
     0
102
RTVSPost2010PropOp55
 70
     1
102
RTVSPost2010Prop56
140
1.0
102
RTVSPost2010PropOp56
 70
     1
102
RTVSPost2010Prop57
140
1.0
102
RTVSPost2010PropOp57
 70
     1
  0
XRECORD
  5
175
102
{ACAD_REACTORS
330
174
102
}
330
174
100
AcDbXrecord
280
     1
102
RTVSPost2010Prop28
280
     0
102
RTVSPost2010PropOp28
 70
     1
102
RTVSPost2010Prop29
280
     1
102
RTVSPost2010PropOp29
 70
     1
102
RTVSPost2010Prop30
280
     1
102
RTVSPost2010PropOp30
 70
     1
102
RTVSPost2010Prop31
280
     0
102
RTVSPost2010PropOp31
 70
     1
102
RTVSPost2010Prop32
280
     0
102
RTVSPost2010PropOp32
 70
     1
102
RTVSPost2010Prop33
280
     0
102
RTVSPost2010PropOp33
 70
     1
102
RTVSPost2010Prop34
280
     0
102
RTVSPost2010PropOp34
 70
     1
102
RTVSPost2010Prop35
280
     0
102
RTVSPost2010PropOp35
 70
     1
102
RTVSPost2010Prop36
280
     0
102
RTVSPost2010PropOp36
 70
     1
102
RTVSPost2010Prop37
 90
       50
102
RTVSPost2010PropOp37
 70
     1
102
RTVSPost2010Prop38
140
0.0
102
RTVSPost2010PropOp38
 70
     1
102
RTVSPost2010Prop39
140
1.0
102
RTVSPost2010PropOp39
 70
     1
102
RTVSPost2010Prop40
 90
        0
102
RTVSPost2010PropOp40
 70
     1
102
RTVSPost2010Prop41ColorIndex
 90
       18
102
RTVSPost2010Prop41ColorRGB
 90
        0
102
RTVSPost2010PropOp41
 70
     1
102
RTVSPost2010Prop42
 90
       50
102
RTVSPost2010PropOp42
 70
     1
102
RTVSPost2010Prop43
 90
        3
102
RTVSPost2010PropOp43
 70
     1
102
RTVSPost2010Prop44ColorIndex
 90
        5
102
RTVSPost2010Prop44ColorRGB
 90
      255
102
RTVSPost2010PropOp44
 70
     1
102
RTVSPost2010Prop45
280
     0
102
RTVSPost2010PropOp45
 70
     1
102
RTVSPost2010Prop46
 90
       50
102
RTVSPost2010PropOp46
 70
     1
102
RTVSPost2010Prop47
 90
       50
102
RTVSPost2010PropOp47
 70
     1
102
RTVSPost2010Prop48
 90
       50
102
RTVSPost2010PropOp48
 70
     1
102
RTVSPost2010Prop49
280
     0
102
RTVSPost2010PropOp49
 70
     1
102
RTVSPost2010Prop50
 90
       50
102
RTVSPost2010PropOp50
 70
     1
102
RTVSPost2010Prop51ColorIndex
 90
      256
102
RTVSPost2010Prop51ColorRGB
 90
-16777216
102
RTVSPost2010PropOp51
 70
     0
102
RTVSPost2010Prop52
140
1.0
102
RTVSPost2010PropOp52
 70
     0
102
RTVSPost2010Prop53
 90
        2
102
RTVSPost2010PropOp53
 70
     1
102
RTVSPost2010Prop54
  1
strokes_ogs.tif
102
RTVSPost2010PropOp54
 70
     1
102
RTVSPost2010Prop55
280
     0
102
RTVSPost2010PropOp55
 70
     1
102
RTVSPost2010Prop56
140
1.0
102
RTVSPost2010PropOp56
 70
     1
102
RTVSPost2010Prop57
140
1.0
102
RTVSPost2010PropOp57
 70
     1
  0
XRECORD
  5
183
102
{ACAD_REACTORS
330
182
102
}
330
182
100
AcDbXrecord
280
     1
102
RTVSPost2010Prop28
280
     0
102
RTVSPost2010PropOp28
 70
     1
102
RTVSPost2010Prop29
280
     1
102
RTVSPost2010PropOp29
 70
     1
102
RTVSPost2010Prop30
280
     1
102
RTVSPost2010PropOp30
 70
     1
102
RTVSPost2010Prop31
280
     0
102
RTVSPost2010PropOp31
 70
     1
102
RTVSPost2010Prop32
280
     0
102
RTVSPost2010PropOp32
 70
     1
102
RTVSPost2010Prop33
280
     0
102
RTVSPost2010PropOp33
 70
     1
102
RTVSPost2010Prop34
280
     0
102
RTVSPost2010PropOp34
 70
     1
102
RTVSPost2010Prop35
280
     0
102
RTVSPost2010PropOp35
 70
     1
102
RTVSPost2010Prop36
280
     0
102
RTVSPost2010PropOp36
 70
     1
102
RTVSPost2010Prop37
 90
       50
102
RTVSPost2010PropOp37
 70
     1
102
RTVSPost2010Prop38
140
0.0
102
RTVSPost2010PropOp38
 70
     1
102
RTVSPost2010Prop39
140
1.0
102
RTVSPost2010PropOp39
 70
     1
102
RTVSPost2010Prop40
 90
        0
102
RTVSPost2010PropOp40
 70
     1
102
RTVSPost2010Prop41ColorIndex
 90
       18
102
RTVSPost2010Prop41ColorRGB
 90
        0
102
RTVSPost2010PropOp41
 70
     1
102
RTVSPost2010Prop42
 90
       50
102
RTVSPost2010PropOp42
 70
     1
102
RTVSPost2010Prop43
 90
        3
102
RTVSPost2010PropOp43
 70
     1
102
RTVSPost2010Prop44ColorIndex
 90
        5
102
RTVSPost2010Prop44ColorRGB
 90
      255
102
RTVSPost2010PropOp44
 70
     1
102
RTVSPost2010Prop45
280
     0
102
RTVSPost2010PropOp45
 70
     1
102
RTVSPost2010Prop46
 90
       50
102
RTVSPost2010PropOp46
 70
     1
102
RTVSPost2010Prop47
 90
       50
102
RTVSPost2010PropOp47
 70
     1
102
RTVSPost2010Prop48
 90
       50
102
RTVSPost2010PropOp48
 70
     1
102
RTVSPost2010Prop49
280
     0
102
RTVSPost2010PropOp49
 70
     1
102
RTVSPost2010Prop50
 90
       50
102
RTVSPost2010PropOp50
 70
     1
102
RTVSPost2010Prop51ColorIndex
 90
      256
102
RTVSPost2010Prop51ColorRGB
 90
-16777216
102
RTVSPost2010PropOp51
 70
     0
102
RTVSPost2010Prop52
140
1.0
102
RTVSPost2010PropOp52
 70
     0
102
RTVSPost2010Prop53
 90
        2
102
RTVSPost2010PropOp53
 70
     1
102
RTVSPost2010Prop54
  1
strokes_ogs.tif
102
RTVSPost2010PropOp54
 70
     1
102
RTVSPost2010Prop55
280
     0
102
RTVSPost2010PropOp55
 70
     1
102
RTVSPost2010Prop56
140
1.0
102
RTVSPost2010PropOp56
 70
     1
102
RTVSPost2010Prop57
140
1.0
102
RTVSPost2010PropOp57
 70
     1
  0
XRECORD
  5
18B
102
{ACAD_REACTORS
330
18A
102
}
330
18A
100
AcDbXrecord
280
     1
102
RTVSPost2010Prop28
280
     0
102
RTVSPost2010PropOp28
 70
     1
102
RTVSPost2010Prop29
280
     1
102
RTVSPost2010PropOp29
 70
     1
102
RTVSPost2010Prop30
280
     1
102
RTVSPost2010PropOp30
 70
     1
102
RTVSPost2010Prop31
280
     0
102
RTVSPost2010PropOp31
 70
     1
102
RTVSPost2010Prop32
280
     0
102
RTVSPost2010PropOp32
 70
     1
102
RTVSPost2010Prop33
280
     0
102
RTVSPost2010PropOp33
 70
     1
102
RTVSPost2010Prop34
280
     0
102
RTVSPost2010PropOp34
 70
     1
102
RTVSPost2010Prop35
280
     0
102
RTVSPost2010PropOp35
 70
     1
102
RTVSPost2010Prop36
280
     0
102
RTVSPost2010PropOp36
 70
     1
102
RTVSPost2010Prop37
 90
       50
102
RTVSPost2010PropOp37
 70
     1
102
RTVSPost2010Prop38
140
0.0
102
RTVSPost2010PropOp38
 70
     1
102
RTVSPost2010Prop39
140
1.0
102
RTVSPost2010PropOp39
 70
     1
102
RTVSPost2010Prop40
 90
        0
102
RTVSPost2010PropOp40
 70
     1
102
RTVSPost2010Prop41ColorIndex
 90
       18
102
RTVSPost2010Prop41ColorRGB
 90
        0
102
RTVSPost2010PropOp41
 70
     1
102
RTVSPost2010Prop42
 90
       50
102
RTVSPost2010PropOp42
 70
     1
102
RTVSPost2010Prop43
 90
        3
102
RTVSPost2010PropOp43
 70
     1
102
RTVSPost2010Prop44ColorIndex
 90
        5
102
RTVSPost2010Prop44ColorRGB
 90
      255
102
RTVSPost2010PropOp44
 70
     1
102
RTVSPost2010Prop45
280
     0
102
RTVSPost2010PropOp45
 70
     1
102
RTVSPost2010Prop46
 90
       50
102
RTVSPost2010PropOp46
 70
     1
102
RTVSPost2010Prop47
 90
       50
102
RTVSPost2010PropOp47
 70
     1
102
RTVSPost2010Prop48
 90
       50
102
RTVSPost2010PropOp48
 70
     1
102
RTVSPost2010Prop49
280
     0
102
RTVSPost2010PropOp49
 70
     1
102
RTVSPost2010Prop50
 90
       50
102
RTVSPost2010PropOp50
 70
     1
102
RTVSPost2010Prop51ColorIndex
 90
      256
102
RTVSPost2010Prop51ColorRGB
 90
-16777216
102
RTVSPost2010PropOp51
 70
     0
102
RTVSPost2010Prop52
140
1.0
102
RTVSPost2010PropOp52
 70
     0
102
RTVSPost2010Prop53
 90
        2
102
RTVSPost2010PropOp53
 70
     1
102
RTVSPost2010Prop54
  1
strokes_ogs.tif
102
RTVSPost2010PropOp54
 70
     1
102
RTVSPost2010Prop55
280
     0
102
RTVSPost2010PropOp55
 70
     1
102
RTVSPost2010Prop56
140
1.0
102
RTVSPost2010PropOp56
 70
     1
102
RTVSPost2010Prop57
140
1.0
102
RTVSPost2010PropOp57
 70
     1
  0
XRECORD
  5
17D
102
{ACAD_REACTORS
330
17C
102
}
330
17C
100
AcDbXrecord
280
     1
102
RTVSPost2010Prop28
280
     0
102
RTVSPost2010PropOp28
 70
     1
102
RTVSPost2010Prop29
280
     1
102
RTVSPost2010PropOp29
 70
     1
102
RTVSPost2010Prop30
280
     1
102
RTVSPost2010PropOp30
 70
     1
102
RTVSPost2010Prop31
280
     0
102
RTVSPost2010PropOp31
 70
     1
102
RTVSPost2010Prop32
280
     0
102
RTVSPost2010PropOp32
 70
     1
102
RTVSPost2010Prop33
280
     0
102
RTVSPost2010PropOp33
 70
     1
102
RTVSPost2010Prop34
280
     0
102
RTVSPost2010PropOp34
 70
     1
102
RTVSPost2010Prop35
280
     0
102
RTVSPost2010PropOp35
 70
     1
102
RTVSPost2010Prop36
280
     0
102
RTVSPost2010PropOp36
 70
     1
102
RTVSPost2010Prop37
 90
       50
102
RTVSPost2010PropOp37
 70
     1
102
RTVSPost2010Prop38
140
0.0
102
RTVSPost2010PropOp38
 70
     1
102
RTVSPost2010Prop39
140
1.0
102
RTVSPost2010PropOp39
 70
     1
102
RTVSPost2010Prop40
 90
        0
102
RTVSPost2010PropOp40
 70
     1
102
RTVSPost2010Prop41ColorIndex
 90
       18
102
RTVSPost2010Prop41ColorRGB
 90
        0
102
RTVSPost2010PropOp41
 70
     1
102
RTVSPost2010Prop42
 90
       50
102
RTVSPost2010PropOp42
 70
     1
102
RTVSPost2010Prop43
 90
        3
102
RTVSPost2010PropOp43
 70
     1
102
RTVSPost2010Prop44ColorIndex
 90
        5
102
RTVSPost2010Prop44ColorRGB
 90
      255
102
RTVSPost2010PropOp44
 70
     1
102
RTVSPost2010Prop45
280
     0
102
RTVSPost2010PropOp45
 70
     1
102
RTVSPost2010Prop46
 90
       50
102
RTVSPost2010PropOp46
 70
     1
102
RTVSPost2010Prop47
 90
       50
102
RTVSPost2010PropOp47
 70
     1
102
RTVSPost2010Prop48
 90
       50
102
RTVSPost2010PropOp48
 70
     1
102
RTVSPost2010Prop49
280
     0
102
RTVSPost2010PropOp49
 70
     1
102
RTVSPost2010Prop50
 90
       50
102
RTVSPost2010PropOp50
 70
     1
102
RTVSPost2010Prop51ColorIndex
 90
      256
102
RTVSPost2010Prop51ColorRGB
 90
-16777216
102
RTVSPost2010PropOp51
 70
     0
102
RTVSPost2010Prop52
140
1.0
102
RTVSPost2010PropOp52
 70
     0
102
RTVSPost2010Prop53
 90
        2
102
RTVSPost2010PropOp53
 70
     1
102
RTVSPost2010Prop54
  1
strokes_ogs.tif
102
RTVSPost2010PropOp54
 70
     1
102
RTVSPost2010Prop55
280
     0
102
RTVSPost2010PropOp55
 70
     1
102
RTVSPost2010Prop56
140
1.0
102
RTVSPost2010PropOp56
 70
     1
102
RTVSPost2010Prop57
140
1.0
102
RTVSPost2010PropOp57
 70
     1
  0
XRECORD
  5
181
102
{ACAD_REACTORS
330
180
102
}
330
180
100
AcDbXrecord
280
     1
102
RTVSPost2010Prop28
280
     0
102
RTVSPost2010PropOp28
 70
     1
102
RTVSPost2010Prop29
280
     1
102
RTVSPost2010PropOp29
 70
     1
102
RTVSPost2010Prop30
280
     1
102
RTVSPost2010PropOp30
 70
     1
102
RTVSPost2010Prop31
280
     0
102
RTVSPost2010PropOp31
 70
     1
102
RTVSPost2010Prop32
280
     0
102
RTVSPost2010PropOp32
 70
     1
102
RTVSPost2010Prop33
280
     0
102
RTVSPost2010PropOp33
 70
     1
102
RTVSPost2010Prop34
280
     0
102
RTVSPost2010PropOp34
 70
     1
102
RTVSPost2010Prop35
280
     0
102
RTVSPost2010PropOp35
 70
     1
102
RTVSPost2010Prop36
280
     0
102
RTVSPost2010PropOp36
 70
     1
102
RTVSPost2010Prop37
 90
       50
102
RTVSPost2010PropOp37
 70
     1
102
RTVSPost2010Prop38
140
0.0
102
RTVSPost2010PropOp38
 70
     1
102
RTVSPost2010Prop39
140
1.0
102
RTVSPost2010PropOp39
 70
     1
102
RTVSPost2010Prop40
 90
        0
102
RTVSPost2010PropOp40
 70
     1
102
RTVSPost2010Prop41ColorIndex
 90
       18
102
RTVSPost2010Prop41ColorRGB
 90
        0
102
RTVSPost2010PropOp41
 70
     1
102
RTVSPost2010Prop42
 90
       50
102
RTVSPost2010PropOp42
 70
     1
102
RTVSPost2010Prop43
 90
        3
102
RTVSPost2010PropOp43
 70
     1
102
RTVSPost2010Prop44ColorIndex
 90
        5
102
RTVSPost2010Prop44ColorRGB
 90
      255
102
RTVSPost2010PropOp44
 70
     1
102
RTVSPost2010Prop45
280
     0
102
RTVSPost2010PropOp45
 70
     1
102
RTVSPost2010Prop46
 90
       50
102
RTVSPost2010PropOp46
 70
     1
102
RTVSPost2010Prop47
 90
       50
102
RTVSPost2010PropOp47
 70
     1
102
RTVSPost2010Prop48
 90
       50
102
RTVSPost2010PropOp48
 70
     1
102
RTVSPost2010Prop49
280
     0
102
RTVSPost2010PropOp49
 70
     1
102
RTVSPost2010Prop50
 90
       50
102
RTVSPost2010PropOp50
 70
     1
102
RTVSPost2010Prop51ColorIndex
 90
      256
102
RTVSPost2010Prop51ColorRGB
 90
-16777216
102
RTVSPost2010PropOp51
 70
     0
102
RTVSPost2010Prop52
140
1.0
102
RTVSPost2010PropOp52
 70
     0
102
RTVSPost2010Prop53
 90
        2
102
RTVSPost2010PropOp53
 70
     1
102
RTVSPost2010Prop54
  1
strokes_ogs.tif
102
RTVSPost2010PropOp54
 70
     1
102
RTVSPost2010Prop55
280
     0
102
RTVSPost2010PropOp55
 70
     1
102
RTVSPost2010Prop56
140
1.0
102
RTVSPost2010PropOp56
 70
     1
102
RTVSPost2010Prop57
140
1.0
102
RTVSPost2010PropOp57
 70
     1
  0
XRECORD
  5
19B
102
{ACAD_REACTORS
330
19A
102
}
330
19A
100
AcDbXrecord
280
     1
102
RTVSPost2010Prop28
280
     0
102
RTVSPost2010PropOp28
 70
     0
102
RTVSPost2010Prop29
280
     1
102
RTVSPost2010PropOp29
 70
     0
102
RTVSPost2010Prop30
280
     1
102
RTVSPost2010PropOp30
 70
     0
102
RTVSPost2010Prop31
280
     0
102
RTVSPost2010PropOp31
 70
     0
102
RTVSPost2010Prop32
280
     0
102
RTVSPost2010PropOp32
 70
     0
102
RTVSPost2010Prop33
280
     0
102
RTVSPost2010PropOp33
 70
     0
102
RTVSPost2010Prop34
280
     0
102
RTVSPost2010PropOp34
 70
     0
102
RTVSPost2010Prop35
280
     0
102
RTVSPost2010PropOp35
 70
     0
102
RTVSPost2010Prop36
280
     0
102
RTVSPost2010PropOp36
 70
     0
102
RTVSPost2010Prop37
 90
       50
102
RTVSPost2010PropOp37
 70
     0
102
RTVSPost2010Prop38
140
0.0
102
RTVSPost2010PropOp38
 70
     0
102
RTVSPost2010Prop39
140
1.0
102
RTVSPost2010PropOp39
 70
     0
102
RTVSPost2010Prop40
 90
        0
102
RTVSPost2010PropOp40
 70
     0
102
RTVSPost2010Prop41ColorIndex
 90
       18
102
RTVSPost2010Prop41ColorRGB
 90
        0
102
RTVSPost2010PropOp41
 70
     0
102
RTVSPost2010Prop42
 90
       50
102
RTVSPost2010PropOp42
 70
     0
102
RTVSPost2010Prop43
 90
        3
102
RTVSPost2010PropOp43
 70
     0
102
RTVSPost2010Prop44ColorIndex
 90
        5
102
RTVSPost2010Prop44ColorRGB
 90
      255
102
RTVSPost2010PropOp44
 70
     0
102
RTVSPost2010Prop45
280
     0
102
RTVSPost2010PropOp45
 70
     0
102
RTVSPost2010Prop46
 90
       50
102
RTVSPost2010PropOp46
 70
     0
102
RTVSPost2010Prop47
 90
       50
102
RTVSPost2010PropOp47
 70
     0
102
RTVSPost2010Prop48
 90
       50
102
RTVSPost2010PropOp48
 70
     0
102
RTVSPost2010Prop49
280
     0
102
RTVSPost2010PropOp49
 70
     0
102
RTVSPost2010Prop50
 90
       50
102
RTVSPost2010PropOp50
 70
     0
102
RTVSPost2010Prop51ColorIndex
 90
      256
102
RTVSPost2010Prop51ColorRGB
 90
-16777216
102
RTVSPost2010PropOp51
 70
     0
102
RTVSPost2010Prop52
140
1.0
102
RTVSPost2010PropOp52
 70
     0
102
RTVSPost2010Prop53
 90
        2
102
RTVSPost2010PropOp53
 70
     0
102
RTVSPost2010Prop54
  1
strokes_ogs.tif
102
RTVSPost2010PropOp54
 70
     0
102
RTVSPost2010Prop55
280
     0
102
RTVSPost2010PropOp55
 70
     0
102
RTVSPost2010Prop56
140
1.0
102
RTVSPost2010PropOp56
 70
     0
102
RTVSPost2010Prop57
140
1.0
102
RTVSPost2010PropOp57
 70
     0
  0
XRECORD
  5
189
102
{ACAD_REACTORS
330
188
102
}
330
188
100
AcDbXrecord
280
     1
102
RTVSPost2010Prop28
280
     0
102
RTVSPost2010PropOp28
 70
     1
102
RTVSPost2010Prop29
280
     1
102
RTVSPost2010PropOp29
 70
     1
102
RTVSPost2010Prop30
280
     1
102
RTVSPost2010PropOp30
 70
     1
102
RTVSPost2010Prop31
280
     0
102
RTVSPost2010PropOp31
 70
     1
102
RTVSPost2010Prop32
280
     0
102
RTVSPost2010PropOp32
 70
     1
102
RTVSPost2010Prop33
280
     0
102
RTVSPost2010PropOp33
 70
     1
102
RTVSPost2010Prop34
280
     0
102
RTVSPost2010PropOp34
 70
     1
102
RTVSPost2010Prop35
280
     0
102
RTVSPost2010PropOp35
 70
     1
102
RTVSPost2010Prop36
280
     0
102
RTVSPost2010PropOp36
 70
     1
102
RTVSPost2010Prop37
 90
       50
102
RTVSPost2010PropOp37
 70
     1
102
RTVSPost2010Prop38
140
0.0
102
RTVSPost2010PropOp38
 70
     1
102
RTVSPost2010Prop39
140
1.0
102
RTVSPost2010PropOp39
 70
     1
102
RTVSPost2010Prop40
 90
        0
102
RTVSPost2010PropOp40
 70
     1
102
RTVSPost2010Prop41ColorIndex
 90
       18
102
RTVSPost2010Prop41ColorRGB
 90
        0
102
RTVSPost2010PropOp41
 70
     1
102
RTVSPost2010Prop42
 90
       50
102
RTVSPost2010PropOp42
 70
     1
102
RTVSPost2010Prop43
 90
        3
102
RTVSPost2010PropOp43
 70
     1
102
RTVSPost2010Prop44ColorIndex
 90
        5
102
RTVSPost2010Prop44ColorRGB
 90
      255
102
RTVSPost2010PropOp44
 70
     1
102
RTVSPost2010Prop45
280
     0
102
RTVSPost2010PropOp45
 70
     1
102
RTVSPost2010Prop46
 90
       50
102
RTVSPost2010PropOp46
 70
     1
102
RTVSPost2010Prop47
 90
       50
102
RTVSPost2010PropOp47
 70
     1
102
RTVSPost2010Prop48
 90
       50
102
RTVSPost2010PropOp48
 70
     1
102
RTVSPost2010Prop49
280
     0
102
RTVSPost2010PropOp49
 70
     1
102
RTVSPost2010Prop50
 90
       50
102
RTVSPost2010PropOp50
 70
     1
102
RTVSPost2010Prop51ColorIndex
 90
      256
102
RTVSPost2010Prop51ColorRGB
 90
-16777216
102
RTVSPost2010PropOp51
 70
     0
102
RTVSPost2010Prop52
140
1.0
102
RTVSPost2010PropOp52
 70
     0
102
RTVSPost2010Prop53
 90
        2
102
RTVSPost2010PropOp53
 70
     1
102
RTVSPost2010Prop54
  1
strokes_ogs.tif
102
RTVSPost2010PropOp54
 70
     1
102
RTVSPost2010Prop55
280
     0
102
RTVSPost2010PropOp55
 70
     1
102
RTVSPost2010Prop56
140
1.0
102
RTVSPost2010PropOp56
 70
     1
102
RTVSPost2010Prop57
140
1.0
102
RTVSPost2010PropOp57
 70
     1
  0
XRECORD
  5
16D
102
{ACAD_REACTORS
330
16C
102
}
330
16C
100
AcDbXrecord
280
     1
102
RTVSPost2010Prop28
280
     0
102
RTVSPost2010PropOp28
 70
     1
102
RTVSPost2010Prop29
280
     1
102
RTVSPost2010PropOp29
 70
     1
102
RTVSPost2010Prop30
280
     1
102
RTVSPost2010PropOp30
 70
     1
102
RTVSPost2010Prop31
280
     0
102
RTVSPost2010PropOp31
 70
     1
102
RTVSPost2010Prop32
280
     0
102
RTVSPost2010PropOp32
 70
     1
102
RTVSPost2010Prop33
280
     0
102
RTVSPost2010PropOp33
 70
     1
102
RTVSPost2010Prop34
280
     0
102
RTVSPost2010PropOp34
 70
     1
102
RTVSPost2010Prop35
280
     0
102
RTVSPost2010PropOp35
 70
     1
102
RTVSPost2010Prop36
280
     0
102
RTVSPost2010PropOp36
 70
     1
102
RTVSPost2010Prop37
 90
       50
102
RTVSPost2010PropOp37
 70
     1
102
RTVSPost2010Prop38
140
0.0
102
RTVSPost2010PropOp38
 70
     1
102
RTVSPost2010Prop39
140
1.0
102
RTVSPost2010PropOp39
 70
     1
102
RTVSPost2010Prop40
 90
        0
102
RTVSPost2010PropOp40
 70
     1
102
RTVSPost2010Prop41ColorIndex
 90
       18
102
RTVSPost2010Prop41ColorRGB
 90
        0
102
RTVSPost2010PropOp41
 70
     1
102
RTVSPost2010Prop42
 90
       50
102
RTVSPost2010PropOp42
 70
     1
102
RTVSPost2010Prop43
 90
        3
102
RTVSPost2010PropOp43
 70
     1
102
RTVSPost2010Prop44ColorIndex
 90
        5
102
RTVSPost2010Prop44ColorRGB
 90
      255
102
RTVSPost2010PropOp44
 70
     1
102
RTVSPost2010Prop45
280
     0
102
RTVSPost2010PropOp45
 70
     1
102
RTVSPost2010Prop46
 90
       50
102
RTVSPost2010PropOp46
 70
     1
102
RTVSPost2010Prop47
 90
       50
102
RTVSPost2010PropOp47
 70
     1
102
RTVSPost2010Prop48
 90
       50
102
RTVSPost2010PropOp48
 70
     1
102
RTVSPost2010Prop49
280
     0
102
RTVSPost2010PropOp49
 70
     1
102
RTVSPost2010Prop50
 90
       50
102
RTVSPost2010PropOp50
 70
     1
102
RTVSPost2010Prop51ColorIndex
 90
      256
102
RTVSPost2010Prop51ColorRGB
 90
-16777216
102
RTVSPost2010PropOp51
 70
     0
102
RTVSPost2010Prop52
140
1.0
102
RTVSPost2010PropOp52
 70
     0
102
RTVSPost2010Prop53
 90
        2
102
RTVSPost2010PropOp53
 70
     1
102
RTVSPost2010Prop54
  1
strokes_ogs.tif
102
RTVSPost2010PropOp54
 70
     1
102
RTVSPost2010Prop55
280
     0
102
RTVSPost2010PropOp55
 70
     1
102
RTVSPost2010Prop56
140
1.0
102
RTVSPost2010PropOp56
 70
     1
102
RTVSPost2010Prop57
140
1.0
102
RTVSPost2010PropOp57
 70
     1
  0
XRECORD
  5
16F
102
{ACAD_REACTORS
330
16E
102
}
330
16E
100
AcDbXrecord
280
     1
102
RTVSPost2010Prop28
280
     0
102
RTVSPost2010PropOp28
 70
     1
102
RTVSPost2010Prop29
280
     1
102
RTVSPost2010PropOp29
 70
     1
102
RTVSPost2010Prop30
280
     1
102
RTVSPost2010PropOp30
 70
     1
102
RTVSPost2010Prop31
280
     0
102
RTVSPost2010PropOp31
 70
     1
102
RTVSPost2010Prop32
280
     0
102
RTVSPost2010PropOp32
 70
     1
102
RTVSPost2010Prop33
280
     0
102
RTVSPost2010PropOp33
 70
     1
102
RTVSPost2010Prop34
280
     0
102
RTVSPost2010PropOp34
 70
     1
102
RTVSPost2010Prop35
280
     0
102
RTVSPost2010PropOp35
 70
     1
102
RTVSPost2010Prop36
280
     0
102
RTVSPost2010PropOp36
 70
     1
102
RTVSPost2010Prop37
 90
       50
102
RTVSPost2010PropOp37
 70
     1
102
RTVSPost2010Prop38
140
0.0
102
RTVSPost2010PropOp38
 70
     1
102
RTVSPost2010Prop39
140
1.0
102
RTVSPost2010PropOp39
 70
     1
102
RTVSPost2010Prop40
 90
        0
102
RTVSPost2010PropOp40
 70
     1
102
RTVSPost2010Prop41ColorIndex
 90
       18
102
RTVSPost2010Prop41ColorRGB
 90
        0
102
RTVSPost2010PropOp41
 70
     1
102
RTVSPost2010Prop42
 90
       50
102
RTVSPost2010PropOp42
 70
     1
102
RTVSPost2010Prop43
 90
        3
102
RTVSPost2010PropOp43
 70
     1
102
RTVSPost2010Prop44ColorIndex
 90
        5
102
RTVSPost2010Prop44ColorRGB
 90
      255
102
RTVSPost2010PropOp44
 70
     1
102
RTVSPost2010Prop45
280
     0
102
RTVSPost2010PropOp45
 70
     1
102
RTVSPost2010Prop46
 90
       50
102
RTVSPost2010PropOp46
 70
     1
102
RTVSPost2010Prop47
 90
       50
102
RTVSPost2010PropOp47
 70
     1
102
RTVSPost2010Prop48
 90
       50
102
RTVSPost2010PropOp48
 70
     1
102
RTVSPost2010Prop49
280
     0
102
RTVSPost2010PropOp49
 70
     1
102
RTVSPost2010Prop50
 90
       50
102
RTVSPost2010PropOp50
 70
     1
102
RTVSPost2010Prop51ColorIndex
 90
      256
102
RTVSPost2010Prop51ColorRGB
 90
-16777216
102
RTVSPost2010PropOp51
 70
     0
102
RTVSPost2010Prop52
140
1.0
102
RTVSPost2010PropOp52
 70
     0
102
RTVSPost2010Prop53
 90
        2
102
RTVSPost2010PropOp53
 70
     1
102
RTVSPost2010Prop54
  1
strokes_ogs.tif
102
RTVSPost2010PropOp54
 70
     1
102
RTVSPost2010Prop55
280
     0
102
RTVSPost2010PropOp55
 70
     1
102
RTVSPost2010Prop56
140
1.0
102
RTVSPost2010PropOp56
 70
     1
102
RTVSPost2010Prop57
140
1.0
102
RTVSPost2010PropOp57
 70
     1
  0
XRECORD
  5
171
102
{ACAD_REACTORS
330
170
102
}
330
170
100
AcDbXrecord
280
     1
102
RTVSPost2010Prop28
280
     0
102
RTVSPost2010PropOp28
 70
     1
102
RTVSPost2010Prop29
280
     1
102
RTVSPost2010PropOp29
 70
     1
102
RTVSPost2010Prop30
280
     1
102
RTVSPost2010PropOp30
 70
     1
102
RTVSPost2010Prop31
280
     0
102
RTVSPost2010PropOp31
 70
     1
102
RTVSPost2010Prop32
280
     0
102
RTVSPost2010PropOp32
 70
     1
102
RTVSPost2010Prop33
280
     0
102
RTVSPost2010PropOp33
 70
     1
102
RTVSPost2010Prop34
280
     0
102
RTVSPost2010PropOp34
 70
     1
102
RTVSPost2010Prop35
280
     0
102
RTVSPost2010PropOp35
 70
     1
102
RTVSPost2010Prop36
280
     0
102
RTVSPost2010PropOp36
 70
     1
102
RTVSPost2010Prop37
 90
       50
102
RTVSPost2010PropOp37
 70
     1
102
RTVSPost2010Prop38
140
0.0
102
RTVSPost2010PropOp38
 70
     1
102
RTVSPost2010Prop39
140
1.0
102
RTVSPost2010PropOp39
 70
     1
102
RTVSPost2010Prop40
 90
        0
102
RTVSPost2010PropOp40
 70
     1
102
RTVSPost2010Prop41ColorIndex
 90
       18
102
RTVSPost2010Prop41ColorRGB
 90
        0
102
RTVSPost2010PropOp41
 70
     1
102
RTVSPost2010Prop42
 90
       50
102
RTVSPost2010PropOp42
 70
     1
102
RTVSPost2010Prop43
 90
        3
102
RTVSPost2010PropOp43
 70
     1
102
RTVSPost2010Prop44ColorIndex
 90
        5
102
RTVSPost2010Prop44ColorRGB
 90
      255
102
RTVSPost2010PropOp44
 70
     1
102
RTVSPost2010Prop45
280
     0
102
RTVSPost2010PropOp45
 70
     1
102
RTVSPost2010Prop46
 90
       50
102
RTVSPost2010PropOp46
 70
     1
102
RTVSPost2010Prop47
 90
       50
102
RTVSPost2010PropOp47
 70
     1
102
RTVSPost2010Prop48
 90
       50
102
RTVSPost2010PropOp48
 70
     1
102
RTVSPost2010Prop49
280
     0
102
RTVSPost2010PropOp49
 70
     1
102
RTVSPost2010Prop50
 90
       50
102
RTVSPost2010PropOp50
 70
     1
102
RTVSPost2010Prop51ColorIndex
 90
      256
102
RTVSPost2010Prop51ColorRGB
 90
-16777216
102
RTVSPost2010PropOp51
 70
     0
102
RTVSPost2010Prop52
140
1.0
102
RTVSPost2010PropOp52
 70
     0
102
RTVSPost2010Prop53
 90
        2
102
RTVSPost2010PropOp53
 70
     1
102
RTVSPost2010Prop54
  1
strokes_ogs.tif
102
RTVSPost2010PropOp54
 70
     1
102
RTVSPost2010Prop55
280
     0
102
RTVSPost2010PropOp55
 70
     1
102
RTVSPost2010Prop56
140
1.0
102
RTVSPost2010PropOp56
 70
     1
102
RTVSPost2010Prop57
140
1.0
102
RTVSPost2010PropOp57
 70
     1
  0
XRECORD
  5
173
102
{ACAD_REACTORS
330
172
102
}
330
172
100
AcDbXrecord
280
     1
102
RTVSPost2010Prop28
280
     0
102
RTVSPost2010PropOp28
 70
     1
102
RTVSPost2010Prop29
280
     1
102
RTVSPost2010PropOp29
 70
     1
102
RTVSPost2010Prop30
280
     1
102
RTVSPost2010PropOp30
 70
     1
102
RTVSPost2010Prop31
280
     0
102
RTVSPost2010PropOp31
 70
     1
102
RTVSPost2010Prop32
280
     0
102
RTVSPost2010PropOp32
 70
     1
102
RTVSPost2010Prop33
280
     0
102
RTVSPost2010PropOp33
 70
     1
102
RTVSPost2010Prop34
280
     0
102
RTVSPost2010PropOp34
 70
     1
102
RTVSPost2010Prop35
280
     0
102
RTVSPost2010PropOp35
 70
     1
102
RTVSPost2010Prop36
280
     0
102
RTVSPost2010PropOp36
 70
     1
102
RTVSPost2010Prop37
 90
       50
102
RTVSPost2010PropOp37
 70
     1
102
RTVSPost2010Prop38
140
0.0
102
RTVSPost2010PropOp38
 70
     1
102
RTVSPost2010Prop39
140
1.0
102
RTVSPost2010PropOp39
 70
     1
102
RTVSPost2010Prop40
 90
        0
102
RTVSPost2010PropOp40
 70
     1
102
RTVSPost2010Prop41ColorIndex
 90
       18
102
RTVSPost2010Prop41ColorRGB
 90
        0
102
RTVSPost2010PropOp41
 70
     1
102
RTVSPost2010Prop42
 90
       50
102
RTVSPost2010PropOp42
 70
     1
102
RTVSPost2010Prop43
 90
        3
102
RTVSPost2010PropOp43
 70
     1
102
RTVSPost2010Prop44ColorIndex
 90
        5
102
RTVSPost2010Prop44ColorRGB
 90
      255
102
RTVSPost2010PropOp44
 70
     1
102
RTVSPost2010Prop45
280
     0
102
RTVSPost2010PropOp45
 70
     1
102
RTVSPost2010Prop46
 90
       50
102
RTVSPost2010PropOp46
 70
     1
102
RTVSPost2010Prop47
 90
       50
102
RTVSPost2010PropOp47
 70
     1
102
RTVSPost2010Prop48
 90
       50
102
RTVSPost2010PropOp48
 70
     1
102
RTVSPost2010Prop49
280
     0
102
RTVSPost2010PropOp49
 70
     1
102
RTVSPost2010Prop50
 90
       50
102
RTVSPost2010PropOp50
 70
     1
102
RTVSPost2010Prop51ColorIndex
 90
      256
102
RTVSPost2010Prop51ColorRGB
 90
-16777216
102
RTVSPost2010PropOp51
 70
     0
102
RTVSPost2010Prop52
140
1.0
102
RTVSPost2010PropOp52
 70
     0
102
RTVSPost2010Prop53
 90
        2
102
RTVSPost2010PropOp53
 70
     1
102
RTVSPost2010Prop54
  1
strokes_ogs.tif
102
RTVSPost2010PropOp54
 70
     1
102
RTVSPost2010Prop55
280
     0
102
RTVSPost2010PropOp55
 70
     1
102
RTVSPost2010Prop56
140
1.0
102
RTVSPost2010PropOp56
 70
     1
102
RTVSPost2010Prop57
140
1.0
102
RTVSPost2010PropOp57
 70
     1
  0
XRECORD
  5
17B
102
{ACAD_REACTORS
330
17A
102
}
330
17A
100
AcDbXrecord
280
     1
102
RTVSPost2010Prop28
280
     0
102
RTVSPost2010PropOp28
 70
     1
102
RTVSPost2010Prop29
280
     1
102
RTVSPost2010PropOp29
 70
     1
102
RTVSPost2010Prop30
280
     1
102
RTVSPost2010PropOp30
 70
     1
102
RTVSPost2010Prop31
280
     0
102
RTVSPost2010PropOp31
 70
     1
102
RTVSPost2010Prop32
280
     0
102
RTVSPost2010PropOp32
 70
     1
102
RTVSPost2010Prop33
280
     0
102
RTVSPost2010PropOp33
 70
     1
102
RTVSPost2010Prop34
280
     0
102
RTVSPost2010PropOp34
 70
     1
102
RTVSPost2010Prop35
280
     0
102
RTVSPost2010PropOp35
 70
     1
102
RTVSPost2010Prop36
280
     0
102
RTVSPost2010PropOp36
 70
     1
102
RTVSPost2010Prop37
 90
       50
102
RTVSPost2010PropOp37
 70
     1
102
RTVSPost2010Prop38
140
0.0
102
RTVSPost2010PropOp38
 70
     1
102
RTVSPost2010Prop39
140
1.0
102
RTVSPost2010PropOp39
 70
     1
102
RTVSPost2010Prop40
 90
        0
102
RTVSPost2010PropOp40
 70
     1
102
RTVSPost2010Prop41ColorIndex
 90
       18
102
RTVSPost2010Prop41ColorRGB
 90
        0
102
RTVSPost2010PropOp41
 70
     1
102
RTVSPost2010Prop42
 90
       50
102
RTVSPost2010PropOp42
 70
     1
102
RTVSPost2010Prop43
 90
        3
102
RTVSPost2010PropOp43
 70
     1
102
RTVSPost2010Prop44ColorIndex
 90
        5
102
RTVSPost2010Prop44ColorRGB
 90
      255
102
RTVSPost2010PropOp44
 70
     1
102
RTVSPost2010Prop45
280
     0
102
RTVSPost2010PropOp45
 70
     1
102
RTVSPost2010Prop46
 90
       50
102
RTVSPost2010PropOp46
 70
     1
102
RTVSPost2010Prop47
 90
       50
102
RTVSPost2010PropOp47
 70
     1
102
RTVSPost2010Prop48
 90
       50
102
RTVSPost2010PropOp48
 70
     1
102
RTVSPost2010Prop49
280
     0
102
RTVSPost2010PropOp49
 70
     1
102
RTVSPost2010Prop50
 90
       50
102
RTVSPost2010PropOp50
 70
     1
102
RTVSPost2010Prop51ColorIndex
 90
      256
102
RTVSPost2010Prop51ColorRGB
 90
-16777216
102
RTVSPost2010PropOp51
 70
     0
102
RTVSPost2010Prop52
140
1.0
102
RTVSPost2010PropOp52
 70
     0
102
RTVSPost2010Prop53
 90
        2
102
RTVSPost2010PropOp53
 70
     1
102
RTVSPost2010Prop54
  1
strokes_ogs.tif
102
RTVSPost2010PropOp54
 70
     1
102
RTVSPost2010Prop55
280
     0
102
RTVSPost2010PropOp55
 70
     1
102
RTVSPost2010Prop56
140
1.0
102
RTVSPost2010PropOp56
 70
     1
102
RTVSPost2010Prop57
140
1.0
102
RTVSPost2010PropOp57
 70
     1
  0
XRECORD
  5
197
102
{ACAD_REACTORS
330
196
102
}
330
196
100
AcDbXrecord
280
     1
102
RTVSPost2010Prop28
280
     0
102
RTVSPost2010PropOp28
 70
     0
102
RTVSPost2010Prop29
280
     1
102
RTVSPost2010PropOp29
 70
     0
102
RTVSPost2010Prop30
280
     1
102
RTVSPost2010PropOp30
 70
     0
102
RTVSPost2010Prop31
280
     0
102
RTVSPost2010PropOp31
 70
     0
102
RTVSPost2010Prop32
280
     0
102
RTVSPost2010PropOp32
 70
     0
102
RTVSPost2010Prop33
280
     0
102
RTVSPost2010PropOp33
 70
     0
102
RTVSPost2010Prop34
280
     0
102
RTVSPost2010PropOp34
 70
     0
102
RTVSPost2010Prop35
280
     0
102
RTVSPost2010PropOp35
 70
     0
102
RTVSPost2010Prop36
280
     0
102
RTVSPost2010PropOp36
 70
     0
102
RTVSPost2010Prop37
 90
       50
102
RTVSPost2010PropOp37
 70
     0
102
RTVSPost2010Prop38
140
0.0
102
RTVSPost2010PropOp38
 70
     0
102
RTVSPost2010Prop39
140
1.0
102
RTVSPost2010PropOp39
 70
     0
102
RTVSPost2010Prop40
 90
        0
102
RTVSPost2010PropOp40
 70
     0
102
RTVSPost2010Prop41ColorIndex
 90
       18
102
RTVSPost2010Prop41ColorRGB
 90
        0
102
RTVSPost2010PropOp41
 70
     0
102
RTVSPost2010Prop42
 90
       50
102
RTVSPost2010PropOp42
 70
     0
102
RTVSPost2010Prop43
 90
        3
102
RTVSPost2010PropOp43
 70
     0
102
RTVSPost2010Prop44ColorIndex
 90
        5
102
RTVSPost2010Prop44ColorRGB
 90
      255
102
RTVSPost2010PropOp44
 70
     0
102
RTVSPost2010Prop45
280
     0
102
RTVSPost2010PropOp45
 70
     0
102
RTVSPost2010Prop46
 90
       50
102
RTVSPost2010PropOp46
 70
     0
102
RTVSPost2010Prop47
 90
       50
102
RTVSPost2010PropOp47
 70
     0
102
RTVSPost2010Prop48
 90
       50
102
RTVSPost2010PropOp48
 70
     0
102
RTVSPost2010Prop49
280
     0
102
RTVSPost2010PropOp49
 70
     0
102
RTVSPost2010Prop50
 90
       50
102
RTVSPost2010PropOp50
 70
     0
102
RTVSPost2010Prop51ColorIndex
 90
      256
102
RTVSPost2010Prop51ColorRGB
 90
-16777216
102
RTVSPost2010PropOp51
 70
     0
102
RTVSPost2010Prop52
140
1.0
102
RTVSPost2010PropOp52
 70
     0
102
RTVSPost2010Prop53
 90
        2
102
RTVSPost2010PropOp53
 70
     0
102
RTVSPost2010Prop54
  1
strokes_ogs.tif
102
RTVSPost2010PropOp54
 70
     0
102
RTVSPost2010Prop55
280
     0
102
RTVSPost2010PropOp55
 70
     0
102
RTVSPost2010Prop56
140
1.0
102
RTVSPost2010PropOp56
 70
     0
102
RTVSPost2010Prop57
140
1.0
102
RTVSPost2010PropOp57
 70
     0
  0
XRECORD
  5
187
102
{ACAD_REACTORS
330
186
102
}
330
186
100
AcDbXrecord
280
     1
102
RTVSPost2010Prop28
280
     0
102
RTVSPost2010PropOp28
 70
     1
102
RTVSPost2010Prop29
280
     1
102
RTVSPost2010PropOp29
 70
     1
102
RTVSPost2010Prop30
280
     1
102
RTVSPost2010PropOp30
 70
     1
102
RTVSPost2010Prop31
280
     0
102
RTVSPost2010PropOp31
 70
     1
102
RTVSPost2010Prop32
280
     0
102
RTVSPost2010PropOp32
 70
     1
102
RTVSPost2010Prop33
280
     0
102
RTVSPost2010PropOp33
 70
     1
102
RTVSPost2010Prop34
280
     0
102
RTVSPost2010PropOp34
 70
     1
102
RTVSPost2010Prop35
280
     0
102
RTVSPost2010PropOp35
 70
     1
102
RTVSPost2010Prop36
280
     0
102
RTVSPost2010PropOp36
 70
     1
102
RTVSPost2010Prop37
 90
       50
102
RTVSPost2010PropOp37
 70
     1
102
RTVSPost2010Prop38
140
0.0
102
RTVSPost2010PropOp38
 70
     1
102
RTVSPost2010Prop39
140
1.0
102
RTVSPost2010PropOp39
 70
     1
102
RTVSPost2010Prop40
 90
        0
102
RTVSPost2010PropOp40
 70
     1
102
RTVSPost2010Prop41ColorIndex
 90
       18
102
RTVSPost2010Prop41ColorRGB
 90
        0
102
RTVSPost2010PropOp41
 70
     1
102
RTVSPost2010Prop42
 90
       50
102
RTVSPost2010PropOp42
 70
     1
102
RTVSPost2010Prop43
 90
        3
102
RTVSPost2010PropOp43
 70
     1
102
RTVSPost2010Prop44ColorIndex
 90
        5
102
RTVSPost2010Prop44ColorRGB
 90
      255
102
RTVSPost2010PropOp44
 70
     1
102
RTVSPost2010Prop45
280
     0
102
RTVSPost2010PropOp45
 70
     1
102
RTVSPost2010Prop46
 90
       50
102
RTVSPost2010PropOp46
 70
     1
102
RTVSPost2010Prop47
 90
       50
102
RTVSPost2010PropOp47
 70
     1
102
RTVSPost2010Prop48
 90
       50
102
RTVSPost2010PropOp48
 70
     1
102
RTVSPost2010Prop49
280
     0
102
RTVSPost2010PropOp49
 70
     1
102
RTVSPost2010Prop50
 90
       50
102
RTVSPost2010PropOp50
 70
     1
102
RTVSPost2010Prop51ColorIndex
 90
      256
102
RTVSPost2010Prop51ColorRGB
 90
-16777216
102
RTVSPost2010PropOp51
 70
     0
102
RTVSPost2010Prop52
140
1.0
102
RTVSPost2010PropOp52
 70
     0
102
RTVSPost2010Prop53
 90
        2
102
RTVSPost2010PropOp53
 70
     1
102
RTVSPost2010Prop54
  1
strokes_ogs.tif
102
RTVSPost2010PropOp54
 70
     1
102
RTVSPost2010Prop55
280
     0
102
RTVSPost2010PropOp55
 70
     1
102
RTVSPost2010Prop56
140
1.0
102
RTVSPost2010PropOp56
 70
     1
102
RTVSPost2010Prop57
140
1.0
102
RTVSPost2010PropOp57
 70
     1
  0
XRECORD
  5
199
102
{ACAD_REACTORS
330
198
102
}
330
198
100
AcDbXrecord
280
     1
102
RTVSPost2010Prop28
280
     0
102
RTVSPost2010PropOp28
 70
     0
102
RTVSPost2010Prop29
280
     1
102
RTVSPost2010PropOp29
 70
     0
102
RTVSPost2010Prop30
280
     1
102
RTVSPost2010PropOp30
 70
     0
102
RTVSPost2010Prop31
280
     0
102
RTVSPost2010PropOp31
 70
     0
102
RTVSPost2010Prop32
280
     0
102
RTVSPost2010PropOp32
 70
     0
102
RTVSPost2010Prop33
280
     0
102
RTVSPost2010PropOp33
 70
     0
102
RTVSPost2010Prop34
280
     0
102
RTVSPost2010PropOp34
 70
     0
102
RTVSPost2010Prop35
280
     0
102
RTVSPost2010PropOp35
 70
     0
102
RTVSPost2010Prop36
280
     0
102
RTVSPost2010PropOp36
 70
     0
102
RTVSPost2010Prop37
 90
       50
102
RTVSPost2010PropOp37
 70
     0
102
RTVSPost2010Prop38
140
0.0
102
RTVSPost2010PropOp38
 70
     0
102
RTVSPost2010Prop39
140
1.0
102
RTVSPost2010PropOp39
 70
     0
102
RTVSPost2010Prop40
 90
        0
102
RTVSPost2010PropOp40
 70
     0
102
RTVSPost2010Prop41ColorIndex
 90
       18
102
RTVSPost2010Prop41ColorRGB
 90
        0
102
RTVSPost2010PropOp41
 70
     0
102
RTVSPost2010Prop42
 90
       50
102
RTVSPost2010PropOp42
 70
     0
102
RTVSPost2010Prop43
 90
        3
102
RTVSPost2010PropOp43
 70
     0
102
RTVSPost2010Prop44ColorIndex
 90
        5
102
RTVSPost2010Prop44ColorRGB
 90
      255
102
RTVSPost2010PropOp44
 70
     0
102
RTVSPost2010Prop45
280
     0
102
RTVSPost2010PropOp45
 70
     0
102
RTVSPost2010Prop46
 90
       50
102
RTVSPost2010PropOp46
 70
     0
102
RTVSPost2010Prop47
 90
       50
102
RTVSPost2010PropOp47
 70
     0
102
RTVSPost2010Prop48
 90
       50
102
RTVSPost2010PropOp48
 70
     0
102
RTVSPost2010Prop49
280
     0
102
RTVSPost2010PropOp49
 70
     0
102
RTVSPost2010Prop50
 90
       50
102
RTVSPost2010PropOp50
 70
     0
102
RTVSPost2010Prop51ColorIndex
 90
      256
102
RTVSPost2010Prop51ColorRGB
 90
-16777216
102
RTVSPost2010PropOp51
 70
     0
102
RTVSPost2010Prop52
140
1.0
102
RTVSPost2010PropOp52
 70
     0
102
RTVSPost2010Prop53
 90
        2
102
RTVSPost2010PropOp53
 70
     0
102
RTVSPost2010Prop54
  1
strokes_ogs.tif
102
RTVSPost2010PropOp54
 70
     0
102
RTVSPost2010Prop55
280
     0
102
RTVSPost2010PropOp55
 70
     0
102
RTVSPost2010Prop56
140
1.0
102
RTVSPost2010PropOp56
 70
     0
102
RTVSPost2010Prop57
140
1.0
102
RTVSPost2010PropOp57
 70
     0
  0
XRECORD
  5
17F
102
{ACAD_REACTORS
330
17E
102
}
330
17E
100
AcDbXrecord
280
     1
102
RTVSPost2010Prop28
280
     0
102
RTVSPost2010PropOp28
 70
     1
102
RTVSPost2010Prop29
280
     1
102
RTVSPost2010PropOp29
 70
     1
102
RTVSPost2010Prop30
280
     1
102
RTVSPost2010PropOp30
 70
     1
102
RTVSPost2010Prop31
280
     0
102
RTVSPost2010PropOp31
 70
     1
102
RTVSPost2010Prop32
280
     0
102
RTVSPost2010PropOp32
 70
     1
102
RTVSPost2010Prop33
280
     0
102
RTVSPost2010PropOp33
 70
     1
102
RTVSPost2010Prop34
280
     0
102
RTVSPost2010PropOp34
 70
     1
102
RTVSPost2010Prop35
280
     0
102
RTVSPost2010PropOp35
 70
     1
102
RTVSPost2010Prop36
280
     0
102
RTVSPost2010PropOp36
 70
     1
102
RTVSPost2010Prop37
 90
       50
102
RTVSPost2010PropOp37
 70
     1
102
RTVSPost2010Prop38
140
0.0
102
RTVSPost2010PropOp38
 70
     1
102
RTVSPost2010Prop39
140
1.0
102
RTVSPost2010PropOp39
 70
     1
102
RTVSPost2010Prop40
 90
        0
102
RTVSPost2010PropOp40
 70
     1
102
RTVSPost2010Prop41ColorIndex
 90
       18
102
RTVSPost2010Prop41ColorRGB
 90
        0
102
RTVSPost2010PropOp41
 70
     1
102
RTVSPost2010Prop42
 90
       50
102
RTVSPost2010PropOp42
 70
     1
102
RTVSPost2010Prop43
 90
        3
102
RTVSPost2010PropOp43
 70
     1
102
RTVSPost2010Prop44ColorIndex
 90
        5
102
RTVSPost2010Prop44ColorRGB
 90
      255
102
RTVSPost2010PropOp44
 70
     1
102
RTVSPost2010Prop45
280
     0
102
RTVSPost2010PropOp45
 70
     1
102
RTVSPost2010Prop46
 90
       50
102
RTVSPost2010PropOp46
 70
     1
102
RTVSPost2010Prop47
 90
       50
102
RTVSPost2010PropOp47
 70
     1
102
RTVSPost2010Prop48
 90
       50
102
RTVSPost2010PropOp48
 70
     1
102
RTVSPost2010Prop49
280
     0
102
RTVSPost2010PropOp49
 70
     1
102
RTVSPost2010Prop50
 90
       50
102
RTVSPost2010PropOp50
 70
     1
102
RTVSPost2010Prop51ColorIndex
 90
      256
102
RTVSPost2010Prop51ColorRGB
 90
-16777216
102
RTVSPost2010PropOp51
 70
     0
102
RTVSPost2010Prop52
140
1.0
102
RTVSPost2010PropOp52
 70
     0
102
RTVSPost2010Prop53
 90
        2
102
RTVSPost2010PropOp53
 70
     1
102
RTVSPost2010Prop54
  1
strokes_ogs.tif
102
RTVSPost2010PropOp54
 70
     1
102
RTVSPost2010Prop55
280
     0
102
RTVSPost2010PropOp55
 70
     1
102
RTVSPost2010Prop56
140
1.0
102
RTVSPost2010PropOp56
 70
     1
102
RTVSPost2010Prop57
140
1.0
102
RTVSPost2010PropOp57
 70
     1
  0
XRECORD
  5
195
102
{ACAD_REACTORS
330
194
102
}
330
194
100
AcDbXrecord
280
     1
102
RTVSPost2010Prop28
280
     0
102
RTVSPost2010PropOp28
 70
     1
102
RTVSPost2010Prop29
280
     1
102
RTVSPost2010PropOp29
 70
     1
102
RTVSPost2010Prop30
280
     1
102
RTVSPost2010PropOp30
 70
     1
102
RTVSPost2010Prop31
280
     0
102
RTVSPost2010PropOp31
 70
     1
102
RTVSPost2010Prop32
280
     0
102
RTVSPost2010PropOp32
 70
     1
102
RTVSPost2010Prop33
280
     0
102
RTVSPost2010PropOp33
 70
     1
102
RTVSPost2010Prop34
280
     0
102
RTVSPost2010PropOp34
 70
     1
102
RTVSPost2010Prop35
280
     0
102
RTVSPost2010PropOp35
 70
     1
102
RTVSPost2010Prop36
280
     0
102
RTVSPost2010PropOp36
 70
     1
102
RTVSPost2010Prop37
 90
       50
102
RTVSPost2010PropOp37
 70
     1
102
RTVSPost2010Prop38
140
0.0
102
RTVSPost2010PropOp38
 70
     1
102
RTVSPost2010Prop39
140
1.0
102
RTVSPost2010PropOp39
 70
     1
102
RTVSPost2010Prop40
 90
        0
102
RTVSPost2010PropOp40
 70
     1
102
RTVSPost2010Prop41ColorIndex
 90
       18
102
RTVSPost2010Prop41ColorRGB
 90
        0
102
RTVSPost2010PropOp41
 70
     1
102
RTVSPost2010Prop42
 90
       50
102
RTVSPost2010PropOp42
 70
     1
102
RTVSPost2010Prop43
 90
        3
102
RTVSPost2010PropOp43
 70
     1
102
RTVSPost2010Prop44ColorIndex
 90
        5
102
RTVSPost2010Prop44ColorRGB
 90
      255
102
RTVSPost2010PropOp44
 70
     1
102
RTVSPost2010Prop45
280
     0
102
RTVSPost2010PropOp45
 70
     1
102
RTVSPost2010Prop46
 90
       50
102
RTVSPost2010PropOp46
 70
     1
102
RTVSPost2010Prop47
 90
       50
102
RTVSPost2010PropOp47
 70
     1
102
RTVSPost2010Prop48
 90
       50
102
RTVSPost2010PropOp48
 70
     1
102
RTVSPost2010Prop49
280
     0
102
RTVSPost2010PropOp49
 70
     1
102
RTVSPost2010Prop50
 90
       50
102
RTVSPost2010PropOp50
 70
     1
102
RTVSPost2010Prop51ColorIndex
 90
      256
102
RTVSPost2010Prop51ColorRGB
 90
-16777216
102
RTVSPost2010PropOp51
 70
     0
102
RTVSPost2010Prop52
140
1.0
102
RTVSPost2010PropOp52
 70
     0
102
RTVSPost2010Prop53
 90
        2
102
RTVSPost2010PropOp53
 70
     1
102
RTVSPost2010Prop54
  1
strokes_ogs.tif
102
RTVSPost2010PropOp54
 70
     1
102
RTVSPost2010Prop55
280
     0
102
RTVSPost2010PropOp55
 70
     1
102
RTVSPost2010Prop56
140
1.0
102
RTVSPost2010PropOp56
 70
     1
102
RTVSPost2010Prop57
140
1.0
102
RTVSPost2010PropOp57
 70
     1
  0
XRECORD
  5
193
102
{ACAD_REACTORS
330
192
102
}
330
192
100
AcDbXrecord
280
     1
102
RTVSPost2010Prop28
280
     0
102
RTVSPost2010PropOp28
 70
     1
102
RTVSPost2010Prop29
280
     1
102
RTVSPost2010PropOp29
 70
     1
102
RTVSPost2010Prop30
280
     1
102
RTVSPost2010PropOp30
 70
     1
102
RTVSPost2010Prop31
280
     0
102
RTVSPost2010PropOp31
 70
     1
102
RTVSPost2010Prop32
280
     0
102
RTVSPost2010PropOp32
 70
     1
102
RTVSPost2010Prop33
280
     0
102
RTVSPost2010PropOp33
 70
     1
102
RTVSPost2010Prop34
280
     0
102
RTVSPost2010PropOp34
 70
     1
102
RTVSPost2010Prop35
280
     0
102
RTVSPost2010PropOp35
 70
     1
102
RTVSPost2010Prop36
280
     0
102
RTVSPost2010PropOp36
 70
     1
102
RTVSPost2010Prop37
 90
       50
102
RTVSPost2010PropOp37
 70
     1
102
RTVSPost2010Prop38
140
0.0
102
RTVSPost2010PropOp38
 70
     1
102
RTVSPost2010Prop39
140
1.0
102
RTVSPost2010PropOp39
 70
     1
102
RTVSPost2010Prop40
 90
        0
102
RTVSPost2010PropOp40
 70
     1
102
RTVSPost2010Prop41ColorIndex
 90
       18
102
RTVSPost2010Prop41ColorRGB
 90
        0
102
RTVSPost2010PropOp41
 70
     1
102
RTVSPost2010Prop42
 90
       50
102
RTVSPost2010PropOp42
 70
     1
102
RTVSPost2010Prop43
 90
        3
102
RTVSPost2010PropOp43
 70
     1
102
RTVSPost2010Prop44ColorIndex
 90
        5
102
RTVSPost2010Prop44ColorRGB
 90
      255
102
RTVSPost2010PropOp44
 70
     1
102
RTVSPost2010Prop45
280
     0
102
RTVSPost2010PropOp45
 70
     1
102
RTVSPost2010Prop46
 90
       50
102
RTVSPost2010PropOp46
 70
     1
102
RTVSPost2010Prop47
 90
       50
102
RTVSPost2010PropOp47
 70
     1
102
RTVSPost2010Prop48
 90
       50
102
RTVSPost2010PropOp48
 70
     1
102
RTVSPost2010Prop49
280
     0
102
RTVSPost2010PropOp49
 70
     1
102
RTVSPost2010Prop50
 90
       50
102
RTVSPost2010PropOp50
 70
     1
102
RTVSPost2010Prop51ColorIndex
 90
      256
102
RTVSPost2010Prop51ColorRGB
 90
-16777216
102
RTVSPost2010PropOp51
 70
     0
102
RTVSPost2010Prop52
140
1.0
102
RTVSPost2010PropOp52
 70
     0
102
RTVSPost2010Prop53
 90
        2
102
RTVSPost2010PropOp53
 70
     1
102
RTVSPost2010Prop54
  1
strokes_ogs.tif
102
RTVSPost2010PropOp54
 70
     1
102
RTVSPost2010Prop55
280
     0
102
RTVSPost2010PropOp55
 70
     1
102
RTVSPost2010Prop56
140
1.0
102
RTVSPost2010PropOp56
 70
     1
102
RTVSPost2010Prop57
140
1.0
102
RTVSPost2010PropOp57
 70
     1
  0
XRECORD
  5
18D
102
{ACAD_REACTORS
330
18C
102
}
330
18C
100
AcDbXrecord
280
     1
102
RTVSPost2010Prop28
280
     0
102
RTVSPost2010PropOp28
 70
     1
102
RTVSPost2010Prop29
280
     1
102
RTVSPost2010PropOp29
 70
     1
102
RTVSPost2010Prop30
280
     1
102
RTVSPost2010PropOp30
 70
     1
102
RTVSPost2010Prop31
280
     0
102
RTVSPost2010PropOp31
 70
     1
102
RTVSPost2010Prop32
280
     0
102
RTVSPost2010PropOp32
 70
     1
102
RTVSPost2010Prop33
280
     0
102
RTVSPost2010PropOp33
 70
     1
102
RTVSPost2010Prop34
280
     0
102
RTVSPost2010PropOp34
 70
     1
102
RTVSPost2010Prop35
280
     0
102
RTVSPost2010PropOp35
 70
     1
102
RTVSPost2010Prop36
280
     0
102
RTVSPost2010PropOp36
 70
     1
102
RTVSPost2010Prop37
 90
       50
102
RTVSPost2010PropOp37
 70
     1
102
RTVSPost2010Prop38
140
0.0
102
RTVSPost2010PropOp38
 70
     1
102
RTVSPost2010Prop39
140
1.0
102
RTVSPost2010PropOp39
 70
     1
102
RTVSPost2010Prop40
 90
        0
102
RTVSPost2010PropOp40
 70
     1
102
RTVSPost2010Prop41ColorIndex
 90
       18
102
RTVSPost2010Prop41ColorRGB
 90
        0
102
RTVSPost2010PropOp41
 70
     1
102
RTVSPost2010Prop42
 90
       50
102
RTVSPost2010PropOp42
 70
     1
102
RTVSPost2010Prop43
 90
        3
102
RTVSPost2010PropOp43
 70
     1
102
RTVSPost2010Prop44ColorIndex
 90
        5
102
RTVSPost2010Prop44ColorRGB
 90
      255
102
RTVSPost2010PropOp44
 70
     1
102
RTVSPost2010Prop45
280
     0
102
RTVSPost2010PropOp45
 70
     1
102
RTVSPost2010Prop46
 90
       50
102
RTVSPost2010PropOp46
 70
     1
102
RTVSPost2010Prop47
 90
       50
102
RTVSPost2010PropOp47
 70
     1
102
RTVSPost2010Prop48
 90
       50
102
RTVSPost2010PropOp48
 70
     1
102
RTVSPost2010Prop49
280
     0
102
RTVSPost2010PropOp49
 70
     1
102
RTVSPost2010Prop50
 90
       50
102
RTVSPost2010PropOp50
 70
     1
102
RTVSPost2010Prop51ColorIndex
 90
      256
102
RTVSPost2010Prop51ColorRGB
 90
-16777216
102
RTVSPost2010PropOp51
 70
     0
102
RTVSPost2010Prop52
140
1.0
102
RTVSPost2010PropOp52
 70
     0
102
RTVSPost2010Prop53
 90
        2
102
RTVSPost2010PropOp53
 70
     1
102
RTVSPost2010Prop54
  1
strokes_ogs.tif
102
RTVSPost2010PropOp54
 70
     1
102
RTVSPost2010Prop55
280
     0
102
RTVSPost2010PropOp55
 70
     1
102
RTVSPost2010Prop56
140
1.0
102
RTVSPost2010PropOp56
 70
     1
102
RTVSPost2010Prop57
140
1.0
102
RTVSPost2010PropOp57
 70
     1
  0
XRECORD
  5
18F
102
{ACAD_REACTORS
330
18E
102
}
330
18E
100
AcDbXrecord
280
     1
102
RTVSPost2010Prop28
280
     0
102
RTVSPost2010PropOp28
 70
     1
102
RTVSPost2010Prop29
280
     1
102
RTVSPost2010PropOp29
 70
     1
102
RTVSPost2010Prop30
280
     1
102
RTVSPost2010PropOp30
 70
     1
102
RTVSPost2010Prop31
280
     0
102
RTVSPost2010PropOp31
 70
     1
102
RTVSPost2010Prop32
280
     0
102
RTVSPost2010PropOp32
 70
     1
102
RTVSPost2010Prop33
280
     0
102
RTVSPost2010PropOp33
 70
     1
102
RTVSPost2010Prop34
280
     0
102
RTVSPost2010PropOp34
 70
     1
102
RTVSPost2010Prop35
280
     0
102
RTVSPost2010PropOp35
 70
     1
102
RTVSPost2010Prop36
280
     0
102
RTVSPost2010PropOp36
 70
     1
102
RTVSPost2010Prop37
 90
       50
102
RTVSPost2010PropOp37
 70
     1
102
RTVSPost2010Prop38
140
0.0
102
RTVSPost2010PropOp38
 70
     1
102
RTVSPost2010Prop39
140
1.0
102
RTVSPost2010PropOp39
 70
     1
102
RTVSPost2010Prop40
 90
        0
102
RTVSPost2010PropOp40
 70
     1
102
RTVSPost2010Prop41ColorIndex
 90
       18
102
RTVSPost2010Prop41ColorRGB
 90
        0
102
RTVSPost2010PropOp41
 70
     1
102
RTVSPost2010Prop42
 90
       50
102
RTVSPost2010PropOp42
 70
     1
102
RTVSPost2010Prop43
 90
        3
102
RTVSPost2010PropOp43
 70
     1
102
RTVSPost2010Prop44ColorIndex
 90
        5
102
RTVSPost2010Prop44ColorRGB
 90
      255
102
RTVSPost2010PropOp44
 70
     1
102
RTVSPost2010Prop45
280
     0
102
RTVSPost2010PropOp45
 70
     1
102
RTVSPost2010Prop46
 90
       50
102
RTVSPost2010PropOp46
 70
     1
102
RTVSPost2010Prop47
 90
       50
102
RTVSPost2010PropOp47
 70
     1
102
RTVSPost2010Prop48
 90
       50
102
RTVSPost2010PropOp48
 70
     1
102
RTVSPost2010Prop49
280
     0
102
RTVSPost2010PropOp49
 70
     1
102
RTVSPost2010Prop50
 90
       50
102
RTVSPost2010PropOp50
 70
     1
102
RTVSPost2010Prop51ColorIndex
 90
      256
102
RTVSPost2010Prop51ColorRGB
 90
-16777216
102
RTVSPost2010PropOp51
 70
     0
102
RTVSPost2010Prop52
140
1.0
102
RTVSPost2010PropOp52
 70
     0
102
RTVSPost2010Prop53
 90
        2
102
RTVSPost2010PropOp53
 70
     1
102
RTVSPost2010Prop54
  1
strokes_ogs.tif
102
RTVSPost2010PropOp54
 70
     1
102
RTVSPost2010Prop55
280
     0
102
RTVSPost2010PropOp55
 70
     1
102
RTVSPost2010Prop56
140
1.0
102
RTVSPost2010PropOp56
 70
     1
102
RTVSPost2010Prop57
140
1.0
102
RTVSPost2010PropOp57
 70
     1
  0
XRECORD
  5
185
102
{ACAD_REACTORS
330
184
102
}
330
184
100
AcDbXrecord
280
     1
102
RTVSPost2010Prop28
280
     0
102
RTVSPost2010PropOp28
 70
     1
102
RTVSPost2010Prop29
280
     1
102
RTVSPost2010PropOp29
 70
     1
102
RTVSPost2010Prop30
280
     1
102
RTVSPost2010PropOp30
 70
     1
102
RTVSPost2010Prop31
280
     0
102
RTVSPost2010PropOp31
 70
     1
102
RTVSPost2010Prop32
280
     0
102
RTVSPost2010PropOp32
 70
     1
102
RTVSPost2010Prop33
280
     0
102
RTVSPost2010PropOp33
 70
     1
102
RTVSPost2010Prop34
280
     0
102
RTVSPost2010PropOp34
 70
     1
102
RTVSPost2010Prop35
280
     0
102
RTVSPost2010PropOp35
 70
     1
102
RTVSPost2010Prop36
280
     0
102
RTVSPost2010PropOp36
 70
     1
102
RTVSPost2010Prop37
 90
       50
102
RTVSPost2010PropOp37
 70
     1
102
RTVSPost2010Prop38
140
0.0
102
RTVSPost2010PropOp38
 70
     1
102
RTVSPost2010Prop39
140
1.0
102
RTVSPost2010PropOp39
 70
     1
102
RTVSPost2010Prop40
 90
        0
102
RTVSPost2010PropOp40
 70
     1
102
RTVSPost2010Prop41ColorIndex
 90
       18
102
RTVSPost2010Prop41ColorRGB
 90
        0
102
RTVSPost2010PropOp41
 70
     1
102
RTVSPost2010Prop42
 90
       50
102
RTVSPost2010PropOp42
 70
     1
102
RTVSPost2010Prop43
 90
        3
102
RTVSPost2010PropOp43
 70
     1
102
RTVSPost2010Prop44ColorIndex
 90
        5
102
RTVSPost2010Prop44ColorRGB
 90
      255
102
RTVSPost2010PropOp44
 70
     1
102
RTVSPost2010Prop45
280
     0
102
RTVSPost2010PropOp45
 70
     1
102
RTVSPost2010Prop46
 90
       50
102
RTVSPost2010PropOp46
 70
     1
102
RTVSPost2010Prop47
 90
       50
102
RTVSPost2010PropOp47
 70
     1
102
RTVSPost2010Prop48
 90
       50
102
RTVSPost2010PropOp48
 70
     1
102
RTVSPost2010Prop49
280
     0
102
RTVSPost2010PropOp49
 70
     1
102
RTVSPost2010Prop50
 90
       50
102
RTVSPost2010PropOp50
 70
     1
102
RTVSPost2010Prop51ColorIndex
 90
      256
102
RTVSPost2010Prop51ColorRGB
 90
-16777216
102
RTVSPost2010PropOp51
 70
     0
102
RTVSPost2010Prop52
140
1.0
102
RTVSPost2010PropOp52
 70
     0
102
RTVSPost2010Prop53
 90
        2
102
RTVSPost2010PropOp53
 70
     1
102
RTVSPost2010Prop54
  1
strokes_ogs.tif
102
RTVSPost2010PropOp54
 70
     1
102
RTVSPost2010Prop55
280
     0
102
RTVSPost2010PropOp55
 70
     1
102
RTVSPost2010Prop56
140
1.0
102
RTVSPost2010PropOp56
 70
     1
102
RTVSPost2010Prop57
140
1.0
102
RTVSPost2010PropOp57
 70
     1
  0
XRECORD
  5
179
102
{ACAD_REACTORS
330
178
102
}
330
178
100
AcDbXrecord
280
     1
102
RTVSPost2010Prop28
280
     0
102
RTVSPost2010PropOp28
 70
     1
102
RTVSPost2010Prop29
280
     1
102
RTVSPost2010PropOp29
 70
     1
102
RTVSPost2010Prop30
280
     1
102
RTVSPost2010PropOp30
 70
     1
102
RTVSPost2010Prop31
280
     0
102
RTVSPost2010PropOp31
 70
     1
102
RTVSPost2010Prop32
280
     0
102
RTVSPost2010PropOp32
 70
     1
102
RTVSPost2010Prop33
280
     0
102
RTVSPost2010PropOp33
 70
     1
102
RTVSPost2010Prop34
280
     0
102
RTVSPost2010PropOp34
 70
     1
102
RTVSPost2010Prop35
280
     0
102
RTVSPost2010PropOp35
 70
     1
102
RTVSPost2010Prop36
280
     0
102
RTVSPost2010PropOp36
 70
     1
102
RTVSPost2010Prop37
 90
       50
102
RTVSPost2010PropOp37
 70
     1
102
RTVSPost2010Prop38
140
0.0
102
RTVSPost2010PropOp38
 70
     1
102
RTVSPost2010Prop39
140
1.0
102
RTVSPost2010PropOp39
 70
     1
102
RTVSPost2010Prop40
 90
        0
102
RTVSPost2010PropOp40
 70
     1
102
RTVSPost2010Prop41ColorIndex
 90
       18
102
RTVSPost2010Prop41ColorRGB
 90
        0
102
RTVSPost2010PropOp41
 70
     1
102
RTVSPost2010Prop42
 90
       50
102
RTVSPost2010PropOp42
 70
     1
102
RTVSPost2010Prop43
 90
        3
102
RTVSPost2010PropOp43
 70
     1
102
RTVSPost2010Prop44ColorIndex
 90
        5
102
RTVSPost2010Prop44ColorRGB
 90
      255
102
RTVSPost2010PropOp44
 70
     1
102
RTVSPost2010Prop45
280
     0
102
RTVSPost2010PropOp45
 70
     1
102
RTVSPost2010Prop46
 90
       50
102
RTVSPost2010PropOp46
 70
     1
102
RTVSPost2010Prop47
 90
       50
102
RTVSPost2010PropOp47
 70
     1
102
RTVSPost2010Prop48
 90
       50
102
RTVSPost2010PropOp48
 70
     1
102
RTVSPost2010Prop49
280
     0
102
RTVSPost2010PropOp49
 70
     1
102
RTVSPost2010Prop50
 90
       50
102
RTVSPost2010PropOp50
 70
     1
102
RTVSPost2010Prop51ColorIndex
 90
      256
102
RTVSPost2010Prop51ColorRGB
 90
-16777216
102
RTVSPost2010PropOp51
 70
     0
102
RTVSPost2010Prop52
140
1.0
102
RTVSPost2010PropOp52
 70
     0
102
RTVSPost2010Prop53
 90
        2
102
RTVSPost2010PropOp53
 70
     1
102
RTVSPost2010Prop54
  1
strokes_ogs.tif
102
RTVSPost2010PropOp54
 70
     1
102
RTVSPost2010Prop55
280
     0
102
RTVSPost2010PropOp55
 70
     1
102
RTVSPost2010Prop56
140
1.0
102
RTVSPost2010PropOp56
 70
     1
102
RTVSPost2010Prop57
140
1.0
102
RTVSPost2010PropOp57
 70
     1
  0
XRECORD
  5
191
102
{ACAD_REACTORS
330
190
102
}
330
190
100
AcDbXrecord
280
     1
102
RTVSPost2010Prop28
280
     0
102
RTVSPost2010PropOp28
 70
     1
102
RTVSPost2010Prop29
280
     1
102
RTVSPost2010PropOp29
 70
     1
102
RTVSPost2010Prop30
280
     1
102
RTVSPost2010PropOp30
 70
     1
102
RTVSPost2010Prop31
280
     0
102
RTVSPost2010PropOp31
 70
     1
102
RTVSPost2010Prop32
280
     0
102
RTVSPost2010PropOp32
 70
     1
102
RTVSPost2010Prop33
280
     0
102
RTVSPost2010PropOp33
 70
     1
102
RTVSPost2010Prop34
280
     0
102
RTVSPost2010PropOp34
 70
     1
102
RTVSPost2010Prop35
280
     0
102
RTVSPost2010PropOp35
 70
     1
102
RTVSPost2010Prop36
280
     0
102
RTVSPost2010PropOp36
 70
     1
102
RTVSPost2010Prop37
 90
       50
102
RTVSPost2010PropOp37
 70
     1
102
RTVSPost2010Prop38
140
0.0
102
RTVSPost2010PropOp38
 70
     1
102
RTVSPost2010Prop39
140
1.0
102
RTVSPost2010PropOp39
 70
     1
102
RTVSPost2010Prop40
 90
        0
102
RTVSPost2010PropOp40
 70
     1
102
RTVSPost2010Prop41ColorIndex
 90
       18
102
RTVSPost2010Prop41ColorRGB
 90
        0
102
RTVSPost2010PropOp41
 70
     1
102
RTVSPost2010Prop42
 90
       50
102
RTVSPost2010PropOp42
 70
     1
102
RTVSPost2010Prop43
 90
        3
102
RTVSPost2010PropOp43
 70
     1
102
RTVSPost2010Prop44ColorIndex
 90
        5
102
RTVSPost2010Prop44ColorRGB
 90
      255
102
RTVSPost2010PropOp44
 70
     1
102
RTVSPost2010Prop45
280
     0
102
RTVSPost2010PropOp45
 70
     1
102
RTVSPost2010Prop46
 90
       50
102
RTVSPost2010PropOp46
 70
     1
102
RTVSPost2010Prop47
 90
       50
102
RTVSPost2010PropOp47
 70
     1
102
RTVSPost2010Prop48
 90
       50
102
RTVSPost2010PropOp48
 70
     1
102
RTVSPost2010Prop49
280
     0
102
RTVSPost2010PropOp49
 70
     1
102
RTVSPost2010Prop50
 90
       50
102
RTVSPost2010PropOp50
 70
     1
102
RTVSPost2010Prop51ColorIndex
 90
      256
102
RTVSPost2010Prop51ColorRGB
 90
-16777216
102
RTVSPost2010PropOp51
 70
     0
102
RTVSPost2010Prop52
140
1.0
102
RTVSPost2010PropOp52
 70
     0
102
RTVSPost2010Prop53
 90
        2
102
RTVSPost2010PropOp53
 70
     1
102
RTVSPost2010Prop54
  1
strokes_ogs.tif
102
RTVSPost2010PropOp54
 70
     1
102
RTVSPost2010Prop55
280
     0
102
RTVSPost2010PropOp55
 70
     1
102
RTVSPost2010Prop56
140
1.0
102
RTVSPost2010PropOp56
 70
     1
102
RTVSPost2010Prop57
140
1.0
102
RTVSPost2010PropOp57
 70
     1
  0
ENDSEC
  0
EOF
