  0
SECTION
  2
HEADER
  9
$ACADVER
  1
AC1024
  9
$ACADMAINTVER
 70
   205
  9
$DWGCODEPAGE
  3
ANSI_1251
  9
$INSBASE
 10
0.0
 20
0.0
 30
0.0
  9
$EXTMIN
 10
1.000000000000000E+20
 20
1.000000000000000E+20
 30
1.000000000000000E+20
  9
$EXTMAX
 10
-1.000000000000000E+20
 20
-1.000000000000000E+20
 30
-1.000000000000000E+20
  9
$LIMMIN
 10
0.0
 20
0.0
  9
$LIMMAX
 10
12.0
 20
9.0
  9
$ORTHOMODE
 70
     0
  9
$REGENMODE
 70
     1
  9
$FILLMODE
 70
     1
  9
$QTEXTMODE
 70
     0
  9
$MIRRTEXT
 70
     1
  9
$LTSCALE
 40
1.0
  9
$ATTMODE
 70
     1
  9
$TEXTSIZE
 40
0.2
  9
$TRACEWID
 40
0.05
  9
$TEXTSTYLE
  7
Standard
  9
$CLAYER
  8
OracDecor_panel_moldings
  9
$CELTYPE
  6
ByLayer
  9
$CECOLOR
 62
   256
  9
$CELTSCALE
 40
1.0
  9
$DISPSILH
 70
     0
  9
$DIMSCALE
 40
1.0
  9
$DIMASZ
 40
0.18
  9
$DIMEXO
 40
0.0625
  9
$DIMDLI
 40
0.38
  9
$DIMRND
 40
0.0
  9
$DIMDLE
 40
0.0
  9
$DIMEXE
 40
0.18
  9
$DIMTP
 40
0.0
  9
$DIMTM
 40
0.0
  9
$DIMTXT
 40
0.18
  9
$DIMCEN
 40
0.09
  9
$DIMTSZ
 40
0.0
  9
$DIMTOL
 70
     0
  9
$DIMLIM
 70
     0
  9
$DIMTIH
 70
     1
  9
$DIMTOH
 70
     1
  9
$DIMSE1
 70
     0
  9
$DIMSE2
 70
     0
  9
$DIMTAD
 70
     0
  9
$DIMZIN
 70
     0
  9
$DIMBLK
  1

  9
$DIMASO
 70
     1
  9
$DIMSHO
 70
     1
  9
$DIMPOST
  1

  9
$DIMAPOST
  1

  9
$DIMALT
 70
     0
  9
$DIMALTD
 70
     2
  9
$DIMALTF
 40
25.4
  9
$DIMLFAC
 40
1.0
  9
$DIMTOFL
 70
     0
  9
$DIMTVP
 40
0.0
  9
$DIMTIX
 70
     0
  9
$DIMSOXD
 70
     0
  9
$DIMSAH
 70
     0
  9
$DIMBLK1
  1

  9
$DIMBLK2
  1

  9
$DIMSTYLE
  2
Standard
  9
$DIMCLRD
 70
     0
  9
$DIMCLRE
 70
     0
  9
$DIMCLRT
 70
     0
  9
$DIMTFAC
 40
1.0
  9
$DIMGAP
 40
0.09
  9
$DIMJUST
 70
     0
  9
$DIMSD1
 70
     0
  9
$DIMSD2
 70
     0
  9
$DIMTOLJ
 70
     1
  9
$DIMTZIN
 70
     0
  9
$DIMALTZ
 70
     0
  9
$DIMALTTZ
 70
     0
  9
$DIMUPT
 70
     0
  9
$DIMDEC
 70
     4
  9
$DIMTDEC
 70
     4
  9
$DIMALTU
 70
     2
  9
$DIMALTTD
 70
     2
  9
$DIMTXSTY
  7
Standard
  9
$DIMAUNIT
 70
     0
  9
$DIMADEC
 70
     0
  9
$DIMALTRND
 40
0.0
  9
$DIMAZIN
 70
     0
  9
$DIMDSEP
 70
    46
  9
$DIMATFIT
 70
     3
  9
$DIMFRAC
 70
     0
  9
$DIMLDRBLK
  1

  9
$DIMLUNIT
 70
     2
  9
$DIMLWD
 70
    -2
  9
$DIMLWE
 70
    -2
  9
$DIMTMOVE
 70
     0
  9
$DIMFXL
 40
1.0
  9
$DIMFXLON
 70
     0
  9
$DIMJOGANG
 40
0.7853981633974483
  9
$DIMTFILL
 70
     0
  9
$DIMTFILLCLR
 70
     0
  9
$DIMARCSYM
 70
     0
  9
$DIMLTYPE
  6

  9
$DIMLTEX1
  6

  9
$DIMLTEX2
  6

  9
$DIMTXTDIRECTION
 70
     0
  9
$LUNITS
 70
     2
  9
$LUPREC
 70
     4
  9
$SKETCHINC
 40
0.1
  9
$FILLETRAD
 40
0.5
  9
$AUNITS
 70
     0
  9
$AUPREC
 70
     0
  9
$MENU
  1
.
  9
$ELEVATION
 40
0.0
  9
$PELEVATION
 40
0.0
  9
$THICKNESS
 40
0.0
  9
$LIMCHECK
 70
     0
  9
$CHAMFERA
 40
0.5
  9
$CHAMFERB
 40
0.5
  9
$CHAMFERC
 40
1.0
  9
$CHAMFERD
 40
0.0
  9
$SKPOLY
 70
     0
  9
$TDCREATE
 40
2451380.930432396
  9
$TDUCREATE
 40
2451380.805432396
  9
$TDUPDATE
 40
2451380.966180555
  9
$TDUUPDATE
 40
2451380.841180556
  9
$TDINDWG
 40
0.0075616667
  9
$TDUSRTIMER
 40
0.0075526273
  9
$USRTIMER
 70
     1
  9
$ANGBASE
 50
0.0
  9
$ANGDIR
 70
     0
  9
$PDMODE
 70
     0
  9
$PDSIZE
 40
0.0
  9
$PLINEWID
 40
0.0
  9
$SPLFRAME
 70
     0
  9
$SPLINETYPE
 70
     6
  9
$SPLINESEGS
 70
     8
  9
$HANDSEED
  5
1A7
  9
$SURFTAB1
 70
     6
  9
$SURFTAB2
 70
     6
  9
$SURFTYPE
 70
     6
  9
$SURFU
 70
     6
  9
$SURFV
 70
     6
  9
$UCSBASE
  2

  9
$UCSNAME
  2

  9
$UCSORG
 10
0.0
 20
0.0
 30
0.0
  9
$UCSXDIR
 10
1.0
 20
0.0
 30
0.0
  9
$UCSYDIR
 10
0.0
 20
1.0
 30
0.0
  9
$UCSORTHOREF
  2

  9
$UCSORTHOVIEW
 70
     0
  9
$UCSORGTOP
 10
0.0
 20
0.0
 30
0.0
  9
$UCSORGBOTTOM
 10
0.0
 20
0.0
 30
0.0
  9
$UCSORGLEFT
 10
0.0
 20
0.0
 30
0.0
  9
$UCSORGRIGHT
 10
0.0
 20
0.0
 30
0.0
  9
$UCSORGFRONT
 10
0.0
 20
0.0
 30
0.0
  9
$UCSORGBACK
 10
0.0
 20
0.0
 30
0.0
  9
$PUCSBASE
  2

  9
$PUCSNAME
  2

  9
$PUCSORG
 10
0.0
 20
0.0
 30
0.0
  9
$PUCSXDIR
 10
1.0
 20
0.0
 30
0.0
  9
$PUCSYDIR
 10
0.0
 20
1.0
 30
0.0
  9
$PUCSORTHOREF
  2

  9
$PUCSORTHOVIEW
 70
     0
  9
$PUCSORGTOP
 10
0.0
 20
0.0
 30
0.0
  9
$PUCSORGBOTTOM
 10
0.0
 20
0.0
 30
0.0
  9
$PUCSORGLEFT
 10
0.0
 20
0.0
 30
0.0
  9
$PUCSORGRIGHT
 10
0.0
 20
0.0
 30
0.0
  9
$PUCSORGFRONT
 10
0.0
 20
0.0
 30
0.0
  9
$PUCSORGBACK
 10
0.0
 20
0.0
 30
0.0
  9
$USERI1
 70
     0
  9
$USERI2
 70
     0
  9
$USERI3
 70
     0
  9
$USERI4
 70
     0
  9
$USERI5
 70
     0
  9
$USERR1
 40
0.0
  9
$USERR2
 40
0.0
  9
$USERR3
 40
0.0
  9
$USERR4
 40
0.0
  9
$USERR5
 40
0.0
  9
$WORLDVIEW
 70
     1
  9
$SHADEDGE
 70
     3
  9
$SHADEDIF
 70
    70
  9
$TILEMODE
 70
     1
  9
$MAXACTVP
 70
    64
  9
$PINSBASE
 10
0.0
 20
0.0
 30
0.0
  9
$PLIMCHECK
 70
     0
  9
$PEXTMIN
 10
1.000000000000000E+20
 20
1.000000000000000E+20
 30
1.000000000000000E+20
  9
$PEXTMAX
 10
-1.000000000000000E+20
 20
-1.000000000000000E+20
 30
-1.000000000000000E+20
  9
$PLIMMIN
 10
0.0
 20
0.0
  9
$PLIMMAX
 10
12.0
 20
9.0
  9
$UNITMODE
 70
     0
  9
$VISRETAIN
 70
     1
  9
$PLINEGEN
 70
     0
  9
$PSLTSCALE
 70
     1
  9
$TREEDEPTH
 70
  3020
  9
$CMLSTYLE
  2
Standard
  9
$CMLJUST
 70
     0
  9
$CMLSCALE
 40
1.0
  9
$PROXYGRAPHICS
 70
     1
  9
$MEASUREMENT
 70
     1
  9
$CELWEIGHT
370
    -1
  9
$ENDCAPS
280
     0
  9
$JOINSTYLE
280
     0
  9
$LWDISPLAY
290
     0
  9
$INSUNITS
 70
     4
  9
$HYPERLINKBASE
  1

  9
$STYLESHEET
  1

  9
$XEDIT
290
     1
  9
$CEPSNTYPE
380
     0
  9
$PSTYLEMODE
290
     1
  9
$FINGERPRINTGUID
  2
{12F50282-3ED8-11D3-A8B7-0060B0F84BC6}
  9
$VERSIONGUID
  2
{12F50293-3ED8-11D3-A8B7-0060B0F84BC6}
  9
$EXTNAMES
290
     1
  9
$PSVPSCALE
 40
0.0
  9
$OLESTARTUP
290
     0
  9
$SORTENTS
280
   127
  9
$INDEXCTL
280
     0
  9
$HIDETEXT
280
     0
  9
$XCLIPFRAME
280
     2
  9
$HALOGAP
280
     0
  9
$OBSCOLOR
 70
   257
  9
$OBSLTYPE
280
     0
  9
$INTERSECTIONDISPLAY
280
     0
  9
$INTERSECTIONCOLOR
 70
   257
  9
$DIMASSOC
280
     1
  9
$PROJECTNAME
  1

  9
$CAMERADISPLAY
290
     0
  9
$LENSLENGTH
 40
50.0
  9
$CAMERAHEIGHT
 40
0.0
  9
$STEPSPERSEC
 40
2.0
  9
$STEPSIZE
 40
6.0
  9
$3DDWFPREC
 40
2.0
  9
$PSOLWIDTH
 40
0.25
  9
$PSOLHEIGHT
 40
4.0
  9
$LOFTANG1
 40
1.570796326794896
  9
$LOFTANG2
 40
1.570796326794896
  9
$LOFTMAG1
 40
0.0
  9
$LOFTMAG2
 40
0.0
  9
$LOFTPARAM
 70
     7
  9
$LOFTNORMALS
280
     1
  9
$LATITUDE
 40
37.795
  9
$LONGITUDE
 40
-122.394
  9
$NORTHDIRECTION
 40
0.0
  9
$TIMEZONE
 70
 -8000
  9
$LIGHTGLYPHDISPLAY
280
     1
  9
$TILEMODELIGHTSYNCH
280
     1
  9
$CMATERIAL
347
AB
  9
$SOLIDHIST
280
     0
  9
$SHOWHIST
280
     1
  9
$DWFFRAME
280
     2
  9
$DGNFRAME
280
     0
  9
$REALWORLDSCALE
290
     1
  9
$INTERFERECOLOR
 62
     1
  9
$INTERFEREOBJVS
345
CD
  9
$INTERFEREVPVS
346
CA
  9
$CSHADOW
280
     0
  9
$SHADOWPLANELOCATION
 40
0.0
  0
ENDSEC
  0
SECTION
  2
CLASSES
  0
CLASS
  1
ACDBDICTIONARYWDFLT
  2
AcDbDictionaryWithDefault
  3
ObjectDBX Classes
 90
        0
 91
        1
280
     0
281
     0
  0
CLASS
  1
ACDBPLACEHOLDER
  2
AcDbPlaceHolder
  3
ObjectDBX Classes
 90
        0
 91
        2
280
     0
281
     0
  0
CLASS
  1
LAYOUT
  2
AcDbLayout
  3
ObjectDBX Classes
 90
        0
 91
        3
280
     0
281
     0
  0
CLASS
  1
MATERIAL
  2
AcDbMaterial
  3
ObjectDBX Classes
 90
     1153
 91
        3
280
     0
281
     0
  0
CLASS
  1
VISUALSTYLE
  2
AcDbVisualStyle
  3
ObjectDBX Classes
 90
     4095
 91
       24
280
     0
281
     0
  0
CLASS
  1
TABLESTYLE
  2
AcDbTableStyle
  3
ObjectDBX Classes
 90
     4095
 91
        1
280
     0
281
     0
  0
CLASS
  1
SCALE
  2
AcDbScale
  3
ObjectDBX Classes
 90
     1153
 91
       17
280
     0
281
     0
  0
CLASS
  1
MLEADERSTYLE
  2
AcDbMLeaderStyle
  3
ACDB_MLEADERSTYLE_CLASS
 90
     4095
 91
        1
280
     0
281
     0
  0
CLASS
  1
ACDBSECTIONVIEWSTYLE
  2
AcDbSectionViewStyle
  3
ObjectDBX Classes
 90
     1025
 91
        1
280
     0
281
     0
  0
CLASS
  1
ACDBDETAILVIEWSTYLE
  2
AcDbDetailViewStyle
  3
ObjectDBX Classes
 90
     1025
 91
        1
280
     0
281
     0
  0
CLASS
  1
MESH
  2
AcDbSubDMesh
  3
ObjectDBX Classes
 90
        0
 91
        1
280
     0
281
     1
  0
CLASS
  1
DICTIONARYVAR
  2
AcDbDictionaryVar
  3
ObjectDBX Classes
 90
        0
 91
        9
280
     0
281
     0
  0
CLASS
  1
CELLSTYLEMAP
  2
AcDbCellStyleMap
  3
ObjectDBX Classes
 90
     1152
 91
        1
280
     0
281
     0
  0
ENDSEC
  0
SECTION
  2
TABLES
  0
TABLE
  2
VPORT
  5
8
330
0
100
AcDbSymbolTable
 70
     1
  0
VPORT
  5
A8
330
8
100
AcDbSymbolTableRecord
100
AcDbViewportTableRecord
  2
*Active
 70
     0
 10
0.0
 20
0.0
 11
1.0
 21
1.0
 12
0.0
 22
10.20619964599609
 13
0.0
 23
0.0
 14
0.5
 24
0.5
 15
0.5
 25
0.5
 16
-1.0
 26
-1.0
 36
1.0
 17
0.0
 27
0.0
 37
0.0
 40
1037.425584766847
 41
1.690311653010892
 42
50.0
 43
0.0
 44
0.0
 50
0.0
 51
0.0
 71
     0
 72
   100
 73
     1
 74
     3
 75
     0
 76
     0
 77
     0
 78
     0
281
     0
 65
     1
110
0.0
120
0.0
130
0.0
111
1.0
121
0.0
131
0.0
112
0.0
122
1.0
132
0.0
 79
     0
146
0.0
348
C9
 60
     3
 61
     5
292
     1
282
     1
141
0.0
142
0.0
 63
   250
421
  3355443
  0
ENDTAB
  0
TABLE
  2
LTYPE
  5
5
330
0
100
AcDbSymbolTable
 70
     1
  0
LTYPE
  5
14
330
5
100
AcDbSymbolTableRecord
100
AcDbLinetypeTableRecord
  2
ByBlock
 70
     0
  3

 72
    65
 73
     0
 40
0.0
  0
LTYPE
  5
15
330
5
100
AcDbSymbolTableRecord
100
AcDbLinetypeTableRecord
  2
ByLayer
 70
     0
  3

 72
    65
 73
     0
 40
0.0
  0
LTYPE
  5
16
330
5
100
AcDbSymbolTableRecord
100
AcDbLinetypeTableRecord
  2
Continuous
 70
     0
  3
Solid line
 72
    65
 73
     0
 40
0.0
  0
ENDTAB
  0
TABLE
  2
LAYER
  5
2
330
0
100
AcDbSymbolTable
 70
     3
  0
LAYER
  5
10
330
2
100
AcDbSymbolTableRecord
100
AcDbLayerTableRecord
  2
0
 70
     0
 62
     7
  6
Continuous
370
    -3
390
F
347
BB
  0
LAYER
  5
2B
330
2
100
AcDbSymbolTableRecord
100
AcDbLayerTableRecord
  2
ASHADE
 70
     4
 62
     7
  6
Continuous
370
    -3
390
2D
347
BB
  0
LAYER
  5
F8
330
2
100
AcDbSymbolTableRecord
100
AcDbLayerTableRecord
  2
OracDecor_panel_moldings
 70
     0
 62
   206
420
  7080072
  6
Continuous
370
    -3
390
F
347
BB
  0
ENDTAB
  0
TABLE
  2
STYLE
  5
3
330
0
100
AcDbSymbolTable
 70
     2
  0
STYLE
  5
11
330
3
100
AcDbSymbolTableRecord
100
AcDbTextStyleTableRecord
  2
Standard
 70
     0
 40
0.0
 41
1.0
 50
0.0
 71
     0
 42
0.2
  3
txt
  4

  0
STYLE
  5
2C
330
3
100
AcDbSymbolTableRecord
100
AcDbTextStyleTableRecord
  2
ASHADE
 70
     0
 40
0.2
 41
1.0
 50
0.0
 71
     0
 42
0.2
  3
simplex
  4

  0
ENDTAB
  0
TABLE
  2
VIEW
  5
6
330
0
100
AcDbSymbolTable
 70
     0
  0
ENDTAB
  0
TABLE
  2
UCS
  5
7
330
0
100
AcDbSymbolTable
 70
     0
  0
ENDTAB
  0
TABLE
  2
APPID
  5
9
330
0
100
AcDbSymbolTable
 70
     6
  0
APPID
  5
12
330
9
100
AcDbSymbolTableRecord
100
AcDbRegAppTableRecord
  2
ACAD
 70
     0
  0
APPID
  5
8F
330
9
100
AcDbSymbolTableRecord
100
AcDbRegAppTableRecord
  2
AVE_RENDER
 70
     0
  0
APPID
  5
90
330
9
100
AcDbSymbolTableRecord
100
AcDbRegAppTableRecord
  2
AVE_ENTITY_MATERIAL
 70
     0
  0
APPID
  5
9C
330
9
100
AcDbSymbolTableRecord
100
AcDbRegAppTableRecord
  2
AVE_FINISH
 70
     0
  0
APPID
  5
9D
330
9
100
AcDbSymbolTableRecord
100
AcDbRegAppTableRecord
  2
AVE_MATERIAL
 70
     0
  0
APPID
  5
9E
330
9
100
AcDbSymbolTableRecord
100
AcDbRegAppTableRecord
  2
AVE_GLOBAL
 70
     0
  0
ENDTAB
  0
TABLE
  2
DIMSTYLE
  5
A
330
0
100
AcDbSymbolTable
 70
     1
100
AcDbDimStyleTable
 71
     0
  0
DIMSTYLE
105
27
330
A
100
AcDbSymbolTableRecord
100
AcDbDimStyleTableRecord
  2
Standard
 70
     0
340
11
  0
ENDTAB
  0
TABLE
  2
BLOCK_RECORD
  5
1
330
0
100
AcDbSymbolTable
 70
     6
  0
BLOCK_RECORD
  5
1F
330
1
100
AcDbSymbolTableRecord
100
AcDbBlockTableRecord
  2
*Model_Space
340
22
 70
     0
280
     1
281
     0
  0
BLOCK_RECORD
  5
1B
330
1
100
AcDbSymbolTableRecord
100
AcDbBlockTableRecord
  2
*Paper_Space
340
1E
 70
     0
280
     1
281
     0
  0
BLOCK_RECORD
  5
23
330
1
100
AcDbSymbolTableRecord
100
AcDbBlockTableRecord
  2
*Paper_Space0
340
26
 70
     0
280
     1
281
     0
  0
BLOCK_RECORD
  5
2E
330
1
100
AcDbSymbolTableRecord
100
AcDbBlockTableRecord
  2
direct
340
0
 70
     0
280
     1
281
     0
  0
BLOCK_RECORD
  5
42
330
1
100
AcDbSymbolTableRecord
100
AcDbBlockTableRecord
  2
overhead
340
0
 70
     0
280
     1
281
     0
  0
BLOCK_RECORD
  5
5F
330
1
100
AcDbSymbolTableRecord
100
AcDbBlockTableRecord
  2
sh_spot
340
0
 70
     0
280
     1
281
     0
  0
BLOCK_RECORD
  5
91
330
1
100
AcDbSymbolTableRecord
100
AcDbBlockTableRecord
  2
AVE_RENDER
340
0
102
{BLKREFS
331
94
331
95
331
96
331
97
331
98
331
99
331
9A
331
9B
102
}
 70
     0
280
     1
281
     0
  0
BLOCK_RECORD
  5
9F
330
1
100
AcDbSymbolTableRecord
100
AcDbBlockTableRecord
  2
AVE_GLOBAL
340
0
102
{BLKREFS
331
A2
102
}
 70
     0
280
     1
281
     0
  0
ENDTAB
  0
ENDSEC
  0
SECTION
  2
BLOCKS
  0
BLOCK
  5
20
330
1F
100
AcDbEntity
  8
0
100
AcDbBlockBegin
  2
*Model_Space
 70
     0
 10
0.0
 20
0.0
 30
0.0
  3
*Model_Space
  1

  0
ENDBLK
  5
21
330
1F
100
AcDbEntity
  8
0
100
AcDbBlockEnd
  0
BLOCK
  5
1C
330
1B
100
AcDbEntity
 67
     1
  8
0
100
AcDbBlockBegin
  2
*Paper_Space
 70
     0
 10
0.0
 20
0.0
 30
0.0
  3
*Paper_Space
  1

  0
ENDBLK
  5
1D
330
1B
100
AcDbEntity
 67
     1
  8
0
100
AcDbBlockEnd
  0
BLOCK
  5
24
330
23
100
AcDbEntity
 67
     1
  8
0
100
AcDbBlockBegin
  2
*Paper_Space0
 70
     0
 10
0.0
 20
0.0
 30
0.0
  3
*Paper_Space0
  1

  0
ENDBLK
  5
25
330
23
100
AcDbEntity
 67
     1
  8
0
100
AcDbBlockEnd
  0
BLOCK
  5
40
330
2E
100
AcDbEntity
  8
0
100
AcDbBlockBegin
  2
direct
 70
     2
 10
0.0
 20
0.0
 30
0.0
  3
direct
  1

  0
ATTDEF
  5
2F
330
2E
100
AcDbEntity
  8
ASHADE
  6
Continuous
 62
     1
100
AcDbText
 10
0.0
 20
-0.1
 30
0.0
 40
0.2
  1

  7
ASHADE
 72
     1
 11
0.0
 21
-0.1
 31
0.0
100
AcDbAttributeDefinition
280
     0
  3
Light Name
  2
SNAME
 70
     0
280
     0
  0
ARC
  5
30
330
2E
100
AcDbEntity
  8
ASHADE
  6
Continuous
 62
     7
100
AcDbCircle
 10
0.0
 20
0.0
 30
0.0
 40
0.3
100
AcDbArc
 50
205.6792886194569
 51
334.3207113805431
  0
ARC
  5
31
330
2E
100
AcDbEntity
  8
ASHADE
  6
Continuous
 62
     7
100
AcDbCircle
 10
0.0
 20
0.0
 30
0.0
 40
0.3
100
AcDbArc
 50
25.67928861945685
 51
154.3207113805431
  0
LINE
  5
32
330
2E
100
AcDbEntity
  8
ASHADE
  6
Continuous
 62
     7
100
AcDbLine
 10
-0.21
 20
0.2142428528562855
 30
0.0
 11
-0.21
 21
0.5
 31
0.0
  0
LINE
  5
33
330
2E
100
AcDbEntity
  8
ASHADE
  6
Continuous
 62
     7
100
AcDbLine
 10
-0.11
 20
0.2791057147390572
 30
0.0
 11
-0.11
 21
0.5
 31
0.0
  0
LINE
  5
34
330
2E
100
AcDbEntity
  8
ASHADE
  6
Continuous
 62
     7
100
AcDbLine
 10
0.21
 20
0.2142428528562855
 30
0.0
 11
0.21
 21
0.5
 31
0.0
  0
ATTDEF
  5
35
330
2E
100
AcDbEntity
  8
ASHADE
  6
Continuous
 62
     7
100
AcDbText
 10
0.0
 20
0.25
 30
0.0
 40
0.01
  1

100
AcDbAttributeDefinition
280
     0
  3
Look-at Y
  2
LAY
 70
     1
280
     0
  0
ATTDEF
  5
36
330
2E
100
AcDbEntity
  8
ASHADE
  6
Continuous
 62
     7
100
AcDbText
 10
0.0
 20
0.22
 30
0.0
 40
0.01
  1
1
100
AcDbAttributeDefinition
280
     0
  3
Light Intensity
  2
INTENSITY
 70
     1
280
     0
  0
ATTDEF
  5
37
330
2E
100
AcDbEntity
  8
ASHADE
  6
Continuous
 62
     7
100
AcDbText
 10
0.0
 20
0.16
 30
0.0
 40
0.01
  1
-1
100
AcDbAttributeDefinition
280
     0
  3
*not used*
  2
BEAMD
 70
     1
280
     0
  0
ATTDEF
  5
38
330
2E
100
AcDbEntity
  8
ASHADE
  6
Continuous
 62
     7
100
AcDbText
 10
0.0
 20
0.175
 30
0.0
 40
0.01
  1
-1
100
AcDbAttributeDefinition
280
     0
  3
*not used*
  2
CONED
 70
     1
280
     0
  0
ATTDEF
  5
39
330
2E
100
AcDbEntity
  8
ASHADE
  6
Continuous
 62
     7
100
AcDbText
 10
0.0
 20
0.19
 30
0.0
 40
0.01
  1
0
100
AcDbAttributeDefinition
280
     0
  3
Depth Map Size
  2
CONEA
 70
     1
280
     0
  0
ATTDEF
  5
3A
330
2E
100
AcDbEntity
  8
ASHADE
  6
Continuous
 62
     7
100
AcDbText
 10
0.0
 20
0.2050000000000001
 30
0.0
 40
0.01
  1
1,1,1
100
AcDbAttributeDefinition
280
     0
  3
Light Color (RGB)
  2
COLOR
 70
     1
280
     0
  0
ATTDEF
  5
3B
330
2E
100
AcDbEntity
  8
ASHADE
  6
Continuous
 62
     7
100
AcDbText
 10
0.0
 20
0.235
 30
0.0
 40
0.01
  1

100
AcDbAttributeDefinition
280
     0
  3
Look-at Z
  2
LAZ
 70
     1
280
     0
  0
LINE
  5
3C
330
2E
100
AcDbEntity
  8
ASHADE
  6
Continuous
 62
     7
100
AcDbLine
 10
0.0
 20
0.3
 30
0.0
 11
0.0
 21
0.5
 31
0.0
  0
LINE
  5
3D
330
2E
100
AcDbEntity
  8
ASHADE
  6
Continuous
 62
     7
100
AcDbLine
 10
0.11
 20
0.2791057147390572
 30
0.0
 11
0.11
 21
0.5
 31
0.0
  0
ATTDEF
  5
3E
330
2E
100
AcDbEntity
  8
ASHADE
  6
Continuous
 62
     7
100
AcDbText
 10
0.0
 20
0.265
 30
0.0
 40
0.01
  1

100
AcDbAttributeDefinition
280
     0
  3
Look-at X
  2
LAX
 70
     1
280
     0
  0
ATTDEF
  5
3F
330
2E
100
AcDbEntity
  8
ASHADE
  6
Continuous
 62
     7
100
AcDbText
 10
0.0
 20
0.28
 30
0.0
 40
0.01
  1

100
AcDbAttributeDefinition
280
     0
  3

  2
GNAME
 70
     1
280
     0
  0
ENDBLK
  5
41
330
2E
100
AcDbEntity
  8
0
100
AcDbBlockEnd
  0
BLOCK
  5
5D
330
42
100
AcDbEntity
  8
0
100
AcDbBlockBegin
  2
overhead
 70
     2
 10
0.0
 20
0.0
 30
0.0
  3
overhead
  1

  0
ATTDEF
  5
43
330
42
100
AcDbEntity
  8
ASHADE
  6
Continuous
 62
     1
100
AcDbText
 10
0.0
 20
-0.1
 30
0.0
 40
0.2
  1

  7
ASHADE
 72
     1
 11
0.0
 21
-0.1
 31
0.0
100
AcDbAttributeDefinition
280
     0
  3
Light Name
  2
SNAME
 70
     0
280
     0
  0
ARC
  5
44
330
42
100
AcDbEntity
  8
ASHADE
  6
Continuous
 62
     7
100
AcDbCircle
 10
0.0
 20
0.0
 30
0.0
 40
0.3
100
AcDbArc
 50
205.6792886194569
 51
334.3207113805431
  0
LINE
  5
45
330
42
100
AcDbEntity
  8
ASHADE
  6
Continuous
 62
     7
100
AcDbLine
 10
-0.2041413561583015
 20
-0.2198324514393848
 30
0.0
 11
-0.2721884748777353
 21
-0.2931099352525131
 31
0.0
  0
LINE
  5
46
330
42
100
AcDbEntity
  8
ASHADE
  6
Continuous
 62
     7
100
AcDbLine
 10
-0.1096591641591904
 20
-0.2792398032442862
 30
0.0
 11
-0.1279356915190555
 21
-0.3257797704516673
 31
0.0
  0
LINE
  5
47
330
42
100
AcDbEntity
  8
ASHADE
  6
Continuous
 62
     7
100
AcDbLine
 10
0.0
 20
-0.2999999999999999
 30
0.0
 11
0.0
 21
-0.4
 31
0.0
  0
LINE
  5
48
330
42
100
AcDbEntity
  8
ASHADE
  6
Continuous
 62
     7
100
AcDbLine
 10
0.1096591641591904
 20
-0.2792398032442862
 30
0.0
 11
0.1279356915190555
 21
-0.3257797704516673
 31
0.0
  0
LINE
  5
49
330
42
100
AcDbEntity
  8
ASHADE
  6
Continuous
 62
     7
100
AcDbLine
 10
0.2041413561583015
 20
-0.2198324514393848
 30
0.0
 11
0.2721884748777353
 21
-0.2931099352525131
 31
0.0
  0
ARC
  5
4A
330
42
100
AcDbEntity
  8
ASHADE
  6
Continuous
 62
     7
100
AcDbCircle
 10
0.0
 20
0.0
 30
0.0
 40
0.3
100
AcDbArc
 50
25.67928861945685
 51
154.3207113805431
  0
LINE
  5
4B
330
42
100
AcDbEntity
  8
ASHADE
  6
Continuous
 62
     7
100
AcDbLine
 10
-0.2703701166919155
 20
0.13
 30
0.0
 11
-0.3154318028072347
 21
0.1516666666666666
 31
0.0
  0
LINE
  5
4C
330
42
100
AcDbEntity
  8
ASHADE
  6
Continuous
 62
     7
100
AcDbLine
 10
-0.2703701166919155
 20
-0.13
 30
0.0
 11
-0.3154318028072347
 21
-0.1516666666666666
 31
0.0
  0
LINE
  5
4D
330
42
100
AcDbEntity
  8
ASHADE
  6
Continuous
 62
     7
100
AcDbLine
 10
-0.2041413561583015
 20
0.2198324514393849
 30
0.0
 11
-0.2721884748777353
 21
0.2931099352525131
 31
0.0
  0
LINE
  5
4E
330
42
100
AcDbEntity
  8
ASHADE
  6
Continuous
 62
     7
100
AcDbLine
 10
-0.1096591641591904
 20
0.2792398032442862
 30
0.0
 11
-0.1279356915190555
 21
0.3257797704516674
 31
0.0
  0
LINE
  5
4F
330
42
100
AcDbEntity
  8
ASHADE
  6
Continuous
 62
     7
100
AcDbLine
 10
0.2703701166919155
 20
-0.13
 30
0.0
 11
0.3154318028072347
 21
-0.1516666666666666
 31
0.0
  0
LINE
  5
50
330
42
100
AcDbEntity
  8
ASHADE
  6
Continuous
 62
     7
100
AcDbLine
 10
0.2703701166919155
 20
0.13
 30
0.0
 11
0.3154318028072347
 21
0.1516666666666666
 31
0.0
  0
LINE
  5
51
330
42
100
AcDbEntity
  8
ASHADE
  6
Continuous
 62
     7
100
AcDbLine
 10
0.0
 20
0.3
 30
0.0
 11
0.0
 21
0.4
 31
0.0
  0
ATTDEF
  5
52
330
42
100
AcDbEntity
  8
ASHADE
  6
Continuous
 62
     7
100
AcDbText
 10
0.0
 20
0.22
 30
0.0
 40
0.01
  1
1
100
AcDbAttributeDefinition
280
     0
  3
Light Intensity
  2
INTENSITY
 70
     1
280
     0
  0
ATTDEF
  5
53
330
42
100
AcDbEntity
  8
ASHADE
  6
Continuous
 62
     7
100
AcDbText
 10
0.0
 20
0.16
 30
0.0
 40
0.01
  1
-1
100
AcDbAttributeDefinition
280
     0
  3
*not used*
  2
BEAMD
 70
     1
280
     0
  0
ATTDEF
  5
54
330
42
100
AcDbEntity
  8
ASHADE
  6
Continuous
 62
     7
100
AcDbText
 10
0.0
 20
0.175
 30
0.0
 40
0.01
  1
-1
100
AcDbAttributeDefinition
280
     0
  3
*not used*
  2
CONED
 70
     1
280
     0
  0
ATTDEF
  5
55
330
42
100
AcDbEntity
  8
ASHADE
  6
Continuous
 62
     7
100
AcDbText
 10
0.0
 20
0.19
 30
0.0
 40
0.01
  1
0
100
AcDbAttributeDefinition
280
     0
  3
Depth Map Size
  2
CONEA
 70
     1
280
     0
  0
ATTDEF
  5
56
330
42
100
AcDbEntity
  8
ASHADE
  6
Continuous
 62
     7
100
AcDbText
 10
0.0
 20
0.2050000000000001
 30
0.0
 40
0.01
  1
1,1,1
100
AcDbAttributeDefinition
280
     0
  3
Light Color (RGB)
  2
COLOR
 70
     1
280
     0
  0
ATTDEF
  5
57
330
42
100
AcDbEntity
  8
ASHADE
  6
Continuous
 62
     7
100
AcDbText
 10
0.0
 20
0.235
 30
0.0
 40
0.01
  1

100
AcDbAttributeDefinition
280
     0
  3
Look-at Z
  2
LAZ
 70
     1
280
     0
  0
ATTDEF
  5
58
330
42
100
AcDbEntity
  8
ASHADE
  6
Continuous
 62
     7
100
AcDbText
 10
0.0
 20
0.25
 30
0.0
 40
0.01
  1

100
AcDbAttributeDefinition
280
     0
  3
Look-at Y
  2
LAY
 70
     1
280
     0
  0
ATTDEF
  5
59
330
42
100
AcDbEntity
  8
ASHADE
  6
Continuous
 62
     7
100
AcDbText
 10
0.0
 20
0.265
 30
0.0
 40
0.01
  1

100
AcDbAttributeDefinition
280
     0
  3
Look-at X
  2
LAX
 70
     1
280
     0
  0
ATTDEF
  5
5A
330
42
100
AcDbEntity
  8
ASHADE
  6
Continuous
 62
     7
100
AcDbText
 10
0.0
 20
0.28
 30
0.0
 40
0.01
  1

100
AcDbAttributeDefinition
280
     0
  3

  2
GNAME
 70
     1
280
     0
  0
LINE
  5
5B
330
42
100
AcDbEntity
  8
ASHADE
  6
Continuous
 62
     7
100
AcDbLine
 10
0.1096591641591904
 20
0.2792398032442862
 30
0.0
 11
0.1279356915190555
 21
0.3257797704516674
 31
0.0
  0
LINE
  5
5C
330
42
100
AcDbEntity
  8
ASHADE
  6
Continuous
 62
     7
100
AcDbLine
 10
0.2041413561583015
 20
0.2198324514393849
 30
0.0
 11
0.2721884748777353
 21
0.2931099352525131
 31
0.0
  0
ENDBLK
  5
5E
330
42
100
AcDbEntity
  8
0
100
AcDbBlockEnd
  0
BLOCK
  5
85
330
5F
100
AcDbEntity
  8
0
100
AcDbBlockBegin
  2
sh_spot
 70
     2
 10
0.0
 20
0.0
 30
0.0
  3
sh_spot
  1

  0
LINE
  5
60
330
5F
100
AcDbEntity
  8
ASHADE
  6
Continuous
 62
     7
100
AcDbLine
 10
0.25
 20
0.26
 30
0.0
 11
-0.25
 21
0.26
 31
0.0
  0
LINE
  5
61
330
5F
100
AcDbEntity
  8
ASHADE
  6
Continuous
 62
     7
100
AcDbLine
 10
-0.25
 20
-0.3399999999999999
 30
0.0
 11
0.25
 21
-0.3399999999999999
 31
0.0
  0
ATTDEF
  5
62
330
5F
100
AcDbEntity
  8
ASHADE
  6
Continuous
 62
     1
100
AcDbText
 10
0.0
 20
-0.1
 30
0.0
 40
0.2
  1

  7
ASHADE
 72
     1
 11
0.0
 21
-0.1
 31
0.0
100
AcDbAttributeDefinition
280
     0
  3
Light Name
  2
SNAME
 70
     0
280
     0
  0
LINE
  5
63
330
5F
100
AcDbEntity
  8
ASHADE
  6
Continuous
 62
     7
100
AcDbLine
 10
-0.25
 20
-0.13
 30
0.0
 11
-0.25
 21
-0.3399999999999999
 31
0.0
  0
LINE
  5
64
330
5F
100
AcDbEntity
  8
ASHADE
  6
Continuous
 62
     7
100
AcDbLine
 10
-0.25
 20
-0.18
 30
0.0
 11
-0.29
 21
-0.18
 31
0.0
  0
LINE
  5
65
330
5F
100
AcDbEntity
  8
ASHADE
  6
Continuous
 62
     7
100
AcDbLine
 10
-0.29
 20
-0.22
 30
0.0
 11
-0.25
 21
-0.22
 31
0.0
  0
LINE
  5
66
330
5F
100
AcDbEntity
  8
ASHADE
  6
Continuous
 62
     7
100
AcDbLine
 10
-0.29
 20
-0.18
 30
0.0
 11
-0.29
 21
-0.22
 31
0.0
  0
LINE
  5
67
330
5F
100
AcDbEntity
  8
ASHADE
  6
Continuous
 62
     7
100
AcDbLine
 10
-0.1045454545454545
 20
0.26
 30
0.0
 11
-0.15
 21
0.46
 31
0.0
  0
LINE
  5
68
330
5F
100
AcDbEntity
  8
ASHADE
  6
Continuous
 62
     7
100
AcDbLine
 10
-0.21
 20
0.26
 30
0.0
 11
-0.301304347826087
 21
0.46
 31
0.0
  0
LINE
  5
69
330
5F
100
AcDbEntity
  8
ASHADE
  6
Continuous
 62
     7
100
AcDbLine
 10
-0.25
 20
0.26
 30
0.0
 11
-0.25
 21
0.13
 31
0.0
  0
LINE
  5
6A
330
5F
100
AcDbEntity
  8
ASHADE
  6
Continuous
 62
     7
100
AcDbLine
 10
-0.25
 20
0.22
 30
0.0
 11
-0.29
 21
0.22
 31
0.0
  0
LINE
  5
6B
330
5F
100
AcDbEntity
  8
ASHADE
  6
Continuous
 62
     7
100
AcDbLine
 10
-0.29
 20
0.1799999999999999
 30
0.0
 11
-0.25
 21
0.1799999999999999
 31
0.0
  0
LINE
  5
6C
330
5F
100
AcDbEntity
  8
ASHADE
  6
Continuous
 62
     7
100
AcDbLine
 10
-0.29
 20
0.22
 30
0.0
 11
-0.29
 21
0.1799999999999999
 31
0.0
  0
ATTDEF
  5
6D
330
5F
100
AcDbEntity
  8
ASHADE
  6
Continuous
 62
     7
100
AcDbText
 10
0.0
 20
-0.24
 30
0.0
 40
0.01
  1
0
100
AcDbAttributeDefinition
280
     0
  3
Depth Map Size
  2
ZSIZE
 70
     1
280
     0
  0
ATTDEF
  5
6E
330
5F
100
AcDbEntity
  8
ASHADE
  6
Continuous
 62
     7
100
AcDbText
 10
0.0
 20
-0.3300000000000001
 30
0.0
 40
0.01
  1
0,0,0
100
AcDbAttributeDefinition
280
     0
  3
Look-from XYZ
  2
LFXYZ
 70
     1
280
     0
  0
ATTDEF
  5
6F
330
5F
100
AcDbEntity
  8
ASHADE
  6
Continuous
 62
     7
100
AcDbText
 10
0.0
 20
-0.315
 30
0.0
 40
0.01
  1
0.0
100
AcDbAttributeDefinition
280
     0
  3
Beam Distribution
  2
BEAMDI
 70
     1
280
     0
  0
ATTDEF
  5
70
330
5F
100
AcDbEntity
  8
ASHADE
  6
Continuous
 62
     7
100
AcDbText
 10
0.0
 20
-0.3
 30
0.0
 40
0.01
  1
0.0
100
AcDbAttributeDefinition
280
     0
  3
Cone Delta
  2
CONEDE
 70
     1
280
     0
  0
ATTDEF
  5
71
330
5F
100
AcDbEntity
  8
ASHADE
  6
Continuous
 62
     7
100
AcDbText
 10
0.0
 20
-0.2850000000000001
 30
0.0
 40
0.01
  1
10.0
100
AcDbAttributeDefinition
280
     0
  3
Cone Angle
  2
CONEAN
 70
     1
280
     0
  0
ATTDEF
  5
72
330
5F
100
AcDbEntity
  8
ASHADE
  6
Continuous
 62
     7
100
AcDbText
 10
0.0
 20
-0.27
 30
0.0
 40
0.01
  1
-1
100
AcDbAttributeDefinition
280
     0
  3
*not used*
  2
BIASMAX
 70
     1
280
     0
  0
ATTDEF
  5
73
330
5F
100
AcDbEntity
  8
ASHADE
  6
Continuous
 62
     7
100
AcDbText
 10
0.0
 20
-0.255
 30
0.0
 40
0.01
  1
-1
100
AcDbAttributeDefinition
280
     0
  3
*not used*
  2
BIASMIN
 70
     1
280
     0
  0
ATTDEF
  5
74
330
5F
100
AcDbEntity
  8
ASHADE
  6
Continuous
 62
     7
100
AcDbText
 10
0.0
 20
-0.225
 30
0.0
 40
0.01
  1
1,1,1
100
AcDbAttributeDefinition
280
     0
  3
Light Color (RGB)
  2
COLOR
 70
     1
280
     0
  0
ATTDEF
  5
75
330
5F
100
AcDbEntity
  8
ASHADE
  6
Continuous
 62
     7
100
AcDbText
 10
0.0
 20
-0.21
 30
0.0
 40
0.01
  1
1
100
AcDbAttributeDefinition
280
     0
  3
Light Intensity
  2
INTENSITY
 70
     1
280
     0
  0
ATTDEF
  5
76
330
5F
100
AcDbEntity
  8
ASHADE
  6
Continuous
 62
     7
100
AcDbText
 10
0.0
 20
-0.15
 30
0.0
 40
0.01
  1

100
AcDbAttributeDefinition
280
     0
  3

  2
GNAME
 70
     1
280
     0
  0
ATTDEF
  5
77
330
5F
100
AcDbEntity
  8
ASHADE
  6
Continuous
 62
     7
100
AcDbText
 10
0.0
 20
-0.195
 30
0.0
 40
0.01
  1

100
AcDbAttributeDefinition
280
     0
  3
Look-at Z
  2
LAZ
 70
     1
280
     0
  0
ATTDEF
  5
78
330
5F
100
AcDbEntity
  8
ASHADE
  6
Continuous
 62
     7
100
AcDbText
 10
0.0
 20
-0.18
 30
0.0
 40
0.01
  1

100
AcDbAttributeDefinition
280
     0
  3
Look-at Y
  2
LAY
 70
     1
280
     0
  0
ATTDEF
  5
79
330
5F
100
AcDbEntity
  8
ASHADE
  6
Continuous
 62
     7
100
AcDbText
 10
0.0
 20
-0.165
 30
0.0
 40
0.01
  1

100
AcDbAttributeDefinition
280
     0
  3
Look-at X
  2
LAX
 70
     1
280
     0
  0
LINE
  5
7A
330
5F
100
AcDbEntity
  8
ASHADE
  6
Continuous
 62
     7
100
AcDbLine
 10
0.25
 20
-0.3399999999999999
 30
0.0
 11
0.25
 21
-0.13
 31
0.0
  0
LINE
  5
7B
330
5F
100
AcDbEntity
  8
ASHADE
  6
Continuous
 62
     7
100
AcDbLine
 10
0.25
 20
-0.18
 30
0.0
 11
0.29
 21
-0.18
 31
0.0
  0
LINE
  5
7C
330
5F
100
AcDbEntity
  8
ASHADE
  6
Continuous
 62
     7
100
AcDbLine
 10
0.29
 20
-0.22
 30
0.0
 11
0.25
 21
-0.22
 31
0.0
  0
LINE
  5
7D
330
5F
100
AcDbEntity
  8
ASHADE
  6
Continuous
 62
     7
100
AcDbLine
 10
0.29
 20
-0.18
 30
0.0
 11
0.29
 21
-0.22
 31
0.0
  0
LINE
  5
7E
330
5F
100
AcDbEntity
  8
ASHADE
  6
Continuous
 62
     7
100
AcDbLine
 10
0.21
 20
0.26
 30
0.0
 11
0.301304347826087
 21
0.46
 31
0.0
  0
LINE
  5
7F
330
5F
100
AcDbEntity
  8
ASHADE
  6
Continuous
 62
     7
100
AcDbLine
 10
0.1045454545454545
 20
0.26
 30
0.0
 11
0.15
 21
0.46
 31
0.0
  0
LINE
  5
80
330
5F
100
AcDbEntity
  8
ASHADE
  6
Continuous
 62
     7
100
AcDbLine
 10
0.0
 20
0.26
 30
0.0
 11
0.0
 21
0.46
 31
0.0
  0
LINE
  5
81
330
5F
100
AcDbEntity
  8
ASHADE
  6
Continuous
 62
     7
100
AcDbLine
 10
0.25
 20
0.13
 30
0.0
 11
0.25
 21
0.26
 31
0.0
  0
LINE
  5
82
330
5F
100
AcDbEntity
  8
ASHADE
  6
Continuous
 62
     7
100
AcDbLine
 10
0.25
 20
0.22
 30
0.0
 11
0.29
 21
0.22
 31
0.0
  0
LINE
  5
83
330
5F
100
AcDbEntity
  8
ASHADE
  6
Continuous
 62
     7
100
AcDbLine
 10
0.29
 20
0.1799999999999999
 30
0.0
 11
0.25
 21
0.1799999999999999
 31
0.0
  0
LINE
  5
84
330
5F
100
AcDbEntity
  8
ASHADE
  6
Continuous
 62
     7
100
AcDbLine
 10
0.29
 20
0.22
 30
0.0
 11
0.29
 21
0.1799999999999999
 31
0.0
  0
ENDBLK
  5
86
330
5F
100
AcDbEntity
  8
0
100
AcDbBlockEnd
  0
BLOCK
  5
92
330
91
100
AcDbEntity
  8
ASHADE
100
AcDbBlockBegin
  2
AVE_RENDER
 70
     0
 10
0.0
 20
0.0
 30
0.0
  3
AVE_RENDER
  1
AVE_RENDER
  0
ENDBLK
  5
93
330
91
100
AcDbEntity
  8
0
100
AcDbBlockEnd
  0
BLOCK
  5
A0
330
9F
100
AcDbEntity
  8
ASHADE
100
AcDbBlockBegin
  2
AVE_GLOBAL
 70
     0
 10
0.0
 20
0.0
 30
0.0
  3
AVE_GLOBAL
  1
AVE_GLOBAL
  0
ENDBLK
  5
A1
330
9F
100
AcDbEntity
  8
0
100
AcDbBlockEnd
  0
ENDSEC
  0
SECTION
  2
ENTITIES
  0
INSERT
  5
94
330
1F
100
AcDbEntity
  8
ASHADE
 62
     1
100
AcDbBlockReference
  2
AVE_RENDER
 10
0.0
 20
0.0
 30
0.0
1001
AVE_RENDER
1002
{
1070
     7
1000
Pref
1070
    30
1070
    20
1070
     1
1070
     0
1000

1070
    10
1070
     1
1070
    10
1040
1.0
1070
     1
1040
0.3
1040
0.7
1040
0.0
1040
10.0
1010
-1.0
1020
-1.0
1030
-1.0
1040
0.3
1070
    49
1070
     0
1070
     0
1010
1.0
1020
1.0
1030
1.0
1040
45.0
1070
     1
1070
     0
1000
WCS
1040
0.0
1070
     0
1040
10.0
1002
}
  0
INSERT
  5
95
330
1F
100
AcDbEntity
  8
ASHADE
 62
     3
100
AcDbBlockReference
  2
AVE_RENDER
 10
0.0
 20
0.0
 30
0.0
1001
AVE_RENDER
1002
{
1070
     0
1000
Full Opt
1070
     0
1070
     1
1070
     1
1070
     1
1070
     0
1070
     0
1070
     0
1070
     1
1070
     1
1040
0.0001
1040
0.0001
1002
}
  0
INSERT
  5
96
330
1F
100
AcDbEntity
  8
ASHADE
 62
     4
100
AcDbBlockReference
  2
AVE_RENDER
 10
0.0
 20
0.0
 30
0.0
1001
AVE_RENDER
1002
{
1070
     0
1000
Quick Opt
1070
     0
1070
     1
1070
     1
1070
     1
1070
     0
1070
     0
1070
     1
1002
}
  0
INSERT
  5
97
330
1F
100
AcDbEntity
  8
ASHADE
 62
     5
100
AcDbBlockReference
  2
AVE_RENDER
 10
0.0
 20
0.0
 30
0.0
1001
AVE_RENDER
1002
{
1070
     1
1000
Scanl Opt
1070
     2
1070
     0
1070
     2
1040
2.0
1040
4.0
1070
     0
1070
     1
1070
     0
1040
0.03
1002
}
  0
INSERT
  5
98
330
1F
100
AcDbEntity
  8
ASHADE
 62
     6
100
AcDbBlockReference
  2
AVE_RENDER
 10
0.0
 20
0.0
 30
0.0
1001
AVE_RENDER
1002
{
1070
     2
1000
Raytr Opt
1070
     2
1070
     0
1070
     2
1040
2.0
1040
4.0
1070
     0
1070
     1
1070
     1
1040
0.03
1070
     3
1040
0.03
1002
}
  0
INSERT
  5
99
330
1F
100
AcDbEntity
  8
ASHADE
 62
     7
100
AcDbBlockReference
  2
AVE_RENDER
 10
0.0
 20
0.0
 30
0.0
1001
AVE_RENDER
1002
{
1070
     0
1000
RFile Opt
1070
     1
1070
   640
1070
   480
1070
 10000
1070
     1
1070
     8
1070
     8
1070
     0
1070
     0
1070
     0
1070
     0
1070
     0
1070
     0
1070
     0
1002
}
  0
INSERT
  5
9A
330
1F
100
AcDbEntity
  8
ASHADE
 62
     8
100
AcDbBlockReference
  2
AVE_RENDER
 10
0.0
 20
0.0
 30
0.0
1001
AVE_RENDER
1002
{
1070
     0
1000
Fog Opt
1070
     0
1070
     0
1040
0.0
1040
1.0
1040
0.0
1040
1.0
1010
0.5
1020
0.5
1030
0.5
1002
}
  0
INSERT
  5
9B
330
1F
100
AcDbEntity
  8
ASHADE
 62
     9
100
AcDbBlockReference
  2
AVE_RENDER
 10
0.0
 20
0.0
 30
0.0
1001
AVE_RENDER
1002
{
1070
     0
1000
BG Opt
1070
     0
1070
     1
1010
0.0
1020
0.0
1030
0.0
1010
1.0
1020
0.0
1030
0.0
1010
0.0
1020
1.0
1030
0.0
1010
0.0
1020
0.0
1030
1.0
1040
0.5
1040
0.33
1040
0.0
1000

1070
     1
1000

1070
     1
1070
     1
1040
1.0
1040
1.0
1040
0.0
1040
0.0
1070
     0
1002
}
  0
INSERT
  5
A2
330
1F
100
AcDbEntity
  8
ASHADE
 62
     1
100
AcDbBlockReference
  2
AVE_GLOBAL
 10
0.0
 20
0.0
 30
0.0
1001
AVE_MATERIAL
1002
{
1000
*GLOBAL*
1000
2
1000
Global finish.
1002
{
1002
}
1002
{
1070
    63
1002
{
1002
{
1010
-1.0
1020
-1.0
1030
-1.0
1002
}
1040
0.1000000014901161
1000

1040
0.0
1002
{
1002
}
1040
0.0
1002
{
1002
}
1040
0.0
1002
}
1002
{
1002
{
1010
-1.0
1020
-1.0
1030
-1.0
1002
}
1040
0.6999999880790711
1000

1040
0.0
1002
{
1002
}
1040
0.0
1002
{
1002
}
1040
0.0
1002
}
1002
{
1002
{
1010
-1.0
1020
-1.0
1030
-1.0
1002
}
1040
0.2000000029802322
1000

1040
0.0
1002
{
1002
}
1040
0.0
1002
{
1002
}
1040
0.0
1002
}
1002
{
1070
     0
1002
{
1070
     1
1002
{
1040
1.0
1040
1.0
1000

1040
0.0
1002
{
1002
}
1040
0.0
1002
{
1002
}
1040
0.0
1002
}
1002
}
1040
1.0
1040
0.0
1040
0.0
1002
}
1002
{
1040
1.0
1040
1.0
1000

1040
0.0
1002
{
1002
}
1040
0.0
1002
{
1002
}
1040
0.0
1002
}
1002
{
1040
0.5
1040
1.0
1000

1040
0.0
1002
{
1002
}
1040
0.0
1002
{
1002
}
1040
0.0
1002
}
1002
{
1070
     0
1040
0.0
1002
{
1002
}
1040
1.0
1002
{
1002
}
1040
0.0
1002
}
1002
{
1040
0.0
1002
{
1002
{
1010
0.0
1020
0.0
1030
0.0
1002
}
1040
1.0
1000

1040
0.0
1002
{
1002
}
1040
0.0
1002
{
1002
}
1040
0.0
1002
}
1002
}
1002
{
1002
{
1070
     1
1002
{
1040
0.0
1040
1.0
1000

1040
0.0
1002
{
1002
}
1040
0.0
1002
{
1002
}
1040
0.0
1002
}
1002
}
1040
0.0
1002
{
1002
}
1010
1.0
1020
0.0
1030
0.0
1010
0.0
1020
1.0
1030
0.0
1010
0.0
1020
0.0
1030
1.0
1070
     0
1002
}
1002
{
1002
{
1040
1.0
1040
1.0
1002
{
1070
     1
1002
{
1040
1.0
1040
1.0
1000

1040
0.0
1002
{
1002
}
1040
0.0
1002
{
1002
}
1040
0.0
1002
}
1002
}
1002
}
1070
     0
1040
0.0
1002
{
1002
}
1002
}
1002
{
1002
}
1002
}
1002
{
1071
        3
1070
     3
1070
     0
1002
{
1070
     2
1070
     0
1070
     0
1040
0.0
1002
}
1070
     0
1070
     2
1002
{
1002
}
1002
}
1002
{
1040
8030.0
1040
190.3000030517578
1040
0.3050000071525574
1040
228.0
1040
545.0
1040
14.0
1040
17.39999961853027
1040
0.4560000002384186
1002
}
1002
}
  0
MESH
  5
F9
330
1F
100
AcDbEntity
  8
OracDecor_panel_moldings
 62
    53
420
 14796375
160
             31832
310
587C0000740300000C00000013000000020000003C0000000600000002000000000000E0FF3F8F4000000080FEFF1DC000000000269D3540000000E0FF3F8F4000000080FEFF1DC0000000803A7433400C000000130000000A0000003C00000006000000020000000000000000408F4000000000B79EE6BF00000040280834
310
40000000E0FF3F8F4000000080FEFF1DC0000000803A7433400C00000013000000120000003C00000006000000020000000000000000408F400000000080FAE9BF000000008D4634400000000000408F4000000000B79EE6BF00000040280834400C000000130000001A0000003C0000000600000002000000000000E0FF3F
310
8F4000000080FEFF1DC000000000269D35400000000000408F400000000080FAE9BF000000008D4634400C00000013000000220000003C00000006000000020000000000000000408F40000000000000A0BE00000000D2810540000000E0FF3F8F40000000A0551612C000000000F844C93F0C000000130000002A0000003C
310
00000006000000020000000000000000408F40000000000000B0BE000000000000E4BE000000E0FF3F8F40000000A0551612C000000000F844C93F0C00000013000000320000003C00000006000000020000000000000000408F40000000000000A0BE00000000D28105400000000000408F40000000000000B0BE00000000
310
0000E4BE0C000000130000003A0000003C00000006000000020000000000000000408F4000000000302EB0BF000000002A740740000000E0FF3F8F40000000E0C90C13C000000000685ED13F0C00000013000000420000003C0000000600000002000000000000E0FF3F8F40000000A0551612C000000000F844C93F000000
310
E0FF3F8F40000000E0C90C13C000000000685ED13F0C000000130000004A0000003C00000006000000020000000000000000408F40000000000000A0BE00000000D28105400000000000408F4000000000302EB0BF000000002A7407400C00000013000000520000003C00000006000000020000000000000000408F400000
310
0000D850CEBF0000008083E80840000000E0FF3F8F400000002015BF13C0000000006002DD3F0C000000130000005A0000003C0000000600000002000000000000E0FF3F8F40000000E0C90C13C000000000685ED13F000000E0FF3F8F400000002015BF13C0000000006002DD3F0C00000013000000620000003C00000006
310
000000020000000000000000408F4000000000302EB0BF000000002A7407400000000000408F4000000000D850CEBF0000008083E808400C000000130000006A0000003C00000006000000020000000000000000408F4000000000043CE1BF00000000FC300B40000000E0FF3F8F4000000040000014C000000000624DE63F
310
0C00000013000000720000003C0000000600000002000000000000E0FF3F8F400000002015BF13C0000000006002DD3F000000E0FF3F8F4000000040000014C000000000624DE63F0C000000130000007A0000003C00000006000000020000000000000000408F4000000000D850CEBF0000008083E808400000000000408F
310
4000000000043CE1BF00000000FC300B400C00000013000000820000003C00000006000000020000000000000000408F4000000080C19EE6BF000000003A1E0D40000000E0FF3F8F4000000040596614C000000000FFF6F53F0C000000130000008A0000003C0000000600000002000000000000E0FF3F8F40000000400000
310
14C000000000624DE63F000000E0FF3F8F4000000040596614C000000000FFF6F53F0C00000013000000920000003C00000006000000020000000000000000408F4000000000043CE1BF00000000FC300B400000000000408F4000000080C19EE6BF000000003A1E0D400C000000130000009A0000003C0000000600000002
310
0000000000000000408F40000000808FE0EBBF000000C01ABF1140000000E0FF3F8F400000000000001EC000000080C7160B400C00000013000000A20000003C0000000600000002000000000000E0FF3F8F400000004084C91DC000000000284B0940000000E0FF3F8F400000000000001EC000000080C7160B400C000000
310
13000000AA0000003C00000006000000020000000000000000408F40000000808FE0EBBF000000C01ABF1140000000E0FF3F8F400000004084C91DC000000000284B09400C00000013000000B20000003C00000006000000020000000000000000408F40000000808FE0EBBF000000C01ABF1140000000E0FF3F8F40000000
310
60C4311DC00000008075E107400C00000013000000BA0000003C0000000600000002000000000000E0FF3F8F4000000020E8581CC00000000056260740000000E0FF3F8F4000000060C4311DC00000008075E107400C00000013000000C20000003C00000006000000020000000000000000408F40000000808FE0EBBF0000
310
00C01ABF1140000000E0FF3F8F4000000020E8581CC000000000562607400C00000013000000CA0000003C0000000600000002000000000000E0FF3F8F400000004084C91DC000000000284B0940000000E0FF3F8F4000000060C4311DC00000008075E107400C00000013000000D20000003C000000060000000200000000
310
0000E0FF3F8F4000000020E8581CC00000000056260740000000E0FF3F8F400000006014AE1AC000000080CF8F06400C00000013000000DA0000003C00000006000000020000000000000000408F40000000808DE0EBBF000000805CAF1040000000E0FF3F8F400000006014AE1AC000000080CF8F06400C00000013000000
310
E20000003C00000006000000020000000000000000408F40000000808FE0EBBF000000C01ABF11400000000000408F40000000808DE0EBBF000000805CAF10400C00000013000000EA0000003C00000006000000020000000000000000408F40000000008BFAE9BF000000805F110F40000000E0FF3F8F40000000C09DC914
310
C000000000E16AFA3F0C00000013000000F20000003C0000000600000002000000000000E0FF3F8F4000000040596614C000000000FFF6F53F000000E0FF3F8F40000000C09DC914C000000000E16AFA3F0C00000013000000FA0000003C00000006000000020000000000000000408F4000000080C19EE6BF000000003A1E
310
0D400000000000408F40000000008BFAE9BF000000805F110F400C00000013000000020100003C00000006000000020000000000000000408F40000000008BFAE9BF000000805F110F40000000E0FF3F8F40000000005C9715C00000000064FCFF3F0C000000130000000A0100003C0000000600000002000000000000E0FF
310
3F8F40000000C09DC914C000000000E16AFA3F000000E0FF3F8F40000000005C9715C00000000064FCFF3F0C00000013000000120100003C00000006000000020000000000000000408F40000000008BFAE9BF000000805F110F40000000E0FF3F8F40000000A0D25916C000000080B3CD01400C000000130000001A010000
310
3C0000000600000002000000000000E0FF3F8F40000000005C9715C00000000064FCFF3F000000E0FF3F8F40000000A0D25916C000000080B3CD01400C00000013000000220100003C00000006000000020000000000000000408F40000000808DE0EBBF000000805CAF1040000000E0FF3F8F40000000400F9517C0000000
310
80B2DE03400C000000130000002A0100003C0000000600000002000000000000E0FF3F8F40000000A0D25916C000000080B3CD0140000000E0FF3F8F40000000400F9517C000000080B2DE03400C00000013000000320100003C00000006000000020000000000000000408F40000000808DE0EBBF000000805CAF10400000
310
000000408F40000000008BFAE9BF000000805F110F400C000000130000003A0100003C00000006000000020000000000000000408F40000000808DE0EBBF000000805CAF1040000000E0FF3F8F40000000600F9B18C0000000803B0D05400C00000013000000420100003C0000000600000002000000000000E0FF3F8F4000
310
0000400F9517C000000080B2DE0340000000E0FF3F8F40000000600F9B18C0000000803B0D05400C000000130000004A0100003C0000000600000002000000000000E0FF3F8F400000006014AE1AC000000080CF8F0640000000E0FF3F8F40000000600F9B18C0000000803B0D05400C00000013000000520100003C000000
310
06000000020000000000000000408F40000000008DFAE9BF000000A0C7E51240000000E0FF3F8F400000000000001EC0000000A0132F16400C000000130000005A0100003C0000000600000002000000000000E0FF3F8F400000000000001EC000000080C7160B40000000E0FF3F8F400000000000001EC0000000A0132F16
310
400C00000013000000620100003C00000006000000020000000000000000408F40000000808FE0EBBF000000C01ABF11400000000000408F40000000008DFAE9BF000000A0C7E512400C000000130000006A0100003C00000006000000020000000000000000408F4000000080C39EE6BF000000005ADF1340000000E0FF3F
310
8F40000000802A571EC0000000807FCC17400C00000013000000720100003C0000000600000002000000000000E0FF3F8F400000000000001EC0000000A0132F1640000000E0FF3F8F40000000802A571EC0000000807FCC17400C000000130000007A0100003C00000006000000020000000000000000408F40000000008D
310
FAE9BF000000A0C7E512400000000000408F4000000080C39EE6BF000000005ADF13400C00000013000000820100003C00000006000000020000000000000000408F4000000000023CE1BF00000020F9D51440000000E0FF3F8F4000000000CB4D1FC000000020822319400C000000130000008A0100003C00000006000000
310
02000000000000E0FF3F8F40000000802A571EC0000000807FCC1740000000E0FF3F8F4000000000CB4D1FC000000020822319400C00000013000000920100003C00000006000000020000000000000000408F4000000080C39EE6BF000000005ADF13400000000000408F4000000000023CE1BF00000020F9D514400C0000
310
00130000009A0100003C0000000600000002000000000000E0FF3F8F4000000000CB4D1FC00000002082231940000000E0FF3F8F4000000060F85C20C0000000E0C6F919400C00000013000000A20100003C0000000600000002000000000000E0FF3F8F4000000000CB4D1FC000000020822319400000000000408F400000
310
0000209B9FBF00000060773020400C00000013000000AA0100003C00000006000000020000000000000000408F4000000000409EB8BF0000004076CF20400000000000408F4000000000209B9FBF00000060773020400C00000013000000B20100003C0000000600000002000000000000E0FF3F8F4000000060F85C20C000
310
0000E0C6F919400000000000408F4000000000409EB8BF0000004076CF20400C00000013000000BA0100003C0000000600000002000000000000E0FF3F8F4000000060F85C20C0000000E0C6F91940000000E0FF3F8F40000000805F0023C0000000E0E5B81C400C00000013000000C20100003C0000000600000002000000
310
000000E0FF3F8F4000000060F85C20C0000000E0C6F919400000000000408F40000000008871CBBF000000800B5921400C00000013000000CA0100003C00000006000000020000000000000000408F4000000000268DD9BF000000C01CDD21400000000000408F40000000008871CBBF000000800B5921400C000000130000
310
00D20100003C0000000600000002000000000000E0FF3F8F40000000805F0023C0000000E0E5B81C400000000000408F4000000000268DD9BF000000C01CDD21400C00000013000000DA0100003C00000006000000020000000000000000408F40000000A0A1E007C0000000C089AF2640000000E0FF3F8F40000000000E87
310
24C00000002091F91E400C00000013000000E20100003C0000000600000002000000000000E0FF3F8F40000000805F0023C0000000E0E5B81C40000000E0FF3F8F40000000000E8724C00000002091F91E400C00000013000000EA0100003C0000000600000002000000000000E0FF3F8F40000000805F0023C0000000E0E5
310
B81C400000000000408F40000000004A1CE3BF000000A06C4F22400C00000013000000F20100003C00000006000000020000000000000000408F40000000A0A1E007C0000000C089AF26400000000000408F40000000004A1CE3BF000000A06C4F22400C00000013000000FA0100003C0000000600000002000000000000E0
310
FF3F8F40000000400F7609C0000000A0D92127400000000000408F40000000E062F125C000000040B0EB20400C00000013000000020200003C0000000600000002000000000000E0FF3F8F40000000000E8724C00000002091F91E400000000000408F40000000E062F125C000000040B0EB20400C000000130000000A0200
310
003C00000006000000020000000000000000408F40000000A0A1E007C0000000C089AF2640000000E0FF3F8F40000000400F7609C0000000A0D92127400C00000013000000120200003C0000000600000002000000000000E0FF3F8F40000000403CCF0AC0000000C0459A27400000000000408F4000000020CD0C27C00000
310
0040F57522400C000000130000001A0200003C00000006000000020000000000000000408F40000000E062F125C000000040B0EB20400000000000408F4000000020CD0C27C000000040F57522400C00000013000000220200003C0000000600000002000000000000E0FF3F8F40000000400F7609C0000000A0D921274000
310
0000E0FF3F8F40000000403CCF0AC0000000C0459A27400C000000130000002A0200003C0000000600000002000000000000E0FF3F8F400000008063C10BC000000000DB2328400000000000408F40000000E022F527C0000000A0504224400C00000013000000320200003C00000006000000020000000000000000408F40
310
00000020CD0C27C000000040F57522400000000000408F40000000E022F527C0000000A0504224400C000000130000003A0200003C0000000600000002000000000000E0FF3F8F40000000403CCF0AC0000000C0459A2740000000E0FF3F8F400000008063C10BC000000000DB2328400C00000013000000420200003C0000
310
000600000002000000000000E0FF3F8F40000000E0553B0CC000000000D7B428400000000000408F40000000A0F58928C000000080811026400C000000130000004A0200003C00000006000000020000000000000000408F40000000E022F527C0000000A0504224400000000000408F40000000A0F58928C0000000808110
310
26400C00000013000000520200003C0000000600000002000000000000E0FF3F8F400000008063C10BC000000000DB232840000000E0FF3F8F40000000E0553B0CC000000000D7B428400C000000130000005A0200003C0000000600000002000000000000E0FF3F8F4000000000563B0CC000000020274B29400000000000
310
408F4000000080E6D928C000000060EE0D28400C00000013000000620200003C00000006000000020000000000000000408F40000000A0F58928C000000080811026400000000000408F4000000080E6D928C000000060EE0D28400C000000130000006A0200003C0000000600000002000000000000E0FF3F8F40000000E0
310
553B0CC000000000D7B42840000000E0FF3F8F4000000000563B0CC000000020274B29400C00000013000000720200003C0000000600000002000000000000E0FF3F8F4000000000563B0CC000000020274B29400000000000408F4000000040CED928C0000000807EF329400C000000130000007A0200003C000000060000
310
00020000000000000000408F4000000080E6D928C000000060EE0D28400000000000408F4000000040CED928C0000000807EF329400C00000013000000820200003C0000000600000002000000000000E0FF3F8F40000000C062C10BC00000000023DC29400000000000408F4000000080B88928C0000000E08BF02B400C00
310
0000130000008A0200003C00000006000000020000000000000000408F4000000040CED928C0000000807EF329400000000000408F4000000080B88928C0000000E08BF02B400C00000013000000920200003C0000000600000002000000000000E0FF3F8F4000000000563B0CC000000020274B2940000000E0FF3F8F4000
310
0000C062C10BC00000000023DC29400C000000130000009A0200003C0000000600000002000000000000E0FF3F8F40000000C03BCF0AC000000040B8652A400000000000408F40000000A0BCF427C000000000B1BE2D400C00000013000000A20200003C00000006000000020000000000000000408F4000000080B88928C0
310
000000E08BF02B400000000000408F40000000A0BCF427C000000000B1BE2D400C00000013000000AA0200003C0000000600000002000000000000E0FF3F8F40000000C062C10BC00000000023DC2940000000E0FF3F8F40000000C03BCF0AC000000040B8652A400C00000013000000B20200003C00000006000000020000
310
00000000E0FF3F8F40000000400F7609C00000006024DE2A400000000000408F4000000000700C27C0000000A0A88A2F400C00000013000000BA0200003C00000006000000020000000000000000408F40000000A0BCF427C000000000B1BE2D400000000000408F4000000000700C27C0000000A0A88A2F400C0000001300
310
0000C20200003C0000000600000002000000000000E0FF3F8F40000000C03BCF0AC000000040B8652A40000000E0FF3F8F40000000400F7609C00000006024DE2A400C00000013000000CA0200003C00000006000000020000000000000000408F40000000A0A0E007C00000004074502B400000000000408F4000000020EF
310
F025C0000000406E8A30400C00000013000000D20200003C00000006000000020000000000000000408F4000000000700C27C0000000A0A88A2F400000000000408F4000000020EFF025C0000000406E8A30400C00000013000000DA0200003C0000000600000002000000000000E0FF3F8F40000000400F7609C000000060
310
24DE2A400000000000408F40000000A0A0E007C00000004074502B400C00000013000000E20200003C0000000600000002000000000000E0FF3F8F4000000000CB4D1FC000000020822319400000000000408F40000000000000CC3E000000808EAD17400C00000013000000EA0200003C0000000600000002000000000000
310
0000408F40000000000000B83E0000000005311F400000000000408F40000000000000CC3E000000808EAD17400C00000013000000F20200003C0000000600000002000000000000E0FF3F8F4000000000CB4D1FC000000020822319400000000000408F40000000000000B83E0000000005311F400C00000013000000FA02
310
00003C0000000600000002000000000000E0FF3F8F4000000000CB4D1FC000000020822319400000000000408F4000000000002EB0BF0000008062B416400C00000013000000020300003C00000006000000020000000000000000408F40000000000000CC3E000000808EAD17400000000000408F4000000000002EB0BF00
310
00008062B416400C000000130000000A0300003C0000000600000002000000000000E0FF3F8F4000000000CB4D1FC000000020822319400000000000408F4000000000B450CEBF0000004035FA15400C00000013000000120300003C00000006000000020000000000000000408F4000000000002EB0BF0000008062B41640
310
0000000000408F4000000000B450CEBF0000004035FA15400C000000130000001A0300003C00000006000000020000000000000000408F4000000000023CE1BF00000020F9D514400000000000408F4000000000B450CEBF0000004035FA15400C00000013000000220300003C0000000600000002000000000000E0FF3F8F
310
40000000A0531612C00000000075CD38400000000000408F40000000000000DC3E00000080C44F36400C000000130000002A0300003C00000006000000020000000000000000408F40000000000000E03E00000040FFFF38400000000000408F40000000000000DC3E00000080C44F36400C00000013000000320300003C00
310
00000600000002000000000000E0FF3F8F40000000A0531612C00000000075CD38400000000000408F40000000000000E03E00000040FFFF38400C000000130000003A0300003C0000000600000002000000000000E0FF3F8F40000000E0C70C13C0000000C085BA38400000000000408F4000000000C82DB0BF0000008079
310
1136400C00000013000000420300003C00000006000000020000000000000000408F40000000000000DC3E00000080C44F36400000000000408F4000000000C82DB0BF00000080791136400C000000130000004A0300003C0000000600000002000000000000E0FF3F8F40000000A0531612C00000000075CD3840000000E0
310
FF3F8F40000000E0C70C13C0000000C085BA38400C00000013000000520300003C0000000600000002000000000000E0FF3F8F400000002013BF13C0000000C0F58B38400000000000408F4000000000A050CEBF00000040EEE235400C000000130000005A0300003C00000006000000020000000000000000408F40000000
310
00C82DB0BF00000080791136400000000000408F4000000000A050CEBF00000040EEE235400C00000013000000620300003C0000000600000002000000000000E0FF3F8F40000000E0C70C13C0000000C085BA3840000000E0FF3F8F400000002013BF13C0000000C0F58B38400C000000130000006A0300003C0000000600
310
000002000000000000E0FF3F8F4000000020FEFF13C000000040944D38400000000000408F4000000000F83BE1BF00000040DF9935400C00000013000000720300003C00000006000000020000000000000000408F4000000000A050CEBF00000040EEE235400000000000408F4000000000F83BE1BF00000040DF9935400C
310
000000130000007A0300003C0000000600000002000000000000E0FF3F8F400000002013BF13C0000000C0F58B3840000000E0FF3F8F4000000020FEFF13C000000040944D38400C00000013000000820300003C0000000600000002000000000000E0FF3F8F4000000040546614C0000000008FA037400000000000408F40
310
00000000B99EE6BF00000080375C35400C000000130000008A0300003C00000006000000020000000000000000408F4000000000F83BE1BF00000040DF9935400000000000408F4000000000B99EE6BF00000080375C35400C00000013000000920300003C0000000600000002000000000000E0FF3F8F4000000020FEFF13
310
C000000040944D3840000000E0FF3F8F4000000040546614C0000000008FA037400C000000130000009A0300003C00000006000000020000000000000000408F4000000080471CE3BF0000004091B02F40000000E0FF3F8F40000000C0CA8624C0000000A0B94131400C00000013000000A20300003C000000060000000200
310
00000000000000408F4000000020EFF025C0000000406E8A3040000000E0FF3F8F40000000C0CA8624C0000000A0B94131400C00000013000000AA0300003C00000006000000020000000000000000408F40000000A0A0E007C00000004074502B400000000000408F4000000080471CE3BF0000004091B02F400C00000013
310
000000B20300003C00000006000000020000000000000000408F4000000080471CE3BF0000004091B02F40000000E0FF3F8F40000000A0130023C000000080DFD131400C00000013000000BA0300003C0000000600000002000000000000E0FF3F8F40000000C0CA8624C0000000A0B9413140000000E0FF3F8F40000000A0
310
130023C000000080DFD131400C00000013000000C20300003C00000006000000020000000000000000408F4000000000248DD9BF000000A070113040000000E0FF3F8F4000000020F75C20C0000000808D8132400C00000013000000CA0300003C0000000600000002000000000000E0FF3F8F40000000A0130023C0000000
310
80DFD13140000000E0FF3F8F4000000020F75C20C0000000808D8132400C00000013000000D20300003C00000006000000020000000000000000408F4000000080471CE3BF0000004091B02F400000000000408F4000000000248DD9BF000000A0701130400C00000013000000DA0300003C00000006000000020000000000
310
000000408F40000000006871CBBF0000002079533040000000E0FF3F8F4000000000CA4D1FC0000000001FB732400C00000013000000E20300003C0000000600000002000000000000E0FF3F8F4000000020F75C20C0000000808D813240000000E0FF3F8F4000000000CA4D1FC0000000001FB732400C00000013000000EA
310
0300003C00000006000000020000000000000000408F4000000000248DD9BF000000A0701130400000000000408F40000000006871CBBF00000020795330400C00000013000000F20300003C00000006000000020000000000000000408F4000000000E09DB8BF000000C043983040000000E0FF3F8F400000008029571EC0
310
00000080DF0C33400C00000013000000FA0300003C0000000600000002000000000000E0FF3F8F4000000000CA4D1FC0000000001FB73240000000E0FF3F8F400000008029571EC000000080DF0C33400C00000013000000020400003C00000006000000020000000000000000408F40000000006871CBBF00000020795330
310
400000000000408F4000000000E09DB8BF000000C0439830400C000000130000000A0400003C0000000600000002000000000000E0FF3F8F4000000080FEFF1DC0000000803A7433400000000000408F40000000000000DE3E000000C0BD3331400C00000013000000120400003C0000000600000002000000000000E0FF3F
310
8F4000000080FEFF1DC0000000803A7433400000000000408F4000000000A0999FBF00000040C3E730400C000000130000001A0400003C00000006000000020000000000000000408F40000000000000DE3E000000C0BD3331400000000000408F4000000000A0999FBF00000040C3E730400C00000013000000220400003C
310
0000000600000002000000000000E0FF3F8F4000000080FEFF1DC0000000803A743340000000E0FF3F8F400000008029571EC000000080DF0C33400C000000130000002A0400003C00000006000000020000000000000000408F4000000000E09DB8BF000000C0439830400000000000408F4000000000A0999FBF00000040
310
C3E730400C00000013000000320400003C0000000600000002000000000000E0FF3F8F4000000080FEFF1DC0000000803A7433400000000000408F40000000000000D63E000000409B1433400C000000130000003A0400003C00000006000000020000000000000000408F40000000000000DE3E000000C0BD333140000000
310
0000408F40000000000000D63E000000409B1433400C00000013000000420400003C0000000600000002000000000000E0FF3F8F4000000080FEFF1DC0000000803A7433400000000000408F4000000000B050CEBF00000080718133400C000000130000004A0400003C0000000600000002000000000000E0FF3F8F400000
310
0080FEFF1DC0000000803A7433400000000000408F4000000000E82DB0BF00000040E65233400C00000013000000520400003C00000006000000020000000000000000408F4000000000B050CEBF00000080718133400000000000408F4000000000E82DB0BF00000040E65233400C000000130000005A0400003C00000006
310
000000020000000000000000408F40000000000000D63E000000409B1433400000000000408F4000000000E82DB0BF00000040E65233400C00000013000000620400003C0000000600000002000000000000E0FF3F8F4000000080FEFF1DC0000000803A7433400000000000408F4000000000F73BE1BF0000008080CA3340
310
0C000000130000006A0400003C00000006000000020000000000000000408F4000000000B050CEBF00000080718133400000000000408F4000000000F73BE1BF0000008080CA33400C00000013000000720400003C00000006000000020000000000000000408F4000000000B79EE6BF00000040280834400000000000408F
310
4000000000F73BE1BF0000008080CA33400C000000130000007A0400003C0000000600000002000000000000E0FF3F8F4000000060599715C000000000390037400000000000408F400000000082FAE9BF000000C0D21D35400C00000013000000820400003C0000000600000002000000000000E0FF3F8F40000000C098C9
310
14C000000000515937400000000000408F400000000082FAE9BF000000C0D21D35400C000000130000008A0400003C0000000600000002000000000000E0FF3F8F4000000060599715C00000000039003740000000E0FF3F8F40000000C098C914C000000000515937400C00000013000000920400003C0000000600000002
310
0000000000000000408F4000000000B99EE6BF00000080375C35400000000000408F400000000082FAE9BF000000C0D21D35400C000000130000009A0400003C0000000600000002000000000000E0FF3F8F4000000040546614C0000000008FA03740000000E0FF3F8F40000000C098C914C000000000515937400C000000
310
13000000A20400003C0000000600000002000000000000E0FF3F8F40000000800B9517C0000000C0278436400000000000408F400000008084E0EBBF0000008027D434400C00000013000000AA0400003C0000000600000002000000000000E0FF3F8F4000000040D05916C0000000C048C636400000000000408F40000000
310
8084E0EBBF0000008027D434400C00000013000000B20400003C0000000600000002000000000000E0FF3F8F40000000800B9517C0000000C027843640000000E0FF3F8F4000000040D05916C0000000C048C636400C00000013000000BA0400003C00000006000000020000000000000000408F400000000082FAE9BF0000
310
00C0D21D35400000000000408F400000008084E0EBBF0000008027D434400C00000013000000C20400003C0000000600000002000000000000E0FF3F8F4000000060599715C00000000039003740000000E0FF3F8F4000000040D05916C0000000C048C636400C00000013000000CA0400003C000000060000000200000000
310
00000000408F400000008084E0EBBF0000008027D43440000000E0FF3F8F40000000600C9B18C0000000C0565E36400C00000013000000D20400003C0000000600000002000000000000E0FF3F8F40000000800B9517C0000000C027843640000000E0FF3F8F40000000600C9B18C0000000C0565E36400C00000013000000
310
DA0400003C0000000600000002000000000000E0FF3F8F40000000E0E6581CC000000040341B36400000000000408F400000000083E0EBBF00000040389034400C00000013000000E20400003C0000000600000002000000000000E0FF3F8F400000002013AE1AC000000000052E36400000000000408F400000000083E0EB
310
BF00000040389034400C00000013000000EA0400003C0000000600000002000000000000E0FF3F8F40000000E0E6581CC000000040341B3640000000E0FF3F8F400000002013AE1AC000000000052E36400C00000013000000F20400003C00000006000000020000000000000000408F400000008084E0EBBF0000008027D4
310
34400000000000408F400000000083E0EBBF00000040389034400C00000013000000FA0400003C0000000600000002000000000000E0FF3F8F40000000600C9B18C0000000C0565E3640000000E0FF3F8F400000002013AE1AC000000000052E36400C00000013000000020500003C00000006000000020000000000000000
310
408F400000000080FAE9BF000000008D463440000000E0FF3F8F40000000C082C91DC0000000009AD635400C000000130000000A0500003C0000000600000002000000000000E0FF3F8F4000000080FEFF1DC000000000269D3540000000E0FF3F8F40000000C082C91DC0000000009AD635400C0000001300000012050000
310
3C00000006000000020000000000000000408F400000000080FAE9BF000000008D463440000000E0FF3F8F4000000020C3311DC000000040D00336400C000000130000001A0500003C0000000600000002000000000000E0FF3F8F40000000C082C91DC0000000009AD63540000000E0FF3F8F4000000020C3311DC0000000
310
40D00336400C00000013000000220500003C00000006000000020000000000000000408F400000000080FAE9BF000000008D4634400000000000408F400000000083E0EBBF00000040389034400C000000130000002A0500003C0000000600000002000000000000E0FF3F8F40000000E0E6581CC000000040341B36400000
310
00E0FF3F8F4000000020C3311DC000000040D00336400C00000013000000320500003C00000006000000020000000000000000408F4000000000209B9FBF00000060773020400000000000408F40000000000000B83E0000000005311F400C000000130000003A0500003C00000006000000020000000000000000408F4000
310
000000409EB8BF0000004076CF20400000000000408F40000000008871CBBF000000800B5921400C00000013000000420500003C00000006000000020000000000000000408F4000000000268DD9BF000000C01CDD21400000000000408F40000000004A1CE3BF000000A06C4F22400C000000130000004A0500003C000000
310
06000000020000000000000000408FC0000000000000B0BE000000000000E4BE0000000000408FC000000080551612C000000000F844C93F0C00000013000000520500003C00000006000000020000000000000000408FC0000000000000B0BE000000000000E4BE0000000000408F40000000000000B0BE000000000000E4
310
BE0C000000130000005A0500003C0000000600000002000000000000E0FF3F8F40000000A0551612C000000000F844C93F0000000000408FC000000080551612C000000000F844C93F0C00000013000000620500003C00000006000000020000000000000000408FC0000000000000B0BE000000000000E4BE000000000040
310
8FC0000000000000000000000000D28105400C000000130000006A0500003C00000006000000020000000000000000408FC0000000000000000000000000D28105400000000000408F40000000000000A0BE00000000D28105400C00000013000000720500003C00000006000000020000000000000000408FC00000000000
310
00000000000000D28105400000000000408FC000000000302EB0BF000000002A7407400C000000130000007A0500003C00000006000000020000000000000000408F4000000000302EB0BF000000002A7407400000000000408FC000000000302EB0BF000000002A7407400C00000013000000820500003C00000006000000
310
020000000000000000408FC000000000D850CEBF0000008083E808400000000000408FC000000000302EB0BF000000002A7407400C000000130000008A0500003C00000006000000020000000000000000408FC000000000D850CEBF0000008083E808400000000000408F4000000000D850CEBF0000008083E808400C0000
310
0013000000920500003C00000006000000020000000000000000408FC000000000D850CEBF0000008083E808400000000000408FC000000000033CE1BF00000000FC300B400C000000130000009A0500003C00000006000000020000000000000000408FC000000000033CE1BF00000000FC300B400000000000408F400000
310
0000043CE1BF00000000FC300B400C00000013000000A20500003C00000006000000020000000000000000408FC000000000033CE1BF00000000FC300B400000000000408FC000000080C19EE6BF000000003A1E0D400C00000013000000AA0500003C00000006000000020000000000000000408F4000000080C19EE6BF00
310
0000003A1E0D400000000000408FC000000080C19EE6BF000000003A1E0D400C00000013000000B20500003C00000006000000020000000000000000408FC000000080C19EE6BF000000003A1E0D400000000000408FC0000000808AFAE9BF000000805F110F400C00000013000000BA0500003C0000000600000002000000
310
0000000000408F40000000008BFAE9BF000000805F110F400000000000408FC0000000808AFAE9BF000000805F110F400C00000013000000C20500003C00000006000000020000000000000000408FC0000000008DE0EBBF000000805CAF10400000000000408FC0000000808AFAE9BF000000805F110F400C000000130000
310
00CA0500003C00000006000000020000000000000000408FC0000000008DE0EBBF000000805CAF10400000000000408F40000000808DE0EBBF000000805CAF10400C00000013000000D20500003C00000006000000020000000000000000408FC0000000008DE0EBBF000000805CAF10400000000000408FC0000000808FE0
310
EBBF000000C01ABF11400C00000013000000DA0500003C00000006000000020000000000000000408FC0000000808FE0EBBF000000C01ABF11400000000000408F40000000808FE0EBBF000000C01ABF11400C00000013000000E20500003C00000006000000020000000000000000408FC0000000808FE0EBBF000000C01A
310
BF11400000000000408FC0000000808CFAE9BF000000A0C7E512400C00000013000000EA0500003C00000006000000020000000000000000408F40000000008DFAE9BF000000A0C7E512400000000000408FC0000000808CFAE9BF000000A0C7E512400C00000013000000F20500003C000000060000000200000000000000
310
00408FC0000000808CFAE9BF000000A0C7E512400000000000408FC000000000C39EE6BF000000205ADF13400C00000013000000FA0500003C00000006000000020000000000000000408F4000000080C39EE6BF000000005ADF13400000000000408FC000000000C39EE6BF000000205ADF13400C00000013000000020600
310
003C00000006000000020000000000000000408FC000000080013CE1BF00000040F9D514400000000000408FC000000000C39EE6BF000000205ADF13400C000000130000000A0600003C00000006000000020000000000000000408F4000000000023CE1BF00000020F9D514400000000000408FC000000080013CE1BF0000
310
0040F9D514400C00000013000000120600003C00000006000000020000000000000000408FC000000000CC50CEBF0000004035FA15400000000000408FC000000080013CE1BF00000040F9D514400C000000130000001A0600003C00000006000000020000000000000000408FC000000000CC50CEBF0000004035FA154000
310
00000000408F4000000000B450CEBF0000004035FA15400C00000013000000220600003C00000006000000020000000000000000408FC000000000CC50CEBF0000004035FA15400000000000408FC000000000282EB0BF0000008062B416400C000000130000002A0600003C00000006000000020000000000000000408F40
310
00000000002EB0BF0000008062B416400000000000408FC000000000282EB0BF0000008062B416400C00000013000000320600003C00000006000000020000000000000000408FC000000000282EB0BF0000008062B416400000000000408FC0000000000000B03E000000808EAD17400C000000130000003A0600003C0000
310
0006000000020000000000000000408F40000000000000CC3E000000808EAD17400000000000408FC0000000000000B03E000000808EAD17400C00000013000000420600003C00000006000000020000000000000000408FC0000000000000B83E0000000005311F400000000000408FC0000000000000B03E000000808EAD
310
17400C000000130000004A0600003C00000006000000020000000000000000408FC0000000000000B83E0000000005311F400000000000408F40000000000000B83E0000000005311F400C00000013000000520600003C00000006000000020000000000000000408FC0000000000000B83E0000000005311F400000000000
310
408FC000000000209B9FBF00000060773020400C000000130000005A0600003C00000006000000020000000000000000408F4000000000209B9FBF00000060773020400000000000408FC000000000209B9FBF00000060773020400C00000013000000620600003C00000006000000020000000000000000408FC000000000
310
209B9FBF00000060773020400000000000408FC000000000409EB8BF0000004076CF20400C000000130000006A0600003C00000006000000020000000000000000408F4000000000409EB8BF0000004076CF20400000000000408FC000000000409EB8BF0000004076CF20400C00000013000000720600003C000000060000
310
00020000000000000000408FC0000000008871CBBF000000800B5921400000000000408FC000000000409EB8BF0000004076CF20400C000000130000007A0600003C00000006000000020000000000000000408F40000000008871CBBF000000800B5921400000000000408FC0000000008871CBBF000000800B5921400C00
310
000013000000820600003C00000006000000020000000000000000408FC0000000002B8DD9BF000000C01CDD21400000000000408FC0000000008871CBBF000000800B5921400C000000130000008A0600003C00000006000000020000000000000000408FC0000000002B8DD9BF000000C01CDD21400000000000408F4000
310
000000268DD9BF000000C01CDD21400C00000013000000920600003C00000006000000020000000000000000408FC0000000004A1CE3BF000000A06C4F22400000000000408FC0000000002B8DD9BF000000C01CDD21400C000000130000009A0600003C00000006000000020000000000000000408FC0000000004A1CE3BF
310
000000A06C4F22400000000000408F40000000004A1CE3BF000000A06C4F22400C00000013000000A20600003C00000006000000020000000000000000408FC0000000C0A1E007C0000000C089AF26400000000000408FC0000000004A1CE3BF000000A06C4F22400C00000013000000AA0600003C00000006000000020000
310
000000000000408FC0000000C0A1E007C0000000C089AF26400000000000408F40000000A0A1E007C0000000C089AF26400C00000013000000B20600003C00000006000000020000000000000000408FC0000000800F7609C0000000A0D92127400000000000408FC0000000C0A1E007C0000000C089AF26400C0000001300
310
0000BA0600003C00000006000000020000000000000000408FC0000000800F7609C0000000A0D9212740000000E0FF3F8F40000000400F7609C0000000A0D92127400C00000013000000C20600003C00000006000000020000000000000000408FC0000000800F7609C0000000A0D92127400000000000408FC0000000403C
310
CF0AC0000000C0459A27400C00000013000000CA0600003C00000006000000020000000000000000408FC0000000403CCF0AC0000000C0459A2740000000E0FF3F8F40000000403CCF0AC0000000C0459A27400C00000013000000D20600003C00000006000000020000000000000000408FC00000008063C10BC000000000
310
DB2328400000000000408FC0000000403CCF0AC0000000C0459A27400C00000013000000DA0600003C00000006000000020000000000000000408FC00000008063C10BC000000000DB232840000000E0FF3F8F400000008063C10BC000000000DB2328400C00000013000000E20600003C0000000600000002000000000000
310
0000408FC00000008063C10BC000000000DB2328400000000000408FC000000000563B0CC000000000D7B428400C00000013000000EA0600003C00000006000000020000000000000000408FC000000000563B0CC000000000D7B42840000000E0FF3F8F40000000E0553B0CC000000000D7B428400C00000013000000F206
310
00003C00000006000000020000000000000000408FC000000000563B0CC000000000D7B428400000000000408FC000000020563B0CC000000020274B29400C00000013000000FA0600003C0000000600000002000000000000E0FF3F8F4000000000563B0CC000000020274B29400000000000408FC000000020563B0CC000
310
000020274B29400C00000013000000020700003C00000006000000020000000000000000408FC000000020563B0CC000000020274B29400000000000408FC00000000063C10BC00000000023DC29400C000000130000000A0700003C0000000600000002000000000000E0FF3F8F40000000C062C10BC00000000023DC2940
310
0000000000408FC00000000063C10BC00000000023DC29400C00000013000000120700003C00000006000000020000000000000000408FC0000000E03BCF0AC000000040B8652A400000000000408FC00000000063C10BC00000000023DC29400C000000130000001A0700003C0000000600000002000000000000E0FF3F8F
310
40000000C03BCF0AC000000040B8652A400000000000408FC0000000E03BCF0AC000000040B8652A400C00000013000000220700003C00000006000000020000000000000000408FC0000000E03BCF0AC000000040B8652A400000000000408FC0000000400F7609C00000006024DE2A400C000000130000002A0700003C00
310
00000600000002000000000000E0FF3F8F40000000400F7609C00000006024DE2A400000000000408FC0000000400F7609C00000006024DE2A400C00000013000000320700003C00000006000000020000000000000000408FC0000000A0A0E007C00000004074502B400000000000408FC0000000400F7609C00000006024
310
DE2A400C000000130000003A0700003C00000006000000020000000000000000408FC0000000A0A0E007C00000004074502B400000000000408F40000000A0A0E007C00000004074502B400C00000013000000420700003C00000006000000020000000000000000408FC0000000A0A0E007C00000004074502B4000000000
310
00408FC000000080471CE3BF0000004091B02F400C000000130000004A0700003C00000006000000020000000000000000408F4000000080471CE3BF0000004091B02F400000000000408FC000000080471CE3BF0000004091B02F400C00000013000000520700003C00000006000000020000000000000000408FC0000000
310
00238DD9BF000000A0701130400000000000408FC000000080471CE3BF0000004091B02F400C000000130000005A0700003C00000006000000020000000000000000408F4000000000248DD9BF000000A0701130400000000000408FC000000000238DD9BF000000A0701130400C00000013000000620700003C0000000600
310
0000020000000000000000408FC000000000238DD9BF000000A0701130400000000000408FC0000000007C71CBBF00000020795330400C000000130000006A0700003C00000006000000020000000000000000408F40000000006871CBBF00000020795330400000000000408FC0000000007C71CBBF00000020795330400C
310
00000013000000720700003C00000006000000020000000000000000408FC000000000109EB8BF000000C0439830400000000000408FC0000000007C71CBBF00000020795330400C000000130000007A0700003C00000006000000020000000000000000408F4000000000E09DB8BF000000C0439830400000000000408FC0
310
00000000109EB8BF000000C0439830400C00000013000000820700003C00000006000000020000000000000000408FC000000000C0999FBF00000040C3E730400000000000408FC000000000109EB8BF000000C0439830400C000000130000008A0700003C00000006000000020000000000000000408FC000000000C0999F
310
BF00000040C3E730400000000000408F4000000000A0999FBF00000040C3E730400C00000013000000920700003C00000006000000020000000000000000408FC000000000C0999FBF00000040C3E730400000000000408FC0000000000000DC3E000000C0BD3331400C000000130000009A0700003C000000060000000200
310
00000000000000408F40000000000000DE3E000000C0BD3331400000000000408FC0000000000000DC3E000000C0BD3331400C00000013000000A20700003C00000006000000020000000000000000408FC0000000000000DC3E000000C0BD3331400000000000408FC0000000000000D63E000000409B1433400C00000013
310
000000AA0700003C00000006000000020000000000000000408F40000000000000D63E000000409B1433400000000000408FC0000000000000D63E000000409B1433400C00000013000000B20700003C00000006000000020000000000000000408FC000000000E02DB0BF00000040E65233400000000000408FC000000000
310
0000D63E000000409B1433400C00000013000000BA0700003C00000006000000020000000000000000408FC000000000E02DB0BF00000040E65233400000000000408F4000000000E82DB0BF00000040E65233400C00000013000000C20700003C00000006000000020000000000000000408FC000000000E02DB0BF000000
310
40E65233400000000000408FC000000000AC50CEBF00000080718133400C00000013000000CA0700003C00000006000000020000000000000000408F4000000000B050CEBF00000080718133400000000000408FC000000000AC50CEBF00000080718133400C00000013000000D20700003C00000006000000020000000000
310
000000408FC000000000F73BE1BF0000008080CA33400000000000408FC000000000AC50CEBF00000080718133400C00000013000000DA0700003C00000006000000020000000000000000408FC000000000F73BE1BF0000008080CA33400000000000408F4000000000F73BE1BF0000008080CA33400C00000013000000E2
310
0700003C00000006000000020000000000000000408FC000000000B69EE6BF00000040280834400000000000408FC000000000F73BE1BF0000008080CA33400C00000013000000EA0700003C00000006000000020000000000000000408FC000000000B69EE6BF00000040280834400000000000408F4000000000B79EE6BF
310
00000040280834400C00000013000000F20700003C00000006000000020000000000000000408FC000000000B69EE6BF00000040280834400000000000408FC0000000807FFAE9BF000000008D4634400C00000013000000FA0700003C00000006000000020000000000000000408FC0000000807FFAE9BF000000008D4634
310
400000000000408F400000000080FAE9BF000000008D4634400C00000013000000020800003C00000006000000020000000000000000408FC0000000807FFAE9BF000000008D4634400000000000408FC00000008082E0EBBF00000040389034400C000000130000000A0800003C0000000600000002000000000000000040
310
8F400000000083E0EBBF00000040389034400000000000408FC00000008082E0EBBF00000040389034400C00000013000000120800003C00000006000000020000000000000000408FC00000000084E0EBBF0000008027D434400000000000408FC00000008082E0EBBF00000040389034400C000000130000001A0800003C
310
00000006000000020000000000000000408FC00000000084E0EBBF0000008027D434400000000000408F400000008084E0EBBF0000008027D434400C00000013000000220800003C00000006000000020000000000000000408FC00000008081FAE9BF000000C0D21D35400000000000408FC00000000084E0EBBF00000080
310
27D434400C000000130000002A0800003C00000006000000020000000000000000408FC00000008081FAE9BF000000C0D21D35400000000000408F400000000082FAE9BF000000C0D21D35400C00000013000000320800003C00000006000000020000000000000000408FC00000008081FAE9BF000000C0D21D3540000000
310
0000408FC000000000B99EE6BF00000080375C35400C000000130000003A0800003C00000006000000020000000000000000408F4000000000B99EE6BF00000080375C35400000000000408FC000000000B99EE6BF00000080375C35400C00000013000000420800003C00000006000000020000000000000000408FC00000
310
0000F83BE1BF00000040DF9935400000000000408FC000000000B99EE6BF00000080375C35400C000000130000004A0800003C00000006000000020000000000000000408FC000000000F83BE1BF00000040DF9935400000000000408F4000000000F83BE1BF00000040DF9935400C00000013000000520800003C00000006
310
000000020000000000000000408FC000000000F83BE1BF00000040DF9935400000000000408FC000000000A050CEBF00000040EEE235400C000000130000005A0800003C00000006000000020000000000000000408FC000000000A050CEBF00000040EEE235400000000000408F4000000000A050CEBF00000040EEE23540
310
0C00000013000000620800003C00000006000000020000000000000000408FC000000000A050CEBF00000040EEE235400000000000408FC000000000C82DB0BF00000080791136400C000000130000006A0800003C00000006000000020000000000000000408F4000000000C82DB0BF00000080791136400000000000408F
310
C000000000C82DB0BF00000080791136400C00000013000000720800003C00000006000000020000000000000000408FC000000000C82DB0BF00000080791136400000000000408FC0000000000000DC3E00000080C44F36400C000000130000007A0800003C00000006000000020000000000000000408F40000000000000
310
DC3E00000080C44F36400000000000408FC0000000000000DC3E00000080C44F36400C00000013000000820800003C00000006000000020000000000000000408FC0000000000000DC3E00000080C44F36400000000000408FC0000000000000E03E00000040FFFF38400C000000130000008A0800003C0000000600000002
310
0000000000000000408F40000000000000E03E00000040FFFF38400000000000408FC0000000000000E03E00000040FFFF38400C00000013000000920800003C00000006000000020000000000000000408FC0000000000000E03E00000040FFFF38400000000000408FC000000080531612C00000000075CD38400C000000
310
130000009A0800003C0000000600000002000000000000E0FF3F8F40000000A0531612C00000000075CD38400000000000408FC000000080531612C00000000075CD38400C00000013000000A20800003C00000006000000020000000000000000408FC0000000C0C70C13C0000000C085BA38400000000000408FC0000000
310
80531612C00000000075CD38400C00000013000000AA0800003C00000006000000020000000000000000408FC0000000C0C70C13C0000000C085BA3840000000E0FF3F8F40000000E0C70C13C0000000C085BA38400C00000013000000B20800003C00000006000000020000000000000000408FC0000000C0C70C13C00000
310
00C085BA38400000000000408FC00000000013BF13C0000000C0F58B38400C00000013000000BA0800003C0000000600000002000000000000E0FF3F8F400000002013BF13C0000000C0F58B38400000000000408FC00000000013BF13C0000000C0F58B38400C00000013000000C20800003C000000060000000200000000
310
00000000408FC000000020FEFF13C000000040944D38400000000000408FC00000000013BF13C0000000C0F58B38400C00000013000000CA0800003C00000006000000020000000000000000408FC000000020FEFF13C000000040944D3840000000E0FF3F8F4000000020FEFF13C000000040944D38400C00000013000000
310
D20800003C00000006000000020000000000000000408FC000000020FEFF13C000000040944D38400000000000408FC000000040546614C0000000008FA037400C00000013000000DA0800003C00000006000000020000000000000000408FC000000040546614C0000000008FA03740000000E0FF3F8F4000000040546614
310
C0000000008FA037400C00000013000000E20800003C00000006000000020000000000000000408FC0000000A098C914C000000000515937400000000000408FC000000040546614C0000000008FA037400C00000013000000EA0800003C00000006000000020000000000000000408FC0000000A098C914C0000000005159
310
3740000000E0FF3F8F40000000C098C914C000000000515937400C00000013000000F20800003C00000006000000020000000000000000408FC0000000A098C914C000000000515937400000000000408FC000000040599715C000000000390037400C00000013000000FA0800003C00000006000000020000000000000000
310
408FC000000040599715C00000000039003740000000E0FF3F8F4000000060599715C000000000390037400C00000013000000020900003C00000006000000020000000000000000408FC000000020D05916C0000000C048C636400000000000408FC000000040599715C000000000390037400C000000130000000A090000
310
3C00000006000000020000000000000000408FC000000020D05916C0000000C048C63640000000E0FF3F8F4000000040D05916C0000000C048C636400C00000013000000120900003C00000006000000020000000000000000408FC000000020D05916C0000000C048C636400000000000408FC0000000A00B9517C0000000
310
C0278436400C000000130000001A0900003C0000000600000002000000000000E0FF3F8F40000000800B9517C0000000C0278436400000000000408FC0000000A00B9517C0000000C0278436400C00000013000000220900003C00000006000000020000000000000000408FC0000000400C9B18C0000000C0565E36400000
310
000000408FC0000000A00B9517C0000000C0278436400C000000130000002A0900003C00000006000000020000000000000000408FC0000000400C9B18C0000000C0565E3640000000E0FF3F8F40000000600C9B18C0000000C0565E36400C00000013000000320900003C00000006000000020000000000000000408FC000
310
0000400C9B18C0000000C0565E36400000000000408FC0000000E012AE1AC000000000052E36400C000000130000003A0900003C0000000600000002000000000000E0FF3F8F400000002013AE1AC000000000052E36400000000000408FC0000000E012AE1AC000000000052E36400C00000013000000420900003C000000
310
06000000020000000000000000408FC0000000E012AE1AC000000000052E36400000000000408FC0000000E0E6581CC000000040341B36400C000000130000004A0900003C0000000600000002000000000000E0FF3F8F40000000E0E6581CC000000040341B36400000000000408FC0000000E0E6581CC000000040341B36
310
400C00000013000000520900003C00000006000000020000000000000000408FC0000000E0E6581CC000000040341B36400000000000408FC0000000E0C2311DC000000040D00336400C000000130000005A0900003C0000000600000002000000000000E0FF3F8F4000000020C3311DC000000040D0033640000000000040
310
8FC0000000E0C2311DC000000040D00336400C00000013000000620900003C00000006000000020000000000000000408FC0000000E0C2311DC000000040D00336400000000000408FC0000000A082C91DC0000000009AD635400C000000130000006A0900003C0000000600000002000000000000E0FF3F8F40000000C082
310
C91DC0000000009AD635400000000000408FC0000000A082C91DC0000000009AD635400C00000013000000720900003C00000006000000020000000000000000408FC000000060FEFF1DC000000000269D35400000000000408FC0000000A082C91DC0000000009AD635400C000000130000007A0900003C00000006000000
310
02000000000000E0FF3F8F4000000080FEFF1DC000000000269D35400000000000408FC000000060FEFF1DC000000000269D35400C00000013000000820900003C00000006000000020000000000000000408FC000000040FEFF1DC0000000803A7433400000000000408FC000000060FEFF1DC000000000269D35400C0000
310
00130000008A0900003C00000006000000020000000000000000408FC000000040FEFF1DC0000000803A743340000000E0FF3F8F4000000080FEFF1DC0000000803A7433400C00000013000000920900003C00000006000000020000000000000000408FC000000040FEFF1DC0000000803A7433400000000000408FC00000
310
004029571EC000000080DF0C33400C000000130000009A0900003C0000000600000002000000000000E0FF3F8F400000008029571EC000000080DF0C33400000000000408FC00000004029571EC000000080DF0C33400C00000013000000A20900003C00000006000000020000000000000000408FC00000004029571EC000
310
000080DF0C33400000000000408FC0000000C0C94D1FC0000000001FB732400C00000013000000AA0900003C0000000600000002000000000000E0FF3F8F4000000000CA4D1FC0000000001FB732400000000000408FC0000000C0C94D1FC0000000001FB732400C00000013000000B20900003C0000000600000002000000
310
0000000000408FC0000000C0C94D1FC0000000001FB732400000000000408FC0000000E0F75C20C0000000808D8132400C00000013000000BA0900003C0000000600000002000000000000E0FF3F8F4000000020F75C20C0000000808D8132400000000000408FC0000000E0F75C20C0000000808D8132400C000000130000
310
00C20900003C00000006000000020000000000000000408FC0000000E0F75C20C0000000808D8132400000000000408FC000000040140023C000000080DFD131400C00000013000000CA0900003C0000000600000002000000000000E0FF3F8F40000000A0130023C000000080DFD131400000000000408FC0000000401400
310
23C000000080DFD131400C00000013000000D20900003C00000006000000020000000000000000408FC0000000C0CB8624C0000000A0B94131400000000000408FC000000040140023C000000080DFD131400C00000013000000DA0900003C00000006000000020000000000000000408FC0000000C0CB8624C0000000A0B9
310
413140000000E0FF3F8F40000000C0CA8624C0000000A0B94131400C00000013000000E20900003C00000006000000020000000000000000408FC0000000C0CB8624C0000000A0B94131400000000000408FC0000000C0EFF025C0000000406E8A30400C00000013000000EA0900003C000000060000000200000000000000
310
00408F4000000020EFF025C0000000406E8A30400000000000408FC0000000C0EFF025C0000000406E8A30400C00000013000000F20900003C00000006000000020000000000000000408FC0000000C0700C27C0000000A0A88A2F400000000000408FC0000000C0EFF025C0000000406E8A30400C00000013000000FA0900
310
003C00000006000000020000000000000000408FC0000000C0700C27C0000000A0A88A2F400000000000408F4000000000700C27C0000000A0A88A2F400C00000013000000020A00003C00000006000000020000000000000000408FC0000000C0700C27C0000000A0A88A2F400000000000408FC000000080BDF427C00000
310
0000B1BE2D400C000000130000000A0A00003C00000006000000020000000000000000408F40000000A0BCF427C000000000B1BE2D400000000000408FC000000080BDF427C000000000B1BE2D400C00000013000000120A00003C00000006000000020000000000000000408FC000000020B98928C0000000E08BF02B4000
310
00000000408FC000000080BDF427C000000000B1BE2D400C000000130000001A0A00003C00000006000000020000000000000000408FC000000020B98928C0000000E08BF02B400000000000408F4000000080B88928C0000000E08BF02B400C00000013000000220A00003C00000006000000020000000000000000408FC0
310
00000020B98928C0000000E08BF02B400000000000408FC000000040CED928C0000000807EF329400C000000130000002A0A00003C00000006000000020000000000000000408F4000000040CED928C0000000807EF329400000000000408FC000000040CED928C0000000807EF329400C00000013000000320A00003C0000
310
0006000000020000000000000000408FC000000080E6D928C000000060EE0D28400000000000408FC000000040CED928C0000000807EF329400C000000130000003A0A00003C00000006000000020000000000000000408FC000000080E6D928C000000060EE0D28400000000000408F4000000080E6D928C000000060EE0D
310
28400C00000013000000420A00003C00000006000000020000000000000000408FC000000080E6D928C000000060EE0D28400000000000408FC000000080F68928C000000080811026400C000000130000004A0A00003C00000006000000020000000000000000408F40000000A0F58928C000000080811026400000000000
310
408FC000000080F68928C000000080811026400C00000013000000520A00003C00000006000000020000000000000000408FC0000000C023F527C0000000A0504224400000000000408FC000000080F68928C000000080811026400C000000130000005A0A00003C00000006000000020000000000000000408FC0000000C0
310
23F527C0000000A0504224400000000000408F40000000E022F527C0000000A0504224400C00000013000000620A00003C00000006000000020000000000000000408FC0000000C023F527C0000000A0504224400000000000408FC000000000CE0C27C000000040F57522400C000000130000006A0A00003C000000060000
310
00020000000000000000408F4000000020CD0C27C000000040F57522400000000000408FC000000000CE0C27C000000040F57522400C00000013000000720A00003C00000006000000020000000000000000408FC0000000C063F125C000000040B0EB20400000000000408FC000000000CE0C27C000000040F57522400C00
310
0000130000007A0A00003C00000006000000020000000000000000408F40000000E062F125C000000040B0EB20400000000000408FC0000000C063F125C000000040B0EB20400C00000013000000820A00003C00000006000000020000000000000000408FC0000000C063F125C000000040B0EB20400000000000408FC000
310
0000C00E8724C00000002091F91E400C000000130000008A0A00003C0000000600000002000000000000E0FF3F8F40000000000E8724C00000002091F91E400000000000408FC0000000C00E8724C00000002091F91E400C00000013000000920A00003C00000006000000020000000000000000408FC000000040600023C0
310
000000E0E5B81C400000000000408FC0000000C00E8724C00000002091F91E400C000000130000009A0A00003C0000000600000002000000000000E0FF3F8F40000000805F0023C0000000E0E5B81C400000000000408FC000000040600023C0000000E0E5B81C400C00000013000000A20A00003C00000006000000020000
310
000000000000408FC000000020F95C20C000000000C7F919400000000000408FC000000040600023C0000000E0E5B81C400C00000013000000AA0A00003C0000000600000002000000000000E0FF3F8F4000000060F85C20C0000000E0C6F919400000000000408FC000000020F95C20C000000000C7F919400C0000001300
310
0000B20A00003C00000006000000020000000000000000408FC000000000CB4D1FC000000020822319400000000000408FC000000020F95C20C000000000C7F919400C00000013000000BA0A00003C0000000600000002000000000000E0FF3F8F4000000000CB4D1FC000000020822319400000000000408FC000000000CB
310
4D1FC000000020822319400C00000013000000C20A00003C00000006000000020000000000000000408FC0000000402A571EC0000000807FCC17400000000000408FC000000000CB4D1FC000000020822319400C00000013000000CA0A00003C00000006000000020000000000000000408FC0000000402A571EC000000080
310
7FCC1740000000E0FF3F8F40000000802A571EC0000000807FCC17400C00000013000000D20A00003C00000006000000020000000000000000408FC0000000402A571EC0000000807FCC17400000000000408FC0000000C0FFFF1DC0000000A0132F16400C00000013000000DA0A00003C0000000600000002000000000000
310
0000408FC0000000C0FFFF1DC0000000A0132F1640000000E0FF3F8F400000000000001EC0000000A0132F16400C00000013000000E20A00003C00000006000000020000000000000000408FC0000000C0FFFF1DC0000000A0132F16400000000000408FC00000000000001EC000000080C7160B400C00000013000000EA0A
310
00003C00000006000000020000000000000000408FC00000000000001EC000000080C7160B40000000E0FF3F8F400000000000001EC000000080C7160B400C00000013000000F20A00003C00000006000000020000000000000000408FC00000000000001EC000000080C7160B400000000000408FC00000004084C91DC000
310
000000284B09400C00000013000000FA0A00003C0000000600000002000000000000E0FF3F8F400000004084C91DC000000000284B09400000000000408FC00000004084C91DC000000000284B09400C00000013000000020B00003C00000006000000020000000000000000408FC00000004084C91DC000000000284B0940
310
0000000000408FC000000060C4311DC00000008075E107400C000000130000000A0B00003C0000000600000002000000000000E0FF3F8F4000000060C4311DC00000008075E107400000000000408FC000000060C4311DC00000008075E107400C00000013000000120B00003C00000006000000020000000000000000408F
310
C000000060C4311DC00000008075E107400000000000408FC000000020E8581CC000000000562607400C000000130000001A0B00003C0000000600000002000000000000E0FF3F8F4000000020E8581CC000000000562607400000000000408FC000000020E8581CC000000000562607400C00000013000000220B00003C00
310
000006000000020000000000000000408FC00000002014AE1AC000000080CF8F06400000000000408FC000000020E8581CC000000000562607400C000000130000002A0B00003C00000006000000020000000000000000408FC00000002014AE1AC000000080CF8F0640000000E0FF3F8F400000006014AE1AC000000080CF
310
8F06400C00000013000000320B00003C00000006000000020000000000000000408FC00000002014AE1AC000000080CF8F06400000000000408FC0000000800F9B18C0000000803B0D05400C000000130000003A0B00003C00000006000000020000000000000000408FC0000000800F9B18C0000000803B0D0540000000E0
310
FF3F8F40000000600F9B18C0000000803B0D05400C00000013000000420B00003C00000006000000020000000000000000408FC0000000800F9B18C0000000803B0D05400000000000408FC0000000200F9517C000000080B2DE03400C000000130000004A0B00003C0000000600000002000000000000E0FF3F8F40000000
310
400F9517C000000080B2DE03400000000000408FC0000000200F9517C000000080B2DE03400C00000013000000520B00003C00000006000000020000000000000000408FC0000000200F9517C000000080B2DE03400000000000408FC000000080D25916C000000000B3CD01400C000000130000005A0B00003C0000000600
310
000002000000000000E0FF3F8F40000000A0D25916C000000080B3CD01400000000000408FC000000080D25916C000000000B3CD01400C00000013000000620B00003C00000006000000020000000000000000408FC0000000E05B9715C00000000063FCFF3F0000000000408FC000000080D25916C000000000B3CD01400C
310
000000130000006A0B00003C00000006000000020000000000000000408FC0000000E05B9715C00000000063FCFF3F000000E0FF3F8F40000000005C9715C00000000064FCFF3F0C00000013000000720B00003C00000006000000020000000000000000408FC0000000E05B9715C00000000063FCFF3F0000000000408FC0
310
000000A09DC914C000000000E06AFA3F0C000000130000007A0B00003C0000000600000002000000000000E0FF3F8F40000000C09DC914C000000000E16AFA3F0000000000408FC0000000A09DC914C000000000E06AFA3F0C00000013000000820B00003C00000006000000020000000000000000408FC000000040596614
310
C000000000FEF6F53F0000000000408FC0000000A09DC914C000000000E06AFA3F0C000000130000008A0B00003C00000006000000020000000000000000408FC000000040596614C000000000FEF6F53F000000E0FF3F8F4000000040596614C000000000FFF6F53F0C00000013000000920B00003C000000060000000200
310
00000000000000408FC000000040596614C000000000FEF6F53F0000000000408FC000000020000014C000000000604DE63F0C000000130000009A0B00003C0000000600000002000000000000E0FF3F8F4000000040000014C000000000624DE63F0000000000408FC000000020000014C000000000604DE63F0C00000013
310
000000A20B00003C00000006000000020000000000000000408FC00000000015BF13C0000000005C02DD3F0000000000408FC000000020000014C000000000604DE63F0C00000013000000AA0B00003C00000006000000020000000000000000408FC00000000015BF13C0000000005C02DD3F000000E0FF3F8F4000000020
310
15BF13C0000000006002DD3F0C00000013000000B20B00003C00000006000000020000000000000000408FC00000000015BF13C0000000005C02DD3F0000000000408FC0000000C0C90C13C000000000645ED13F0C00000013000000BA0B00003C0000000600000002000000000000E0FF3F8F40000000E0C90C13C0000000
310
00685ED13F0000000000408FC0000000C0C90C13C000000000645ED13F0C00000013000000C20B00003C00000006000000020000000000000000408FC0000000C0C90C13C000000000645ED13F0000000000408FC000000080551612C000000000F844C93F0C00000013000000CA0B00003C00000006000000020000000000
310
000000408FC0000000807FFAE9BF000000008D4634400000000000408FC000000060FEFF1DC000000000269D35400C00000013000000D20B00003C00000006000000020000000000000000408FC000000040FEFF1DC0000000803A7433400000000000408FC000000000B69EE6BF00000040280834400C00000013000000DA
310
0B00003C00000006000000020000000000000000408FC0000000000000000000000000D28105400000000000408FC000000080551612C000000000F844C93F0C00000013000000E20B00003C00000006000000020000000000000000408FC0000000C0C90C13C000000000645ED13F0000000000408FC000000000302EB0BF
310
000000002A7407400C00000013000000EA0B00003C00000006000000020000000000000000408FC00000000015BF13C0000000005C02DD3F0000000000408FC000000000D850CEBF0000008083E808400C00000013000000F20B00003C00000006000000020000000000000000408FC000000000033CE1BF00000000FC300B
310
400000000000408FC000000020000014C000000000604DE63F0C00000013000000FA0B00003C00000006000000020000000000000000408FC000000040596614C000000000FEF6F53F0000000000408FC000000080C19EE6BF000000003A1E0D400C00000013000000020C00003C0000000600000002000000000000000040
310
8FC0000000808FE0EBBF000000C01ABF11400000000000408FC00000004084C91DC000000000284B09400C000000130000000A0C00003C00000006000000020000000000000000408FC00000000000001EC000000080C7160B400000000000408FC0000000808FE0EBBF000000C01ABF11400C00000013000000120C00003C
310
00000006000000020000000000000000408FC0000000808FE0EBBF000000C01ABF11400000000000408FC000000020E8581CC000000000562607400C000000130000001A0C00003C00000006000000020000000000000000408FC0000000808FE0EBBF000000C01ABF11400000000000408FC000000060C4311DC000000080
310
75E107400C00000013000000220C00003C00000006000000020000000000000000408FC00000002014AE1AC000000080CF8F06400000000000408FC0000000008DE0EBBF000000805CAF10400C000000130000002A0C00003C00000006000000020000000000000000408FC0000000A09DC914C000000000E06AFA3F000000
310
0000408FC0000000808AFAE9BF000000805F110F400C00000013000000320C00003C00000006000000020000000000000000408FC0000000E05B9715C00000000063FCFF3F0000000000408FC0000000808AFAE9BF000000805F110F400C000000130000003A0C00003C00000006000000020000000000000000408FC00000
310
0080D25916C000000000B3CD01400000000000408FC0000000808AFAE9BF000000805F110F400C00000013000000420C00003C00000006000000020000000000000000408FC0000000008DE0EBBF000000805CAF10400000000000408FC0000000200F9517C000000080B2DE03400C000000130000004A0C00003C00000006
310
000000020000000000000000408FC0000000008DE0EBBF000000805CAF10400000000000408FC0000000800F9B18C0000000803B0D05400C00000013000000520C00003C00000006000000020000000000000000408FC0000000C0FFFF1DC0000000A0132F16400000000000408FC0000000808CFAE9BF000000A0C7E51240
310
0C000000130000005A0C00003C00000006000000020000000000000000408FC0000000402A571EC0000000807FCC17400000000000408FC000000000C39EE6BF000000205ADF13400C00000013000000620C00003C00000006000000020000000000000000408FC000000080013CE1BF00000040F9D514400000000000408F
310
C000000000CB4D1FC000000020822319400C000000130000006A0C00003C00000006000000020000000000000000408FC000000020F95C20C000000000C7F919400000000000408FC000000000409EB8BF0000004076CF20400C00000013000000720C00003C00000006000000020000000000000000408FC000000000CB4D
310
1FC000000020822319400000000000408FC000000000209B9FBF00000060773020400C000000130000007A0C00003C00000006000000020000000000000000408FC0000000002B8DD9BF000000C01CDD21400000000000408FC000000040600023C0000000E0E5B81C400C00000013000000820C00003C0000000600000002
310
0000000000000000408FC000000020F95C20C000000000C7F919400000000000408FC0000000008871CBBF000000800B5921400C000000130000008A0C00003C00000006000000020000000000000000408FC0000000004A1CE3BF000000A06C4F22400000000000408FC000000040600023C0000000E0E5B81C400C000000
310
13000000920C00003C00000006000000020000000000000000408FC0000000C0A1E007C0000000C089AF26400000000000408FC0000000C00E8724C00000002091F91E400C000000130000009A0C00003C00000006000000020000000000000000408FC0000000800F7609C0000000A0D92127400000000000408FC0000000
310
C063F125C000000040B0EB20400C00000013000000A20C00003C00000006000000020000000000000000408FC0000000403CCF0AC0000000C0459A27400000000000408FC000000000CE0C27C000000040F57522400C00000013000000AA0C00003C00000006000000020000000000000000408FC0000000C023F527C00000
310
00A0504224400000000000408FC00000008063C10BC000000000DB2328400C00000013000000B20C00003C00000006000000020000000000000000408FC000000000563B0CC000000000D7B428400000000000408FC000000080F68928C000000080811026400C00000013000000BA0C00003C000000060000000200000000
310
00000000408FC000000080E6D928C000000060EE0D28400000000000408FC000000020563B0CC000000020274B29400C00000013000000C20C00003C00000006000000020000000000000000408FC000000020563B0CC000000020274B29400000000000408FC000000040CED928C0000000807EF329400C00000013000000
310
CA0C00003C00000006000000020000000000000000408FC000000020B98928C0000000E08BF02B400000000000408FC00000000063C10BC00000000023DC29400C00000013000000D20C00003C00000006000000020000000000000000408FC0000000E03BCF0AC000000040B8652A400000000000408FC000000080BDF427
310
C000000000B1BE2D400C00000013000000DA0C00003C00000006000000020000000000000000408FC0000000C0700C27C0000000A0A88A2F400000000000408FC0000000400F7609C00000006024DE2A400C00000013000000E20C00003C00000006000000020000000000000000408FC0000000A0A0E007C0000000407450
310
2B400000000000408FC0000000C0EFF025C0000000406E8A30400C00000013000000EA0C00003C00000006000000020000000000000000408FC0000000000000B83E0000000005311F400000000000408FC000000000CB4D1FC000000020822319400C00000013000000F20C00003C00000006000000020000000000000000
310
408FC0000000000000B03E000000808EAD17400000000000408FC000000000CB4D1FC000000020822319400C00000013000000FA0C00003C00000006000000020000000000000000408FC000000000282EB0BF0000008062B416400000000000408FC000000000CB4D1FC000000020822319400C00000013000000020D0000
310
3C00000006000000020000000000000000408FC000000000CC50CEBF0000004035FA15400000000000408FC000000000CB4D1FC000000020822319400C000000130000000A0D00003C00000006000000020000000000000000408FC0000000000000DC3E00000080C44F36400000000000408FC000000080531612C0000000
310
0075CD38400C00000013000000120D00003C00000006000000020000000000000000408FC0000000C0C70C13C0000000C085BA38400000000000408FC000000000C82DB0BF00000080791136400C000000130000001A0D00003C00000006000000020000000000000000408FC000000000A050CEBF00000040EEE235400000
310
000000408FC00000000013BF13C0000000C0F58B38400C00000013000000220D00003C00000006000000020000000000000000408FC000000000F83BE1BF00000040DF9935400000000000408FC000000020FEFF13C000000040944D38400C000000130000002A0D00003C00000006000000020000000000000000408FC000
310
000040546614C0000000008FA037400000000000408FC000000000B99EE6BF00000080375C35400C00000013000000320D00003C00000006000000020000000000000000408FC0000000C0CB8624C0000000A0B94131400000000000408FC000000080471CE3BF0000004091B02F400C000000130000003A0D00003C000000
310
06000000020000000000000000408FC000000040140023C000000080DFD131400000000000408FC000000080471CE3BF0000004091B02F400C00000013000000420D00003C00000006000000020000000000000000408FC0000000E0F75C20C0000000808D8132400000000000408FC000000000238DD9BF000000A0701130
310
400C000000130000004A0D00003C00000006000000020000000000000000408FC0000000C0C94D1FC0000000001FB732400000000000408FC0000000007C71CBBF00000020795330400C00000013000000520D00003C00000006000000020000000000000000408FC00000004029571EC000000080DF0C3340000000000040
310
8FC000000000109EB8BF000000C0439830400C000000130000005A0D00003C00000006000000020000000000000000408FC000000040FEFF1DC0000000803A7433400000000000408FC000000000C0999FBF00000040C3E730400C00000013000000620D00003C00000006000000020000000000000000408FC000000040FE
310
FF1DC0000000803A7433400000000000408FC0000000000000DC3E000000C0BD3331400C000000130000006A0D00003C00000006000000020000000000000000408FC000000040FEFF1DC0000000803A7433400000000000408FC0000000000000D63E000000409B1433400C00000013000000720D00003C00000006000000
310
020000000000000000408FC000000040FEFF1DC0000000803A7433400000000000408FC000000000E02DB0BF00000040E65233400C000000130000007A0D00003C00000006000000020000000000000000408FC000000040FEFF1DC0000000803A7433400000000000408FC000000000AC50CEBF00000080718133400C0000
310
0013000000820D00003C00000006000000020000000000000000408FC000000040FEFF1DC0000000803A7433400000000000408FC000000000F73BE1BF0000008080CA33400C000000130000008A0D00003C00000006000000020000000000000000408FC00000008081FAE9BF000000C0D21D35400000000000408FC00000
310
00A098C914C000000000515937400C00000013000000920D00003C00000006000000020000000000000000408FC00000008081FAE9BF000000C0D21D35400000000000408FC000000040599715C000000000390037400C000000130000009A0D00003C00000006000000020000000000000000408FC000000020D05916C000
310
0000C048C636400000000000408FC00000000084E0EBBF0000008027D434400C00000013000000A20D00003C00000006000000020000000000000000408FC00000000084E0EBBF0000008027D434400000000000408FC0000000A00B9517C0000000C0278436400C00000013000000AA0D00003C0000000600000002000000
310
0000000000408FC0000000400C9B18C0000000C0565E36400000000000408FC00000000084E0EBBF0000008027D434400C00000013000000B20D00003C00000006000000020000000000000000408FC00000008082E0EBBF00000040389034400000000000408FC0000000E012AE1AC000000000052E36400C000000130000
310
00BA0D00003C00000006000000020000000000000000408FC00000008082E0EBBF00000040389034400000000000408FC0000000E0E6581CC000000040341B36400C00000013000000C20D00003C00000006000000020000000000000000408FC0000000807FFAE9BF000000008D4634400000000000408FC0000000A082C9
310
1DC0000000009AD635400C00000013000000CA0D00003C00000006000000020000000000000000408FC0000000807FFAE9BF000000008D4634400000000000408FC0000000E0C2311DC000000040D0033640
100
AcDbSubDMesh
 71
     2
 72
     0
 91
        0
 92
      208
 10
-1000.0
 20
-7.499993324279785
 30
19.45401763916015
 10
-1000.0
 20
-10.26327323913574
 30
17.25673866271973
 10
-1000.0
 20
-11.5242977142334
 30
15.77081775665283
 10
-1000.0
 20
-12.2689905166626
 30
13.96981716156006
 10
-1000.0
 20
-12.42558670043945
 30
12.02720928192138
 10
-1000.0
 20
-11.97878837585449
 30
10.12952136993408
 10
-1000.0
 20
-7.585122108459472
 30
5.949705123901367
 10
-1000.0
 20
-7.499999046325683
 30
5.545973300933837
 10
-1000.0
 20
-7.5
 30
3.386122703552246
 10
-1000.0
 20
-6.66999864578247
 30
2.820219993591308
 10
-1000.0
 20
-5.397811412811279
 30
1.999117851257324
 10
-1000.0
 20
-5.099949836730957
 30
1.372800827026367
 10
-1000.0
 20
-4.936603546142578
 30
0.4532690048217774
 10
-1000.0
 20
-0.0000009536743164
 30
-0.0000095367431641
 10
-1000.0
 20
0.0
 30
2.68838882446289
 10
-1000.0
 20
-0.236842155456543
 30
3.113532066345214
 10
-1000.0
 20
-0.8711609840393066
 30
4.17125129699707
 10
-1000.0
 20
-0.2368407249450684
 30
5.494343757629394
 10
-1000.0
 20
-3.182646751403808
 30
11.56611347198486
 10
-1000.0
 20
-3.469428062438964
 30
12.07003021240234
 10
-1000.0
 20
-2.984681367874145
 30
13.65713691711426
 10
-1000.0
 20
-0.0631999969482422
 30
19.32382583618164
 10
-1000.0
 20
-0.706873893737793
 30
20.03186416625977
 10
-1000.0
 20
-0.8118293285369873
 30
21.11649703979492
 10
-1000.0
 20
-0.5385704040527344
 30
21.6010627746582
 10
-1000.0
 20
-0.2368354797363281
 30
21.88644790649414
 10
-1000.0
 20
-4.762480735778808
 30
24.72860336303711
 10
-1000.0
 20
-4.999992847442626
 30
24.30304336547852
 10
-1000.0
 20
-5.196871280670166
 30
23.34889221191406
 10
-1000.0
 20
-5.587707996368408
 30
22.7745475769043
 10
-1000.0
 20
-6.151413917541503
 30
22.36851119995117
 10
-1000.0
 20
-5.099930763244628
 30
23.62718200683594
 10
-1000.0
 20
-5.397801399230957
 30
23.00086975097656
 10
-1000.0
 20
-6.151426315307617
 30
2.631461143493652
 10
-1000.0
 20
-0.5385756492614746
 30
3.398918151855468
 10
-1000.0
 20
-0.8711621761322021
 30
4.436625480651855
 10
-1000.0
 20
-2.984683513641357
 30
11.34284782409668
 10
-1000.0
 20
-3.351189136505126
 30
11.80131340026855
 10
-1000.0
 20
-3.528972625732421
 30
12.35320281982422
 10
-1000.0
 20
-0.0308599472045899
 30
16.90532302856445
 10
-1000.0
 20
-0.5385699272155762
 30
19.79102325439453
 10
-1000.0
 20
-0.8118283748626708
 30
20.27558898925781
 10
-1000.0
 20
-0.8711566925048828
 30
20.82872772216797
 10
-1000.0
 20
0.0000014305114746
 30
7.797870635986328
 10
-1000.0
 20
-0.5972032546997071
 30
9.155125617980957
 10
-1000.0
 20
-0.3992412090301514
 30
8.931859970092773
 10
999.9999389648436
 20
-7.499994277954101
 30
21.61386108398438
 10
1000.0
 20
-0.81182861328125
 30
20.27558898925781
 10
1000.0
 20
-0.7068743705749512
 30
20.03186416625977
 10
999.9999389648436
 20
-7.499994277954101
 30
19.45401763916015
 10
1000.0
 20
-0.0000004768371582
 30
2.68838882446289
 10
1000.0
 20
-0.0000009536743164
 30
-0.0000095367431641
 10
999.9999389648436
 20
-4.521811008453369
 30
0.1974172592163086
 10
1000.0
 20
-0.0632047653198242
 30
2.931720733642578
 10
999.9999389648436
 20
-4.762488842010498
 30
0.2713871002197266
 10
1000.0
 20
-0.236842155456543
 30
3.113532066345214
 10
999.9999389648436
 20
-4.936604022979736
 30
0.4532699584960938
 10
1000.0
 20
-0.5385761260986329
 30
3.398918151855468
 10
999.9999389648436
 20
-5.000000953674316
 30
0.6969461441040039
 10
1000.0
 20
-0.7068793773651123
 30
3.639759063720703
 10
999.9999389648436
 20
-5.099949836730957
 30
1.372801780700683
 10
1000.0
 20
-0.8711621761322021
 30
4.436625480651855
 10
999.9999389648436
 20
-7.446793556213378
 30
3.161697387695312
 10
999.9999389648436
 20
-7.5
 30
3.386122703552246
 10
999.9999389648436
 20
-7.086822986602783
 30
2.893718719482421
 10
999.9999389648436
 20
-7.298600673675537
 30
2.985087394714355
 10
1000.0
 20
-0.8711612224578857
 30
4.17125129699707
 10
999.9999389648436
 20
-6.669999599456787
 30
2.820219993591308
 10
1000.0
 20
-0.8118338584899902
 30
3.883482933044433
 10
999.9999389648436
 20
-5.196890830993652
 30
1.651093482971191
 10
999.9999389648436
 20
-5.397811889648437
 30
1.99911880493164
 10
999.9999389648436
 20
-5.587717533111572
 30
2.225440025329589
 10
999.9999389648436
 20
-5.8955659866333
 30
2.483738899230957
 10
999.9999389648436
 20
-6.151425838470458
 30
2.631461143493652
 10
1000.0
 20
-0.8118348121643066
 30
4.72439432144165
 10
999.9999389648436
 20
-7.5
 30
5.545973300933837
 10
1000.0
 20
-0.7068803310394287
 30
4.968116760253906
 10
999.9999389648436
 20
-7.585123062133789
 30
5.949705123901367
 10
1000.0
 20
-0.5385751724243164
 30
5.208958148956298
 10
999.9999389648436
 20
-7.825969696044921
 30
6.284676074981689
 10
999.9999389648436
 20
-8.181582450866699
 30
6.493922710418701
 10
1000.0
 20
-0.0961647033691406
 30
8.40519905090332
 10
1000.0
 20
-0.0308651924133301
 30
8.094660758972167
 10
999.9999389648436
 20
-9.500728607177734
 30
7.180564403533935
 10
1000.0
 20
-0.3992400169372558
 30
8.931859970092773
 10
1000.0
 20
-0.2144021987915039
 30
8.673915863037109
 10
1000.0
 20
-2.984683275222778
 30
11.34284782409668
 10
1000.0
 20
-0.5972032546997071
 30
9.155125617980957
 10
999.9999389648436
 20
-10.26377868652343
 30
7.743717670440673
 10
999.9999389648436
 20
-3.18264627456665
 30
11.56611347198486
 10
1000.0
 20
-10.97145748138427
 30
8.460329055786132
 10
999.9999389648436
 20
-3.351189136505126
 30
11.80131340026855
 10
1000.0
 20
-11.52500247955322
 30
9.230386734008789
 10
999.9999389648436
 20
-3.469428062438964
 30
12.07003021240234
 10
1000.0
 20
-11.97878170013428
 30
10.12952136993408
 10
999.9999389648436
 20
-3.528972387313842
 30
12.35320281982422
 10
1000.0
 20
-12.26945209503174
 30
11.03223800659179
 10
999.9999389648436
 20
-3.528972625732421
 30
12.64678287506103
 10
1000.0
 20
-12.42558670043945
 30
12.02720928192138
 10
1000.0
 20
-12.42540168762207
 30
12.9755744934082
 10
999.9999389648436
 20
-3.46942663192749
 30
12.92995452880859
 10
1000.0
 20
-12.26898574829101
 30
13.96981716156006
 10
999.9999389648436
 20
-3.35118818283081
 30
13.19867134094238
 10
1000.0
 20
-11.97800159454345
 30
14.87244415283203
 10
999.9999389648436
 20
-3.18264627456665
 30
13.43387126922607
 10
1000.0
 20
-11.5242919921875
 30
15.77081775665283
 10
1000.0
 20
-2.984681367874145
 30
13.65713691711426
 10
1000.0
 20
-10.97057437896728
 30
16.54074478149414
 10
1000.0
 20
0.0000014305114746
 30
7.797870635986328
 10
1000.0
 20
0.0000033378601074
 30
5.919488906860351
 10
1000.0
 20
-0.063201904296875
 30
5.676156997680664
 10
1000.0
 20
-0.2368378639221191
 30
5.494343757629394
 10
999.9999389648436
 20
-4.521803379058837
 30
24.80256652832031
 10
1000.0
 20
0.0000076293945313
 30
24.99998855590821
 10
1000.0
 20
0.0000066757202148
 30
22.31159210205078
 10
999.9999389648436
 20
-4.762481212615966
 30
24.72860336303711
 10
1000.0
 20
-0.0631985664367676
 30
22.0682601928711
 10
999.9999389648436
 20
-4.936596393585205
 30
24.54671859741211
 10
1000.0
 20
-0.2368354797363281
 30
21.88644790649414
 10
999.9999389648436
 20
-4.999992847442626
 30
24.30304336547852
 10
1000.0
 20
-0.5385704040527344
 30
21.6010627746582
 10
999.9999389648436
 20
-5.099930763244628
 30
23.62718200683594
 10
1000.0
 20
-0.7068753242492676
 30
21.36022186279297
 10
1000.0
 20
-0.5972020626068116
 30
15.84485816955566
 10
999.9999389648436
 20
-10.26326560974121
 30
17.25673866271973
 10
999.9999389648436
 20
-9.500149726867675
 30
17.81981658935547
 10
1000.0
 20
-0.3992395401000976
 30
16.06812477111816
 10
999.9999389648436
 20
-8.181572914123535
 30
18.50606536865234
 10
1000.0
 20
-0.2143983840942383
 30
16.32606697082519
 10
999.9999389648436
 20
-7.825965881347656
 30
18.71531677246094
 10
1000.0
 20
-0.0961589813232422
 30
16.59478378295898
 10
999.9999389648436
 20
-7.585119247436523
 30
19.05028533935547
 10
1000.0
 20
0.000007152557373
 30
17.20211410522461
 10
1000.0
 20
-0.0308594703674317
 30
16.90532302856445
 10
1000.0
 20
0.0000052452087402
 30
19.08049392700195
 10
1000.0
 20
-0.2368373870849609
 30
19.50563812255859
 10
1000.0
 20
-0.0632004737854004
 30
19.32382583618164
 10
1000.0
 20
-0.5385699272155762
 30
19.79102325439453
 10
999.9999389648436
 20
-5.397801876068115
 30
23.00086975097656
 10
999.9999389648436
 20
-5.196871757507324
 30
23.34889221191406
 10
1000.0
 20
-0.8118295669555664
 30
21.11649703979492
 10
999.9999389648436
 20
-5.895551681518554
 30
22.51623153686523
 10
999.9999389648436
 20
-5.587708473205566
 30
22.7745475769043
 10
1000.0
 20
-0.8711569309234619
 30
20.82872772216797
 10
999.9999389648436
 20
-6.151414394378662
 30
22.36851119995117
 10
999.9999389648436
 20
-7.086818218231201
 30
22.10626602172852
 10
999.9999389648436
 20
-6.669994831085205
 30
22.17976379394531
 10
1000.0
 20
-0.8711562156677246
 30
20.56335830688476
 10
999.9999389648436
 20
-7.44678783416748
 30
21.83828735351562
 10
999.9999389648436
 20
-7.298595905303955
 30
22.01489639282227
 10
-1000.0
 20
-7.499993801116943
 30
21.61386108398438
 10
-1000.0
 20
-7.585118293762207
 30
19.05028533935547
 10
-1000.0
 20
-7.825964927673339
 30
18.71531677246094
 10
-1000.0
 20
-8.181578636169433
 30
18.50606536865234
 10
-1000.0
 20
-10.97146415710449
 30
8.460329055786132
 10
-1000.0
 20
-7.446793556213378
 30
3.161697387695312
 10
-1000.0
 20
-7.298600673675537
 30
2.985087394714355
 10
-1000.0
 20
-7.086822986602783
 30
2.893718719482421
 10
-1000.0
 20
-5.895565509796142
 30
2.483738899230957
 10
-1000.0
 20
-5.000000476837158
 30
0.6969451904296875
 10
-1000.0
 20
-4.762488365173339
 30
0.2713861465454102
 10
-1000.0
 20
-4.52181053161621
 30
0.1974172592163086
 10
-1000.0
 20
-0.0632047653198242
 30
2.931720733642578
 10
-1000.0
 20
-0.7068793773651123
 30
3.639759063720703
 10
-1000.0
 20
-0.8118345737457275
 30
4.72439432144165
 10
-1000.0
 20
-0.5385749340057373
 30
5.208958625793457
 10
-1000.0
 20
-0.063204288482666
 30
5.676156997680664
 10
-1000.0
 20
0.0000009536743164
 30
5.919488906860351
 10
-1000.0
 20
-7.825969696044921
 30
6.284676074981689
 10
-1000.0
 20
-8.181588172912597
 30
6.493923187255859
 10
-1000.0
 20
-9.500734329223632
 30
7.180564403533935
 10
-1000.0
 20
-3.528972864151
 30
12.64678287506103
 10
-1000.0
 20
-3.351188421249389
 30
13.19867134094238
 10
-1000.0
 20
-0.3992393016815185
 30
16.06812477111816
 10
-1000.0
 20
-0.0961618423461914
 30
16.59478378295898
 10
-1000.0
 20
0.0000066757202148
 30
17.20211410522461
 10
-1000.0
 20
0.0000052452087402
 30
19.08049392700195
 10
-1000.0
 20
-0.2368369102478027
 30
19.50563812255859
 10
-1000.0
 20
-0.8711559772491455
 30
20.56335830688476
 10
-1000.0
 20
-0.0631985664367676
 30
22.0682601928711
 10
-1000.0
 20
0.0000066757202148
 30
22.31159210205078
 10
-1000.0
 20
0.0000076293945313
 30
24.99998855590821
 10
-1000.0
 20
-4.521802902221679
 30
24.80256652832031
 10
-1000.0
 20
-4.936595916748046
 30
24.54671859741211
 10
-1000.0
 20
-6.669993877410888
 30
22.17976379394531
 10
-1000.0
 20
-7.086818218231201
 30
22.10626602172852
 10
-1000.0
 20
-7.298594951629638
 30
22.01489639282227
 10
-1000.0
 20
-7.446787357330322
 30
21.83828735351562
 10
-1000.0
 20
-9.500154495239257
 30
17.81981658935547
 10
-1000.0
 20
-10.97057914733887
 30
16.54074478149414
 10
-1000.0
 20
-11.97800827026367
 30
14.87244415283203
 10
-1000.0
 20
-12.42540168762207
 30
12.9755744934082
 10
-1000.0
 20
-12.26945877075195
 30
11.03223800659179
 10
-1000.0
 20
-11.52500915527344
 30
9.230386734008789
 10
-1000.0
 20
-10.26378440856933
 30
7.743717670440673
 10
-1000.0
 20
-5.895552158355712
 30
22.51623153686523
 10
-1000.0
 20
-5.587717056274414
 30
2.225439071655273
 10
-1000.0
 20
-5.196890354156494
 30
1.651092529296875
 10
-1000.0
 20
-0.8118336200714111
 30
3.883482933044433
 10
-1000.0
 20
-0.7068800926208496
 30
4.968117237091064
 10
-1000.0
 20
-3.469427108764648
 30
12.92995452880859
 10
-1000.0
 20
-3.18264627456665
 30
13.43387126922607
 10
-1000.0
 20
-0.5972020626068116
 30
15.84485816955566
 10
-1000.0
 20
-0.2144007682800293
 30
16.32606697082519
 10
-1000.0
 20
-0.7068753242492676
 30
21.36022186279297
 10
-1000.0
 20
-0.0308651924133301
 30
8.094660758972167
 10
-1000.0
 20
-0.2144021987915039
 30
8.673915863037109
 10
-1000.0
 20
-0.0961647033691406
 30
8.40519905090332
 93
     1120
 90
        4
 90
       46
 90
       49
 90
       48
 90
       47
 90
        3
 90
       50
 90
       52
 90
       51
 90
        4
 90
       53
 90
       54
 90
       52
 90
       50
 90
        4
 90
       55
 90
       56
 90
       54
 90
       53
 90
        4
 90
       57
 90
       58
 90
       56
 90
       55
 90
        4
 90
       59
 90
       60
 90
       58
 90
       57
 90
        3
 90
       61
 90
       63
 90
       62
 90
        3
 90
       61
 90
       65
 90
       64
 90
        3
 90
       61
 90
       62
 90
       65
 90
        4
 90
       61
 90
       64
 90
       67
 90
       66
 90
        4
 90
       68
 90
       69
 90
       60
 90
       59
 90
        3
 90
       68
 90
       70
 90
       69
 90
        3
 90
       68
 90
       71
 90
       70
 90
        4
 90
       66
 90
       72
 90
       71
 90
       68
 90
        3
 90
       66
 90
       73
 90
       72
 90
        3
 90
       66
 90
       67
 90
       73
 90
        4
 90
       74
 90
       75
 90
       63
 90
       61
 90
        4
 90
       76
 90
       77
 90
       75
 90
       74
 90
        4
 90
       78
 90
       79
 90
       77
 90
       76
 90
        4
 90
       80
 90
       79
 90
       82
 90
       81
 90
        4
 90
       83
 90
       80
 90
       85
 90
       84
 90
        4
 90
       86
 90
       88
 90
       83
 90
       87
 90
        4
 90
       89
 90
       90
 90
       88
 90
       86
 90
        4
 90
       91
 90
       92
 90
       90
 90
       89
 90
        4
 90
       93
 90
       94
 90
       92
 90
       91
 90
        4
 90
       95
 90
       96
 90
       94
 90
       93
 90
        4
 90
       97
 90
       98
 90
       96
 90
       95
 90
        3
 90
       97
 90
       99
 90
       98
 90
        4
 90
      100
 90
      101
 90
       99
 90
       97
 90
        4
 90
      102
 90
      103
 90
      101
 90
      100
 90
        4
 90
      104
 90
      105
 90
      103
 90
      102
 90
        4
 90
      106
 90
      107
 90
      105
 90
      104
 90
        3
 90
       79
 90
      109
 90
      108
 90
        3
 90
      109
 90
       79
 90
      110
 90
        3
 90
      110
 90
       79
 90
      111
 90
        3
 90
      111
 90
       79
 90
       78
 90
        3
 90
      112
 90
      114
 90
      113
 90
        4
 90
      115
 90
      116
 90
      114
 90
      112
 90
        4
 90
      117
 90
      118
 90
      116
 90
      115
 90
        4
 90
      119
 90
      120
 90
      118
 90
      117
 90
        4
 90
      121
 90
      122
 90
      120
 90
      119
 90
        4
 90
      123
 90
      124
 90
      107
 90
      106
 90
        3
 90
      123
 90
      125
 90
      124
 90
        4
 90
      126
 90
      127
 90
      125
 90
      123
 90
        4
 90
      128
 90
      129
 90
      127
 90
      126
 90
        4
 90
      130
 90
      131
 90
      129
 90
      128
 90
        3
 90
      132
 90
       49
 90
      133
 90
        4
 90
      133
 90
       49
 90
      131
 90
      130
 90
        3
 90
      134
 90
       49
 90
      132
 90
        3
 90
      135
 90
       49
 90
      136
 90
        3
 90
      136
 90
       49
 90
      134
 90
        3
 90
      137
 90
       49
 90
      135
 90
        3
 90
       49
 90
      137
 90
       48
 90
        3
 90
      138
 90
      140
 90
      139
 90
        4
 90
      139
 90
      140
 90
      122
 90
      121
 90
        3
 90
      141
 90
      143
 90
      142
 90
        4
 90
      142
 90
      143
 90
      140
 90
      138
 90
        3
 90
      144
 90
      143
 90
      141
 90
        3
 90
      145
 90
      147
 90
      146
 90
        4
 90
      146
 90
      147
 90
      143
 90
      144
 90
        3
 90
       46
 90
       47
 90
      148
 90
        3
 90
      148
 90
       47
 90
      149
 90
        4
 90
      149
 90
       47
 90
      147
 90
      145
 90
        3
 90
       79
 90
      108
 90
       82
 90
        3
 90
       80
 90
       81
 90
       85
 90
        3
 90
       83
 90
       84
 90
       87
 90
        4
 90
      161
 90
       13
 90
       51
 90
       52
 90
        4
 90
       13
 90
       14
 90
       50
 90
       51
 90
        4
 90
       14
 90
      162
 90
       53
 90
       50
 90
        4
 90
      162
 90
       15
 90
       55
 90
       53
 90
        4
 90
       15
 90
       34
 90
       57
 90
       55
 90
        4
 90
       34
 90
      163
 90
       59
 90
       57
 90
        4
 90
      163
 90
      198
 90
       68
 90
       59
 90
        4
 90
      198
 90
       16
 90
       66
 90
       68
 90
        4
 90
       16
 90
       35
 90
       61
 90
       66
 90
        4
 90
       35
 90
      164
 90
       74
 90
       61
 90
        4
 90
      164
 90
      199
 90
       76
 90
       74
 90
        4
 90
      199
 90
      165
 90
       78
 90
       76
 90
        4
 90
      165
 90
       17
 90
      111
 90
       78
 90
        4
 90
       17
 90
      166
 90
      110
 90
      111
 90
        4
 90
      166
 90
      167
 90
      109
 90
      110
 90
        4
 90
      167
 90
       43
 90
      108
 90
      109
 90
        4
 90
       43
 90
      205
 90
       82
 90
      108
 90
        4
 90
      205
 90
      207
 90
       81
 90
       82
 90
        4
 90
      207
 90
      206
 90
       85
 90
       81
 90
        4
 90
      206
 90
       45
 90
       84
 90
       85
 90
        4
 90
       45
 90
       44
 90
       87
 90
       84
 90
        4
 90
       44
 90
       36
 90
       86
 90
       87
 90
        4
 90
       36
 90
       18
 90
       89
 90
       86
 90
        4
 90
       18
 90
       37
 90
       91
 90
       89
 90
        4
 90
       37
 90
       19
 90
       93
 90
       91
 90
        4
 90
       19
 90
       38
 90
       95
 90
       93
 90
        4
 90
       38
 90
      171
 90
       97
 90
       95
 90
        4
 90
      171
 90
      200
 90
      100
 90
       97
 90
        4
 90
      200
 90
      172
 90
      102
 90
      100
 90
        4
 90
      172
 90
      201
 90
      104
 90
      102
 90
        4
 90
      201
 90
       20
 90
      106
 90
      104
 90
        4
 90
       20
 90
      202
 90
      123
 90
      106
 90
        4
 90
      202
 90
      173
 90
      126
 90
      123
 90
        4
 90
      173
 90
      203
 90
      128
 90
      126
 90
        4
 90
      203
 90
      174
 90
      130
 90
      128
 90
        4
 90
      174
 90
       39
 90
      133
 90
      130
 90
        4
 90
       39
 90
      175
 90
      132
 90
      133
 90
        4
 90
      175
 90
      176
 90
      134
 90
      132
 90
        4
 90
      176
 90
       21
 90
      136
 90
      134
 90
        4
 90
       21
 90
      177
 90
      135
 90
      136
 90
        4
 90
      177
 90
       40
 90
      137
 90
      135
 90
        4
 90
       40
 90
       22
 90
       48
 90
      137
 90
        4
 90
       22
 90
       41
 90
       47
 90
       48
 90
        4
 90
       41
 90
      178
 90
      147
 90
       47
 90
        4
 90
      178
 90
       42
 90
      143
 90
      147
 90
        4
 90
       42
 90
       23
 90
      140
 90
      143
 90
        4
 90
       23
 90
      204
 90
      122
 90
      140
 90
        4
 90
      204
 90
       24
 90
      120
 90
      122
 90
        4
 90
       24
 90
       25
 90
      118
 90
      120
 90
        4
 90
       25
 90
      179
 90
      116
 90
      118
 90
        4
 90
      179
 90
      180
 90
      114
 90
      116
 90
        4
 90
      180
 90
      181
 90
      113
 90
      114
 90
        4
 90
      181
 90
      182
 90
      112
 90
      113
 90
        4
 90
      182
 90
       26
 90
      115
 90
      112
 90
        4
 90
       26
 90
      183
 90
      117
 90
      115
 90
        4
 90
      183
 90
       27
 90
      119
 90
      117
 90
        4
 90
       27
 90
       31
 90
      121
 90
      119
 90
        4
 90
       31
 90
       28
 90
      139
 90
      121
 90
        4
 90
       28
 90
       32
 90
      138
 90
      139
 90
        4
 90
       32
 90
       29
 90
      142
 90
      138
 90
        4
 90
       29
 90
      195
 90
      141
 90
      142
 90
        4
 90
      195
 90
       30
 90
      144
 90
      141
 90
        4
 90
       30
 90
      184
 90
      146
 90
      144
 90
        4
 90
      184
 90
      185
 90
      145
 90
      146
 90
        4
 90
      185
 90
      186
 90
      149
 90
      145
 90
        4
 90
      186
 90
      187
 90
      148
 90
      149
 90
        4
 90
      187
 90
      150
 90
       46
 90
      148
 90
        4
 90
      150
 90
        0
 90
       49
 90
       46
 90
        4
 90
        0
 90
      151
 90
      131
 90
       49
 90
        4
 90
      151
 90
      152
 90
      129
 90
      131
 90
        4
 90
      152
 90
      153
 90
      127
 90
      129
 90
        4
 90
      153
 90
      188
 90
      125
 90
      127
 90
        4
 90
      188
 90
        1
 90
      124
 90
      125
 90
        4
 90
        1
 90
      189
 90
      107
 90
      124
 90
        4
 90
      189
 90
        2
 90
      105
 90
      107
 90
        4
 90
        2
 90
      190
 90
      103
 90
      105
 90
        4
 90
      190
 90
        3
 90
      101
 90
      103
 90
        4
 90
        3
 90
      191
 90
       99
 90
      101
 90
        4
 90
      191
 90
        4
 90
       98
 90
       99
 90
        4
 90
        4
 90
      192
 90
       96
 90
       98
 90
        4
 90
      192
 90
        5
 90
       94
 90
       96
 90
        4
 90
        5
 90
      193
 90
       92
 90
       94
 90
        4
 90
      193
 90
      154
 90
       90
 90
       92
 90
        4
 90
      154
 90
      194
 90
       88
 90
       90
 90
        4
 90
      194
 90
      170
 90
       83
 90
       88
 90
        4
 90
      170
 90
      169
 90
       80
 90
       83
 90
        4
 90
      169
 90
      168
 90
       79
 90
       80
 90
        4
 90
      168
 90
        6
 90
       77
 90
       79
 90
        4
 90
        6
 90
        7
 90
       75
 90
       77
 90
        4
 90
        7
 90
        8
 90
       63
 90
       75
 90
        4
 90
        8
 90
      155
 90
       62
 90
       63
 90
        4
 90
      155
 90
      156
 90
       65
 90
       62
 90
        4
 90
      156
 90
      157
 90
       64
 90
       65
 90
        4
 90
      157
 90
        9
 90
       67
 90
       64
 90
        4
 90
        9
 90
       33
 90
       73
 90
       67
 90
        4
 90
       33
 90
      158
 90
       72
 90
       73
 90
        4
 90
      158
 90
      196
 90
       71
 90
       72
 90
        4
 90
      196
 90
       10
 90
       70
 90
       71
 90
        4
 90
       10
 90
      197
 90
       69
 90
       70
 90
        4
 90
      197
 90
       11
 90
       60
 90
       69
 90
        4
 90
       11
 90
      159
 90
       58
 90
       60
 90
        4
 90
      159
 90
       12
 90
       56
 90
       58
 90
        4
 90
       12
 90
      160
 90
       54
 90
       56
 90
        4
 90
      160
 90
      161
 90
       52
 90
       54
 90
        4
 90
      150
 90
       41
 90
       22
 90
        0
 90
        3
 90
       14
 90
       13
 90
      161
 90
        4
 90
      162
 90
       14
 90
      161
 90
      160
 90
        4
 90
       15
 90
      162
 90
      160
 90
       12
 90
        4
 90
       34
 90
       15
 90
       12
 90
      159
 90
        4
 90
      163
 90
       34
 90
      159
 90
       11
 90
        3
 90
       35
 90
      155
 90
        8
 90
        3
 90
       35
 90
      157
 90
      156
 90
        3
 90
       35
 90
      156
 90
      155
 90
        4
 90
       35
 90
       16
 90
        9
 90
      157
 90
        4
 90
      198
 90
      163
 90
       11
 90
      197
 90
        3
 90
      198
 90
      197
 90
       10
 90
        3
 90
      198
 90
       10
 90
      196
 90
        4
 90
       16
 90
      198
 90
      196
 90
      158
 90
        3
 90
       16
 90
      158
 90
       33
 90
        3
 90
       16
 90
       33
 90
        9
 90
        4
 90
      164
 90
       35
 90
        8
 90
        7
 90
        4
 90
      199
 90
      164
 90
        7
 90
        6
 90
        4
 90
      165
 90
      199
 90
        6
 90
      168
 90
        4
 90
      169
 90
      207
 90
      205
 90
      168
 90
        4
 90
      170
 90
       45
 90
      206
 90
      169
 90
        4
 90
       36
 90
       44
 90
      170
 90
      194
 90
        4
 90
       18
 90
       36
 90
      194
 90
      154
 90
        4
 90
       37
 90
       18
 90
      154
 90
      193
 90
        4
 90
       19
 90
       37
 90
      193
 90
        5
 90
        4
 90
       38
 90
       19
 90
        5
 90
      192
 90
        4
 90
      171
 90
       38
 90
      192
 90
        4
 90
        3
 90
      171
 90
        4
 90
      191
 90
        4
 90
      200
 90
      171
 90
      191
 90
        3
 90
        4
 90
      172
 90
      200
 90
        3
 90
      190
 90
        4
 90
      201
 90
      172
 90
      190
 90
        2
 90
        4
 90
       20
 90
      201
 90
        2
 90
      189
 90
        3
 90
      168
 90
       43
 90
      167
 90
        3
 90
      167
 90
      166
 90
      168
 90
        3
 90
      166
 90
       17
 90
      168
 90
        3
 90
       17
 90
      165
 90
      168
 90
        3
 90
      182
 90
      181
 90
      180
 90
        4
 90
       26
 90
      182
 90
      180
 90
      179
 90
        4
 90
      183
 90
       26
 90
      179
 90
       25
 90
        4
 90
       27
 90
      183
 90
       25
 90
       24
 90
        4
 90
       31
 90
       27
 90
       24
 90
      204
 90
        4
 90
      202
 90
       20
 90
      189
 90
        1
 90
        3
 90
      202
 90
        1
 90
      188
 90
        4
 90
      173
 90
      202
 90
      188
 90
      153
 90
        4
 90
      203
 90
      173
 90
      153
 90
      152
 90
        4
 90
      174
 90
      203
 90
      152
 90
      151
 90
        3
 90
      175
 90
       39
 90
        0
 90
        4
 90
       39
 90
      174
 90
      151
 90
        0
 90
        3
 90
      176
 90
      175
 90
        0
 90
        3
 90
      177
 90
       21
 90
        0
 90
        3
 90
       21
 90
      176
 90
        0
 90
        3
 90
       40
 90
      177
 90
        0
 90
        3
 90
        0
 90
       22
 90
       40
 90
        3
 90
       32
 90
       28
 90
       23
 90
        4
 90
       28
 90
       31
 90
      204
 90
       23
 90
        3
 90
      195
 90
       29
 90
       42
 90
        4
 90
       29
 90
       32
 90
       23
 90
       42
 90
        3
 90
       30
 90
      195
 90
       42
 90
        3
 90
      185
 90
      184
 90
      178
 90
        4
 90
      184
 90
       30
 90
       42
 90
      178
 90
        3
 90
      150
 90
      187
 90
       41
 90
        3
 90
      187
 90
      186
 90
       41
 90
        4
 90
      186
 90
      185
 90
      178
 90
       41
 90
        3
 90
      168
 90
      205
 90
       43
 90
        3
 90
      169
 90
      206
 90
      207
 90
        3
 90
      170
 90
       44
 90
       45
 94
      442
 90
       46
 90
       49
 90
       48
 90
       49
 90
       47
 90
       48
 90
       46
 90
       47
 90
       50
 90
       52
 90
       51
 90
       52
 90
       50
 90
       51
 90
       53
 90
       54
 90
       52
 90
       54
 90
       50
 90
       53
 90
       55
 90
       56
 90
       54
 90
       56
 90
       53
 90
       55
 90
       57
 90
       58
 90
       56
 90
       58
 90
       55
 90
       57
 90
       59
 90
       60
 90
       58
 90
       60
 90
       57
 90
       59
 90
       61
 90
       63
 90
       62
 90
       63
 90
       61
 90
       62
 90
       61
 90
       65
 90
       64
 90
       65
 90
       61
 90
       64
 90
       62
 90
       65
 90
       64
 90
       67
 90
       66
 90
       67
 90
       61
 90
       66
 90
       68
 90
       69
 90
       60
 90
       69
 90
       59
 90
       68
 90
       68
 90
       70
 90
       69
 90
       70
 90
       68
 90
       71
 90
       70
 90
       71
 90
       66
 90
       72
 90
       71
 90
       72
 90
       66
 90
       68
 90
       66
 90
       73
 90
       72
 90
       73
 90
       67
 90
       73
 90
       74
 90
       75
 90
       63
 90
       75
 90
       61
 90
       74
 90
       76
 90
       77
 90
       75
 90
       77
 90
       74
 90
       76
 90
       78
 90
       79
 90
       77
 90
       79
 90
       76
 90
       78
 90
       79
 90
       80
 90
       79
 90
       82
 90
       81
 90
       82
 90
       80
 90
       81
 90
       80
 90
       83
 90
       80
 90
       85
 90
       84
 90
       85
 90
       83
 90
       84
 90
       86
 90
       88
 90
       83
 90
       88
 90
       83
 90
       87
 90
       86
 90
       87
 90
       89
 90
       90
 90
       88
 90
       90
 90
       86
 90
       89
 90
       91
 90
       92
 90
       90
 90
       92
 90
       89
 90
       91
 90
       93
 90
       94
 90
       92
 90
       94
 90
       91
 90
       93
 90
       95
 90
       96
 90
       94
 90
       96
 90
       93
 90
       95
 90
       97
 90
       98
 90
       96
 90
       98
 90
       95
 90
       97
 90
       97
 90
       99
 90
       98
 90
       99
 90
      100
 90
      101
 90
       99
 90
      101
 90
       97
 90
      100
 90
      102
 90
      103
 90
      101
 90
      103
 90
      100
 90
      102
 90
      104
 90
      105
 90
      103
 90
      105
 90
      102
 90
      104
 90
      106
 90
      107
 90
      105
 90
      107
 90
      104
 90
      106
 90
       79
 90
      109
 90
      108
 90
      109
 90
       79
 90
      108
 90
       79
 90
      110
 90
      109
 90
      110
 90
       79
 90
      111
 90
      110
 90
      111
 90
       78
 90
      111
 90
      112
 90
      114
 90
      113
 90
      114
 90
      112
 90
      113
 90
      115
 90
      116
 90
      114
 90
      116
 90
      112
 90
      115
 90
      117
 90
      118
 90
      116
 90
      118
 90
      115
 90
      117
 90
      119
 90
      120
 90
      118
 90
      120
 90
      117
 90
      119
 90
      121
 90
      122
 90
      120
 90
      122
 90
      119
 90
      121
 90
      123
 90
      124
 90
      107
 90
      124
 90
      106
 90
      123
 90
      123
 90
      125
 90
      124
 90
      125
 90
      126
 90
      127
 90
      125
 90
      127
 90
      123
 90
      126
 90
      128
 90
      129
 90
      127
 90
      129
 90
      126
 90
      128
 90
      130
 90
      131
 90
      129
 90
      131
 90
      128
 90
      130
 90
       49
 90
      132
 90
       49
 90
      133
 90
      132
 90
      133
 90
       49
 90
      131
 90
      130
 90
      133
 90
       49
 90
      134
 90
      132
 90
      134
 90
       49
 90
      135
 90
       49
 90
      136
 90
      135
 90
      136
 90
      134
 90
      136
 90
       49
 90
      137
 90
      135
 90
      137
 90
       48
 90
      137
 90
      138
 90
      140
 90
      139
 90
      140
 90
      138
 90
      139
 90
      122
 90
      140
 90
      121
 90
      139
 90
      141
 90
      143
 90
      142
 90
      143
 90
      141
 90
      142
 90
      140
 90
      143
 90
      138
 90
      142
 90
      143
 90
      144
 90
      141
 90
      144
 90
      145
 90
      147
 90
      146
 90
      147
 90
      145
 90
      146
 90
      143
 90
      147
 90
      144
 90
      146
 90
       47
 90
      148
 90
       46
 90
      148
 90
       47
 90
      149
 90
      148
 90
      149
 90
       47
 90
      147
 90
      145
 90
      149
 90
       82
 90
      108
 90
       81
 90
       85
 90
       84
 90
       87
 90
       13
 90
      161
 90
       13
 90
       51
 90
       52
 90
      161
 90
       13
 90
       14
 90
       14
 90
       50
 90
       14
 90
      162
 90
       53
 90
      162
 90
       15
 90
      162
 90
       15
 90
       55
 90
       15
 90
       34
 90
       34
 90
       57
 90
       34
 90
      163
 90
       59
 90
      163
 90
      163
 90
      198
 90
       68
 90
      198
 90
       16
 90
      198
 90
       16
 90
       66
 90
       16
 90
       35
 90
       35
 90
       61
 90
       35
 90
      164
 90
       74
 90
      164
 90
      164
 90
      199
 90
       76
 90
      199
 90
      165
 90
      199
 90
       78
 90
      165
 90
       17
 90
      165
 90
       17
 90
      111
 90
       17
 90
      166
 90
      110
 90
      166
 90
      166
 90
      167
 90
      109
 90
      167
 90
       43
 90
      167
 90
       43
 90
      108
 90
       43
 90
      205
 90
       82
 90
      205
 90
      205
 90
      207
 90
       81
 90
      207
 90
      206
 90
      207
 90
       85
 90
      206
 90
       45
 90
      206
 90
       45
 90
       84
 90
       44
 90
       45
 90
       44
 90
       87
 90
       36
 90
       44
 90
       36
 90
       86
 90
       18
 90
       36
 90
       18
 90
       89
 90
       18
 90
       37
 90
       37
 90
       91
 90
       19
 90
       37
 90
       19
 90
       93
 90
       19
 90
       38
 90
       38
 90
       95
 90
       38
 90
      171
 90
       97
 90
      171
 90
      171
 90
      200
 90
      100
 90
      200
 90
      172
 90
      200
 90
      102
 90
      172
 90
      172
 90
      201
 90
      104
 90
      201
 90
       20
 90
      201
 90
       20
 90
      106
 90
       20
 90
      202
 90
      123
 90
      202
 90
      173
 90
      202
 90
      126
 90
      173
 90
      173
 90
      203
 90
      128
 90
      203
 90
      174
 90
      203
 90
      130
 90
      174
 90
       39
 90
      174
 90
       39
 90
      133
 90
       39
 90
      175
 90
      132
 90
      175
 90
      175
 90
      176
 90
      134
 90
      176
 90
       21
 90
      176
 90
       21
 90
      136
 90
       21
 90
      177
 90
      135
 90
      177
 90
       40
 90
      177
 90
       40
 90
      137
 90
       22
 90
       40
 90
       22
 90
       48
 90
       22
 90
       41
 90
       41
 90
       47
 90
       41
 90
      178
 90
      147
 90
      178
 90
       42
 90
      178
 90
       42
 90
      143
 90
       23
 90
       42
 90
       23
 90
      140
 90
       23
 90
      204
 90
      122
 90
      204
 90
       24
 90
      204
 90
       24
 90
      120
 90
       24
 90
       25
 90
       25
 90
      118
 90
       25
 90
      179
 90
      116
 90
      179
 90
      179
 90
      180
 90
      114
 90
      180
 90
      180
 90
      181
 90
      113
 90
      181
 90
      181
 90
      182
 90
      112
 90
      182
 90
       26
 90
      182
 90
       26
 90
      115
 90
       26
 90
      183
 90
      117
 90
      183
 90
       27
 90
      183
 90
       27
 90
      119
 90
       27
 90
       31
 90
       31
 90
      121
 90
       28
 90
       31
 90
       28
 90
      139
 90
       28
 90
       32
 90
       32
 90
      138
 90
       29
 90
       32
 90
       29
 90
      142
 90
       29
 90
      195
 90
      141
 90
      195
 90
       30
 90
      195
 90
       30
 90
      144
 90
       30
 90
      184
 90
      146
 90
      184
 90
      184
 90
      185
 90
      145
 90
      185
 90
      185
 90
      186
 90
      149
 90
      186
 90
      186
 90
      187
 90
      148
 90
      187
 90
      150
 90
      187
 90
       46
 90
      150
 90
        0
 90
      150
 90
        0
 90
       49
 90
        0
 90
      151
 90
      131
 90
      151
 90
      151
 90
      152
 90
      129
 90
      152
 90
      152
 90
      153
 90
      127
 90
      153
 90
      153
 90
      188
 90
      125
 90
      188
 90
        1
 90
      188
 90
        1
 90
      124
 90
        1
 90
      189
 90
      107
 90
      189
 90
        2
 90
      189
 90
        2
 90
      105
 90
        2
 90
      190
 90
      103
 90
      190
 90
        3
 90
      190
 90
        3
 90
      101
 90
        3
 90
      191
 90
       99
 90
      191
 90
        4
 90
      191
 90
        4
 90
       98
 90
        4
 90
      192
 90
       96
 90
      192
 90
        5
 90
      192
 90
        5
 90
       94
 90
        5
 90
      193
 90
       92
 90
      193
 90
      154
 90
      193
 90
       90
 90
      154
 90
      154
 90
      194
 90
       88
 90
      194
 90
      170
 90
      194
 90
       83
 90
      170
 90
      169
 90
      170
 90
       80
 90
      169
 90
      168
 90
      169
 90
       79
 90
      168
 90
        6
 90
      168
 90
        6
 90
       77
 90
        6
 90
        7
 90
        7
 90
       75
 90
        7
 90
        8
 90
        8
 90
       63
 90
        8
 90
      155
 90
       62
 90
      155
 90
      155
 90
      156
 90
       65
 90
      156
 90
      156
 90
      157
 90
       64
 90
      157
 90
        9
 90
      157
 90
        9
 90
       67
 90
        9
 90
       33
 90
       33
 90
       73
 90
       33
 90
      158
 90
       72
 90
      158
 90
      158
 90
      196
 90
       71
 90
      196
 90
       10
 90
      196
 90
       10
 90
       70
 90
       10
 90
      197
 90
       69
 90
      197
 90
       11
 90
      197
 90
       11
 90
       60
 90
       11
 90
      159
 90
       58
 90
      159
 90
       12
 90
      159
 90
       12
 90
       56
 90
       12
 90
      160
 90
       54
 90
      160
 90
      160
 90
      161
 90
       41
 90
      150
 90
        0
 90
       22
 90
       14
 90
      161
 90
      160
 90
      162
 90
       12
 90
       15
 90
       34
 90
      159
 90
       11
 90
      163
 90
       35
 90
      155
 90
        8
 90
       35
 90
       35
 90
      157
 90
       35
 90
      156
 90
        9
 90
       16
 90
      197
 90
      198
 90
       10
 90
      198
 90
      196
 90
      198
 90
       16
 90
      158
 90
       16
 90
       33
 90
        7
 90
      164
 90
        6
 90
      199
 90
      165
 90
      168
 90
      169
 90
      207
 90
      168
 90
      205
 90
       45
 90
      170
 90
      169
 90
      206
 90
       44
 90
      170
 90
       36
 90
      194
 90
       18
 90
      154
 90
       37
 90
      193
 90
        5
 90
       19
 90
       38
 90
      192
 90
        4
 90
      171
 90
      171
 90
      191
 90
        3
 90
      200
 90
      172
 90
      190
 90
        2
 90
      201
 90
       20
 90
      189
 90
       43
 90
      168
 90
      167
 90
      168
 90
      166
 90
      168
 90
       17
 90
      168
 90
      180
 90
      182
 90
       26
 90
      179
 90
       25
 90
      183
 90
       24
 90
       27
 90
       31
 90
      204
 90
        1
 90
      202
 90
      188
 90
      202
 90
      153
 90
      173
 90
      152
 90
      203
 90
      151
 90
      174
 90
        0
 90
       39
 90
        0
 90
      175
 90
        0
 90
      176
 90
        0
 90
       21
 90
        0
 90
      177
 90
        0
 90
       40
 90
       23
 90
       28
 90
       23
 90
       32
 90
       29
 90
       42
 90
       42
 90
      195
 90
       30
 90
       42
 90
      178
 90
      184
 90
      178
 90
      185
 90
       41
 90
      187
 90
       41
 90
      186
 95
      442
140
0.0
140
0.0
140
0.0
140
0.0
140
0.0
140
0.0
140
0.0
140
0.0
140
0.0
140
0.0
140
0.0
140
0.0
140
0.0
140
0.0
140
0.0
140
0.0
140
0.0
140
0.0
140
0.0
140
0.0
140
0.0
140
0.0
140
0.0
140
0.0
140
0.0
140
0.0
140
0.0
140
0.0
140
0.0
140
0.0
140
0.0
140
0.0
140
0.0
140
0.0
140
0.0
140
0.0
140
0.0
140
0.0
140
0.0
140
0.0
140
0.0
140
0.0
140
0.0
140
0.0
140
0.0
140
0.0
140
0.0
140
0.0
140
0.0
140
0.0
140
0.0
140
0.0
140
0.0
140
0.0
140
0.0
140
0.0
140
0.0
140
0.0
140
0.0
140
0.0
140
0.0
140
0.0
140
0.0
140
0.0
140
0.0
140
0.0
140
0.0
140
0.0
140
0.0
140
0.0
140
0.0
140
0.0
140
0.0
140
0.0
140
0.0
140
0.0
140
0.0
140
0.0
140
0.0
140
0.0
140
0.0
140
0.0
140
0.0
140
0.0
140
0.0
140
0.0
140
0.0
140
0.0
140
0.0
140
0.0
140
0.0
140
0.0
140
0.0
140
0.0
140
0.0
140
0.0
140
0.0
140
0.0
140
0.0
140
0.0
140
0.0
140
0.0
140
0.0
140
0.0
140
0.0
140
0.0
140
0.0
140
0.0
140
0.0
140
0.0
140
0.0
140
0.0
140
0.0
140
0.0
140
0.0
140
0.0
140
0.0
140
0.0
140
0.0
140
0.0
140
0.0
140
0.0
140
0.0
140
0.0
140
0.0
140
0.0
140
0.0
140
0.0
140
0.0
140
0.0
140
0.0
140
0.0
140
0.0
140
0.0
140
0.0
140
0.0
140
0.0
140
0.0
140
0.0
140
0.0
140
0.0
140
0.0
140
0.0
140
0.0
140
0.0
140
0.0
140
0.0
140
0.0
140
0.0
140
0.0
140
0.0
140
0.0
140
0.0
140
0.0
140
0.0
140
0.0
140
0.0
140
0.0
140
0.0
140
0.0
140
0.0
140
0.0
140
0.0
140
0.0
140
0.0
140
0.0
140
0.0
140
0.0
140
0.0
140
0.0
140
0.0
140
0.0
140
0.0
140
0.0
140
0.0
140
0.0
140
0.0
140
0.0
140
0.0
140
0.0
140
0.0
140
0.0
140
0.0
140
0.0
140
0.0
140
0.0
140
0.0
140
0.0
140
0.0
140
0.0
140
0.0
140
0.0
140
0.0
140
0.0
140
0.0
140
0.0
140
0.0
140
0.0
140
0.0
140
0.0
140
0.0
140
0.0
140
0.0
140
0.0
140
0.0
140
0.0
140
0.0
140
0.0
140
0.0
140
0.0
140
0.0
140
0.0
140
0.0
140
0.0
140
0.0
140
0.0
140
0.0
140
0.0
140
0.0
140
0.0
140
0.0
140
0.0
140
0.0
140
0.0
140
0.0
140
0.0
140
0.0
140
0.0
140
0.0
140
0.0
140
0.0
140
0.0
140
0.0
140
0.0
140
0.0
140
0.0
140
0.0
140
0.0
140
0.0
140
0.0
140
0.0
140
0.0
140
0.0
140
0.0
140
0.0
140
0.0
140
0.0
140
0.0
140
0.0
140
0.0
140
0.0
140
0.0
140
0.0
140
0.0
140
0.0
140
0.0
140
0.0
140
0.0
140
0.0
140
0.0
140
0.0
140
0.0
140
0.0
140
0.0
140
0.0
140
0.0
140
0.0
140
0.0
140
0.0
140
0.0
140
0.0
140
0.0
140
0.0
140
0.0
140
0.0
140
0.0
140
0.0
140
0.0
140
0.0
140
0.0
140
0.0
140
0.0
140
0.0
140
0.0
140
0.0
140
0.0
140
0.0
140
0.0
140
0.0
140
0.0
140
0.0
140
0.0
140
0.0
140
0.0
140
0.0
140
0.0
140
0.0
140
0.0
140
0.0
140
0.0
140
0.0
140
0.0
140
0.0
140
0.0
140
0.0
140
0.0
140
0.0
140
0.0
140
0.0
140
0.0
140
0.0
140
0.0
140
0.0
140
0.0
140
0.0
140
0.0
140
0.0
140
0.0
140
0.0
140
0.0
140
0.0
140
0.0
140
0.0
140
0.0
140
0.0
140
0.0
140
0.0
140
0.0
140
0.0
140
0.0
140
0.0
140
0.0
140
0.0
140
0.0
140
0.0
140
0.0
140
0.0
140
0.0
140
0.0
140
0.0
140
0.0
140
0.0
140
0.0
140
0.0
140
0.0
140
0.0
140
0.0
140
0.0
140
0.0
140
0.0
140
0.0
140
0.0
140
0.0
140
0.0
140
0.0
140
0.0
140
0.0
140
0.0
140
0.0
140
0.0
140
0.0
140
0.0
140
0.0
140
0.0
140
0.0
140
0.0
140
0.0
140
0.0
140
0.0
140
0.0
140
0.0
140
0.0
140
0.0
140
0.0
140
0.0
140
0.0
140
0.0
140
0.0
140
0.0
140
0.0
140
0.0
140
0.0
140
0.0
140
0.0
140
0.0
140
0.0
140
0.0
140
0.0
140
0.0
140
0.0
140
0.0
140
0.0
140
0.0
140
0.0
140
0.0
140
0.0
140
0.0
140
0.0
140
0.0
140
0.0
140
0.0
140
0.0
140
0.0
140
0.0
140
0.0
140
0.0
140
0.0
140
0.0
140
0.0
140
0.0
140
0.0
140
0.0
140
0.0
140
0.0
140
0.0
140
0.0
140
0.0
140
0.0
140
0.0
140
0.0
140
0.0
140
0.0
140
0.0
140
0.0
140
0.0
140
0.0
140
0.0
140
0.0
140
0.0
140
0.0
140
0.0
140
0.0
140
0.0
140
0.0
140
0.0
140
0.0
140
0.0
140
0.0
140
0.0
140
0.0
140
0.0
140
0.0
 90
        0
  0
POLYLINE
  5
FA
330
1F
100
AcDbEntity
  8
OracDecor_panel_moldings
 62
   133
420
  5818337
100
AcDb3dPolyline
 66
     1
 10
0.0
 20
0.0
 30
0.0
 70
     9
  0
VERTEX
  5
FB
330
FA
100
AcDbEntity
  8
OracDecor_panel_moldings
 62
   133
420
  5818337
100
AcDbVertex
100
AcDb3dPolylineVertex
 10
-0.0000028610231766
 20
7.499993801116943
 30
21.61386108398438
 70
    32
  0
VERTEX
  5
FC
330
FA
100
AcDbEntity
  8
OracDecor_panel_moldings
 62
   133
420
  5818337
100
AcDbVertex
100
AcDb3dPolylineVertex
 10
-0.0000028610231766
 20
7.499993324279785
 30
19.45401763916015
 70
    32
  0
VERTEX
  5
FD
330
FA
100
AcDbEntity
  8
OracDecor_panel_moldings
 62
   133
420
  5818337
100
AcDbVertex
100
AcDb3dPolylineVertex
 10
-0.0000028610229492
 20
7.585118293762207
 30
19.05028533935547
 70
    32
  0
VERTEX
  5
FE
330
FA
100
AcDbEntity
  8
OracDecor_panel_moldings
 62
   133
420
  5818337
100
AcDbVertex
100
AcDb3dPolylineVertex
 10
-0.0000028610229492
 20
7.825964927673339
 30
18.71531677246094
 70
    32
  0
VERTEX
  5
FF
330
FA
100
AcDbEntity
  8
OracDecor_panel_moldings
 62
   133
420
  5818337
100
AcDbVertex
100
AcDb3dPolylineVertex
 10
-0.0000028610227218
 20
8.181578636169433
 30
18.50606536865234
 70
    32
  0
VERTEX
  5
100
330
FA
100
AcDbEntity
  8
OracDecor_panel_moldings
 62
   133
420
  5818337
100
AcDbVertex
100
AcDb3dPolylineVertex
 10
-0.0000038146972656
 20
9.500154495239257
 30
17.81981658935547
 70
    32
  0
VERTEX
  5
101
330
FA
100
AcDbEntity
  8
OracDecor_panel_moldings
 62
   133
420
  5818337
100
AcDbVertex
100
AcDb3dPolylineVertex
 10
-0.0000038146977204
 20
10.26327323913574
 30
17.25673866271973
 70
    32
  0
VERTEX
  5
102
330
FA
100
AcDbEntity
  8
OracDecor_panel_moldings
 62
   133
420
  5818337
100
AcDbVertex
100
AcDb3dPolylineVertex
 10
0.0000028610229492
 20
10.97057914733887
 30
16.54074478149414
 70
    32
  0
VERTEX
  5
103
330
FA
100
AcDbEntity
  8
OracDecor_panel_moldings
 62
   133
420
  5818337
100
AcDbVertex
100
AcDb3dPolylineVertex
 10
0.0000028610229492
 20
11.5242977142334
 30
15.77081775665283
 70
    32
  0
VERTEX
  5
104
330
FA
100
AcDbEntity
  8
OracDecor_panel_moldings
 62
   133
420
  5818337
100
AcDbVertex
100
AcDb3dPolylineVertex
 10
0.0000028610229492
 20
11.97800827026367
 30
14.87244415283203
 70
    32
  0
VERTEX
  5
105
330
FA
100
AcDbEntity
  8
OracDecor_panel_moldings
 62
   133
420
  5818337
100
AcDbVertex
100
AcDb3dPolylineVertex
 10
0.0000028610229492
 20
12.2689905166626
 30
13.96981716156006
 70
    32
  0
VERTEX
  5
106
330
FA
100
AcDbEntity
  8
OracDecor_panel_moldings
 62
   133
420
  5818337
100
AcDbVertex
100
AcDb3dPolylineVertex
 10
0.0000028610229492
 20
12.42540168762207
 30
12.9755744934082
 70
    32
  0
VERTEX
  5
107
330
FA
100
AcDbEntity
  8
OracDecor_panel_moldings
 62
   133
420
  5818337
100
AcDbVertex
100
AcDb3dPolylineVertex
 10
0.0000028610229492
 20
12.42558670043945
 30
12.02720928192138
 70
    32
  0
VERTEX
  5
108
330
FA
100
AcDbEntity
  8
OracDecor_panel_moldings
 62
   133
420
  5818337
100
AcDbVertex
100
AcDb3dPolylineVertex
 10
0.0000028610229492
 20
12.26945877075195
 30
11.03223800659179
 70
    32
  0
VERTEX
  5
109
330
FA
100
AcDbEntity
  8
OracDecor_panel_moldings
 62
   133
420
  5818337
100
AcDbVertex
100
AcDb3dPolylineVertex
 10
0.0000028610229492
 20
11.97878837585449
 30
10.12952136993408
 70
    32
  0
VERTEX
  5
10A
330
FA
100
AcDbEntity
  8
OracDecor_panel_moldings
 62
   133
420
  5818337
100
AcDbVertex
100
AcDb3dPolylineVertex
 10
0.0000028610229492
 20
11.52500915527344
 30
9.230386734008789
 70
    32
  0
VERTEX
  5
10B
330
FA
100
AcDbEntity
  8
OracDecor_panel_moldings
 62
   133
420
  5818337
100
AcDbVertex
100
AcDb3dPolylineVertex
 10
0.0000028610229492
 20
10.97146415710449
 30
8.460329055786132
 70
    32
  0
VERTEX
  5
10C
330
FA
100
AcDbEntity
  8
OracDecor_panel_moldings
 62
   133
420
  5818337
100
AcDbVertex
100
AcDb3dPolylineVertex
 10
-0.0000038146977204
 20
10.26378440856933
 30
7.743717670440673
 70
    32
  0
VERTEX
  5
10D
330
FA
100
AcDbEntity
  8
OracDecor_panel_moldings
 62
   133
420
  5818337
100
AcDbVertex
100
AcDb3dPolylineVertex
 10
-0.0000038146972656
 20
9.500734329223632
 30
7.180564403533935
 70
    32
  0
VERTEX
  5
10E
330
FA
100
AcDbEntity
  8
OracDecor_panel_moldings
 62
   133
420
  5818337
100
AcDbVertex
100
AcDb3dPolylineVertex
 10
-0.0000028610229492
 20
8.181588172912597
 30
6.493923187255859
 70
    32
  0
VERTEX
  5
10F
330
FA
100
AcDbEntity
  8
OracDecor_panel_moldings
 62
   133
420
  5818337
100
AcDbVertex
100
AcDb3dPolylineVertex
 10
-0.0000028610229492
 20
7.825969696044921
 30
6.284676074981689
 70
    32
  0
VERTEX
  5
110
330
FA
100
AcDbEntity
  8
OracDecor_panel_moldings
 62
   133
420
  5818337
100
AcDbVertex
100
AcDb3dPolylineVertex
 10
-0.0000028610227218
 20
7.585122108459472
 30
5.949705123901367
 70
    32
  0
VERTEX
  5
111
330
FA
100
AcDbEntity
  8
OracDecor_panel_moldings
 62
   133
420
  5818337
100
AcDbVertex
100
AcDb3dPolylineVertex
 10
-0.0000028610231766
 20
7.499999046325683
 30
5.545973300933837
 70
    32
  0
VERTEX
  5
112
330
FA
100
AcDbEntity
  8
OracDecor_panel_moldings
 62
   133
420
  5818337
100
AcDbVertex
100
AcDb3dPolylineVertex
 10
-0.0000028610229492
 20
7.5
 30
3.386122703552246
 70
    32
  0
VERTEX
  5
113
330
FA
100
AcDbEntity
  8
OracDecor_panel_moldings
 62
   133
420
  5818337
100
AcDbVertex
100
AcDb3dPolylineVertex
 10
-0.0000028610229492
 20
7.446793556213378
 30
3.161697387695312
 70
    32
  0
VERTEX
  5
114
330
FA
100
AcDbEntity
  8
OracDecor_panel_moldings
 62
   133
420
  5818337
100
AcDbVertex
100
AcDb3dPolylineVertex
 10
-0.0000028610227218
 20
7.298600673675537
 30
2.985087394714355
 70
    32
  0
VERTEX
  5
115
330
FA
100
AcDbEntity
  8
OracDecor_panel_moldings
 62
   133
420
  5818337
100
AcDbVertex
100
AcDb3dPolylineVertex
 10
-0.0000028610227218
 20
7.086822986602783
 30
2.893718719482421
 70
    32
  0
VERTEX
  5
116
330
FA
100
AcDbEntity
  8
OracDecor_panel_moldings
 62
   133
420
  5818337
100
AcDbVertex
100
AcDb3dPolylineVertex
 10
-0.0000028610229492
 20
6.66999864578247
 30
2.820219993591308
 70
    32
  0
VERTEX
  5
117
330
FA
100
AcDbEntity
  8
OracDecor_panel_moldings
 62
   133
420
  5818337
100
AcDbVertex
100
AcDb3dPolylineVertex
 10
-0.0000028610229492
 20
6.151426315307617
 30
2.631461143493652
 70
    32
  0
VERTEX
  5
118
330
FA
100
AcDbEntity
  8
OracDecor_panel_moldings
 62
   133
420
  5818337
100
AcDbVertex
100
AcDb3dPolylineVertex
 10
-0.0000028610229492
 20
5.895565509796142
 30
2.483738899230957
 70
    32
  0
VERTEX
  5
119
330
FA
100
AcDbEntity
  8
OracDecor_panel_moldings
 62
   133
420
  5818337
100
AcDbVertex
100
AcDb3dPolylineVertex
 10
-0.0000028610229492
 20
5.587717056274414
 30
2.225439071655273
 70
    32
  0
VERTEX
  5
11A
330
FA
100
AcDbEntity
  8
OracDecor_panel_moldings
 62
   133
420
  5818337
100
AcDbVertex
100
AcDb3dPolylineVertex
 10
-0.0000028610229492
 20
5.397811412811279
 30
1.999117851257324
 70
    32
  0
VERTEX
  5
11B
330
FA
100
AcDbEntity
  8
OracDecor_panel_moldings
 62
   133
420
  5818337
100
AcDbVertex
100
AcDb3dPolylineVertex
 10
-0.0000028610229492
 20
5.196890354156494
 30
1.651092529296875
 70
    32
  0
VERTEX
  5
11C
330
FA
100
AcDbEntity
  8
OracDecor_panel_moldings
 62
   133
420
  5818337
100
AcDbVertex
100
AcDb3dPolylineVertex
 10
-0.0000028610229492
 20
5.099949836730957
 30
1.372800827026367
 70
    32
  0
VERTEX
  5
11D
330
FA
100
AcDbEntity
  8
OracDecor_panel_moldings
 62
   133
420
  5818337
100
AcDbVertex
100
AcDb3dPolylineVertex
 10
-0.0000028610229492
 20
5.000000476837158
 30
0.6969451904296875
 70
    32
  0
VERTEX
  5
11E
330
FA
100
AcDbEntity
  8
OracDecor_panel_moldings
 62
   133
420
  5818337
100
AcDbVertex
100
AcDb3dPolylineVertex
 10
-0.0000028610229492
 20
4.936603546142578
 30
0.4532690048217774
 70
    32
  0
VERTEX
  5
11F
330
FA
100
AcDbEntity
  8
OracDecor_panel_moldings
 62
   133
420
  5818337
100
AcDbVertex
100
AcDb3dPolylineVertex
 10
-0.0000028610229492
 20
4.762488365173339
 30
0.2713861465454102
 70
    32
  0
VERTEX
  5
120
330
FA
100
AcDbEntity
  8
OracDecor_panel_moldings
 62
   133
420
  5818337
100
AcDbVertex
100
AcDb3dPolylineVertex
 10
-0.0000028610229492
 20
4.52181053161621
 30
0.1974172592163086
 70
    32
  0
VERTEX
  5
121
330
FA
100
AcDbEntity
  8
OracDecor_panel_moldings
 62
   133
420
  5818337
100
AcDbVertex
100
AcDb3dPolylineVertex
 10
-0.0000019073486328
 20
0.0000009536743164
 30
-0.0000095367431641
 70
    32
  0
VERTEX
  5
122
330
FA
100
AcDbEntity
  8
OracDecor_panel_moldings
 62
   133
420
  5818337
100
AcDbVertex
100
AcDb3dPolylineVertex
 10
-0.0000019073486328
 20
0.0
 30
2.68838882446289
 70
    32
  0
VERTEX
  5
123
330
FA
100
AcDbEntity
  8
OracDecor_panel_moldings
 62
   133
420
  5818337
100
AcDbVertex
100
AcDb3dPolylineVertex
 10
-0.0000019073485191
 20
0.0632047653198242
 30
2.931720733642578
 70
    32
  0
VERTEX
  5
124
330
FA
100
AcDbEntity
  8
OracDecor_panel_moldings
 62
   133
420
  5818337
100
AcDbVertex
100
AcDb3dPolylineVertex
 10
-0.0000019073486328
 20
0.236842155456543
 30
3.113532066345214
 70
    32
  0
VERTEX
  5
125
330
FA
100
AcDbEntity
  8
OracDecor_panel_moldings
 62
   133
420
  5818337
100
AcDbVertex
100
AcDb3dPolylineVertex
 10
-0.0000019073486328
 20
0.5385756492614746
 30
3.398918151855468
 70
    32
  0
VERTEX
  5
126
330
FA
100
AcDbEntity
  8
OracDecor_panel_moldings
 62
   133
420
  5818337
100
AcDbVertex
100
AcDb3dPolylineVertex
 10
-0.0000019073485191
 20
0.7068793773651123
 30
3.639759063720703
 70
    32
  0
VERTEX
  5
127
330
FA
100
AcDbEntity
  8
OracDecor_panel_moldings
 62
   133
420
  5818337
100
AcDbVertex
100
AcDb3dPolylineVertex
 10
-0.0000019073485191
 20
0.8118336200714111
 30
3.883482933044433
 70
    32
  0
VERTEX
  5
128
330
FA
100
AcDbEntity
  8
OracDecor_panel_moldings
 62
   133
420
  5818337
100
AcDbVertex
100
AcDb3dPolylineVertex
 10
-0.0000019073485191
 20
0.8711609840393066
 30
4.17125129699707
 70
    32
  0
VERTEX
  5
129
330
FA
100
AcDbEntity
  8
OracDecor_panel_moldings
 62
   133
420
  5818337
100
AcDbVertex
100
AcDb3dPolylineVertex
 10
-0.0000019073485191
 20
0.8711621761322021
 30
4.436625480651855
 70
    32
  0
VERTEX
  5
12A
330
FA
100
AcDbEntity
  8
OracDecor_panel_moldings
 62
   133
420
  5818337
100
AcDbVertex
100
AcDb3dPolylineVertex
 10
-0.0000019073486328
 20
0.8118345737457275
 30
4.72439432144165
 70
    32
  0
VERTEX
  5
12B
330
FA
100
AcDbEntity
  8
OracDecor_panel_moldings
 62
   133
420
  5818337
100
AcDbVertex
100
AcDb3dPolylineVertex
 10
-0.0000019073486328
 20
0.7068800926208496
 30
4.968117237091064
 70
    32
  0
VERTEX
  5
12C
330
FA
100
AcDbEntity
  8
OracDecor_panel_moldings
 62
   133
420
  5818337
100
AcDbVertex
100
AcDb3dPolylineVertex
 10
-0.0000019073486328
 20
0.5385749340057373
 30
5.208958625793457
 70
    32
  0
VERTEX
  5
12D
330
FA
100
AcDbEntity
  8
OracDecor_panel_moldings
 62
   133
420
  5818337
100
AcDbVertex
100
AcDb3dPolylineVertex
 10
-0.0000019073486328
 20
0.2368407249450684
 30
5.494343757629394
 70
    32
  0
VERTEX
  5
12E
330
FA
100
AcDbEntity
  8
OracDecor_panel_moldings
 62
   133
420
  5818337
100
AcDbVertex
100
AcDb3dPolylineVertex
 10
-0.0000019073486328
 20
0.063204288482666
 30
5.676156997680664
 70
    32
  0
VERTEX
  5
12F
330
FA
100
AcDbEntity
  8
OracDecor_panel_moldings
 62
   133
420
  5818337
100
AcDbVertex
100
AcDb3dPolylineVertex
 10
-0.0000019073486328
 20
-0.0000009536744301
 30
5.919488906860351
 70
    32
  0
VERTEX
  5
130
330
FA
100
AcDbEntity
  8
OracDecor_panel_moldings
 62
   133
420
  5818337
100
AcDbVertex
100
AcDb3dPolylineVertex
 10
-0.0000019073486328
 20
-0.0000014305115883
 30
7.797870635986328
 70
    32
  0
VERTEX
  5
131
330
FA
100
AcDbEntity
  8
OracDecor_panel_moldings
 62
   133
420
  5818337
100
AcDbVertex
100
AcDb3dPolylineVertex
 10
-0.0000019073486328
 20
0.0308651924133301
 30
8.094660758972167
 70
    32
  0
VERTEX
  5
132
330
FA
100
AcDbEntity
  8
OracDecor_panel_moldings
 62
   133
420
  5818337
100
AcDbVertex
100
AcDb3dPolylineVertex
 10
-0.0000019073486328
 20
0.0961647033691406
 30
8.40519905090332
 70
    32
  0
VERTEX
  5
133
330
FA
100
AcDbEntity
  8
OracDecor_panel_moldings
 62
   133
420
  5818337
100
AcDbVertex
100
AcDb3dPolylineVertex
 10
-0.0000019073486328
 20
0.2144021987915039
 30
8.673915863037109
 70
    32
  0
VERTEX
  5
134
330
FA
100
AcDbEntity
  8
OracDecor_panel_moldings
 62
   133
420
  5818337
100
AcDbVertex
100
AcDb3dPolylineVertex
 10
-0.0000019073485191
 20
0.3992412090301514
 30
8.931859970092773
 70
    32
  0
VERTEX
  5
135
330
FA
100
AcDbEntity
  8
OracDecor_panel_moldings
 62
   133
420
  5818337
100
AcDbVertex
100
AcDb3dPolylineVertex
 10
-0.0000019073486328
 20
0.5972032546997071
 30
9.155125617980957
 70
    32
  0
VERTEX
  5
136
330
FA
100
AcDbEntity
  8
OracDecor_panel_moldings
 62
   133
420
  5818337
100
AcDbVertex
100
AcDb3dPolylineVertex
 10
-0.0000019073486328
 20
2.984683513641357
 30
11.34284782409668
 70
    32
  0
VERTEX
  5
137
330
FA
100
AcDbEntity
  8
OracDecor_panel_moldings
 62
   133
420
  5818337
100
AcDbVertex
100
AcDb3dPolylineVertex
 10
-0.0000028610229492
 20
3.182646751403808
 30
11.56611347198486
 70
    32
  0
VERTEX
  5
138
330
FA
100
AcDbEntity
  8
OracDecor_panel_moldings
 62
   133
420
  5818337
100
AcDbVertex
100
AcDb3dPolylineVertex
 10
-0.0000028610229492
 20
3.351189136505126
 30
11.80131340026855
 70
    32
  0
VERTEX
  5
139
330
FA
100
AcDbEntity
  8
OracDecor_panel_moldings
 62
   133
420
  5818337
100
AcDbVertex
100
AcDb3dPolylineVertex
 10
-0.0000028610231766
 20
3.469428062438964
 30
12.07003021240234
 70
    32
  0
VERTEX
  5
13A
330
FA
100
AcDbEntity
  8
OracDecor_panel_moldings
 62
   133
420
  5818337
100
AcDbVertex
100
AcDb3dPolylineVertex
 10
-0.0000028610229492
 20
3.528972625732421
 30
12.35320281982422
 70
    32
  0
VERTEX
  5
13B
330
FA
100
AcDbEntity
  8
OracDecor_panel_moldings
 62
   133
420
  5818337
100
AcDbVertex
100
AcDb3dPolylineVertex
 10
-0.0000028610229492
 20
3.528972864151
 30
12.64678287506103
 70
    32
  0
VERTEX
  5
13C
330
FA
100
AcDbEntity
  8
OracDecor_panel_moldings
 62
   133
420
  5818337
100
AcDbVertex
100
AcDb3dPolylineVertex
 10
-0.0000028610227218
 20
3.469427108764648
 30
12.92995452880859
 70
    32
  0
VERTEX
  5
13D
330
FA
100
AcDbEntity
  8
OracDecor_panel_moldings
 62
   133
420
  5818337
100
AcDbVertex
100
AcDb3dPolylineVertex
 10
-0.0000028610229492
 20
3.351188421249389
 30
13.19867134094238
 70
    32
  0
VERTEX
  5
13E
330
FA
100
AcDbEntity
  8
OracDecor_panel_moldings
 62
   133
420
  5818337
100
AcDbVertex
100
AcDb3dPolylineVertex
 10
-0.0000028610229492
 20
3.18264627456665
 30
13.43387126922607
 70
    32
  0
VERTEX
  5
13F
330
FA
100
AcDbEntity
  8
OracDecor_panel_moldings
 62
   133
420
  5818337
100
AcDbVertex
100
AcDb3dPolylineVertex
 10
-0.0000019073486328
 20
2.984681367874145
 30
13.65713691711426
 70
    32
  0
VERTEX
  5
140
330
FA
100
AcDbEntity
  8
OracDecor_panel_moldings
 62
   133
420
  5818337
100
AcDbVertex
100
AcDb3dPolylineVertex
 10
-0.0000019073486328
 20
0.5972020626068116
 30
15.84485816955566
 70
    32
  0
VERTEX
  5
141
330
FA
100
AcDbEntity
  8
OracDecor_panel_moldings
 62
   133
420
  5818337
100
AcDbVertex
100
AcDb3dPolylineVertex
 10
-0.0000019073486328
 20
0.3992393016815185
 30
16.06812477111816
 70
    32
  0
VERTEX
  5
142
330
FA
100
AcDbEntity
  8
OracDecor_panel_moldings
 62
   133
420
  5818337
100
AcDbVertex
100
AcDb3dPolylineVertex
 10
-0.0000019073486328
 20
0.2144007682800293
 30
16.32606697082519
 70
    32
  0
VERTEX
  5
143
330
FA
100
AcDbEntity
  8
OracDecor_panel_moldings
 62
   133
420
  5818337
100
AcDbVertex
100
AcDb3dPolylineVertex
 10
-0.0000019073486328
 20
0.0961618423461914
 30
16.59478378295898
 70
    32
  0
VERTEX
  5
144
330
FA
100
AcDbEntity
  8
OracDecor_panel_moldings
 62
   133
420
  5818337
100
AcDbVertex
100
AcDb3dPolylineVertex
 10
-0.0000019073486328
 20
0.0308599472045899
 30
16.90532302856445
 70
    32
  0
VERTEX
  5
145
330
FA
100
AcDbEntity
  8
OracDecor_panel_moldings
 62
   133
420
  5818337
100
AcDbVertex
100
AcDb3dPolylineVertex
 10
-0.0000019073486328
 20
-0.0000066757206696
 30
17.20211410522461
 70
    32
  0
VERTEX
  5
146
330
FA
100
AcDbEntity
  8
OracDecor_panel_moldings
 62
   133
420
  5818337
100
AcDbVertex
100
AcDb3dPolylineVertex
 10
-0.0000019073486328
 20
-0.000005245209195
 30
19.08049392700195
 70
    32
  0
VERTEX
  5
147
330
FA
100
AcDbEntity
  8
OracDecor_panel_moldings
 62
   133
420
  5818337
100
AcDbVertex
100
AcDb3dPolylineVertex
 10
-0.0000019073486328
 20
0.0631999969482422
 30
19.32382583618164
 70
    32
  0
VERTEX
  5
148
330
FA
100
AcDbEntity
  8
OracDecor_panel_moldings
 62
   133
420
  5818337
100
AcDbVertex
100
AcDb3dPolylineVertex
 10
-0.0000019073485191
 20
0.2368369102478027
 30
19.50563812255859
 70
    32
  0
VERTEX
  5
149
330
FA
100
AcDbEntity
  8
OracDecor_panel_moldings
 62
   133
420
  5818337
100
AcDbVertex
100
AcDb3dPolylineVertex
 10
-0.0000019073486328
 20
0.5385699272155762
 30
19.79102325439453
 70
    32
  0
VERTEX
  5
14A
330
FA
100
AcDbEntity
  8
OracDecor_panel_moldings
 62
   133
420
  5818337
100
AcDbVertex
100
AcDb3dPolylineVertex
 10
-0.0000019073486328
 20
0.706873893737793
 30
20.03186416625977
 70
    32
  0
VERTEX
  5
14B
330
FA
100
AcDbEntity
  8
OracDecor_panel_moldings
 62
   133
420
  5818337
100
AcDbVertex
100
AcDb3dPolylineVertex
 10
-0.0000019073486328
 20
0.8118283748626708
 30
20.27558898925781
 70
    32
  0
VERTEX
  5
14C
330
FA
100
AcDbEntity
  8
OracDecor_panel_moldings
 62
   133
420
  5818337
100
AcDbVertex
100
AcDb3dPolylineVertex
 10
-0.0000019073486328
 20
0.8711559772491455
 30
20.56335830688476
 70
    32
  0
VERTEX
  5
14D
330
FA
100
AcDbEntity
  8
OracDecor_panel_moldings
 62
   133
420
  5818337
100
AcDbVertex
100
AcDb3dPolylineVertex
 10
-0.0000019073486328
 20
0.8711566925048828
 30
20.82872772216797
 70
    32
  0
VERTEX
  5
14E
330
FA
100
AcDbEntity
  8
OracDecor_panel_moldings
 62
   133
420
  5818337
100
AcDbVertex
100
AcDb3dPolylineVertex
 10
-0.0000019073486328
 20
0.8118293285369873
 30
21.11649703979492
 70
    32
  0
VERTEX
  5
14F
330
FA
100
AcDbEntity
  8
OracDecor_panel_moldings
 62
   133
420
  5818337
100
AcDbVertex
100
AcDb3dPolylineVertex
 10
-0.0000019073485191
 20
0.7068753242492676
 30
21.36022186279297
 70
    32
  0
VERTEX
  5
150
330
FA
100
AcDbEntity
  8
OracDecor_panel_moldings
 62
   133
420
  5818337
100
AcDbVertex
100
AcDb3dPolylineVertex
 10
-0.0000019073486328
 20
0.5385704040527344
 30
21.6010627746582
 70
    32
  0
VERTEX
  5
151
330
FA
100
AcDbEntity
  8
OracDecor_panel_moldings
 62
   133
420
  5818337
100
AcDbVertex
100
AcDb3dPolylineVertex
 10
-0.0000019073485191
 20
0.2368354797363281
 30
21.88644790649414
 70
    32
  0
VERTEX
  5
152
330
FA
100
AcDbEntity
  8
OracDecor_panel_moldings
 62
   133
420
  5818337
100
AcDbVertex
100
AcDb3dPolylineVertex
 10
-0.0000019073486328
 20
0.0631985664367676
 30
22.0682601928711
 70
    32
  0
VERTEX
  5
153
330
FA
100
AcDbEntity
  8
OracDecor_panel_moldings
 62
   133
420
  5818337
100
AcDbVertex
100
AcDb3dPolylineVertex
 10
-0.0000019073486328
 20
-0.0000066757206696
 30
22.31159210205078
 70
    32
  0
VERTEX
  5
154
330
FA
100
AcDbEntity
  8
OracDecor_panel_moldings
 62
   133
420
  5818337
100
AcDbVertex
100
AcDb3dPolylineVertex
 10
-0.0000019073486328
 20
-0.0000076293945313
 30
24.99998855590821
 70
    32
  0
VERTEX
  5
155
330
FA
100
AcDbEntity
  8
OracDecor_panel_moldings
 62
   133
420
  5818337
100
AcDbVertex
100
AcDb3dPolylineVertex
 10
-0.0000028610231766
 20
4.521802902221679
 30
24.80256652832031
 70
    32
  0
VERTEX
  5
156
330
FA
100
AcDbEntity
  8
OracDecor_panel_moldings
 62
   133
420
  5818337
100
AcDbVertex
100
AcDb3dPolylineVertex
 10
-0.0000028610229492
 20
4.762480735778808
 30
24.72860336303711
 70
    32
  0
VERTEX
  5
157
330
FA
100
AcDbEntity
  8
OracDecor_panel_moldings
 62
   133
420
  5818337
100
AcDbVertex
100
AcDb3dPolylineVertex
 10
-0.0000028610229492
 20
4.936595916748046
 30
24.54671859741211
 70
    32
  0
VERTEX
  5
158
330
FA
100
AcDbEntity
  8
OracDecor_panel_moldings
 62
   133
420
  5818337
100
AcDbVertex
100
AcDb3dPolylineVertex
 10
-0.0000028610227218
 20
4.999992847442626
 30
24.30304336547852
 70
    32
  0
VERTEX
  5
159
330
FA
100
AcDbEntity
  8
OracDecor_panel_moldings
 62
   133
420
  5818337
100
AcDbVertex
100
AcDb3dPolylineVertex
 10
-0.0000028610229492
 20
5.099930763244628
 30
23.62718200683594
 70
    32
  0
VERTEX
  5
15A
330
FA
100
AcDbEntity
  8
OracDecor_panel_moldings
 62
   133
420
  5818337
100
AcDbVertex
100
AcDb3dPolylineVertex
 10
-0.0000028610229492
 20
5.196871280670166
 30
23.34889221191406
 70
    32
  0
VERTEX
  5
15B
330
FA
100
AcDbEntity
  8
OracDecor_panel_moldings
 62
   133
420
  5818337
100
AcDbVertex
100
AcDb3dPolylineVertex
 10
-0.0000028610229492
 20
5.397801399230957
 30
23.00086975097656
 70
    32
  0
VERTEX
  5
15C
330
FA
100
AcDbEntity
  8
OracDecor_panel_moldings
 62
   133
420
  5818337
100
AcDbVertex
100
AcDb3dPolylineVertex
 10
-0.0000028610231766
 20
5.587707996368408
 30
22.7745475769043
 70
    32
  0
VERTEX
  5
15D
330
FA
100
AcDbEntity
  8
OracDecor_panel_moldings
 62
   133
420
  5818337
100
AcDbVertex
100
AcDb3dPolylineVertex
 10
-0.0000028610229492
 20
5.895552158355712
 30
22.51623153686523
 70
    32
  0
VERTEX
  5
15E
330
FA
100
AcDbEntity
  8
OracDecor_panel_moldings
 62
   133
420
  5818337
100
AcDbVertex
100
AcDb3dPolylineVertex
 10
-0.0000028610229492
 20
6.151413917541503
 30
22.36851119995117
 70
    32
  0
VERTEX
  5
15F
330
FA
100
AcDbEntity
  8
OracDecor_panel_moldings
 62
   133
420
  5818337
100
AcDbVertex
100
AcDb3dPolylineVertex
 10
-0.0000028610229492
 20
6.669993877410888
 30
22.17976379394531
 70
    32
  0
VERTEX
  5
160
330
FA
100
AcDbEntity
  8
OracDecor_panel_moldings
 62
   133
420
  5818337
100
AcDbVertex
100
AcDb3dPolylineVertex
 10
-0.0000028610229492
 20
7.086818218231201
 30
22.10626602172852
 70
    32
  0
VERTEX
  5
161
330
FA
100
AcDbEntity
  8
OracDecor_panel_moldings
 62
   133
420
  5818337
100
AcDbVertex
100
AcDb3dPolylineVertex
 10
-0.0000028610227218
 20
7.298594951629638
 30
22.01489639282227
 70
    32
  0
VERTEX
  5
162
330
FA
100
AcDbEntity
  8
OracDecor_panel_moldings
 62
   133
420
  5818337
100
AcDbVertex
100
AcDb3dPolylineVertex
 10
-0.0000028610229492
 20
7.446787357330322
 30
21.83828735351562
 70
    32
  0
SEQEND
  5
163
330
FA
100
AcDbEntity
  8
OracDecor_panel_moldings
 62
   133
420
  5818337
  0
ENDSEC
  0
SECTION
  2
OBJECTS
  0
DICTIONARY
  5
C
330
0
100
AcDbDictionary
281
     1
  3
ACAD_COLOR
350
DC
  3
ACAD_DETAILVIEWSTYLE
350
F5
  3
ACAD_GROUP
350
D
  3
ACAD_LAYOUT
350
1A
  3
ACAD_MATERIAL
350
AA
  3
ACAD_MLEADERSTYLE
350
F1
  3
ACAD_MLINESTYLE
350
17
  3
ACAD_PLOTSETTINGS
350
19
  3
ACAD_PLOTSTYLENAME
350
E
  3
ACAD_SCALELIST
350
DF
  3
ACAD_SECTIONVIEWSTYLE
350
F3
  3
ACAD_TABLESTYLE
350
DD
  3
ACAD_VISUALSTYLE
350
C3
  3
ACDB_RECOMPOSE_DATA
350
170
  3
AcDbVariableDictionary
350
164
  0
DICTIONARY
  5
DC
102
{ACAD_REACTORS
330
C
102
}
330
C
100
AcDbDictionary
281
     1
  0
DICTIONARY
  5
F5
102
{ACAD_REACTORS
330
C
102
}
330
C
100
AcDbDictionary
281
     1
  3
Imperial24
350
F6
  0
DICTIONARY
  5
D
102
{ACAD_REACTORS
330
C
102
}
330
C
100
AcDbDictionary
281
     1
  0
DICTIONARY
  5
1A
102
{ACAD_REACTORS
330
C
102
}
330
C
100
AcDbDictionary
281
     1
  3
Layout1
350
1E
  3
Layout2
350
26
  3
Model
350
22
  0
DICTIONARY
  5
AA
102
{ACAD_REACTORS
330
C
102
}
330
C
100
AcDbDictionary
281
     1
  3
ByBlock
350
B3
  3
ByLayer
350
AB
  3
Global
350
BB
  0
DICTIONARY
  5
F1
102
{ACAD_REACTORS
330
C
102
}
330
C
100
AcDbDictionary
281
     1
  3
Standard
350
F2
  0
DICTIONARY
  5
17
102
{ACAD_REACTORS
330
C
102
}
330
C
100
AcDbDictionary
281
     1
  3
Standard
350
18
  0
DICTIONARY
  5
19
102
{ACAD_REACTORS
330
C
102
}
330
C
100
AcDbDictionary
281
     1
  0
ACDBDICTIONARYWDFLT
  5
E
102
{ACAD_REACTORS
330
C
102
}
330
C
100
AcDbDictionary
281
     1
  3
ByLayer
350
2D
  3
Normal
350
F
100
AcDbDictionaryWithDefault
340
F
  0
DICTIONARY
  5
DF
102
{ACAD_REACTORS
330
C
102
}
330
C
100
AcDbDictionary
281
     1
  3
A0
350
E0
  3
A1
350
E1
  3
A2
350
E2
  3
A3
350
E3
  3
A4
350
E4
  3
A5
350
E5
  3
A6
350
E6
  3
A7
350
E7
  3
A8
350
E8
  3
A9
350
E9
  3
B0
350
EA
  3
B1
350
EB
  3
B2
350
EC
  3
B3
350
ED
  3
B4
350
EE
  3
B5
350
EF
  3
B6
350
F0
  0
DICTIONARY
  5
F3
102
{ACAD_REACTORS
330
C
102
}
330
C
100
AcDbDictionary
281
     1
  3
Imperial24
350
F4
  0
DICTIONARY
  5
DD
102
{ACAD_REACTORS
330
C
102
}
330
C
100
AcDbDictionary
281
     1
  3
Standard
350
DE
  0
DICTIONARY
  5
C3
102
{ACAD_REACTORS
330
C
102
}
330
C
100
AcDbDictionary
281
     1
  3
2dWireframe
350
C9
  3
Basic
350
C8
  3
Brighten
350
CF
  3
ColorChange
350
D3
  3
Conceptual
350
CC
  3
Dim
350
CE
  3
EdgeColorOff
350
DB
  3
Facepattern
350
D2
  3
Flat
350
C4
  3
FlatWithEdges
350
C5
  3
Gouraud
350
C6
  3
GouraudWithEdges
350
C7
  3
Hidden
350
CB
  3
JitterOff
350
D9
  3
Linepattern
350
D1
  3
OverhangOff
350
DA
  3
Realistic
350
CD
  3
Shaded
350
D8
  3
Shaded with edges
350
D7
  3
Shades of Gray
350
D4
  3
Sketchy
350
D5
  3
Thicken
350
D0
  3
Wireframe
350
CA
  3
X-Ray
350
D6
  0
XRECORD
  5
170
102
{ACAD_REACTORS
330
C
102
}
330
C
100
AcDbXrecord
280
     1
 90
        1
330
DE
  0
DICTIONARY
  5
164
102
{ACAD_REACTORS
330
C
102
}
330
C
100
AcDbDictionary
281
     1
  3
CANNOSCALE
350
16A
  3
CMLEADERSTYLE
350
166
  3
CTABLESTYLE
350
165
  3
CVIEWDETAILSTYLE
350
167
  3
CVIEWSECTIONSTYLE
350
168
  3
LAYEREVAL
350
16C
  3
LAYERNOTIFY
350
16D
  3
LIGHTINGUNITS
350
16B
  3
MSLTSCALE
350
169
  0
ACDBDETAILVIEWSTYLE
  5
F6
102
{ACAD_XDICTIONARY
360
1A5
102
}
102
{ACAD_REACTORS
330
F5
102
}
330
F5
100
AcDbModelDocViewStyle
 70
     0
  3
Imperial24
290
     0
100
AcDbDetailViewStyle
 70
     0
 71
     0
 90
        3
 71
     1
340
11
 62
   256
 40
0.24
340
0
 62
   256
 40
0.24
300

 40
0.36
280
     3
 71
     2
340
16
 90
       25
 62
   256
 71
     3
340
11
 62
   256
 40
0.24
 90
        1
 40
0.75
 90
        1
300
%<\AcVar ViewType \f "%tc1">% %<\AcVar ViewDetailId>%\PSCALE %<\AcVar ViewScale \f "%sn">%
 71
     4
340
16
 90
       25
 62
   256
340
16
 90
       25
 62
   256
280
     0
  0
LAYOUT
  5
1E
102
{ACAD_REACTORS
330
1A
102
}
330
1A
100
AcDbPlotSettings
  1

  2
\\KTXNTBDC\CASF2PN1
  4

  6

 40
0.0
 41
0.0
 42
0.0
 43
0.0
 44
0.0
 45
0.0
 46
0.0
 47
0.0
 48
0.0
 49
0.0
140
0.0
141
0.0
142
1.0
143
1.0
 70
   688
 72
     0
 73
     0
 74
     5
  7

 75
    16
147
1.0
 76
     0
 77
     2
 78
   300
148
0.0
149
0.0
100
AcDbLayout
  1
Layout1
 70
     1
 71
     1
 10
0.0
 20
0.0
 11
12.0
 21
9.0
 12
0.0
 22
0.0
 32
0.0
 14
1.000000000000000E+20
 24
1.000000000000000E+20
 34
1.000000000000000E+20
 15
-1.000000000000000E+20
 25
-1.000000000000000E+20
 35
-1.000000000000000E+20
146
0.0
 13
0.0
 23
0.0
 33
0.0
 16
1.0
 26
0.0
 36
0.0
 17
0.0
 27
1.0
 37
0.0
 76
     0
330
1B
  0
LAYOUT
  5
26
102
{ACAD_REACTORS
330
1A
102
}
330
1A
100
AcDbPlotSettings
  1

  2
\\KTXNTBDC\CASF2PN1
  4

  6

 40
0.0
 41
0.0
 42
0.0
 43
0.0
 44
0.0
 45
0.0
 46
0.0
 47
0.0
 48
0.0
 49
0.0
140
0.0
141
0.0
142
1.0
143
1.0
 70
   688
 72
     0
 73
     0
 74
     5
  7

 75
    16
147
1.0
 76
     0
 77
     2
 78
   300
148
0.0
149
0.0
100
AcDbLayout
  1
Layout2
 70
     1
 71
     2
 10
0.0
 20
0.0
 11
12.0
 21
9.0
 12
0.0
 22
0.0
 32
0.0
 14
0.0
 24
0.0
 34
0.0
 15
0.0
 25
0.0
 35
0.0
146
0.0
 13
0.0
 23
0.0
 33
0.0
 16
1.0
 26
0.0
 36
0.0
 17
0.0
 27
1.0
 37
0.0
 76
     0
330
23
  0
LAYOUT
  5
22
102
{ACAD_REACTORS
330
1A
102
}
330
1A
100
AcDbPlotSettings
  1

  2
\\KTXNTBDC\CASF2PN1
  4

  6

 40
0.0
 41
0.0
 42
0.0
 43
0.0
 44
0.0
 45
0.0
 46
0.0
 47
0.0
 48
0.0
 49
0.0
140
0.0
141
0.0
142
1.0
143
1.0
 70
  1712
 72
     0
 73
     0
 74
     0
  7

 75
     0
147
1.0
 76
     0
 77
     2
 78
   300
148
0.0
149
0.0
100
AcDbLayout
  1
Model
 70
     1
 71
     0
 10
0.0
 20
0.0
 11
12.0
 21
9.0
 12
0.0
 22
0.0
 32
0.0
 14
0.0
 24
0.0
 34
0.0
 15
0.0
 25
0.0
 35
0.0
146
0.0
 13
0.0
 23
0.0
 33
0.0
 16
1.0
 26
0.0
 36
0.0
 17
0.0
 27
1.0
 37
0.0
 76
     0
330
1F
  0
MATERIAL
  5
B3
102
{ACAD_XDICTIONARY
360
B4
102
}
102
{ACAD_REACTORS
330
AA
102
}
330
AA
100
AcDbMaterial
  1
ByBlock
 72
     0
 43
0.0208333333333333
 43
0.0
 43
0.0
 43
0.0
 43
0.0
 43
0.0208333333333333
 43
0.0
 43
0.0
 43
0.0
 43
0.0
 43
1.0
 43
0.0
 43
0.0
 43
0.0
 43
0.0
 43
1.0
 77
     0
 47
0.0208333333333333
 47
0.0
 47
0.0
 47
0.0
 47
0.0
 47
0.0208333333333333
 47
0.0
 47
0.0
 47
0.0
 47
0.0
 47
1.0
 47
0.0
 47
0.0
 47
0.0
 47
0.0
 47
1.0
171
     0
 49
0.0208333333333333
 49
0.0
 49
0.0
 49
0.0
 49
0.0
 49
0.0208333333333333
 49
0.0
 49
0.0
 49
0.0
 49
0.0
 49
1.0
 49
0.0
 49
0.0
 49
0.0
 49
0.0
 49
1.0
175
     0
142
0.0208333333333333
142
0.0
142
0.0
142
0.0
142
0.0
142
0.0208333333333333
142
0.0
142
0.0
142
0.0
142
0.0
142
1.0
142
0.0
142
0.0
142
0.0
142
0.0
142
1.0
179
     0
144
0.0208333333333333
144
0.0
144
0.0
144
0.0
144
0.0
144
0.0208333333333333
144
0.0
144
0.0
144
0.0
144
0.0
144
1.0
144
0.0
144
0.0
144
0.0
144
0.0
144
1.0
147
0.0208333333333333
147
0.0
147
0.0
147
0.0
147
0.0
147
0.0208333333333333
147
0.0
147
0.0
147
0.0
147
0.0
147
1.0
147
0.0
147
0.0
147
0.0
147
0.0
147
1.0
  0
MATERIAL
  5
AB
102
{ACAD_XDICTIONARY
360
AC
102
}
102
{ACAD_REACTORS
330
AA
102
}
330
AA
100
AcDbMaterial
  1
ByLayer
 72
     0
 43
0.0208333333333333
 43
0.0
 43
0.0
 43
0.0
 43
0.0
 43
0.0208333333333333
 43
0.0
 43
0.0
 43
0.0
 43
0.0
 43
1.0
 43
0.0
 43
0.0
 43
0.0
 43
0.0
 43
1.0
 77
     0
 47
0.0208333333333333
 47
0.0
 47
0.0
 47
0.0
 47
0.0
 47
0.0208333333333333
 47
0.0
 47
0.0
 47
0.0
 47
0.0
 47
1.0
 47
0.0
 47
0.0
 47
0.0
 47
0.0
 47
1.0
171
     0
 49
0.0208333333333333
 49
0.0
 49
0.0
 49
0.0
 49
0.0
 49
0.0208333333333333
 49
0.0
 49
0.0
 49
0.0
 49
0.0
 49
1.0
 49
0.0
 49
0.0
 49
0.0
 49
0.0
 49
1.0
175
     0
142
0.0208333333333333
142
0.0
142
0.0
142
0.0
142
0.0
142
0.0208333333333333
142
0.0
142
0.0
142
0.0
142
0.0
142
1.0
142
0.0
142
0.0
142
0.0
142
0.0
142
1.0
179
     0
144
0.0208333333333333
144
0.0
144
0.0
144
0.0
144
0.0
144
0.0208333333333333
144
0.0
144
0.0
144
0.0
144
0.0
144
1.0
144
0.0
144
0.0
144
0.0
144
0.0
144
1.0
147
0.0208333333333333
147
0.0
147
0.0
147
0.0
147
0.0
147
0.0208333333333333
147
0.0
147
0.0
147
0.0
147
0.0
147
1.0
147
0.0
147
0.0
147
0.0
147
0.0
147
1.0
  0
MATERIAL
  5
BB
102
{ACAD_XDICTIONARY
360
BC
102
}
102
{ACAD_REACTORS
330
AA
102
}
330
AA
100
AcDbMaterial
  1
Global
 72
     0
 43
0.0208333333333333
 43
0.0
 43
0.0
 43
0.0
 43
0.0
 43
0.0208333333333333
 43
0.0
 43
0.0
 43
0.0
 43
0.0
 43
1.0
 43
0.0
 43
0.0
 43
0.0
 43
0.0
 43
1.0
 77
     0
 47
0.0208333333333333
 47
0.0
 47
0.0
 47
0.0
 47
0.0
 47
0.0208333333333333
 47
0.0
 47
0.0
 47
0.0
 47
0.0
 47
1.0
 47
0.0
 47
0.0
 47
0.0
 47
0.0
 47
1.0
171
     0
 49
0.0208333333333333
 49
0.0
 49
0.0
 49
0.0
 49
0.0
 49
0.0208333333333333
 49
0.0
 49
0.0
 49
0.0
 49
0.0
 49
1.0
 49
0.0
 49
0.0
 49
0.0
 49
0.0
 49
1.0
175
     0
142
0.0208333333333333
142
0.0
142
0.0
142
0.0
142
0.0
142
0.0208333333333333
142
0.0
142
0.0
142
0.0
142
0.0
142
1.0
142
0.0
142
0.0
142
0.0
142
0.0
142
1.0
179
     0
144
0.0208333333333333
144
0.0
144
0.0
144
0.0
144
0.0
144
0.0208333333333333
144
0.0
144
0.0
144
0.0
144
0.0
144
1.0
144
0.0
144
0.0
144
0.0
144
0.0
144
1.0
147
0.0208333333333333
147
0.0
147
0.0
147
0.0
147
0.0
147
0.0208333333333333
147
0.0
147
0.0
147
0.0
147
0.0
147
1.0
147
0.0
147
0.0
147
0.0
147
0.0
147
1.0
  0
MLEADERSTYLE
  5
F2
102
{ACAD_XDICTIONARY
360
1A1
102
}
102
{ACAD_REACTORS
330
F1
102
}
330
F1
100
AcDbMLeaderStyle
179
     2
170
     2
171
     1
172
     0
 90
        2
 40
0.0
 41
0.0
173
     1
 91
-1056964608
340
14
 92
       -2
290
     1
 42
0.09
291
     1
 43
0.36
  3
Standard
 44
0.18
300

342
11
174
     1
178
     6
175
     1
176
     0
 93
-1056964608
 45
0.18
292
     0
297
     0
 46
0.18
 94
-1056964608
 47
1.0
 49
1.0
140
1.0
293
     1
141
0.0
294
     1
177
     0
142
1.0
295
     0
296
     0
143
0.125
271
     0
272
     9
273
     9
  0
MLINESTYLE
  5
18
102
{ACAD_REACTORS
330
17
102
}
330
17
100
AcDbMlineStyle
  2
STANDARD
 70
     0
  3

 62
   256
 51
90.0
 52
90.0
 71
     2
 49
0.5
 62
   256
  6
BYLAYER
 49
-0.5
 62
   256
  6
BYLAYER
  0
ACDBPLACEHOLDER
  5
2D
102
{ACAD_REACTORS
330
E
102
}
330
E
  0
ACDBPLACEHOLDER
  5
F
102
{ACAD_REACTORS
330
E
102
}
330
E
  0
SCALE
  5
E0
102
{ACAD_REACTORS
330
DF
102
}
330
DF
100
AcDbScale
 70
     0
300
1:1
140
1.0
141
1.0
290
     1
  0
SCALE
  5
E1
102
{ACAD_REACTORS
330
DF
102
}
330
DF
100
AcDbScale
 70
     0
300
1/128" = 1'-0"
140
0.0078125
141
12.0
290
     0
  0
SCALE
  5
E2
102
{ACAD_REACTORS
330
DF
102
}
330
DF
100
AcDbScale
 70
     0
300
1/64" = 1'-0"
140
0.015625
141
12.0
290
     0
  0
SCALE
  5
E3
102
{ACAD_REACTORS
330
DF
102
}
330
DF
100
AcDbScale
 70
     0
300
1/32" = 1'-0"
140
0.03125
141
12.0
290
     0
  0
SCALE
  5
E4
102
{ACAD_REACTORS
330
DF
102
}
330
DF
100
AcDbScale
 70
     0
300
1/16" = 1'-0"
140
0.0625
141
12.0
290
     0
  0
SCALE
  5
E5
102
{ACAD_REACTORS
330
DF
102
}
330
DF
100
AcDbScale
 70
     0
300
3/32" = 1'-0"
140
0.09375
141
12.0
290
     0
  0
SCALE
  5
E6
102
{ACAD_REACTORS
330
DF
102
}
330
DF
100
AcDbScale
 70
     0
300
1/8" = 1'-0"
140
0.125
141
12.0
290
     0
  0
SCALE
  5
E7
102
{ACAD_REACTORS
330
DF
102
}
330
DF
100
AcDbScale
 70
     0
300
3/16" = 1'-0"
140
0.1875
141
12.0
290
     0
  0
SCALE
  5
E8
102
{ACAD_REACTORS
330
DF
102
}
330
DF
100
AcDbScale
 70
     0
300
1/4" = 1'-0"
140
0.25
141
12.0
290
     0
  0
SCALE
  5
E9
102
{ACAD_REACTORS
330
DF
102
}
330
DF
100
AcDbScale
 70
     0
300
3/8" = 1'-0"
140
0.375
141
12.0
290
     0
  0
SCALE
  5
EA
102
{ACAD_REACTORS
330
DF
102
}
330
DF
100
AcDbScale
 70
     0
300
1/2" = 1'-0"
140
0.5
141
12.0
290
     0
  0
SCALE
  5
EB
102
{ACAD_REACTORS
330
DF
102
}
330
DF
100
AcDbScale
 70
     0
300
3/4" = 1'-0"
140
0.75
141
12.0
290
     0
  0
SCALE
  5
EC
102
{ACAD_REACTORS
330
DF
102
}
330
DF
100
AcDbScale
 70
     0
300
1" = 1'-0"
140
1.0
141
12.0
290
     0
  0
SCALE
  5
ED
102
{ACAD_REACTORS
330
DF
102
}
330
DF
100
AcDbScale
 70
     0
300
1-1/2" = 1'-0"
140
1.5
141
12.0
290
     0
  0
SCALE
  5
EE
102
{ACAD_REACTORS
330
DF
102
}
330
DF
100
AcDbScale
 70
     0
300
3" = 1'-0"
140
3.0
141
12.0
290
     0
  0
SCALE
  5
EF
102
{ACAD_REACTORS
330
DF
102
}
330
DF
100
AcDbScale
 70
     0
300
6" = 1'-0"
140
6.0
141
12.0
290
     0
  0
SCALE
  5
F0
102
{ACAD_REACTORS
330
DF
102
}
330
DF
100
AcDbScale
 70
     0
300
1'-0" = 1'-0"
140
12.0
141
12.0
290
     0
  0
ACDBSECTIONVIEWSTYLE
  5
F4
102
{ACAD_XDICTIONARY
360
1A3
102
}
102
{ACAD_REACTORS
330
F3
102
}
330
F3
100
AcDbModelDocViewStyle
 70
     0
  3
Imperial24
290
     0
100
AcDbSectionViewStyle
 70
     0
 71
     0
 90
       78
 71
     1
340
11
 62
   256
 40
0.24
340
0
340
0
 62
   256
 40
0.24
300
I, O, Q, S, X, Z
 40
0.48
 90
        3
 40
0.18
 90
        1
 71
     2
340
16
 90
       25
 62
   256
340
16
 90
       50
 62
   256
 40
0.24
 40
0.0
 40
0.24
 71
     3
340
11
 62
   256
 40
0.24
 90
        1
 40
0.75
 90
        1
300
%<\AcVar ViewType \f "%tc1">% %<\AcVar ViewSectionStartId>%-%<\AcVar ViewSectionEndId>%\PSCALE %<\AcVar ViewScale \f "%sn">%
 71
     4
 62
   256
 62
   257
300
ANSI31
 40
1.0
 90
        0
290
     0
290
     0
 90
        6
 40
0.0
 40
1.570796326794896
 40
0.2617993877991494
 40
1.308996938995747
 40
-0.2617993877991494
 40
1.832595714594046
  0
TABLESTYLE
  5
DE
102
{ACAD_XDICTIONARY
360
16E
102
}
102
{ACAD_REACTORS
330
DD
102
}
330
DD
100
AcDbTableStyle
280
     0
  3
Standard
 70
     0
 71
     0
 40
0.06
 41
0.06
280
     0
281
     0
  7
Standard
140
0.18
170
     2
 62
     0
 63
     7
283
     0
 90
      512
 91
        0
  1

274
    -2
284
     1
 64
     0
275
    -2
285
     1
 65
     0
276
    -2
286
     1
 66
     0
277
    -2
287
     1
 67
     0
278
    -2
288
     1
 68
     0
279
    -2
289
     1
 69
     0
  7
Standard
140
0.25
170
     5
 62
     0
 63
     7
283
     0
 90
      512
 91
        0
  1

274
    -2
284
     1
 64
     0
275
    -2
285
     1
 65
     0
276
    -2
286
     1
 66
     0
277
    -2
287
     1
 67
     0
278
    -2
288
     1
 68
     0
279
    -2
289
     1
 69
     0
  7
Standard
140
0.18
170
     5
 62
     0
 63
     7
283
     0
 90
      512
 91
        0
  1

274
    -2
284
     1
 64
     0
275
    -2
285
     1
 65
     0
276
    -2
286
     1
 66
     0
277
    -2
287
     1
 67
     0
278
    -2
288
     1
 68
     0
279
    -2
289
     1
 69
     0
  0
VISUALSTYLE
  5
C9
102
{ACAD_XDICTIONARY
360
17B
102
}
102
{ACAD_REACTORS
330
C3
102
}
330
C3
100
AcDbVisualStyle
  2
2dWireframe
 70
     4
177
     2
291
     0
 71
     0
176
     1
 72
     2
176
     1
 73
     0
176
     1
 90
        0
176
     1
 40
0.6
176
     1
 41
30.0
176
     1
 63
     7
421
 16777215
176
     1
 74
     1
176
     1
 91
        4
176
     1
 64
     7
176
     1
 65
   257
176
     1
 75
     1
176
     1
175
     1
176
     1
 42
1.0
176
     1
 92
        0
176
     1
 66
   257
176
     1
 43
1.0
176
     1
 76
     1
176
     1
 77
     6
176
     1
 78
     2
176
     1
 67
     7
176
     1
 79
     5
176
     1
170
     0
176
     1
171
     0
176
     1
290
     0
176
     1
 93
        1
176
     1
 44
0.0
176
     1
173
     0
176
     1
1001
ACAD
1000
AcDbSavedByObjectVersion
1070
     0
  0
VISUALSTYLE
  5
C8
102
{ACAD_XDICTIONARY
360
179
102
}
102
{ACAD_REACTORS
330
C3
102
}
330
C3
100
AcDbVisualStyle
  2
Basic
 70
     7
177
     2
291
     1
 71
     1
176
     1
 72
     0
176
     1
 73
     1
176
     1
 90
        0
176
     1
 40
0.6
176
     1
 41
30.0
176
     1
 63
     7
421
 16777215
176
     1
 74
     0
176
     1
 91
        4
176
     1
 64
     7
176
     1
 65
   257
176
     1
 75
     1
176
     1
175
     1
176
     1
 42
1.0
176
     1
 92
        8
176
     1
 66
     7
176
     1
 43
1.0
176
     1
 76
     1
176
     1
 77
     6
176
     1
 78
     2
176
     1
 67
     7
176
     1
 79
     5
176
     1
170
     0
176
     1
171
     0
176
     1
290
     0
176
     1
 93
        1
176
     1
 44
0.0
176
     1
173
     0
176
     1
1001
ACAD
1000
AcDbSavedByObjectVersion
1070
     0
  0
VISUALSTYLE
  5
CF
102
{ACAD_XDICTIONARY
360
187
102
}
102
{ACAD_REACTORS
330
C3
102
}
330
C3
100
AcDbVisualStyle
  2
Brighten
 70
    12
177
     2
291
     1
 71
     2
176
     1
 72
     2
176
     1
 73
     0
176
     1
 90
        0
176
     1
 40
0.6
176
     1
 41
30.0
176
     1
 63
     7
421
 16777215
176
     1
 74
     1
176
     1
 91
        4
176
     1
 64
     7
176
     1
 65
   257
176
     1
 75
     1
176
     1
175
     1
176
     1
 42
1.0
176
     1
 92
        8
176
     1
 66
     7
176
     1
 43
1.0
176
     1
 76
     1
176
     1
 77
     6
176
     1
 78
     2
176
     1
 67
     7
176
     1
 79
     5
176
     1
170
     0
176
     1
171
     0
176
     1
290
     0
176
     1
 93
        1
176
     1
 44
50.0
176
     1
173
     0
176
     1
1001
ACAD
1000
AcDbSavedByObjectVersion
1070
     0
  0
VISUALSTYLE
  5
D3
102
{ACAD_XDICTIONARY
360
18F
102
}
102
{ACAD_REACTORS
330
C3
102
}
330
C3
100
AcDbVisualStyle
  2
ColorChange
 70
    16
177
     2
291
     1
 71
     2
176
     1
 72
     2
176
     1
 73
     3
176
     1
 90
        0
176
     1
 40
0.6
176
     1
 41
30.0
176
     1
 63
     8
421
  8421504
176
     1
 74
     1
176
     1
 91
        4
176
     1
 64
     7
176
     1
 65
   257
176
     1
 75
     1
176
     1
175
     1
176
     1
 42
1.0
176
     1
 92
        8
176
     1
 66
     8
424
  8421504
176
     1
 43
1.0
176
     1
 76
     1
176
     1
 77
     6
176
     1
 78
     2
176
     1
 67
     7
176
     1
 79
     5
176
     1
170
     0
176
     1
171
     0
176
     1
290
     0
176
     1
 93
        1
176
     1
 44
0.0
176
     1
173
     0
176
     1
1001
ACAD
1000
AcDbSavedByObjectVersion
1070
     0
  0
VISUALSTYLE
  5
CC
102
{ACAD_XDICTIONARY
360
181
102
}
102
{ACAD_REACTORS
330
C3
102
}
330
C3
100
AcDbVisualStyle
  2
Conceptual
 70
     9
177
     2
291
     0
 71
     3
176
     1
 72
     2
176
     1
 73
     0
176
     1
 90
        0
176
     1
 40
0.6
176
     1
 41
30.0
176
     1
 63
     7
421
 16777215
176
     1
 74
     2
176
     1
 91
        2
176
     1
 64
     7
176
     1
 65
   257
176
     1
 75
     1
176
     1
175
     1
176
     1
 42
179.0
176
     1
 92
        8
176
     1
 66
     7
176
     1
 43
1.0
176
     1
 76
     1
176
     1
 77
     6
176
     1
 78
     2
176
     1
 67
     7
176
     1
 79
     3
176
     1
170
     0
176
     1
171
     0
176
     1
290
     0
176
     1
 93
        1
176
     1
 44
0.0
176
     1
173
     0
176
     1
1001
ACAD
1000
AcDbSavedByObjectVersion
1070
     0
  0
VISUALSTYLE
  5
CE
102
{ACAD_XDICTIONARY
360
185
102
}
102
{ACAD_REACTORS
330
C3
102
}
330
C3
100
AcDbVisualStyle
  2
Dim
 70
    11
177
     2
291
     1
 71
     2
176
     1
 72
     2
176
     1
 73
     0
176
     1
 90
        0
176
     1
 40
0.6
176
     1
 41
30.0
176
     1
 63
     7
421
 16777215
176
     1
 74
     1
176
     1
 91
        4
176
     1
 64
     7
176
     1
 65
   257
176
     1
 75
     1
176
     1
175
     1
176
     1
 42
1.0
176
     1
 92
        8
176
     1
 66
     7
176
     1
 43
1.0
176
     1
 76
     1
176
     1
 77
     6
176
     1
 78
     2
176
     1
 67
     7
176
     1
 79
     5
176
     1
170
     0
176
     1
171
     0
176
     1
290
     0
176
     1
 93
        1
176
     1
 44
-50.0
176
     1
173
     0
176
     1
1001
ACAD
1000
AcDbSavedByObjectVersion
1070
     0
  0
VISUALSTYLE
  5
DB
102
{ACAD_XDICTIONARY
360
19F
102
}
102
{ACAD_REACTORS
330
C3
102
}
330
C3
100
AcDbVisualStyle
  2
EdgeColorOff
 70
    22
177
     2
291
     1
 71
     2
176
     0
 72
     2
176
     0
 73
     0
176
     0
 90
        0
176
     0
 40
0.6
176
     0
 41
30.0
176
     0
 63
     7
421
 16777215
176
     0
 74
     1
176
     0
 91
        4
176
     0
 64
     7
176
     0
 65
   257
176
     0
 75
     1
176
     0
175
     1
176
     0
 42
1.0
176
     0
 92
        8
176
     2
 66
     7
176
     0
 43
1.0
176
     0
 76
     1
176
     0
 77
     6
176
     0
 78
     2
176
     0
 67
     7
176
     0
 79
     5
176
     0
170
     0
176
     0
171
     0
176
     0
290
     0
176
     0
 93
        1
176
     0
 44
0.0
176
     0
173
     0
176
     0
1001
ACAD
1000
AcDbSavedByObjectVersion
1070
     0
  0
VISUALSTYLE
  5
D2
102
{ACAD_XDICTIONARY
360
18D
102
}
102
{ACAD_REACTORS
330
C3
102
}
330
C3
100
AcDbVisualStyle
  2
Facepattern
 70
    15
177
     2
291
     1
 71
     2
176
     1
 72
     2
176
     1
 73
     0
176
     1
 90
        0
176
     1
 40
0.6
176
     1
 41
30.0
176
     1
 63
     7
421
 16777215
176
     1
 74
     1
176
     1
 91
        4
176
     1
 64
     7
176
     1
 65
   257
176
     1
 75
     1
176
     1
175
     1
176
     1
 42
1.0
176
     1
 92
        8
176
     1
 66
     7
176
     1
 43
1.0
176
     1
 76
     1
176
     1
 77
     6
176
     1
 78
     2
176
     1
 67
     7
176
     1
 79
     5
176
     1
170
     0
176
     1
171
     0
176
     1
290
     0
176
     1
 93
        1
176
     1
 44
0.0
176
     1
173
     0
176
     1
1001
ACAD
1000
AcDbSavedByObjectVersion
1070
     0
  0
VISUALSTYLE
  5
C4
102
{ACAD_XDICTIONARY
360
171
102
}
102
{ACAD_REACTORS
330
C3
102
}
330
C3
100
AcDbVisualStyle
  2
Flat
 70
     0
177
     2
291
     1
 71
     2
176
     1
 72
     1
176
     1
 73
     1
176
     1
 90
        2
176
     1
 40
0.6
176
     1
 41
30.0
176
     1
 63
     7
421
 16777215
176
     1
 74
     0
176
     1
 91
        0
176
     1
 64
     7
176
     1
 65
   257
176
     1
 75
     1
176
     1
175
     1
176
     1
 42
1.0
176
     1
 92
        8
176
     1
 66
     7
176
     1
 43
1.0
176
     1
 76
     1
176
     1
 77
     6
176
     1
 78
     2
176
     1
 67
     7
176
     1
 79
     5
176
     1
170
     0
176
     1
171
     0
176
     1
290
     0
176
     1
 93
       13
176
     1
 44
0.0
176
     1
173
     0
176
     1
1001
ACAD
1000
AcDbSavedByObjectVersion
1070
     0
  0
VISUALSTYLE
  5
C5
102
{ACAD_XDICTIONARY
360
173
102
}
102
{ACAD_REACTORS
330
C3
102
}
330
C3
100
AcDbVisualStyle
  2
FlatWithEdges
 70
     1
177
     2
291
     1
 71
     2
176
     1
 72
     1
176
     1
 73
     1
176
     1
 90
        2
176
     1
 40
0.6
176
     1
 41
30.0
176
     1
 63
     7
421
 16777215
176
     1
 74
     1
176
     1
 91
        0
176
     1
 64
     7
176
     1
 65
   257
176
     1
 75
     1
176
     1
175
     1
176
     1
 42
1.0
176
     1
 92
        0
176
     1
 66
   257
176
     1
 43
1.0
176
     1
 76
     1
176
     1
 77
     6
176
     1
 78
     2
176
     1
 67
     7
176
     1
 79
     5
176
     1
170
     0
176
     1
171
     0
176
     1
290
     0
176
     1
 93
       13
176
     1
 44
0.0
176
     1
173
     0
176
     1
1001
ACAD
1000
AcDbSavedByObjectVersion
1070
     0
  0
VISUALSTYLE
  5
C6
102
{ACAD_XDICTIONARY
360
175
102
}
102
{ACAD_REACTORS
330
C3
102
}
330
C3
100
AcDbVisualStyle
  2
Gouraud
 70
     2
177
     2
291
     1
 71
     2
176
     1
 72
     2
176
     1
 73
     1
176
     1
 90
        2
176
     1
 40
0.6
176
     1
 41
30.0
176
     1
 63
     7
421
 16777215
176
     1
 74
     0
176
     1
 91
        0
176
     1
 64
     7
176
     1
 65
   257
176
     1
 75
     1
176
     1
175
     1
176
     1
 42
1.0
176
     1
 92
        0
176
     1
 66
     7
176
     1
 43
1.0
176
     1
 76
     1
176
     1
 77
     6
176
     1
 78
     2
176
     1
 67
     7
176
     1
 79
     5
176
     1
170
     0
176
     1
171
     0
176
     1
290
     0
176
     1
 93
       13
176
     1
 44
0.0
176
     1
173
     0
176
     1
1001
ACAD
1000
AcDbSavedByObjectVersion
1070
     0
  0
VISUALSTYLE
  5
C7
102
{ACAD_XDICTIONARY
360
177
102
}
102
{ACAD_REACTORS
330
C3
102
}
330
C3
100
AcDbVisualStyle
  2
GouraudWithEdges
 70
     3
177
     2
291
     1
 71
     2
176
     1
 72
     2
176
     1
 73
     1
176
     1
 90
        2
176
     1
 40
0.6
176
     1
 41
30.0
176
     1
 63
     7
421
 16777215
176
     1
 74
     1
176
     1
 91
        0
176
     1
 64
     7
176
     1
 65
   257
176
     1
 75
     1
176
     1
175
     1
176
     1
 42
1.0
176
     1
 92
        0
176
     1
 66
   257
176
     1
 43
1.0
176
     1
 76
     1
176
     1
 77
     6
176
     1
 78
     2
176
     1
 67
     7
176
     1
 79
     5
176
     1
170
     0
176
     1
171
     0
176
     1
290
     0
176
     1
 93
       13
176
     1
 44
0.0
176
     1
173
     0
176
     1
1001
ACAD
1000
AcDbSavedByObjectVersion
1070
     0
  0
VISUALSTYLE
  5
CB
102
{ACAD_XDICTIONARY
360
17F
102
}
102
{ACAD_REACTORS
330
C3
102
}
330
C3
100
AcDbVisualStyle
  2
Hidden
 70
     6
177
     2
291
     0
 71
     1
176
     1
 72
     2
176
     1
 73
     2
176
     1
 90
        0
176
     1
 40
0.6
176
     1
 41
30.0
176
     1
 63
     7
421
 16777215
176
     1
 74
     2
176
     1
 91
        2
176
     1
 64
     7
176
     1
 65
   257
176
     1
 75
     2
176
     1
175
     1
176
     1
 42
40.0
176
     1
 92
        0
176
     1
 66
   257
176
     1
 43
1.0
176
     1
 76
     1
176
     1
 77
     6
176
     1
 78
     2
176
     1
 67
     7
176
     1
 79
     3
176
     1
170
     0
176
     1
171
     0
176
     1
290
     0
176
     1
 93
        1
176
     1
 44
0.0
176
     1
173
     0
176
     1
1001
ACAD
1000
AcDbSavedByObjectVersion
1070
     0
  0
VISUALSTYLE
  5
D9
102
{ACAD_XDICTIONARY
360
19B
102
}
102
{ACAD_REACTORS
330
C3
102
}
330
C3
100
AcDbVisualStyle
  2
JitterOff
 70
    20
177
     2
291
     1
 71
     2
176
     0
 72
     2
176
     0
 73
     0
176
     0
 90
        0
176
     0
 40
0.6
176
     0
 41
30.0
176
     0
 63
     7
421
 16777215
176
     0
 74
     1
176
     0
 91
        4
176
     0
 64
     7
176
     0
 65
   257
176
     0
 75
     1
176
     0
175
     1
176
     0
 42
1.0
176
     0
 92
       10
176
     2
 66
     7
176
     0
 43
1.0
176
     0
 76
     1
176
     0
 77
     6
176
     0
 78
     2
176
     0
 67
     7
176
     0
 79
     5
176
     0
170
     0
176
     0
171
     0
176
     0
290
     0
176
     0
 93
        1
176
     0
 44
0.0
176
     0
173
     0
176
     0
1001
ACAD
1000
AcDbSavedByObjectVersion
1070
     0
  0
VISUALSTYLE
  5
D1
102
{ACAD_XDICTIONARY
360
18B
102
}
102
{ACAD_REACTORS
330
C3
102
}
330
C3
100
AcDbVisualStyle
  2
Linepattern
 70
    14
177
     2
291
     1
 71
     2
176
     1
 72
     2
176
     1
 73
     0
176
     1
 90
        0
176
     1
 40
0.6
176
     1
 41
30.0
176
     1
 63
     7
421
 16777215
176
     1
 74
     1
176
     1
 91
        4
176
     1
 64
     7
176
     1
 65
   257
176
     1
 75
     7
176
     1
175
     7
176
     1
 42
1.0
176
     1
 92
        8
176
     1
 66
     7
176
     1
 43
1.0
176
     1
 76
     1
176
     1
 77
     6
176
     1
 78
     2
176
     1
 67
     7
176
     1
 79
     5
176
     1
170
     0
176
     1
171
     0
176
     1
290
     0
176
     1
 93
        1
176
     1
 44
0.0
176
     1
173
     0
176
     1
1001
ACAD
1000
AcDbSavedByObjectVersion
1070
     0
  0
VISUALSTYLE
  5
DA
102
{ACAD_XDICTIONARY
360
19D
102
}
102
{ACAD_REACTORS
330
C3
102
}
330
C3
100
AcDbVisualStyle
  2
OverhangOff
 70
    21
177
     2
291
     1
 71
     2
176
     0
 72
     2
176
     0
 73
     0
176
     0
 90
        0
176
     0
 40
0.6
176
     0
 41
30.0
176
     0
 63
     7
421
 16777215
176
     0
 74
     1
176
     0
 91
        4
176
     0
 64
     7
176
     0
 65
   257
176
     0
 75
     1
176
     0
175
     1
176
     0
 42
1.0
176
     0
 92
        9
176
     2
 66
     7
176
     0
 43
1.0
176
     0
 76
     1
176
     0
 77
     6
176
     0
 78
     2
176
     0
 67
     7
176
     0
 79
     5
176
     0
170
     0
176
     0
171
     0
176
     0
290
     0
176
     0
 93
        1
176
     0
 44
0.0
176
     0
173
     0
176
     0
1001
ACAD
1000
AcDbSavedByObjectVersion
1070
     0
  0
VISUALSTYLE
  5
CD
102
{ACAD_XDICTIONARY
360
183
102
}
102
{ACAD_REACTORS
330
C3
102
}
330
C3
100
AcDbVisualStyle
  2
Realistic
 70
     8
177
     2
291
     0
 71
     2
176
     1
 72
     3
176
     1
 73
     0
176
     1
 90
        2
176
     1
 40
0.6
176
     1
 41
30.0
176
     1
 63
     7
421
 16777215
176
     1
 74
     0
176
     1
 91
        0
176
     1
 64
     7
176
     1
 65
   257
176
     1
 75
     1
176
     1
175
     1
176
     1
 42
1.0
176
     1
 92
        8
176
     1
 66
   257
176
     1
 43
1.0
176
     1
 76
     1
176
     1
 77
     6
176
     1
 78
     2
176
     1
 67
     7
176
     1
 79
     3
176
     1
170
     0
176
     1
171
     0
176
     1
290
     0
176
     1
 93
       13
176
     1
 44
0.0
176
     1
173
     0
176
     1
1001
ACAD
1000
AcDbSavedByObjectVersion
1070
     0
  0
VISUALSTYLE
  5
D8
102
{ACAD_XDICTIONARY
360
199
102
}
102
{ACAD_REACTORS
330
C3
102
}
330
C3
100
AcDbVisualStyle
  2
Shaded
 70
    27
177
     2
291
     0
 71
     2
176
     1
 72
     2
176
     1
 73
     1
176
     1
 90
        2
176
     1
 40
0.6
176
     1
 41
30.0
176
     1
 63
     7
421
 16777215
176
     1
 74
     0
176
     1
 91
        4
176
     1
 64
     7
176
     1
 65
   257
176
     1
 75
     1
176
     1
175
     1
176
     1
 42
1.0
176
     1
 92
        8
176
     1
 66
   257
176
     1
 43
1.0
176
     1
 76
     1
176
     1
 77
     6
176
     1
 78
     2
176
     1
 67
     8
425
  7895160
176
     1
 79
     3
176
     1
170
     0
176
     1
171
     0
176
     1
290
     0
176
     1
 93
        5
176
     1
 44
0.0
176
     1
173
     0
176
     1
1001
ACAD
1000
AcDbSavedByObjectVersion
1070
     0
  0
VISUALSTYLE
  5
D7
102
{ACAD_XDICTIONARY
360
197
102
}
102
{ACAD_REACTORS
330
C3
102
}
330
C3
100
AcDbVisualStyle
  2
Shaded with edges
 70
    26
177
     2
291
     0
 71
     2
176
     1
 72
     2
176
     1
 73
     1
176
     1
 90
        2
176
     1
 40
0.6
176
     1
 41
30.0
176
     1
 63
     7
421
 16777215
176
     1
 74
     1
176
     1
 91
       10
176
     1
 64
     7
176
     1
 65
   257
176
     1
 75
     2
176
     1
175
     1
176
     1
 42
1.0
176
     1
 92
        8
176
     1
 66
   257
176
     1
 43
1.0
176
     1
 76
     1
176
     1
 77
     6
176
     1
 78
     2
176
     1
 67
     7
176
     1
 79
     3
176
     1
170
     0
176
     1
171
     0
176
     1
290
     0
176
     1
 93
        5
176
     1
 44
0.0
176
     1
173
     0
176
     1
1001
ACAD
1000
AcDbSavedByObjectVersion
1070
     0
  0
VISUALSTYLE
  5
D4
102
{ACAD_XDICTIONARY
360
191
102
}
102
{ACAD_REACTORS
330
C3
102
}
330
C3
100
AcDbVisualStyle
  2
Shades of Gray
 70
    23
177
     2
291
     0
 71
     2
176
     1
 72
     2
176
     1
 73
     3
176
     1
 90
        0
176
     1
 40
0.6
176
     1
 41
30.0
176
     1
 63
     7
421
 16777215
176
     1
 74
     2
176
     1
 91
        2
176
     1
 64
     7
176
     1
 65
     7
176
     1
 75
     1
176
     1
175
     1
176
     1
 42
40.0
176
     1
 92
        8
176
     1
 66
     7
176
     1
 43
1.0
176
     1
 76
     1
176
     1
 77
     6
176
     1
 78
     2
176
     1
 67
     7
176
     1
 79
     3
176
     1
170
     0
176
     1
171
     0
176
     1
290
     0
176
     1
 93
        1
176
     1
 44
0.0
176
     1
173
     0
176
     1
1001
ACAD
1000
AcDbSavedByObjectVersion
1070
     0
  0
VISUALSTYLE
  5
D5
102
{ACAD_XDICTIONARY
360
193
102
}
102
{ACAD_REACTORS
330
C3
102
}
330
C3
100
AcDbVisualStyle
  2
Sketchy
 70
    24
177
     2
291
     0
 71
     1
176
     1
 72
     2
176
     1
 73
     2
176
     1
 90
        0
176
     1
 40
0.6
176
     1
 41
30.0
176
     1
 63
     7
421
 16777215
176
     1
 74
     2
176
     1
 91
        2
176
     1
 64
     7
176
     1
 65
     7
176
     1
 75
     1
176
     1
175
     1
176
     1
 42
40.0
176
     1
 92
       11
176
     1
 66
     7
176
     1
 43
1.0
176
     1
 76
     1
176
     1
 77
     6
176
     1
 78
     2
176
     1
 67
     7
176
     1
 79
     6
176
     1
170
     0
176
     1
171
     0
176
     1
290
     0
176
     1
 93
        1
176
     1
 44
0.0
176
     1
173
     0
176
     1
1001
ACAD
1000
AcDbSavedByObjectVersion
1070
     0
  0
VISUALSTYLE
  5
D0
102
{ACAD_XDICTIONARY
360
189
102
}
102
{ACAD_REACTORS
330
C3
102
}
330
C3
100
AcDbVisualStyle
  2
Thicken
 70
    13
177
     2
291
     1
 71
     2
176
     1
 72
     2
176
     1
 73
     0
176
     1
 90
        0
176
     1
 40
0.6
176
     1
 41
30.0
176
     1
 63
     7
421
 16777215
176
     1
 74
     1
176
     1
 91
        4
176
     1
 64
     7
176
     1
 65
   257
176
     1
 75
     1
176
     1
175
     1
176
     1
 42
1.0
176
     1
 92
       12
176
     1
 66
     7
176
     1
 43
1.0
176
     1
 76
     1
176
     1
 77
     6
176
     1
 78
     2
176
     1
 67
     7
176
     1
 79
     5
176
     1
170
     0
176
     1
171
     0
176
     1
290
     0
176
     1
 93
        1
176
     1
 44
0.0
176
     1
173
     0
176
     1
1001
ACAD
1000
AcDbSavedByObjectVersion
1070
     0
  0
VISUALSTYLE
  5
CA
102
{ACAD_XDICTIONARY
360
17D
102
}
102
{ACAD_REACTORS
330
C3
102
}
330
C3
100
AcDbVisualStyle
  2
Wireframe
 70
     5
177
     2
291
     0
 71
     0
176
     1
 72
     2
176
     1
 73
     0
176
     1
 90
        0
176
     1
 40
0.6
176
     1
 41
30.0
176
     1
 63
     7
421
 16777215
176
     1
 74
     1
176
     1
 91
        4
176
     1
 64
     7
176
     1
 65
   257
176
     1
 75
     1
176
     1
175
     1
176
     1
 42
1.0
176
     1
 92
        0
176
     1
 66
   257
176
     1
 43
1.0
176
     1
 76
     1
176
     1
 77
     6
176
     1
 78
     2
176
     1
 67
     7
176
     1
 79
     3
176
     1
170
     0
176
     1
171
     0
176
     1
290
     0
176
     1
 93
        1
176
     1
 44
0.0
176
     1
173
     0
176
     1
1001
ACAD
1000
AcDbSavedByObjectVersion
1070
     0
  0
VISUALSTYLE
  5
D6
102
{ACAD_XDICTIONARY
360
195
102
}
102
{ACAD_REACTORS
330
C3
102
}
330
C3
100
AcDbVisualStyle
  2
X-Ray
 70
    25
177
     2
291
     0
 71
     2
176
     1
 72
     2
176
     1
 73
     1
176
     1
 90
        1
176
     1
 40
0.5
176
     1
 41
30.0
176
     1
 63
     7
421
 16777215
176
     1
 74
     1
176
     1
 91
        0
176
     1
 64
     7
176
     1
 65
   257
176
     1
 75
     1
176
     1
175
     1
176
     1
 42
1.0
176
     1
 92
        8
176
     1
 66
     7
176
     1
 43
1.0
176
     1
 76
     1
176
     1
 77
     6
176
     1
 78
     2
176
     1
 67
     7
176
     1
 79
     3
176
     1
170
     0
176
     1
171
     0
176
     1
290
     0
176
     1
 93
       13
176
     1
 44
0.0
176
     1
173
     0
176
     1
1001
ACAD
1000
AcDbSavedByObjectVersion
1070
     0
  0
DICTIONARYVAR
  5
16A
102
{ACAD_REACTORS
330
164
102
}
330
164
100
DictionaryVariables
280
     0
  1
1:1
  0
DICTIONARYVAR
  5
166
102
{ACAD_REACTORS
330
164
102
}
330
164
100
DictionaryVariables
280
     0
  1
STANDARD
  0
DICTIONARYVAR
  5
165
102
{ACAD_REACTORS
330
164
102
}
330
164
100
DictionaryVariables
280
     0
  1
STANDARD
  0
DICTIONARYVAR
  5
167
102
{ACAD_REACTORS
330
164
102
}
330
164
100
DictionaryVariables
280
     0
  1
Imperial24
  0
DICTIONARYVAR
  5
168
102
{ACAD_REACTORS
330
164
102
}
330
164
100
DictionaryVariables
280
     0
  1
Imperial24
  0
DICTIONARYVAR
  5
16C
102
{ACAD_REACTORS
330
164
102
}
330
164
100
DictionaryVariables
280
     0
  1
1
  0
DICTIONARYVAR
  5
16D
102
{ACAD_REACTORS
330
164
102
}
330
164
100
DictionaryVariables
280
     0
  1
15
  0
DICTIONARYVAR
  5
16B
102
{ACAD_REACTORS
330
164
102
}
330
164
100
DictionaryVariables
280
     0
  1
0
  0
DICTIONARYVAR
  5
169
102
{ACAD_REACTORS
330
164
102
}
330
164
100
DictionaryVariables
280
     0
  1
0
  0
DICTIONARY
  5
1A5
330
F6
100
AcDbDictionary
280
     1
281
     1
  3
ACAD_XREC_ROUNDTRIP
360
1A6
  0
DICTIONARY
  5
B4
330
B3
100
AcDbDictionary
280
     1
281
     1
  3
BUMPTILE
360
B6
  3
DIFFUSETILE
360
B5
  3
OPACITYTILE
360
B9
  3
REFLECTIONTILE
360
B8
  3
REFRACTIONTILE
360
BA
  3
SPECULARTILE
360
B7
  0
DICTIONARY
  5
AC
330
AB
100
AcDbDictionary
280
     1
281
     1
  3
BUMPTILE
360
AE
  3
DIFFUSETILE
360
AD
  3
OPACITYTILE
360
B1
  3
REFLECTIONTILE
360
B0
  3
REFRACTIONTILE
360
B2
  3
SPECULARTILE
360
AF
  0
DICTIONARY
  5
BC
330
BB
100
AcDbDictionary
280
     1
281
     1
  3
BUMPTILE
360
BE
  3
DIFFUSETILE
360
BD
  3
OPACITYTILE
360
C1
  3
REFLECTIONTILE
360
C0
  3
REFRACTIONTILE
360
C2
  3
SPECULARTILE
360
BF
  0
DICTIONARY
  5
1A1
330
F2
100
AcDbDictionary
280
     1
281
     1
  3
ACAD_XREC_ROUNDTRIP
360
1A2
  0
DICTIONARY
  5
1A3
330
F4
100
AcDbDictionary
280
     1
281
     1
  3
ACAD_XREC_ROUNDTRIP
360
1A4
  0
DICTIONARY
  5
16E
330
DE
100
AcDbDictionary
280
     1
281
     1
  3
ACAD_ROUNDTRIP_2008_TABLESTYLE_CELLSTYLEMAP
360
16F
  0
DICTIONARY
  5
17B
330
C9
100
AcDbDictionary
280
     1
281
     1
  3
ACAD_XREC_ROUNDTRIP
360
17C
  0
DICTIONARY
  5
179
330
C8
100
AcDbDictionary
280
     1
281
     1
  3
ACAD_XREC_ROUNDTRIP
360
17A
  0
DICTIONARY
  5
187
330
CF
100
AcDbDictionary
280
     1
281
     1
  3
ACAD_XREC_ROUNDTRIP
360
188
  0
DICTIONARY
  5
18F
330
D3
100
AcDbDictionary
280
     1
281
     1
  3
ACAD_XREC_ROUNDTRIP
360
190
  0
DICTIONARY
  5
181
330
CC
100
AcDbDictionary
280
     1
281
     1
  3
ACAD_XREC_ROUNDTRIP
360
182
  0
DICTIONARY
  5
185
330
CE
100
AcDbDictionary
280
     1
281
     1
  3
ACAD_XREC_ROUNDTRIP
360
186
  0
DICTIONARY
  5
19F
330
DB
100
AcDbDictionary
280
     1
281
     1
  3
ACAD_XREC_ROUNDTRIP
360
1A0
  0
DICTIONARY
  5
18D
330
D2
100
AcDbDictionary
280
     1
281
     1
  3
ACAD_XREC_ROUNDTRIP
360
18E
  0
DICTIONARY
  5
171
330
C4
100
AcDbDictionary
280
     1
281
     1
  3
ACAD_XREC_ROUNDTRIP
360
172
  0
DICTIONARY
  5
173
330
C5
100
AcDbDictionary
280
     1
281
     1
  3
ACAD_XREC_ROUNDTRIP
360
174
  0
DICTIONARY
  5
175
330
C6
100
AcDbDictionary
280
     1
281
     1
  3
ACAD_XREC_ROUNDTRIP
360
176
  0
DICTIONARY
  5
177
330
C7
100
AcDbDictionary
280
     1
281
     1
  3
ACAD_XREC_ROUNDTRIP
360
178
  0
DICTIONARY
  5
17F
330
CB
100
AcDbDictionary
280
     1
281
     1
  3
ACAD_XREC_ROUNDTRIP
360
180
  0
DICTIONARY
  5
19B
330
D9
100
AcDbDictionary
280
     1
281
     1
  3
ACAD_XREC_ROUNDTRIP
360
19C
  0
DICTIONARY
  5
18B
330
D1
100
AcDbDictionary
280
     1
281
     1
  3
ACAD_XREC_ROUNDTRIP
360
18C
  0
DICTIONARY
  5
19D
330
DA
100
AcDbDictionary
280
     1
281
     1
  3
ACAD_XREC_ROUNDTRIP
360
19E
  0
DICTIONARY
  5
183
330
CD
100
AcDbDictionary
280
     1
281
     1
  3
ACAD_XREC_ROUNDTRIP
360
184
  0
DICTIONARY
  5
199
330
D8
100
AcDbDictionary
280
     1
281
     1
  3
ACAD_XREC_ROUNDTRIP
360
19A
  0
DICTIONARY
  5
197
330
D7
100
AcDbDictionary
280
     1
281
     1
  3
ACAD_XREC_ROUNDTRIP
360
198
  0
DICTIONARY
  5
191
330
D4
100
AcDbDictionary
280
     1
281
     1
  3
ACAD_XREC_ROUNDTRIP
360
192
  0
DICTIONARY
  5
193
330
D5
100
AcDbDictionary
280
     1
281
     1
  3
ACAD_XREC_ROUNDTRIP
360
194
  0
DICTIONARY
  5
189
330
D0
100
AcDbDictionary
280
     1
281
     1
  3
ACAD_XREC_ROUNDTRIP
360
18A
  0
DICTIONARY
  5
17D
330
CA
100
AcDbDictionary
280
     1
281
     1
  3
ACAD_XREC_ROUNDTRIP
360
17E
  0
DICTIONARY
  5
195
330
D6
100
AcDbDictionary
280
     1
281
     1
  3
ACAD_XREC_ROUNDTRIP
360
196
  0
XRECORD
  5
1A6
102
{ACAD_REACTORS
330
1A5
102
}
330
1A5
100
AcDbXrecord
280
     1
102
DISPLAYNAME
  1
Imperial24
102
FLAGS
 90
        0
  0
XRECORD
  5
B6
102
{ACAD_REACTORS
330
B4
102
}
330
B4
100
AcDbXrecord
280
     1
270
     1
271
     1
  0
XRECORD
  5
B5
102
{ACAD_REACTORS
330
B4
102
}
330
B4
100
AcDbXrecord
280
     1
270
     1
271
     1
  0
XRECORD
  5
B9
102
{ACAD_REACTORS
330
B4
102
}
330
B4
100
AcDbXrecord
280
     1
270
     1
271
     1
  0
XRECORD
  5
B8
102
{ACAD_REACTORS
330
B4
102
}
330
B4
100
AcDbXrecord
280
     1
270
     1
271
     1
  0
XRECORD
  5
BA
102
{ACAD_REACTORS
330
B4
102
}
330
B4
100
AcDbXrecord
280
     1
270
     1
271
     1
  0
XRECORD
  5
B7
102
{ACAD_REACTORS
330
B4
102
}
330
B4
100
AcDbXrecord
280
     1
270
     1
271
     1
  0
XRECORD
  5
AE
102
{ACAD_REACTORS
330
AC
102
}
330
AC
100
AcDbXrecord
280
     1
270
     1
271
     1
  0
XRECORD
  5
AD
102
{ACAD_REACTORS
330
AC
102
}
330
AC
100
AcDbXrecord
280
     1
270
     1
271
     1
  0
XRECORD
  5
B1
102
{ACAD_REACTORS
330
AC
102
}
330
AC
100
AcDbXrecord
280
     1
270
     1
271
     1
  0
XRECORD
  5
B0
102
{ACAD_REACTORS
330
AC
102
}
330
AC
100
AcDbXrecord
280
     1
270
     1
271
     1
  0
XRECORD
  5
B2
102
{ACAD_REACTORS
330
AC
102
}
330
AC
100
AcDbXrecord
280
     1
270
     1
271
     1
  0
XRECORD
  5
AF
102
{ACAD_REACTORS
330
AC
102
}
330
AC
100
AcDbXrecord
280
     1
270
     1
271
     1
  0
XRECORD
  5
BE
102
{ACAD_REACTORS
330
BC
102
}
330
BC
100
AcDbXrecord
280
     1
270
     1
271
     1
  0
XRECORD
  5
BD
102
{ACAD_REACTORS
330
BC
102
}
330
BC
100
AcDbXrecord
280
     1
270
     1
271
     1
  0
XRECORD
  5
C1
102
{ACAD_REACTORS
330
BC
102
}
330
BC
100
AcDbXrecord
280
     1
270
     1
271
     1
  0
XRECORD
  5
C0
102
{ACAD_REACTORS
330
BC
102
}
330
BC
100
AcDbXrecord
280
     1
270
     1
271
     1
  0
XRECORD
  5
C2
102
{ACAD_REACTORS
330
BC
102
}
330
BC
100
AcDbXrecord
280
     1
270
     1
271
     1
  0
XRECORD
  5
BF
102
{ACAD_REACTORS
330
BC
102
}
330
BC
100
AcDbXrecord
280
     1
270
     1
271
     1
  0
XRECORD
  5
1A2
102
{ACAD_REACTORS
330
1A1
102
}
330
1A1
100
AcDbXrecord
280
     1
102
ACAD_ROUNDTRIP_2012_MLEADER_STYLE
298
     1
  0
XRECORD
  5
1A4
102
{ACAD_REACTORS
330
1A3
102
}
330
1A3
100
AcDbXrecord
280
     1
102
DISPLAYNAME
  1
Imperial24
102
FLAGS
 90
        0
  0
CELLSTYLEMAP
  5
16F
102
{ACAD_REACTORS
330
16E
102
}
330
16E
100
AcDbCellStyleMap
 90
        3
300
CELLSTYLE
  1
TABLEFORMAT_BEGIN
 90
        5
170
     1
 91
        0
 92
    32768
 62
   257
 93
        1
300
CONTENTFORMAT
  1
CONTENTFORMAT_BEGIN
 90
        0
 91
        0
 92
      512
 93
        0
300

 40
0.0
140
1.0
 94
        5
 62
     0
340
11
144
0.25
309
CONTENTFORMAT_END
171
     0
 94
        0
309
TABLEFORMAT_END
  1
CELLSTYLE_BEGIN
 90
        1
 91
        1
300
_TITLE
309
CELLSTYLE_END
300
CELLSTYLE
  1
TABLEFORMAT_BEGIN
 90
        5
170
     1
 91
        0
 92
        0
 62
   257
 93
        1
300
CONTENTFORMAT
  1
CONTENTFORMAT_BEGIN
 90
        0
 91
        0
 92
      512
 93
        0
300

 40
0.0
140
1.0
 94
        5
 62
     0
340
11
144
0.18
309
CONTENTFORMAT_END
171
     0
 94
        0
309
TABLEFORMAT_END
  1
CELLSTYLE_BEGIN
 90
        2
 91
        1
300
_HEADER
309
CELLSTYLE_END
300
CELLSTYLE
  1
TABLEFORMAT_BEGIN
 90
        5
170
     1
 91
        0
 92
        0
 62
   257
 93
        1
300
CONTENTFORMAT
  1
CONTENTFORMAT_BEGIN
 90
        0
 91
        0
 92
      512
 93
        0
300

 40
0.0
140
1.0
 94
        2
 62
     0
340
11
144
0.18
309
CONTENTFORMAT_END
171
     0
 94
        0
309
TABLEFORMAT_END
  1
CELLSTYLE_BEGIN
 90
        3
 91
        2
300
_DATA
309
CELLSTYLE_END
  0
XRECORD
  5
17C
102
{ACAD_REACTORS
330
17B
102
}
330
17B
100
AcDbXrecord
280
     1
102
RTVSPost2010Prop28
280
     1
102
RTVSPost2010PropOp28
 70
     1
102
RTVSPost2010Prop29
280
     1
102
RTVSPost2010PropOp29
 70
     1
102
RTVSPost2010Prop30
280
     0
102
RTVSPost2010PropOp30
 70
     1
102
RTVSPost2010Prop31
280
     0
102
RTVSPost2010PropOp31
 70
     1
102
RTVSPost2010Prop32
280
     0
102
RTVSPost2010PropOp32
 70
     1
102
RTVSPost2010Prop33
280
     0
102
RTVSPost2010PropOp33
 70
     1
102
RTVSPost2010Prop34
280
     0
102
RTVSPost2010PropOp34
 70
     1
102
RTVSPost2010Prop35
280
     0
102
RTVSPost2010PropOp35
 70
     1
102
RTVSPost2010Prop36
280
     0
102
RTVSPost2010PropOp36
 70
     1
102
RTVSPost2010Prop37
 90
       50
102
RTVSPost2010PropOp37
 70
     1
102
RTVSPost2010Prop38
140
0.0
102
RTVSPost2010PropOp38
 70
     1
102
RTVSPost2010Prop39
140
1.0
102
RTVSPost2010PropOp39
 70
     1
102
RTVSPost2010Prop40
 90
        0
102
RTVSPost2010PropOp40
 70
     1
102
RTVSPost2010Prop41ColorIndex
 90
       18
102
RTVSPost2010Prop41ColorRGB
 90
        0
102
RTVSPost2010PropOp41
 70
     1
102
RTVSPost2010Prop42
 90
       50
102
RTVSPost2010PropOp42
 70
     1
102
RTVSPost2010Prop43
 90
        3
102
RTVSPost2010PropOp43
 70
     1
102
RTVSPost2010Prop44ColorIndex
 90
        5
102
RTVSPost2010Prop44ColorRGB
 90
      255
102
RTVSPost2010PropOp44
 70
     1
102
RTVSPost2010Prop45
280
     0
102
RTVSPost2010PropOp45
 70
     1
102
RTVSPost2010Prop46
 90
       50
102
RTVSPost2010PropOp46
 70
     1
102
RTVSPost2010Prop47
 90
       50
102
RTVSPost2010PropOp47
 70
     1
102
RTVSPost2010Prop48
 90
       50
102
RTVSPost2010PropOp48
 70
     1
102
RTVSPost2010Prop49
280
     0
102
RTVSPost2010PropOp49
 70
     1
102
RTVSPost2010Prop50
 90
       50
102
RTVSPost2010PropOp50
 70
     1
102
RTVSPost2010Prop51ColorIndex
 90
      256
102
RTVSPost2010Prop51ColorRGB
 90
-16777216
102
RTVSPost2010PropOp51
 70
     0
102
RTVSPost2010Prop52
140
1.0
102
RTVSPost2010PropOp52
 70
     0
102
RTVSPost2010Prop53
 90
        2
102
RTVSPost2010PropOp53
 70
     1
102
RTVSPost2010Prop54
  1
strokes_ogs.tif
102
RTVSPost2010PropOp54
 70
     1
102
RTVSPost2010Prop55
280
     0
102
RTVSPost2010PropOp55
 70
     1
102
RTVSPost2010Prop56
140
1.0
102
RTVSPost2010PropOp56
 70
     1
102
RTVSPost2010Prop57
140
1.0
102
RTVSPost2010PropOp57
 70
     1
  0
XRECORD
  5
17A
102
{ACAD_REACTORS
330
179
102
}
330
179
100
AcDbXrecord
280
     1
102
RTVSPost2010Prop28
280
     0
102
RTVSPost2010PropOp28
 70
     1
102
RTVSPost2010Prop29
280
     1
102
RTVSPost2010PropOp29
 70
     1
102
RTVSPost2010Prop30
280
     1
102
RTVSPost2010PropOp30
 70
     1
102
RTVSPost2010Prop31
280
     0
102
RTVSPost2010PropOp31
 70
     1
102
RTVSPost2010Prop32
280
     0
102
RTVSPost2010PropOp32
 70
     1
102
RTVSPost2010Prop33
280
     0
102
RTVSPost2010PropOp33
 70
     1
102
RTVSPost2010Prop34
280
     0
102
RTVSPost2010PropOp34
 70
     1
102
RTVSPost2010Prop35
280
     0
102
RTVSPost2010PropOp35
 70
     1
102
RTVSPost2010Prop36
280
     0
102
RTVSPost2010PropOp36
 70
     1
102
RTVSPost2010Prop37
 90
       50
102
RTVSPost2010PropOp37
 70
     1
102
RTVSPost2010Prop38
140
0.0
102
RTVSPost2010PropOp38
 70
     1
102
RTVSPost2010Prop39
140
1.0
102
RTVSPost2010PropOp39
 70
     1
102
RTVSPost2010Prop40
 90
        0
102
RTVSPost2010PropOp40
 70
     1
102
RTVSPost2010Prop41ColorIndex
 90
       18
102
RTVSPost2010Prop41ColorRGB
 90
        0
102
RTVSPost2010PropOp41
 70
     1
102
RTVSPost2010Prop42
 90
       50
102
RTVSPost2010PropOp42
 70
     1
102
RTVSPost2010Prop43
 90
        3
102
RTVSPost2010PropOp43
 70
     1
102
RTVSPost2010Prop44ColorIndex
 90
        5
102
RTVSPost2010Prop44ColorRGB
 90
      255
102
RTVSPost2010PropOp44
 70
     1
102
RTVSPost2010Prop45
280
     0
102
RTVSPost2010PropOp45
 70
     1
102
RTVSPost2010Prop46
 90
       50
102
RTVSPost2010PropOp46
 70
     1
102
RTVSPost2010Prop47
 90
       50
102
RTVSPost2010PropOp47
 70
     1
102
RTVSPost2010Prop48
 90
       50
102
RTVSPost2010PropOp48
 70
     1
102
RTVSPost2010Prop49
280
     0
102
RTVSPost2010PropOp49
 70
     1
102
RTVSPost2010Prop50
 90
       50
102
RTVSPost2010PropOp50
 70
     1
102
RTVSPost2010Prop51ColorIndex
 90
      256
102
RTVSPost2010Prop51ColorRGB
 90
-16777216
102
RTVSPost2010PropOp51
 70
     0
102
RTVSPost2010Prop52
140
1.0
102
RTVSPost2010PropOp52
 70
     0
102
RTVSPost2010Prop53
 90
        2
102
RTVSPost2010PropOp53
 70
     1
102
RTVSPost2010Prop54
  1
strokes_ogs.tif
102
RTVSPost2010PropOp54
 70
     1
102
RTVSPost2010Prop55
280
     0
102
RTVSPost2010PropOp55
 70
     1
102
RTVSPost2010Prop56
140
1.0
102
RTVSPost2010PropOp56
 70
     1
102
RTVSPost2010Prop57
140
1.0
102
RTVSPost2010PropOp57
 70
     1
  0
XRECORD
  5
188
102
{ACAD_REACTORS
330
187
102
}
330
187
100
AcDbXrecord
280
     1
102
RTVSPost2010Prop28
280
     0
102
RTVSPost2010PropOp28
 70
     1
102
RTVSPost2010Prop29
280
     1
102
RTVSPost2010PropOp29
 70
     1
102
RTVSPost2010Prop30
280
     1
102
RTVSPost2010PropOp30
 70
     1
102
RTVSPost2010Prop31
280
     0
102
RTVSPost2010PropOp31
 70
     1
102
RTVSPost2010Prop32
280
     0
102
RTVSPost2010PropOp32
 70
     1
102
RTVSPost2010Prop33
280
     0
102
RTVSPost2010PropOp33
 70
     1
102
RTVSPost2010Prop34
280
     0
102
RTVSPost2010PropOp34
 70
     1
102
RTVSPost2010Prop35
280
     0
102
RTVSPost2010PropOp35
 70
     1
102
RTVSPost2010Prop36
280
     0
102
RTVSPost2010PropOp36
 70
     1
102
RTVSPost2010Prop37
 90
       50
102
RTVSPost2010PropOp37
 70
     1
102
RTVSPost2010Prop38
140
0.0
102
RTVSPost2010PropOp38
 70
     1
102
RTVSPost2010Prop39
140
1.0
102
RTVSPost2010PropOp39
 70
     1
102
RTVSPost2010Prop40
 90
        0
102
RTVSPost2010PropOp40
 70
     1
102
RTVSPost2010Prop41ColorIndex
 90
       18
102
RTVSPost2010Prop41ColorRGB
 90
        0
102
RTVSPost2010PropOp41
 70
     1
102
RTVSPost2010Prop42
 90
       50
102
RTVSPost2010PropOp42
 70
     1
102
RTVSPost2010Prop43
 90
        3
102
RTVSPost2010PropOp43
 70
     1
102
RTVSPost2010Prop44ColorIndex
 90
        5
102
RTVSPost2010Prop44ColorRGB
 90
      255
102
RTVSPost2010PropOp44
 70
     1
102
RTVSPost2010Prop45
280
     0
102
RTVSPost2010PropOp45
 70
     1
102
RTVSPost2010Prop46
 90
       50
102
RTVSPost2010PropOp46
 70
     1
102
RTVSPost2010Prop47
 90
       50
102
RTVSPost2010PropOp47
 70
     1
102
RTVSPost2010Prop48
 90
       50
102
RTVSPost2010PropOp48
 70
     1
102
RTVSPost2010Prop49
280
     0
102
RTVSPost2010PropOp49
 70
     1
102
RTVSPost2010Prop50
 90
       50
102
RTVSPost2010PropOp50
 70
     1
102
RTVSPost2010Prop51ColorIndex
 90
      256
102
RTVSPost2010Prop51ColorRGB
 90
-16777216
102
RTVSPost2010PropOp51
 70
     0
102
RTVSPost2010Prop52
140
1.0
102
RTVSPost2010PropOp52
 70
     0
102
RTVSPost2010Prop53
 90
        2
102
RTVSPost2010PropOp53
 70
     1
102
RTVSPost2010Prop54
  1
strokes_ogs.tif
102
RTVSPost2010PropOp54
 70
     1
102
RTVSPost2010Prop55
280
     0
102
RTVSPost2010PropOp55
 70
     1
102
RTVSPost2010Prop56
140
1.0
102
RTVSPost2010PropOp56
 70
     1
102
RTVSPost2010Prop57
140
1.0
102
RTVSPost2010PropOp57
 70
     1
  0
XRECORD
  5
190
102
{ACAD_REACTORS
330
18F
102
}
330
18F
100
AcDbXrecord
280
     1
102
RTVSPost2010Prop28
280
     0
102
RTVSPost2010PropOp28
 70
     1
102
RTVSPost2010Prop29
280
     1
102
RTVSPost2010PropOp29
 70
     1
102
RTVSPost2010Prop30
280
     1
102
RTVSPost2010PropOp30
 70
     1
102
RTVSPost2010Prop31
280
     0
102
RTVSPost2010PropOp31
 70
     1
102
RTVSPost2010Prop32
280
     0
102
RTVSPost2010PropOp32
 70
     1
102
RTVSPost2010Prop33
280
     0
102
RTVSPost2010PropOp33
 70
     1
102
RTVSPost2010Prop34
280
     0
102
RTVSPost2010PropOp34
 70
     1
102
RTVSPost2010Prop35
280
     0
102
RTVSPost2010PropOp35
 70
     1
102
RTVSPost2010Prop36
280
     0
102
RTVSPost2010PropOp36
 70
     1
102
RTVSPost2010Prop37
 90
       50
102
RTVSPost2010PropOp37
 70
     1
102
RTVSPost2010Prop38
140
0.0
102
RTVSPost2010PropOp38
 70
     1
102
RTVSPost2010Prop39
140
1.0
102
RTVSPost2010PropOp39
 70
     1
102
RTVSPost2010Prop40
 90
        0
102
RTVSPost2010PropOp40
 70
     1
102
RTVSPost2010Prop41ColorIndex
 90
       18
102
RTVSPost2010Prop41ColorRGB
 90
        0
102
RTVSPost2010PropOp41
 70
     1
102
RTVSPost2010Prop42
 90
       50
102
RTVSPost2010PropOp42
 70
     1
102
RTVSPost2010Prop43
 90
        3
102
RTVSPost2010PropOp43
 70
     1
102
RTVSPost2010Prop44ColorIndex
 90
        5
102
RTVSPost2010Prop44ColorRGB
 90
      255
102
RTVSPost2010PropOp44
 70
     1
102
RTVSPost2010Prop45
280
     0
102
RTVSPost2010PropOp45
 70
     1
102
RTVSPost2010Prop46
 90
       50
102
RTVSPost2010PropOp46
 70
     1
102
RTVSPost2010Prop47
 90
       50
102
RTVSPost2010PropOp47
 70
     1
102
RTVSPost2010Prop48
 90
       50
102
RTVSPost2010PropOp48
 70
     1
102
RTVSPost2010Prop49
280
     0
102
RTVSPost2010PropOp49
 70
     1
102
RTVSPost2010Prop50
 90
       50
102
RTVSPost2010PropOp50
 70
     1
102
RTVSPost2010Prop51ColorIndex
 90
      256
102
RTVSPost2010Prop51ColorRGB
 90
-16777216
102
RTVSPost2010PropOp51
 70
     0
102
RTVSPost2010Prop52
140
1.0
102
RTVSPost2010PropOp52
 70
     0
102
RTVSPost2010Prop53
 90
        2
102
RTVSPost2010PropOp53
 70
     1
102
RTVSPost2010Prop54
  1
strokes_ogs.tif
102
RTVSPost2010PropOp54
 70
     1
102
RTVSPost2010Prop55
280
     0
102
RTVSPost2010PropOp55
 70
     1
102
RTVSPost2010Prop56
140
1.0
102
RTVSPost2010PropOp56
 70
     1
102
RTVSPost2010Prop57
140
1.0
102
RTVSPost2010PropOp57
 70
     1
  0
XRECORD
  5
182
102
{ACAD_REACTORS
330
181
102
}
330
181
100
AcDbXrecord
280
     1
102
RTVSPost2010Prop28
280
     0
102
RTVSPost2010PropOp28
 70
     1
102
RTVSPost2010Prop29
280
     1
102
RTVSPost2010PropOp29
 70
     1
102
RTVSPost2010Prop30
280
     1
102
RTVSPost2010PropOp30
 70
     1
102
RTVSPost2010Prop31
280
     0
102
RTVSPost2010PropOp31
 70
     1
102
RTVSPost2010Prop32
280
     0
102
RTVSPost2010PropOp32
 70
     1
102
RTVSPost2010Prop33
280
     0
102
RTVSPost2010PropOp33
 70
     1
102
RTVSPost2010Prop34
280
     0
102
RTVSPost2010PropOp34
 70
     1
102
RTVSPost2010Prop35
280
     0
102
RTVSPost2010PropOp35
 70
     1
102
RTVSPost2010Prop36
280
     0
102
RTVSPost2010PropOp36
 70
     1
102
RTVSPost2010Prop37
 90
       50
102
RTVSPost2010PropOp37
 70
     1
102
RTVSPost2010Prop38
140
0.0
102
RTVSPost2010PropOp38
 70
     1
102
RTVSPost2010Prop39
140
1.0
102
RTVSPost2010PropOp39
 70
     1
102
RTVSPost2010Prop40
 90
        0
102
RTVSPost2010PropOp40
 70
     1
102
RTVSPost2010Prop41ColorIndex
 90
       18
102
RTVSPost2010Prop41ColorRGB
 90
        0
102
RTVSPost2010PropOp41
 70
     1
102
RTVSPost2010Prop42
 90
       50
102
RTVSPost2010PropOp42
 70
     1
102
RTVSPost2010Prop43
 90
        3
102
RTVSPost2010PropOp43
 70
     1
102
RTVSPost2010Prop44ColorIndex
 90
        5
102
RTVSPost2010Prop44ColorRGB
 90
      255
102
RTVSPost2010PropOp44
 70
     1
102
RTVSPost2010Prop45
280
     0
102
RTVSPost2010PropOp45
 70
     1
102
RTVSPost2010Prop46
 90
       50
102
RTVSPost2010PropOp46
 70
     1
102
RTVSPost2010Prop47
 90
       50
102
RTVSPost2010PropOp47
 70
     1
102
RTVSPost2010Prop48
 90
       50
102
RTVSPost2010PropOp48
 70
     1
102
RTVSPost2010Prop49
280
     0
102
RTVSPost2010PropOp49
 70
     1
102
RTVSPost2010Prop50
 90
       50
102
RTVSPost2010PropOp50
 70
     1
102
RTVSPost2010Prop51ColorIndex
 90
      256
102
RTVSPost2010Prop51ColorRGB
 90
-16777216
102
RTVSPost2010PropOp51
 70
     0
102
RTVSPost2010Prop52
140
1.0
102
RTVSPost2010PropOp52
 70
     0
102
RTVSPost2010Prop53
 90
        2
102
RTVSPost2010PropOp53
 70
     1
102
RTVSPost2010Prop54
  1
strokes_ogs.tif
102
RTVSPost2010PropOp54
 70
     1
102
RTVSPost2010Prop55
280
     0
102
RTVSPost2010PropOp55
 70
     1
102
RTVSPost2010Prop56
140
1.0
102
RTVSPost2010PropOp56
 70
     1
102
RTVSPost2010Prop57
140
1.0
102
RTVSPost2010PropOp57
 70
     1
  0
XRECORD
  5
186
102
{ACAD_REACTORS
330
185
102
}
330
185
100
AcDbXrecord
280
     1
102
RTVSPost2010Prop28
280
     0
102
RTVSPost2010PropOp28
 70
     1
102
RTVSPost2010Prop29
280
     1
102
RTVSPost2010PropOp29
 70
     1
102
RTVSPost2010Prop30
280
     1
102
RTVSPost2010PropOp30
 70
     1
102
RTVSPost2010Prop31
280
     0
102
RTVSPost2010PropOp31
 70
     1
102
RTVSPost2010Prop32
280
     0
102
RTVSPost2010PropOp32
 70
     1
102
RTVSPost2010Prop33
280
     0
102
RTVSPost2010PropOp33
 70
     1
102
RTVSPost2010Prop34
280
     0
102
RTVSPost2010PropOp34
 70
     1
102
RTVSPost2010Prop35
280
     0
102
RTVSPost2010PropOp35
 70
     1
102
RTVSPost2010Prop36
280
     0
102
RTVSPost2010PropOp36
 70
     1
102
RTVSPost2010Prop37
 90
       50
102
RTVSPost2010PropOp37
 70
     1
102
RTVSPost2010Prop38
140
0.0
102
RTVSPost2010PropOp38
 70
     1
102
RTVSPost2010Prop39
140
1.0
102
RTVSPost2010PropOp39
 70
     1
102
RTVSPost2010Prop40
 90
        0
102
RTVSPost2010PropOp40
 70
     1
102
RTVSPost2010Prop41ColorIndex
 90
       18
102
RTVSPost2010Prop41ColorRGB
 90
        0
102
RTVSPost2010PropOp41
 70
     1
102
RTVSPost2010Prop42
 90
       50
102
RTVSPost2010PropOp42
 70
     1
102
RTVSPost2010Prop43
 90
        3
102
RTVSPost2010PropOp43
 70
     1
102
RTVSPost2010Prop44ColorIndex
 90
        5
102
RTVSPost2010Prop44ColorRGB
 90
      255
102
RTVSPost2010PropOp44
 70
     1
102
RTVSPost2010Prop45
280
     0
102
RTVSPost2010PropOp45
 70
     1
102
RTVSPost2010Prop46
 90
       50
102
RTVSPost2010PropOp46
 70
     1
102
RTVSPost2010Prop47
 90
       50
102
RTVSPost2010PropOp47
 70
     1
102
RTVSPost2010Prop48
 90
       50
102
RTVSPost2010PropOp48
 70
     1
102
RTVSPost2010Prop49
280
     0
102
RTVSPost2010PropOp49
 70
     1
102
RTVSPost2010Prop50
 90
       50
102
RTVSPost2010PropOp50
 70
     1
102
RTVSPost2010Prop51ColorIndex
 90
      256
102
RTVSPost2010Prop51ColorRGB
 90
-16777216
102
RTVSPost2010PropOp51
 70
     0
102
RTVSPost2010Prop52
140
1.0
102
RTVSPost2010PropOp52
 70
     0
102
RTVSPost2010Prop53
 90
        2
102
RTVSPost2010PropOp53
 70
     1
102
RTVSPost2010Prop54
  1
strokes_ogs.tif
102
RTVSPost2010PropOp54
 70
     1
102
RTVSPost2010Prop55
280
     0
102
RTVSPost2010PropOp55
 70
     1
102
RTVSPost2010Prop56
140
1.0
102
RTVSPost2010PropOp56
 70
     1
102
RTVSPost2010Prop57
140
1.0
102
RTVSPost2010PropOp57
 70
     1
  0
XRECORD
  5
1A0
102
{ACAD_REACTORS
330
19F
102
}
330
19F
100
AcDbXrecord
280
     1
102
RTVSPost2010Prop28
280
     0
102
RTVSPost2010PropOp28
 70
     0
102
RTVSPost2010Prop29
280
     1
102
RTVSPost2010PropOp29
 70
     0
102
RTVSPost2010Prop30
280
     1
102
RTVSPost2010PropOp30
 70
     0
102
RTVSPost2010Prop31
280
     0
102
RTVSPost2010PropOp31
 70
     0
102
RTVSPost2010Prop32
280
     0
102
RTVSPost2010PropOp32
 70
     0
102
RTVSPost2010Prop33
280
     0
102
RTVSPost2010PropOp33
 70
     0
102
RTVSPost2010Prop34
280
     0
102
RTVSPost2010PropOp34
 70
     0
102
RTVSPost2010Prop35
280
     0
102
RTVSPost2010PropOp35
 70
     0
102
RTVSPost2010Prop36
280
     0
102
RTVSPost2010PropOp36
 70
     0
102
RTVSPost2010Prop37
 90
       50
102
RTVSPost2010PropOp37
 70
     0
102
RTVSPost2010Prop38
140
0.0
102
RTVSPost2010PropOp38
 70
     0
102
RTVSPost2010Prop39
140
1.0
102
RTVSPost2010PropOp39
 70
     0
102
RTVSPost2010Prop40
 90
        0
102
RTVSPost2010PropOp40
 70
     0
102
RTVSPost2010Prop41ColorIndex
 90
       18
102
RTVSPost2010Prop41ColorRGB
 90
        0
102
RTVSPost2010PropOp41
 70
     0
102
RTVSPost2010Prop42
 90
       50
102
RTVSPost2010PropOp42
 70
     0
102
RTVSPost2010Prop43
 90
        3
102
RTVSPost2010PropOp43
 70
     0
102
RTVSPost2010Prop44ColorIndex
 90
        5
102
RTVSPost2010Prop44ColorRGB
 90
      255
102
RTVSPost2010PropOp44
 70
     0
102
RTVSPost2010Prop45
280
     0
102
RTVSPost2010PropOp45
 70
     0
102
RTVSPost2010Prop46
 90
       50
102
RTVSPost2010PropOp46
 70
     0
102
RTVSPost2010Prop47
 90
       50
102
RTVSPost2010PropOp47
 70
     0
102
RTVSPost2010Prop48
 90
       50
102
RTVSPost2010PropOp48
 70
     0
102
RTVSPost2010Prop49
280
     0
102
RTVSPost2010PropOp49
 70
     0
102
RTVSPost2010Prop50
 90
       50
102
RTVSPost2010PropOp50
 70
     0
102
RTVSPost2010Prop51ColorIndex
 90
      256
102
RTVSPost2010Prop51ColorRGB
 90
-16777216
102
RTVSPost2010PropOp51
 70
     0
102
RTVSPost2010Prop52
140
1.0
102
RTVSPost2010PropOp52
 70
     0
102
RTVSPost2010Prop53
 90
        2
102
RTVSPost2010PropOp53
 70
     0
102
RTVSPost2010Prop54
  1
strokes_ogs.tif
102
RTVSPost2010PropOp54
 70
     0
102
RTVSPost2010Prop55
280
     0
102
RTVSPost2010PropOp55
 70
     0
102
RTVSPost2010Prop56
140
1.0
102
RTVSPost2010PropOp56
 70
     0
102
RTVSPost2010Prop57
140
1.0
102
RTVSPost2010PropOp57
 70
     0
  0
XRECORD
  5
18E
102
{ACAD_REACTORS
330
18D
102
}
330
18D
100
AcDbXrecord
280
     1
102
RTVSPost2010Prop28
280
     0
102
RTVSPost2010PropOp28
 70
     1
102
RTVSPost2010Prop29
280
     1
102
RTVSPost2010PropOp29
 70
     1
102
RTVSPost2010Prop30
280
     1
102
RTVSPost2010PropOp30
 70
     1
102
RTVSPost2010Prop31
280
     0
102
RTVSPost2010PropOp31
 70
     1
102
RTVSPost2010Prop32
280
     0
102
RTVSPost2010PropOp32
 70
     1
102
RTVSPost2010Prop33
280
     0
102
RTVSPost2010PropOp33
 70
     1
102
RTVSPost2010Prop34
280
     0
102
RTVSPost2010PropOp34
 70
     1
102
RTVSPost2010Prop35
280
     0
102
RTVSPost2010PropOp35
 70
     1
102
RTVSPost2010Prop36
280
     0
102
RTVSPost2010PropOp36
 70
     1
102
RTVSPost2010Prop37
 90
       50
102
RTVSPost2010PropOp37
 70
     1
102
RTVSPost2010Prop38
140
0.0
102
RTVSPost2010PropOp38
 70
     1
102
RTVSPost2010Prop39
140
1.0
102
RTVSPost2010PropOp39
 70
     1
102
RTVSPost2010Prop40
 90
        0
102
RTVSPost2010PropOp40
 70
     1
102
RTVSPost2010Prop41ColorIndex
 90
       18
102
RTVSPost2010Prop41ColorRGB
 90
        0
102
RTVSPost2010PropOp41
 70
     1
102
RTVSPost2010Prop42
 90
       50
102
RTVSPost2010PropOp42
 70
     1
102
RTVSPost2010Prop43
 90
        3
102
RTVSPost2010PropOp43
 70
     1
102
RTVSPost2010Prop44ColorIndex
 90
        5
102
RTVSPost2010Prop44ColorRGB
 90
      255
102
RTVSPost2010PropOp44
 70
     1
102
RTVSPost2010Prop45
280
     0
102
RTVSPost2010PropOp45
 70
     1
102
RTVSPost2010Prop46
 90
       50
102
RTVSPost2010PropOp46
 70
     1
102
RTVSPost2010Prop47
 90
       50
102
RTVSPost2010PropOp47
 70
     1
102
RTVSPost2010Prop48
 90
       50
102
RTVSPost2010PropOp48
 70
     1
102
RTVSPost2010Prop49
280
     0
102
RTVSPost2010PropOp49
 70
     1
102
RTVSPost2010Prop50
 90
       50
102
RTVSPost2010PropOp50
 70
     1
102
RTVSPost2010Prop51ColorIndex
 90
      256
102
RTVSPost2010Prop51ColorRGB
 90
-16777216
102
RTVSPost2010PropOp51
 70
     0
102
RTVSPost2010Prop52
140
1.0
102
RTVSPost2010PropOp52
 70
     0
102
RTVSPost2010Prop53
 90
        2
102
RTVSPost2010PropOp53
 70
     1
102
RTVSPost2010Prop54
  1
strokes_ogs.tif
102
RTVSPost2010PropOp54
 70
     1
102
RTVSPost2010Prop55
280
     0
102
RTVSPost2010PropOp55
 70
     1
102
RTVSPost2010Prop56
140
1.0
102
RTVSPost2010PropOp56
 70
     1
102
RTVSPost2010Prop57
140
1.0
102
RTVSPost2010PropOp57
 70
     1
  0
XRECORD
  5
172
102
{ACAD_REACTORS
330
171
102
}
330
171
100
AcDbXrecord
280
     1
102
RTVSPost2010Prop28
280
     0
102
RTVSPost2010PropOp28
 70
     1
102
RTVSPost2010Prop29
280
     1
102
RTVSPost2010PropOp29
 70
     1
102
RTVSPost2010Prop30
280
     1
102
RTVSPost2010PropOp30
 70
     1
102
RTVSPost2010Prop31
280
     0
102
RTVSPost2010PropOp31
 70
     1
102
RTVSPost2010Prop32
280
     0
102
RTVSPost2010PropOp32
 70
     1
102
RTVSPost2010Prop33
280
     0
102
RTVSPost2010PropOp33
 70
     1
102
RTVSPost2010Prop34
280
     0
102
RTVSPost2010PropOp34
 70
     1
102
RTVSPost2010Prop35
280
     0
102
RTVSPost2010PropOp35
 70
     1
102
RTVSPost2010Prop36
280
     0
102
RTVSPost2010PropOp36
 70
     1
102
RTVSPost2010Prop37
 90
       50
102
RTVSPost2010PropOp37
 70
     1
102
RTVSPost2010Prop38
140
0.0
102
RTVSPost2010PropOp38
 70
     1
102
RTVSPost2010Prop39
140
1.0
102
RTVSPost2010PropOp39
 70
     1
102
RTVSPost2010Prop40
 90
        0
102
RTVSPost2010PropOp40
 70
     1
102
RTVSPost2010Prop41ColorIndex
 90
       18
102
RTVSPost2010Prop41ColorRGB
 90
        0
102
RTVSPost2010PropOp41
 70
     1
102
RTVSPost2010Prop42
 90
       50
102
RTVSPost2010PropOp42
 70
     1
102
RTVSPost2010Prop43
 90
        3
102
RTVSPost2010PropOp43
 70
     1
102
RTVSPost2010Prop44ColorIndex
 90
        5
102
RTVSPost2010Prop44ColorRGB
 90
      255
102
RTVSPost2010PropOp44
 70
     1
102
RTVSPost2010Prop45
280
     0
102
RTVSPost2010PropOp45
 70
     1
102
RTVSPost2010Prop46
 90
       50
102
RTVSPost2010PropOp46
 70
     1
102
RTVSPost2010Prop47
 90
       50
102
RTVSPost2010PropOp47
 70
     1
102
RTVSPost2010Prop48
 90
       50
102
RTVSPost2010PropOp48
 70
     1
102
RTVSPost2010Prop49
280
     0
102
RTVSPost2010PropOp49
 70
     1
102
RTVSPost2010Prop50
 90
       50
102
RTVSPost2010PropOp50
 70
     1
102
RTVSPost2010Prop51ColorIndex
 90
      256
102
RTVSPost2010Prop51ColorRGB
 90
-16777216
102
RTVSPost2010PropOp51
 70
     0
102
RTVSPost2010Prop52
140
1.0
102
RTVSPost2010PropOp52
 70
     0
102
RTVSPost2010Prop53
 90
        2
102
RTVSPost2010PropOp53
 70
     1
102
RTVSPost2010Prop54
  1
strokes_ogs.tif
102
RTVSPost2010PropOp54
 70
     1
102
RTVSPost2010Prop55
280
     0
102
RTVSPost2010PropOp55
 70
     1
102
RTVSPost2010Prop56
140
1.0
102
RTVSPost2010PropOp56
 70
     1
102
RTVSPost2010Prop57
140
1.0
102
RTVSPost2010PropOp57
 70
     1
  0
XRECORD
  5
174
102
{ACAD_REACTORS
330
173
102
}
330
173
100
AcDbXrecord
280
     1
102
RTVSPost2010Prop28
280
     0
102
RTVSPost2010PropOp28
 70
     1
102
RTVSPost2010Prop29
280
     1
102
RTVSPost2010PropOp29
 70
     1
102
RTVSPost2010Prop30
280
     1
102
RTVSPost2010PropOp30
 70
     1
102
RTVSPost2010Prop31
280
     0
102
RTVSPost2010PropOp31
 70
     1
102
RTVSPost2010Prop32
280
     0
102
RTVSPost2010PropOp32
 70
     1
102
RTVSPost2010Prop33
280
     0
102
RTVSPost2010PropOp33
 70
     1
102
RTVSPost2010Prop34
280
     0
102
RTVSPost2010PropOp34
 70
     1
102
RTVSPost2010Prop35
280
     0
102
RTVSPost2010PropOp35
 70
     1
102
RTVSPost2010Prop36
280
     0
102
RTVSPost2010PropOp36
 70
     1
102
RTVSPost2010Prop37
 90
       50
102
RTVSPost2010PropOp37
 70
     1
102
RTVSPost2010Prop38
140
0.0
102
RTVSPost2010PropOp38
 70
     1
102
RTVSPost2010Prop39
140
1.0
102
RTVSPost2010PropOp39
 70
     1
102
RTVSPost2010Prop40
 90
        0
102
RTVSPost2010PropOp40
 70
     1
102
RTVSPost2010Prop41ColorIndex
 90
       18
102
RTVSPost2010Prop41ColorRGB
 90
        0
102
RTVSPost2010PropOp41
 70
     1
102
RTVSPost2010Prop42
 90
       50
102
RTVSPost2010PropOp42
 70
     1
102
RTVSPost2010Prop43
 90
        3
102
RTVSPost2010PropOp43
 70
     1
102
RTVSPost2010Prop44ColorIndex
 90
        5
102
RTVSPost2010Prop44ColorRGB
 90
      255
102
RTVSPost2010PropOp44
 70
     1
102
RTVSPost2010Prop45
280
     0
102
RTVSPost2010PropOp45
 70
     1
102
RTVSPost2010Prop46
 90
       50
102
RTVSPost2010PropOp46
 70
     1
102
RTVSPost2010Prop47
 90
       50
102
RTVSPost2010PropOp47
 70
     1
102
RTVSPost2010Prop48
 90
       50
102
RTVSPost2010PropOp48
 70
     1
102
RTVSPost2010Prop49
280
     0
102
RTVSPost2010PropOp49
 70
     1
102
RTVSPost2010Prop50
 90
       50
102
RTVSPost2010PropOp50
 70
     1
102
RTVSPost2010Prop51ColorIndex
 90
      256
102
RTVSPost2010Prop51ColorRGB
 90
-16777216
102
RTVSPost2010PropOp51
 70
     0
102
RTVSPost2010Prop52
140
1.0
102
RTVSPost2010PropOp52
 70
     0
102
RTVSPost2010Prop53
 90
        2
102
RTVSPost2010PropOp53
 70
     1
102
RTVSPost2010Prop54
  1
strokes_ogs.tif
102
RTVSPost2010PropOp54
 70
     1
102
RTVSPost2010Prop55
280
     0
102
RTVSPost2010PropOp55
 70
     1
102
RTVSPost2010Prop56
140
1.0
102
RTVSPost2010PropOp56
 70
     1
102
RTVSPost2010Prop57
140
1.0
102
RTVSPost2010PropOp57
 70
     1
  0
XRECORD
  5
176
102
{ACAD_REACTORS
330
175
102
}
330
175
100
AcDbXrecord
280
     1
102
RTVSPost2010Prop28
280
     0
102
RTVSPost2010PropOp28
 70
     1
102
RTVSPost2010Prop29
280
     1
102
RTVSPost2010PropOp29
 70
     1
102
RTVSPost2010Prop30
280
     1
102
RTVSPost2010PropOp30
 70
     1
102
RTVSPost2010Prop31
280
     0
102
RTVSPost2010PropOp31
 70
     1
102
RTVSPost2010Prop32
280
     0
102
RTVSPost2010PropOp32
 70
     1
102
RTVSPost2010Prop33
280
     0
102
RTVSPost2010PropOp33
 70
     1
102
RTVSPost2010Prop34
280
     0
102
RTVSPost2010PropOp34
 70
     1
102
RTVSPost2010Prop35
280
     0
102
RTVSPost2010PropOp35
 70
     1
102
RTVSPost2010Prop36
280
     0
102
RTVSPost2010PropOp36
 70
     1
102
RTVSPost2010Prop37
 90
       50
102
RTVSPost2010PropOp37
 70
     1
102
RTVSPost2010Prop38
140
0.0
102
RTVSPost2010PropOp38
 70
     1
102
RTVSPost2010Prop39
140
1.0
102
RTVSPost2010PropOp39
 70
     1
102
RTVSPost2010Prop40
 90
        0
102
RTVSPost2010PropOp40
 70
     1
102
RTVSPost2010Prop41ColorIndex
 90
       18
102
RTVSPost2010Prop41ColorRGB
 90
        0
102
RTVSPost2010PropOp41
 70
     1
102
RTVSPost2010Prop42
 90
       50
102
RTVSPost2010PropOp42
 70
     1
102
RTVSPost2010Prop43
 90
        3
102
RTVSPost2010PropOp43
 70
     1
102
RTVSPost2010Prop44ColorIndex
 90
        5
102
RTVSPost2010Prop44ColorRGB
 90
      255
102
RTVSPost2010PropOp44
 70
     1
102
RTVSPost2010Prop45
280
     0
102
RTVSPost2010PropOp45
 70
     1
102
RTVSPost2010Prop46
 90
       50
102
RTVSPost2010PropOp46
 70
     1
102
RTVSPost2010Prop47
 90
       50
102
RTVSPost2010PropOp47
 70
     1
102
RTVSPost2010Prop48
 90
       50
102
RTVSPost2010PropOp48
 70
     1
102
RTVSPost2010Prop49
280
     0
102
RTVSPost2010PropOp49
 70
     1
102
RTVSPost2010Prop50
 90
       50
102
RTVSPost2010PropOp50
 70
     1
102
RTVSPost2010Prop51ColorIndex
 90
      256
102
RTVSPost2010Prop51ColorRGB
 90
-16777216
102
RTVSPost2010PropOp51
 70
     0
102
RTVSPost2010Prop52
140
1.0
102
RTVSPost2010PropOp52
 70
     0
102
RTVSPost2010Prop53
 90
        2
102
RTVSPost2010PropOp53
 70
     1
102
RTVSPost2010Prop54
  1
strokes_ogs.tif
102
RTVSPost2010PropOp54
 70
     1
102
RTVSPost2010Prop55
280
     0
102
RTVSPost2010PropOp55
 70
     1
102
RTVSPost2010Prop56
140
1.0
102
RTVSPost2010PropOp56
 70
     1
102
RTVSPost2010Prop57
140
1.0
102
RTVSPost2010PropOp57
 70
     1
  0
XRECORD
  5
178
102
{ACAD_REACTORS
330
177
102
}
330
177
100
AcDbXrecord
280
     1
102
RTVSPost2010Prop28
280
     0
102
RTVSPost2010PropOp28
 70
     1
102
RTVSPost2010Prop29
280
     1
102
RTVSPost2010PropOp29
 70
     1
102
RTVSPost2010Prop30
280
     1
102
RTVSPost2010PropOp30
 70
     1
102
RTVSPost2010Prop31
280
     0
102
RTVSPost2010PropOp31
 70
     1
102
RTVSPost2010Prop32
280
     0
102
RTVSPost2010PropOp32
 70
     1
102
RTVSPost2010Prop33
280
     0
102
RTVSPost2010PropOp33
 70
     1
102
RTVSPost2010Prop34
280
     0
102
RTVSPost2010PropOp34
 70
     1
102
RTVSPost2010Prop35
280
     0
102
RTVSPost2010PropOp35
 70
     1
102
RTVSPost2010Prop36
280
     0
102
RTVSPost2010PropOp36
 70
     1
102
RTVSPost2010Prop37
 90
       50
102
RTVSPost2010PropOp37
 70
     1
102
RTVSPost2010Prop38
140
0.0
102
RTVSPost2010PropOp38
 70
     1
102
RTVSPost2010Prop39
140
1.0
102
RTVSPost2010PropOp39
 70
     1
102
RTVSPost2010Prop40
 90
        0
102
RTVSPost2010PropOp40
 70
     1
102
RTVSPost2010Prop41ColorIndex
 90
       18
102
RTVSPost2010Prop41ColorRGB
 90
        0
102
RTVSPost2010PropOp41
 70
     1
102
RTVSPost2010Prop42
 90
       50
102
RTVSPost2010PropOp42
 70
     1
102
RTVSPost2010Prop43
 90
        3
102
RTVSPost2010PropOp43
 70
     1
102
RTVSPost2010Prop44ColorIndex
 90
        5
102
RTVSPost2010Prop44ColorRGB
 90
      255
102
RTVSPost2010PropOp44
 70
     1
102
RTVSPost2010Prop45
280
     0
102
RTVSPost2010PropOp45
 70
     1
102
RTVSPost2010Prop46
 90
       50
102
RTVSPost2010PropOp46
 70
     1
102
RTVSPost2010Prop47
 90
       50
102
RTVSPost2010PropOp47
 70
     1
102
RTVSPost2010Prop48
 90
       50
102
RTVSPost2010PropOp48
 70
     1
102
RTVSPost2010Prop49
280
     0
102
RTVSPost2010PropOp49
 70
     1
102
RTVSPost2010Prop50
 90
       50
102
RTVSPost2010PropOp50
 70
     1
102
RTVSPost2010Prop51ColorIndex
 90
      256
102
RTVSPost2010Prop51ColorRGB
 90
-16777216
102
RTVSPost2010PropOp51
 70
     0
102
RTVSPost2010Prop52
140
1.0
102
RTVSPost2010PropOp52
 70
     0
102
RTVSPost2010Prop53
 90
        2
102
RTVSPost2010PropOp53
 70
     1
102
RTVSPost2010Prop54
  1
strokes_ogs.tif
102
RTVSPost2010PropOp54
 70
     1
102
RTVSPost2010Prop55
280
     0
102
RTVSPost2010PropOp55
 70
     1
102
RTVSPost2010Prop56
140
1.0
102
RTVSPost2010PropOp56
 70
     1
102
RTVSPost2010Prop57
140
1.0
102
RTVSPost2010PropOp57
 70
     1
  0
XRECORD
  5
180
102
{ACAD_REACTORS
330
17F
102
}
330
17F
100
AcDbXrecord
280
     1
102
RTVSPost2010Prop28
280
     0
102
RTVSPost2010PropOp28
 70
     1
102
RTVSPost2010Prop29
280
     1
102
RTVSPost2010PropOp29
 70
     1
102
RTVSPost2010Prop30
280
     1
102
RTVSPost2010PropOp30
 70
     1
102
RTVSPost2010Prop31
280
     0
102
RTVSPost2010PropOp31
 70
     1
102
RTVSPost2010Prop32
280
     0
102
RTVSPost2010PropOp32
 70
     1
102
RTVSPost2010Prop33
280
     0
102
RTVSPost2010PropOp33
 70
     1
102
RTVSPost2010Prop34
280
     0
102
RTVSPost2010PropOp34
 70
     1
102
RTVSPost2010Prop35
280
     0
102
RTVSPost2010PropOp35
 70
     1
102
RTVSPost2010Prop36
280
     0
102
RTVSPost2010PropOp36
 70
     1
102
RTVSPost2010Prop37
 90
       50
102
RTVSPost2010PropOp37
 70
     1
102
RTVSPost2010Prop38
140
0.0
102
RTVSPost2010PropOp38
 70
     1
102
RTVSPost2010Prop39
140
1.0
102
RTVSPost2010PropOp39
 70
     1
102
RTVSPost2010Prop40
 90
        0
102
RTVSPost2010PropOp40
 70
     1
102
RTVSPost2010Prop41ColorIndex
 90
       18
102
RTVSPost2010Prop41ColorRGB
 90
        0
102
RTVSPost2010PropOp41
 70
     1
102
RTVSPost2010Prop42
 90
       50
102
RTVSPost2010PropOp42
 70
     1
102
RTVSPost2010Prop43
 90
        3
102
RTVSPost2010PropOp43
 70
     1
102
RTVSPost2010Prop44ColorIndex
 90
        5
102
RTVSPost2010Prop44ColorRGB
 90
      255
102
RTVSPost2010PropOp44
 70
     1
102
RTVSPost2010Prop45
280
     0
102
RTVSPost2010PropOp45
 70
     1
102
RTVSPost2010Prop46
 90
       50
102
RTVSPost2010PropOp46
 70
     1
102
RTVSPost2010Prop47
 90
       50
102
RTVSPost2010PropOp47
 70
     1
102
RTVSPost2010Prop48
 90
       50
102
RTVSPost2010PropOp48
 70
     1
102
RTVSPost2010Prop49
280
     0
102
RTVSPost2010PropOp49
 70
     1
102
RTVSPost2010Prop50
 90
       50
102
RTVSPost2010PropOp50
 70
     1
102
RTVSPost2010Prop51ColorIndex
 90
      256
102
RTVSPost2010Prop51ColorRGB
 90
-16777216
102
RTVSPost2010PropOp51
 70
     0
102
RTVSPost2010Prop52
140
1.0
102
RTVSPost2010PropOp52
 70
     0
102
RTVSPost2010Prop53
 90
        2
102
RTVSPost2010PropOp53
 70
     1
102
RTVSPost2010Prop54
  1
strokes_ogs.tif
102
RTVSPost2010PropOp54
 70
     1
102
RTVSPost2010Prop55
280
     0
102
RTVSPost2010PropOp55
 70
     1
102
RTVSPost2010Prop56
140
1.0
102
RTVSPost2010PropOp56
 70
     1
102
RTVSPost2010Prop57
140
1.0
102
RTVSPost2010PropOp57
 70
     1
  0
XRECORD
  5
19C
102
{ACAD_REACTORS
330
19B
102
}
330
19B
100
AcDbXrecord
280
     1
102
RTVSPost2010Prop28
280
     0
102
RTVSPost2010PropOp28
 70
     0
102
RTVSPost2010Prop29
280
     1
102
RTVSPost2010PropOp29
 70
     0
102
RTVSPost2010Prop30
280
     1
102
RTVSPost2010PropOp30
 70
     0
102
RTVSPost2010Prop31
280
     0
102
RTVSPost2010PropOp31
 70
     0
102
RTVSPost2010Prop32
280
     0
102
RTVSPost2010PropOp32
 70
     0
102
RTVSPost2010Prop33
280
     0
102
RTVSPost2010PropOp33
 70
     0
102
RTVSPost2010Prop34
280
     0
102
RTVSPost2010PropOp34
 70
     0
102
RTVSPost2010Prop35
280
     0
102
RTVSPost2010PropOp35
 70
     0
102
RTVSPost2010Prop36
280
     0
102
RTVSPost2010PropOp36
 70
     0
102
RTVSPost2010Prop37
 90
       50
102
RTVSPost2010PropOp37
 70
     0
102
RTVSPost2010Prop38
140
0.0
102
RTVSPost2010PropOp38
 70
     0
102
RTVSPost2010Prop39
140
1.0
102
RTVSPost2010PropOp39
 70
     0
102
RTVSPost2010Prop40
 90
        0
102
RTVSPost2010PropOp40
 70
     0
102
RTVSPost2010Prop41ColorIndex
 90
       18
102
RTVSPost2010Prop41ColorRGB
 90
        0
102
RTVSPost2010PropOp41
 70
     0
102
RTVSPost2010Prop42
 90
       50
102
RTVSPost2010PropOp42
 70
     0
102
RTVSPost2010Prop43
 90
        3
102
RTVSPost2010PropOp43
 70
     0
102
RTVSPost2010Prop44ColorIndex
 90
        5
102
RTVSPost2010Prop44ColorRGB
 90
      255
102
RTVSPost2010PropOp44
 70
     0
102
RTVSPost2010Prop45
280
     0
102
RTVSPost2010PropOp45
 70
     0
102
RTVSPost2010Prop46
 90
       50
102
RTVSPost2010PropOp46
 70
     0
102
RTVSPost2010Prop47
 90
       50
102
RTVSPost2010PropOp47
 70
     0
102
RTVSPost2010Prop48
 90
       50
102
RTVSPost2010PropOp48
 70
     0
102
RTVSPost2010Prop49
280
     0
102
RTVSPost2010PropOp49
 70
     0
102
RTVSPost2010Prop50
 90
       50
102
RTVSPost2010PropOp50
 70
     0
102
RTVSPost2010Prop51ColorIndex
 90
      256
102
RTVSPost2010Prop51ColorRGB
 90
-16777216
102
RTVSPost2010PropOp51
 70
     0
102
RTVSPost2010Prop52
140
1.0
102
RTVSPost2010PropOp52
 70
     0
102
RTVSPost2010Prop53
 90
        2
102
RTVSPost2010PropOp53
 70
     0
102
RTVSPost2010Prop54
  1
strokes_ogs.tif
102
RTVSPost2010PropOp54
 70
     0
102
RTVSPost2010Prop55
280
     0
102
RTVSPost2010PropOp55
 70
     0
102
RTVSPost2010Prop56
140
1.0
102
RTVSPost2010PropOp56
 70
     0
102
RTVSPost2010Prop57
140
1.0
102
RTVSPost2010PropOp57
 70
     0
  0
XRECORD
  5
18C
102
{ACAD_REACTORS
330
18B
102
}
330
18B
100
AcDbXrecord
280
     1
102
RTVSPost2010Prop28
280
     0
102
RTVSPost2010PropOp28
 70
     1
102
RTVSPost2010Prop29
280
     1
102
RTVSPost2010PropOp29
 70
     1
102
RTVSPost2010Prop30
280
     1
102
RTVSPost2010PropOp30
 70
     1
102
RTVSPost2010Prop31
280
     0
102
RTVSPost2010PropOp31
 70
     1
102
RTVSPost2010Prop32
280
     0
102
RTVSPost2010PropOp32
 70
     1
102
RTVSPost2010Prop33
280
     0
102
RTVSPost2010PropOp33
 70
     1
102
RTVSPost2010Prop34
280
     0
102
RTVSPost2010PropOp34
 70
     1
102
RTVSPost2010Prop35
280
     0
102
RTVSPost2010PropOp35
 70
     1
102
RTVSPost2010Prop36
280
     0
102
RTVSPost2010PropOp36
 70
     1
102
RTVSPost2010Prop37
 90
       50
102
RTVSPost2010PropOp37
 70
     1
102
RTVSPost2010Prop38
140
0.0
102
RTVSPost2010PropOp38
 70
     1
102
RTVSPost2010Prop39
140
1.0
102
RTVSPost2010PropOp39
 70
     1
102
RTVSPost2010Prop40
 90
        0
102
RTVSPost2010PropOp40
 70
     1
102
RTVSPost2010Prop41ColorIndex
 90
       18
102
RTVSPost2010Prop41ColorRGB
 90
        0
102
RTVSPost2010PropOp41
 70
     1
102
RTVSPost2010Prop42
 90
       50
102
RTVSPost2010PropOp42
 70
     1
102
RTVSPost2010Prop43
 90
        3
102
RTVSPost2010PropOp43
 70
     1
102
RTVSPost2010Prop44ColorIndex
 90
        5
102
RTVSPost2010Prop44ColorRGB
 90
      255
102
RTVSPost2010PropOp44
 70
     1
102
RTVSPost2010Prop45
280
     0
102
RTVSPost2010PropOp45
 70
     1
102
RTVSPost2010Prop46
 90
       50
102
RTVSPost2010PropOp46
 70
     1
102
RTVSPost2010Prop47
 90
       50
102
RTVSPost2010PropOp47
 70
     1
102
RTVSPost2010Prop48
 90
       50
102
RTVSPost2010PropOp48
 70
     1
102
RTVSPost2010Prop49
280
     0
102
RTVSPost2010PropOp49
 70
     1
102
RTVSPost2010Prop50
 90
       50
102
RTVSPost2010PropOp50
 70
     1
102
RTVSPost2010Prop51ColorIndex
 90
      256
102
RTVSPost2010Prop51ColorRGB
 90
-16777216
102
RTVSPost2010PropOp51
 70
     0
102
RTVSPost2010Prop52
140
1.0
102
RTVSPost2010PropOp52
 70
     0
102
RTVSPost2010Prop53
 90
        2
102
RTVSPost2010PropOp53
 70
     1
102
RTVSPost2010Prop54
  1
strokes_ogs.tif
102
RTVSPost2010PropOp54
 70
     1
102
RTVSPost2010Prop55
280
     0
102
RTVSPost2010PropOp55
 70
     1
102
RTVSPost2010Prop56
140
1.0
102
RTVSPost2010PropOp56
 70
     1
102
RTVSPost2010Prop57
140
1.0
102
RTVSPost2010PropOp57
 70
     1
  0
XRECORD
  5
19E
102
{ACAD_REACTORS
330
19D
102
}
330
19D
100
AcDbXrecord
280
     1
102
RTVSPost2010Prop28
280
     0
102
RTVSPost2010PropOp28
 70
     0
102
RTVSPost2010Prop29
280
     1
102
RTVSPost2010PropOp29
 70
     0
102
RTVSPost2010Prop30
280
     1
102
RTVSPost2010PropOp30
 70
     0
102
RTVSPost2010Prop31
280
     0
102
RTVSPost2010PropOp31
 70
     0
102
RTVSPost2010Prop32
280
     0
102
RTVSPost2010PropOp32
 70
     0
102
RTVSPost2010Prop33
280
     0
102
RTVSPost2010PropOp33
 70
     0
102
RTVSPost2010Prop34
280
     0
102
RTVSPost2010PropOp34
 70
     0
102
RTVSPost2010Prop35
280
     0
102
RTVSPost2010PropOp35
 70
     0
102
RTVSPost2010Prop36
280
     0
102
RTVSPost2010PropOp36
 70
     0
102
RTVSPost2010Prop37
 90
       50
102
RTVSPost2010PropOp37
 70
     0
102
RTVSPost2010Prop38
140
0.0
102
RTVSPost2010PropOp38
 70
     0
102
RTVSPost2010Prop39
140
1.0
102
RTVSPost2010PropOp39
 70
     0
102
RTVSPost2010Prop40
 90
        0
102
RTVSPost2010PropOp40
 70
     0
102
RTVSPost2010Prop41ColorIndex
 90
       18
102
RTVSPost2010Prop41ColorRGB
 90
        0
102
RTVSPost2010PropOp41
 70
     0
102
RTVSPost2010Prop42
 90
       50
102
RTVSPost2010PropOp42
 70
     0
102
RTVSPost2010Prop43
 90
        3
102
RTVSPost2010PropOp43
 70
     0
102
RTVSPost2010Prop44ColorIndex
 90
        5
102
RTVSPost2010Prop44ColorRGB
 90
      255
102
RTVSPost2010PropOp44
 70
     0
102
RTVSPost2010Prop45
280
     0
102
RTVSPost2010PropOp45
 70
     0
102
RTVSPost2010Prop46
 90
       50
102
RTVSPost2010PropOp46
 70
     0
102
RTVSPost2010Prop47
 90
       50
102
RTVSPost2010PropOp47
 70
     0
102
RTVSPost2010Prop48
 90
       50
102
RTVSPost2010PropOp48
 70
     0
102
RTVSPost2010Prop49
280
     0
102
RTVSPost2010PropOp49
 70
     0
102
RTVSPost2010Prop50
 90
       50
102
RTVSPost2010PropOp50
 70
     0
102
RTVSPost2010Prop51ColorIndex
 90
      256
102
RTVSPost2010Prop51ColorRGB
 90
-16777216
102
RTVSPost2010PropOp51
 70
     0
102
RTVSPost2010Prop52
140
1.0
102
RTVSPost2010PropOp52
 70
     0
102
RTVSPost2010Prop53
 90
        2
102
RTVSPost2010PropOp53
 70
     0
102
RTVSPost2010Prop54
  1
strokes_ogs.tif
102
RTVSPost2010PropOp54
 70
     0
102
RTVSPost2010Prop55
280
     0
102
RTVSPost2010PropOp55
 70
     0
102
RTVSPost2010Prop56
140
1.0
102
RTVSPost2010PropOp56
 70
     0
102
RTVSPost2010Prop57
140
1.0
102
RTVSPost2010PropOp57
 70
     0
  0
XRECORD
  5
184
102
{ACAD_REACTORS
330
183
102
}
330
183
100
AcDbXrecord
280
     1
102
RTVSPost2010Prop28
280
     0
102
RTVSPost2010PropOp28
 70
     1
102
RTVSPost2010Prop29
280
     1
102
RTVSPost2010PropOp29
 70
     1
102
RTVSPost2010Prop30
280
     1
102
RTVSPost2010PropOp30
 70
     1
102
RTVSPost2010Prop31
280
     0
102
RTVSPost2010PropOp31
 70
     1
102
RTVSPost2010Prop32
280
     0
102
RTVSPost2010PropOp32
 70
     1
102
RTVSPost2010Prop33
280
     0
102
RTVSPost2010PropOp33
 70
     1
102
RTVSPost2010Prop34
280
     0
102
RTVSPost2010PropOp34
 70
     1
102
RTVSPost2010Prop35
280
     0
102
RTVSPost2010PropOp35
 70
     1
102
RTVSPost2010Prop36
280
     0
102
RTVSPost2010PropOp36
 70
     1
102
RTVSPost2010Prop37
 90
       50
102
RTVSPost2010PropOp37
 70
     1
102
RTVSPost2010Prop38
140
0.0
102
RTVSPost2010PropOp38
 70
     1
102
RTVSPost2010Prop39
140
1.0
102
RTVSPost2010PropOp39
 70
     1
102
RTVSPost2010Prop40
 90
        0
102
RTVSPost2010PropOp40
 70
     1
102
RTVSPost2010Prop41ColorIndex
 90
       18
102
RTVSPost2010Prop41ColorRGB
 90
        0
102
RTVSPost2010PropOp41
 70
     1
102
RTVSPost2010Prop42
 90
       50
102
RTVSPost2010PropOp42
 70
     1
102
RTVSPost2010Prop43
 90
        3
102
RTVSPost2010PropOp43
 70
     1
102
RTVSPost2010Prop44ColorIndex
 90
        5
102
RTVSPost2010Prop44ColorRGB
 90
      255
102
RTVSPost2010PropOp44
 70
     1
102
RTVSPost2010Prop45
280
     0
102
RTVSPost2010PropOp45
 70
     1
102
RTVSPost2010Prop46
 90
       50
102
RTVSPost2010PropOp46
 70
     1
102
RTVSPost2010Prop47
 90
       50
102
RTVSPost2010PropOp47
 70
     1
102
RTVSPost2010Prop48
 90
       50
102
RTVSPost2010PropOp48
 70
     1
102
RTVSPost2010Prop49
280
     0
102
RTVSPost2010PropOp49
 70
     1
102
RTVSPost2010Prop50
 90
       50
102
RTVSPost2010PropOp50
 70
     1
102
RTVSPost2010Prop51ColorIndex
 90
      256
102
RTVSPost2010Prop51ColorRGB
 90
-16777216
102
RTVSPost2010PropOp51
 70
     0
102
RTVSPost2010Prop52
140
1.0
102
RTVSPost2010PropOp52
 70
     0
102
RTVSPost2010Prop53
 90
        2
102
RTVSPost2010PropOp53
 70
     1
102
RTVSPost2010Prop54
  1
strokes_ogs.tif
102
RTVSPost2010PropOp54
 70
     1
102
RTVSPost2010Prop55
280
     0
102
RTVSPost2010PropOp55
 70
     1
102
RTVSPost2010Prop56
140
1.0
102
RTVSPost2010PropOp56
 70
     1
102
RTVSPost2010Prop57
140
1.0
102
RTVSPost2010PropOp57
 70
     1
  0
XRECORD
  5
19A
102
{ACAD_REACTORS
330
199
102
}
330
199
100
AcDbXrecord
280
     1
102
RTVSPost2010Prop28
280
     0
102
RTVSPost2010PropOp28
 70
     1
102
RTVSPost2010Prop29
280
     1
102
RTVSPost2010PropOp29
 70
     1
102
RTVSPost2010Prop30
280
     1
102
RTVSPost2010PropOp30
 70
     1
102
RTVSPost2010Prop31
280
     0
102
RTVSPost2010PropOp31
 70
     1
102
RTVSPost2010Prop32
280
     0
102
RTVSPost2010PropOp32
 70
     1
102
RTVSPost2010Prop33
280
     0
102
RTVSPost2010PropOp33
 70
     1
102
RTVSPost2010Prop34
280
     0
102
RTVSPost2010PropOp34
 70
     1
102
RTVSPost2010Prop35
280
     0
102
RTVSPost2010PropOp35
 70
     1
102
RTVSPost2010Prop36
280
     0
102
RTVSPost2010PropOp36
 70
     1
102
RTVSPost2010Prop37
 90
       50
102
RTVSPost2010PropOp37
 70
     1
102
RTVSPost2010Prop38
140
0.0
102
RTVSPost2010PropOp38
 70
     1
102
RTVSPost2010Prop39
140
1.0
102
RTVSPost2010PropOp39
 70
     1
102
RTVSPost2010Prop40
 90
        0
102
RTVSPost2010PropOp40
 70
     1
102
RTVSPost2010Prop41ColorIndex
 90
       18
102
RTVSPost2010Prop41ColorRGB
 90
        0
102
RTVSPost2010PropOp41
 70
     1
102
RTVSPost2010Prop42
 90
       50
102
RTVSPost2010PropOp42
 70
     1
102
RTVSPost2010Prop43
 90
        3
102
RTVSPost2010PropOp43
 70
     1
102
RTVSPost2010Prop44ColorIndex
 90
        5
102
RTVSPost2010Prop44ColorRGB
 90
      255
102
RTVSPost2010PropOp44
 70
     1
102
RTVSPost2010Prop45
280
     0
102
RTVSPost2010PropOp45
 70
     1
102
RTVSPost2010Prop46
 90
       50
102
RTVSPost2010PropOp46
 70
     1
102
RTVSPost2010Prop47
 90
       50
102
RTVSPost2010PropOp47
 70
     1
102
RTVSPost2010Prop48
 90
       50
102
RTVSPost2010PropOp48
 70
     1
102
RTVSPost2010Prop49
280
     0
102
RTVSPost2010PropOp49
 70
     1
102
RTVSPost2010Prop50
 90
       50
102
RTVSPost2010PropOp50
 70
     1
102
RTVSPost2010Prop51ColorIndex
 90
      256
102
RTVSPost2010Prop51ColorRGB
 90
-16777216
102
RTVSPost2010PropOp51
 70
     0
102
RTVSPost2010Prop52
140
1.0
102
RTVSPost2010PropOp52
 70
     0
102
RTVSPost2010Prop53
 90
        2
102
RTVSPost2010PropOp53
 70
     1
102
RTVSPost2010Prop54
  1
strokes_ogs.tif
102
RTVSPost2010PropOp54
 70
     1
102
RTVSPost2010Prop55
280
     0
102
RTVSPost2010PropOp55
 70
     1
102
RTVSPost2010Prop56
140
1.0
102
RTVSPost2010PropOp56
 70
     1
102
RTVSPost2010Prop57
140
1.0
102
RTVSPost2010PropOp57
 70
     1
  0
XRECORD
  5
198
102
{ACAD_REACTORS
330
197
102
}
330
197
100
AcDbXrecord
280
     1
102
RTVSPost2010Prop28
280
     0
102
RTVSPost2010PropOp28
 70
     1
102
RTVSPost2010Prop29
280
     1
102
RTVSPost2010PropOp29
 70
     1
102
RTVSPost2010Prop30
280
     1
102
RTVSPost2010PropOp30
 70
     1
102
RTVSPost2010Prop31
280
     0
102
RTVSPost2010PropOp31
 70
     1
102
RTVSPost2010Prop32
280
     0
102
RTVSPost2010PropOp32
 70
     1
102
RTVSPost2010Prop33
280
     0
102
RTVSPost2010PropOp33
 70
     1
102
RTVSPost2010Prop34
280
     0
102
RTVSPost2010PropOp34
 70
     1
102
RTVSPost2010Prop35
280
     0
102
RTVSPost2010PropOp35
 70
     1
102
RTVSPost2010Prop36
280
     0
102
RTVSPost2010PropOp36
 70
     1
102
RTVSPost2010Prop37
 90
       50
102
RTVSPost2010PropOp37
 70
     1
102
RTVSPost2010Prop38
140
0.0
102
RTVSPost2010PropOp38
 70
     1
102
RTVSPost2010Prop39
140
1.0
102
RTVSPost2010PropOp39
 70
     1
102
RTVSPost2010Prop40
 90
        0
102
RTVSPost2010PropOp40
 70
     1
102
RTVSPost2010Prop41ColorIndex
 90
       18
102
RTVSPost2010Prop41ColorRGB
 90
        0
102
RTVSPost2010PropOp41
 70
     1
102
RTVSPost2010Prop42
 90
       50
102
RTVSPost2010PropOp42
 70
     1
102
RTVSPost2010Prop43
 90
        3
102
RTVSPost2010PropOp43
 70
     1
102
RTVSPost2010Prop44ColorIndex
 90
        5
102
RTVSPost2010Prop44ColorRGB
 90
      255
102
RTVSPost2010PropOp44
 70
     1
102
RTVSPost2010Prop45
280
     0
102
RTVSPost2010PropOp45
 70
     1
102
RTVSPost2010Prop46
 90
       50
102
RTVSPost2010PropOp46
 70
     1
102
RTVSPost2010Prop47
 90
       50
102
RTVSPost2010PropOp47
 70
     1
102
RTVSPost2010Prop48
 90
       50
102
RTVSPost2010PropOp48
 70
     1
102
RTVSPost2010Prop49
280
     0
102
RTVSPost2010PropOp49
 70
     1
102
RTVSPost2010Prop50
 90
       50
102
RTVSPost2010PropOp50
 70
     1
102
RTVSPost2010Prop51ColorIndex
 90
      256
102
RTVSPost2010Prop51ColorRGB
 90
-16777216
102
RTVSPost2010PropOp51
 70
     0
102
RTVSPost2010Prop52
140
1.0
102
RTVSPost2010PropOp52
 70
     0
102
RTVSPost2010Prop53
 90
        2
102
RTVSPost2010PropOp53
 70
     1
102
RTVSPost2010Prop54
  1
strokes_ogs.tif
102
RTVSPost2010PropOp54
 70
     1
102
RTVSPost2010Prop55
280
     0
102
RTVSPost2010PropOp55
 70
     1
102
RTVSPost2010Prop56
140
1.0
102
RTVSPost2010PropOp56
 70
     1
102
RTVSPost2010Prop57
140
1.0
102
RTVSPost2010PropOp57
 70
     1
  0
XRECORD
  5
192
102
{ACAD_REACTORS
330
191
102
}
330
191
100
AcDbXrecord
280
     1
102
RTVSPost2010Prop28
280
     0
102
RTVSPost2010PropOp28
 70
     1
102
RTVSPost2010Prop29
280
     1
102
RTVSPost2010PropOp29
 70
     1
102
RTVSPost2010Prop30
280
     1
102
RTVSPost2010PropOp30
 70
     1
102
RTVSPost2010Prop31
280
     0
102
RTVSPost2010PropOp31
 70
     1
102
RTVSPost2010Prop32
280
     0
102
RTVSPost2010PropOp32
 70
     1
102
RTVSPost2010Prop33
280
     0
102
RTVSPost2010PropOp33
 70
     1
102
RTVSPost2010Prop34
280
     0
102
RTVSPost2010PropOp34
 70
     1
102
RTVSPost2010Prop35
280
     0
102
RTVSPost2010PropOp35
 70
     1
102
RTVSPost2010Prop36
280
     0
102
RTVSPost2010PropOp36
 70
     1
102
RTVSPost2010Prop37
 90
       50
102
RTVSPost2010PropOp37
 70
     1
102
RTVSPost2010Prop38
140
0.0
102
RTVSPost2010PropOp38
 70
     1
102
RTVSPost2010Prop39
140
1.0
102
RTVSPost2010PropOp39
 70
     1
102
RTVSPost2010Prop40
 90
        0
102
RTVSPost2010PropOp40
 70
     1
102
RTVSPost2010Prop41ColorIndex
 90
       18
102
RTVSPost2010Prop41ColorRGB
 90
        0
102
RTVSPost2010PropOp41
 70
     1
102
RTVSPost2010Prop42
 90
       50
102
RTVSPost2010PropOp42
 70
     1
102
RTVSPost2010Prop43
 90
        3
102
RTVSPost2010PropOp43
 70
     1
102
RTVSPost2010Prop44ColorIndex
 90
        5
102
RTVSPost2010Prop44ColorRGB
 90
      255
102
RTVSPost2010PropOp44
 70
     1
102
RTVSPost2010Prop45
280
     0
102
RTVSPost2010PropOp45
 70
     1
102
RTVSPost2010Prop46
 90
       50
102
RTVSPost2010PropOp46
 70
     1
102
RTVSPost2010Prop47
 90
       50
102
RTVSPost2010PropOp47
 70
     1
102
RTVSPost2010Prop48
 90
       50
102
RTVSPost2010PropOp48
 70
     1
102
RTVSPost2010Prop49
280
     0
102
RTVSPost2010PropOp49
 70
     1
102
RTVSPost2010Prop50
 90
       50
102
RTVSPost2010PropOp50
 70
     1
102
RTVSPost2010Prop51ColorIndex
 90
      256
102
RTVSPost2010Prop51ColorRGB
 90
-16777216
102
RTVSPost2010PropOp51
 70
     0
102
RTVSPost2010Prop52
140
1.0
102
RTVSPost2010PropOp52
 70
     0
102
RTVSPost2010Prop53
 90
        2
102
RTVSPost2010PropOp53
 70
     1
102
RTVSPost2010Prop54
  1
strokes_ogs.tif
102
RTVSPost2010PropOp54
 70
     1
102
RTVSPost2010Prop55
280
     0
102
RTVSPost2010PropOp55
 70
     1
102
RTVSPost2010Prop56
140
1.0
102
RTVSPost2010PropOp56
 70
     1
102
RTVSPost2010Prop57
140
1.0
102
RTVSPost2010PropOp57
 70
     1
  0
XRECORD
  5
194
102
{ACAD_REACTORS
330
193
102
}
330
193
100
AcDbXrecord
280
     1
102
RTVSPost2010Prop28
280
     0
102
RTVSPost2010PropOp28
 70
     1
102
RTVSPost2010Prop29
280
     1
102
RTVSPost2010PropOp29
 70
     1
102
RTVSPost2010Prop30
280
     1
102
RTVSPost2010PropOp30
 70
     1
102
RTVSPost2010Prop31
280
     0
102
RTVSPost2010PropOp31
 70
     1
102
RTVSPost2010Prop32
280
     0
102
RTVSPost2010PropOp32
 70
     1
102
RTVSPost2010Prop33
280
     0
102
RTVSPost2010PropOp33
 70
     1
102
RTVSPost2010Prop34
280
     0
102
RTVSPost2010PropOp34
 70
     1
102
RTVSPost2010Prop35
280
     0
102
RTVSPost2010PropOp35
 70
     1
102
RTVSPost2010Prop36
280
     0
102
RTVSPost2010PropOp36
 70
     1
102
RTVSPost2010Prop37
 90
       50
102
RTVSPost2010PropOp37
 70
     1
102
RTVSPost2010Prop38
140
0.0
102
RTVSPost2010PropOp38
 70
     1
102
RTVSPost2010Prop39
140
1.0
102
RTVSPost2010PropOp39
 70
     1
102
RTVSPost2010Prop40
 90
        0
102
RTVSPost2010PropOp40
 70
     1
102
RTVSPost2010Prop41ColorIndex
 90
       18
102
RTVSPost2010Prop41ColorRGB
 90
        0
102
RTVSPost2010PropOp41
 70
     1
102
RTVSPost2010Prop42
 90
       50
102
RTVSPost2010PropOp42
 70
     1
102
RTVSPost2010Prop43
 90
        3
102
RTVSPost2010PropOp43
 70
     1
102
RTVSPost2010Prop44ColorIndex
 90
        5
102
RTVSPost2010Prop44ColorRGB
 90
      255
102
RTVSPost2010PropOp44
 70
     1
102
RTVSPost2010Prop45
280
     0
102
RTVSPost2010PropOp45
 70
     1
102
RTVSPost2010Prop46
 90
       50
102
RTVSPost2010PropOp46
 70
     1
102
RTVSPost2010Prop47
 90
       50
102
RTVSPost2010PropOp47
 70
     1
102
RTVSPost2010Prop48
 90
       50
102
RTVSPost2010PropOp48
 70
     1
102
RTVSPost2010Prop49
280
     0
102
RTVSPost2010PropOp49
 70
     1
102
RTVSPost2010Prop50
 90
       50
102
RTVSPost2010PropOp50
 70
     1
102
RTVSPost2010Prop51ColorIndex
 90
      256
102
RTVSPost2010Prop51ColorRGB
 90
-16777216
102
RTVSPost2010PropOp51
 70
     0
102
RTVSPost2010Prop52
140
1.0
102
RTVSPost2010PropOp52
 70
     0
102
RTVSPost2010Prop53
 90
        2
102
RTVSPost2010PropOp53
 70
     1
102
RTVSPost2010Prop54
  1
strokes_ogs.tif
102
RTVSPost2010PropOp54
 70
     1
102
RTVSPost2010Prop55
280
     0
102
RTVSPost2010PropOp55
 70
     1
102
RTVSPost2010Prop56
140
1.0
102
RTVSPost2010PropOp56
 70
     1
102
RTVSPost2010Prop57
140
1.0
102
RTVSPost2010PropOp57
 70
     1
  0
XRECORD
  5
18A
102
{ACAD_REACTORS
330
189
102
}
330
189
100
AcDbXrecord
280
     1
102
RTVSPost2010Prop28
280
     0
102
RTVSPost2010PropOp28
 70
     1
102
RTVSPost2010Prop29
280
     1
102
RTVSPost2010PropOp29
 70
     1
102
RTVSPost2010Prop30
280
     1
102
RTVSPost2010PropOp30
 70
     1
102
RTVSPost2010Prop31
280
     0
102
RTVSPost2010PropOp31
 70
     1
102
RTVSPost2010Prop32
280
     0
102
RTVSPost2010PropOp32
 70
     1
102
RTVSPost2010Prop33
280
     0
102
RTVSPost2010PropOp33
 70
     1
102
RTVSPost2010Prop34
280
     0
102
RTVSPost2010PropOp34
 70
     1
102
RTVSPost2010Prop35
280
     0
102
RTVSPost2010PropOp35
 70
     1
102
RTVSPost2010Prop36
280
     0
102
RTVSPost2010PropOp36
 70
     1
102
RTVSPost2010Prop37
 90
       50
102
RTVSPost2010PropOp37
 70
     1
102
RTVSPost2010Prop38
140
0.0
102
RTVSPost2010PropOp38
 70
     1
102
RTVSPost2010Prop39
140
1.0
102
RTVSPost2010PropOp39
 70
     1
102
RTVSPost2010Prop40
 90
        0
102
RTVSPost2010PropOp40
 70
     1
102
RTVSPost2010Prop41ColorIndex
 90
       18
102
RTVSPost2010Prop41ColorRGB
 90
        0
102
RTVSPost2010PropOp41
 70
     1
102
RTVSPost2010Prop42
 90
       50
102
RTVSPost2010PropOp42
 70
     1
102
RTVSPost2010Prop43
 90
        3
102
RTVSPost2010PropOp43
 70
     1
102
RTVSPost2010Prop44ColorIndex
 90
        5
102
RTVSPost2010Prop44ColorRGB
 90
      255
102
RTVSPost2010PropOp44
 70
     1
102
RTVSPost2010Prop45
280
     0
102
RTVSPost2010PropOp45
 70
     1
102
RTVSPost2010Prop46
 90
       50
102
RTVSPost2010PropOp46
 70
     1
102
RTVSPost2010Prop47
 90
       50
102
RTVSPost2010PropOp47
 70
     1
102
RTVSPost2010Prop48
 90
       50
102
RTVSPost2010PropOp48
 70
     1
102
RTVSPost2010Prop49
280
     0
102
RTVSPost2010PropOp49
 70
     1
102
RTVSPost2010Prop50
 90
       50
102
RTVSPost2010PropOp50
 70
     1
102
RTVSPost2010Prop51ColorIndex
 90
      256
102
RTVSPost2010Prop51ColorRGB
 90
-16777216
102
RTVSPost2010PropOp51
 70
     0
102
RTVSPost2010Prop52
140
1.0
102
RTVSPost2010PropOp52
 70
     0
102
RTVSPost2010Prop53
 90
        2
102
RTVSPost2010PropOp53
 70
     1
102
RTVSPost2010Prop54
  1
strokes_ogs.tif
102
RTVSPost2010PropOp54
 70
     1
102
RTVSPost2010Prop55
280
     0
102
RTVSPost2010PropOp55
 70
     1
102
RTVSPost2010Prop56
140
1.0
102
RTVSPost2010PropOp56
 70
     1
102
RTVSPost2010Prop57
140
1.0
102
RTVSPost2010PropOp57
 70
     1
  0
XRECORD
  5
17E
102
{ACAD_REACTORS
330
17D
102
}
330
17D
100
AcDbXrecord
280
     1
102
RTVSPost2010Prop28
280
     0
102
RTVSPost2010PropOp28
 70
     1
102
RTVSPost2010Prop29
280
     1
102
RTVSPost2010PropOp29
 70
     1
102
RTVSPost2010Prop30
280
     1
102
RTVSPost2010PropOp30
 70
     1
102
RTVSPost2010Prop31
280
     0
102
RTVSPost2010PropOp31
 70
     1
102
RTVSPost2010Prop32
280
     0
102
RTVSPost2010PropOp32
 70
     1
102
RTVSPost2010Prop33
280
     0
102
RTVSPost2010PropOp33
 70
     1
102
RTVSPost2010Prop34
280
     0
102
RTVSPost2010PropOp34
 70
     1
102
RTVSPost2010Prop35
280
     0
102
RTVSPost2010PropOp35
 70
     1
102
RTVSPost2010Prop36
280
     0
102
RTVSPost2010PropOp36
 70
     1
102
RTVSPost2010Prop37
 90
       50
102
RTVSPost2010PropOp37
 70
     1
102
RTVSPost2010Prop38
140
0.0
102
RTVSPost2010PropOp38
 70
     1
102
RTVSPost2010Prop39
140
1.0
102
RTVSPost2010PropOp39
 70
     1
102
RTVSPost2010Prop40
 90
        0
102
RTVSPost2010PropOp40
 70
     1
102
RTVSPost2010Prop41ColorIndex
 90
       18
102
RTVSPost2010Prop41ColorRGB
 90
        0
102
RTVSPost2010PropOp41
 70
     1
102
RTVSPost2010Prop42
 90
       50
102
RTVSPost2010PropOp42
 70
     1
102
RTVSPost2010Prop43
 90
        3
102
RTVSPost2010PropOp43
 70
     1
102
RTVSPost2010Prop44ColorIndex
 90
        5
102
RTVSPost2010Prop44ColorRGB
 90
      255
102
RTVSPost2010PropOp44
 70
     1
102
RTVSPost2010Prop45
280
     0
102
RTVSPost2010PropOp45
 70
     1
102
RTVSPost2010Prop46
 90
       50
102
RTVSPost2010PropOp46
 70
     1
102
RTVSPost2010Prop47
 90
       50
102
RTVSPost2010PropOp47
 70
     1
102
RTVSPost2010Prop48
 90
       50
102
RTVSPost2010PropOp48
 70
     1
102
RTVSPost2010Prop49
280
     0
102
RTVSPost2010PropOp49
 70
     1
102
RTVSPost2010Prop50
 90
       50
102
RTVSPost2010PropOp50
 70
     1
102
RTVSPost2010Prop51ColorIndex
 90
      256
102
RTVSPost2010Prop51ColorRGB
 90
-16777216
102
RTVSPost2010PropOp51
 70
     0
102
RTVSPost2010Prop52
140
1.0
102
RTVSPost2010PropOp52
 70
     0
102
RTVSPost2010Prop53
 90
        2
102
RTVSPost2010PropOp53
 70
     1
102
RTVSPost2010Prop54
  1
strokes_ogs.tif
102
RTVSPost2010PropOp54
 70
     1
102
RTVSPost2010Prop55
280
     0
102
RTVSPost2010PropOp55
 70
     1
102
RTVSPost2010Prop56
140
1.0
102
RTVSPost2010PropOp56
 70
     1
102
RTVSPost2010Prop57
140
1.0
102
RTVSPost2010PropOp57
 70
     1
  0
XRECORD
  5
196
102
{ACAD_REACTORS
330
195
102
}
330
195
100
AcDbXrecord
280
     1
102
RTVSPost2010Prop28
280
     0
102
RTVSPost2010PropOp28
 70
     1
102
RTVSPost2010Prop29
280
     1
102
RTVSPost2010PropOp29
 70
     1
102
RTVSPost2010Prop30
280
     1
102
RTVSPost2010PropOp30
 70
     1
102
RTVSPost2010Prop31
280
     0
102
RTVSPost2010PropOp31
 70
     1
102
RTVSPost2010Prop32
280
     0
102
RTVSPost2010PropOp32
 70
     1
102
RTVSPost2010Prop33
280
     0
102
RTVSPost2010PropOp33
 70
     1
102
RTVSPost2010Prop34
280
     0
102
RTVSPost2010PropOp34
 70
     1
102
RTVSPost2010Prop35
280
     0
102
RTVSPost2010PropOp35
 70
     1
102
RTVSPost2010Prop36
280
     0
102
RTVSPost2010PropOp36
 70
     1
102
RTVSPost2010Prop37
 90
       50
102
RTVSPost2010PropOp37
 70
     1
102
RTVSPost2010Prop38
140
0.0
102
RTVSPost2010PropOp38
 70
     1
102
RTVSPost2010Prop39
140
1.0
102
RTVSPost2010PropOp39
 70
     1
102
RTVSPost2010Prop40
 90
        0
102
RTVSPost2010PropOp40
 70
     1
102
RTVSPost2010Prop41ColorIndex
 90
       18
102
RTVSPost2010Prop41ColorRGB
 90
        0
102
RTVSPost2010PropOp41
 70
     1
102
RTVSPost2010Prop42
 90
       50
102
RTVSPost2010PropOp42
 70
     1
102
RTVSPost2010Prop43
 90
        3
102
RTVSPost2010PropOp43
 70
     1
102
RTVSPost2010Prop44ColorIndex
 90
        5
102
RTVSPost2010Prop44ColorRGB
 90
      255
102
RTVSPost2010PropOp44
 70
     1
102
RTVSPost2010Prop45
280
     0
102
RTVSPost2010PropOp45
 70
     1
102
RTVSPost2010Prop46
 90
       50
102
RTVSPost2010PropOp46
 70
     1
102
RTVSPost2010Prop47
 90
       50
102
RTVSPost2010PropOp47
 70
     1
102
RTVSPost2010Prop48
 90
       50
102
RTVSPost2010PropOp48
 70
     1
102
RTVSPost2010Prop49
280
     0
102
RTVSPost2010PropOp49
 70
     1
102
RTVSPost2010Prop50
 90
       50
102
RTVSPost2010PropOp50
 70
     1
102
RTVSPost2010Prop51ColorIndex
 90
      256
102
RTVSPost2010Prop51ColorRGB
 90
-16777216
102
RTVSPost2010PropOp51
 70
     0
102
RTVSPost2010Prop52
140
1.0
102
RTVSPost2010PropOp52
 70
     0
102
RTVSPost2010Prop53
 90
        2
102
RTVSPost2010PropOp53
 70
     1
102
RTVSPost2010Prop54
  1
strokes_ogs.tif
102
RTVSPost2010PropOp54
 70
     1
102
RTVSPost2010Prop55
280
     0
102
RTVSPost2010PropOp55
 70
     1
102
RTVSPost2010Prop56
140
1.0
102
RTVSPost2010PropOp56
 70
     1
102
RTVSPost2010Prop57
140
1.0
102
RTVSPost2010PropOp57
 70
     1
  0
ENDSEC
  0
EOF
