  0
SECTION
  2
HEADER
  9
$ACADVER
  1
AC1024
  9
$ACADMAINTVER
 70
   205
  9
$DWGCODEPAGE
  3
ANSI_1251
  9
$INSBASE
 10
0.0
 20
0.0
 30
0.0
  9
$EXTMIN
 10
1.000000000000000E+20
 20
1.000000000000000E+20
 30
1.000000000000000E+20
  9
$EXTMAX
 10
-1.000000000000000E+20
 20
-1.000000000000000E+20
 30
-1.000000000000000E+20
  9
$LIMMIN
 10
0.0
 20
0.0
  9
$LIMMAX
 10
12.0
 20
9.0
  9
$ORTHOMODE
 70
     0
  9
$REGENMODE
 70
     1
  9
$FILLMODE
 70
     1
  9
$QTEXTMODE
 70
     0
  9
$MIRRTEXT
 70
     1
  9
$LTSCALE
 40
1.0
  9
$ATTMODE
 70
     1
  9
$TEXTSIZE
 40
0.2
  9
$TRACEWID
 40
0.05
  9
$TEXTSTYLE
  7
Standard
  9
$CLAYER
  8
OracDecor_panel_moldings
  9
$CELTYPE
  6
ByLayer
  9
$CECOLOR
 62
   256
  9
$CELTSCALE
 40
1.0
  9
$DISPSILH
 70
     0
  9
$DIMSCALE
 40
1.0
  9
$DIMASZ
 40
0.18
  9
$DIMEXO
 40
0.0625
  9
$DIMDLI
 40
0.38
  9
$DIMRND
 40
0.0
  9
$DIMDLE
 40
0.0
  9
$DIMEXE
 40
0.18
  9
$DIMTP
 40
0.0
  9
$DIMTM
 40
0.0
  9
$DIMTXT
 40
0.18
  9
$DIMCEN
 40
0.09
  9
$DIMTSZ
 40
0.0
  9
$DIMTOL
 70
     0
  9
$DIMLIM
 70
     0
  9
$DIMTIH
 70
     1
  9
$DIMTOH
 70
     1
  9
$DIMSE1
 70
     0
  9
$DIMSE2
 70
     0
  9
$DIMTAD
 70
     0
  9
$DIMZIN
 70
     0
  9
$DIMBLK
  1

  9
$DIMASO
 70
     1
  9
$DIMSHO
 70
     1
  9
$DIMPOST
  1

  9
$DIMAPOST
  1

  9
$DIMALT
 70
     0
  9
$DIMALTD
 70
     2
  9
$DIMALTF
 40
25.4
  9
$DIMLFAC
 40
1.0
  9
$DIMTOFL
 70
     0
  9
$DIMTVP
 40
0.0
  9
$DIMTIX
 70
     0
  9
$DIMSOXD
 70
     0
  9
$DIMSAH
 70
     0
  9
$DIMBLK1
  1

  9
$DIMBLK2
  1

  9
$DIMSTYLE
  2
Standard
  9
$DIMCLRD
 70
     0
  9
$DIMCLRE
 70
     0
  9
$DIMCLRT
 70
     0
  9
$DIMTFAC
 40
1.0
  9
$DIMGAP
 40
0.09
  9
$DIMJUST
 70
     0
  9
$DIMSD1
 70
     0
  9
$DIMSD2
 70
     0
  9
$DIMTOLJ
 70
     1
  9
$DIMTZIN
 70
     0
  9
$DIMALTZ
 70
     0
  9
$DIMALTTZ
 70
     0
  9
$DIMUPT
 70
     0
  9
$DIMDEC
 70
     4
  9
$DIMTDEC
 70
     4
  9
$DIMALTU
 70
     2
  9
$DIMALTTD
 70
     2
  9
$DIMTXSTY
  7
Standard
  9
$DIMAUNIT
 70
     0
  9
$DIMADEC
 70
     0
  9
$DIMALTRND
 40
0.0
  9
$DIMAZIN
 70
     0
  9
$DIMDSEP
 70
    46
  9
$DIMATFIT
 70
     3
  9
$DIMFRAC
 70
     0
  9
$DIMLDRBLK
  1

  9
$DIMLUNIT
 70
     2
  9
$DIMLWD
 70
    -2
  9
$DIMLWE
 70
    -2
  9
$DIMTMOVE
 70
     0
  9
$DIMFXL
 40
1.0
  9
$DIMFXLON
 70
     0
  9
$DIMJOGANG
 40
0.7853981633974483
  9
$DIMTFILL
 70
     0
  9
$DIMTFILLCLR
 70
     0
  9
$DIMARCSYM
 70
     0
  9
$DIMLTYPE
  6

  9
$DIMLTEX1
  6

  9
$DIMLTEX2
  6

  9
$DIMTXTDIRECTION
 70
     0
  9
$LUNITS
 70
     2
  9
$LUPREC
 70
     4
  9
$SKETCHINC
 40
0.1
  9
$FILLETRAD
 40
0.5
  9
$AUNITS
 70
     0
  9
$AUPREC
 70
     0
  9
$MENU
  1
.
  9
$ELEVATION
 40
0.0
  9
$PELEVATION
 40
0.0
  9
$THICKNESS
 40
0.0
  9
$LIMCHECK
 70
     0
  9
$CHAMFERA
 40
0.5
  9
$CHAMFERB
 40
0.5
  9
$CHAMFERC
 40
1.0
  9
$CHAMFERD
 40
0.0
  9
$SKPOLY
 70
     0
  9
$TDCREATE
 40
2451380.930432396
  9
$TDUCREATE
 40
2451380.805432396
  9
$TDUPDATE
 40
2451380.966180555
  9
$TDUUPDATE
 40
2451380.841180556
  9
$TDINDWG
 40
0.0075614931
  9
$TDUSRTIMER
 40
0.0075524537
  9
$USRTIMER
 70
     1
  9
$ANGBASE
 50
0.0
  9
$ANGDIR
 70
     0
  9
$PDMODE
 70
     0
  9
$PDSIZE
 40
0.0
  9
$PLINEWID
 40
0.0
  9
$SPLFRAME
 70
     0
  9
$SPLINETYPE
 70
     6
  9
$SPLINESEGS
 70
     8
  9
$HANDSEED
  5
199
  9
$SURFTAB1
 70
     6
  9
$SURFTAB2
 70
     6
  9
$SURFTYPE
 70
     6
  9
$SURFU
 70
     6
  9
$SURFV
 70
     6
  9
$UCSBASE
  2

  9
$UCSNAME
  2

  9
$UCSORG
 10
0.0
 20
0.0
 30
0.0
  9
$UCSXDIR
 10
1.0
 20
0.0
 30
0.0
  9
$UCSYDIR
 10
0.0
 20
1.0
 30
0.0
  9
$UCSORTHOREF
  2

  9
$UCSORTHOVIEW
 70
     0
  9
$UCSORGTOP
 10
0.0
 20
0.0
 30
0.0
  9
$UCSORGBOTTOM
 10
0.0
 20
0.0
 30
0.0
  9
$UCSORGLEFT
 10
0.0
 20
0.0
 30
0.0
  9
$UCSORGRIGHT
 10
0.0
 20
0.0
 30
0.0
  9
$UCSORGFRONT
 10
0.0
 20
0.0
 30
0.0
  9
$UCSORGBACK
 10
0.0
 20
0.0
 30
0.0
  9
$PUCSBASE
  2

  9
$PUCSNAME
  2

  9
$PUCSORG
 10
0.0
 20
0.0
 30
0.0
  9
$PUCSXDIR
 10
1.0
 20
0.0
 30
0.0
  9
$PUCSYDIR
 10
0.0
 20
1.0
 30
0.0
  9
$PUCSORTHOREF
  2

  9
$PUCSORTHOVIEW
 70
     0
  9
$PUCSORGTOP
 10
0.0
 20
0.0
 30
0.0
  9
$PUCSORGBOTTOM
 10
0.0
 20
0.0
 30
0.0
  9
$PUCSORGLEFT
 10
0.0
 20
0.0
 30
0.0
  9
$PUCSORGRIGHT
 10
0.0
 20
0.0
 30
0.0
  9
$PUCSORGFRONT
 10
0.0
 20
0.0
 30
0.0
  9
$PUCSORGBACK
 10
0.0
 20
0.0
 30
0.0
  9
$USERI1
 70
     0
  9
$USERI2
 70
     0
  9
$USERI3
 70
     0
  9
$USERI4
 70
     0
  9
$USERI5
 70
     0
  9
$USERR1
 40
0.0
  9
$USERR2
 40
0.0
  9
$USERR3
 40
0.0
  9
$USERR4
 40
0.0
  9
$USERR5
 40
0.0
  9
$WORLDVIEW
 70
     1
  9
$SHADEDGE
 70
     3
  9
$SHADEDIF
 70
    70
  9
$TILEMODE
 70
     1
  9
$MAXACTVP
 70
    64
  9
$PINSBASE
 10
0.0
 20
0.0
 30
0.0
  9
$PLIMCHECK
 70
     0
  9
$PEXTMIN
 10
1.000000000000000E+20
 20
1.000000000000000E+20
 30
1.000000000000000E+20
  9
$PEXTMAX
 10
-1.000000000000000E+20
 20
-1.000000000000000E+20
 30
-1.000000000000000E+20
  9
$PLIMMIN
 10
0.0
 20
0.0
  9
$PLIMMAX
 10
12.0
 20
9.0
  9
$UNITMODE
 70
     0
  9
$VISRETAIN
 70
     1
  9
$PLINEGEN
 70
     0
  9
$PSLTSCALE
 70
     1
  9
$TREEDEPTH
 70
  3020
  9
$CMLSTYLE
  2
Standard
  9
$CMLJUST
 70
     0
  9
$CMLSCALE
 40
1.0
  9
$PROXYGRAPHICS
 70
     1
  9
$MEASUREMENT
 70
     1
  9
$CELWEIGHT
370
    -1
  9
$ENDCAPS
280
     0
  9
$JOINSTYLE
280
     0
  9
$LWDISPLAY
290
     0
  9
$INSUNITS
 70
     4
  9
$HYPERLINKBASE
  1

  9
$STYLESHEET
  1

  9
$XEDIT
290
     1
  9
$CEPSNTYPE
380
     0
  9
$PSTYLEMODE
290
     1
  9
$FINGERPRINTGUID
  2
{12F50282-3ED8-11D3-A8B7-0060B0F84BC6}
  9
$VERSIONGUID
  2
{12F50293-3ED8-11D3-A8B7-0060B0F84BC6}
  9
$EXTNAMES
290
     1
  9
$PSVPSCALE
 40
0.0
  9
$OLESTARTUP
290
     0
  9
$SORTENTS
280
   127
  9
$INDEXCTL
280
     0
  9
$HIDETEXT
280
     0
  9
$XCLIPFRAME
280
     2
  9
$HALOGAP
280
     0
  9
$OBSCOLOR
 70
   257
  9
$OBSLTYPE
280
     0
  9
$INTERSECTIONDISPLAY
280
     0
  9
$INTERSECTIONCOLOR
 70
   257
  9
$DIMASSOC
280
     1
  9
$PROJECTNAME
  1

  9
$CAMERADISPLAY
290
     0
  9
$LENSLENGTH
 40
50.0
  9
$CAMERAHEIGHT
 40
0.0
  9
$STEPSPERSEC
 40
2.0
  9
$STEPSIZE
 40
6.0
  9
$3DDWFPREC
 40
2.0
  9
$PSOLWIDTH
 40
0.25
  9
$PSOLHEIGHT
 40
4.0
  9
$LOFTANG1
 40
1.570796326794896
  9
$LOFTANG2
 40
1.570796326794896
  9
$LOFTMAG1
 40
0.0
  9
$LOFTMAG2
 40
0.0
  9
$LOFTPARAM
 70
     7
  9
$LOFTNORMALS
280
     1
  9
$LATITUDE
 40
37.795
  9
$LONGITUDE
 40
-122.394
  9
$NORTHDIRECTION
 40
0.0
  9
$TIMEZONE
 70
 -8000
  9
$LIGHTGLYPHDISPLAY
280
     1
  9
$TILEMODELIGHTSYNCH
280
     1
  9
$CMATERIAL
347
AB
  9
$SOLIDHIST
280
     0
  9
$SHOWHIST
280
     1
  9
$DWFFRAME
280
     2
  9
$DGNFRAME
280
     0
  9
$REALWORLDSCALE
290
     1
  9
$INTERFERECOLOR
 62
     1
  9
$INTERFEREOBJVS
345
CD
  9
$INTERFEREVPVS
346
CA
  9
$CSHADOW
280
     0
  9
$SHADOWPLANELOCATION
 40
0.0
  0
ENDSEC
  0
SECTION
  2
CLASSES
  0
CLASS
  1
ACDBDICTIONARYWDFLT
  2
AcDbDictionaryWithDefault
  3
ObjectDBX Classes
 90
        0
 91
        1
280
     0
281
     0
  0
CLASS
  1
ACDBPLACEHOLDER
  2
AcDbPlaceHolder
  3
ObjectDBX Classes
 90
        0
 91
        2
280
     0
281
     0
  0
CLASS
  1
LAYOUT
  2
AcDbLayout
  3
ObjectDBX Classes
 90
        0
 91
        3
280
     0
281
     0
  0
CLASS
  1
MATERIAL
  2
AcDbMaterial
  3
ObjectDBX Classes
 90
     1153
 91
        3
280
     0
281
     0
  0
CLASS
  1
VISUALSTYLE
  2
AcDbVisualStyle
  3
ObjectDBX Classes
 90
     4095
 91
       24
280
     0
281
     0
  0
CLASS
  1
TABLESTYLE
  2
AcDbTableStyle
  3
ObjectDBX Classes
 90
     4095
 91
        1
280
     0
281
     0
  0
CLASS
  1
SCALE
  2
AcDbScale
  3
ObjectDBX Classes
 90
     1153
 91
       17
280
     0
281
     0
  0
CLASS
  1
MLEADERSTYLE
  2
AcDbMLeaderStyle
  3
ACDB_MLEADERSTYLE_CLASS
 90
     4095
 91
        1
280
     0
281
     0
  0
CLASS
  1
ACDBSECTIONVIEWSTYLE
  2
AcDbSectionViewStyle
  3
ObjectDBX Classes
 90
     1025
 91
        1
280
     0
281
     0
  0
CLASS
  1
ACDBDETAILVIEWSTYLE
  2
AcDbDetailViewStyle
  3
ObjectDBX Classes
 90
     1025
 91
        1
280
     0
281
     0
  0
CLASS
  1
MESH
  2
AcDbSubDMesh
  3
ObjectDBX Classes
 90
        0
 91
        1
280
     0
281
     1
  0
CLASS
  1
DICTIONARYVAR
  2
AcDbDictionaryVar
  3
ObjectDBX Classes
 90
        0
 91
        9
280
     0
281
     0
  0
CLASS
  1
CELLSTYLEMAP
  2
AcDbCellStyleMap
  3
ObjectDBX Classes
 90
     1152
 91
        1
280
     0
281
     0
  0
ENDSEC
  0
SECTION
  2
TABLES
  0
TABLE
  2
VPORT
  5
8
330
0
100
AcDbSymbolTable
 70
     1
  0
VPORT
  5
A8
330
8
100
AcDbSymbolTableRecord
100
AcDbViewportTableRecord
  2
*Active
 70
     0
 10
0.0
 20
0.0
 11
1.0
 21
1.0
 12
0.0
 22
32.25163269042969
 13
0.0
 23
0.0
 14
0.5
 24
0.5
 15
0.5
 25
0.5
 16
-1.0
 26
-1.0
 36
1.0
 17
0.0
 27
0.0
 37
0.0
 40
1094.971832249055
 41
1.607086849860419
 42
50.0
 43
0.0
 44
0.0
 50
0.0
 51
0.0
 71
     0
 72
   100
 73
     1
 74
     3
 75
     0
 76
     0
 77
     0
 78
     0
281
     0
 65
     1
110
0.0
120
0.0
130
0.0
111
1.0
121
0.0
131
0.0
112
0.0
122
1.0
132
0.0
 79
     0
146
0.0
348
C9
 60
     3
 61
     5
292
     1
282
     1
141
0.0
142
0.0
 63
   250
421
  3355443
  0
ENDTAB
  0
TABLE
  2
LTYPE
  5
5
330
0
100
AcDbSymbolTable
 70
     1
  0
LTYPE
  5
14
330
5
100
AcDbSymbolTableRecord
100
AcDbLinetypeTableRecord
  2
ByBlock
 70
     0
  3

 72
    65
 73
     0
 40
0.0
  0
LTYPE
  5
15
330
5
100
AcDbSymbolTableRecord
100
AcDbLinetypeTableRecord
  2
ByLayer
 70
     0
  3

 72
    65
 73
     0
 40
0.0
  0
LTYPE
  5
16
330
5
100
AcDbSymbolTableRecord
100
AcDbLinetypeTableRecord
  2
Continuous
 70
     0
  3
Solid line
 72
    65
 73
     0
 40
0.0
  0
ENDTAB
  0
TABLE
  2
LAYER
  5
2
330
0
100
AcDbSymbolTable
 70
     3
  0
LAYER
  5
10
330
2
100
AcDbSymbolTableRecord
100
AcDbLayerTableRecord
  2
0
 70
     0
 62
     7
  6
Continuous
370
    -3
390
F
347
BB
  0
LAYER
  5
2B
330
2
100
AcDbSymbolTableRecord
100
AcDbLayerTableRecord
  2
ASHADE
 70
     4
 62
     7
  6
Continuous
370
    -3
390
2D
347
BB
  0
LAYER
  5
F8
330
2
100
AcDbSymbolTableRecord
100
AcDbLayerTableRecord
  2
OracDecor_panel_moldings
 70
     0
 62
    73
420
  9429335
  6
Continuous
370
    -3
390
F
347
BB
  0
ENDTAB
  0
TABLE
  2
STYLE
  5
3
330
0
100
AcDbSymbolTable
 70
     2
  0
STYLE
  5
11
330
3
100
AcDbSymbolTableRecord
100
AcDbTextStyleTableRecord
  2
Standard
 70
     0
 40
0.0
 41
1.0
 50
0.0
 71
     0
 42
0.2
  3
txt
  4

  0
STYLE
  5
2C
330
3
100
AcDbSymbolTableRecord
100
AcDbTextStyleTableRecord
  2
ASHADE
 70
     0
 40
0.2
 41
1.0
 50
0.0
 71
     0
 42
0.2
  3
simplex
  4

  0
ENDTAB
  0
TABLE
  2
VIEW
  5
6
330
0
100
AcDbSymbolTable
 70
     0
  0
ENDTAB
  0
TABLE
  2
UCS
  5
7
330
0
100
AcDbSymbolTable
 70
     0
  0
ENDTAB
  0
TABLE
  2
APPID
  5
9
330
0
100
AcDbSymbolTable
 70
     6
  0
APPID
  5
12
330
9
100
AcDbSymbolTableRecord
100
AcDbRegAppTableRecord
  2
ACAD
 70
     0
  0
APPID
  5
8F
330
9
100
AcDbSymbolTableRecord
100
AcDbRegAppTableRecord
  2
AVE_RENDER
 70
     0
  0
APPID
  5
90
330
9
100
AcDbSymbolTableRecord
100
AcDbRegAppTableRecord
  2
AVE_ENTITY_MATERIAL
 70
     0
  0
APPID
  5
9C
330
9
100
AcDbSymbolTableRecord
100
AcDbRegAppTableRecord
  2
AVE_FINISH
 70
     0
  0
APPID
  5
9D
330
9
100
AcDbSymbolTableRecord
100
AcDbRegAppTableRecord
  2
AVE_MATERIAL
 70
     0
  0
APPID
  5
9E
330
9
100
AcDbSymbolTableRecord
100
AcDbRegAppTableRecord
  2
AVE_GLOBAL
 70
     0
  0
ENDTAB
  0
TABLE
  2
DIMSTYLE
  5
A
330
0
100
AcDbSymbolTable
 70
     1
100
AcDbDimStyleTable
 71
     0
  0
DIMSTYLE
105
27
330
A
100
AcDbSymbolTableRecord
100
AcDbDimStyleTableRecord
  2
Standard
 70
     0
340
11
  0
ENDTAB
  0
TABLE
  2
BLOCK_RECORD
  5
1
330
0
100
AcDbSymbolTable
 70
     6
  0
BLOCK_RECORD
  5
1F
330
1
100
AcDbSymbolTableRecord
100
AcDbBlockTableRecord
  2
*Model_Space
340
22
 70
     0
280
     1
281
     0
  0
BLOCK_RECORD
  5
1B
330
1
100
AcDbSymbolTableRecord
100
AcDbBlockTableRecord
  2
*Paper_Space
340
1E
 70
     0
280
     1
281
     0
  0
BLOCK_RECORD
  5
23
330
1
100
AcDbSymbolTableRecord
100
AcDbBlockTableRecord
  2
*Paper_Space0
340
26
 70
     0
280
     1
281
     0
  0
BLOCK_RECORD
  5
2E
330
1
100
AcDbSymbolTableRecord
100
AcDbBlockTableRecord
  2
direct
340
0
 70
     0
280
     1
281
     0
  0
BLOCK_RECORD
  5
42
330
1
100
AcDbSymbolTableRecord
100
AcDbBlockTableRecord
  2
overhead
340
0
 70
     0
280
     1
281
     0
  0
BLOCK_RECORD
  5
5F
330
1
100
AcDbSymbolTableRecord
100
AcDbBlockTableRecord
  2
sh_spot
340
0
 70
     0
280
     1
281
     0
  0
BLOCK_RECORD
  5
91
330
1
100
AcDbSymbolTableRecord
100
AcDbBlockTableRecord
  2
AVE_RENDER
340
0
102
{BLKREFS
331
94
331
95
331
96
331
97
331
98
331
99
331
9A
331
9B
102
}
 70
     0
280
     1
281
     0
  0
BLOCK_RECORD
  5
9F
330
1
100
AcDbSymbolTableRecord
100
AcDbBlockTableRecord
  2
AVE_GLOBAL
340
0
102
{BLKREFS
331
A2
102
}
 70
     0
280
     1
281
     0
  0
ENDTAB
  0
ENDSEC
  0
SECTION
  2
BLOCKS
  0
BLOCK
  5
20
330
1F
100
AcDbEntity
  8
0
100
AcDbBlockBegin
  2
*Model_Space
 70
     0
 10
0.0
 20
0.0
 30
0.0
  3
*Model_Space
  1

  0
ENDBLK
  5
21
330
1F
100
AcDbEntity
  8
0
100
AcDbBlockEnd
  0
BLOCK
  5
1C
330
1B
100
AcDbEntity
 67
     1
  8
0
100
AcDbBlockBegin
  2
*Paper_Space
 70
     0
 10
0.0
 20
0.0
 30
0.0
  3
*Paper_Space
  1

  0
ENDBLK
  5
1D
330
1B
100
AcDbEntity
 67
     1
  8
0
100
AcDbBlockEnd
  0
BLOCK
  5
24
330
23
100
AcDbEntity
 67
     1
  8
0
100
AcDbBlockBegin
  2
*Paper_Space0
 70
     0
 10
0.0
 20
0.0
 30
0.0
  3
*Paper_Space0
  1

  0
ENDBLK
  5
25
330
23
100
AcDbEntity
 67
     1
  8
0
100
AcDbBlockEnd
  0
BLOCK
  5
40
330
2E
100
AcDbEntity
  8
0
100
AcDbBlockBegin
  2
direct
 70
     2
 10
0.0
 20
0.0
 30
0.0
  3
direct
  1

  0
ATTDEF
  5
2F
330
2E
100
AcDbEntity
  8
ASHADE
  6
Continuous
 62
     1
100
AcDbText
 10
0.0
 20
-0.1
 30
0.0
 40
0.2
  1

  7
ASHADE
 72
     1
 11
0.0
 21
-0.1
 31
0.0
100
AcDbAttributeDefinition
280
     0
  3
Light Name
  2
SNAME
 70
     0
280
     0
  0
ARC
  5
30
330
2E
100
AcDbEntity
  8
ASHADE
  6
Continuous
 62
     7
100
AcDbCircle
 10
0.0
 20
0.0
 30
0.0
 40
0.3
100
AcDbArc
 50
205.6792886194569
 51
334.3207113805431
  0
ARC
  5
31
330
2E
100
AcDbEntity
  8
ASHADE
  6
Continuous
 62
     7
100
AcDbCircle
 10
0.0
 20
0.0
 30
0.0
 40
0.3
100
AcDbArc
 50
25.67928861945685
 51
154.3207113805431
  0
LINE
  5
32
330
2E
100
AcDbEntity
  8
ASHADE
  6
Continuous
 62
     7
100
AcDbLine
 10
-0.21
 20
0.2142428528562855
 30
0.0
 11
-0.21
 21
0.5
 31
0.0
  0
LINE
  5
33
330
2E
100
AcDbEntity
  8
ASHADE
  6
Continuous
 62
     7
100
AcDbLine
 10
-0.11
 20
0.2791057147390572
 30
0.0
 11
-0.11
 21
0.5
 31
0.0
  0
LINE
  5
34
330
2E
100
AcDbEntity
  8
ASHADE
  6
Continuous
 62
     7
100
AcDbLine
 10
0.21
 20
0.2142428528562855
 30
0.0
 11
0.21
 21
0.5
 31
0.0
  0
ATTDEF
  5
35
330
2E
100
AcDbEntity
  8
ASHADE
  6
Continuous
 62
     7
100
AcDbText
 10
0.0
 20
0.25
 30
0.0
 40
0.01
  1

100
AcDbAttributeDefinition
280
     0
  3
Look-at Y
  2
LAY
 70
     1
280
     0
  0
ATTDEF
  5
36
330
2E
100
AcDbEntity
  8
ASHADE
  6
Continuous
 62
     7
100
AcDbText
 10
0.0
 20
0.22
 30
0.0
 40
0.01
  1
1
100
AcDbAttributeDefinition
280
     0
  3
Light Intensity
  2
INTENSITY
 70
     1
280
     0
  0
ATTDEF
  5
37
330
2E
100
AcDbEntity
  8
ASHADE
  6
Continuous
 62
     7
100
AcDbText
 10
0.0
 20
0.16
 30
0.0
 40
0.01
  1
-1
100
AcDbAttributeDefinition
280
     0
  3
*not used*
  2
BEAMD
 70
     1
280
     0
  0
ATTDEF
  5
38
330
2E
100
AcDbEntity
  8
ASHADE
  6
Continuous
 62
     7
100
AcDbText
 10
0.0
 20
0.175
 30
0.0
 40
0.01
  1
-1
100
AcDbAttributeDefinition
280
     0
  3
*not used*
  2
CONED
 70
     1
280
     0
  0
ATTDEF
  5
39
330
2E
100
AcDbEntity
  8
ASHADE
  6
Continuous
 62
     7
100
AcDbText
 10
0.0
 20
0.19
 30
0.0
 40
0.01
  1
0
100
AcDbAttributeDefinition
280
     0
  3
Depth Map Size
  2
CONEA
 70
     1
280
     0
  0
ATTDEF
  5
3A
330
2E
100
AcDbEntity
  8
ASHADE
  6
Continuous
 62
     7
100
AcDbText
 10
0.0
 20
0.2050000000000001
 30
0.0
 40
0.01
  1
1,1,1
100
AcDbAttributeDefinition
280
     0
  3
Light Color (RGB)
  2
COLOR
 70
     1
280
     0
  0
ATTDEF
  5
3B
330
2E
100
AcDbEntity
  8
ASHADE
  6
Continuous
 62
     7
100
AcDbText
 10
0.0
 20
0.235
 30
0.0
 40
0.01
  1

100
AcDbAttributeDefinition
280
     0
  3
Look-at Z
  2
LAZ
 70
     1
280
     0
  0
LINE
  5
3C
330
2E
100
AcDbEntity
  8
ASHADE
  6
Continuous
 62
     7
100
AcDbLine
 10
0.0
 20
0.3
 30
0.0
 11
0.0
 21
0.5
 31
0.0
  0
LINE
  5
3D
330
2E
100
AcDbEntity
  8
ASHADE
  6
Continuous
 62
     7
100
AcDbLine
 10
0.11
 20
0.2791057147390572
 30
0.0
 11
0.11
 21
0.5
 31
0.0
  0
ATTDEF
  5
3E
330
2E
100
AcDbEntity
  8
ASHADE
  6
Continuous
 62
     7
100
AcDbText
 10
0.0
 20
0.265
 30
0.0
 40
0.01
  1

100
AcDbAttributeDefinition
280
     0
  3
Look-at X
  2
LAX
 70
     1
280
     0
  0
ATTDEF
  5
3F
330
2E
100
AcDbEntity
  8
ASHADE
  6
Continuous
 62
     7
100
AcDbText
 10
0.0
 20
0.28
 30
0.0
 40
0.01
  1

100
AcDbAttributeDefinition
280
     0
  3

  2
GNAME
 70
     1
280
     0
  0
ENDBLK
  5
41
330
2E
100
AcDbEntity
  8
0
100
AcDbBlockEnd
  0
BLOCK
  5
5D
330
42
100
AcDbEntity
  8
0
100
AcDbBlockBegin
  2
overhead
 70
     2
 10
0.0
 20
0.0
 30
0.0
  3
overhead
  1

  0
ATTDEF
  5
43
330
42
100
AcDbEntity
  8
ASHADE
  6
Continuous
 62
     1
100
AcDbText
 10
0.0
 20
-0.1
 30
0.0
 40
0.2
  1

  7
ASHADE
 72
     1
 11
0.0
 21
-0.1
 31
0.0
100
AcDbAttributeDefinition
280
     0
  3
Light Name
  2
SNAME
 70
     0
280
     0
  0
ARC
  5
44
330
42
100
AcDbEntity
  8
ASHADE
  6
Continuous
 62
     7
100
AcDbCircle
 10
0.0
 20
0.0
 30
0.0
 40
0.3
100
AcDbArc
 50
205.6792886194569
 51
334.3207113805431
  0
LINE
  5
45
330
42
100
AcDbEntity
  8
ASHADE
  6
Continuous
 62
     7
100
AcDbLine
 10
-0.2041413561583015
 20
-0.2198324514393848
 30
0.0
 11
-0.2721884748777353
 21
-0.2931099352525131
 31
0.0
  0
LINE
  5
46
330
42
100
AcDbEntity
  8
ASHADE
  6
Continuous
 62
     7
100
AcDbLine
 10
-0.1096591641591904
 20
-0.2792398032442862
 30
0.0
 11
-0.1279356915190555
 21
-0.3257797704516673
 31
0.0
  0
LINE
  5
47
330
42
100
AcDbEntity
  8
ASHADE
  6
Continuous
 62
     7
100
AcDbLine
 10
0.0
 20
-0.2999999999999999
 30
0.0
 11
0.0
 21
-0.4
 31
0.0
  0
LINE
  5
48
330
42
100
AcDbEntity
  8
ASHADE
  6
Continuous
 62
     7
100
AcDbLine
 10
0.1096591641591904
 20
-0.2792398032442862
 30
0.0
 11
0.1279356915190555
 21
-0.3257797704516673
 31
0.0
  0
LINE
  5
49
330
42
100
AcDbEntity
  8
ASHADE
  6
Continuous
 62
     7
100
AcDbLine
 10
0.2041413561583015
 20
-0.2198324514393848
 30
0.0
 11
0.2721884748777353
 21
-0.2931099352525131
 31
0.0
  0
ARC
  5
4A
330
42
100
AcDbEntity
  8
ASHADE
  6
Continuous
 62
     7
100
AcDbCircle
 10
0.0
 20
0.0
 30
0.0
 40
0.3
100
AcDbArc
 50
25.67928861945685
 51
154.3207113805431
  0
LINE
  5
4B
330
42
100
AcDbEntity
  8
ASHADE
  6
Continuous
 62
     7
100
AcDbLine
 10
-0.2703701166919155
 20
0.13
 30
0.0
 11
-0.3154318028072347
 21
0.1516666666666666
 31
0.0
  0
LINE
  5
4C
330
42
100
AcDbEntity
  8
ASHADE
  6
Continuous
 62
     7
100
AcDbLine
 10
-0.2703701166919155
 20
-0.13
 30
0.0
 11
-0.3154318028072347
 21
-0.1516666666666666
 31
0.0
  0
LINE
  5
4D
330
42
100
AcDbEntity
  8
ASHADE
  6
Continuous
 62
     7
100
AcDbLine
 10
-0.2041413561583015
 20
0.2198324514393849
 30
0.0
 11
-0.2721884748777353
 21
0.2931099352525131
 31
0.0
  0
LINE
  5
4E
330
42
100
AcDbEntity
  8
ASHADE
  6
Continuous
 62
     7
100
AcDbLine
 10
-0.1096591641591904
 20
0.2792398032442862
 30
0.0
 11
-0.1279356915190555
 21
0.3257797704516674
 31
0.0
  0
LINE
  5
4F
330
42
100
AcDbEntity
  8
ASHADE
  6
Continuous
 62
     7
100
AcDbLine
 10
0.2703701166919155
 20
-0.13
 30
0.0
 11
0.3154318028072347
 21
-0.1516666666666666
 31
0.0
  0
LINE
  5
50
330
42
100
AcDbEntity
  8
ASHADE
  6
Continuous
 62
     7
100
AcDbLine
 10
0.2703701166919155
 20
0.13
 30
0.0
 11
0.3154318028072347
 21
0.1516666666666666
 31
0.0
  0
LINE
  5
51
330
42
100
AcDbEntity
  8
ASHADE
  6
Continuous
 62
     7
100
AcDbLine
 10
0.0
 20
0.3
 30
0.0
 11
0.0
 21
0.4
 31
0.0
  0
ATTDEF
  5
52
330
42
100
AcDbEntity
  8
ASHADE
  6
Continuous
 62
     7
100
AcDbText
 10
0.0
 20
0.22
 30
0.0
 40
0.01
  1
1
100
AcDbAttributeDefinition
280
     0
  3
Light Intensity
  2
INTENSITY
 70
     1
280
     0
  0
ATTDEF
  5
53
330
42
100
AcDbEntity
  8
ASHADE
  6
Continuous
 62
     7
100
AcDbText
 10
0.0
 20
0.16
 30
0.0
 40
0.01
  1
-1
100
AcDbAttributeDefinition
280
     0
  3
*not used*
  2
BEAMD
 70
     1
280
     0
  0
ATTDEF
  5
54
330
42
100
AcDbEntity
  8
ASHADE
  6
Continuous
 62
     7
100
AcDbText
 10
0.0
 20
0.175
 30
0.0
 40
0.01
  1
-1
100
AcDbAttributeDefinition
280
     0
  3
*not used*
  2
CONED
 70
     1
280
     0
  0
ATTDEF
  5
55
330
42
100
AcDbEntity
  8
ASHADE
  6
Continuous
 62
     7
100
AcDbText
 10
0.0
 20
0.19
 30
0.0
 40
0.01
  1
0
100
AcDbAttributeDefinition
280
     0
  3
Depth Map Size
  2
CONEA
 70
     1
280
     0
  0
ATTDEF
  5
56
330
42
100
AcDbEntity
  8
ASHADE
  6
Continuous
 62
     7
100
AcDbText
 10
0.0
 20
0.2050000000000001
 30
0.0
 40
0.01
  1
1,1,1
100
AcDbAttributeDefinition
280
     0
  3
Light Color (RGB)
  2
COLOR
 70
     1
280
     0
  0
ATTDEF
  5
57
330
42
100
AcDbEntity
  8
ASHADE
  6
Continuous
 62
     7
100
AcDbText
 10
0.0
 20
0.235
 30
0.0
 40
0.01
  1

100
AcDbAttributeDefinition
280
     0
  3
Look-at Z
  2
LAZ
 70
     1
280
     0
  0
ATTDEF
  5
58
330
42
100
AcDbEntity
  8
ASHADE
  6
Continuous
 62
     7
100
AcDbText
 10
0.0
 20
0.25
 30
0.0
 40
0.01
  1

100
AcDbAttributeDefinition
280
     0
  3
Look-at Y
  2
LAY
 70
     1
280
     0
  0
ATTDEF
  5
59
330
42
100
AcDbEntity
  8
ASHADE
  6
Continuous
 62
     7
100
AcDbText
 10
0.0
 20
0.265
 30
0.0
 40
0.01
  1

100
AcDbAttributeDefinition
280
     0
  3
Look-at X
  2
LAX
 70
     1
280
     0
  0
ATTDEF
  5
5A
330
42
100
AcDbEntity
  8
ASHADE
  6
Continuous
 62
     7
100
AcDbText
 10
0.0
 20
0.28
 30
0.0
 40
0.01
  1

100
AcDbAttributeDefinition
280
     0
  3

  2
GNAME
 70
     1
280
     0
  0
LINE
  5
5B
330
42
100
AcDbEntity
  8
ASHADE
  6
Continuous
 62
     7
100
AcDbLine
 10
0.1096591641591904
 20
0.2792398032442862
 30
0.0
 11
0.1279356915190555
 21
0.3257797704516674
 31
0.0
  0
LINE
  5
5C
330
42
100
AcDbEntity
  8
ASHADE
  6
Continuous
 62
     7
100
AcDbLine
 10
0.2041413561583015
 20
0.2198324514393849
 30
0.0
 11
0.2721884748777353
 21
0.2931099352525131
 31
0.0
  0
ENDBLK
  5
5E
330
42
100
AcDbEntity
  8
0
100
AcDbBlockEnd
  0
BLOCK
  5
85
330
5F
100
AcDbEntity
  8
0
100
AcDbBlockBegin
  2
sh_spot
 70
     2
 10
0.0
 20
0.0
 30
0.0
  3
sh_spot
  1

  0
LINE
  5
60
330
5F
100
AcDbEntity
  8
ASHADE
  6
Continuous
 62
     7
100
AcDbLine
 10
0.25
 20
0.26
 30
0.0
 11
-0.25
 21
0.26
 31
0.0
  0
LINE
  5
61
330
5F
100
AcDbEntity
  8
ASHADE
  6
Continuous
 62
     7
100
AcDbLine
 10
-0.25
 20
-0.3399999999999999
 30
0.0
 11
0.25
 21
-0.3399999999999999
 31
0.0
  0
ATTDEF
  5
62
330
5F
100
AcDbEntity
  8
ASHADE
  6
Continuous
 62
     1
100
AcDbText
 10
0.0
 20
-0.1
 30
0.0
 40
0.2
  1

  7
ASHADE
 72
     1
 11
0.0
 21
-0.1
 31
0.0
100
AcDbAttributeDefinition
280
     0
  3
Light Name
  2
SNAME
 70
     0
280
     0
  0
LINE
  5
63
330
5F
100
AcDbEntity
  8
ASHADE
  6
Continuous
 62
     7
100
AcDbLine
 10
-0.25
 20
-0.13
 30
0.0
 11
-0.25
 21
-0.3399999999999999
 31
0.0
  0
LINE
  5
64
330
5F
100
AcDbEntity
  8
ASHADE
  6
Continuous
 62
     7
100
AcDbLine
 10
-0.25
 20
-0.18
 30
0.0
 11
-0.29
 21
-0.18
 31
0.0
  0
LINE
  5
65
330
5F
100
AcDbEntity
  8
ASHADE
  6
Continuous
 62
     7
100
AcDbLine
 10
-0.29
 20
-0.22
 30
0.0
 11
-0.25
 21
-0.22
 31
0.0
  0
LINE
  5
66
330
5F
100
AcDbEntity
  8
ASHADE
  6
Continuous
 62
     7
100
AcDbLine
 10
-0.29
 20
-0.18
 30
0.0
 11
-0.29
 21
-0.22
 31
0.0
  0
LINE
  5
67
330
5F
100
AcDbEntity
  8
ASHADE
  6
Continuous
 62
     7
100
AcDbLine
 10
-0.1045454545454545
 20
0.26
 30
0.0
 11
-0.15
 21
0.46
 31
0.0
  0
LINE
  5
68
330
5F
100
AcDbEntity
  8
ASHADE
  6
Continuous
 62
     7
100
AcDbLine
 10
-0.21
 20
0.26
 30
0.0
 11
-0.301304347826087
 21
0.46
 31
0.0
  0
LINE
  5
69
330
5F
100
AcDbEntity
  8
ASHADE
  6
Continuous
 62
     7
100
AcDbLine
 10
-0.25
 20
0.26
 30
0.0
 11
-0.25
 21
0.13
 31
0.0
  0
LINE
  5
6A
330
5F
100
AcDbEntity
  8
ASHADE
  6
Continuous
 62
     7
100
AcDbLine
 10
-0.25
 20
0.22
 30
0.0
 11
-0.29
 21
0.22
 31
0.0
  0
LINE
  5
6B
330
5F
100
AcDbEntity
  8
ASHADE
  6
Continuous
 62
     7
100
AcDbLine
 10
-0.29
 20
0.1799999999999999
 30
0.0
 11
-0.25
 21
0.1799999999999999
 31
0.0
  0
LINE
  5
6C
330
5F
100
AcDbEntity
  8
ASHADE
  6
Continuous
 62
     7
100
AcDbLine
 10
-0.29
 20
0.22
 30
0.0
 11
-0.29
 21
0.1799999999999999
 31
0.0
  0
ATTDEF
  5
6D
330
5F
100
AcDbEntity
  8
ASHADE
  6
Continuous
 62
     7
100
AcDbText
 10
0.0
 20
-0.24
 30
0.0
 40
0.01
  1
0
100
AcDbAttributeDefinition
280
     0
  3
Depth Map Size
  2
ZSIZE
 70
     1
280
     0
  0
ATTDEF
  5
6E
330
5F
100
AcDbEntity
  8
ASHADE
  6
Continuous
 62
     7
100
AcDbText
 10
0.0
 20
-0.3300000000000001
 30
0.0
 40
0.01
  1
0,0,0
100
AcDbAttributeDefinition
280
     0
  3
Look-from XYZ
  2
LFXYZ
 70
     1
280
     0
  0
ATTDEF
  5
6F
330
5F
100
AcDbEntity
  8
ASHADE
  6
Continuous
 62
     7
100
AcDbText
 10
0.0
 20
-0.315
 30
0.0
 40
0.01
  1
0.0
100
AcDbAttributeDefinition
280
     0
  3
Beam Distribution
  2
BEAMDI
 70
     1
280
     0
  0
ATTDEF
  5
70
330
5F
100
AcDbEntity
  8
ASHADE
  6
Continuous
 62
     7
100
AcDbText
 10
0.0
 20
-0.3
 30
0.0
 40
0.01
  1
0.0
100
AcDbAttributeDefinition
280
     0
  3
Cone Delta
  2
CONEDE
 70
     1
280
     0
  0
ATTDEF
  5
71
330
5F
100
AcDbEntity
  8
ASHADE
  6
Continuous
 62
     7
100
AcDbText
 10
0.0
 20
-0.2850000000000001
 30
0.0
 40
0.01
  1
10.0
100
AcDbAttributeDefinition
280
     0
  3
Cone Angle
  2
CONEAN
 70
     1
280
     0
  0
ATTDEF
  5
72
330
5F
100
AcDbEntity
  8
ASHADE
  6
Continuous
 62
     7
100
AcDbText
 10
0.0
 20
-0.27
 30
0.0
 40
0.01
  1
-1
100
AcDbAttributeDefinition
280
     0
  3
*not used*
  2
BIASMAX
 70
     1
280
     0
  0
ATTDEF
  5
73
330
5F
100
AcDbEntity
  8
ASHADE
  6
Continuous
 62
     7
100
AcDbText
 10
0.0
 20
-0.255
 30
0.0
 40
0.01
  1
-1
100
AcDbAttributeDefinition
280
     0
  3
*not used*
  2
BIASMIN
 70
     1
280
     0
  0
ATTDEF
  5
74
330
5F
100
AcDbEntity
  8
ASHADE
  6
Continuous
 62
     7
100
AcDbText
 10
0.0
 20
-0.225
 30
0.0
 40
0.01
  1
1,1,1
100
AcDbAttributeDefinition
280
     0
  3
Light Color (RGB)
  2
COLOR
 70
     1
280
     0
  0
ATTDEF
  5
75
330
5F
100
AcDbEntity
  8
ASHADE
  6
Continuous
 62
     7
100
AcDbText
 10
0.0
 20
-0.21
 30
0.0
 40
0.01
  1
1
100
AcDbAttributeDefinition
280
     0
  3
Light Intensity
  2
INTENSITY
 70
     1
280
     0
  0
ATTDEF
  5
76
330
5F
100
AcDbEntity
  8
ASHADE
  6
Continuous
 62
     7
100
AcDbText
 10
0.0
 20
-0.15
 30
0.0
 40
0.01
  1

100
AcDbAttributeDefinition
280
     0
  3

  2
GNAME
 70
     1
280
     0
  0
ATTDEF
  5
77
330
5F
100
AcDbEntity
  8
ASHADE
  6
Continuous
 62
     7
100
AcDbText
 10
0.0
 20
-0.195
 30
0.0
 40
0.01
  1

100
AcDbAttributeDefinition
280
     0
  3
Look-at Z
  2
LAZ
 70
     1
280
     0
  0
ATTDEF
  5
78
330
5F
100
AcDbEntity
  8
ASHADE
  6
Continuous
 62
     7
100
AcDbText
 10
0.0
 20
-0.18
 30
0.0
 40
0.01
  1

100
AcDbAttributeDefinition
280
     0
  3
Look-at Y
  2
LAY
 70
     1
280
     0
  0
ATTDEF
  5
79
330
5F
100
AcDbEntity
  8
ASHADE
  6
Continuous
 62
     7
100
AcDbText
 10
0.0
 20
-0.165
 30
0.0
 40
0.01
  1

100
AcDbAttributeDefinition
280
     0
  3
Look-at X
  2
LAX
 70
     1
280
     0
  0
LINE
  5
7A
330
5F
100
AcDbEntity
  8
ASHADE
  6
Continuous
 62
     7
100
AcDbLine
 10
0.25
 20
-0.3399999999999999
 30
0.0
 11
0.25
 21
-0.13
 31
0.0
  0
LINE
  5
7B
330
5F
100
AcDbEntity
  8
ASHADE
  6
Continuous
 62
     7
100
AcDbLine
 10
0.25
 20
-0.18
 30
0.0
 11
0.29
 21
-0.18
 31
0.0
  0
LINE
  5
7C
330
5F
100
AcDbEntity
  8
ASHADE
  6
Continuous
 62
     7
100
AcDbLine
 10
0.29
 20
-0.22
 30
0.0
 11
0.25
 21
-0.22
 31
0.0
  0
LINE
  5
7D
330
5F
100
AcDbEntity
  8
ASHADE
  6
Continuous
 62
     7
100
AcDbLine
 10
0.29
 20
-0.18
 30
0.0
 11
0.29
 21
-0.22
 31
0.0
  0
LINE
  5
7E
330
5F
100
AcDbEntity
  8
ASHADE
  6
Continuous
 62
     7
100
AcDbLine
 10
0.21
 20
0.26
 30
0.0
 11
0.301304347826087
 21
0.46
 31
0.0
  0
LINE
  5
7F
330
5F
100
AcDbEntity
  8
ASHADE
  6
Continuous
 62
     7
100
AcDbLine
 10
0.1045454545454545
 20
0.26
 30
0.0
 11
0.15
 21
0.46
 31
0.0
  0
LINE
  5
80
330
5F
100
AcDbEntity
  8
ASHADE
  6
Continuous
 62
     7
100
AcDbLine
 10
0.0
 20
0.26
 30
0.0
 11
0.0
 21
0.46
 31
0.0
  0
LINE
  5
81
330
5F
100
AcDbEntity
  8
ASHADE
  6
Continuous
 62
     7
100
AcDbLine
 10
0.25
 20
0.13
 30
0.0
 11
0.25
 21
0.26
 31
0.0
  0
LINE
  5
82
330
5F
100
AcDbEntity
  8
ASHADE
  6
Continuous
 62
     7
100
AcDbLine
 10
0.25
 20
0.22
 30
0.0
 11
0.29
 21
0.22
 31
0.0
  0
LINE
  5
83
330
5F
100
AcDbEntity
  8
ASHADE
  6
Continuous
 62
     7
100
AcDbLine
 10
0.29
 20
0.1799999999999999
 30
0.0
 11
0.25
 21
0.1799999999999999
 31
0.0
  0
LINE
  5
84
330
5F
100
AcDbEntity
  8
ASHADE
  6
Continuous
 62
     7
100
AcDbLine
 10
0.29
 20
0.22
 30
0.0
 11
0.29
 21
0.1799999999999999
 31
0.0
  0
ENDBLK
  5
86
330
5F
100
AcDbEntity
  8
0
100
AcDbBlockEnd
  0
BLOCK
  5
92
330
91
100
AcDbEntity
  8
ASHADE
100
AcDbBlockBegin
  2
AVE_RENDER
 70
     0
 10
0.0
 20
0.0
 30
0.0
  3
AVE_RENDER
  1
AVE_RENDER
  0
ENDBLK
  5
93
330
91
100
AcDbEntity
  8
0
100
AcDbBlockEnd
  0
BLOCK
  5
A0
330
9F
100
AcDbEntity
  8
ASHADE
100
AcDbBlockBegin
  2
AVE_GLOBAL
 70
     0
 10
0.0
 20
0.0
 30
0.0
  3
AVE_GLOBAL
  1
AVE_GLOBAL
  0
ENDBLK
  5
A1
330
9F
100
AcDbEntity
  8
0
100
AcDbBlockEnd
  0
ENDSEC
  0
SECTION
  2
ENTITIES
  0
INSERT
  5
94
330
1F
100
AcDbEntity
  8
ASHADE
 62
     1
100
AcDbBlockReference
  2
AVE_RENDER
 10
0.0
 20
0.0
 30
0.0
1001
AVE_RENDER
1002
{
1070
     7
1000
Pref
1070
    30
1070
    20
1070
     1
1070
     0
1000

1070
    10
1070
     1
1070
    10
1040
1.0
1070
     1
1040
0.3
1040
0.7
1040
0.0
1040
10.0
1010
-1.0
1020
-1.0
1030
-1.0
1040
0.3
1070
    49
1070
     0
1070
     0
1010
1.0
1020
1.0
1030
1.0
1040
45.0
1070
     1
1070
     0
1000
WCS
1040
0.0
1070
     0
1040
10.0
1002
}
  0
INSERT
  5
95
330
1F
100
AcDbEntity
  8
ASHADE
 62
     3
100
AcDbBlockReference
  2
AVE_RENDER
 10
0.0
 20
0.0
 30
0.0
1001
AVE_RENDER
1002
{
1070
     0
1000
Full Opt
1070
     0
1070
     1
1070
     1
1070
     1
1070
     0
1070
     0
1070
     0
1070
     1
1070
     1
1040
0.0001
1040
0.0001
1002
}
  0
INSERT
  5
96
330
1F
100
AcDbEntity
  8
ASHADE
 62
     4
100
AcDbBlockReference
  2
AVE_RENDER
 10
0.0
 20
0.0
 30
0.0
1001
AVE_RENDER
1002
{
1070
     0
1000
Quick Opt
1070
     0
1070
     1
1070
     1
1070
     1
1070
     0
1070
     0
1070
     1
1002
}
  0
INSERT
  5
97
330
1F
100
AcDbEntity
  8
ASHADE
 62
     5
100
AcDbBlockReference
  2
AVE_RENDER
 10
0.0
 20
0.0
 30
0.0
1001
AVE_RENDER
1002
{
1070
     1
1000
Scanl Opt
1070
     2
1070
     0
1070
     2
1040
2.0
1040
4.0
1070
     0
1070
     1
1070
     0
1040
0.03
1002
}
  0
INSERT
  5
98
330
1F
100
AcDbEntity
  8
ASHADE
 62
     6
100
AcDbBlockReference
  2
AVE_RENDER
 10
0.0
 20
0.0
 30
0.0
1001
AVE_RENDER
1002
{
1070
     2
1000
Raytr Opt
1070
     2
1070
     0
1070
     2
1040
2.0
1040
4.0
1070
     0
1070
     1
1070
     1
1040
0.03
1070
     3
1040
0.03
1002
}
  0
INSERT
  5
99
330
1F
100
AcDbEntity
  8
ASHADE
 62
     7
100
AcDbBlockReference
  2
AVE_RENDER
 10
0.0
 20
0.0
 30
0.0
1001
AVE_RENDER
1002
{
1070
     0
1000
RFile Opt
1070
     1
1070
   640
1070
   480
1070
 10000
1070
     1
1070
     8
1070
     8
1070
     0
1070
     0
1070
     0
1070
     0
1070
     0
1070
     0
1070
     0
1002
}
  0
INSERT
  5
9A
330
1F
100
AcDbEntity
  8
ASHADE
 62
     8
100
AcDbBlockReference
  2
AVE_RENDER
 10
0.0
 20
0.0
 30
0.0
1001
AVE_RENDER
1002
{
1070
     0
1000
Fog Opt
1070
     0
1070
     0
1040
0.0
1040
1.0
1040
0.0
1040
1.0
1010
0.5
1020
0.5
1030
0.5
1002
}
  0
INSERT
  5
9B
330
1F
100
AcDbEntity
  8
ASHADE
 62
     9
100
AcDbBlockReference
  2
AVE_RENDER
 10
0.0
 20
0.0
 30
0.0
1001
AVE_RENDER
1002
{
1070
     0
1000
BG Opt
1070
     0
1070
     1
1010
0.0
1020
0.0
1030
0.0
1010
1.0
1020
0.0
1030
0.0
1010
0.0
1020
1.0
1030
0.0
1010
0.0
1020
0.0
1030
1.0
1040
0.5
1040
0.33
1040
0.0
1000

1070
     1
1000

1070
     1
1070
     1
1040
1.0
1040
1.0
1040
0.0
1040
0.0
1070
     0
1002
}
  0
INSERT
  5
A2
330
1F
100
AcDbEntity
  8
ASHADE
 62
     1
100
AcDbBlockReference
  2
AVE_GLOBAL
 10
0.0
 20
0.0
 30
0.0
1001
AVE_MATERIAL
1002
{
1000
*GLOBAL*
1000
2
1000
Global finish.
1002
{
1002
}
1002
{
1070
    63
1002
{
1002
{
1010
-1.0
1020
-1.0
1030
-1.0
1002
}
1040
0.1000000014901161
1000

1040
0.0
1002
{
1002
}
1040
0.0
1002
{
1002
}
1040
0.0
1002
}
1002
{
1002
{
1010
-1.0
1020
-1.0
1030
-1.0
1002
}
1040
0.6999999880790711
1000

1040
0.0
1002
{
1002
}
1040
0.0
1002
{
1002
}
1040
0.0
1002
}
1002
{
1002
{
1010
-1.0
1020
-1.0
1030
-1.0
1002
}
1040
0.2000000029802322
1000

1040
0.0
1002
{
1002
}
1040
0.0
1002
{
1002
}
1040
0.0
1002
}
1002
{
1070
     0
1002
{
1070
     1
1002
{
1040
1.0
1040
1.0
1000

1040
0.0
1002
{
1002
}
1040
0.0
1002
{
1002
}
1040
0.0
1002
}
1002
}
1040
1.0
1040
0.0
1040
0.0
1002
}
1002
{
1040
1.0
1040
1.0
1000

1040
0.0
1002
{
1002
}
1040
0.0
1002
{
1002
}
1040
0.0
1002
}
1002
{
1040
0.5
1040
1.0
1000

1040
0.0
1002
{
1002
}
1040
0.0
1002
{
1002
}
1040
0.0
1002
}
1002
{
1070
     0
1040
0.0
1002
{
1002
}
1040
1.0
1002
{
1002
}
1040
0.0
1002
}
1002
{
1040
0.0
1002
{
1002
{
1010
0.0
1020
0.0
1030
0.0
1002
}
1040
1.0
1000

1040
0.0
1002
{
1002
}
1040
0.0
1002
{
1002
}
1040
0.0
1002
}
1002
}
1002
{
1002
{
1070
     1
1002
{
1040
0.0
1040
1.0
1000

1040
0.0
1002
{
1002
}
1040
0.0
1002
{
1002
}
1040
0.0
1002
}
1002
}
1040
0.0
1002
{
1002
}
1010
1.0
1020
0.0
1030
0.0
1010
0.0
1020
1.0
1030
0.0
1010
0.0
1020
0.0
1030
1.0
1070
     0
1002
}
1002
{
1002
{
1040
1.0
1040
1.0
1002
{
1070
     1
1002
{
1040
1.0
1040
1.0
1000

1040
0.0
1002
{
1002
}
1040
0.0
1002
{
1002
}
1040
0.0
1002
}
1002
}
1002
}
1070
     0
1040
0.0
1002
{
1002
}
1002
}
1002
{
1002
}
1002
}
1002
{
1071
        3
1070
     3
1070
     0
1002
{
1070
     2
1070
     0
1070
     0
1040
0.0
1002
}
1070
     0
1070
     2
1002
{
1002
}
1002
}
1002
{
1040
8030.0
1040
190.3000030517578
1040
0.3050000071525574
1040
228.0
1040
545.0
1040
14.0
1040
17.39999961853027
1040
0.4560000002384186
1002
}
1002
}
  0
MESH
  5
F9
330
1F
100
AcDbEntity
  8
OracDecor_panel_moldings
 62
   141
420
 10147813
160
             31400
310
A87A0000680300000C00000013000000020000003C00000006000000020000000000000000408F40000000000000EABE000000000000F43E0000000000408F40000000000000EABE0000004002A02D400C000000130000000A0000003C00000006000000020000000000000000408F4000000080554615C000000000A045CE
310
3F0000000000408F40000000000000EABE0000004002A02D400C00000013000000120000003C00000006000000020000000000000000408F40000000000000EABE000000000000F43E0000000000408F4000000080554615C000000000A045CE3F0C000000130000001A0000003C0000000600000002000000000000000040
310
8F40000000000000EABE0000004002A02D400000000000408F40000000607F6216C000000000307BD33F0C00000013000000220000003C00000006000000020000000000000000408F4000000080554615C000000000A045CE3F0000000000408F40000000607F6216C000000000307BD33F0C000000130000002A0000003C
310
00000006000000020000000000000000408F40000000000000EABE0000004002A02D400000000000408F4000000000FF0C17C000000000209FDE3F0C00000013000000320000003C00000006000000020000000000000000408F40000000607F6216C000000000307BD33F0000000000408F4000000000FF0C17C000000000
310
209FDE3F0C000000130000003A0000003C00000006000000020000000000000000408F40000000000000EABE0000004002A02D400000000000408F4000000020D44517C0000000005847E83F0C00000013000000420000003C00000006000000020000000000000000408F4000000000FF0C17C000000000209FDE3F000000
310
0000408F4000000020D44517C0000000005847E83F0C000000130000004A0000003C00000006000000020000000000000000408F40000000000000EABE0000004002A02D400000000000408F4000000000D9EB17C000000000D000FE3F0C00000013000000520000003C00000006000000020000000000000000408F400000
310
0020D44517C0000000005847E83F0000000000408F4000000000D9EB17C000000000D000FE3F0C000000130000005A0000003C00000006000000020000000000000000408F40000000000000EABE0000004002A02D400000000000408F40000000008AAF18C000000000DE7603400C00000013000000620000003C00000006
310
000000020000000000000000408F4000000000D9EB17C000000000D000FE3F0000000000408F40000000008AAF18C000000000DE7603400C000000130000006A0000003C00000006000000020000000000000000408F40000000E0D24527C0000000009F991D400000000000408F4000000080C4071FC00000004002A02D40
310
0C00000013000000720000003C00000006000000020000000000000000408F40000000A0446227C00000008010B61E400000000000408F4000000080C4071FC00000004002A02D400C000000130000007A0000003C00000006000000020000000000000000408F40000000E0D24527C0000000009F991D400000000000408F
310
40000000A0446227C00000008010B61E400C00000013000000820000003C00000006000000020000000000000000408F4000000080C4071FC00000004002A02D400000000000408F40000000009AB727C000000000BB601F400C000000130000008A0000003C00000006000000020000000000000000408F40000000A04462
310
27C00000008010B61E400000000000408F40000000009AB727C000000000BB601F400C00000013000000920000003C00000006000000020000000000000000408F4000000080C4071FC00000004002A02D400000000000408F40000000E0D24528C0000000009F991F400C000000130000009A0000003C0000000600000002
310
0000000000000000408F40000000009AB727C000000000BB601F400000000000408F40000000E0D24528C0000000009F991F400C00000013000000A20000003C00000006000000020000000000000000408F4000000080C4071FC00000004002A02D400000000000408F400000006047172CC0000000009F991F400C000000
310
13000000AA0000003C00000006000000020000000000000000408F40000000E0D24528C0000000009F991F400000000000408F400000006047172CC0000000009F991F400C00000013000000B20000003C00000006000000020000000000000000408F40000000000000EABE0000004002A02D400000000000408F40000000
310
80EDDC19C000000000BE9D07400C00000013000000BA0000003C00000006000000020000000000000000408F40000000008AAF18C000000000DE7603400000000000408F4000000080EDDC19C000000000BE9D07400C00000013000000C20000003C00000006000000020000000000000000408F40000000000000EABE0000
310
004002A02D400000000000408F4000000060FE5D1BC00000000060430B400C00000013000000CA0000003C00000006000000020000000000000000408F4000000080EDDC19C000000000BE9D07400000000000408F4000000060FE5D1BC00000000060430B400C00000013000000D20000003C000000060000000200000000
310
00000000408F40000000000000EABE0000004002A02D400000000000408F4000000000BF281DC0000000009C530E400C00000013000000DA0000003C00000006000000020000000000000000408F4000000060FE5D1BC00000000060430B400000000000408F4000000000BF281DC0000000009C530E400C00000013000000
310
E20000003C00000006000000020000000000000000408F40000000000000EABE0000004002A02D400000000000408F40000000E04D321FC000000000345C10400C00000013000000EA0000003C00000006000000020000000000000000408F4000000000BF281DC0000000009C530E400000000000408F40000000E04D321F
310
C000000000345C10400C00000013000000F20000003C00000006000000020000000000000000408F40000000000000EABE0000004002A02D400000000000408F40000000E061B120C000000000022C11400C00000013000000FA0000003C00000006000000020000000000000000408F40000000E04D321FC000000000345C
310
10400000000000408F40000000E061B120C000000000022C11400C00000013000000020100003C00000006000000020000000000000000408F40000000000000EABE0000004002A02D400000000000408F400000006095D821C0000000001ACD11400C000000130000000A0100003C00000006000000020000000000000000
310
408F40000000E061B120C000000000022C11400000000000408F400000006095D821C0000000001ACD11400C00000013000000120100003C00000006000000020000000000000000408F40000000000000EABE0000004002A02D400000000000408F4000000080C4071FC00000004002A02D400C000000130000001A010000
310
3C00000006000000020000000000000000408F4000000080C4071FC00000004002A02D400000000000408F40000000A0DA4926C000000000886513400C00000013000000220100003C00000006000000020000000000000000408F400000006095D821C0000000001ACD11400000000000408F40000000A0DA4926C0000000
310
00886513400C000000130000002A0100003C00000006000000020000000000000000408F4000000080C4071FC00000004002A02D400000000000408F40000000E0D32927C000000000859914400C00000013000000320100003C00000006000000020000000000000000408F4000000080C4071FC00000004002A02D400000
310
000000408F4000000000D34527C00000000005C015400C000000130000003A0100003C00000006000000020000000000000000408F40000000E0D32927C000000000859914400000000000408F4000000000D34527C00000000005C015400C00000013000000420100003C00000006000000020000000000000000408F4000
310
0000E0D24527C0000000009F991D400000000000408F4000000000D34527C00000000005C015400C000000130000004A0100003C00000006000000020000000000000000408F4000000080C4071FC00000004002A02D400000000000408F4000000060D6D526C000000000B1D013400C00000013000000520100003C000000
310
06000000020000000000000000408F40000000A0DA4926C000000000886513400000000000408F4000000060D6D526C000000000B1D013400C000000130000005A0100003C00000006000000020000000000000000408F40000000E0D32927C000000000859914400000000000408F4000000060D6D526C000000000B1D013
310
400C00000013000000620100003C00000006000000020000000000000000408F4000000080C4071FC00000004002A02D400000000000408F40000000E04AAA2CC000000000B2D11F400C000000130000006A0100003C00000006000000020000000000000000408F400000006047172CC0000000009F991F40000000000040
310
8F40000000E04AAA2CC000000000B2D11F400C00000013000000720100003C00000006000000020000000000000000408F4000000080C4071FC00000004002A02D400000000000408F40000000E0FF0D2DC000000080F63C20400C000000130000007A0100003C00000006000000020000000000000000408F40000000E04A
310
AA2CC000000000B2D11F400000000000408F40000000E0FF0D2DC000000080F63C20400C00000013000000820100003C00000006000000020000000000000000408F4000000080C4071FC00000004002A02D400000000000408F40000000A066422DC00000000027C920400C000000130000008A0100003C00000006000000
310
020000000000000000408F40000000E0FF0D2DC000000080F63C20400000000000408F40000000A066422DC00000000027C920400C00000013000000920100003C00000006000000020000000000000000408F4000000080C4071FC00000004002A02D400000000000408F4000000020B5D62DC000000000042D24400C0000
310
00130000009A0100003C00000006000000020000000000000000408F40000000A066422DC00000000027C920400000000000408F4000000020B5D62DC000000000042D24400C00000013000000A20100003C00000006000000020000000000000000408F4000000080C4071FC00000004002A02D400000000000408F400000
310
00C0F6AF2EC00000008006C629400C00000013000000AA0100003C00000006000000020000000000000000408F4000000020B5D62DC000000000042D24400000000000408F40000000C0F6AF2EC00000008006C629400C00000013000000B20100003C00000006000000020000000000000000408F4000000080C4071FC000
310
00004002A02D400000000000408F400000000005532FC0000000802C652F400C00000013000000BA0100003C00000006000000020000000000000000408F40000000C0F6AF2EC00000008006C629400000000000408F400000000005532FC0000000802C652F400C00000013000000C20100003C0000000600000002000000
310
0000000000408F4000000080C4071FC00000004002A02D400000000000408F4000000080DFBF2FC0000000803B8532400C00000013000000CA0100003C00000006000000020000000000000000408F4000000080C4071FC00000004002A02D400000000000408F400000000094F12FC0000000E0863D34400C000000130000
310
00D20100003C00000006000000020000000000000000408F4000000080DFBF2FC0000000803B8532400000000000408F400000000094F12FC0000000E0863D34400C00000013000000DA0100003C00000006000000020000000000000000408F400000000005532FC0000000802C652F400000000000408F4000000080DFBF
310
2FC0000000803B8532400C00000013000000E20100003C00000006000000020000000000000000408F4000000080C4071FC00000004002A02D400000000000408F400000004030DD2FC000000060488534400C00000013000000EA0100003C00000006000000020000000000000000408F4000000080C4071FC00000004002
310
A02D400000000000408F4000000000C98C2FC0000000C027B234400C00000013000000F20100003C00000006000000020000000000000000408F400000004030DD2FC000000060488534400000000000408F4000000000C98C2FC0000000C027B234400C00000013000000FA0100003C000000060000000200000000000000
310
00408F400000000094F12FC0000000E0863D34400000000000408F400000004030DD2FC000000060488534400C00000013000000020200003C00000006000000020000000000000000408F4000000080C4071FC00000004002A02D400000000000408F40000000405E002FC00000002025C434400C000000130000000A0200
310
003C00000006000000020000000000000000408F4000000080C4071FC00000004002A02D400000000000408F4000000040361D2EC0000000E034CA34400C00000013000000120200003C00000006000000020000000000000000408F40000000405E002FC00000002025C434400000000000408F4000000040361D2EC00000
310
00E034CA34400C000000130000001A0200003C00000006000000020000000000000000408F4000000000C98C2FC0000000C027B234400000000000408F40000000405E002FC00000002025C434400C00000013000000220200003C00000006000000020000000000000000408F4000000080C4071FC00000004002A02D4000
310
00000000408F400000008061912DC0000000202DDC34400C000000130000002A0200003C00000006000000020000000000000000408F4000000080C4071FC00000004002A02D400000000000408F4000000080BC422DC0000000A0FD0835400C00000013000000320200003C00000006000000020000000000000000408F40
310
0000008061912DC0000000202DDC34400000000000408F4000000080BC422DC0000000A0FD0835400C000000130000003A0200003C00000006000000020000000000000000408F4000000040361D2EC0000000E034CA34400000000000408F400000008061912DC0000000202DDC34400C00000013000000420200003C0000
310
0006000000020000000000000000408F4000000080C4071FC00000004002A02D400000000000408F400000004047312DC000000000A65035400C000000130000004A0200003C00000006000000020000000000000000408F4000000080BC422DC0000000A0FD0835400000000000408F400000004047312DC000000000A650
310
35400C00000013000000520200003C00000006000000020000000000000000408F4000000080C4071FC00000004002A02D400000000000408F4000000080C4071FC0000000A000C043400C000000130000005A0200003C00000006000000020000000000000000408F400000004082892DC000000040278C37400000000000
310
408F4000000080C4071FC0000000A000C043400C00000013000000620200003C00000006000000020000000000000000408F400000004047312DC000000000A65035400000000000408F400000004082892DC000000040278C37400C000000130000006A0200003C00000006000000020000000000000000408F40000000A0
310
554615C0000000C0DDB053400000000000408F40000000000000EABE00000040000C50400C00000013000000720200003C00000006000000020000000000000000408F40000000000000EABE0000004000C053400000000000408F40000000000000EABE00000040000C50400C000000130000007A0200003C000000060000
310
00020000000000000000408F40000000A0554615C0000000C0DDB053400000000000408F40000000000000EABE0000004000C053400C00000013000000820200003C00000006000000020000000000000000408F40000000000000EABE00000040000C50400000000000408F40000000807F6216C00000008085AC53400C00
310
0000130000008A0200003C00000006000000020000000000000000408F40000000A0554615C0000000C0DDB053400000000000408F40000000807F6216C00000008085AC53400C00000013000000920200003C00000006000000020000000000000000408F40000000000000EABE00000040000C50400000000000408F4000
310
000020FF0C17C00000008061A153400C000000130000009A0200003C00000006000000020000000000000000408F40000000807F6216C00000008085AC53400000000000408F4000000020FF0C17C00000008061A153400C00000013000000A20200003C00000006000000020000000000000000408F40000000000000EABE
310
00000040000C50400000000000408F4000000040D44517C000000000728F53400C00000013000000AA0200003C00000006000000020000000000000000408F4000000020FF0C17C00000008061A153400000000000408F4000000040D44517C000000000728F53400C00000013000000B20200003C00000006000000020000
310
000000000000408F40000000000000EABE00000040000C50400000000000408F40000000C0DBEB17C000000040FD4753400C00000013000000BA0200003C00000006000000020000000000000000408F4000000040D44517C000000000728F53400000000000408F40000000C0DBEB17C000000040FD4753400C0000001300
310
0000C20200003C00000006000000020000000000000000408F40000000000000EABE00000040000C50400000000000408F40000000608BAF18C000000080492453400C00000013000000CA0200003C00000006000000020000000000000000408F40000000C0DBEB17C000000040FD4753400000000000408F40000000608B
310
AF18C000000080492453400C00000013000000D20200003C00000006000000020000000000000000408F40000000000000EABE00000040000C50400000000000408F40000000E0E9DC19C000000080120353400C00000013000000DA0200003C00000006000000020000000000000000408F40000000608BAF18C000000080
310
492453400000000000408F40000000E0E9DC19C000000080120353400C00000013000000E20200003C00000006000000020000000000000000408F40000000000000EABE00000040000C50400000000000408F4000000040FA5D1BC000000040E5E552400C00000013000000EA0200003C0000000600000002000000000000
310
0000408F40000000E0E9DC19C000000080120353400000000000408F4000000040FA5D1BC000000040E5E552400C00000013000000F20200003C00000006000000020000000000000000408F40000000000000EABE00000040000C50400000000000408F4000000040BB281DC00000000064CD52400C00000013000000FA02
310
00003C00000006000000020000000000000000408F4000000040FA5D1BC000000040E5E552400000000000408F4000000040BB281DC00000000064CD52400C00000013000000020300003C00000006000000020000000000000000408F40000000000000EABE00000040000C50400000000000408F40000000604B321FC000
310
0000803DBA52400C000000130000000A0300003C00000006000000020000000000000000408F4000000040BB281DC00000000064CD52400000000000408F40000000604B321FC0000000803DBA52400C00000013000000120300003C00000006000000020000000000000000408F40000000000000EABE00000040000C5040
310
0000000000408F400000004095D821C0000000002FA352400C000000130000001A0300003C00000006000000020000000000000000408F40000000000000EABE00000040000C50400000000000408F40000000E061B120C00000008040AD52400C00000013000000220300003C00000006000000020000000000000000408F
310
400000004095D821C0000000002FA352400000000000408F40000000E061B120C00000008040AD52400C000000130000002A0300003C00000006000000020000000000000000408F40000000604B321FC0000000803DBA52400000000000408F40000000E061B120C00000008040AD52400C00000013000000320300003C00
310
000006000000020000000000000000408F40000000C0446227C0000000809FD451400000000000408F40000000C0C4071FC000000040000C50400C000000130000003A0300003C00000006000000020000000000000000408F4000000000D34527C0000000C066E651400000000000408F40000000C0C4071FC00000004000
310
0C50400C00000013000000420300003C00000006000000020000000000000000408F40000000C0446227C0000000809FD451400000000000408F4000000000D34527C0000000C066E651400C000000130000004A0300003C00000006000000020000000000000000408F40000000C0C4071FC000000040000C504000000000
310
00408F40000000209AB727C000000000F5C951400C00000013000000520300003C00000006000000020000000000000000408F40000000C0446227C0000000809FD451400000000000408F40000000209AB727C000000000F5C951400C000000130000005A0300003C00000006000000020000000000000000408F40000000
310
C0C4071FC000000040000C50400000000000408F40000000E0D24527C000000040006452400C00000013000000620300003C00000006000000020000000000000000408F4000000000D34527C0000000C066E651400000000000408F40000000E0D24527C000000040006452400C000000130000006A0300003C0000000600
310
0000020000000000000000408F40000000C0C4071FC000000040000C50400000000000408F4000000000D34528C0000000C066C651400C00000013000000720300003C00000006000000020000000000000000408F40000000209AB727C000000000F5C951400000000000408F4000000000D34528C0000000C066C651400C
310
000000130000007A0300003C00000006000000020000000000000000408F40000000C0C4071FC000000040000C50400000000000408F40000000C0D32927C000000040687652400C00000013000000820300003C00000006000000020000000000000000408F40000000E0D24527C000000040006452400000000000408F40
310
000000C0D32927C000000040687652400C000000130000008A0300003C00000006000000020000000000000000408F40000000C0C4071FC000000040000C50400000000000408F4000000040D6D526C000000080F58252400C00000013000000920300003C00000006000000020000000000000000408F40000000C0D32927
310
C000000040687652400000000000408F4000000040D6D526C000000080F58252400C000000130000009A0300003C00000006000000020000000000000000408F40000000C0C4071FC000000040000C50400000000000408F4000000080DA4926C000000000A88952400C00000013000000A20300003C000000060000000200
310
00000000000000408F40000000000000EABE00000040000C50400000000000408F40000000C0C4071FC000000040000C50400C00000013000000AA0300003C00000006000000020000000000000000408F400000004095D821C0000000002FA352400000000000408F4000000080DA4926C000000000A88952400C00000013
310
000000B20300003C00000006000000020000000000000000408F4000000040D6D526C000000080F58252400000000000408F4000000080DA4926C000000000A88952400C00000013000000BA0300003C00000006000000020000000000000000408F40000000C0C4071FC000000040000C50400000000000408F4000000080
310
47172CC0000000C066C651400C00000013000000C20300003C00000006000000020000000000000000408F4000000000D34528C0000000C066C651400000000000408F400000008047172CC0000000C066C651400C00000013000000CA0300003C00000006000000020000000000000000408F40000000C0C4071FC0000000
310
40000C50400000000000408F40000000004BAA2CC000000080E5C251400C00000013000000D20300003C00000006000000020000000000000000408F400000008047172CC0000000C066C651400000000000408F40000000004BAA2CC000000080E5C251400C00000013000000DA0300003C00000006000000020000000000
310
000000408F40000000C0C4071FC000000040000C50400000000000408F40000000C066422DC0000000C0DBA651400C00000013000000E20300003C00000006000000020000000000000000408F40000000C0C4071FC000000040000C50400000000000408F4000000000000E2DC0000000C061B851400C00000013000000EA
310
0300003C00000006000000020000000000000000408F40000000C066422DC0000000C0DBA651400000000000408F4000000000000E2DC0000000C061B851400C00000013000000F20300003C00000006000000020000000000000000408F40000000004BAA2CC000000080E5C251400000000000408F4000000000000E2DC0
310
000000C061B851400C00000013000000FA0300003C00000006000000020000000000000000408F40000000C0C4071FC000000040000C50400000000000408F4000000040B5D62DC000000000603A51400C00000013000000020400003C00000006000000020000000000000000408F40000000C066422DC0000000C0DBA651
310
400000000000408F4000000040B5D62DC000000000603A51400C000000130000000A0400003C00000006000000020000000000000000408F40000000C0C4071FC000000040000C50400000000000408F40000000C0F6AF2EC0000000C03F8750400C00000013000000120400003C0000000600000002000000000000000040
310
8F4000000040B5D62DC000000000603A51400000000000408F40000000C0F6AF2EC0000000C03F8750400C000000130000001A0400003C00000006000000020000000000000000408F40000000C0C4071FC000000040000C50400000000000408F400000000005532FC000000000B6A64F400C00000013000000220400003C
310
00000006000000020000000000000000408F40000000C0F6AF2EC0000000C03F8750400000000000408F400000000005532FC000000000B6A64F400C000000130000002A0400003C00000006000000020000000000000000408F40000000C0C4071FC000000040000C50400000000000408F4000000080DFBF2FC000000060
310
633D4E400C00000013000000320400003C00000006000000020000000000000000408F400000000005532FC000000000B6A64F400000000000408F4000000080DFBF2FC000000060633D4E400C000000130000003A0400003C00000006000000020000000000000000408F40000000C0C4071FC000000040000C5040000000
310
0000408F400000000094F12FC0000000A03D614D400C00000013000000420400003C00000006000000020000000000000000408F4000000080DFBF2FC000000060633D4E400000000000408F400000000094F12FC0000000A03D614D400C000000130000004A0400003C00000006000000020000000000000000408F400000
310
00C0C4071FC000000040000C50400000000000408F400000004030DD2FC0000000E05C3D4D400C00000013000000520400003C00000006000000020000000000000000408F400000000094F12FC0000000A03D614D400000000000408F400000004030DD2FC0000000E05C3D4D400C000000130000005A0400003C00000006
310
000000020000000000000000408F40000000C0C4071FC000000040000C50400000000000408F4000000000C98C2FC000000040ED264D400C00000013000000620400003C00000006000000020000000000000000408F400000004030DD2FC0000000E05C3D4D400000000000408F4000000000C98C2FC000000040ED264D40
310
0C000000130000006A0400003C00000006000000020000000000000000408F40000000C0C4071FC000000040000C50400000000000408F40000000405E002FC0000000A0EE1D4D400C00000013000000720400003C00000006000000020000000000000000408F4000000000C98C2FC000000040ED264D400000000000408F
310
40000000405E002FC0000000A0EE1D4D400C000000130000007A0400003C00000006000000020000000000000000408F40000000C0C4071FC000000040000C50400000000000408F4000000000361D2EC0000000A0E61A4D400C00000013000000820400003C00000006000000020000000000000000408F40000000405E00
310
2FC0000000A0EE1D4D400000000000408F4000000000361D2EC0000000A0E61A4D400C000000130000008A0400003C00000006000000020000000000000000408F40000000C0C4071FC000000040000C50400000000000408F400000004061912DC0000000A0EA114D400C00000013000000920400003C0000000600000002
310
0000000000000000408F4000000000361D2EC0000000A0E61A4D400000000000408F400000004061912DC0000000A0EA114D400C000000130000009A0400003C00000006000000020000000000000000408F40000000C0C4071FC000000040000C50400000000000408F4000000040BC422DC00000006082FB4C400C000000
310
13000000A20400003C00000006000000020000000000000000408F400000004061912DC0000000A0EA114D400000000000408F4000000040BC422DC00000006082FB4C400C00000013000000AA0400003C00000006000000020000000000000000408F40000000C0C4071FC000000040000C50400000000000408F40000000
310
E046312DC000000020AED74C400C00000013000000B20400003C00000006000000020000000000000000408F4000000040BC422DC00000006082FB4C400000000000408F40000000E046312DC000000020AED74C400C00000013000000BA0400003C00000006000000020000000000000000408F4000000080C4071FC00000
310
00A000C043400000000000408F4000000000BFC42EC0000000A000C043400C00000013000000C20400003C00000006000000020000000000000000408F4000000080C4071FC0000000A000C043400000000000408F40000000C022B82EC000000040635845400C00000013000000CA0400003C000000060000000200000000
310
00000000408F4000000000BFC42EC0000000A000C043400000000000408F40000000C022B82EC000000040635845400C00000013000000D20400003C00000006000000020000000000000000408F4000000080C4071FC0000000A000C043400000000000408F40000000004F922EC0000000C0C5F046400C00000013000000
310
DA0400003C00000006000000020000000000000000408F40000000C022B82EC000000040635845400000000000408F40000000004F922EC0000000C0C5F046400C00000013000000E20400003C00000006000000020000000000000000408F4000000080C4071FC0000000A000C043400000000000408F40000000E042532E
310
C000000060288948400C00000013000000EA0400003C00000006000000020000000000000000408F40000000004F922EC0000000C0C5F046400000000000408F40000000E042532EC000000060288948400C00000013000000F20400003C00000006000000020000000000000000408F4000000080C4071FC0000000A000C0
310
43400000000000408F4000000080FEFA2DC0000000E08A214A400C00000013000000FA0400003C00000006000000020000000000000000408F40000000E042532EC000000060288948400000000000408F4000000080FEFA2DC0000000E08A214A400C00000013000000020500003C00000006000000020000000000000000
310
408F4000000080C4071FC0000000A000C043400000000000408F40000000E081892DC0000000A0EDB94B400C000000130000000A0500003C00000006000000020000000000000000408F4000000080FEFA2DC0000000E08A214A400000000000408F40000000E081892DC0000000A0EDB94B400C0000001300000012050000
310
3C00000006000000020000000000000000408F4000000080C4071FC0000000A000C043400000000000408F40000000C0C4071FC000000040000C50400C000000130000001A0500003C00000006000000020000000000000000408F40000000E046312DC000000020AED74C400000000000408F40000000E081892DC0000000
310
A0EDB94B400C00000013000000220500003C00000006000000020000000000000000408F4000000080C4071FC0000000A000C043400000000000408F40000000C022B82EC0000000009E2742400C000000130000002A0500003C00000006000000020000000000000000408F4000000000BFC42EC0000000A000C043400000
310
000000408F40000000C022B82EC0000000009E2742400C00000013000000320500003C00000006000000020000000000000000408F4000000080C4071FC0000000A000C043400000000000408F40000000A04E922EC0000000603B8F40400C000000130000003A0500003C00000006000000020000000000000000408F4000
310
0000C022B82EC0000000009E2742400000000000408F40000000A04E922EC0000000603B8F40400C00000013000000420500003C00000006000000020000000000000000408F4000000080C4071FC0000000A000C043400000000000408F40000000C042532EC000000080B1ED3D400C000000130000004A0500003C000000
310
06000000020000000000000000408F40000000A04E922EC0000000603B8F40400000000000408F40000000C042532EC000000080B1ED3D400C00000013000000520500003C00000006000000020000000000000000408F4000000080C4071FC0000000A000C043400000000000408F40000000A0FEFA2DC000000080ECBC3A
310
400C000000130000005A0500003C00000006000000020000000000000000408F40000000C042532EC000000080B1ED3D400000000000408F40000000A0FEFA2DC000000080ECBC3A400C00000013000000620500003C00000006000000020000000000000000408F400000004082892DC000000040278C3740000000000040
310
8F40000000A0FEFA2DC000000080ECBC3A400C000000130000006A0500003C00000006000000020000000000000000408FC0000000E0554615C0000000C0DDB053400000000000408FC0000000000000E4BE0000004000C053400C00000013000000720500003C00000006000000020000000000000000408FC0000000E055
310
4615C0000000C0DDB053400000000000408F40000000A0554615C0000000C0DDB053400C000000130000007A0500003C00000006000000020000000000000000408F40000000000000EABE0000004000C053400000000000408FC0000000000000E4BE0000004000C053400C00000013000000820500003C00000006000000
310
020000000000000000408FC0000000E0554615C0000000C0DDB053400000000000408FC0000000C07F6216C00000004085AC53400C000000130000008A0500003C00000006000000020000000000000000408F40000000807F6216C00000008085AC53400000000000408FC0000000C07F6216C00000004085AC53400C0000
310
0013000000920500003C00000006000000020000000000000000408FC000000060FF0C17C00000008061A153400000000000408FC0000000C07F6216C00000004085AC53400C000000130000009A0500003C00000006000000020000000000000000408F4000000020FF0C17C00000008061A153400000000000408FC00000
310
0060FF0C17C00000008061A153400C00000013000000A20500003C00000006000000020000000000000000408FC000000080D44517C0000000C0718F53400000000000408FC000000060FF0C17C00000008061A153400C00000013000000AA0500003C00000006000000020000000000000000408F4000000040D44517C000
310
000000728F53400000000000408FC000000080D44517C0000000C0718F53400C00000013000000B20500003C00000006000000020000000000000000408FC000000000DCEB17C000000000FD4753400000000000408FC000000080D44517C0000000C0718F53400C00000013000000BA0500003C0000000600000002000000
310
0000000000408FC000000000DCEB17C000000000FD4753400000000000408F40000000C0DBEB17C000000040FD4753400C00000013000000C20500003C00000006000000020000000000000000408FC0000000A08BAF18C000000040492453400000000000408FC000000000DCEB17C000000000FD4753400C000000130000
310
00CA0500003C00000006000000020000000000000000408FC0000000A08BAF18C000000040492453400000000000408F40000000608BAF18C000000080492453400C00000013000000D20500003C00000006000000020000000000000000408FC0000000A08BAF18C000000040492453400000000000408FC000000020EADC
310
19C000000040120353400C00000013000000DA0500003C00000006000000020000000000000000408F40000000E0E9DC19C000000080120353400000000000408FC000000020EADC19C000000040120353400C00000013000000E20500003C00000006000000020000000000000000408FC000000080FA5D1BC000000040E5
310
E552400000000000408FC000000020EADC19C000000040120353400C00000013000000EA0500003C00000006000000020000000000000000408FC000000080FA5D1BC000000040E5E552400000000000408F4000000040FA5D1BC000000040E5E552400C00000013000000F20500003C000000060000000200000000000000
310
00408FC000000080FA5D1BC000000040E5E552400000000000408FC000000080BB281DC0000000C063CD52400C00000013000000FA0500003C00000006000000020000000000000000408FC000000080BB281DC0000000C063CD52400000000000408F4000000040BB281DC00000000064CD52400C00000013000000020600
310
003C00000006000000020000000000000000408FC000000080BB281DC0000000C063CD52400000000000408FC0000000A04B321FC0000000803DBA52400C000000130000000A0600003C00000006000000020000000000000000408F40000000604B321FC0000000803DBA52400000000000408FC0000000A04B321FC00000
310
00803DBA52400C00000013000000120600003C00000006000000020000000000000000408FC0000000A04B321FC0000000803DBA52400000000000408FC0000000E061B120C00000008040AD52400C000000130000001A0600003C00000006000000020000000000000000408F40000000E061B120C00000008040AD524000
310
00000000408FC0000000E061B120C00000008040AD52400C00000013000000220600003C00000006000000020000000000000000408FC00000004095D821C0000000002FA352400000000000408FC0000000E061B120C00000008040AD52400C000000130000002A0600003C00000006000000020000000000000000408F40
310
0000004095D821C0000000002FA352400000000000408FC00000004095D821C0000000002FA352400C00000013000000320600003C00000006000000020000000000000000408FC00000004095D821C0000000002FA352400000000000408FC000000080DA4926C000000000A88952400C000000130000003A0600003C0000
310
0006000000020000000000000000408F4000000080DA4926C000000000A88952400000000000408FC000000080DA4926C000000000A88952400C00000013000000420600003C00000006000000020000000000000000408FC000000080DA4926C000000000A88952400000000000408FC000000040D6D526C000000080F582
310
52400C000000130000004A0600003C00000006000000020000000000000000408F4000000040D6D526C000000080F58252400000000000408FC000000040D6D526C000000080F58252400C00000013000000520600003C00000006000000020000000000000000408FC0000000C0D32927C000000040687652400000000000
310
408FC000000040D6D526C000000080F58252400C000000130000005A0600003C00000006000000020000000000000000408F40000000C0D32927C000000040687652400000000000408FC0000000C0D32927C000000040687652400C00000013000000620600003C00000006000000020000000000000000408FC0000000E0
310
D24527C000000040006452400000000000408FC0000000C0D32927C000000040687652400C000000130000006A0600003C00000006000000020000000000000000408FC0000000E0D24527C000000040006452400000000000408F40000000E0D24527C000000040006452400C00000013000000720600003C000000060000
310
00020000000000000000408FC0000000E0D24527C000000040006452400000000000408FC000000000D34527C0000000C066E651400C000000130000007A0600003C00000006000000020000000000000000408FC000000000D34527C0000000C066E651400000000000408F4000000000D34527C0000000C066E651400C00
310
000013000000820600003C00000006000000020000000000000000408FC000000000D34527C0000000C066E651400000000000408FC0000000C0446227C0000000809FD451400C000000130000008A0600003C00000006000000020000000000000000408FC0000000C0446227C0000000809FD451400000000000408F4000
310
0000C0446227C0000000809FD451400C00000013000000920600003C00000006000000020000000000000000408FC0000000C0446227C0000000809FD451400000000000408FC0000000209AB727C000000000F5C951400C000000130000009A0600003C00000006000000020000000000000000408F40000000209AB727C0
310
00000000F5C951400000000000408FC0000000209AB727C000000000F5C951400C00000013000000A20600003C00000006000000020000000000000000408FC000000000D34528C0000000C066C651400000000000408FC0000000209AB727C000000000F5C951400C00000013000000AA0600003C00000006000000020000
310
000000000000408F4000000000D34528C0000000C066C651400000000000408FC000000000D34528C0000000C066C651400C00000013000000B20600003C00000006000000020000000000000000408FC000000000D34528C0000000C066C651400000000000408FC00000008047172CC0000000C066C651400C0000001300
310
0000BA0600003C00000006000000020000000000000000408F400000008047172CC0000000C066C651400000000000408FC00000008047172CC0000000C066C651400C00000013000000C20600003C00000006000000020000000000000000408FC0000000004BAA2CC000000080E5C251400000000000408FC00000008047
310
172CC0000000C066C651400C00000013000000CA0600003C00000006000000020000000000000000408FC0000000004BAA2CC000000080E5C251400000000000408F40000000004BAA2CC000000080E5C251400C00000013000000D20600003C00000006000000020000000000000000408FC0000000004BAA2CC000000080
310
E5C251400000000000408FC000000000000E2DC0000000C061B851400C00000013000000DA0600003C00000006000000020000000000000000408F4000000000000E2DC0000000C061B851400000000000408FC000000000000E2DC0000000C061B851400C00000013000000E20600003C0000000600000002000000000000
310
0000408FC0000000C066422DC0000000C0DBA651400000000000408FC000000000000E2DC0000000C061B851400C00000013000000EA0600003C00000006000000020000000000000000408F40000000C066422DC0000000C0DBA651400000000000408FC0000000C066422DC0000000C0DBA651400C00000013000000F206
310
00003C00000006000000020000000000000000408FC000000040B5D62DC000000000603A51400000000000408FC0000000C066422DC0000000C0DBA651400C00000013000000FA0600003C00000006000000020000000000000000408FC000000040B5D62DC000000000603A51400000000000408F4000000040B5D62DC000
310
000000603A51400C00000013000000020700003C00000006000000020000000000000000408FC000000040B5D62DC000000000603A51400000000000408FC0000000C0F6AF2EC0000000C03F8750400C000000130000000A0700003C00000006000000020000000000000000408F40000000C0F6AF2EC0000000C03F875040
310
0000000000408FC0000000C0F6AF2EC0000000C03F8750400C00000013000000120700003C00000006000000020000000000000000408FC00000000005532FC000000000B6A64F400000000000408FC0000000C0F6AF2EC0000000C03F8750400C000000130000001A0700003C00000006000000020000000000000000408F
310
C00000000005532FC000000000B6A64F400000000000408F400000000005532FC000000000B6A64F400C00000013000000220700003C00000006000000020000000000000000408FC00000000005532FC000000000B6A64F400000000000408FC000000080DFBF2FC000000060633D4E400C000000130000002A0700003C00
310
000006000000020000000000000000408F4000000080DFBF2FC000000060633D4E400000000000408FC000000080DFBF2FC000000060633D4E400C00000013000000320700003C00000006000000020000000000000000408FC00000000094F12FC0000000A03D614D400000000000408FC000000080DFBF2FC00000006063
310
3D4E400C000000130000003A0700003C00000006000000020000000000000000408FC00000000094F12FC0000000A03D614D400000000000408F400000000094F12FC0000000A03D614D400C00000013000000420700003C00000006000000020000000000000000408FC00000000094F12FC0000000A03D614D4000000000
310
00408FC00000004030DD2FC0000000E05C3D4D400C000000130000004A0700003C00000006000000020000000000000000408FC00000004030DD2FC0000000E05C3D4D400000000000408F400000004030DD2FC0000000E05C3D4D400C00000013000000520700003C00000006000000020000000000000000408FC0000000
310
00C98C2FC000000040ED264D400000000000408FC00000004030DD2FC0000000E05C3D4D400C000000130000005A0700003C00000006000000020000000000000000408FC000000000C98C2FC000000040ED264D400000000000408F4000000000C98C2FC000000040ED264D400C00000013000000620700003C0000000600
310
0000020000000000000000408FC0000000405E002FC0000000A0EE1D4D400000000000408FC000000000C98C2FC000000040ED264D400C000000130000006A0700003C00000006000000020000000000000000408FC0000000405E002FC0000000A0EE1D4D400000000000408F40000000405E002FC0000000A0EE1D4D400C
310
00000013000000720700003C00000006000000020000000000000000408FC0000000405E002FC0000000A0EE1D4D400000000000408FC000000000361D2EC0000000A0E61A4D400C000000130000007A0700003C00000006000000020000000000000000408F4000000000361D2EC0000000A0E61A4D400000000000408FC0
310
00000000361D2EC0000000A0E61A4D400C00000013000000820700003C00000006000000020000000000000000408FC00000004061912DC0000000A0EA114D400000000000408FC000000000361D2EC0000000A0E61A4D400C000000130000008A0700003C00000006000000020000000000000000408FC00000004061912D
310
C0000000A0EA114D400000000000408F400000004061912DC0000000A0EA114D400C00000013000000920700003C00000006000000020000000000000000408FC000000040BC422DC00000006082FB4C400000000000408FC00000004061912DC0000000A0EA114D400C000000130000009A0700003C000000060000000200
310
00000000000000408FC000000040BC422DC00000006082FB4C400000000000408F4000000040BC422DC00000006082FB4C400C00000013000000A20700003C00000006000000020000000000000000408FC000000040BC422DC00000006082FB4C400000000000408FC0000000E046312DC000000020AED74C400C00000013
310
000000AA0700003C00000006000000020000000000000000408F40000000E046312DC000000020AED74C400000000000408FC0000000E046312DC000000020AED74C400C00000013000000B20700003C00000006000000020000000000000000408FC0000000E046312DC000000020AED74C400000000000408FC0000000E0
310
81892DC0000000A0EDB94B400C00000013000000BA0700003C00000006000000020000000000000000408F40000000E081892DC0000000A0EDB94B400000000000408FC0000000E081892DC0000000A0EDB94B400C00000013000000C20700003C00000006000000020000000000000000408FC000000080FEFA2DC0000000
310
E08A214A400000000000408FC0000000E081892DC0000000A0EDB94B400C00000013000000CA0700003C00000006000000020000000000000000408FC000000080FEFA2DC0000000E08A214A400000000000408F4000000080FEFA2DC0000000E08A214A400C00000013000000D20700003C00000006000000020000000000
310
000000408FC000000080FEFA2DC0000000E08A214A400000000000408FC0000000E042532EC000000060288948400C00000013000000DA0700003C00000006000000020000000000000000408F40000000E042532EC000000060288948400000000000408FC0000000E042532EC000000060288948400C00000013000000E2
310
0700003C00000006000000020000000000000000408FC0000000004F922EC0000000C0C5F046400000000000408FC0000000E042532EC000000060288948400C00000013000000EA0700003C00000006000000020000000000000000408FC0000000004F922EC0000000C0C5F046400000000000408F40000000004F922EC0
310
000000C0C5F046400C00000013000000F20700003C00000006000000020000000000000000408FC0000000C022B82EC000000040635845400000000000408FC0000000004F922EC0000000C0C5F046400C00000013000000FA0700003C00000006000000020000000000000000408FC0000000C022B82EC000000040635845
310
400000000000408F40000000C022B82EC000000040635845400C00000013000000020800003C00000006000000020000000000000000408FC000000000BFC42EC0000000A000C043400000000000408FC0000000C022B82EC000000040635845400C000000130000000A0800003C0000000600000002000000000000000040
310
8FC000000000BFC42EC0000000A000C043400000000000408F4000000000BFC42EC0000000A000C043400C00000013000000120800003C00000006000000020000000000000000408FC0000000C022B82EC0000000009E2742400000000000408FC000000000BFC42EC0000000A000C043400C000000130000001A0800003C
310
00000006000000020000000000000000408FC0000000C022B82EC0000000009E2742400000000000408F40000000C022B82EC0000000009E2742400C00000013000000220800003C00000006000000020000000000000000408FC0000000A04E922EC0000000603B8F40400000000000408FC0000000C022B82EC000000000
310
9E2742400C000000130000002A0800003C00000006000000020000000000000000408FC0000000A04E922EC0000000603B8F40400000000000408F40000000A04E922EC0000000603B8F40400C00000013000000320800003C00000006000000020000000000000000408FC0000000C042532EC000000080B1ED3D40000000
310
0000408FC0000000A04E922EC0000000603B8F40400C000000130000003A0800003C00000006000000020000000000000000408FC0000000C042532EC000000080B1ED3D400000000000408F40000000C042532EC000000080B1ED3D400C00000013000000420800003C00000006000000020000000000000000408FC00000
310
00A0FEFA2DC000000080ECBC3A400000000000408FC0000000C042532EC000000080B1ED3D400C000000130000004A0800003C00000006000000020000000000000000408FC0000000A0FEFA2DC000000080ECBC3A400000000000408F40000000A0FEFA2DC000000080ECBC3A400C00000013000000520800003C00000006
310
000000020000000000000000408FC00000004082892DC000000040278C37400000000000408FC0000000A0FEFA2DC000000080ECBC3A400C000000130000005A0800003C00000006000000020000000000000000408FC00000004082892DC000000040278C37400000000000408F400000004082892DC000000040278C3740
310
0C00000013000000620800003C00000006000000020000000000000000408FC00000004082892DC000000040278C37400000000000408FC00000004047312DC000000000A65035400C000000130000006A0800003C00000006000000020000000000000000408FC00000004047312DC000000000A65035400000000000408F
310
400000004047312DC000000000A65035400C00000013000000720800003C00000006000000020000000000000000408FC00000004047312DC000000000A65035400000000000408FC000000080BC422DC0000000A0FD0835400C000000130000007A0800003C00000006000000020000000000000000408F4000000080BC42
310
2DC0000000A0FD0835400000000000408FC000000080BC422DC0000000A0FD0835400C00000013000000820800003C00000006000000020000000000000000408FC00000008061912DC0000000202DDC34400000000000408FC000000080BC422DC0000000A0FD0835400C000000130000008A0800003C0000000600000002
310
0000000000000000408FC00000008061912DC0000000202DDC34400000000000408F400000008061912DC0000000202DDC34400C00000013000000920800003C00000006000000020000000000000000408FC000000040361D2EC0000000E034CA34400000000000408FC00000008061912DC0000000202DDC34400C000000
310
130000009A0800003C00000006000000020000000000000000408FC000000040361D2EC0000000E034CA34400000000000408F4000000040361D2EC0000000E034CA34400C00000013000000A20800003C00000006000000020000000000000000408FC000000040361D2EC0000000E034CA34400000000000408FC0000000
310
405E002FC00000002025C434400C00000013000000AA0800003C00000006000000020000000000000000408F40000000405E002FC00000002025C434400000000000408FC0000000405E002FC00000002025C434400C00000013000000B20800003C00000006000000020000000000000000408FC000000000C98C2FC00000
310
00C027B234400000000000408FC0000000405E002FC00000002025C434400C00000013000000BA0800003C00000006000000020000000000000000408FC000000000C98C2FC0000000C027B234400000000000408F4000000000C98C2FC0000000C027B234400C00000013000000C20800003C000000060000000200000000
310
00000000408FC000000000C98C2FC0000000C027B234400000000000408FC00000004030DD2FC000000060488534400C00000013000000CA0800003C00000006000000020000000000000000408F400000004030DD2FC000000060488534400000000000408FC00000004030DD2FC000000060488534400C00000013000000
310
D20800003C00000006000000020000000000000000408FC00000000094F12FC0000000E0863D34400000000000408FC00000004030DD2FC000000060488534400C00000013000000DA0800003C00000006000000020000000000000000408FC00000000094F12FC0000000E0863D34400000000000408F400000000094F12F
310
C0000000E0863D34400C00000013000000E20800003C00000006000000020000000000000000408FC00000000094F12FC0000000E0863D34400000000000408FC000000080DFBF2FC0000000803B8532400C00000013000000EA0800003C00000006000000020000000000000000408F4000000080DFBF2FC0000000803B85
310
32400000000000408FC000000080DFBF2FC0000000803B8532400C00000013000000F20800003C00000006000000020000000000000000408FC00000000005532FC0000000802C652F400000000000408FC000000080DFBF2FC0000000803B8532400C00000013000000FA0800003C00000006000000020000000000000000
310
408FC00000000005532FC0000000802C652F400000000000408F400000000005532FC0000000802C652F400C00000013000000020900003C00000006000000020000000000000000408FC0000000C0F6AF2EC00000008006C629400000000000408FC00000000005532FC0000000802C652F400C000000130000000A090000
310
3C00000006000000020000000000000000408FC0000000C0F6AF2EC00000008006C629400000000000408F40000000C0F6AF2EC00000008006C629400C00000013000000120900003C00000006000000020000000000000000408FC0000000C0F6AF2EC00000008006C629400000000000408FC000000020B5D62DC0000000
310
00042D24400C000000130000001A0900003C00000006000000020000000000000000408F4000000020B5D62DC000000000042D24400000000000408FC000000020B5D62DC000000000042D24400C00000013000000220900003C00000006000000020000000000000000408FC0000000A066422DC00000000027C920400000
310
000000408FC000000020B5D62DC000000000042D24400C000000130000002A0900003C00000006000000020000000000000000408FC0000000A066422DC00000000027C920400000000000408F40000000A066422DC00000000027C920400C00000013000000320900003C00000006000000020000000000000000408FC000
310
0000A066422DC00000000027C920400000000000408FC0000000E0FF0D2DC000000080F63C20400C000000130000003A0900003C00000006000000020000000000000000408FC0000000E0FF0D2DC000000080F63C20400000000000408F40000000E0FF0D2DC000000080F63C20400C00000013000000420900003C000000
310
06000000020000000000000000408FC0000000E04AAA2CC000000000B2D11F400000000000408FC0000000E0FF0D2DC000000080F63C20400C000000130000004A0900003C00000006000000020000000000000000408FC0000000E04AAA2CC000000000B2D11F400000000000408F40000000E04AAA2CC000000000B2D11F
310
400C00000013000000520900003C00000006000000020000000000000000408FC00000006047172CC0000000009F991F400000000000408FC0000000E04AAA2CC000000000B2D11F400C000000130000005A0900003C00000006000000020000000000000000408FC00000006047172CC0000000009F991F40000000000040
310
8F400000006047172CC0000000009F991F400C00000013000000620900003C00000006000000020000000000000000408FC00000006047172CC0000000009F991F400000000000408FC0000000E0D24528C0000000009F991F400C000000130000006A0900003C00000006000000020000000000000000408FC0000000E0D2
310
4528C0000000009F991F400000000000408F40000000E0D24528C0000000009F991F400C00000013000000720900003C00000006000000020000000000000000408FC0000000E0D24528C0000000009F991F400000000000408FC0000000009AB727C000000000BB601F400C000000130000007A0900003C00000006000000
310
020000000000000000408FC0000000009AB727C000000000BB601F400000000000408F40000000009AB727C000000000BB601F400C00000013000000820900003C00000006000000020000000000000000408FC0000000009AB727C000000000BB601F400000000000408FC0000000A0446227C00000008010B61E400C0000
310
00130000008A0900003C00000006000000020000000000000000408F40000000A0446227C00000008010B61E400000000000408FC0000000A0446227C00000008010B61E400C00000013000000920900003C00000006000000020000000000000000408FC0000000E0D24527C0000000009E991D400000000000408FC00000
310
00A0446227C00000008010B61E400C000000130000009A0900003C00000006000000020000000000000000408F40000000E0D24527C0000000009F991D400000000000408FC0000000E0D24527C0000000009E991D400C00000013000000A20900003C00000006000000020000000000000000408FC0000000E0D24527C000
310
0000009E991D400000000000408FC000000000D34527C00000000004C015400C00000013000000AA0900003C00000006000000020000000000000000408F4000000000D34527C00000000005C015400000000000408FC000000000D34527C00000000004C015400C00000013000000B20900003C0000000600000002000000
310
0000000000408FC000000000D34527C00000000004C015400000000000408FC0000000E0D32927C000000000849914400C00000013000000BA0900003C00000006000000020000000000000000408F40000000E0D32927C000000000859914400000000000408FC0000000E0D32927C000000000849914400C000000130000
310
00C20900003C00000006000000020000000000000000408FC000000060D6D526C000000000B0D013400000000000408FC0000000E0D32927C000000000849914400C00000013000000CA0900003C00000006000000020000000000000000408FC000000060D6D526C000000000B0D013400000000000408F4000000060D6D5
310
26C000000000B1D013400C00000013000000D20900003C00000006000000020000000000000000408FC000000060D6D526C000000000B0D013400000000000408FC0000000A0DA4926C000000000876513400C00000013000000DA0900003C00000006000000020000000000000000408F40000000A0DA4926C00000000088
310
6513400000000000408FC0000000A0DA4926C000000000876513400C00000013000000E20900003C00000006000000020000000000000000408FC0000000A0DA4926C000000000876513400000000000408FC00000006095D821C00000000019CD11400C00000013000000EA0900003C000000060000000200000000000000
310
00408F400000006095D821C0000000001ACD11400000000000408FC00000006095D821C00000000019CD11400C00000013000000F20900003C00000006000000020000000000000000408FC0000000E061B120C000000000012C11400000000000408FC00000006095D821C00000000019CD11400C00000013000000FA0900
310
003C00000006000000020000000000000000408FC0000000E061B120C000000000012C11400000000000408F40000000E061B120C000000000022C11400C00000013000000020A00003C00000006000000020000000000000000408FC0000000E061B120C000000000012C11400000000000408FC0000000404E321FC00000
310
0000335C10400C000000130000000A0A00003C00000006000000020000000000000000408F40000000E04D321FC000000000345C10400000000000408FC0000000404E321FC000000000335C10400C00000013000000120A00003C00000006000000020000000000000000408FC000000040BF281DC0000000009A530E4000
310
00000000408FC0000000404E321FC000000000335C10400C000000130000001A0A00003C00000006000000020000000000000000408FC000000040BF281DC0000000009A530E400000000000408F4000000000BF281DC0000000009C530E400C00000013000000220A00003C00000006000000020000000000000000408FC0
310
00000040BF281DC0000000009A530E400000000000408FC0000000A0FE5D1BC0000000005E430B400C000000130000002A0A00003C00000006000000020000000000000000408F4000000060FE5D1BC00000000060430B400000000000408FC0000000A0FE5D1BC0000000005E430B400C00000013000000320A00003C0000
310
0006000000020000000000000000408FC0000000C0EDDC19C000000000BC9D07400000000000408FC0000000A0FE5D1BC0000000005E430B400C000000130000003A0A00003C00000006000000020000000000000000408FC0000000C0EDDC19C000000000BC9D07400000000000408F4000000080EDDC19C000000000BE9D
310
07400C00000013000000420A00003C00000006000000020000000000000000408FC0000000C0EDDC19C000000000BC9D07400000000000408FC0000000408AAF18C000000000DC7603400C000000130000004A0A00003C00000006000000020000000000000000408F40000000008AAF18C000000000DE7603400000000000
310
408FC0000000408AAF18C000000000DC7603400C00000013000000520A00003C00000006000000020000000000000000408FC000000040D9EB17C000000000CC00FE3F0000000000408FC0000000408AAF18C000000000DC7603400C000000130000005A0A00003C00000006000000020000000000000000408FC000000040
310
D9EB17C000000000CC00FE3F0000000000408F4000000000D9EB17C000000000D000FE3F0C00000013000000620A00003C00000006000000020000000000000000408FC000000040D9EB17C000000000CC00FE3F0000000000408FC000000060D44517C0000000005047E83F0C000000130000006A0A00003C000000060000
310
00020000000000000000408F4000000020D44517C0000000005847E83F0000000000408FC000000060D44517C0000000005047E83F0C00000013000000720A00003C00000006000000020000000000000000408FC000000060D44517C0000000005047E83F0000000000408FC000000040FF0C17C000000000109FDE3F0C00
310
0000130000007A0A00003C00000006000000020000000000000000408F4000000000FF0C17C000000000209FDE3F0000000000408FC000000040FF0C17C000000000109FDE3F0C00000013000000820A00003C00000006000000020000000000000000408FC0000000A07F6216C000000000207BD33F0000000000408FC000
310
000040FF0C17C000000000109FDE3F0C000000130000008A0A00003C00000006000000020000000000000000408F40000000607F6216C000000000307BD33F0000000000408FC0000000A07F6216C000000000207BD33F0C00000013000000920A00003C00000006000000020000000000000000408FC0000000C0554615C0
310
000000008045CE3F0000000000408FC0000000A07F6216C000000000207BD33F0C000000130000009A0A00003C00000006000000020000000000000000408FC0000000C0554615C0000000008045CE3F0000000000408F4000000080554615C000000000A045CE3F0C00000013000000A20A00003C00000006000000020000
310
000000000000408FC0000000C0554615C0000000008045CE3F0000000000408FC0000000000000E4BE000000000000F03E0C00000013000000AA0A00003C00000006000000020000000000000000408FC0000000000000E4BE000000000000F03E0000000000408F40000000000000EABE000000000000F43E0C0000001300
310
0000B20A00003C00000006000000020000000000000000408FC0000000000000E4BE0000004002A02D400000000000408FC0000000000000E4BE000000000000F03E0C00000013000000BA0A00003C00000006000000020000000000000000408FC0000000000000E4BE0000004002A02D400000000000408F400000000000
310
00EABE0000004002A02D400C00000013000000C20A00003C00000006000000020000000000000000408FC0000000000000E4BE0000004002A02D400000000000408FC000000000C5071FC00000004002A02D400C00000013000000CA0A00003C00000006000000020000000000000000408FC000000000C5071FC000000040
310
02A02D400000000000408F4000000080C4071FC00000004002A02D400C00000013000000D20A00003C00000006000000020000000000000000408FC000000000C5071FC00000004002A02D400000000000408FC0000000C0C4071FC0000000A000C043400C00000013000000DA0A00003C0000000600000002000000000000
310
0000408F4000000080C4071FC0000000A000C043400000000000408FC0000000C0C4071FC0000000A000C043400C00000013000000E20A00003C00000006000000020000000000000000408FC000000000C5071FC000000040000C50400000000000408FC0000000C0C4071FC0000000A000C043400C00000013000000EA0A
310
00003C00000006000000020000000000000000408FC000000000C5071FC000000040000C50400000000000408F40000000C0C4071FC000000040000C50400C00000013000000F20A00003C00000006000000020000000000000000408FC000000000C5071FC000000040000C50400000000000408FC0000000000000E4BE00
310
000040000C50400C00000013000000FA0A00003C00000006000000020000000000000000408FC0000000000000E4BE00000040000C50400000000000408F40000000000000EABE00000040000C50400C00000013000000020B00003C00000006000000020000000000000000408FC0000000000000E4BE00000040000C5040
310
0000000000408FC0000000000000E4BE0000004000C053400C000000130000000A0B00003C00000006000000020000000000000000408FC0000000C0554615C0000000008045CE3F0000000000408FC0000000000000E4BE0000004002A02D400C00000013000000120B00003C00000006000000020000000000000000408F
310
C0000000000000E4BE0000004002A02D400000000000408FC0000000A07F6216C000000000207BD33F0C000000130000001A0B00003C00000006000000020000000000000000408FC0000000000000E4BE0000004002A02D400000000000408FC000000040FF0C17C000000000109FDE3F0C00000013000000220B00003C00
310
000006000000020000000000000000408FC0000000000000E4BE0000004002A02D400000000000408FC000000060D44517C0000000005047E83F0C000000130000002A0B00003C00000006000000020000000000000000408FC0000000000000E4BE0000004002A02D400000000000408FC000000040D9EB17C000000000CC
310
00FE3F0C00000013000000320B00003C00000006000000020000000000000000408FC0000000000000E4BE0000004002A02D400000000000408FC0000000408AAF18C000000000DC7603400C000000130000003A0B00003C00000006000000020000000000000000408FC000000000C5071FC00000004002A02D4000000000
310
00408FC0000000A0446227C00000008010B61E400C00000013000000420B00003C00000006000000020000000000000000408FC000000000C5071FC00000004002A02D400000000000408FC0000000E0D24527C0000000009E991D400C000000130000004A0B00003C00000006000000020000000000000000408FC0000000
310
00C5071FC00000004002A02D400000000000408FC0000000009AB727C000000000BB601F400C00000013000000520B00003C00000006000000020000000000000000408FC000000000C5071FC00000004002A02D400000000000408FC0000000E0D24528C0000000009F991F400C000000130000005A0B00003C0000000600
310
0000020000000000000000408FC00000006047172CC0000000009F991F400000000000408FC000000000C5071FC00000004002A02D400C00000013000000620B00003C00000006000000020000000000000000408FC0000000000000E4BE0000004002A02D400000000000408FC0000000C0EDDC19C000000000BC9D07400C
310
000000130000006A0B00003C00000006000000020000000000000000408FC0000000000000E4BE0000004002A02D400000000000408FC0000000A0FE5D1BC0000000005E430B400C00000013000000720B00003C00000006000000020000000000000000408FC0000000000000E4BE0000004002A02D400000000000408FC0
310
00000040BF281DC0000000009A530E400C000000130000007A0B00003C00000006000000020000000000000000408FC0000000000000E4BE0000004002A02D400000000000408FC0000000404E321FC000000000335C10400C00000013000000820B00003C00000006000000020000000000000000408FC0000000000000E4
310
BE0000004002A02D400000000000408FC0000000E061B120C000000000012C11400C000000130000008A0B00003C00000006000000020000000000000000408FC0000000000000E4BE0000004002A02D400000000000408FC00000006095D821C00000000019CD11400C00000013000000920B00003C000000060000000200
310
00000000000000408FC000000000C5071FC00000004002A02D400000000000408FC0000000A0DA4926C000000000876513400C000000130000009A0B00003C00000006000000020000000000000000408FC000000000C5071FC00000004002A02D400000000000408FC000000000D34527C00000000004C015400C00000013
310
000000A20B00003C00000006000000020000000000000000408FC000000000C5071FC00000004002A02D400000000000408FC0000000E0D32927C000000000849914400C00000013000000AA0B00003C00000006000000020000000000000000408FC000000000C5071FC00000004002A02D400000000000408FC000000060
310
D6D526C000000000B0D013400C00000013000000B20B00003C00000006000000020000000000000000408FC000000000C5071FC00000004002A02D400000000000408FC0000000E04AAA2CC000000000B2D11F400C00000013000000BA0B00003C00000006000000020000000000000000408FC000000000C5071FC0000000
310
4002A02D400000000000408FC0000000E0FF0D2DC000000080F63C20400C00000013000000C20B00003C00000006000000020000000000000000408FC000000000C5071FC00000004002A02D400000000000408FC0000000A066422DC00000000027C920400C00000013000000CA0B00003C00000006000000020000000000
310
000000408FC000000000C5071FC00000004002A02D400000000000408FC000000020B5D62DC000000000042D24400C00000013000000D20B00003C00000006000000020000000000000000408FC000000000C5071FC00000004002A02D400000000000408FC0000000C0F6AF2EC00000008006C629400C00000013000000DA
310
0B00003C00000006000000020000000000000000408FC000000000C5071FC00000004002A02D400000000000408FC00000000005532FC0000000802C652F400C00000013000000E20B00003C00000006000000020000000000000000408FC000000000C5071FC00000004002A02D400000000000408FC00000000094F12FC0
310
000000E0863D34400C00000013000000EA0B00003C00000006000000020000000000000000408FC000000000C5071FC00000004002A02D400000000000408FC000000080DFBF2FC0000000803B8532400C00000013000000F20B00003C00000006000000020000000000000000408FC000000000C5071FC00000004002A02D
310
400000000000408FC000000000C98C2FC0000000C027B234400C00000013000000FA0B00003C00000006000000020000000000000000408FC000000000C5071FC00000004002A02D400000000000408FC00000004030DD2FC000000060488534400C00000013000000020C00003C0000000600000002000000000000000040
310
8FC000000000C5071FC00000004002A02D400000000000408FC000000040361D2EC0000000E034CA34400C000000130000000A0C00003C00000006000000020000000000000000408FC000000000C5071FC00000004002A02D400000000000408FC0000000405E002FC00000002025C434400C00000013000000120C00003C
310
00000006000000020000000000000000408FC000000000C5071FC00000004002A02D400000000000408FC000000080BC422DC0000000A0FD0835400C000000130000001A0C00003C00000006000000020000000000000000408FC000000000C5071FC00000004002A02D400000000000408FC00000008061912DC000000020
310
2DDC34400C00000013000000220C00003C00000006000000020000000000000000408FC000000000C5071FC00000004002A02D400000000000408FC00000004047312DC000000000A65035400C000000130000002A0C00003C00000006000000020000000000000000408FC00000004082892DC000000040278C3740000000
310
0000408FC0000000C0C4071FC0000000A000C043400C00000013000000320C00003C00000006000000020000000000000000408FC0000000000000E4BE00000040000C50400000000000408FC0000000E0554615C0000000C0DDB053400C000000130000003A0C00003C00000006000000020000000000000000408FC00000
310
00000000E4BE00000040000C50400000000000408FC0000000C07F6216C00000004085AC53400C00000013000000420C00003C00000006000000020000000000000000408FC0000000000000E4BE00000040000C50400000000000408FC000000060FF0C17C00000008061A153400C000000130000004A0C00003C00000006
310
000000020000000000000000408FC0000000000000E4BE00000040000C50400000000000408FC000000080D44517C0000000C0718F53400C00000013000000520C00003C00000006000000020000000000000000408FC0000000000000E4BE00000040000C50400000000000408FC000000000DCEB17C000000000FD475340
310
0C000000130000005A0C00003C00000006000000020000000000000000408FC0000000A08BAF18C000000040492453400000000000408FC0000000000000E4BE00000040000C50400C00000013000000620C00003C00000006000000020000000000000000408FC0000000000000E4BE00000040000C50400000000000408F
310
C000000020EADC19C000000040120353400C000000130000006A0C00003C00000006000000020000000000000000408FC000000080FA5D1BC000000040E5E552400000000000408FC0000000000000E4BE00000040000C50400C00000013000000720C00003C00000006000000020000000000000000408FC0000000000000
310
E4BE00000040000C50400000000000408FC000000080BB281DC0000000C063CD52400C000000130000007A0C00003C00000006000000020000000000000000408FC0000000000000E4BE00000040000C50400000000000408FC0000000A04B321FC0000000803DBA52400C00000013000000820C00003C0000000600000002
310
0000000000000000408FC0000000000000E4BE00000040000C50400000000000408FC0000000E061B120C00000008040AD52400C000000130000008A0C00003C00000006000000020000000000000000408FC0000000000000E4BE00000040000C50400000000000408FC00000004095D821C0000000002FA352400C000000
310
13000000920C00003C00000006000000020000000000000000408FC000000000C5071FC000000040000C50400000000000408FC000000000D34527C0000000C066E651400C000000130000009A0C00003C00000006000000020000000000000000408FC000000000C5071FC000000040000C50400000000000408FC0000000
310
C0446227C0000000809FD451400C00000013000000A20C00003C00000006000000020000000000000000408FC000000000C5071FC000000040000C50400000000000408FC0000000209AB727C000000000F5C951400C00000013000000AA0C00003C00000006000000020000000000000000408FC000000000C5071FC00000
310
0040000C50400000000000408FC0000000E0D24527C000000040006452400C00000013000000B20C00003C00000006000000020000000000000000408FC000000000C5071FC000000040000C50400000000000408FC000000000D34528C0000000C066C651400C00000013000000BA0C00003C000000060000000200000000
310
00000000408FC000000000C5071FC000000040000C50400000000000408FC0000000C0D32927C000000040687652400C00000013000000C20C00003C00000006000000020000000000000000408FC000000000C5071FC000000040000C50400000000000408FC000000040D6D526C000000080F58252400C00000013000000
310
CA0C00003C00000006000000020000000000000000408FC000000000C5071FC000000040000C50400000000000408FC000000080DA4926C000000000A88952400C00000013000000D20C00003C00000006000000020000000000000000408FC000000000C5071FC000000040000C50400000000000408FC00000008047172C
310
C0000000C066C651400C00000013000000DA0C00003C00000006000000020000000000000000408FC000000000C5071FC000000040000C50400000000000408FC0000000004BAA2CC000000080E5C251400C00000013000000E20C00003C00000006000000020000000000000000408FC000000000C5071FC000000040000C
310
50400000000000408FC000000000000E2DC0000000C061B851400C00000013000000EA0C00003C00000006000000020000000000000000408FC000000000C5071FC000000040000C50400000000000408FC0000000C066422DC0000000C0DBA651400C00000013000000F20C00003C00000006000000020000000000000000
310
408FC000000000C5071FC000000040000C50400000000000408FC000000040B5D62DC000000000603A51400C00000013000000FA0C00003C00000006000000020000000000000000408FC000000000C5071FC000000040000C50400000000000408FC0000000C0F6AF2EC0000000C03F8750400C00000013000000020D0000
310
3C00000006000000020000000000000000408FC000000000C5071FC000000040000C50400000000000408FC00000000005532FC000000000B6A64F400C000000130000000A0D00003C00000006000000020000000000000000408FC000000000C5071FC000000040000C50400000000000408FC000000080DFBF2FC0000000
310
60633D4E400C00000013000000120D00003C00000006000000020000000000000000408FC000000000C5071FC000000040000C50400000000000408FC00000000094F12FC0000000A03D614D400C000000130000001A0D00003C00000006000000020000000000000000408FC000000000C5071FC000000040000C50400000
310
000000408FC00000004030DD2FC0000000E05C3D4D400C00000013000000220D00003C00000006000000020000000000000000408FC000000000C5071FC000000040000C50400000000000408FC000000000C98C2FC000000040ED264D400C000000130000002A0D00003C00000006000000020000000000000000408FC000
310
000000C5071FC000000040000C50400000000000408FC0000000405E002FC0000000A0EE1D4D400C00000013000000320D00003C00000006000000020000000000000000408FC000000000C5071FC000000040000C50400000000000408FC000000000361D2EC0000000A0E61A4D400C000000130000003A0D00003C000000
310
06000000020000000000000000408FC000000000C5071FC000000040000C50400000000000408FC00000004061912DC0000000A0EA114D400C00000013000000420D00003C00000006000000020000000000000000408FC000000000C5071FC000000040000C50400000000000408FC000000040BC422DC00000006082FB4C
310
400C000000130000004A0D00003C00000006000000020000000000000000408FC000000000C5071FC000000040000C50400000000000408FC0000000E046312DC000000020AED74C400C00000013000000520D00003C00000006000000020000000000000000408FC0000000C022B82EC00000004063584540000000000040
310
8FC0000000C0C4071FC0000000A000C043400C000000130000005A0D00003C00000006000000020000000000000000408FC000000000BFC42EC0000000A000C043400000000000408FC0000000C0C4071FC0000000A000C043400C00000013000000620D00003C00000006000000020000000000000000408FC0000000004F
310
922EC0000000C0C5F046400000000000408FC0000000C0C4071FC0000000A000C043400C000000130000006A0D00003C00000006000000020000000000000000408FC0000000E042532EC000000060288948400000000000408FC0000000C0C4071FC0000000A000C043400C00000013000000720D00003C00000006000000
310
020000000000000000408FC000000080FEFA2DC0000000E08A214A400000000000408FC0000000C0C4071FC0000000A000C043400C000000130000007A0D00003C00000006000000020000000000000000408FC0000000E081892DC0000000A0EDB94B400000000000408FC0000000C0C4071FC0000000A000C043400C0000
310
0013000000820D00003C00000006000000020000000000000000408FC0000000C022B82EC0000000009E2742400000000000408FC0000000C0C4071FC0000000A000C043400C000000130000008A0D00003C00000006000000020000000000000000408FC0000000A04E922EC0000000603B8F40400000000000408FC00000
310
00C0C4071FC0000000A000C043400C00000013000000920D00003C00000006000000020000000000000000408FC0000000C042532EC000000080B1ED3D400000000000408FC0000000C0C4071FC0000000A000C043400C000000130000009A0D00003C00000006000000020000000000000000408FC0000000A0FEFA2DC000
310
000080ECBC3A400000000000408FC0000000C0C4071FC0000000A000C04340
100
AcDbSubDMesh
 71
     2
 72
     0
 91
        0
 92
      180
 10
-1000.0
 20
-5.318686485290527
 30
0.2364959716796875
 10
-1000.0
 20
-0.0000095367431641
 30
14.81251716613769
 10
-1000.0
 20
-0.0000095367431641
 30
0.0000152587890625
 10
-1000.0
 20
-5.980320930480957
 30
1.875194549560546
 10
-1000.0
 20
-6.465750694274902
 30
2.952018737792968
 10
-1000.0
 20
-7.28979206085205
 30
3.790821075439453
 10
-1000.0
 20
-8.346449851989746
 30
4.292972564697265
 10
-1000.0
 20
-14.04546642303467
 30
7.900020599365234
 10
-1000.0
 20
-7.757587432861328
 30
14.81251716613769
 10
-1000.0
 20
-15.97183227539062
 30
20.2403392791748
 10
-1000.0
 20
-15.05705451965332
 30
20.78986930847168
 10
-1000.0
 20
-7.757587432861328
 30
64.18751525878906
 10
-1000.0
 20
-14.76857185363769
 30
23.5474739074707
 10
-1000.0
 20
-15.50071907043457
 30
58.23384475708007
 10
-1000.0
 20
-11.63637447357178
 30
73.56251525878906
 10
-1000.0
 20
-6.841775894165039
 30
75.59211730957031
 10
-1000.0
 20
-6.171431064605712
 30
76.56697082519531
 10
-1000.0
 20
-0.0000095367431641
 30
64.18751525878906
 10
-1000.0
 20
-14.91935157775879
 30
68.912109375
 10
-1000.0
 20
-15.34367942810058
 30
12.88676834106445
 10
-1000.0
 20
-15.66214752197265
 30
15.69760513305664
 10
-1000.0
 20
-15.66214752197265
 30
63.30242919921875
 10
-1000.0
 20
-14.99022388458252
 30
26.73798370361328
 10
-1000.0
 20
-15.16261863708496
 30
29.92848968505859
 10
-1000.0
 20
-15.28575611114502
 30
33.11899948120117
 10
-1000.0
 20
-15.35964012145996
 30
36.30950927734375
 10
-1000.0
 20
-15.38426971435547
 30
39.50001907348633
 10
-1000.0
 20
-15.35964012145996
 30
42.6905288696289
 10
-1000.0
 20
-15.28575897216797
 30
45.88103485107422
 10
-1000.0
 20
-14.9902229309082
 30
52.26205062866211
 10
-1000.0
 20
-12.13637447357178
 30
7.900020599365234
 10
-1000.0
 20
-14.62968921661377
 30
8.392875671386718
 10
-1000.0
 20
-14.59624671936035
 30
21.31503295898438
 10
-1000.0
 20
-15.97183227539062
 30
58.75969314575195
 10
-1000.0
 20
-11.63637542724609
 30
71.60002136230469
 10
-1000.0
 20
-5.318686962127685
 30
78.76353454589843
 10
-1000.0
 20
-11.41765117645263
 30
4.95379638671875
 10
-1000.0
 20
-11.85859680175781
 30
7.844463348388671
 10
-1000.0
 20
-14.33260250091553
 30
7.954780578613281
 10
-1000.0
 20
-14.52734279632568
 30
8.119068145751953
 10
-1000.0
 20
-15.77497100830078
 30
20.69591903686523
 10
-1000.0
 20
-14.7839469909668
 30
20.86006355285645
 10
-1000.0
 20
-14.63034248352051
 30
57.96491622924804
 10
-1000.0
 20
-14.78394508361816
 30
58.13997268676757
 10
-1000.0
 20
-15.77497100830078
 30
58.30411529541016
 10
-1000.0
 20
-15.93200874328613
 30
58.47939682006836
 10
-1000.0
 20
-11.69193077087402
 30
71.32223510742187
 10
-1000.0
 20
-14.33260345458984
 30
71.04525756835937
 10
-1000.0
 20
-7.289777755737304
 30
75.20921325683594
 10
-1000.0
 20
-5.980331420898437
 30
77.12481689453125
 10
1000.0
 20
-0.0000123977661133
 30
0.0000190734863281
 10
1000.0
 20
-5.31868553161621
 30
0.2364997863769531
 10
1000.0
 20
-0.0000123977661133
 30
14.81251716613769
 10
1000.0
 20
-5.596189022064208
 30
0.3043937683105469
 10
1000.0
 20
-5.762691497802734
 30
0.4784622192382813
 10
1000.0
 20
-5.81819200515747
 30
0.7587089538574219
 10
1000.0
 20
-5.98031997680664
 30
1.875198364257812
 10
1000.0
 20
-6.171424865722656
 30
2.433040618896484
 10
1000.0
 20
-11.63637447357178
 30
7.400020599365234
 10
1000.0
 20
-11.6919298171997
 30
7.677797317504882
 10
1000.0
 20
-7.757585525512695
 30
14.81251716613769
 10
1000.0
 20
-11.85859680175781
 30
7.844463348388671
 10
1000.0
 20
-12.13637447357178
 30
7.900020599365234
 10
1000.0
 20
-14.04546642303467
 30
7.900020599365234
 10
1000.0
 20
-6.465749740600585
 30
2.952022552490234
 10
1000.0
 20
-6.841790676116943
 30
3.40789794921875
 10
1000.0
 20
-7.289791107177734
 30
3.790824890136718
 10
1000.0
 20
-7.79912519454956
 30
4.090042114257812
 10
1000.0
 20
-8.346449851989746
 30
4.292976379394531
 10
1000.0
 20
-8.923014640808105
 30
4.450294494628906
 10
1000.0
 20
-11.14424610137939
 30
4.849151611328125
 10
1000.0
 20
-11.58169460296631
 30
5.149921417236328
 10
1000.0
 20
-11.63637542724609
 30
5.437519073486328
 10
1000.0
 20
-11.41765117645263
 30
4.953800201416015
 10
1000.0
 20
-14.33260250091553
 30
7.954780578613281
 10
1000.0
 20
-14.52734279632568
 30
8.119068145751953
 10
1000.0
 20
-14.62968921661377
 30
8.392875671386718
 10
1000.0
 20
-14.91935062408447
 30
10.08792114257812
 10
1000.0
 20
-15.34367942810058
 30
12.88676834106445
 10
1000.0
 20
-15.66214752197265
 30
15.69760513305664
 10
1000.0
 20
-15.87475204467773
 30
18.52043914794922
 10
1000.0
 20
-15.97183227539062
 30
20.2403392791748
 10
1000.0
 20
-15.93200874328613
 30
20.5206356048584
 10
1000.0
 20
-15.77497100830078
 30
20.69591903686523
 10
1000.0
 20
-15.50071907043457
 30
20.76619148254394
 10
1000.0
 20
-15.05705451965332
 30
20.78986930847168
 10
1000.0
 20
-14.7839469909668
 30
20.86006355285645
 10
1000.0
 20
-14.63034439086914
 30
21.03512001037598
 10
1000.0
 20
-14.59624671936035
 30
21.31503295898438
 10
1000.0
 20
-14.76857185363769
 30
23.5474739074707
 10
1000.0
 20
-7.757585525512695
 30
39.50001907348633
 10
1000.0
 20
-5.318686008453369
 30
78.76353454589843
 10
1000.0
 20
-0.0000123977661133
 30
79.00001525878906
 10
1000.0
 20
-0.0000123977661133
 30
64.18751525878906
 10
1000.0
 20
-5.596189498901367
 30
78.69564819335938
 10
1000.0
 20
-5.762691974639892
 30
78.52157592773437
 10
1000.0
 20
-5.818192481994628
 30
78.2413330078125
 10
1000.0
 20
-5.980330467224121
 30
77.12483215332031
 10
1000.0
 20
-6.171430110931396
 30
76.56698608398437
 10
1000.0
 20
-6.465735912322998
 30
76.04800415039062
 10
1000.0
 20
-6.841774940490722
 30
75.59211730957031
 10
1000.0
 20
-7.289776802062988
 30
75.209228515625
 10
1000.0
 20
-7.799115657806396
 30
74.91000366210937
 10
1000.0
 20
-8.923013687133789
 30
74.54974365234375
 10
1000.0
 20
-8.346449851989746
 30
74.70706176757812
 10
1000.0
 20
-11.69193077087402
 30
71.32223510742187
 10
1000.0
 20
-11.63637542724609
 30
71.60002136230469
 10
1000.0
 20
-7.757586479187011
 30
64.18751525878906
 10
1000.0
 20
-11.85859775543213
 30
71.15557861328125
 10
1000.0
 20
-11.63637447357178
 30
73.56251525878906
 10
1000.0
 20
-12.13637542724609
 30
71.10002136230469
 10
1000.0
 20
-11.58169364929199
 30
73.85011291503906
 10
1000.0
 20
-11.41765022277832
 30
74.04623413085937
 10
1000.0
 20
-11.14424514770508
 30
74.15087890625
 10
1000.0
 20
-14.04546737670898
 30
71.10002136230469
 10
1000.0
 20
-14.33260345458984
 30
71.04525756835937
 10
1000.0
 20
-14.62969017028808
 30
70.60716247558594
 10
1000.0
 20
-14.52734375
 30
70.88096618652343
 10
1000.0
 20
-14.91935157775879
 30
68.912109375
 10
1000.0
 20
-15.34367942810058
 30
66.11326599121094
 10
1000.0
 20
-15.66214752197265
 30
63.30242919921875
 10
1000.0
 20
-15.87475204467773
 30
60.47959518432617
 10
1000.0
 20
-15.97183227539062
 30
58.75969314575195
 10
1000.0
 20
-15.93200874328613
 30
58.47939682006836
 10
1000.0
 20
-15.77497100830078
 30
58.30411529541016
 10
1000.0
 20
-15.50071907043457
 30
58.23384475708007
 10
1000.0
 20
-15.05705261230469
 30
58.21016311645507
 10
1000.0
 20
-14.78394508361816
 30
58.13997268676757
 10
1000.0
 20
-14.63034248352051
 30
57.96491622924804
 10
1000.0
 20
-14.5962438583374
 30
57.68500137329102
 10
1000.0
 20
-15.38426971435547
 30
39.50001907348633
 10
1000.0
 20
-15.35964012145996
 30
42.6905288696289
 10
1000.0
 20
-15.28575897216797
 30
45.88103485107422
 10
1000.0
 20
-15.16261959075928
 30
49.0715446472168
 10
1000.0
 20
-14.9902229309082
 30
52.26205062866211
 10
1000.0
 20
-14.76856899261474
 30
55.45256423950196
 10
1000.0
 20
-15.35964012145996
 30
36.30950927734375
 10
1000.0
 20
-15.28575611114502
 30
33.11899948120117
 10
1000.0
 20
-15.16261863708496
 30
29.92848968505859
 10
1000.0
 20
-14.99022388458252
 30
26.73798370361328
 10
-1000.0
 20
-11.14424610137939
 30
4.849147796630859
 10
-1000.0
 20
-11.63637447357178
 30
7.400016784667968
 10
-1000.0
 20
-14.91935062408447
 30
10.08792114257812
 10
-1000.0
 20
-14.5962438583374
 30
57.68500137329102
 10
-1000.0
 20
-15.87475204467773
 30
60.47959518432617
 10
-1000.0
 20
-12.13637542724609
 30
71.10002136230469
 10
-1000.0
 20
-14.62969017028808
 30
70.60716247558594
 10
-1000.0
 20
-0.0000095367431641
 30
79.00001525878906
 10
-1000.0
 20
-8.923013687133789
 30
74.54974365234375
 10
-1000.0
 20
-7.799116611480712
 30
74.91000366210937
 10
-1000.0
 20
-5.818193435668945
 30
78.24131774902344
 10
-1000.0
 20
-15.87475204467773
 30
18.52043914794922
 10
-1000.0
 20
-15.34367942810058
 30
66.11326599121094
 10
-1000.0
 20
-14.76856899261474
 30
55.45256423950196
 10
-1000.0
 20
-15.16261959075928
 30
49.0715446472168
 10
-1000.0
 20
-11.63637542724609
 30
5.437515258789062
 10
-1000.0
 20
-15.50071907043457
 30
20.76619148254394
 10
-1000.0
 20
-15.05705261230469
 30
58.21016311645507
 10
-1000.0
 20
-14.04546737670898
 30
71.10002136230469
 10
-1000.0
 20
-11.14424514770508
 30
74.15087890625
 10
-1000.0
 20
-11.58169460296631
 30
5.149917602539062
 10
-1000.0
 20
-11.6919298171997
 30
7.677797317504882
 10
-1000.0
 20
-15.93200874328613
 30
20.5206356048584
 10
-1000.0
 20
-14.63034439086914
 30
21.03512001037598
 10
-1000.0
 20
-11.85859775543213
 30
71.15557861328125
 10
-1000.0
 20
-14.52734375
 30
70.88096618652343
 10
-1000.0
 20
-11.58169364929199
 30
73.85011291503906
 10
-1000.0
 20
-11.41765022277832
 30
74.04623413085937
 10
-1000.0
 20
-5.762692928314208
 30
78.52157592773437
 10
-1000.0
 20
-5.596190452575683
 30
78.69563293457031
 10
-1000.0
 20
-5.818192958831787
 30
0.7587051391601563
 10
-1000.0
 20
-5.596189975738525
 30
0.3043899536132812
 10
-1000.0
 20
-5.76269245147705
 30
0.4784584045410157
 10
-1000.0
 20
-8.346449851989746
 30
74.70706176757812
 10
-1000.0
 20
-6.465736865997314
 30
76.04798889160156
 10
-1000.0
 20
-6.171425819396972
 30
2.433036804199218
 10
-1000.0
 20
-6.841791629791259
 30
3.407894134521484
 10
-1000.0
 20
-7.799126625061035
 30
4.090038299560546
 10
-1000.0
 20
-8.923014640808105
 30
4.45029067993164
 10
-1000.0
 20
-7.757586479187011
 30
39.50001907348633
 93
     1130
 90
        3
 90
       50
 90
       52
 90
       51
 90
        3
 90
       51
 90
       52
 90
       53
 90
        3
 90
       53
 90
       52
 90
       54
 90
        3
 90
       54
 90
       52
 90
       55
 90
        3
 90
       55
 90
       52
 90
       56
 90
        3
 90
       56
 90
       52
 90
       57
 90
        3
 90
       58
 90
       60
 90
       59
 90
        3
 90
       59
 90
       60
 90
       61
 90
        3
 90
       61
 90
       60
 90
       62
 90
        3
 90
       62
 90
       60
 90
       63
 90
        3
 90
       57
 90
       52
 90
       64
 90
        3
 90
       64
 90
       52
 90
       65
 90
        3
 90
       65
 90
       52
 90
       66
 90
        3
 90
       66
 90
       52
 90
       67
 90
        3
 90
       67
 90
       52
 90
       68
 90
        3
 90
       68
 90
       52
 90
       69
 90
        4
 90
       69
 90
       52
 90
       60
 90
       70
 90
        3
 90
       71
 90
       60
 90
       72
 90
        3
 90
       72
 90
       60
 90
       58
 90
        3
 90
       70
 90
       60
 90
       73
 90
        3
 90
       73
 90
       60
 90
       71
 90
        3
 90
       63
 90
       60
 90
       74
 90
        3
 90
       74
 90
       60
 90
       75
 90
        3
 90
       75
 90
       60
 90
       76
 90
        3
 90
       76
 90
       60
 90
       77
 90
        3
 90
       77
 90
       60
 90
       78
 90
        3
 90
       78
 90
       60
 90
       79
 90
        3
 90
       80
 90
       60
 90
       81
 90
        3
 90
       60
 90
       80
 90
       79
 90
        3
 90
       82
 90
       60
 90
       83
 90
        3
 90
       81
 90
       60
 90
       82
 90
        3
 90
       84
 90
       60
 90
       85
 90
        3
 90
       60
 90
       84
 90
       83
 90
        3
 90
       86
 90
       60
 90
       87
 90
        3
 90
       85
 90
       60
 90
       86
 90
        3
 90
       87
 90
       60
 90
       88
 90
        4
 90
       88
 90
       60
 90
       90
 90
       89
 90
        3
 90
       91
 90
       93
 90
       92
 90
        3
 90
       94
 90
       93
 90
       91
 90
        3
 90
       95
 90
       93
 90
       94
 90
        3
 90
       96
 90
       93
 90
       95
 90
        3
 90
       97
 90
       93
 90
       96
 90
        3
 90
       98
 90
       93
 90
       97
 90
        3
 90
       99
 90
       93
 90
       98
 90
        3
 90
      100
 90
       93
 90
       99
 90
        3
 90
      101
 90
       93
 90
      100
 90
        3
 90
      102
 90
       93
 90
      101
 90
        3
 90
      103
 90
       93
 90
      104
 90
        3
 90
      104
 90
       93
 90
      102
 90
        3
 90
      105
 90
      107
 90
      106
 90
        3
 90
      108
 90
      107
 90
      105
 90
        3
 90
      106
 90
      107
 90
      109
 90
        3
 90
      110
 90
      107
 90
      108
 90
        3
 90
      109
 90
      107
 90
      111
 90
        3
 90
      111
 90
      107
 90
      112
 90
        4
 90
      113
 90
      107
 90
       93
 90
      103
 90
        3
 90
      112
 90
      107
 90
      113
 90
        3
 90
      114
 90
      107
 90
      110
 90
        3
 90
      115
 90
      107
 90
      114
 90
        3
 90
      116
 90
      107
 90
      117
 90
        3
 90
      117
 90
      107
 90
      115
 90
        3
 90
      118
 90
      107
 90
      116
 90
        3
 90
      119
 90
      107
 90
      118
 90
        3
 90
      120
 90
      107
 90
      119
 90
        3
 90
      121
 90
      107
 90
      120
 90
        3
 90
      122
 90
      107
 90
      121
 90
        3
 90
      123
 90
      107
 90
      122
 90
        3
 90
      124
 90
      107
 90
      123
 90
        3
 90
      125
 90
      107
 90
      124
 90
        3
 90
      126
 90
      107
 90
      125
 90
        3
 90
      127
 90
      107
 90
      126
 90
        3
 90
      128
 90
      107
 90
      127
 90
        3
 90
      129
 90
      107
 90
      128
 90
        3
 90
      130
 90
       90
 90
      131
 90
        3
 90
      131
 90
       90
 90
      132
 90
        3
 90
      132
 90
       90
 90
      133
 90
        3
 90
      133
 90
       90
 90
      134
 90
        3
 90
      134
 90
       90
 90
      135
 90
        4
 90
      135
 90
       90
 90
      107
 90
      129
 90
        3
 90
      136
 90
       90
 90
      130
 90
        3
 90
      137
 90
       90
 90
      136
 90
        3
 90
      138
 90
       90
 90
      137
 90
        3
 90
      139
 90
       90
 90
      138
 90
        3
 90
       89
 90
       90
 90
      139
 90
        4
 90
      147
 90
       35
 90
       91
 90
       92
 90
        4
 90
       35
 90
      169
 90
       94
 90
       91
 90
        4
 90
      169
 90
      168
 90
       95
 90
       94
 90
        4
 90
      168
 90
      150
 90
       96
 90
       95
 90
        4
 90
      150
 90
       49
 90
       97
 90
       96
 90
        4
 90
       49
 90
       16
 90
       98
 90
       97
 90
        4
 90
       16
 90
      174
 90
       99
 90
       98
 90
        4
 90
      174
 90
       15
 90
      100
 90
       99
 90
        4
 90
       15
 90
       48
 90
      101
 90
      100
 90
        4
 90
       48
 90
      149
 90
      102
 90
      101
 90
        4
 90
      149
 90
      173
 90
      104
 90
      102
 90
        4
 90
      173
 90
      148
 90
      103
 90
      104
 90
        4
 90
      148
 90
      159
 90
      113
 90
      103
 90
        4
 90
      159
 90
      167
 90
      112
 90
      113
 90
        4
 90
      167
 90
      166
 90
      111
 90
      112
 90
        4
 90
      166
 90
       14
 90
      109
 90
      111
 90
        4
 90
       14
 90
       34
 90
      106
 90
      109
 90
        4
 90
       34
 90
       46
 90
      105
 90
      106
 90
        4
 90
       46
 90
      164
 90
      108
 90
      105
 90
        4
 90
      164
 90
      145
 90
      110
 90
      108
 90
        4
 90
      145
 90
      158
 90
      114
 90
      110
 90
        4
 90
      158
 90
       47
 90
      115
 90
      114
 90
        4
 90
       47
 90
      165
 90
      117
 90
      115
 90
        4
 90
      165
 90
      146
 90
      116
 90
      117
 90
        4
 90
      146
 90
       18
 90
      118
 90
      116
 90
        4
 90
       18
 90
      152
 90
      119
 90
      118
 90
        4
 90
      152
 90
       21
 90
      120
 90
      119
 90
        4
 90
       21
 90
      144
 90
      121
 90
      120
 90
        4
 90
      144
 90
       33
 90
      122
 90
      121
 90
        4
 90
       33
 90
       45
 90
      123
 90
      122
 90
        4
 90
       45
 90
       44
 90
      124
 90
      123
 90
        4
 90
       44
 90
       13
 90
      125
 90
      124
 90
        4
 90
       13
 90
      157
 90
      126
 90
      125
 90
        4
 90
      157
 90
       43
 90
      127
 90
      126
 90
        4
 90
       43
 90
       42
 90
      128
 90
      127
 90
        4
 90
       42
 90
      143
 90
      129
 90
      128
 90
        4
 90
      143
 90
      153
 90
      135
 90
      129
 90
        4
 90
      153
 90
       29
 90
      134
 90
      135
 90
        4
 90
       29
 90
      154
 90
      133
 90
      134
 90
        4
 90
      154
 90
       28
 90
      132
 90
      133
 90
        4
 90
       28
 90
       27
 90
      131
 90
      132
 90
        4
 90
       27
 90
       26
 90
      130
 90
      131
 90
        4
 90
       26
 90
       25
 90
      136
 90
      130
 90
        4
 90
       25
 90
       24
 90
      137
 90
      136
 90
        4
 90
       24
 90
       23
 90
      138
 90
      137
 90
        4
 90
       23
 90
       22
 90
      139
 90
      138
 90
        4
 90
       22
 90
       12
 90
       89
 90
      139
 90
        4
 90
       12
 90
       32
 90
       88
 90
       89
 90
        4
 90
       32
 90
      163
 90
       87
 90
       88
 90
        4
 90
      163
 90
       41
 90
       86
 90
       87
 90
        4
 90
       41
 90
       10
 90
       85
 90
       86
 90
        4
 90
       10
 90
      156
 90
       84
 90
       85
 90
        4
 90
      156
 90
       40
 90
       83
 90
       84
 90
        4
 90
       40
 90
      162
 90
       82
 90
       83
 90
        4
 90
      162
 90
        9
 90
       81
 90
       82
 90
        4
 90
        9
 90
      151
 90
       80
 90
       81
 90
        4
 90
      151
 90
       20
 90
       79
 90
       80
 90
        4
 90
       20
 90
       19
 90
       78
 90
       79
 90
        4
 90
       19
 90
      142
 90
       77
 90
       78
 90
        4
 90
      142
 90
       31
 90
       76
 90
       77
 90
        4
 90
       31
 90
       39
 90
       75
 90
       76
 90
        4
 90
       39
 90
       38
 90
       74
 90
       75
 90
        4
 90
       38
 90
        7
 90
       63
 90
       74
 90
        4
 90
        7
 90
       30
 90
       62
 90
       63
 90
        4
 90
       30
 90
       37
 90
       61
 90
       62
 90
        4
 90
       37
 90
      161
 90
       59
 90
       61
 90
        4
 90
      161
 90
      141
 90
       58
 90
       59
 90
        4
 90
      141
 90
      155
 90
       72
 90
       58
 90
        4
 90
      155
 90
      160
 90
       71
 90
       72
 90
        4
 90
      160
 90
       36
 90
       73
 90
       71
 90
        4
 90
       36
 90
      140
 90
       70
 90
       73
 90
        4
 90
      140
 90
      178
 90
       69
 90
       70
 90
        4
 90
      178
 90
        6
 90
       68
 90
       69
 90
        4
 90
        6
 90
      177
 90
       67
 90
       68
 90
        4
 90
      177
 90
        5
 90
       66
 90
       67
 90
        4
 90
        5
 90
      176
 90
       65
 90
       66
 90
        4
 90
      176
 90
        4
 90
       64
 90
       65
 90
        4
 90
        4
 90
      175
 90
       57
 90
       64
 90
        4
 90
      175
 90
        3
 90
       56
 90
       57
 90
        4
 90
        3
 90
      170
 90
       55
 90
       56
 90
        4
 90
      170
 90
      172
 90
       54
 90
       55
 90
        4
 90
      172
 90
      171
 90
       53
 90
       54
 90
        4
 90
      171
 90
        0
 90
       51
 90
       53
 90
        4
 90
        0
 90
        2
 90
       50
 90
       51
 90
        4
 90
        2
 90
        1
 90
       52
 90
       50
 90
        4
 90
        1
 90
        8
 90
       60
 90
       52
 90
        4
 90
        8
 90
      179
 90
       90
 90
       60
 90
        4
 90
      179
 90
       11
 90
      107
 90
       90
 90
        4
 90
       11
 90
       17
 90
       93
 90
      107
 90
        4
 90
       17
 90
      147
 90
       92
 90
       93
 90
        3
 90
        2
 90
        0
 90
        1
 90
        3
 90
        0
 90
      171
 90
        1
 90
        3
 90
      171
 90
      172
 90
        1
 90
        3
 90
      172
 90
      170
 90
        1
 90
        3
 90
      170
 90
        3
 90
        1
 90
        3
 90
        3
 90
      175
 90
        1
 90
        3
 90
      141
 90
      161
 90
        8
 90
        3
 90
      161
 90
       37
 90
        8
 90
        3
 90
       37
 90
       30
 90
        8
 90
        3
 90
       30
 90
        7
 90
        8
 90
        3
 90
      175
 90
        4
 90
        1
 90
        3
 90
        4
 90
      176
 90
        1
 90
        3
 90
      176
 90
        5
 90
        1
 90
        3
 90
        5
 90
      177
 90
        1
 90
        3
 90
      177
 90
        6
 90
        1
 90
        3
 90
        6
 90
      178
 90
        1
 90
        4
 90
      178
 90
      140
 90
        8
 90
        1
 90
        3
 90
      160
 90
      155
 90
        8
 90
        3
 90
      155
 90
      141
 90
        8
 90
        3
 90
      140
 90
       36
 90
        8
 90
        3
 90
       36
 90
      160
 90
        8
 90
        3
 90
        7
 90
       38
 90
        8
 90
        3
 90
       38
 90
       39
 90
        8
 90
        3
 90
       39
 90
       31
 90
        8
 90
        3
 90
       31
 90
      142
 90
        8
 90
        3
 90
      142
 90
       19
 90
        8
 90
        3
 90
       19
 90
       20
 90
        8
 90
        3
 90
      151
 90
        9
 90
        8
 90
        3
 90
        8
 90
       20
 90
      151
 90
        3
 90
      162
 90
       40
 90
        8
 90
        3
 90
        9
 90
      162
 90
        8
 90
        3
 90
      156
 90
       10
 90
        8
 90
        3
 90
        8
 90
       40
 90
      156
 90
        3
 90
       41
 90
      163
 90
        8
 90
        3
 90
       10
 90
       41
 90
        8
 90
        3
 90
      163
 90
       32
 90
        8
 90
        4
 90
       32
 90
       12
 90
      179
 90
        8
 90
        3
 90
       35
 90
      147
 90
       17
 90
        3
 90
      169
 90
       35
 90
       17
 90
        3
 90
      168
 90
      169
 90
       17
 90
        3
 90
      150
 90
      168
 90
       17
 90
        3
 90
       49
 90
      150
 90
       17
 90
        3
 90
       16
 90
       49
 90
       17
 90
        3
 90
      174
 90
       16
 90
       17
 90
        3
 90
       15
 90
      174
 90
       17
 90
        3
 90
       48
 90
       15
 90
       17
 90
        3
 90
      149
 90
       48
 90
       17
 90
        3
 90
      148
 90
      173
 90
       17
 90
        3
 90
      173
 90
      149
 90
       17
 90
        3
 90
       46
 90
       34
 90
       11
 90
        3
 90
      164
 90
       46
 90
       11
 90
        3
 90
       34
 90
       14
 90
       11
 90
        3
 90
      145
 90
      164
 90
       11
 90
        3
 90
       14
 90
      166
 90
       11
 90
        3
 90
      166
 90
      167
 90
       11
 90
        4
 90
      159
 90
      148
 90
       17
 90
       11
 90
        3
 90
      167
 90
      159
 90
       11
 90
        3
 90
      158
 90
      145
 90
       11
 90
        3
 90
       47
 90
      158
 90
       11
 90
        3
 90
      146
 90
      165
 90
       11
 90
        3
 90
      165
 90
       47
 90
       11
 90
        3
 90
       18
 90
      146
 90
       11
 90
        3
 90
      152
 90
       18
 90
       11
 90
        3
 90
       21
 90
      152
 90
       11
 90
        3
 90
      144
 90
       21
 90
       11
 90
        3
 90
       33
 90
      144
 90
       11
 90
        3
 90
       45
 90
       33
 90
       11
 90
        3
 90
       44
 90
       45
 90
       11
 90
        3
 90
       13
 90
       44
 90
       11
 90
        3
 90
      157
 90
       13
 90
       11
 90
        3
 90
       43
 90
      157
 90
       11
 90
        3
 90
       42
 90
       43
 90
       11
 90
        3
 90
      143
 90
       42
 90
       11
 90
        3
 90
       26
 90
       27
 90
      179
 90
        3
 90
       27
 90
       28
 90
      179
 90
        3
 90
       28
 90
      154
 90
      179
 90
        3
 90
      154
 90
       29
 90
      179
 90
        3
 90
       29
 90
      153
 90
      179
 90
        4
 90
      153
 90
      143
 90
       11
 90
      179
 90
        3
 90
       25
 90
       26
 90
      179
 90
        3
 90
       24
 90
       25
 90
      179
 90
        3
 90
       23
 90
       24
 90
      179
 90
        3
 90
       22
 90
       23
 90
      179
 90
        3
 90
       12
 90
       22
 90
      179
 94
      436
 90
       50
 90
       52
 90
       51
 90
       52
 90
       50
 90
       51
 90
       52
 90
       53
 90
       51
 90
       53
 90
       52
 90
       54
 90
       53
 90
       54
 90
       52
 90
       55
 90
       54
 90
       55
 90
       52
 90
       56
 90
       55
 90
       56
 90
       52
 90
       57
 90
       56
 90
       57
 90
       58
 90
       60
 90
       59
 90
       60
 90
       58
 90
       59
 90
       60
 90
       61
 90
       59
 90
       61
 90
       60
 90
       62
 90
       61
 90
       62
 90
       60
 90
       63
 90
       62
 90
       63
 90
       52
 90
       64
 90
       57
 90
       64
 90
       52
 90
       65
 90
       64
 90
       65
 90
       52
 90
       66
 90
       65
 90
       66
 90
       52
 90
       67
 90
       66
 90
       67
 90
       52
 90
       68
 90
       67
 90
       68
 90
       52
 90
       69
 90
       68
 90
       69
 90
       52
 90
       60
 90
       60
 90
       70
 90
       69
 90
       70
 90
       60
 90
       71
 90
       60
 90
       72
 90
       71
 90
       72
 90
       58
 90
       72
 90
       60
 90
       73
 90
       70
 90
       73
 90
       71
 90
       73
 90
       60
 90
       74
 90
       63
 90
       74
 90
       60
 90
       75
 90
       74
 90
       75
 90
       60
 90
       76
 90
       75
 90
       76
 90
       60
 90
       77
 90
       76
 90
       77
 90
       60
 90
       78
 90
       77
 90
       78
 90
       60
 90
       79
 90
       78
 90
       79
 90
       60
 90
       80
 90
       60
 90
       81
 90
       80
 90
       81
 90
       79
 90
       80
 90
       60
 90
       82
 90
       60
 90
       83
 90
       82
 90
       83
 90
       81
 90
       82
 90
       60
 90
       84
 90
       60
 90
       85
 90
       84
 90
       85
 90
       83
 90
       84
 90
       60
 90
       86
 90
       60
 90
       87
 90
       86
 90
       87
 90
       85
 90
       86
 90
       60
 90
       88
 90
       87
 90
       88
 90
       60
 90
       90
 90
       89
 90
       90
 90
       88
 90
       89
 90
       91
 90
       93
 90
       92
 90
       93
 90
       91
 90
       92
 90
       93
 90
       94
 90
       91
 90
       94
 90
       93
 90
       95
 90
       94
 90
       95
 90
       93
 90
       96
 90
       95
 90
       96
 90
       93
 90
       97
 90
       96
 90
       97
 90
       93
 90
       98
 90
       97
 90
       98
 90
       93
 90
       99
 90
       98
 90
       99
 90
       93
 90
      100
 90
       99
 90
      100
 90
       93
 90
      101
 90
      100
 90
      101
 90
       93
 90
      102
 90
      101
 90
      102
 90
       93
 90
      103
 90
       93
 90
      104
 90
      103
 90
      104
 90
      102
 90
      104
 90
      105
 90
      107
 90
      106
 90
      107
 90
      105
 90
      106
 90
      107
 90
      108
 90
      105
 90
      108
 90
      107
 90
      109
 90
      106
 90
      109
 90
      107
 90
      110
 90
      108
 90
      110
 90
      107
 90
      111
 90
      109
 90
      111
 90
      107
 90
      112
 90
      111
 90
      112
 90
      107
 90
      113
 90
       93
 90
      107
 90
      103
 90
      113
 90
      112
 90
      113
 90
      107
 90
      114
 90
      110
 90
      114
 90
      107
 90
      115
 90
      114
 90
      115
 90
      107
 90
      116
 90
      107
 90
      117
 90
      116
 90
      117
 90
      115
 90
      117
 90
      107
 90
      118
 90
      116
 90
      118
 90
      107
 90
      119
 90
      118
 90
      119
 90
      107
 90
      120
 90
      119
 90
      120
 90
      107
 90
      121
 90
      120
 90
      121
 90
      107
 90
      122
 90
      121
 90
      122
 90
      107
 90
      123
 90
      122
 90
      123
 90
      107
 90
      124
 90
      123
 90
      124
 90
      107
 90
      125
 90
      124
 90
      125
 90
      107
 90
      126
 90
      125
 90
      126
 90
      107
 90
      127
 90
      126
 90
      127
 90
      107
 90
      128
 90
      127
 90
      128
 90
      107
 90
      129
 90
      128
 90
      129
 90
       90
 90
      130
 90
       90
 90
      131
 90
      130
 90
      131
 90
       90
 90
      132
 90
      131
 90
      132
 90
       90
 90
      133
 90
      132
 90
      133
 90
       90
 90
      134
 90
      133
 90
      134
 90
       90
 90
      135
 90
      134
 90
      135
 90
       90
 90
      107
 90
      129
 90
      135
 90
       90
 90
      136
 90
      130
 90
      136
 90
       90
 90
      137
 90
      136
 90
      137
 90
       90
 90
      138
 90
      137
 90
      138
 90
       90
 90
      139
 90
      138
 90
      139
 90
       89
 90
      139
 90
       35
 90
      147
 90
       35
 90
       91
 90
       92
 90
      147
 90
       35
 90
      169
 90
       94
 90
      169
 90
      168
 90
      169
 90
       95
 90
      168
 90
      150
 90
      168
 90
       96
 90
      150
 90
       49
 90
      150
 90
       49
 90
       97
 90
       16
 90
       49
 90
       16
 90
       98
 90
       16
 90
      174
 90
       99
 90
      174
 90
       15
 90
      174
 90
       15
 90
      100
 90
       15
 90
       48
 90
       48
 90
      101
 90
       48
 90
      149
 90
      102
 90
      149
 90
      149
 90
      173
 90
      104
 90
      173
 90
      148
 90
      173
 90
      103
 90
      148
 90
      148
 90
      159
 90
      113
 90
      159
 90
      159
 90
      167
 90
      112
 90
      167
 90
      166
 90
      167
 90
      111
 90
      166
 90
       14
 90
      166
 90
       14
 90
      109
 90
       14
 90
       34
 90
       34
 90
      106
 90
       34
 90
       46
 90
       46
 90
      105
 90
       46
 90
      164
 90
      108
 90
      164
 90
      145
 90
      164
 90
      110
 90
      145
 90
      145
 90
      158
 90
      114
 90
      158
 90
       47
 90
      158
 90
       47
 90
      115
 90
       47
 90
      165
 90
      117
 90
      165
 90
      146
 90
      165
 90
      116
 90
      146
 90
       18
 90
      146
 90
       18
 90
      118
 90
       18
 90
      152
 90
      119
 90
      152
 90
       21
 90
      152
 90
       21
 90
      120
 90
       21
 90
      144
 90
      121
 90
      144
 90
       33
 90
      144
 90
       33
 90
      122
 90
       33
 90
       45
 90
       45
 90
      123
 90
       44
 90
       45
 90
       44
 90
      124
 90
       13
 90
       44
 90
       13
 90
      125
 90
       13
 90
      157
 90
      126
 90
      157
 90
       43
 90
      157
 90
       43
 90
      127
 90
       42
 90
       43
 90
       42
 90
      128
 90
       42
 90
      143
 90
      129
 90
      143
 90
      143
 90
      153
 90
      135
 90
      153
 90
       29
 90
      153
 90
       29
 90
      134
 90
       29
 90
      154
 90
      133
 90
      154
 90
       28
 90
      154
 90
       28
 90
      132
 90
       27
 90
       28
 90
       27
 90
      131
 90
       26
 90
       27
 90
       26
 90
      130
 90
       25
 90
       26
 90
       25
 90
      136
 90
       24
 90
       25
 90
       24
 90
      137
 90
       23
 90
       24
 90
       23
 90
      138
 90
       22
 90
       23
 90
       22
 90
      139
 90
       12
 90
       22
 90
       12
 90
       89
 90
       12
 90
       32
 90
       32
 90
       88
 90
       32
 90
      163
 90
       87
 90
      163
 90
       41
 90
      163
 90
       41
 90
       86
 90
       10
 90
       41
 90
       10
 90
       85
 90
       10
 90
      156
 90
       84
 90
      156
 90
       40
 90
      156
 90
       40
 90
       83
 90
       40
 90
      162
 90
       82
 90
      162
 90
        9
 90
      162
 90
        9
 90
       81
 90
        9
 90
      151
 90
       80
 90
      151
 90
       20
 90
      151
 90
       20
 90
       79
 90
       19
 90
       20
 90
       19
 90
       78
 90
       19
 90
      142
 90
       77
 90
      142
 90
       31
 90
      142
 90
       31
 90
       76
 90
       31
 90
       39
 90
       39
 90
       75
 90
       38
 90
       39
 90
       38
 90
       74
 90
        7
 90
       38
 90
        7
 90
       63
 90
        7
 90
       30
 90
       30
 90
       62
 90
       30
 90
       37
 90
       37
 90
       61
 90
       37
 90
      161
 90
       59
 90
      161
 90
      141
 90
      161
 90
       58
 90
      141
 90
      141
 90
      155
 90
       72
 90
      155
 90
      155
 90
      160
 90
       71
 90
      160
 90
       36
 90
      160
 90
       36
 90
       73
 90
       36
 90
      140
 90
       70
 90
      140
 90
      140
 90
      178
 90
       69
 90
      178
 90
        6
 90
      178
 90
        6
 90
       68
 90
        6
 90
      177
 90
       67
 90
      177
 90
        5
 90
      177
 90
        5
 90
       66
 90
        5
 90
      176
 90
       65
 90
      176
 90
        4
 90
      176
 90
        4
 90
       64
 90
        4
 90
      175
 90
       57
 90
      175
 90
        3
 90
      175
 90
        3
 90
       56
 90
        3
 90
      170
 90
       55
 90
      170
 90
      170
 90
      172
 90
       54
 90
      172
 90
      171
 90
      172
 90
       53
 90
      171
 90
        0
 90
      171
 90
        0
 90
       51
 90
        0
 90
        2
 90
        2
 90
       50
 90
        1
 90
        2
 90
        1
 90
       52
 90
        1
 90
        8
 90
        8
 90
       60
 90
        8
 90
      179
 90
       90
 90
      179
 90
       11
 90
      179
 90
       11
 90
      107
 90
       11
 90
       17
 90
       17
 90
       93
 90
       17
 90
      147
 90
        0
 90
        1
 90
        1
 90
      171
 90
        1
 90
      172
 90
        1
 90
      170
 90
        1
 90
        3
 90
        1
 90
      175
 90
        8
 90
      161
 90
        8
 90
      141
 90
        8
 90
       37
 90
        8
 90
       30
 90
        7
 90
        8
 90
        1
 90
        4
 90
        1
 90
      176
 90
        1
 90
        5
 90
        1
 90
      177
 90
        1
 90
        6
 90
        1
 90
      178
 90
        8
 90
      140
 90
        8
 90
      155
 90
        8
 90
      160
 90
        8
 90
       36
 90
        8
 90
       38
 90
        8
 90
       39
 90
        8
 90
       31
 90
        8
 90
      142
 90
        8
 90
       19
 90
        8
 90
       20
 90
        8
 90
        9
 90
        8
 90
      151
 90
        8
 90
       40
 90
        8
 90
      162
 90
        8
 90
       10
 90
        8
 90
      156
 90
        8
 90
      163
 90
        8
 90
       41
 90
        8
 90
       32
 90
       12
 90
      179
 90
       17
 90
       35
 90
       17
 90
      169
 90
       17
 90
      168
 90
       17
 90
      150
 90
       17
 90
       49
 90
       16
 90
       17
 90
       17
 90
      174
 90
       15
 90
       17
 90
       17
 90
       48
 90
       17
 90
      149
 90
       17
 90
      173
 90
       17
 90
      148
 90
       11
 90
       34
 90
       11
 90
       46
 90
       11
 90
      164
 90
       11
 90
       14
 90
       11
 90
      145
 90
       11
 90
      166
 90
       11
 90
      167
 90
       11
 90
      159
 90
       11
 90
      158
 90
       11
 90
       47
 90
       11
 90
      165
 90
       11
 90
      146
 90
       11
 90
       18
 90
       11
 90
      152
 90
       11
 90
       21
 90
       11
 90
      144
 90
       11
 90
       33
 90
       11
 90
       45
 90
       11
 90
       44
 90
       11
 90
       13
 90
       11
 90
      157
 90
       11
 90
       43
 90
       11
 90
       42
 90
       11
 90
      143
 90
       27
 90
      179
 90
       26
 90
      179
 90
       28
 90
      179
 90
      154
 90
      179
 90
       29
 90
      179
 90
      153
 90
      179
 90
       25
 90
      179
 90
       24
 90
      179
 90
       23
 90
      179
 90
       22
 90
      179
 95
      436
140
0.0
140
0.0
140
0.0
140
0.0
140
0.0
140
0.0
140
0.0
140
0.0
140
0.0
140
0.0
140
0.0
140
0.0
140
0.0
140
0.0
140
0.0
140
0.0
140
0.0
140
0.0
140
0.0
140
0.0
140
0.0
140
0.0
140
0.0
140
0.0
140
0.0
140
0.0
140
0.0
140
0.0
140
0.0
140
0.0
140
0.0
140
0.0
140
0.0
140
0.0
140
0.0
140
0.0
140
0.0
140
0.0
140
0.0
140
0.0
140
0.0
140
0.0
140
0.0
140
0.0
140
0.0
140
0.0
140
0.0
140
0.0
140
0.0
140
0.0
140
0.0
140
0.0
140
0.0
140
0.0
140
0.0
140
0.0
140
0.0
140
0.0
140
0.0
140
0.0
140
0.0
140
0.0
140
0.0
140
0.0
140
0.0
140
0.0
140
0.0
140
0.0
140
0.0
140
0.0
140
0.0
140
0.0
140
0.0
140
0.0
140
0.0
140
0.0
140
0.0
140
0.0
140
0.0
140
0.0
140
0.0
140
0.0
140
0.0
140
0.0
140
0.0
140
0.0
140
0.0
140
0.0
140
0.0
140
0.0
140
0.0
140
0.0
140
0.0
140
0.0
140
0.0
140
0.0
140
0.0
140
0.0
140
0.0
140
0.0
140
0.0
140
0.0
140
0.0
140
0.0
140
0.0
140
0.0
140
0.0
140
0.0
140
0.0
140
0.0
140
0.0
140
0.0
140
0.0
140
0.0
140
0.0
140
0.0
140
0.0
140
0.0
140
0.0
140
0.0
140
0.0
140
0.0
140
0.0
140
0.0
140
0.0
140
0.0
140
0.0
140
0.0
140
0.0
140
0.0
140
0.0
140
0.0
140
0.0
140
0.0
140
0.0
140
0.0
140
0.0
140
0.0
140
0.0
140
0.0
140
0.0
140
0.0
140
0.0
140
0.0
140
0.0
140
0.0
140
0.0
140
0.0
140
0.0
140
0.0
140
0.0
140
0.0
140
0.0
140
0.0
140
0.0
140
0.0
140
0.0
140
0.0
140
0.0
140
0.0
140
0.0
140
0.0
140
0.0
140
0.0
140
0.0
140
0.0
140
0.0
140
0.0
140
0.0
140
0.0
140
0.0
140
0.0
140
0.0
140
0.0
140
0.0
140
0.0
140
0.0
140
0.0
140
0.0
140
0.0
140
0.0
140
0.0
140
0.0
140
0.0
140
0.0
140
0.0
140
0.0
140
0.0
140
0.0
140
0.0
140
0.0
140
0.0
140
0.0
140
0.0
140
0.0
140
0.0
140
0.0
140
0.0
140
0.0
140
0.0
140
0.0
140
0.0
140
0.0
140
0.0
140
0.0
140
0.0
140
0.0
140
0.0
140
0.0
140
0.0
140
0.0
140
0.0
140
0.0
140
0.0
140
0.0
140
0.0
140
0.0
140
0.0
140
0.0
140
0.0
140
0.0
140
0.0
140
0.0
140
0.0
140
0.0
140
0.0
140
0.0
140
0.0
140
0.0
140
0.0
140
0.0
140
0.0
140
0.0
140
0.0
140
0.0
140
0.0
140
0.0
140
0.0
140
0.0
140
0.0
140
0.0
140
0.0
140
0.0
140
0.0
140
0.0
140
0.0
140
0.0
140
0.0
140
0.0
140
0.0
140
0.0
140
0.0
140
0.0
140
0.0
140
0.0
140
0.0
140
0.0
140
0.0
140
0.0
140
0.0
140
0.0
140
0.0
140
0.0
140
0.0
140
0.0
140
0.0
140
0.0
140
0.0
140
0.0
140
0.0
140
0.0
140
0.0
140
0.0
140
0.0
140
0.0
140
0.0
140
0.0
140
0.0
140
0.0
140
0.0
140
0.0
140
0.0
140
0.0
140
0.0
140
0.0
140
0.0
140
0.0
140
0.0
140
0.0
140
0.0
140
0.0
140
0.0
140
0.0
140
0.0
140
0.0
140
0.0
140
0.0
140
0.0
140
0.0
140
0.0
140
0.0
140
0.0
140
0.0
140
0.0
140
0.0
140
0.0
140
0.0
140
0.0
140
0.0
140
0.0
140
0.0
140
0.0
140
0.0
140
0.0
140
0.0
140
0.0
140
0.0
140
0.0
140
0.0
140
0.0
140
0.0
140
0.0
140
0.0
140
0.0
140
0.0
140
0.0
140
0.0
140
0.0
140
0.0
140
0.0
140
0.0
140
0.0
140
0.0
140
0.0
140
0.0
140
0.0
140
0.0
140
0.0
140
0.0
140
0.0
140
0.0
140
0.0
140
0.0
140
0.0
140
0.0
140
0.0
140
0.0
140
0.0
140
0.0
140
0.0
140
0.0
140
0.0
140
0.0
140
0.0
140
0.0
140
0.0
140
0.0
140
0.0
140
0.0
140
0.0
140
0.0
140
0.0
140
0.0
140
0.0
140
0.0
140
0.0
140
0.0
140
0.0
140
0.0
140
0.0
140
0.0
140
0.0
140
0.0
140
0.0
140
0.0
140
0.0
140
0.0
140
0.0
140
0.0
140
0.0
140
0.0
140
0.0
140
0.0
140
0.0
140
0.0
140
0.0
140
0.0
140
0.0
140
0.0
140
0.0
140
0.0
140
0.0
140
0.0
140
0.0
140
0.0
140
0.0
140
0.0
140
0.0
140
0.0
140
0.0
140
0.0
140
0.0
140
0.0
140
0.0
140
0.0
140
0.0
140
0.0
140
0.0
140
0.0
140
0.0
140
0.0
140
0.0
140
0.0
140
0.0
140
0.0
140
0.0
140
0.0
140
0.0
140
0.0
140
0.0
140
0.0
140
0.0
140
0.0
140
0.0
140
0.0
140
0.0
140
0.0
140
0.0
140
0.0
140
0.0
140
0.0
140
0.0
140
0.0
140
0.0
140
0.0
140
0.0
 90
        0
  0
POLYLINE
  5
FA
330
1F
100
AcDbEntity
  8
OracDecor_panel_moldings
 62
   153
420
  5804257
100
AcDb3dPolyline
 66
     1
 10
0.0
 20
0.0
 30
0.0
 70
     9
  0
VERTEX
  5
FB
330
FA
100
AcDbEntity
  8
OracDecor_panel_moldings
 62
   153
420
  5804257
100
AcDbVertex
100
AcDb3dPolylineVertex
 10
0.0000038146972656
 20
0.0000095367431641
 30
0.0000152587890625
 70
    32
  0
VERTEX
  5
FC
330
FA
100
AcDbEntity
  8
OracDecor_panel_moldings
 62
   153
420
  5804257
100
AcDbVertex
100
AcDb3dPolylineVertex
 10
0.0000038146972656
 20
0.0000095367431641
 30
14.81251716613769
 70
    32
  0
VERTEX
  5
FD
330
FA
100
AcDbEntity
  8
OracDecor_panel_moldings
 62
   153
420
  5804257
100
AcDbVertex
100
AcDb3dPolylineVertex
 10
-0.0000038146972656
 20
7.757587432861328
 30
14.81251716613769
 70
    32
  0
VERTEX
  5
FE
330
FA
100
AcDbEntity
  8
OracDecor_panel_moldings
 62
   153
420
  5804257
100
AcDbVertex
100
AcDb3dPolylineVertex
 10
0.0000038146970383
 20
7.757586479187011
 30
39.50001907348633
 70
    32
  0
VERTEX
  5
FF
330
FA
100
AcDbEntity
  8
OracDecor_panel_moldings
 62
   153
420
  5804257
100
AcDbVertex
100
AcDb3dPolylineVertex
 10
0.0000038146968109
 20
7.757587432861328
 30
64.18751525878906
 70
    32
  0
VERTEX
  5
100
330
FA
100
AcDbEntity
  8
OracDecor_panel_moldings
 62
   153
420
  5804257
100
AcDbVertex
100
AcDb3dPolylineVertex
 10
0.0000038146972656
 20
0.0000095367440736
 30
64.18751525878906
 70
    32
  0
VERTEX
  5
101
330
FA
100
AcDbEntity
  8
OracDecor_panel_moldings
 62
   153
420
  5804257
100
AcDbVertex
100
AcDb3dPolylineVertex
 10
0.0000038146970383
 20
0.0000095367440736
 30
79.00001525878906
 70
    32
  0
VERTEX
  5
102
330
FA
100
AcDbEntity
  8
OracDecor_panel_moldings
 62
   153
420
  5804257
100
AcDbVertex
100
AcDb3dPolylineVertex
 10
0.0000038146972656
 20
5.318686962127685
 30
78.76353454589843
 70
    32
  0
VERTEX
  5
103
330
FA
100
AcDbEntity
  8
OracDecor_panel_moldings
 62
   153
420
  5804257
100
AcDbVertex
100
AcDb3dPolylineVertex
 10
0.0000038146972656
 20
5.596190452575683
 30
78.69563293457031
 70
    32
  0
VERTEX
  5
104
330
FA
100
AcDbEntity
  8
OracDecor_panel_moldings
 62
   153
420
  5804257
100
AcDbVertex
100
AcDb3dPolylineVertex
 10
0.0000038146972656
 20
5.762692928314208
 30
78.52157592773437
 70
    32
  0
VERTEX
  5
105
330
FA
100
AcDbEntity
  8
OracDecor_panel_moldings
 62
   153
420
  5804257
100
AcDbVertex
100
AcDb3dPolylineVertex
 10
0.0000038146972656
 20
5.818193435668945
 30
78.24131774902344
 70
    32
  0
VERTEX
  5
106
330
FA
100
AcDbEntity
  8
OracDecor_panel_moldings
 62
   153
420
  5804257
100
AcDbVertex
100
AcDb3dPolylineVertex
 10
0.0000038146972656
 20
5.980331420898437
 30
77.12481689453125
 70
    32
  0
VERTEX
  5
107
330
FA
100
AcDbEntity
  8
OracDecor_panel_moldings
 62
   153
420
  5804257
100
AcDbVertex
100
AcDb3dPolylineVertex
 10
0.0000038146972656
 20
6.171431064605712
 30
76.56697082519531
 70
    32
  0
VERTEX
  5
108
330
FA
100
AcDbEntity
  8
OracDecor_panel_moldings
 62
   153
420
  5804257
100
AcDbVertex
100
AcDb3dPolylineVertex
 10
0.0000038146972656
 20
6.465736865997314
 30
76.04798889160156
 70
    32
  0
VERTEX
  5
109
330
FA
100
AcDbEntity
  8
OracDecor_panel_moldings
 62
   153
420
  5804257
100
AcDbVertex
100
AcDb3dPolylineVertex
 10
0.0000038146972656
 20
6.841775894165039
 30
75.59211730957031
 70
    32
  0
VERTEX
  5
10A
330
FA
100
AcDbEntity
  8
OracDecor_panel_moldings
 62
   153
420
  5804257
100
AcDbVertex
100
AcDb3dPolylineVertex
 10
0.0000038146972656
 20
7.289777755737304
 30
75.20921325683594
 70
    32
  0
VERTEX
  5
10B
330
FA
100
AcDbEntity
  8
OracDecor_panel_moldings
 62
   153
420
  5804257
100
AcDbVertex
100
AcDb3dPolylineVertex
 10
0.0000038146977204
 20
7.799116611480712
 30
74.91000366210937
 70
    32
  0
VERTEX
  5
10C
330
FA
100
AcDbEntity
  8
OracDecor_panel_moldings
 62
   153
420
  5804257
100
AcDbVertex
100
AcDb3dPolylineVertex
 10
0.0000038146972656
 20
8.346449851989746
 30
74.70706176757812
 70
    32
  0
VERTEX
  5
10D
330
FA
100
AcDbEntity
  8
OracDecor_panel_moldings
 62
   153
420
  5804257
100
AcDbVertex
100
AcDb3dPolylineVertex
 10
0.0000038146972656
 20
8.923013687133789
 30
74.54974365234375
 70
    32
  0
VERTEX
  5
10E
330
FA
100
AcDbEntity
  8
OracDecor_panel_moldings
 62
   153
420
  5804257
100
AcDbVertex
100
AcDb3dPolylineVertex
 10
0.0000038146977204
 20
11.14424514770508
 30
74.15087890625
 70
    32
  0
VERTEX
  5
10F
330
FA
100
AcDbEntity
  8
OracDecor_panel_moldings
 62
   153
420
  5804257
100
AcDbVertex
100
AcDb3dPolylineVertex
 10
0.0000038146972656
 20
11.41765022277832
 30
74.04623413085937
 70
    32
  0
VERTEX
  5
110
330
FA
100
AcDbEntity
  8
OracDecor_panel_moldings
 62
   153
420
  5804257
100
AcDbVertex
100
AcDb3dPolylineVertex
 10
0.0000038146972656
 20
11.58169364929199
 30
73.85011291503906
 70
    32
  0
VERTEX
  5
111
330
FA
100
AcDbEntity
  8
OracDecor_panel_moldings
 62
   153
420
  5804257
100
AcDbVertex
100
AcDb3dPolylineVertex
 10
0.0000038146968109
 20
11.63637447357178
 30
73.56251525878906
 70
    32
  0
VERTEX
  5
112
330
FA
100
AcDbEntity
  8
OracDecor_panel_moldings
 62
   153
420
  5804257
100
AcDbVertex
100
AcDb3dPolylineVertex
 10
0.0000038146972656
 20
11.63637542724609
 30
71.60002136230469
 70
    32
  0
VERTEX
  5
113
330
FA
100
AcDbEntity
  8
OracDecor_panel_moldings
 62
   153
420
  5804257
100
AcDbVertex
100
AcDb3dPolylineVertex
 10
0.0000038146972656
 20
11.69193077087402
 30
71.32223510742187
 70
    32
  0
VERTEX
  5
114
330
FA
100
AcDbEntity
  8
OracDecor_panel_moldings
 62
   153
420
  5804257
100
AcDbVertex
100
AcDb3dPolylineVertex
 10
0.0000038146972656
 20
11.85859775543213
 30
71.15557861328125
 70
    32
  0
VERTEX
  5
115
330
FA
100
AcDbEntity
  8
OracDecor_panel_moldings
 62
   153
420
  5804257
100
AcDbVertex
100
AcDb3dPolylineVertex
 10
0.0000038146972656
 20
12.13637542724609
 30
71.10002136230469
 70
    32
  0
VERTEX
  5
116
330
FA
100
AcDbEntity
  8
OracDecor_panel_moldings
 62
   153
420
  5804257
100
AcDbVertex
100
AcDb3dPolylineVertex
 10
0.0000038146972656
 20
14.04546737670898
 30
71.10002136230469
 70
    32
  0
VERTEX
  5
117
330
FA
100
AcDbEntity
  8
OracDecor_panel_moldings
 62
   153
420
  5804257
100
AcDbVertex
100
AcDb3dPolylineVertex
 10
0.0000038146972656
 20
14.33260345458984
 30
71.04525756835937
 70
    32
  0
VERTEX
  5
118
330
FA
100
AcDbEntity
  8
OracDecor_panel_moldings
 62
   153
420
  5804257
100
AcDbVertex
100
AcDb3dPolylineVertex
 10
0.0000038146970383
 20
14.52734375
 30
70.88096618652343
 70
    32
  0
VERTEX
  5
119
330
FA
100
AcDbEntity
  8
OracDecor_panel_moldings
 62
   153
420
  5804257
100
AcDbVertex
100
AcDb3dPolylineVertex
 10
0.0000038146972656
 20
14.62969017028808
 30
70.60716247558594
 70
    32
  0
VERTEX
  5
11A
330
FA
100
AcDbEntity
  8
OracDecor_panel_moldings
 62
   153
420
  5804257
100
AcDbVertex
100
AcDb3dPolylineVertex
 10
0.0000038146970383
 20
14.91935157775879
 30
68.912109375
 70
    32
  0
VERTEX
  5
11B
330
FA
100
AcDbEntity
  8
OracDecor_panel_moldings
 62
   153
420
  5804257
100
AcDbVertex
100
AcDb3dPolylineVertex
 10
0.0000038146970383
 20
15.34367942810058
 30
66.11326599121094
 70
    32
  0
VERTEX
  5
11C
330
FA
100
AcDbEntity
  8
OracDecor_panel_moldings
 62
   153
420
  5804257
100
AcDbVertex
100
AcDb3dPolylineVertex
 10
0.0000038146972656
 20
15.66214752197265
 30
63.30242919921875
 70
    32
  0
VERTEX
  5
11D
330
FA
100
AcDbEntity
  8
OracDecor_panel_moldings
 62
   153
420
  5804257
100
AcDbVertex
100
AcDb3dPolylineVertex
 10
0.0000038146972656
 20
15.87475204467773
 30
60.47959518432617
 70
    32
  0
VERTEX
  5
11E
330
FA
100
AcDbEntity
  8
OracDecor_panel_moldings
 62
   153
420
  5804257
100
AcDbVertex
100
AcDb3dPolylineVertex
 10
0.0000038146972656
 20
15.97183227539062
 30
58.75969314575195
 70
    32
  0
VERTEX
  5
11F
330
FA
100
AcDbEntity
  8
OracDecor_panel_moldings
 62
   153
420
  5804257
100
AcDbVertex
100
AcDb3dPolylineVertex
 10
0.0000038146972656
 20
15.93200874328613
 30
58.47939682006836
 70
    32
  0
VERTEX
  5
120
330
FA
100
AcDbEntity
  8
OracDecor_panel_moldings
 62
   153
420
  5804257
100
AcDbVertex
100
AcDb3dPolylineVertex
 10
0.0000038146972656
 20
15.77497100830078
 30
58.30411529541016
 70
    32
  0
VERTEX
  5
121
330
FA
100
AcDbEntity
  8
OracDecor_panel_moldings
 62
   153
420
  5804257
100
AcDbVertex
100
AcDb3dPolylineVertex
 10
0.0000038146972656
 20
15.50071907043457
 30
58.23384475708007
 70
    32
  0
VERTEX
  5
122
330
FA
100
AcDbEntity
  8
OracDecor_panel_moldings
 62
   153
420
  5804257
100
AcDbVertex
100
AcDb3dPolylineVertex
 10
0.0000038146970383
 20
15.05705261230469
 30
58.21016311645507
 70
    32
  0
VERTEX
  5
123
330
FA
100
AcDbEntity
  8
OracDecor_panel_moldings
 62
   153
420
  5804257
100
AcDbVertex
100
AcDb3dPolylineVertex
 10
0.0000038146972656
 20
14.78394508361816
 30
58.13997268676757
 70
    32
  0
VERTEX
  5
124
330
FA
100
AcDbEntity
  8
OracDecor_panel_moldings
 62
   153
420
  5804257
100
AcDbVertex
100
AcDb3dPolylineVertex
 10
0.0000038146970383
 20
14.63034248352051
 30
57.96491622924804
 70
    32
  0
VERTEX
  5
125
330
FA
100
AcDbEntity
  8
OracDecor_panel_moldings
 62
   153
420
  5804257
100
AcDbVertex
100
AcDb3dPolylineVertex
 10
0.0000038146972656
 20
14.5962438583374
 30
57.68500137329102
 70
    32
  0
VERTEX
  5
126
330
FA
100
AcDbEntity
  8
OracDecor_panel_moldings
 62
   153
420
  5804257
100
AcDbVertex
100
AcDb3dPolylineVertex
 10
0.0000038146972656
 20
14.76856899261474
 30
55.45256423950196
 70
    32
  0
VERTEX
  5
127
330
FA
100
AcDbEntity
  8
OracDecor_panel_moldings
 62
   153
420
  5804257
100
AcDbVertex
100
AcDb3dPolylineVertex
 10
0.0000038146972656
 20
14.9902229309082
 30
52.26205062866211
 70
    32
  0
VERTEX
  5
128
330
FA
100
AcDbEntity
  8
OracDecor_panel_moldings
 62
   153
420
  5804257
100
AcDbVertex
100
AcDb3dPolylineVertex
 10
0.0000038146972656
 20
15.16261959075928
 30
49.0715446472168
 70
    32
  0
VERTEX
  5
129
330
FA
100
AcDbEntity
  8
OracDecor_panel_moldings
 62
   153
420
  5804257
100
AcDbVertex
100
AcDb3dPolylineVertex
 10
-0.0000038146972656
 20
15.28575897216797
 30
45.88103485107422
 70
    32
  0
VERTEX
  5
12A
330
FA
100
AcDbEntity
  8
OracDecor_panel_moldings
 62
   153
420
  5804257
100
AcDbVertex
100
AcDb3dPolylineVertex
 10
-0.0000038146972656
 20
15.35964012145996
 30
42.6905288696289
 70
    32
  0
VERTEX
  5
12B
330
FA
100
AcDbEntity
  8
OracDecor_panel_moldings
 62
   153
420
  5804257
100
AcDbVertex
100
AcDb3dPolylineVertex
 10
-0.0000038146970383
 20
15.38426971435547
 30
39.50001907348633
 70
    32
  0
VERTEX
  5
12C
330
FA
100
AcDbEntity
  8
OracDecor_panel_moldings
 62
   153
420
  5804257
100
AcDbVertex
100
AcDb3dPolylineVertex
 10
-0.0000038146968109
 20
15.35964012145996
 30
36.30950927734375
 70
    32
  0
VERTEX
  5
12D
330
FA
100
AcDbEntity
  8
OracDecor_panel_moldings
 62
   153
420
  5804257
100
AcDbVertex
100
AcDb3dPolylineVertex
 10
-0.0000038146972656
 20
15.28575611114502
 30
33.11899948120117
 70
    32
  0
VERTEX
  5
12E
330
FA
100
AcDbEntity
  8
OracDecor_panel_moldings
 62
   153
420
  5804257
100
AcDbVertex
100
AcDb3dPolylineVertex
 10
-0.0000038146970383
 20
15.16261863708496
 30
29.92848968505859
 70
    32
  0
VERTEX
  5
12F
330
FA
100
AcDbEntity
  8
OracDecor_panel_moldings
 62
   153
420
  5804257
100
AcDbVertex
100
AcDb3dPolylineVertex
 10
-0.0000038146972656
 20
14.99022388458252
 30
26.73798370361328
 70
    32
  0
VERTEX
  5
130
330
FA
100
AcDbEntity
  8
OracDecor_panel_moldings
 62
   153
420
  5804257
100
AcDbVertex
100
AcDb3dPolylineVertex
 10
-0.0000038146968109
 20
14.76857185363769
 30
23.5474739074707
 70
    32
  0
VERTEX
  5
131
330
FA
100
AcDbEntity
  8
OracDecor_panel_moldings
 62
   153
420
  5804257
100
AcDbVertex
100
AcDb3dPolylineVertex
 10
-0.0000038146972656
 20
14.59624671936035
 30
21.31503295898438
 70
    32
  0
VERTEX
  5
132
330
FA
100
AcDbEntity
  8
OracDecor_panel_moldings
 62
   153
420
  5804257
100
AcDbVertex
100
AcDb3dPolylineVertex
 10
-0.0000038146972656
 20
14.63034439086914
 30
21.03512001037598
 70
    32
  0
VERTEX
  5
133
330
FA
100
AcDbEntity
  8
OracDecor_panel_moldings
 62
   153
420
  5804257
100
AcDbVertex
100
AcDb3dPolylineVertex
 10
-0.0000038146970383
 20
14.7839469909668
 30
20.86006355285645
 70
    32
  0
VERTEX
  5
134
330
FA
100
AcDbEntity
  8
OracDecor_panel_moldings
 62
   153
420
  5804257
100
AcDbVertex
100
AcDb3dPolylineVertex
 10
-0.0000038146972656
 20
15.05705451965332
 30
20.78986930847168
 70
    32
  0
VERTEX
  5
135
330
FA
100
AcDbEntity
  8
OracDecor_panel_moldings
 62
   153
420
  5804257
100
AcDbVertex
100
AcDb3dPolylineVertex
 10
-0.0000038146972656
 20
15.50071907043457
 30
20.76619148254394
 70
    32
  0
VERTEX
  5
136
330
FA
100
AcDbEntity
  8
OracDecor_panel_moldings
 62
   153
420
  5804257
100
AcDbVertex
100
AcDb3dPolylineVertex
 10
-0.0000038146972656
 20
15.77497100830078
 30
20.69591903686523
 70
    32
  0
VERTEX
  5
137
330
FA
100
AcDbEntity
  8
OracDecor_panel_moldings
 62
   153
420
  5804257
100
AcDbVertex
100
AcDb3dPolylineVertex
 10
-0.0000038146972656
 20
15.93200874328613
 30
20.5206356048584
 70
    32
  0
VERTEX
  5
138
330
FA
100
AcDbEntity
  8
OracDecor_panel_moldings
 62
   153
420
  5804257
100
AcDbVertex
100
AcDb3dPolylineVertex
 10
-0.0000038146970383
 20
15.97183227539062
 30
20.2403392791748
 70
    32
  0
VERTEX
  5
139
330
FA
100
AcDbEntity
  8
OracDecor_panel_moldings
 62
   153
420
  5804257
100
AcDbVertex
100
AcDb3dPolylineVertex
 10
-0.0000038146972656
 20
15.87475204467773
 30
18.52043914794922
 70
    32
  0
VERTEX
  5
13A
330
FA
100
AcDbEntity
  8
OracDecor_panel_moldings
 62
   153
420
  5804257
100
AcDbVertex
100
AcDb3dPolylineVertex
 10
-0.0000038146972656
 20
15.66214752197265
 30
15.69760513305664
 70
    32
  0
VERTEX
  5
13B
330
FA
100
AcDbEntity
  8
OracDecor_panel_moldings
 62
   153
420
  5804257
100
AcDbVertex
100
AcDb3dPolylineVertex
 10
-0.0000038146968109
 20
15.34367942810058
 30
12.88676834106445
 70
    32
  0
VERTEX
  5
13C
330
FA
100
AcDbEntity
  8
OracDecor_panel_moldings
 62
   153
420
  5804257
100
AcDbVertex
100
AcDb3dPolylineVertex
 10
-0.0000038146972656
 20
14.91935062408447
 30
10.08792114257812
 70
    32
  0
VERTEX
  5
13D
330
FA
100
AcDbEntity
  8
OracDecor_panel_moldings
 62
   153
420
  5804257
100
AcDbVertex
100
AcDb3dPolylineVertex
 10
-0.0000038146972656
 20
14.62968921661377
 30
8.392875671386718
 70
    32
  0
VERTEX
  5
13E
330
FA
100
AcDbEntity
  8
OracDecor_panel_moldings
 62
   153
420
  5804257
100
AcDbVertex
100
AcDb3dPolylineVertex
 10
-0.0000038146970383
 20
14.52734279632568
 30
8.119068145751953
 70
    32
  0
VERTEX
  5
13F
330
FA
100
AcDbEntity
  8
OracDecor_panel_moldings
 62
   153
420
  5804257
100
AcDbVertex
100
AcDb3dPolylineVertex
 10
-0.0000038146977204
 20
14.33260250091553
 30
7.954780578613281
 70
    32
  0
VERTEX
  5
140
330
FA
100
AcDbEntity
  8
OracDecor_panel_moldings
 62
   153
420
  5804257
100
AcDbVertex
100
AcDb3dPolylineVertex
 10
-0.0000038146968109
 20
14.04546642303467
 30
7.900020599365234
 70
    32
  0
VERTEX
  5
141
330
FA
100
AcDbEntity
  8
OracDecor_panel_moldings
 62
   153
420
  5804257
100
AcDbVertex
100
AcDb3dPolylineVertex
 10
-0.0000038146970383
 20
12.13637447357178
 30
7.900020599365234
 70
    32
  0
VERTEX
  5
142
330
FA
100
AcDbEntity
  8
OracDecor_panel_moldings
 62
   153
420
  5804257
100
AcDbVertex
100
AcDb3dPolylineVertex
 10
-0.0000038146972656
 20
11.85859680175781
 30
7.844463348388671
 70
    32
  0
VERTEX
  5
143
330
FA
100
AcDbEntity
  8
OracDecor_panel_moldings
 62
   153
420
  5804257
100
AcDbVertex
100
AcDb3dPolylineVertex
 10
-0.0000038146972656
 20
11.6919298171997
 30
7.677797317504882
 70
    32
  0
VERTEX
  5
144
330
FA
100
AcDbEntity
  8
OracDecor_panel_moldings
 62
   153
420
  5804257
100
AcDbVertex
100
AcDb3dPolylineVertex
 10
-0.0000038146972656
 20
11.63637447357178
 30
7.400016784667968
 70
    32
  0
VERTEX
  5
145
330
FA
100
AcDbEntity
  8
OracDecor_panel_moldings
 62
   153
420
  5804257
100
AcDbVertex
100
AcDb3dPolylineVertex
 10
-0.0000038146972656
 20
11.63637542724609
 30
5.437515258789062
 70
    32
  0
VERTEX
  5
146
330
FA
100
AcDbEntity
  8
OracDecor_panel_moldings
 62
   153
420
  5804257
100
AcDbVertex
100
AcDb3dPolylineVertex
 10
-0.0000038146972656
 20
11.58169460296631
 30
5.149917602539062
 70
    32
  0
VERTEX
  5
147
330
FA
100
AcDbEntity
  8
OracDecor_panel_moldings
 62
   153
420
  5804257
100
AcDbVertex
100
AcDb3dPolylineVertex
 10
-0.0000038146968109
 20
11.41765117645263
 30
4.95379638671875
 70
    32
  0
VERTEX
  5
148
330
FA
100
AcDbEntity
  8
OracDecor_panel_moldings
 62
   153
420
  5804257
100
AcDbVertex
100
AcDb3dPolylineVertex
 10
-0.0000038146972656
 20
11.14424610137939
 30
4.849147796630859
 70
    32
  0
VERTEX
  5
149
330
FA
100
AcDbEntity
  8
OracDecor_panel_moldings
 62
   153
420
  5804257
100
AcDbVertex
100
AcDb3dPolylineVertex
 10
-0.0000038146972656
 20
8.923014640808105
 30
4.45029067993164
 70
    32
  0
VERTEX
  5
14A
330
FA
100
AcDbEntity
  8
OracDecor_panel_moldings
 62
   153
420
  5804257
100
AcDbVertex
100
AcDb3dPolylineVertex
 10
-0.0000038146970383
 20
8.346449851989746
 30
4.292972564697265
 70
    32
  0
VERTEX
  5
14B
330
FA
100
AcDbEntity
  8
OracDecor_panel_moldings
 62
   153
420
  5804257
100
AcDbVertex
100
AcDb3dPolylineVertex
 10
-0.0000038146972656
 20
7.799126625061035
 30
4.090038299560546
 70
    32
  0
VERTEX
  5
14C
330
FA
100
AcDbEntity
  8
OracDecor_panel_moldings
 62
   153
420
  5804257
100
AcDbVertex
100
AcDb3dPolylineVertex
 10
-0.0000038146972656
 20
7.28979206085205
 30
3.790821075439453
 70
    32
  0
VERTEX
  5
14D
330
FA
100
AcDbEntity
  8
OracDecor_panel_moldings
 62
   153
420
  5804257
100
AcDbVertex
100
AcDb3dPolylineVertex
 10
-0.0000038146972656
 20
6.841791629791259
 30
3.407894134521484
 70
    32
  0
VERTEX
  5
14E
330
FA
100
AcDbEntity
  8
OracDecor_panel_moldings
 62
   153
420
  5804257
100
AcDbVertex
100
AcDb3dPolylineVertex
 10
-0.0000038146972656
 20
6.465750694274902
 30
2.952018737792968
 70
    32
  0
VERTEX
  5
14F
330
FA
100
AcDbEntity
  8
OracDecor_panel_moldings
 62
   153
420
  5804257
100
AcDbVertex
100
AcDb3dPolylineVertex
 10
-0.0000038146972656
 20
6.171425819396972
 30
2.433036804199218
 70
    32
  0
VERTEX
  5
150
330
FA
100
AcDbEntity
  8
OracDecor_panel_moldings
 62
   153
420
  5804257
100
AcDbVertex
100
AcDb3dPolylineVertex
 10
-0.0000038146972656
 20
5.980320930480957
 30
1.875194549560546
 70
    32
  0
VERTEX
  5
151
330
FA
100
AcDbEntity
  8
OracDecor_panel_moldings
 62
   153
420
  5804257
100
AcDbVertex
100
AcDb3dPolylineVertex
 10
-0.0000038146970383
 20
5.818192958831787
 30
0.7587051391601563
 70
    32
  0
VERTEX
  5
152
330
FA
100
AcDbEntity
  8
OracDecor_panel_moldings
 62
   153
420
  5804257
100
AcDbVertex
100
AcDb3dPolylineVertex
 10
-0.0000038146970383
 20
5.76269245147705
 30
0.4784584045410157
 70
    32
  0
VERTEX
  5
153
330
FA
100
AcDbEntity
  8
OracDecor_panel_moldings
 62
   153
420
  5804257
100
AcDbVertex
100
AcDb3dPolylineVertex
 10
-0.0000038146972656
 20
5.596189975738525
 30
0.3043899536132812
 70
    32
  0
VERTEX
  5
154
330
FA
100
AcDbEntity
  8
OracDecor_panel_moldings
 62
   153
420
  5804257
100
AcDbVertex
100
AcDb3dPolylineVertex
 10
-0.0000038146968109
 20
5.318686485290527
 30
0.2364959716796875
 70
    32
  0
SEQEND
  5
155
330
FA
100
AcDbEntity
  8
OracDecor_panel_moldings
 62
   153
420
  5804257
  0
ENDSEC
  0
SECTION
  2
OBJECTS
  0
DICTIONARY
  5
C
330
0
100
AcDbDictionary
281
     1
  3
ACAD_COLOR
350
DC
  3
ACAD_DETAILVIEWSTYLE
350
F5
  3
ACAD_GROUP
350
D
  3
ACAD_LAYOUT
350
1A
  3
ACAD_MATERIAL
350
AA
  3
ACAD_MLEADERSTYLE
350
F1
  3
ACAD_MLINESTYLE
350
17
  3
ACAD_PLOTSETTINGS
350
19
  3
ACAD_PLOTSTYLENAME
350
E
  3
ACAD_SCALELIST
350
DF
  3
ACAD_SECTIONVIEWSTYLE
350
F3
  3
ACAD_TABLESTYLE
350
DD
  3
ACAD_VISUALSTYLE
350
C3
  3
ACDB_RECOMPOSE_DATA
350
162
  3
AcDbVariableDictionary
350
156
  0
DICTIONARY
  5
DC
102
{ACAD_REACTORS
330
C
102
}
330
C
100
AcDbDictionary
281
     1
  0
DICTIONARY
  5
F5
102
{ACAD_REACTORS
330
C
102
}
330
C
100
AcDbDictionary
281
     1
  3
Imperial24
350
F6
  0
DICTIONARY
  5
D
102
{ACAD_REACTORS
330
C
102
}
330
C
100
AcDbDictionary
281
     1
  0
DICTIONARY
  5
1A
102
{ACAD_REACTORS
330
C
102
}
330
C
100
AcDbDictionary
281
     1
  3
Layout1
350
1E
  3
Layout2
350
26
  3
Model
350
22
  0
DICTIONARY
  5
AA
102
{ACAD_REACTORS
330
C
102
}
330
C
100
AcDbDictionary
281
     1
  3
ByBlock
350
B3
  3
ByLayer
350
AB
  3
Global
350
BB
  0
DICTIONARY
  5
F1
102
{ACAD_REACTORS
330
C
102
}
330
C
100
AcDbDictionary
281
     1
  3
Standard
350
F2
  0
DICTIONARY
  5
17
102
{ACAD_REACTORS
330
C
102
}
330
C
100
AcDbDictionary
281
     1
  3
Standard
350
18
  0
DICTIONARY
  5
19
102
{ACAD_REACTORS
330
C
102
}
330
C
100
AcDbDictionary
281
     1
  0
ACDBDICTIONARYWDFLT
  5
E
102
{ACAD_REACTORS
330
C
102
}
330
C
100
AcDbDictionary
281
     1
  3
ByLayer
350
2D
  3
Normal
350
F
100
AcDbDictionaryWithDefault
340
F
  0
DICTIONARY
  5
DF
102
{ACAD_REACTORS
330
C
102
}
330
C
100
AcDbDictionary
281
     1
  3
A0
350
E0
  3
A1
350
E1
  3
A2
350
E2
  3
A3
350
E3
  3
A4
350
E4
  3
A5
350
E5
  3
A6
350
E6
  3
A7
350
E7
  3
A8
350
E8
  3
A9
350
E9
  3
B0
350
EA
  3
B1
350
EB
  3
B2
350
EC
  3
B3
350
ED
  3
B4
350
EE
  3
B5
350
EF
  3
B6
350
F0
  0
DICTIONARY
  5
F3
102
{ACAD_REACTORS
330
C
102
}
330
C
100
AcDbDictionary
281
     1
  3
Imperial24
350
F4
  0
DICTIONARY
  5
DD
102
{ACAD_REACTORS
330
C
102
}
330
C
100
AcDbDictionary
281
     1
  3
Standard
350
DE
  0
DICTIONARY
  5
C3
102
{ACAD_REACTORS
330
C
102
}
330
C
100
AcDbDictionary
281
     1
  3
2dWireframe
350
C9
  3
Basic
350
C8
  3
Brighten
350
CF
  3
ColorChange
350
D3
  3
Conceptual
350
CC
  3
Dim
350
CE
  3
EdgeColorOff
350
DB
  3
Facepattern
350
D2
  3
Flat
350
C4
  3
FlatWithEdges
350
C5
  3
Gouraud
350
C6
  3
GouraudWithEdges
350
C7
  3
Hidden
350
CB
  3
JitterOff
350
D9
  3
Linepattern
350
D1
  3
OverhangOff
350
DA
  3
Realistic
350
CD
  3
Shaded
350
D8
  3
Shaded with edges
350
D7
  3
Shades of Gray
350
D4
  3
Sketchy
350
D5
  3
Thicken
350
D0
  3
Wireframe
350
CA
  3
X-Ray
350
D6
  0
XRECORD
  5
162
102
{ACAD_REACTORS
330
C
102
}
330
C
100
AcDbXrecord
280
     1
 90
        1
330
DE
  0
DICTIONARY
  5
156
102
{ACAD_REACTORS
330
C
102
}
330
C
100
AcDbDictionary
281
     1
  3
CANNOSCALE
350
15C
  3
CMLEADERSTYLE
350
158
  3
CTABLESTYLE
350
157
  3
CVIEWDETAILSTYLE
350
159
  3
CVIEWSECTIONSTYLE
350
15A
  3
LAYEREVAL
350
15E
  3
LAYERNOTIFY
350
15F
  3
LIGHTINGUNITS
350
15D
  3
MSLTSCALE
350
15B
  0
ACDBDETAILVIEWSTYLE
  5
F6
102
{ACAD_XDICTIONARY
360
197
102
}
102
{ACAD_REACTORS
330
F5
102
}
330
F5
100
AcDbModelDocViewStyle
 70
     0
  3
Imperial24
290
     0
100
AcDbDetailViewStyle
 70
     0
 71
     0
 90
        3
 71
     1
340
11
 62
   256
 40
0.24
340
0
 62
   256
 40
0.24
300

 40
0.36
280
     3
 71
     2
340
16
 90
       25
 62
   256
 71
     3
340
11
 62
   256
 40
0.24
 90
        1
 40
0.75
 90
        1
300
%<\AcVar ViewType \f "%tc1">% %<\AcVar ViewDetailId>%\PSCALE %<\AcVar ViewScale \f "%sn">%
 71
     4
340
16
 90
       25
 62
   256
340
16
 90
       25
 62
   256
280
     0
  0
LAYOUT
  5
1E
102
{ACAD_REACTORS
330
1A
102
}
330
1A
100
AcDbPlotSettings
  1

  2
\\KTXNTBDC\CASF2PN1
  4

  6

 40
0.0
 41
0.0
 42
0.0
 43
0.0
 44
0.0
 45
0.0
 46
0.0
 47
0.0
 48
0.0
 49
0.0
140
0.0
141
0.0
142
1.0
143
1.0
 70
   688
 72
     0
 73
     0
 74
     5
  7

 75
    16
147
1.0
 76
     0
 77
     2
 78
   300
148
0.0
149
0.0
100
AcDbLayout
  1
Layout1
 70
     1
 71
     1
 10
0.0
 20
0.0
 11
12.0
 21
9.0
 12
0.0
 22
0.0
 32
0.0
 14
1.000000000000000E+20
 24
1.000000000000000E+20
 34
1.000000000000000E+20
 15
-1.000000000000000E+20
 25
-1.000000000000000E+20
 35
-1.000000000000000E+20
146
0.0
 13
0.0
 23
0.0
 33
0.0
 16
1.0
 26
0.0
 36
0.0
 17
0.0
 27
1.0
 37
0.0
 76
     0
330
1B
  0
LAYOUT
  5
26
102
{ACAD_REACTORS
330
1A
102
}
330
1A
100
AcDbPlotSettings
  1

  2
\\KTXNTBDC\CASF2PN1
  4

  6

 40
0.0
 41
0.0
 42
0.0
 43
0.0
 44
0.0
 45
0.0
 46
0.0
 47
0.0
 48
0.0
 49
0.0
140
0.0
141
0.0
142
1.0
143
1.0
 70
   688
 72
     0
 73
     0
 74
     5
  7

 75
    16
147
1.0
 76
     0
 77
     2
 78
   300
148
0.0
149
0.0
100
AcDbLayout
  1
Layout2
 70
     1
 71
     2
 10
0.0
 20
0.0
 11
12.0
 21
9.0
 12
0.0
 22
0.0
 32
0.0
 14
0.0
 24
0.0
 34
0.0
 15
0.0
 25
0.0
 35
0.0
146
0.0
 13
0.0
 23
0.0
 33
0.0
 16
1.0
 26
0.0
 36
0.0
 17
0.0
 27
1.0
 37
0.0
 76
     0
330
23
  0
LAYOUT
  5
22
102
{ACAD_REACTORS
330
1A
102
}
330
1A
100
AcDbPlotSettings
  1

  2
\\KTXNTBDC\CASF2PN1
  4

  6

 40
0.0
 41
0.0
 42
0.0
 43
0.0
 44
0.0
 45
0.0
 46
0.0
 47
0.0
 48
0.0
 49
0.0
140
0.0
141
0.0
142
1.0
143
1.0
 70
  1712
 72
     0
 73
     0
 74
     0
  7

 75
     0
147
1.0
 76
     0
 77
     2
 78
   300
148
0.0
149
0.0
100
AcDbLayout
  1
Model
 70
     1
 71
     0
 10
0.0
 20
0.0
 11
12.0
 21
9.0
 12
0.0
 22
0.0
 32
0.0
 14
0.0
 24
0.0
 34
0.0
 15
0.0
 25
0.0
 35
0.0
146
0.0
 13
0.0
 23
0.0
 33
0.0
 16
1.0
 26
0.0
 36
0.0
 17
0.0
 27
1.0
 37
0.0
 76
     0
330
1F
  0
MATERIAL
  5
B3
102
{ACAD_XDICTIONARY
360
B4
102
}
102
{ACAD_REACTORS
330
AA
102
}
330
AA
100
AcDbMaterial
  1
ByBlock
 72
     0
 43
0.0208333333333333
 43
0.0
 43
0.0
 43
0.0
 43
0.0
 43
0.0208333333333333
 43
0.0
 43
0.0
 43
0.0
 43
0.0
 43
1.0
 43
0.0
 43
0.0
 43
0.0
 43
0.0
 43
1.0
 77
     0
 47
0.0208333333333333
 47
0.0
 47
0.0
 47
0.0
 47
0.0
 47
0.0208333333333333
 47
0.0
 47
0.0
 47
0.0
 47
0.0
 47
1.0
 47
0.0
 47
0.0
 47
0.0
 47
0.0
 47
1.0
171
     0
 49
0.0208333333333333
 49
0.0
 49
0.0
 49
0.0
 49
0.0
 49
0.0208333333333333
 49
0.0
 49
0.0
 49
0.0
 49
0.0
 49
1.0
 49
0.0
 49
0.0
 49
0.0
 49
0.0
 49
1.0
175
     0
142
0.0208333333333333
142
0.0
142
0.0
142
0.0
142
0.0
142
0.0208333333333333
142
0.0
142
0.0
142
0.0
142
0.0
142
1.0
142
0.0
142
0.0
142
0.0
142
0.0
142
1.0
179
     0
144
0.0208333333333333
144
0.0
144
0.0
144
0.0
144
0.0
144
0.0208333333333333
144
0.0
144
0.0
144
0.0
144
0.0
144
1.0
144
0.0
144
0.0
144
0.0
144
0.0
144
1.0
147
0.0208333333333333
147
0.0
147
0.0
147
0.0
147
0.0
147
0.0208333333333333
147
0.0
147
0.0
147
0.0
147
0.0
147
1.0
147
0.0
147
0.0
147
0.0
147
0.0
147
1.0
  0
MATERIAL
  5
AB
102
{ACAD_XDICTIONARY
360
AC
102
}
102
{ACAD_REACTORS
330
AA
102
}
330
AA
100
AcDbMaterial
  1
ByLayer
 72
     0
 43
0.0208333333333333
 43
0.0
 43
0.0
 43
0.0
 43
0.0
 43
0.0208333333333333
 43
0.0
 43
0.0
 43
0.0
 43
0.0
 43
1.0
 43
0.0
 43
0.0
 43
0.0
 43
0.0
 43
1.0
 77
     0
 47
0.0208333333333333
 47
0.0
 47
0.0
 47
0.0
 47
0.0
 47
0.0208333333333333
 47
0.0
 47
0.0
 47
0.0
 47
0.0
 47
1.0
 47
0.0
 47
0.0
 47
0.0
 47
0.0
 47
1.0
171
     0
 49
0.0208333333333333
 49
0.0
 49
0.0
 49
0.0
 49
0.0
 49
0.0208333333333333
 49
0.0
 49
0.0
 49
0.0
 49
0.0
 49
1.0
 49
0.0
 49
0.0
 49
0.0
 49
0.0
 49
1.0
175
     0
142
0.0208333333333333
142
0.0
142
0.0
142
0.0
142
0.0
142
0.0208333333333333
142
0.0
142
0.0
142
0.0
142
0.0
142
1.0
142
0.0
142
0.0
142
0.0
142
0.0
142
1.0
179
     0
144
0.0208333333333333
144
0.0
144
0.0
144
0.0
144
0.0
144
0.0208333333333333
144
0.0
144
0.0
144
0.0
144
0.0
144
1.0
144
0.0
144
0.0
144
0.0
144
0.0
144
1.0
147
0.0208333333333333
147
0.0
147
0.0
147
0.0
147
0.0
147
0.0208333333333333
147
0.0
147
0.0
147
0.0
147
0.0
147
1.0
147
0.0
147
0.0
147
0.0
147
0.0
147
1.0
  0
MATERIAL
  5
BB
102
{ACAD_XDICTIONARY
360
BC
102
}
102
{ACAD_REACTORS
330
AA
102
}
330
AA
100
AcDbMaterial
  1
Global
 72
     0
 43
0.0208333333333333
 43
0.0
 43
0.0
 43
0.0
 43
0.0
 43
0.0208333333333333
 43
0.0
 43
0.0
 43
0.0
 43
0.0
 43
1.0
 43
0.0
 43
0.0
 43
0.0
 43
0.0
 43
1.0
 77
     0
 47
0.0208333333333333
 47
0.0
 47
0.0
 47
0.0
 47
0.0
 47
0.0208333333333333
 47
0.0
 47
0.0
 47
0.0
 47
0.0
 47
1.0
 47
0.0
 47
0.0
 47
0.0
 47
0.0
 47
1.0
171
     0
 49
0.0208333333333333
 49
0.0
 49
0.0
 49
0.0
 49
0.0
 49
0.0208333333333333
 49
0.0
 49
0.0
 49
0.0
 49
0.0
 49
1.0
 49
0.0
 49
0.0
 49
0.0
 49
0.0
 49
1.0
175
     0
142
0.0208333333333333
142
0.0
142
0.0
142
0.0
142
0.0
142
0.0208333333333333
142
0.0
142
0.0
142
0.0
142
0.0
142
1.0
142
0.0
142
0.0
142
0.0
142
0.0
142
1.0
179
     0
144
0.0208333333333333
144
0.0
144
0.0
144
0.0
144
0.0
144
0.0208333333333333
144
0.0
144
0.0
144
0.0
144
0.0
144
1.0
144
0.0
144
0.0
144
0.0
144
0.0
144
1.0
147
0.0208333333333333
147
0.0
147
0.0
147
0.0
147
0.0
147
0.0208333333333333
147
0.0
147
0.0
147
0.0
147
0.0
147
1.0
147
0.0
147
0.0
147
0.0
147
0.0
147
1.0
  0
MLEADERSTYLE
  5
F2
102
{ACAD_XDICTIONARY
360
193
102
}
102
{ACAD_REACTORS
330
F1
102
}
330
F1
100
AcDbMLeaderStyle
179
     2
170
     2
171
     1
172
     0
 90
        2
 40
0.0
 41
0.0
173
     1
 91
-1056964608
340
14
 92
       -2
290
     1
 42
0.09
291
     1
 43
0.36
  3
Standard
 44
0.18
300

342
11
174
     1
178
     6
175
     1
176
     0
 93
-1056964608
 45
0.18
292
     0
297
     0
 46
0.18
 94
-1056964608
 47
1.0
 49
1.0
140
1.0
293
     1
141
0.0
294
     1
177
     0
142
1.0
295
     0
296
     0
143
0.125
271
     0
272
     9
273
     9
  0
MLINESTYLE
  5
18
102
{ACAD_REACTORS
330
17
102
}
330
17
100
AcDbMlineStyle
  2
STANDARD
 70
     0
  3

 62
   256
 51
90.0
 52
90.0
 71
     2
 49
0.5
 62
   256
  6
BYLAYER
 49
-0.5
 62
   256
  6
BYLAYER
  0
ACDBPLACEHOLDER
  5
2D
102
{ACAD_REACTORS
330
E
102
}
330
E
  0
ACDBPLACEHOLDER
  5
F
102
{ACAD_REACTORS
330
E
102
}
330
E
  0
SCALE
  5
E0
102
{ACAD_REACTORS
330
DF
102
}
330
DF
100
AcDbScale
 70
     0
300
1:1
140
1.0
141
1.0
290
     1
  0
SCALE
  5
E1
102
{ACAD_REACTORS
330
DF
102
}
330
DF
100
AcDbScale
 70
     0
300
1/128" = 1'-0"
140
0.0078125
141
12.0
290
     0
  0
SCALE
  5
E2
102
{ACAD_REACTORS
330
DF
102
}
330
DF
100
AcDbScale
 70
     0
300
1/64" = 1'-0"
140
0.015625
141
12.0
290
     0
  0
SCALE
  5
E3
102
{ACAD_REACTORS
330
DF
102
}
330
DF
100
AcDbScale
 70
     0
300
1/32" = 1'-0"
140
0.03125
141
12.0
290
     0
  0
SCALE
  5
E4
102
{ACAD_REACTORS
330
DF
102
}
330
DF
100
AcDbScale
 70
     0
300
1/16" = 1'-0"
140
0.0625
141
12.0
290
     0
  0
SCALE
  5
E5
102
{ACAD_REACTORS
330
DF
102
}
330
DF
100
AcDbScale
 70
     0
300
3/32" = 1'-0"
140
0.09375
141
12.0
290
     0
  0
SCALE
  5
E6
102
{ACAD_REACTORS
330
DF
102
}
330
DF
100
AcDbScale
 70
     0
300
1/8" = 1'-0"
140
0.125
141
12.0
290
     0
  0
SCALE
  5
E7
102
{ACAD_REACTORS
330
DF
102
}
330
DF
100
AcDbScale
 70
     0
300
3/16" = 1'-0"
140
0.1875
141
12.0
290
     0
  0
SCALE
  5
E8
102
{ACAD_REACTORS
330
DF
102
}
330
DF
100
AcDbScale
 70
     0
300
1/4" = 1'-0"
140
0.25
141
12.0
290
     0
  0
SCALE
  5
E9
102
{ACAD_REACTORS
330
DF
102
}
330
DF
100
AcDbScale
 70
     0
300
3/8" = 1'-0"
140
0.375
141
12.0
290
     0
  0
SCALE
  5
EA
102
{ACAD_REACTORS
330
DF
102
}
330
DF
100
AcDbScale
 70
     0
300
1/2" = 1'-0"
140
0.5
141
12.0
290
     0
  0
SCALE
  5
EB
102
{ACAD_REACTORS
330
DF
102
}
330
DF
100
AcDbScale
 70
     0
300
3/4" = 1'-0"
140
0.75
141
12.0
290
     0
  0
SCALE
  5
EC
102
{ACAD_REACTORS
330
DF
102
}
330
DF
100
AcDbScale
 70
     0
300
1" = 1'-0"
140
1.0
141
12.0
290
     0
  0
SCALE
  5
ED
102
{ACAD_REACTORS
330
DF
102
}
330
DF
100
AcDbScale
 70
     0
300
1-1/2" = 1'-0"
140
1.5
141
12.0
290
     0
  0
SCALE
  5
EE
102
{ACAD_REACTORS
330
DF
102
}
330
DF
100
AcDbScale
 70
     0
300
3" = 1'-0"
140
3.0
141
12.0
290
     0
  0
SCALE
  5
EF
102
{ACAD_REACTORS
330
DF
102
}
330
DF
100
AcDbScale
 70
     0
300
6" = 1'-0"
140
6.0
141
12.0
290
     0
  0
SCALE
  5
F0
102
{ACAD_REACTORS
330
DF
102
}
330
DF
100
AcDbScale
 70
     0
300
1'-0" = 1'-0"
140
12.0
141
12.0
290
     0
  0
ACDBSECTIONVIEWSTYLE
  5
F4
102
{ACAD_XDICTIONARY
360
195
102
}
102
{ACAD_REACTORS
330
F3
102
}
330
F3
100
AcDbModelDocViewStyle
 70
     0
  3
Imperial24
290
     0
100
AcDbSectionViewStyle
 70
     0
 71
     0
 90
       78
 71
     1
340
11
 62
   256
 40
0.24
340
0
340
0
 62
   256
 40
0.24
300
I, O, Q, S, X, Z
 40
0.48
 90
        3
 40
0.18
 90
        1
 71
     2
340
16
 90
       25
 62
   256
340
16
 90
       50
 62
   256
 40
0.24
 40
0.0
 40
0.24
 71
     3
340
11
 62
   256
 40
0.24
 90
        1
 40
0.75
 90
        1
300
%<\AcVar ViewType \f "%tc1">% %<\AcVar ViewSectionStartId>%-%<\AcVar ViewSectionEndId>%\PSCALE %<\AcVar ViewScale \f "%sn">%
 71
     4
 62
   256
 62
   257
300
ANSI31
 40
1.0
 90
        0
290
     0
290
     0
 90
        6
 40
0.0
 40
1.570796326794896
 40
0.2617993877991494
 40
1.308996938995747
 40
-0.2617993877991494
 40
1.832595714594046
  0
TABLESTYLE
  5
DE
102
{ACAD_XDICTIONARY
360
160
102
}
102
{ACAD_REACTORS
330
DD
102
}
330
DD
100
AcDbTableStyle
280
     0
  3
Standard
 70
     0
 71
     0
 40
0.06
 41
0.06
280
     0
281
     0
  7
Standard
140
0.18
170
     2
 62
     0
 63
     7
283
     0
 90
      512
 91
        0
  1

274
    -2
284
     1
 64
     0
275
    -2
285
     1
 65
     0
276
    -2
286
     1
 66
     0
277
    -2
287
     1
 67
     0
278
    -2
288
     1
 68
     0
279
    -2
289
     1
 69
     0
  7
Standard
140
0.25
170
     5
 62
     0
 63
     7
283
     0
 90
      512
 91
        0
  1

274
    -2
284
     1
 64
     0
275
    -2
285
     1
 65
     0
276
    -2
286
     1
 66
     0
277
    -2
287
     1
 67
     0
278
    -2
288
     1
 68
     0
279
    -2
289
     1
 69
     0
  7
Standard
140
0.18
170
     5
 62
     0
 63
     7
283
     0
 90
      512
 91
        0
  1

274
    -2
284
     1
 64
     0
275
    -2
285
     1
 65
     0
276
    -2
286
     1
 66
     0
277
    -2
287
     1
 67
     0
278
    -2
288
     1
 68
     0
279
    -2
289
     1
 69
     0
  0
VISUALSTYLE
  5
C9
102
{ACAD_XDICTIONARY
360
16D
102
}
102
{ACAD_REACTORS
330
C3
102
}
330
C3
100
AcDbVisualStyle
  2
2dWireframe
 70
     4
177
     2
291
     0
 71
     0
176
     1
 72
     2
176
     1
 73
     0
176
     1
 90
        0
176
     1
 40
0.6
176
     1
 41
30.0
176
     1
 63
     7
421
 16777215
176
     1
 74
     1
176
     1
 91
        4
176
     1
 64
     7
176
     1
 65
   257
176
     1
 75
     1
176
     1
175
     1
176
     1
 42
1.0
176
     1
 92
        0
176
     1
 66
   257
176
     1
 43
1.0
176
     1
 76
     1
176
     1
 77
     6
176
     1
 78
     2
176
     1
 67
     7
176
     1
 79
     5
176
     1
170
     0
176
     1
171
     0
176
     1
290
     0
176
     1
 93
        1
176
     1
 44
0.0
176
     1
173
     0
176
     1
1001
ACAD
1000
AcDbSavedByObjectVersion
1070
     0
  0
VISUALSTYLE
  5
C8
102
{ACAD_XDICTIONARY
360
16B
102
}
102
{ACAD_REACTORS
330
C3
102
}
330
C3
100
AcDbVisualStyle
  2
Basic
 70
     7
177
     2
291
     1
 71
     1
176
     1
 72
     0
176
     1
 73
     1
176
     1
 90
        0
176
     1
 40
0.6
176
     1
 41
30.0
176
     1
 63
     7
421
 16777215
176
     1
 74
     0
176
     1
 91
        4
176
     1
 64
     7
176
     1
 65
   257
176
     1
 75
     1
176
     1
175
     1
176
     1
 42
1.0
176
     1
 92
        8
176
     1
 66
     7
176
     1
 43
1.0
176
     1
 76
     1
176
     1
 77
     6
176
     1
 78
     2
176
     1
 67
     7
176
     1
 79
     5
176
     1
170
     0
176
     1
171
     0
176
     1
290
     0
176
     1
 93
        1
176
     1
 44
0.0
176
     1
173
     0
176
     1
1001
ACAD
1000
AcDbSavedByObjectVersion
1070
     0
  0
VISUALSTYLE
  5
CF
102
{ACAD_XDICTIONARY
360
179
102
}
102
{ACAD_REACTORS
330
C3
102
}
330
C3
100
AcDbVisualStyle
  2
Brighten
 70
    12
177
     2
291
     1
 71
     2
176
     1
 72
     2
176
     1
 73
     0
176
     1
 90
        0
176
     1
 40
0.6
176
     1
 41
30.0
176
     1
 63
     7
421
 16777215
176
     1
 74
     1
176
     1
 91
        4
176
     1
 64
     7
176
     1
 65
   257
176
     1
 75
     1
176
     1
175
     1
176
     1
 42
1.0
176
     1
 92
        8
176
     1
 66
     7
176
     1
 43
1.0
176
     1
 76
     1
176
     1
 77
     6
176
     1
 78
     2
176
     1
 67
     7
176
     1
 79
     5
176
     1
170
     0
176
     1
171
     0
176
     1
290
     0
176
     1
 93
        1
176
     1
 44
50.0
176
     1
173
     0
176
     1
1001
ACAD
1000
AcDbSavedByObjectVersion
1070
     0
  0
VISUALSTYLE
  5
D3
102
{ACAD_XDICTIONARY
360
181
102
}
102
{ACAD_REACTORS
330
C3
102
}
330
C3
100
AcDbVisualStyle
  2
ColorChange
 70
    16
177
     2
291
     1
 71
     2
176
     1
 72
     2
176
     1
 73
     3
176
     1
 90
        0
176
     1
 40
0.6
176
     1
 41
30.0
176
     1
 63
     8
421
  8421504
176
     1
 74
     1
176
     1
 91
        4
176
     1
 64
     7
176
     1
 65
   257
176
     1
 75
     1
176
     1
175
     1
176
     1
 42
1.0
176
     1
 92
        8
176
     1
 66
     8
424
  8421504
176
     1
 43
1.0
176
     1
 76
     1
176
     1
 77
     6
176
     1
 78
     2
176
     1
 67
     7
176
     1
 79
     5
176
     1
170
     0
176
     1
171
     0
176
     1
290
     0
176
     1
 93
        1
176
     1
 44
0.0
176
     1
173
     0
176
     1
1001
ACAD
1000
AcDbSavedByObjectVersion
1070
     0
  0
VISUALSTYLE
  5
CC
102
{ACAD_XDICTIONARY
360
173
102
}
102
{ACAD_REACTORS
330
C3
102
}
330
C3
100
AcDbVisualStyle
  2
Conceptual
 70
     9
177
     2
291
     0
 71
     3
176
     1
 72
     2
176
     1
 73
     0
176
     1
 90
        0
176
     1
 40
0.6
176
     1
 41
30.0
176
     1
 63
     7
421
 16777215
176
     1
 74
     2
176
     1
 91
        2
176
     1
 64
     7
176
     1
 65
   257
176
     1
 75
     1
176
     1
175
     1
176
     1
 42
179.0
176
     1
 92
        8
176
     1
 66
     7
176
     1
 43
1.0
176
     1
 76
     1
176
     1
 77
     6
176
     1
 78
     2
176
     1
 67
     7
176
     1
 79
     3
176
     1
170
     0
176
     1
171
     0
176
     1
290
     0
176
     1
 93
        1
176
     1
 44
0.0
176
     1
173
     0
176
     1
1001
ACAD
1000
AcDbSavedByObjectVersion
1070
     0
  0
VISUALSTYLE
  5
CE
102
{ACAD_XDICTIONARY
360
177
102
}
102
{ACAD_REACTORS
330
C3
102
}
330
C3
100
AcDbVisualStyle
  2
Dim
 70
    11
177
     2
291
     1
 71
     2
176
     1
 72
     2
176
     1
 73
     0
176
     1
 90
        0
176
     1
 40
0.6
176
     1
 41
30.0
176
     1
 63
     7
421
 16777215
176
     1
 74
     1
176
     1
 91
        4
176
     1
 64
     7
176
     1
 65
   257
176
     1
 75
     1
176
     1
175
     1
176
     1
 42
1.0
176
     1
 92
        8
176
     1
 66
     7
176
     1
 43
1.0
176
     1
 76
     1
176
     1
 77
     6
176
     1
 78
     2
176
     1
 67
     7
176
     1
 79
     5
176
     1
170
     0
176
     1
171
     0
176
     1
290
     0
176
     1
 93
        1
176
     1
 44
-50.0
176
     1
173
     0
176
     1
1001
ACAD
1000
AcDbSavedByObjectVersion
1070
     0
  0
VISUALSTYLE
  5
DB
102
{ACAD_XDICTIONARY
360
191
102
}
102
{ACAD_REACTORS
330
C3
102
}
330
C3
100
AcDbVisualStyle
  2
EdgeColorOff
 70
    22
177
     2
291
     1
 71
     2
176
     0
 72
     2
176
     0
 73
     0
176
     0
 90
        0
176
     0
 40
0.6
176
     0
 41
30.0
176
     0
 63
     7
421
 16777215
176
     0
 74
     1
176
     0
 91
        4
176
     0
 64
     7
176
     0
 65
   257
176
     0
 75
     1
176
     0
175
     1
176
     0
 42
1.0
176
     0
 92
        8
176
     2
 66
     7
176
     0
 43
1.0
176
     0
 76
     1
176
     0
 77
     6
176
     0
 78
     2
176
     0
 67
     7
176
     0
 79
     5
176
     0
170
     0
176
     0
171
     0
176
     0
290
     0
176
     0
 93
        1
176
     0
 44
0.0
176
     0
173
     0
176
     0
1001
ACAD
1000
AcDbSavedByObjectVersion
1070
     0
  0
VISUALSTYLE
  5
D2
102
{ACAD_XDICTIONARY
360
17F
102
}
102
{ACAD_REACTORS
330
C3
102
}
330
C3
100
AcDbVisualStyle
  2
Facepattern
 70
    15
177
     2
291
     1
 71
     2
176
     1
 72
     2
176
     1
 73
     0
176
     1
 90
        0
176
     1
 40
0.6
176
     1
 41
30.0
176
     1
 63
     7
421
 16777215
176
     1
 74
     1
176
     1
 91
        4
176
     1
 64
     7
176
     1
 65
   257
176
     1
 75
     1
176
     1
175
     1
176
     1
 42
1.0
176
     1
 92
        8
176
     1
 66
     7
176
     1
 43
1.0
176
     1
 76
     1
176
     1
 77
     6
176
     1
 78
     2
176
     1
 67
     7
176
     1
 79
     5
176
     1
170
     0
176
     1
171
     0
176
     1
290
     0
176
     1
 93
        1
176
     1
 44
0.0
176
     1
173
     0
176
     1
1001
ACAD
1000
AcDbSavedByObjectVersion
1070
     0
  0
VISUALSTYLE
  5
C4
102
{ACAD_XDICTIONARY
360
163
102
}
102
{ACAD_REACTORS
330
C3
102
}
330
C3
100
AcDbVisualStyle
  2
Flat
 70
     0
177
     2
291
     1
 71
     2
176
     1
 72
     1
176
     1
 73
     1
176
     1
 90
        2
176
     1
 40
0.6
176
     1
 41
30.0
176
     1
 63
     7
421
 16777215
176
     1
 74
     0
176
     1
 91
        0
176
     1
 64
     7
176
     1
 65
   257
176
     1
 75
     1
176
     1
175
     1
176
     1
 42
1.0
176
     1
 92
        8
176
     1
 66
     7
176
     1
 43
1.0
176
     1
 76
     1
176
     1
 77
     6
176
     1
 78
     2
176
     1
 67
     7
176
     1
 79
     5
176
     1
170
     0
176
     1
171
     0
176
     1
290
     0
176
     1
 93
       13
176
     1
 44
0.0
176
     1
173
     0
176
     1
1001
ACAD
1000
AcDbSavedByObjectVersion
1070
     0
  0
VISUALSTYLE
  5
C5
102
{ACAD_XDICTIONARY
360
165
102
}
102
{ACAD_REACTORS
330
C3
102
}
330
C3
100
AcDbVisualStyle
  2
FlatWithEdges
 70
     1
177
     2
291
     1
 71
     2
176
     1
 72
     1
176
     1
 73
     1
176
     1
 90
        2
176
     1
 40
0.6
176
     1
 41
30.0
176
     1
 63
     7
421
 16777215
176
     1
 74
     1
176
     1
 91
        0
176
     1
 64
     7
176
     1
 65
   257
176
     1
 75
     1
176
     1
175
     1
176
     1
 42
1.0
176
     1
 92
        0
176
     1
 66
   257
176
     1
 43
1.0
176
     1
 76
     1
176
     1
 77
     6
176
     1
 78
     2
176
     1
 67
     7
176
     1
 79
     5
176
     1
170
     0
176
     1
171
     0
176
     1
290
     0
176
     1
 93
       13
176
     1
 44
0.0
176
     1
173
     0
176
     1
1001
ACAD
1000
AcDbSavedByObjectVersion
1070
     0
  0
VISUALSTYLE
  5
C6
102
{ACAD_XDICTIONARY
360
167
102
}
102
{ACAD_REACTORS
330
C3
102
}
330
C3
100
AcDbVisualStyle
  2
Gouraud
 70
     2
177
     2
291
     1
 71
     2
176
     1
 72
     2
176
     1
 73
     1
176
     1
 90
        2
176
     1
 40
0.6
176
     1
 41
30.0
176
     1
 63
     7
421
 16777215
176
     1
 74
     0
176
     1
 91
        0
176
     1
 64
     7
176
     1
 65
   257
176
     1
 75
     1
176
     1
175
     1
176
     1
 42
1.0
176
     1
 92
        0
176
     1
 66
     7
176
     1
 43
1.0
176
     1
 76
     1
176
     1
 77
     6
176
     1
 78
     2
176
     1
 67
     7
176
     1
 79
     5
176
     1
170
     0
176
     1
171
     0
176
     1
290
     0
176
     1
 93
       13
176
     1
 44
0.0
176
     1
173
     0
176
     1
1001
ACAD
1000
AcDbSavedByObjectVersion
1070
     0
  0
VISUALSTYLE
  5
C7
102
{ACAD_XDICTIONARY
360
169
102
}
102
{ACAD_REACTORS
330
C3
102
}
330
C3
100
AcDbVisualStyle
  2
GouraudWithEdges
 70
     3
177
     2
291
     1
 71
     2
176
     1
 72
     2
176
     1
 73
     1
176
     1
 90
        2
176
     1
 40
0.6
176
     1
 41
30.0
176
     1
 63
     7
421
 16777215
176
     1
 74
     1
176
     1
 91
        0
176
     1
 64
     7
176
     1
 65
   257
176
     1
 75
     1
176
     1
175
     1
176
     1
 42
1.0
176
     1
 92
        0
176
     1
 66
   257
176
     1
 43
1.0
176
     1
 76
     1
176
     1
 77
     6
176
     1
 78
     2
176
     1
 67
     7
176
     1
 79
     5
176
     1
170
     0
176
     1
171
     0
176
     1
290
     0
176
     1
 93
       13
176
     1
 44
0.0
176
     1
173
     0
176
     1
1001
ACAD
1000
AcDbSavedByObjectVersion
1070
     0
  0
VISUALSTYLE
  5
CB
102
{ACAD_XDICTIONARY
360
171
102
}
102
{ACAD_REACTORS
330
C3
102
}
330
C3
100
AcDbVisualStyle
  2
Hidden
 70
     6
177
     2
291
     0
 71
     1
176
     1
 72
     2
176
     1
 73
     2
176
     1
 90
        0
176
     1
 40
0.6
176
     1
 41
30.0
176
     1
 63
     7
421
 16777215
176
     1
 74
     2
176
     1
 91
        2
176
     1
 64
     7
176
     1
 65
   257
176
     1
 75
     2
176
     1
175
     1
176
     1
 42
40.0
176
     1
 92
        0
176
     1
 66
   257
176
     1
 43
1.0
176
     1
 76
     1
176
     1
 77
     6
176
     1
 78
     2
176
     1
 67
     7
176
     1
 79
     3
176
     1
170
     0
176
     1
171
     0
176
     1
290
     0
176
     1
 93
        1
176
     1
 44
0.0
176
     1
173
     0
176
     1
1001
ACAD
1000
AcDbSavedByObjectVersion
1070
     0
  0
VISUALSTYLE
  5
D9
102
{ACAD_XDICTIONARY
360
18D
102
}
102
{ACAD_REACTORS
330
C3
102
}
330
C3
100
AcDbVisualStyle
  2
JitterOff
 70
    20
177
     2
291
     1
 71
     2
176
     0
 72
     2
176
     0
 73
     0
176
     0
 90
        0
176
     0
 40
0.6
176
     0
 41
30.0
176
     0
 63
     7
421
 16777215
176
     0
 74
     1
176
     0
 91
        4
176
     0
 64
     7
176
     0
 65
   257
176
     0
 75
     1
176
     0
175
     1
176
     0
 42
1.0
176
     0
 92
       10
176
     2
 66
     7
176
     0
 43
1.0
176
     0
 76
     1
176
     0
 77
     6
176
     0
 78
     2
176
     0
 67
     7
176
     0
 79
     5
176
     0
170
     0
176
     0
171
     0
176
     0
290
     0
176
     0
 93
        1
176
     0
 44
0.0
176
     0
173
     0
176
     0
1001
ACAD
1000
AcDbSavedByObjectVersion
1070
     0
  0
VISUALSTYLE
  5
D1
102
{ACAD_XDICTIONARY
360
17D
102
}
102
{ACAD_REACTORS
330
C3
102
}
330
C3
100
AcDbVisualStyle
  2
Linepattern
 70
    14
177
     2
291
     1
 71
     2
176
     1
 72
     2
176
     1
 73
     0
176
     1
 90
        0
176
     1
 40
0.6
176
     1
 41
30.0
176
     1
 63
     7
421
 16777215
176
     1
 74
     1
176
     1
 91
        4
176
     1
 64
     7
176
     1
 65
   257
176
     1
 75
     7
176
     1
175
     7
176
     1
 42
1.0
176
     1
 92
        8
176
     1
 66
     7
176
     1
 43
1.0
176
     1
 76
     1
176
     1
 77
     6
176
     1
 78
     2
176
     1
 67
     7
176
     1
 79
     5
176
     1
170
     0
176
     1
171
     0
176
     1
290
     0
176
     1
 93
        1
176
     1
 44
0.0
176
     1
173
     0
176
     1
1001
ACAD
1000
AcDbSavedByObjectVersion
1070
     0
  0
VISUALSTYLE
  5
DA
102
{ACAD_XDICTIONARY
360
18F
102
}
102
{ACAD_REACTORS
330
C3
102
}
330
C3
100
AcDbVisualStyle
  2
OverhangOff
 70
    21
177
     2
291
     1
 71
     2
176
     0
 72
     2
176
     0
 73
     0
176
     0
 90
        0
176
     0
 40
0.6
176
     0
 41
30.0
176
     0
 63
     7
421
 16777215
176
     0
 74
     1
176
     0
 91
        4
176
     0
 64
     7
176
     0
 65
   257
176
     0
 75
     1
176
     0
175
     1
176
     0
 42
1.0
176
     0
 92
        9
176
     2
 66
     7
176
     0
 43
1.0
176
     0
 76
     1
176
     0
 77
     6
176
     0
 78
     2
176
     0
 67
     7
176
     0
 79
     5
176
     0
170
     0
176
     0
171
     0
176
     0
290
     0
176
     0
 93
        1
176
     0
 44
0.0
176
     0
173
     0
176
     0
1001
ACAD
1000
AcDbSavedByObjectVersion
1070
     0
  0
VISUALSTYLE
  5
CD
102
{ACAD_XDICTIONARY
360
175
102
}
102
{ACAD_REACTORS
330
C3
102
}
330
C3
100
AcDbVisualStyle
  2
Realistic
 70
     8
177
     2
291
     0
 71
     2
176
     1
 72
     3
176
     1
 73
     0
176
     1
 90
        2
176
     1
 40
0.6
176
     1
 41
30.0
176
     1
 63
     7
421
 16777215
176
     1
 74
     0
176
     1
 91
        0
176
     1
 64
     7
176
     1
 65
   257
176
     1
 75
     1
176
     1
175
     1
176
     1
 42
1.0
176
     1
 92
        8
176
     1
 66
   257
176
     1
 43
1.0
176
     1
 76
     1
176
     1
 77
     6
176
     1
 78
     2
176
     1
 67
     7
176
     1
 79
     3
176
     1
170
     0
176
     1
171
     0
176
     1
290
     0
176
     1
 93
       13
176
     1
 44
0.0
176
     1
173
     0
176
     1
1001
ACAD
1000
AcDbSavedByObjectVersion
1070
     0
  0
VISUALSTYLE
  5
D8
102
{ACAD_XDICTIONARY
360
18B
102
}
102
{ACAD_REACTORS
330
C3
102
}
330
C3
100
AcDbVisualStyle
  2
Shaded
 70
    27
177
     2
291
     0
 71
     2
176
     1
 72
     2
176
     1
 73
     1
176
     1
 90
        2
176
     1
 40
0.6
176
     1
 41
30.0
176
     1
 63
     7
421
 16777215
176
     1
 74
     0
176
     1
 91
        4
176
     1
 64
     7
176
     1
 65
   257
176
     1
 75
     1
176
     1
175
     1
176
     1
 42
1.0
176
     1
 92
        8
176
     1
 66
   257
176
     1
 43
1.0
176
     1
 76
     1
176
     1
 77
     6
176
     1
 78
     2
176
     1
 67
     8
425
  7895160
176
     1
 79
     3
176
     1
170
     0
176
     1
171
     0
176
     1
290
     0
176
     1
 93
        5
176
     1
 44
0.0
176
     1
173
     0
176
     1
1001
ACAD
1000
AcDbSavedByObjectVersion
1070
     0
  0
VISUALSTYLE
  5
D7
102
{ACAD_XDICTIONARY
360
189
102
}
102
{ACAD_REACTORS
330
C3
102
}
330
C3
100
AcDbVisualStyle
  2
Shaded with edges
 70
    26
177
     2
291
     0
 71
     2
176
     1
 72
     2
176
     1
 73
     1
176
     1
 90
        2
176
     1
 40
0.6
176
     1
 41
30.0
176
     1
 63
     7
421
 16777215
176
     1
 74
     1
176
     1
 91
       10
176
     1
 64
     7
176
     1
 65
   257
176
     1
 75
     2
176
     1
175
     1
176
     1
 42
1.0
176
     1
 92
        8
176
     1
 66
   257
176
     1
 43
1.0
176
     1
 76
     1
176
     1
 77
     6
176
     1
 78
     2
176
     1
 67
     7
176
     1
 79
     3
176
     1
170
     0
176
     1
171
     0
176
     1
290
     0
176
     1
 93
        5
176
     1
 44
0.0
176
     1
173
     0
176
     1
1001
ACAD
1000
AcDbSavedByObjectVersion
1070
     0
  0
VISUALSTYLE
  5
D4
102
{ACAD_XDICTIONARY
360
183
102
}
102
{ACAD_REACTORS
330
C3
102
}
330
C3
100
AcDbVisualStyle
  2
Shades of Gray
 70
    23
177
     2
291
     0
 71
     2
176
     1
 72
     2
176
     1
 73
     3
176
     1
 90
        0
176
     1
 40
0.6
176
     1
 41
30.0
176
     1
 63
     7
421
 16777215
176
     1
 74
     2
176
     1
 91
        2
176
     1
 64
     7
176
     1
 65
     7
176
     1
 75
     1
176
     1
175
     1
176
     1
 42
40.0
176
     1
 92
        8
176
     1
 66
     7
176
     1
 43
1.0
176
     1
 76
     1
176
     1
 77
     6
176
     1
 78
     2
176
     1
 67
     7
176
     1
 79
     3
176
     1
170
     0
176
     1
171
     0
176
     1
290
     0
176
     1
 93
        1
176
     1
 44
0.0
176
     1
173
     0
176
     1
1001
ACAD
1000
AcDbSavedByObjectVersion
1070
     0
  0
VISUALSTYLE
  5
D5
102
{ACAD_XDICTIONARY
360
185
102
}
102
{ACAD_REACTORS
330
C3
102
}
330
C3
100
AcDbVisualStyle
  2
Sketchy
 70
    24
177
     2
291
     0
 71
     1
176
     1
 72
     2
176
     1
 73
     2
176
     1
 90
        0
176
     1
 40
0.6
176
     1
 41
30.0
176
     1
 63
     7
421
 16777215
176
     1
 74
     2
176
     1
 91
        2
176
     1
 64
     7
176
     1
 65
     7
176
     1
 75
     1
176
     1
175
     1
176
     1
 42
40.0
176
     1
 92
       11
176
     1
 66
     7
176
     1
 43
1.0
176
     1
 76
     1
176
     1
 77
     6
176
     1
 78
     2
176
     1
 67
     7
176
     1
 79
     6
176
     1
170
     0
176
     1
171
     0
176
     1
290
     0
176
     1
 93
        1
176
     1
 44
0.0
176
     1
173
     0
176
     1
1001
ACAD
1000
AcDbSavedByObjectVersion
1070
     0
  0
VISUALSTYLE
  5
D0
102
{ACAD_XDICTIONARY
360
17B
102
}
102
{ACAD_REACTORS
330
C3
102
}
330
C3
100
AcDbVisualStyle
  2
Thicken
 70
    13
177
     2
291
     1
 71
     2
176
     1
 72
     2
176
     1
 73
     0
176
     1
 90
        0
176
     1
 40
0.6
176
     1
 41
30.0
176
     1
 63
     7
421
 16777215
176
     1
 74
     1
176
     1
 91
        4
176
     1
 64
     7
176
     1
 65
   257
176
     1
 75
     1
176
     1
175
     1
176
     1
 42
1.0
176
     1
 92
       12
176
     1
 66
     7
176
     1
 43
1.0
176
     1
 76
     1
176
     1
 77
     6
176
     1
 78
     2
176
     1
 67
     7
176
     1
 79
     5
176
     1
170
     0
176
     1
171
     0
176
     1
290
     0
176
     1
 93
        1
176
     1
 44
0.0
176
     1
173
     0
176
     1
1001
ACAD
1000
AcDbSavedByObjectVersion
1070
     0
  0
VISUALSTYLE
  5
CA
102
{ACAD_XDICTIONARY
360
16F
102
}
102
{ACAD_REACTORS
330
C3
102
}
330
C3
100
AcDbVisualStyle
  2
Wireframe
 70
     5
177
     2
291
     0
 71
     0
176
     1
 72
     2
176
     1
 73
     0
176
     1
 90
        0
176
     1
 40
0.6
176
     1
 41
30.0
176
     1
 63
     7
421
 16777215
176
     1
 74
     1
176
     1
 91
        4
176
     1
 64
     7
176
     1
 65
   257
176
     1
 75
     1
176
     1
175
     1
176
     1
 42
1.0
176
     1
 92
        0
176
     1
 66
   257
176
     1
 43
1.0
176
     1
 76
     1
176
     1
 77
     6
176
     1
 78
     2
176
     1
 67
     7
176
     1
 79
     3
176
     1
170
     0
176
     1
171
     0
176
     1
290
     0
176
     1
 93
        1
176
     1
 44
0.0
176
     1
173
     0
176
     1
1001
ACAD
1000
AcDbSavedByObjectVersion
1070
     0
  0
VISUALSTYLE
  5
D6
102
{ACAD_XDICTIONARY
360
187
102
}
102
{ACAD_REACTORS
330
C3
102
}
330
C3
100
AcDbVisualStyle
  2
X-Ray
 70
    25
177
     2
291
     0
 71
     2
176
     1
 72
     2
176
     1
 73
     1
176
     1
 90
        1
176
     1
 40
0.5
176
     1
 41
30.0
176
     1
 63
     7
421
 16777215
176
     1
 74
     1
176
     1
 91
        0
176
     1
 64
     7
176
     1
 65
   257
176
     1
 75
     1
176
     1
175
     1
176
     1
 42
1.0
176
     1
 92
        8
176
     1
 66
     7
176
     1
 43
1.0
176
     1
 76
     1
176
     1
 77
     6
176
     1
 78
     2
176
     1
 67
     7
176
     1
 79
     3
176
     1
170
     0
176
     1
171
     0
176
     1
290
     0
176
     1
 93
       13
176
     1
 44
0.0
176
     1
173
     0
176
     1
1001
ACAD
1000
AcDbSavedByObjectVersion
1070
     0
  0
DICTIONARYVAR
  5
15C
102
{ACAD_REACTORS
330
156
102
}
330
156
100
DictionaryVariables
280
     0
  1
1:1
  0
DICTIONARYVAR
  5
158
102
{ACAD_REACTORS
330
156
102
}
330
156
100
DictionaryVariables
280
     0
  1
STANDARD
  0
DICTIONARYVAR
  5
157
102
{ACAD_REACTORS
330
156
102
}
330
156
100
DictionaryVariables
280
     0
  1
STANDARD
  0
DICTIONARYVAR
  5
159
102
{ACAD_REACTORS
330
156
102
}
330
156
100
DictionaryVariables
280
     0
  1
Imperial24
  0
DICTIONARYVAR
  5
15A
102
{ACAD_REACTORS
330
156
102
}
330
156
100
DictionaryVariables
280
     0
  1
Imperial24
  0
DICTIONARYVAR
  5
15E
102
{ACAD_REACTORS
330
156
102
}
330
156
100
DictionaryVariables
280
     0
  1
1
  0
DICTIONARYVAR
  5
15F
102
{ACAD_REACTORS
330
156
102
}
330
156
100
DictionaryVariables
280
     0
  1
15
  0
DICTIONARYVAR
  5
15D
102
{ACAD_REACTORS
330
156
102
}
330
156
100
DictionaryVariables
280
     0
  1
0
  0
DICTIONARYVAR
  5
15B
102
{ACAD_REACTORS
330
156
102
}
330
156
100
DictionaryVariables
280
     0
  1
0
  0
DICTIONARY
  5
197
330
F6
100
AcDbDictionary
280
     1
281
     1
  3
ACAD_XREC_ROUNDTRIP
360
198
  0
DICTIONARY
  5
B4
330
B3
100
AcDbDictionary
280
     1
281
     1
  3
BUMPTILE
360
B6
  3
DIFFUSETILE
360
B5
  3
OPACITYTILE
360
B9
  3
REFLECTIONTILE
360
B8
  3
REFRACTIONTILE
360
BA
  3
SPECULARTILE
360
B7
  0
DICTIONARY
  5
AC
330
AB
100
AcDbDictionary
280
     1
281
     1
  3
BUMPTILE
360
AE
  3
DIFFUSETILE
360
AD
  3
OPACITYTILE
360
B1
  3
REFLECTIONTILE
360
B0
  3
REFRACTIONTILE
360
B2
  3
SPECULARTILE
360
AF
  0
DICTIONARY
  5
BC
330
BB
100
AcDbDictionary
280
     1
281
     1
  3
BUMPTILE
360
BE
  3
DIFFUSETILE
360
BD
  3
OPACITYTILE
360
C1
  3
REFLECTIONTILE
360
C0
  3
REFRACTIONTILE
360
C2
  3
SPECULARTILE
360
BF
  0
DICTIONARY
  5
193
330
F2
100
AcDbDictionary
280
     1
281
     1
  3
ACAD_XREC_ROUNDTRIP
360
194
  0
DICTIONARY
  5
195
330
F4
100
AcDbDictionary
280
     1
281
     1
  3
ACAD_XREC_ROUNDTRIP
360
196
  0
DICTIONARY
  5
160
330
DE
100
AcDbDictionary
280
     1
281
     1
  3
ACAD_ROUNDTRIP_2008_TABLESTYLE_CELLSTYLEMAP
360
161
  0
DICTIONARY
  5
16D
330
C9
100
AcDbDictionary
280
     1
281
     1
  3
ACAD_XREC_ROUNDTRIP
360
16E
  0
DICTIONARY
  5
16B
330
C8
100
AcDbDictionary
280
     1
281
     1
  3
ACAD_XREC_ROUNDTRIP
360
16C
  0
DICTIONARY
  5
179
330
CF
100
AcDbDictionary
280
     1
281
     1
  3
ACAD_XREC_ROUNDTRIP
360
17A
  0
DICTIONARY
  5
181
330
D3
100
AcDbDictionary
280
     1
281
     1
  3
ACAD_XREC_ROUNDTRIP
360
182
  0
DICTIONARY
  5
173
330
CC
100
AcDbDictionary
280
     1
281
     1
  3
ACAD_XREC_ROUNDTRIP
360
174
  0
DICTIONARY
  5
177
330
CE
100
AcDbDictionary
280
     1
281
     1
  3
ACAD_XREC_ROUNDTRIP
360
178
  0
DICTIONARY
  5
191
330
DB
100
AcDbDictionary
280
     1
281
     1
  3
ACAD_XREC_ROUNDTRIP
360
192
  0
DICTIONARY
  5
17F
330
D2
100
AcDbDictionary
280
     1
281
     1
  3
ACAD_XREC_ROUNDTRIP
360
180
  0
DICTIONARY
  5
163
330
C4
100
AcDbDictionary
280
     1
281
     1
  3
ACAD_XREC_ROUNDTRIP
360
164
  0
DICTIONARY
  5
165
330
C5
100
AcDbDictionary
280
     1
281
     1
  3
ACAD_XREC_ROUNDTRIP
360
166
  0
DICTIONARY
  5
167
330
C6
100
AcDbDictionary
280
     1
281
     1
  3
ACAD_XREC_ROUNDTRIP
360
168
  0
DICTIONARY
  5
169
330
C7
100
AcDbDictionary
280
     1
281
     1
  3
ACAD_XREC_ROUNDTRIP
360
16A
  0
DICTIONARY
  5
171
330
CB
100
AcDbDictionary
280
     1
281
     1
  3
ACAD_XREC_ROUNDTRIP
360
172
  0
DICTIONARY
  5
18D
330
D9
100
AcDbDictionary
280
     1
281
     1
  3
ACAD_XREC_ROUNDTRIP
360
18E
  0
DICTIONARY
  5
17D
330
D1
100
AcDbDictionary
280
     1
281
     1
  3
ACAD_XREC_ROUNDTRIP
360
17E
  0
DICTIONARY
  5
18F
330
DA
100
AcDbDictionary
280
     1
281
     1
  3
ACAD_XREC_ROUNDTRIP
360
190
  0
DICTIONARY
  5
175
330
CD
100
AcDbDictionary
280
     1
281
     1
  3
ACAD_XREC_ROUNDTRIP
360
176
  0
DICTIONARY
  5
18B
330
D8
100
AcDbDictionary
280
     1
281
     1
  3
ACAD_XREC_ROUNDTRIP
360
18C
  0
DICTIONARY
  5
189
330
D7
100
AcDbDictionary
280
     1
281
     1
  3
ACAD_XREC_ROUNDTRIP
360
18A
  0
DICTIONARY
  5
183
330
D4
100
AcDbDictionary
280
     1
281
     1
  3
ACAD_XREC_ROUNDTRIP
360
184
  0
DICTIONARY
  5
185
330
D5
100
AcDbDictionary
280
     1
281
     1
  3
ACAD_XREC_ROUNDTRIP
360
186
  0
DICTIONARY
  5
17B
330
D0
100
AcDbDictionary
280
     1
281
     1
  3
ACAD_XREC_ROUNDTRIP
360
17C
  0
DICTIONARY
  5
16F
330
CA
100
AcDbDictionary
280
     1
281
     1
  3
ACAD_XREC_ROUNDTRIP
360
170
  0
DICTIONARY
  5
187
330
D6
100
AcDbDictionary
280
     1
281
     1
  3
ACAD_XREC_ROUNDTRIP
360
188
  0
XRECORD
  5
198
102
{ACAD_REACTORS
330
197
102
}
330
197
100
AcDbXrecord
280
     1
102
DISPLAYNAME
  1
Imperial24
102
FLAGS
 90
        0
  0
XRECORD
  5
B6
102
{ACAD_REACTORS
330
B4
102
}
330
B4
100
AcDbXrecord
280
     1
270
     1
271
     1
  0
XRECORD
  5
B5
102
{ACAD_REACTORS
330
B4
102
}
330
B4
100
AcDbXrecord
280
     1
270
     1
271
     1
  0
XRECORD
  5
B9
102
{ACAD_REACTORS
330
B4
102
}
330
B4
100
AcDbXrecord
280
     1
270
     1
271
     1
  0
XRECORD
  5
B8
102
{ACAD_REACTORS
330
B4
102
}
330
B4
100
AcDbXrecord
280
     1
270
     1
271
     1
  0
XRECORD
  5
BA
102
{ACAD_REACTORS
330
B4
102
}
330
B4
100
AcDbXrecord
280
     1
270
     1
271
     1
  0
XRECORD
  5
B7
102
{ACAD_REACTORS
330
B4
102
}
330
B4
100
AcDbXrecord
280
     1
270
     1
271
     1
  0
XRECORD
  5
AE
102
{ACAD_REACTORS
330
AC
102
}
330
AC
100
AcDbXrecord
280
     1
270
     1
271
     1
  0
XRECORD
  5
AD
102
{ACAD_REACTORS
330
AC
102
}
330
AC
100
AcDbXrecord
280
     1
270
     1
271
     1
  0
XRECORD
  5
B1
102
{ACAD_REACTORS
330
AC
102
}
330
AC
100
AcDbXrecord
280
     1
270
     1
271
     1
  0
XRECORD
  5
B0
102
{ACAD_REACTORS
330
AC
102
}
330
AC
100
AcDbXrecord
280
     1
270
     1
271
     1
  0
XRECORD
  5
B2
102
{ACAD_REACTORS
330
AC
102
}
330
AC
100
AcDbXrecord
280
     1
270
     1
271
     1
  0
XRECORD
  5
AF
102
{ACAD_REACTORS
330
AC
102
}
330
AC
100
AcDbXrecord
280
     1
270
     1
271
     1
  0
XRECORD
  5
BE
102
{ACAD_REACTORS
330
BC
102
}
330
BC
100
AcDbXrecord
280
     1
270
     1
271
     1
  0
XRECORD
  5
BD
102
{ACAD_REACTORS
330
BC
102
}
330
BC
100
AcDbXrecord
280
     1
270
     1
271
     1
  0
XRECORD
  5
C1
102
{ACAD_REACTORS
330
BC
102
}
330
BC
100
AcDbXrecord
280
     1
270
     1
271
     1
  0
XRECORD
  5
C0
102
{ACAD_REACTORS
330
BC
102
}
330
BC
100
AcDbXrecord
280
     1
270
     1
271
     1
  0
XRECORD
  5
C2
102
{ACAD_REACTORS
330
BC
102
}
330
BC
100
AcDbXrecord
280
     1
270
     1
271
     1
  0
XRECORD
  5
BF
102
{ACAD_REACTORS
330
BC
102
}
330
BC
100
AcDbXrecord
280
     1
270
     1
271
     1
  0
XRECORD
  5
194
102
{ACAD_REACTORS
330
193
102
}
330
193
100
AcDbXrecord
280
     1
102
ACAD_ROUNDTRIP_2012_MLEADER_STYLE
298
     1
  0
XRECORD
  5
196
102
{ACAD_REACTORS
330
195
102
}
330
195
100
AcDbXrecord
280
     1
102
DISPLAYNAME
  1
Imperial24
102
FLAGS
 90
        0
  0
CELLSTYLEMAP
  5
161
102
{ACAD_REACTORS
330
160
102
}
330
160
100
AcDbCellStyleMap
 90
        3
300
CELLSTYLE
  1
TABLEFORMAT_BEGIN
 90
        5
170
     1
 91
        0
 92
    32768
 62
   257
 93
        1
300
CONTENTFORMAT
  1
CONTENTFORMAT_BEGIN
 90
        0
 91
        0
 92
      512
 93
        0
300

 40
0.0
140
1.0
 94
        5
 62
     0
340
11
144
0.25
309
CONTENTFORMAT_END
171
     0
 94
        0
309
TABLEFORMAT_END
  1
CELLSTYLE_BEGIN
 90
        1
 91
        1
300
_TITLE
309
CELLSTYLE_END
300
CELLSTYLE
  1
TABLEFORMAT_BEGIN
 90
        5
170
     1
 91
        0
 92
        0
 62
   257
 93
        1
300
CONTENTFORMAT
  1
CONTENTFORMAT_BEGIN
 90
        0
 91
        0
 92
      512
 93
        0
300

 40
0.0
140
1.0
 94
        5
 62
     0
340
11
144
0.18
309
CONTENTFORMAT_END
171
     0
 94
        0
309
TABLEFORMAT_END
  1
CELLSTYLE_BEGIN
 90
        2
 91
        1
300
_HEADER
309
CELLSTYLE_END
300
CELLSTYLE
  1
TABLEFORMAT_BEGIN
 90
        5
170
     1
 91
        0
 92
        0
 62
   257
 93
        1
300
CONTENTFORMAT
  1
CONTENTFORMAT_BEGIN
 90
        0
 91
        0
 92
      512
 93
        0
300

 40
0.0
140
1.0
 94
        2
 62
     0
340
11
144
0.18
309
CONTENTFORMAT_END
171
     0
 94
        0
309
TABLEFORMAT_END
  1
CELLSTYLE_BEGIN
 90
        3
 91
        2
300
_DATA
309
CELLSTYLE_END
  0
XRECORD
  5
16E
102
{ACAD_REACTORS
330
16D
102
}
330
16D
100
AcDbXrecord
280
     1
102
RTVSPost2010Prop28
280
     1
102
RTVSPost2010PropOp28
 70
     1
102
RTVSPost2010Prop29
280
     1
102
RTVSPost2010PropOp29
 70
     1
102
RTVSPost2010Prop30
280
     0
102
RTVSPost2010PropOp30
 70
     1
102
RTVSPost2010Prop31
280
     0
102
RTVSPost2010PropOp31
 70
     1
102
RTVSPost2010Prop32
280
     0
102
RTVSPost2010PropOp32
 70
     1
102
RTVSPost2010Prop33
280
     0
102
RTVSPost2010PropOp33
 70
     1
102
RTVSPost2010Prop34
280
     0
102
RTVSPost2010PropOp34
 70
     1
102
RTVSPost2010Prop35
280
     0
102
RTVSPost2010PropOp35
 70
     1
102
RTVSPost2010Prop36
280
     0
102
RTVSPost2010PropOp36
 70
     1
102
RTVSPost2010Prop37
 90
       50
102
RTVSPost2010PropOp37
 70
     1
102
RTVSPost2010Prop38
140
0.0
102
RTVSPost2010PropOp38
 70
     1
102
RTVSPost2010Prop39
140
1.0
102
RTVSPost2010PropOp39
 70
     1
102
RTVSPost2010Prop40
 90
        0
102
RTVSPost2010PropOp40
 70
     1
102
RTVSPost2010Prop41ColorIndex
 90
       18
102
RTVSPost2010Prop41ColorRGB
 90
        0
102
RTVSPost2010PropOp41
 70
     1
102
RTVSPost2010Prop42
 90
       50
102
RTVSPost2010PropOp42
 70
     1
102
RTVSPost2010Prop43
 90
        3
102
RTVSPost2010PropOp43
 70
     1
102
RTVSPost2010Prop44ColorIndex
 90
        5
102
RTVSPost2010Prop44ColorRGB
 90
      255
102
RTVSPost2010PropOp44
 70
     1
102
RTVSPost2010Prop45
280
     0
102
RTVSPost2010PropOp45
 70
     1
102
RTVSPost2010Prop46
 90
       50
102
RTVSPost2010PropOp46
 70
     1
102
RTVSPost2010Prop47
 90
       50
102
RTVSPost2010PropOp47
 70
     1
102
RTVSPost2010Prop48
 90
       50
102
RTVSPost2010PropOp48
 70
     1
102
RTVSPost2010Prop49
280
     0
102
RTVSPost2010PropOp49
 70
     1
102
RTVSPost2010Prop50
 90
       50
102
RTVSPost2010PropOp50
 70
     1
102
RTVSPost2010Prop51ColorIndex
 90
      256
102
RTVSPost2010Prop51ColorRGB
 90
-16777216
102
RTVSPost2010PropOp51
 70
     0
102
RTVSPost2010Prop52
140
1.0
102
RTVSPost2010PropOp52
 70
     0
102
RTVSPost2010Prop53
 90
        2
102
RTVSPost2010PropOp53
 70
     1
102
RTVSPost2010Prop54
  1
strokes_ogs.tif
102
RTVSPost2010PropOp54
 70
     1
102
RTVSPost2010Prop55
280
     0
102
RTVSPost2010PropOp55
 70
     1
102
RTVSPost2010Prop56
140
1.0
102
RTVSPost2010PropOp56
 70
     1
102
RTVSPost2010Prop57
140
1.0
102
RTVSPost2010PropOp57
 70
     1
  0
XRECORD
  5
16C
102
{ACAD_REACTORS
330
16B
102
}
330
16B
100
AcDbXrecord
280
     1
102
RTVSPost2010Prop28
280
     0
102
RTVSPost2010PropOp28
 70
     1
102
RTVSPost2010Prop29
280
     1
102
RTVSPost2010PropOp29
 70
     1
102
RTVSPost2010Prop30
280
     1
102
RTVSPost2010PropOp30
 70
     1
102
RTVSPost2010Prop31
280
     0
102
RTVSPost2010PropOp31
 70
     1
102
RTVSPost2010Prop32
280
     0
102
RTVSPost2010PropOp32
 70
     1
102
RTVSPost2010Prop33
280
     0
102
RTVSPost2010PropOp33
 70
     1
102
RTVSPost2010Prop34
280
     0
102
RTVSPost2010PropOp34
 70
     1
102
RTVSPost2010Prop35
280
     0
102
RTVSPost2010PropOp35
 70
     1
102
RTVSPost2010Prop36
280
     0
102
RTVSPost2010PropOp36
 70
     1
102
RTVSPost2010Prop37
 90
       50
102
RTVSPost2010PropOp37
 70
     1
102
RTVSPost2010Prop38
140
0.0
102
RTVSPost2010PropOp38
 70
     1
102
RTVSPost2010Prop39
140
1.0
102
RTVSPost2010PropOp39
 70
     1
102
RTVSPost2010Prop40
 90
        0
102
RTVSPost2010PropOp40
 70
     1
102
RTVSPost2010Prop41ColorIndex
 90
       18
102
RTVSPost2010Prop41ColorRGB
 90
        0
102
RTVSPost2010PropOp41
 70
     1
102
RTVSPost2010Prop42
 90
       50
102
RTVSPost2010PropOp42
 70
     1
102
RTVSPost2010Prop43
 90
        3
102
RTVSPost2010PropOp43
 70
     1
102
RTVSPost2010Prop44ColorIndex
 90
        5
102
RTVSPost2010Prop44ColorRGB
 90
      255
102
RTVSPost2010PropOp44
 70
     1
102
RTVSPost2010Prop45
280
     0
102
RTVSPost2010PropOp45
 70
     1
102
RTVSPost2010Prop46
 90
       50
102
RTVSPost2010PropOp46
 70
     1
102
RTVSPost2010Prop47
 90
       50
102
RTVSPost2010PropOp47
 70
     1
102
RTVSPost2010Prop48
 90
       50
102
RTVSPost2010PropOp48
 70
     1
102
RTVSPost2010Prop49
280
     0
102
RTVSPost2010PropOp49
 70
     1
102
RTVSPost2010Prop50
 90
       50
102
RTVSPost2010PropOp50
 70
     1
102
RTVSPost2010Prop51ColorIndex
 90
      256
102
RTVSPost2010Prop51ColorRGB
 90
-16777216
102
RTVSPost2010PropOp51
 70
     0
102
RTVSPost2010Prop52
140
1.0
102
RTVSPost2010PropOp52
 70
     0
102
RTVSPost2010Prop53
 90
        2
102
RTVSPost2010PropOp53
 70
     1
102
RTVSPost2010Prop54
  1
strokes_ogs.tif
102
RTVSPost2010PropOp54
 70
     1
102
RTVSPost2010Prop55
280
     0
102
RTVSPost2010PropOp55
 70
     1
102
RTVSPost2010Prop56
140
1.0
102
RTVSPost2010PropOp56
 70
     1
102
RTVSPost2010Prop57
140
1.0
102
RTVSPost2010PropOp57
 70
     1
  0
XRECORD
  5
17A
102
{ACAD_REACTORS
330
179
102
}
330
179
100
AcDbXrecord
280
     1
102
RTVSPost2010Prop28
280
     0
102
RTVSPost2010PropOp28
 70
     1
102
RTVSPost2010Prop29
280
     1
102
RTVSPost2010PropOp29
 70
     1
102
RTVSPost2010Prop30
280
     1
102
RTVSPost2010PropOp30
 70
     1
102
RTVSPost2010Prop31
280
     0
102
RTVSPost2010PropOp31
 70
     1
102
RTVSPost2010Prop32
280
     0
102
RTVSPost2010PropOp32
 70
     1
102
RTVSPost2010Prop33
280
     0
102
RTVSPost2010PropOp33
 70
     1
102
RTVSPost2010Prop34
280
     0
102
RTVSPost2010PropOp34
 70
     1
102
RTVSPost2010Prop35
280
     0
102
RTVSPost2010PropOp35
 70
     1
102
RTVSPost2010Prop36
280
     0
102
RTVSPost2010PropOp36
 70
     1
102
RTVSPost2010Prop37
 90
       50
102
RTVSPost2010PropOp37
 70
     1
102
RTVSPost2010Prop38
140
0.0
102
RTVSPost2010PropOp38
 70
     1
102
RTVSPost2010Prop39
140
1.0
102
RTVSPost2010PropOp39
 70
     1
102
RTVSPost2010Prop40
 90
        0
102
RTVSPost2010PropOp40
 70
     1
102
RTVSPost2010Prop41ColorIndex
 90
       18
102
RTVSPost2010Prop41ColorRGB
 90
        0
102
RTVSPost2010PropOp41
 70
     1
102
RTVSPost2010Prop42
 90
       50
102
RTVSPost2010PropOp42
 70
     1
102
RTVSPost2010Prop43
 90
        3
102
RTVSPost2010PropOp43
 70
     1
102
RTVSPost2010Prop44ColorIndex
 90
        5
102
RTVSPost2010Prop44ColorRGB
 90
      255
102
RTVSPost2010PropOp44
 70
     1
102
RTVSPost2010Prop45
280
     0
102
RTVSPost2010PropOp45
 70
     1
102
RTVSPost2010Prop46
 90
       50
102
RTVSPost2010PropOp46
 70
     1
102
RTVSPost2010Prop47
 90
       50
102
RTVSPost2010PropOp47
 70
     1
102
RTVSPost2010Prop48
 90
       50
102
RTVSPost2010PropOp48
 70
     1
102
RTVSPost2010Prop49
280
     0
102
RTVSPost2010PropOp49
 70
     1
102
RTVSPost2010Prop50
 90
       50
102
RTVSPost2010PropOp50
 70
     1
102
RTVSPost2010Prop51ColorIndex
 90
      256
102
RTVSPost2010Prop51ColorRGB
 90
-16777216
102
RTVSPost2010PropOp51
 70
     0
102
RTVSPost2010Prop52
140
1.0
102
RTVSPost2010PropOp52
 70
     0
102
RTVSPost2010Prop53
 90
        2
102
RTVSPost2010PropOp53
 70
     1
102
RTVSPost2010Prop54
  1
strokes_ogs.tif
102
RTVSPost2010PropOp54
 70
     1
102
RTVSPost2010Prop55
280
     0
102
RTVSPost2010PropOp55
 70
     1
102
RTVSPost2010Prop56
140
1.0
102
RTVSPost2010PropOp56
 70
     1
102
RTVSPost2010Prop57
140
1.0
102
RTVSPost2010PropOp57
 70
     1
  0
XRECORD
  5
182
102
{ACAD_REACTORS
330
181
102
}
330
181
100
AcDbXrecord
280
     1
102
RTVSPost2010Prop28
280
     0
102
RTVSPost2010PropOp28
 70
     1
102
RTVSPost2010Prop29
280
     1
102
RTVSPost2010PropOp29
 70
     1
102
RTVSPost2010Prop30
280
     1
102
RTVSPost2010PropOp30
 70
     1
102
RTVSPost2010Prop31
280
     0
102
RTVSPost2010PropOp31
 70
     1
102
RTVSPost2010Prop32
280
     0
102
RTVSPost2010PropOp32
 70
     1
102
RTVSPost2010Prop33
280
     0
102
RTVSPost2010PropOp33
 70
     1
102
RTVSPost2010Prop34
280
     0
102
RTVSPost2010PropOp34
 70
     1
102
RTVSPost2010Prop35
280
     0
102
RTVSPost2010PropOp35
 70
     1
102
RTVSPost2010Prop36
280
     0
102
RTVSPost2010PropOp36
 70
     1
102
RTVSPost2010Prop37
 90
       50
102
RTVSPost2010PropOp37
 70
     1
102
RTVSPost2010Prop38
140
0.0
102
RTVSPost2010PropOp38
 70
     1
102
RTVSPost2010Prop39
140
1.0
102
RTVSPost2010PropOp39
 70
     1
102
RTVSPost2010Prop40
 90
        0
102
RTVSPost2010PropOp40
 70
     1
102
RTVSPost2010Prop41ColorIndex
 90
       18
102
RTVSPost2010Prop41ColorRGB
 90
        0
102
RTVSPost2010PropOp41
 70
     1
102
RTVSPost2010Prop42
 90
       50
102
RTVSPost2010PropOp42
 70
     1
102
RTVSPost2010Prop43
 90
        3
102
RTVSPost2010PropOp43
 70
     1
102
RTVSPost2010Prop44ColorIndex
 90
        5
102
RTVSPost2010Prop44ColorRGB
 90
      255
102
RTVSPost2010PropOp44
 70
     1
102
RTVSPost2010Prop45
280
     0
102
RTVSPost2010PropOp45
 70
     1
102
RTVSPost2010Prop46
 90
       50
102
RTVSPost2010PropOp46
 70
     1
102
RTVSPost2010Prop47
 90
       50
102
RTVSPost2010PropOp47
 70
     1
102
RTVSPost2010Prop48
 90
       50
102
RTVSPost2010PropOp48
 70
     1
102
RTVSPost2010Prop49
280
     0
102
RTVSPost2010PropOp49
 70
     1
102
RTVSPost2010Prop50
 90
       50
102
RTVSPost2010PropOp50
 70
     1
102
RTVSPost2010Prop51ColorIndex
 90
      256
102
RTVSPost2010Prop51ColorRGB
 90
-16777216
102
RTVSPost2010PropOp51
 70
     0
102
RTVSPost2010Prop52
140
1.0
102
RTVSPost2010PropOp52
 70
     0
102
RTVSPost2010Prop53
 90
        2
102
RTVSPost2010PropOp53
 70
     1
102
RTVSPost2010Prop54
  1
strokes_ogs.tif
102
RTVSPost2010PropOp54
 70
     1
102
RTVSPost2010Prop55
280
     0
102
RTVSPost2010PropOp55
 70
     1
102
RTVSPost2010Prop56
140
1.0
102
RTVSPost2010PropOp56
 70
     1
102
RTVSPost2010Prop57
140
1.0
102
RTVSPost2010PropOp57
 70
     1
  0
XRECORD
  5
174
102
{ACAD_REACTORS
330
173
102
}
330
173
100
AcDbXrecord
280
     1
102
RTVSPost2010Prop28
280
     0
102
RTVSPost2010PropOp28
 70
     1
102
RTVSPost2010Prop29
280
     1
102
RTVSPost2010PropOp29
 70
     1
102
RTVSPost2010Prop30
280
     1
102
RTVSPost2010PropOp30
 70
     1
102
RTVSPost2010Prop31
280
     0
102
RTVSPost2010PropOp31
 70
     1
102
RTVSPost2010Prop32
280
     0
102
RTVSPost2010PropOp32
 70
     1
102
RTVSPost2010Prop33
280
     0
102
RTVSPost2010PropOp33
 70
     1
102
RTVSPost2010Prop34
280
     0
102
RTVSPost2010PropOp34
 70
     1
102
RTVSPost2010Prop35
280
     0
102
RTVSPost2010PropOp35
 70
     1
102
RTVSPost2010Prop36
280
     0
102
RTVSPost2010PropOp36
 70
     1
102
RTVSPost2010Prop37
 90
       50
102
RTVSPost2010PropOp37
 70
     1
102
RTVSPost2010Prop38
140
0.0
102
RTVSPost2010PropOp38
 70
     1
102
RTVSPost2010Prop39
140
1.0
102
RTVSPost2010PropOp39
 70
     1
102
RTVSPost2010Prop40
 90
        0
102
RTVSPost2010PropOp40
 70
     1
102
RTVSPost2010Prop41ColorIndex
 90
       18
102
RTVSPost2010Prop41ColorRGB
 90
        0
102
RTVSPost2010PropOp41
 70
     1
102
RTVSPost2010Prop42
 90
       50
102
RTVSPost2010PropOp42
 70
     1
102
RTVSPost2010Prop43
 90
        3
102
RTVSPost2010PropOp43
 70
     1
102
RTVSPost2010Prop44ColorIndex
 90
        5
102
RTVSPost2010Prop44ColorRGB
 90
      255
102
RTVSPost2010PropOp44
 70
     1
102
RTVSPost2010Prop45
280
     0
102
RTVSPost2010PropOp45
 70
     1
102
RTVSPost2010Prop46
 90
       50
102
RTVSPost2010PropOp46
 70
     1
102
RTVSPost2010Prop47
 90
       50
102
RTVSPost2010PropOp47
 70
     1
102
RTVSPost2010Prop48
 90
       50
102
RTVSPost2010PropOp48
 70
     1
102
RTVSPost2010Prop49
280
     0
102
RTVSPost2010PropOp49
 70
     1
102
RTVSPost2010Prop50
 90
       50
102
RTVSPost2010PropOp50
 70
     1
102
RTVSPost2010Prop51ColorIndex
 90
      256
102
RTVSPost2010Prop51ColorRGB
 90
-16777216
102
RTVSPost2010PropOp51
 70
     0
102
RTVSPost2010Prop52
140
1.0
102
RTVSPost2010PropOp52
 70
     0
102
RTVSPost2010Prop53
 90
        2
102
RTVSPost2010PropOp53
 70
     1
102
RTVSPost2010Prop54
  1
strokes_ogs.tif
102
RTVSPost2010PropOp54
 70
     1
102
RTVSPost2010Prop55
280
     0
102
RTVSPost2010PropOp55
 70
     1
102
RTVSPost2010Prop56
140
1.0
102
RTVSPost2010PropOp56
 70
     1
102
RTVSPost2010Prop57
140
1.0
102
RTVSPost2010PropOp57
 70
     1
  0
XRECORD
  5
178
102
{ACAD_REACTORS
330
177
102
}
330
177
100
AcDbXrecord
280
     1
102
RTVSPost2010Prop28
280
     0
102
RTVSPost2010PropOp28
 70
     1
102
RTVSPost2010Prop29
280
     1
102
RTVSPost2010PropOp29
 70
     1
102
RTVSPost2010Prop30
280
     1
102
RTVSPost2010PropOp30
 70
     1
102
RTVSPost2010Prop31
280
     0
102
RTVSPost2010PropOp31
 70
     1
102
RTVSPost2010Prop32
280
     0
102
RTVSPost2010PropOp32
 70
     1
102
RTVSPost2010Prop33
280
     0
102
RTVSPost2010PropOp33
 70
     1
102
RTVSPost2010Prop34
280
     0
102
RTVSPost2010PropOp34
 70
     1
102
RTVSPost2010Prop35
280
     0
102
RTVSPost2010PropOp35
 70
     1
102
RTVSPost2010Prop36
280
     0
102
RTVSPost2010PropOp36
 70
     1
102
RTVSPost2010Prop37
 90
       50
102
RTVSPost2010PropOp37
 70
     1
102
RTVSPost2010Prop38
140
0.0
102
RTVSPost2010PropOp38
 70
     1
102
RTVSPost2010Prop39
140
1.0
102
RTVSPost2010PropOp39
 70
     1
102
RTVSPost2010Prop40
 90
        0
102
RTVSPost2010PropOp40
 70
     1
102
RTVSPost2010Prop41ColorIndex
 90
       18
102
RTVSPost2010Prop41ColorRGB
 90
        0
102
RTVSPost2010PropOp41
 70
     1
102
RTVSPost2010Prop42
 90
       50
102
RTVSPost2010PropOp42
 70
     1
102
RTVSPost2010Prop43
 90
        3
102
RTVSPost2010PropOp43
 70
     1
102
RTVSPost2010Prop44ColorIndex
 90
        5
102
RTVSPost2010Prop44ColorRGB
 90
      255
102
RTVSPost2010PropOp44
 70
     1
102
RTVSPost2010Prop45
280
     0
102
RTVSPost2010PropOp45
 70
     1
102
RTVSPost2010Prop46
 90
       50
102
RTVSPost2010PropOp46
 70
     1
102
RTVSPost2010Prop47
 90
       50
102
RTVSPost2010PropOp47
 70
     1
102
RTVSPost2010Prop48
 90
       50
102
RTVSPost2010PropOp48
 70
     1
102
RTVSPost2010Prop49
280
     0
102
RTVSPost2010PropOp49
 70
     1
102
RTVSPost2010Prop50
 90
       50
102
RTVSPost2010PropOp50
 70
     1
102
RTVSPost2010Prop51ColorIndex
 90
      256
102
RTVSPost2010Prop51ColorRGB
 90
-16777216
102
RTVSPost2010PropOp51
 70
     0
102
RTVSPost2010Prop52
140
1.0
102
RTVSPost2010PropOp52
 70
     0
102
RTVSPost2010Prop53
 90
        2
102
RTVSPost2010PropOp53
 70
     1
102
RTVSPost2010Prop54
  1
strokes_ogs.tif
102
RTVSPost2010PropOp54
 70
     1
102
RTVSPost2010Prop55
280
     0
102
RTVSPost2010PropOp55
 70
     1
102
RTVSPost2010Prop56
140
1.0
102
RTVSPost2010PropOp56
 70
     1
102
RTVSPost2010Prop57
140
1.0
102
RTVSPost2010PropOp57
 70
     1
  0
XRECORD
  5
192
102
{ACAD_REACTORS
330
191
102
}
330
191
100
AcDbXrecord
280
     1
102
RTVSPost2010Prop28
280
     0
102
RTVSPost2010PropOp28
 70
     0
102
RTVSPost2010Prop29
280
     1
102
RTVSPost2010PropOp29
 70
     0
102
RTVSPost2010Prop30
280
     1
102
RTVSPost2010PropOp30
 70
     0
102
RTVSPost2010Prop31
280
     0
102
RTVSPost2010PropOp31
 70
     0
102
RTVSPost2010Prop32
280
     0
102
RTVSPost2010PropOp32
 70
     0
102
RTVSPost2010Prop33
280
     0
102
RTVSPost2010PropOp33
 70
     0
102
RTVSPost2010Prop34
280
     0
102
RTVSPost2010PropOp34
 70
     0
102
RTVSPost2010Prop35
280
     0
102
RTVSPost2010PropOp35
 70
     0
102
RTVSPost2010Prop36
280
     0
102
RTVSPost2010PropOp36
 70
     0
102
RTVSPost2010Prop37
 90
       50
102
RTVSPost2010PropOp37
 70
     0
102
RTVSPost2010Prop38
140
0.0
102
RTVSPost2010PropOp38
 70
     0
102
RTVSPost2010Prop39
140
1.0
102
RTVSPost2010PropOp39
 70
     0
102
RTVSPost2010Prop40
 90
        0
102
RTVSPost2010PropOp40
 70
     0
102
RTVSPost2010Prop41ColorIndex
 90
       18
102
RTVSPost2010Prop41ColorRGB
 90
        0
102
RTVSPost2010PropOp41
 70
     0
102
RTVSPost2010Prop42
 90
       50
102
RTVSPost2010PropOp42
 70
     0
102
RTVSPost2010Prop43
 90
        3
102
RTVSPost2010PropOp43
 70
     0
102
RTVSPost2010Prop44ColorIndex
 90
        5
102
RTVSPost2010Prop44ColorRGB
 90
      255
102
RTVSPost2010PropOp44
 70
     0
102
RTVSPost2010Prop45
280
     0
102
RTVSPost2010PropOp45
 70
     0
102
RTVSPost2010Prop46
 90
       50
102
RTVSPost2010PropOp46
 70
     0
102
RTVSPost2010Prop47
 90
       50
102
RTVSPost2010PropOp47
 70
     0
102
RTVSPost2010Prop48
 90
       50
102
RTVSPost2010PropOp48
 70
     0
102
RTVSPost2010Prop49
280
     0
102
RTVSPost2010PropOp49
 70
     0
102
RTVSPost2010Prop50
 90
       50
102
RTVSPost2010PropOp50
 70
     0
102
RTVSPost2010Prop51ColorIndex
 90
      256
102
RTVSPost2010Prop51ColorRGB
 90
-16777216
102
RTVSPost2010PropOp51
 70
     0
102
RTVSPost2010Prop52
140
1.0
102
RTVSPost2010PropOp52
 70
     0
102
RTVSPost2010Prop53
 90
        2
102
RTVSPost2010PropOp53
 70
     0
102
RTVSPost2010Prop54
  1
strokes_ogs.tif
102
RTVSPost2010PropOp54
 70
     0
102
RTVSPost2010Prop55
280
     0
102
RTVSPost2010PropOp55
 70
     0
102
RTVSPost2010Prop56
140
1.0
102
RTVSPost2010PropOp56
 70
     0
102
RTVSPost2010Prop57
140
1.0
102
RTVSPost2010PropOp57
 70
     0
  0
XRECORD
  5
180
102
{ACAD_REACTORS
330
17F
102
}
330
17F
100
AcDbXrecord
280
     1
102
RTVSPost2010Prop28
280
     0
102
RTVSPost2010PropOp28
 70
     1
102
RTVSPost2010Prop29
280
     1
102
RTVSPost2010PropOp29
 70
     1
102
RTVSPost2010Prop30
280
     1
102
RTVSPost2010PropOp30
 70
     1
102
RTVSPost2010Prop31
280
     0
102
RTVSPost2010PropOp31
 70
     1
102
RTVSPost2010Prop32
280
     0
102
RTVSPost2010PropOp32
 70
     1
102
RTVSPost2010Prop33
280
     0
102
RTVSPost2010PropOp33
 70
     1
102
RTVSPost2010Prop34
280
     0
102
RTVSPost2010PropOp34
 70
     1
102
RTVSPost2010Prop35
280
     0
102
RTVSPost2010PropOp35
 70
     1
102
RTVSPost2010Prop36
280
     0
102
RTVSPost2010PropOp36
 70
     1
102
RTVSPost2010Prop37
 90
       50
102
RTVSPost2010PropOp37
 70
     1
102
RTVSPost2010Prop38
140
0.0
102
RTVSPost2010PropOp38
 70
     1
102
RTVSPost2010Prop39
140
1.0
102
RTVSPost2010PropOp39
 70
     1
102
RTVSPost2010Prop40
 90
        0
102
RTVSPost2010PropOp40
 70
     1
102
RTVSPost2010Prop41ColorIndex
 90
       18
102
RTVSPost2010Prop41ColorRGB
 90
        0
102
RTVSPost2010PropOp41
 70
     1
102
RTVSPost2010Prop42
 90
       50
102
RTVSPost2010PropOp42
 70
     1
102
RTVSPost2010Prop43
 90
        3
102
RTVSPost2010PropOp43
 70
     1
102
RTVSPost2010Prop44ColorIndex
 90
        5
102
RTVSPost2010Prop44ColorRGB
 90
      255
102
RTVSPost2010PropOp44
 70
     1
102
RTVSPost2010Prop45
280
     0
102
RTVSPost2010PropOp45
 70
     1
102
RTVSPost2010Prop46
 90
       50
102
RTVSPost2010PropOp46
 70
     1
102
RTVSPost2010Prop47
 90
       50
102
RTVSPost2010PropOp47
 70
     1
102
RTVSPost2010Prop48
 90
       50
102
RTVSPost2010PropOp48
 70
     1
102
RTVSPost2010Prop49
280
     0
102
RTVSPost2010PropOp49
 70
     1
102
RTVSPost2010Prop50
 90
       50
102
RTVSPost2010PropOp50
 70
     1
102
RTVSPost2010Prop51ColorIndex
 90
      256
102
RTVSPost2010Prop51ColorRGB
 90
-16777216
102
RTVSPost2010PropOp51
 70
     0
102
RTVSPost2010Prop52
140
1.0
102
RTVSPost2010PropOp52
 70
     0
102
RTVSPost2010Prop53
 90
        2
102
RTVSPost2010PropOp53
 70
     1
102
RTVSPost2010Prop54
  1
strokes_ogs.tif
102
RTVSPost2010PropOp54
 70
     1
102
RTVSPost2010Prop55
280
     0
102
RTVSPost2010PropOp55
 70
     1
102
RTVSPost2010Prop56
140
1.0
102
RTVSPost2010PropOp56
 70
     1
102
RTVSPost2010Prop57
140
1.0
102
RTVSPost2010PropOp57
 70
     1
  0
XRECORD
  5
164
102
{ACAD_REACTORS
330
163
102
}
330
163
100
AcDbXrecord
280
     1
102
RTVSPost2010Prop28
280
     0
102
RTVSPost2010PropOp28
 70
     1
102
RTVSPost2010Prop29
280
     1
102
RTVSPost2010PropOp29
 70
     1
102
RTVSPost2010Prop30
280
     1
102
RTVSPost2010PropOp30
 70
     1
102
RTVSPost2010Prop31
280
     0
102
RTVSPost2010PropOp31
 70
     1
102
RTVSPost2010Prop32
280
     0
102
RTVSPost2010PropOp32
 70
     1
102
RTVSPost2010Prop33
280
     0
102
RTVSPost2010PropOp33
 70
     1
102
RTVSPost2010Prop34
280
     0
102
RTVSPost2010PropOp34
 70
     1
102
RTVSPost2010Prop35
280
     0
102
RTVSPost2010PropOp35
 70
     1
102
RTVSPost2010Prop36
280
     0
102
RTVSPost2010PropOp36
 70
     1
102
RTVSPost2010Prop37
 90
       50
102
RTVSPost2010PropOp37
 70
     1
102
RTVSPost2010Prop38
140
0.0
102
RTVSPost2010PropOp38
 70
     1
102
RTVSPost2010Prop39
140
1.0
102
RTVSPost2010PropOp39
 70
     1
102
RTVSPost2010Prop40
 90
        0
102
RTVSPost2010PropOp40
 70
     1
102
RTVSPost2010Prop41ColorIndex
 90
       18
102
RTVSPost2010Prop41ColorRGB
 90
        0
102
RTVSPost2010PropOp41
 70
     1
102
RTVSPost2010Prop42
 90
       50
102
RTVSPost2010PropOp42
 70
     1
102
RTVSPost2010Prop43
 90
        3
102
RTVSPost2010PropOp43
 70
     1
102
RTVSPost2010Prop44ColorIndex
 90
        5
102
RTVSPost2010Prop44ColorRGB
 90
      255
102
RTVSPost2010PropOp44
 70
     1
102
RTVSPost2010Prop45
280
     0
102
RTVSPost2010PropOp45
 70
     1
102
RTVSPost2010Prop46
 90
       50
102
RTVSPost2010PropOp46
 70
     1
102
RTVSPost2010Prop47
 90
       50
102
RTVSPost2010PropOp47
 70
     1
102
RTVSPost2010Prop48
 90
       50
102
RTVSPost2010PropOp48
 70
     1
102
RTVSPost2010Prop49
280
     0
102
RTVSPost2010PropOp49
 70
     1
102
RTVSPost2010Prop50
 90
       50
102
RTVSPost2010PropOp50
 70
     1
102
RTVSPost2010Prop51ColorIndex
 90
      256
102
RTVSPost2010Prop51ColorRGB
 90
-16777216
102
RTVSPost2010PropOp51
 70
     0
102
RTVSPost2010Prop52
140
1.0
102
RTVSPost2010PropOp52
 70
     0
102
RTVSPost2010Prop53
 90
        2
102
RTVSPost2010PropOp53
 70
     1
102
RTVSPost2010Prop54
  1
strokes_ogs.tif
102
RTVSPost2010PropOp54
 70
     1
102
RTVSPost2010Prop55
280
     0
102
RTVSPost2010PropOp55
 70
     1
102
RTVSPost2010Prop56
140
1.0
102
RTVSPost2010PropOp56
 70
     1
102
RTVSPost2010Prop57
140
1.0
102
RTVSPost2010PropOp57
 70
     1
  0
XRECORD
  5
166
102
{ACAD_REACTORS
330
165
102
}
330
165
100
AcDbXrecord
280
     1
102
RTVSPost2010Prop28
280
     0
102
RTVSPost2010PropOp28
 70
     1
102
RTVSPost2010Prop29
280
     1
102
RTVSPost2010PropOp29
 70
     1
102
RTVSPost2010Prop30
280
     1
102
RTVSPost2010PropOp30
 70
     1
102
RTVSPost2010Prop31
280
     0
102
RTVSPost2010PropOp31
 70
     1
102
RTVSPost2010Prop32
280
     0
102
RTVSPost2010PropOp32
 70
     1
102
RTVSPost2010Prop33
280
     0
102
RTVSPost2010PropOp33
 70
     1
102
RTVSPost2010Prop34
280
     0
102
RTVSPost2010PropOp34
 70
     1
102
RTVSPost2010Prop35
280
     0
102
RTVSPost2010PropOp35
 70
     1
102
RTVSPost2010Prop36
280
     0
102
RTVSPost2010PropOp36
 70
     1
102
RTVSPost2010Prop37
 90
       50
102
RTVSPost2010PropOp37
 70
     1
102
RTVSPost2010Prop38
140
0.0
102
RTVSPost2010PropOp38
 70
     1
102
RTVSPost2010Prop39
140
1.0
102
RTVSPost2010PropOp39
 70
     1
102
RTVSPost2010Prop40
 90
        0
102
RTVSPost2010PropOp40
 70
     1
102
RTVSPost2010Prop41ColorIndex
 90
       18
102
RTVSPost2010Prop41ColorRGB
 90
        0
102
RTVSPost2010PropOp41
 70
     1
102
RTVSPost2010Prop42
 90
       50
102
RTVSPost2010PropOp42
 70
     1
102
RTVSPost2010Prop43
 90
        3
102
RTVSPost2010PropOp43
 70
     1
102
RTVSPost2010Prop44ColorIndex
 90
        5
102
RTVSPost2010Prop44ColorRGB
 90
      255
102
RTVSPost2010PropOp44
 70
     1
102
RTVSPost2010Prop45
280
     0
102
RTVSPost2010PropOp45
 70
     1
102
RTVSPost2010Prop46
 90
       50
102
RTVSPost2010PropOp46
 70
     1
102
RTVSPost2010Prop47
 90
       50
102
RTVSPost2010PropOp47
 70
     1
102
RTVSPost2010Prop48
 90
       50
102
RTVSPost2010PropOp48
 70
     1
102
RTVSPost2010Prop49
280
     0
102
RTVSPost2010PropOp49
 70
     1
102
RTVSPost2010Prop50
 90
       50
102
RTVSPost2010PropOp50
 70
     1
102
RTVSPost2010Prop51ColorIndex
 90
      256
102
RTVSPost2010Prop51ColorRGB
 90
-16777216
102
RTVSPost2010PropOp51
 70
     0
102
RTVSPost2010Prop52
140
1.0
102
RTVSPost2010PropOp52
 70
     0
102
RTVSPost2010Prop53
 90
        2
102
RTVSPost2010PropOp53
 70
     1
102
RTVSPost2010Prop54
  1
strokes_ogs.tif
102
RTVSPost2010PropOp54
 70
     1
102
RTVSPost2010Prop55
280
     0
102
RTVSPost2010PropOp55
 70
     1
102
RTVSPost2010Prop56
140
1.0
102
RTVSPost2010PropOp56
 70
     1
102
RTVSPost2010Prop57
140
1.0
102
RTVSPost2010PropOp57
 70
     1
  0
XRECORD
  5
168
102
{ACAD_REACTORS
330
167
102
}
330
167
100
AcDbXrecord
280
     1
102
RTVSPost2010Prop28
280
     0
102
RTVSPost2010PropOp28
 70
     1
102
RTVSPost2010Prop29
280
     1
102
RTVSPost2010PropOp29
 70
     1
102
RTVSPost2010Prop30
280
     1
102
RTVSPost2010PropOp30
 70
     1
102
RTVSPost2010Prop31
280
     0
102
RTVSPost2010PropOp31
 70
     1
102
RTVSPost2010Prop32
280
     0
102
RTVSPost2010PropOp32
 70
     1
102
RTVSPost2010Prop33
280
     0
102
RTVSPost2010PropOp33
 70
     1
102
RTVSPost2010Prop34
280
     0
102
RTVSPost2010PropOp34
 70
     1
102
RTVSPost2010Prop35
280
     0
102
RTVSPost2010PropOp35
 70
     1
102
RTVSPost2010Prop36
280
     0
102
RTVSPost2010PropOp36
 70
     1
102
RTVSPost2010Prop37
 90
       50
102
RTVSPost2010PropOp37
 70
     1
102
RTVSPost2010Prop38
140
0.0
102
RTVSPost2010PropOp38
 70
     1
102
RTVSPost2010Prop39
140
1.0
102
RTVSPost2010PropOp39
 70
     1
102
RTVSPost2010Prop40
 90
        0
102
RTVSPost2010PropOp40
 70
     1
102
RTVSPost2010Prop41ColorIndex
 90
       18
102
RTVSPost2010Prop41ColorRGB
 90
        0
102
RTVSPost2010PropOp41
 70
     1
102
RTVSPost2010Prop42
 90
       50
102
RTVSPost2010PropOp42
 70
     1
102
RTVSPost2010Prop43
 90
        3
102
RTVSPost2010PropOp43
 70
     1
102
RTVSPost2010Prop44ColorIndex
 90
        5
102
RTVSPost2010Prop44ColorRGB
 90
      255
102
RTVSPost2010PropOp44
 70
     1
102
RTVSPost2010Prop45
280
     0
102
RTVSPost2010PropOp45
 70
     1
102
RTVSPost2010Prop46
 90
       50
102
RTVSPost2010PropOp46
 70
     1
102
RTVSPost2010Prop47
 90
       50
102
RTVSPost2010PropOp47
 70
     1
102
RTVSPost2010Prop48
 90
       50
102
RTVSPost2010PropOp48
 70
     1
102
RTVSPost2010Prop49
280
     0
102
RTVSPost2010PropOp49
 70
     1
102
RTVSPost2010Prop50
 90
       50
102
RTVSPost2010PropOp50
 70
     1
102
RTVSPost2010Prop51ColorIndex
 90
      256
102
RTVSPost2010Prop51ColorRGB
 90
-16777216
102
RTVSPost2010PropOp51
 70
     0
102
RTVSPost2010Prop52
140
1.0
102
RTVSPost2010PropOp52
 70
     0
102
RTVSPost2010Prop53
 90
        2
102
RTVSPost2010PropOp53
 70
     1
102
RTVSPost2010Prop54
  1
strokes_ogs.tif
102
RTVSPost2010PropOp54
 70
     1
102
RTVSPost2010Prop55
280
     0
102
RTVSPost2010PropOp55
 70
     1
102
RTVSPost2010Prop56
140
1.0
102
RTVSPost2010PropOp56
 70
     1
102
RTVSPost2010Prop57
140
1.0
102
RTVSPost2010PropOp57
 70
     1
  0
XRECORD
  5
16A
102
{ACAD_REACTORS
330
169
102
}
330
169
100
AcDbXrecord
280
     1
102
RTVSPost2010Prop28
280
     0
102
RTVSPost2010PropOp28
 70
     1
102
RTVSPost2010Prop29
280
     1
102
RTVSPost2010PropOp29
 70
     1
102
RTVSPost2010Prop30
280
     1
102
RTVSPost2010PropOp30
 70
     1
102
RTVSPost2010Prop31
280
     0
102
RTVSPost2010PropOp31
 70
     1
102
RTVSPost2010Prop32
280
     0
102
RTVSPost2010PropOp32
 70
     1
102
RTVSPost2010Prop33
280
     0
102
RTVSPost2010PropOp33
 70
     1
102
RTVSPost2010Prop34
280
     0
102
RTVSPost2010PropOp34
 70
     1
102
RTVSPost2010Prop35
280
     0
102
RTVSPost2010PropOp35
 70
     1
102
RTVSPost2010Prop36
280
     0
102
RTVSPost2010PropOp36
 70
     1
102
RTVSPost2010Prop37
 90
       50
102
RTVSPost2010PropOp37
 70
     1
102
RTVSPost2010Prop38
140
0.0
102
RTVSPost2010PropOp38
 70
     1
102
RTVSPost2010Prop39
140
1.0
102
RTVSPost2010PropOp39
 70
     1
102
RTVSPost2010Prop40
 90
        0
102
RTVSPost2010PropOp40
 70
     1
102
RTVSPost2010Prop41ColorIndex
 90
       18
102
RTVSPost2010Prop41ColorRGB
 90
        0
102
RTVSPost2010PropOp41
 70
     1
102
RTVSPost2010Prop42
 90
       50
102
RTVSPost2010PropOp42
 70
     1
102
RTVSPost2010Prop43
 90
        3
102
RTVSPost2010PropOp43
 70
     1
102
RTVSPost2010Prop44ColorIndex
 90
        5
102
RTVSPost2010Prop44ColorRGB
 90
      255
102
RTVSPost2010PropOp44
 70
     1
102
RTVSPost2010Prop45
280
     0
102
RTVSPost2010PropOp45
 70
     1
102
RTVSPost2010Prop46
 90
       50
102
RTVSPost2010PropOp46
 70
     1
102
RTVSPost2010Prop47
 90
       50
102
RTVSPost2010PropOp47
 70
     1
102
RTVSPost2010Prop48
 90
       50
102
RTVSPost2010PropOp48
 70
     1
102
RTVSPost2010Prop49
280
     0
102
RTVSPost2010PropOp49
 70
     1
102
RTVSPost2010Prop50
 90
       50
102
RTVSPost2010PropOp50
 70
     1
102
RTVSPost2010Prop51ColorIndex
 90
      256
102
RTVSPost2010Prop51ColorRGB
 90
-16777216
102
RTVSPost2010PropOp51
 70
     0
102
RTVSPost2010Prop52
140
1.0
102
RTVSPost2010PropOp52
 70
     0
102
RTVSPost2010Prop53
 90
        2
102
RTVSPost2010PropOp53
 70
     1
102
RTVSPost2010Prop54
  1
strokes_ogs.tif
102
RTVSPost2010PropOp54
 70
     1
102
RTVSPost2010Prop55
280
     0
102
RTVSPost2010PropOp55
 70
     1
102
RTVSPost2010Prop56
140
1.0
102
RTVSPost2010PropOp56
 70
     1
102
RTVSPost2010Prop57
140
1.0
102
RTVSPost2010PropOp57
 70
     1
  0
XRECORD
  5
172
102
{ACAD_REACTORS
330
171
102
}
330
171
100
AcDbXrecord
280
     1
102
RTVSPost2010Prop28
280
     0
102
RTVSPost2010PropOp28
 70
     1
102
RTVSPost2010Prop29
280
     1
102
RTVSPost2010PropOp29
 70
     1
102
RTVSPost2010Prop30
280
     1
102
RTVSPost2010PropOp30
 70
     1
102
RTVSPost2010Prop31
280
     0
102
RTVSPost2010PropOp31
 70
     1
102
RTVSPost2010Prop32
280
     0
102
RTVSPost2010PropOp32
 70
     1
102
RTVSPost2010Prop33
280
     0
102
RTVSPost2010PropOp33
 70
     1
102
RTVSPost2010Prop34
280
     0
102
RTVSPost2010PropOp34
 70
     1
102
RTVSPost2010Prop35
280
     0
102
RTVSPost2010PropOp35
 70
     1
102
RTVSPost2010Prop36
280
     0
102
RTVSPost2010PropOp36
 70
     1
102
RTVSPost2010Prop37
 90
       50
102
RTVSPost2010PropOp37
 70
     1
102
RTVSPost2010Prop38
140
0.0
102
RTVSPost2010PropOp38
 70
     1
102
RTVSPost2010Prop39
140
1.0
102
RTVSPost2010PropOp39
 70
     1
102
RTVSPost2010Prop40
 90
        0
102
RTVSPost2010PropOp40
 70
     1
102
RTVSPost2010Prop41ColorIndex
 90
       18
102
RTVSPost2010Prop41ColorRGB
 90
        0
102
RTVSPost2010PropOp41
 70
     1
102
RTVSPost2010Prop42
 90
       50
102
RTVSPost2010PropOp42
 70
     1
102
RTVSPost2010Prop43
 90
        3
102
RTVSPost2010PropOp43
 70
     1
102
RTVSPost2010Prop44ColorIndex
 90
        5
102
RTVSPost2010Prop44ColorRGB
 90
      255
102
RTVSPost2010PropOp44
 70
     1
102
RTVSPost2010Prop45
280
     0
102
RTVSPost2010PropOp45
 70
     1
102
RTVSPost2010Prop46
 90
       50
102
RTVSPost2010PropOp46
 70
     1
102
RTVSPost2010Prop47
 90
       50
102
RTVSPost2010PropOp47
 70
     1
102
RTVSPost2010Prop48
 90
       50
102
RTVSPost2010PropOp48
 70
     1
102
RTVSPost2010Prop49
280
     0
102
RTVSPost2010PropOp49
 70
     1
102
RTVSPost2010Prop50
 90
       50
102
RTVSPost2010PropOp50
 70
     1
102
RTVSPost2010Prop51ColorIndex
 90
      256
102
RTVSPost2010Prop51ColorRGB
 90
-16777216
102
RTVSPost2010PropOp51
 70
     0
102
RTVSPost2010Prop52
140
1.0
102
RTVSPost2010PropOp52
 70
     0
102
RTVSPost2010Prop53
 90
        2
102
RTVSPost2010PropOp53
 70
     1
102
RTVSPost2010Prop54
  1
strokes_ogs.tif
102
RTVSPost2010PropOp54
 70
     1
102
RTVSPost2010Prop55
280
     0
102
RTVSPost2010PropOp55
 70
     1
102
RTVSPost2010Prop56
140
1.0
102
RTVSPost2010PropOp56
 70
     1
102
RTVSPost2010Prop57
140
1.0
102
RTVSPost2010PropOp57
 70
     1
  0
XRECORD
  5
18E
102
{ACAD_REACTORS
330
18D
102
}
330
18D
100
AcDbXrecord
280
     1
102
RTVSPost2010Prop28
280
     0
102
RTVSPost2010PropOp28
 70
     0
102
RTVSPost2010Prop29
280
     1
102
RTVSPost2010PropOp29
 70
     0
102
RTVSPost2010Prop30
280
     1
102
RTVSPost2010PropOp30
 70
     0
102
RTVSPost2010Prop31
280
     0
102
RTVSPost2010PropOp31
 70
     0
102
RTVSPost2010Prop32
280
     0
102
RTVSPost2010PropOp32
 70
     0
102
RTVSPost2010Prop33
280
     0
102
RTVSPost2010PropOp33
 70
     0
102
RTVSPost2010Prop34
280
     0
102
RTVSPost2010PropOp34
 70
     0
102
RTVSPost2010Prop35
280
     0
102
RTVSPost2010PropOp35
 70
     0
102
RTVSPost2010Prop36
280
     0
102
RTVSPost2010PropOp36
 70
     0
102
RTVSPost2010Prop37
 90
       50
102
RTVSPost2010PropOp37
 70
     0
102
RTVSPost2010Prop38
140
0.0
102
RTVSPost2010PropOp38
 70
     0
102
RTVSPost2010Prop39
140
1.0
102
RTVSPost2010PropOp39
 70
     0
102
RTVSPost2010Prop40
 90
        0
102
RTVSPost2010PropOp40
 70
     0
102
RTVSPost2010Prop41ColorIndex
 90
       18
102
RTVSPost2010Prop41ColorRGB
 90
        0
102
RTVSPost2010PropOp41
 70
     0
102
RTVSPost2010Prop42
 90
       50
102
RTVSPost2010PropOp42
 70
     0
102
RTVSPost2010Prop43
 90
        3
102
RTVSPost2010PropOp43
 70
     0
102
RTVSPost2010Prop44ColorIndex
 90
        5
102
RTVSPost2010Prop44ColorRGB
 90
      255
102
RTVSPost2010PropOp44
 70
     0
102
RTVSPost2010Prop45
280
     0
102
RTVSPost2010PropOp45
 70
     0
102
RTVSPost2010Prop46
 90
       50
102
RTVSPost2010PropOp46
 70
     0
102
RTVSPost2010Prop47
 90
       50
102
RTVSPost2010PropOp47
 70
     0
102
RTVSPost2010Prop48
 90
       50
102
RTVSPost2010PropOp48
 70
     0
102
RTVSPost2010Prop49
280
     0
102
RTVSPost2010PropOp49
 70
     0
102
RTVSPost2010Prop50
 90
       50
102
RTVSPost2010PropOp50
 70
     0
102
RTVSPost2010Prop51ColorIndex
 90
      256
102
RTVSPost2010Prop51ColorRGB
 90
-16777216
102
RTVSPost2010PropOp51
 70
     0
102
RTVSPost2010Prop52
140
1.0
102
RTVSPost2010PropOp52
 70
     0
102
RTVSPost2010Prop53
 90
        2
102
RTVSPost2010PropOp53
 70
     0
102
RTVSPost2010Prop54
  1
strokes_ogs.tif
102
RTVSPost2010PropOp54
 70
     0
102
RTVSPost2010Prop55
280
     0
102
RTVSPost2010PropOp55
 70
     0
102
RTVSPost2010Prop56
140
1.0
102
RTVSPost2010PropOp56
 70
     0
102
RTVSPost2010Prop57
140
1.0
102
RTVSPost2010PropOp57
 70
     0
  0
XRECORD
  5
17E
102
{ACAD_REACTORS
330
17D
102
}
330
17D
100
AcDbXrecord
280
     1
102
RTVSPost2010Prop28
280
     0
102
RTVSPost2010PropOp28
 70
     1
102
RTVSPost2010Prop29
280
     1
102
RTVSPost2010PropOp29
 70
     1
102
RTVSPost2010Prop30
280
     1
102
RTVSPost2010PropOp30
 70
     1
102
RTVSPost2010Prop31
280
     0
102
RTVSPost2010PropOp31
 70
     1
102
RTVSPost2010Prop32
280
     0
102
RTVSPost2010PropOp32
 70
     1
102
RTVSPost2010Prop33
280
     0
102
RTVSPost2010PropOp33
 70
     1
102
RTVSPost2010Prop34
280
     0
102
RTVSPost2010PropOp34
 70
     1
102
RTVSPost2010Prop35
280
     0
102
RTVSPost2010PropOp35
 70
     1
102
RTVSPost2010Prop36
280
     0
102
RTVSPost2010PropOp36
 70
     1
102
RTVSPost2010Prop37
 90
       50
102
RTVSPost2010PropOp37
 70
     1
102
RTVSPost2010Prop38
140
0.0
102
RTVSPost2010PropOp38
 70
     1
102
RTVSPost2010Prop39
140
1.0
102
RTVSPost2010PropOp39
 70
     1
102
RTVSPost2010Prop40
 90
        0
102
RTVSPost2010PropOp40
 70
     1
102
RTVSPost2010Prop41ColorIndex
 90
       18
102
RTVSPost2010Prop41ColorRGB
 90
        0
102
RTVSPost2010PropOp41
 70
     1
102
RTVSPost2010Prop42
 90
       50
102
RTVSPost2010PropOp42
 70
     1
102
RTVSPost2010Prop43
 90
        3
102
RTVSPost2010PropOp43
 70
     1
102
RTVSPost2010Prop44ColorIndex
 90
        5
102
RTVSPost2010Prop44ColorRGB
 90
      255
102
RTVSPost2010PropOp44
 70
     1
102
RTVSPost2010Prop45
280
     0
102
RTVSPost2010PropOp45
 70
     1
102
RTVSPost2010Prop46
 90
       50
102
RTVSPost2010PropOp46
 70
     1
102
RTVSPost2010Prop47
 90
       50
102
RTVSPost2010PropOp47
 70
     1
102
RTVSPost2010Prop48
 90
       50
102
RTVSPost2010PropOp48
 70
     1
102
RTVSPost2010Prop49
280
     0
102
RTVSPost2010PropOp49
 70
     1
102
RTVSPost2010Prop50
 90
       50
102
RTVSPost2010PropOp50
 70
     1
102
RTVSPost2010Prop51ColorIndex
 90
      256
102
RTVSPost2010Prop51ColorRGB
 90
-16777216
102
RTVSPost2010PropOp51
 70
     0
102
RTVSPost2010Prop52
140
1.0
102
RTVSPost2010PropOp52
 70
     0
102
RTVSPost2010Prop53
 90
        2
102
RTVSPost2010PropOp53
 70
     1
102
RTVSPost2010Prop54
  1
strokes_ogs.tif
102
RTVSPost2010PropOp54
 70
     1
102
RTVSPost2010Prop55
280
     0
102
RTVSPost2010PropOp55
 70
     1
102
RTVSPost2010Prop56
140
1.0
102
RTVSPost2010PropOp56
 70
     1
102
RTVSPost2010Prop57
140
1.0
102
RTVSPost2010PropOp57
 70
     1
  0
XRECORD
  5
190
102
{ACAD_REACTORS
330
18F
102
}
330
18F
100
AcDbXrecord
280
     1
102
RTVSPost2010Prop28
280
     0
102
RTVSPost2010PropOp28
 70
     0
102
RTVSPost2010Prop29
280
     1
102
RTVSPost2010PropOp29
 70
     0
102
RTVSPost2010Prop30
280
     1
102
RTVSPost2010PropOp30
 70
     0
102
RTVSPost2010Prop31
280
     0
102
RTVSPost2010PropOp31
 70
     0
102
RTVSPost2010Prop32
280
     0
102
RTVSPost2010PropOp32
 70
     0
102
RTVSPost2010Prop33
280
     0
102
RTVSPost2010PropOp33
 70
     0
102
RTVSPost2010Prop34
280
     0
102
RTVSPost2010PropOp34
 70
     0
102
RTVSPost2010Prop35
280
     0
102
RTVSPost2010PropOp35
 70
     0
102
RTVSPost2010Prop36
280
     0
102
RTVSPost2010PropOp36
 70
     0
102
RTVSPost2010Prop37
 90
       50
102
RTVSPost2010PropOp37
 70
     0
102
RTVSPost2010Prop38
140
0.0
102
RTVSPost2010PropOp38
 70
     0
102
RTVSPost2010Prop39
140
1.0
102
RTVSPost2010PropOp39
 70
     0
102
RTVSPost2010Prop40
 90
        0
102
RTVSPost2010PropOp40
 70
     0
102
RTVSPost2010Prop41ColorIndex
 90
       18
102
RTVSPost2010Prop41ColorRGB
 90
        0
102
RTVSPost2010PropOp41
 70
     0
102
RTVSPost2010Prop42
 90
       50
102
RTVSPost2010PropOp42
 70
     0
102
RTVSPost2010Prop43
 90
        3
102
RTVSPost2010PropOp43
 70
     0
102
RTVSPost2010Prop44ColorIndex
 90
        5
102
RTVSPost2010Prop44ColorRGB
 90
      255
102
RTVSPost2010PropOp44
 70
     0
102
RTVSPost2010Prop45
280
     0
102
RTVSPost2010PropOp45
 70
     0
102
RTVSPost2010Prop46
 90
       50
102
RTVSPost2010PropOp46
 70
     0
102
RTVSPost2010Prop47
 90
       50
102
RTVSPost2010PropOp47
 70
     0
102
RTVSPost2010Prop48
 90
       50
102
RTVSPost2010PropOp48
 70
     0
102
RTVSPost2010Prop49
280
     0
102
RTVSPost2010PropOp49
 70
     0
102
RTVSPost2010Prop50
 90
       50
102
RTVSPost2010PropOp50
 70
     0
102
RTVSPost2010Prop51ColorIndex
 90
      256
102
RTVSPost2010Prop51ColorRGB
 90
-16777216
102
RTVSPost2010PropOp51
 70
     0
102
RTVSPost2010Prop52
140
1.0
102
RTVSPost2010PropOp52
 70
     0
102
RTVSPost2010Prop53
 90
        2
102
RTVSPost2010PropOp53
 70
     0
102
RTVSPost2010Prop54
  1
strokes_ogs.tif
102
RTVSPost2010PropOp54
 70
     0
102
RTVSPost2010Prop55
280
     0
102
RTVSPost2010PropOp55
 70
     0
102
RTVSPost2010Prop56
140
1.0
102
RTVSPost2010PropOp56
 70
     0
102
RTVSPost2010Prop57
140
1.0
102
RTVSPost2010PropOp57
 70
     0
  0
XRECORD
  5
176
102
{ACAD_REACTORS
330
175
102
}
330
175
100
AcDbXrecord
280
     1
102
RTVSPost2010Prop28
280
     0
102
RTVSPost2010PropOp28
 70
     1
102
RTVSPost2010Prop29
280
     1
102
RTVSPost2010PropOp29
 70
     1
102
RTVSPost2010Prop30
280
     1
102
RTVSPost2010PropOp30
 70
     1
102
RTVSPost2010Prop31
280
     0
102
RTVSPost2010PropOp31
 70
     1
102
RTVSPost2010Prop32
280
     0
102
RTVSPost2010PropOp32
 70
     1
102
RTVSPost2010Prop33
280
     0
102
RTVSPost2010PropOp33
 70
     1
102
RTVSPost2010Prop34
280
     0
102
RTVSPost2010PropOp34
 70
     1
102
RTVSPost2010Prop35
280
     0
102
RTVSPost2010PropOp35
 70
     1
102
RTVSPost2010Prop36
280
     0
102
RTVSPost2010PropOp36
 70
     1
102
RTVSPost2010Prop37
 90
       50
102
RTVSPost2010PropOp37
 70
     1
102
RTVSPost2010Prop38
140
0.0
102
RTVSPost2010PropOp38
 70
     1
102
RTVSPost2010Prop39
140
1.0
102
RTVSPost2010PropOp39
 70
     1
102
RTVSPost2010Prop40
 90
        0
102
RTVSPost2010PropOp40
 70
     1
102
RTVSPost2010Prop41ColorIndex
 90
       18
102
RTVSPost2010Prop41ColorRGB
 90
        0
102
RTVSPost2010PropOp41
 70
     1
102
RTVSPost2010Prop42
 90
       50
102
RTVSPost2010PropOp42
 70
     1
102
RTVSPost2010Prop43
 90
        3
102
RTVSPost2010PropOp43
 70
     1
102
RTVSPost2010Prop44ColorIndex
 90
        5
102
RTVSPost2010Prop44ColorRGB
 90
      255
102
RTVSPost2010PropOp44
 70
     1
102
RTVSPost2010Prop45
280
     0
102
RTVSPost2010PropOp45
 70
     1
102
RTVSPost2010Prop46
 90
       50
102
RTVSPost2010PropOp46
 70
     1
102
RTVSPost2010Prop47
 90
       50
102
RTVSPost2010PropOp47
 70
     1
102
RTVSPost2010Prop48
 90
       50
102
RTVSPost2010PropOp48
 70
     1
102
RTVSPost2010Prop49
280
     0
102
RTVSPost2010PropOp49
 70
     1
102
RTVSPost2010Prop50
 90
       50
102
RTVSPost2010PropOp50
 70
     1
102
RTVSPost2010Prop51ColorIndex
 90
      256
102
RTVSPost2010Prop51ColorRGB
 90
-16777216
102
RTVSPost2010PropOp51
 70
     0
102
RTVSPost2010Prop52
140
1.0
102
RTVSPost2010PropOp52
 70
     0
102
RTVSPost2010Prop53
 90
        2
102
RTVSPost2010PropOp53
 70
     1
102
RTVSPost2010Prop54
  1
strokes_ogs.tif
102
RTVSPost2010PropOp54
 70
     1
102
RTVSPost2010Prop55
280
     0
102
RTVSPost2010PropOp55
 70
     1
102
RTVSPost2010Prop56
140
1.0
102
RTVSPost2010PropOp56
 70
     1
102
RTVSPost2010Prop57
140
1.0
102
RTVSPost2010PropOp57
 70
     1
  0
XRECORD
  5
18C
102
{ACAD_REACTORS
330
18B
102
}
330
18B
100
AcDbXrecord
280
     1
102
RTVSPost2010Prop28
280
     0
102
RTVSPost2010PropOp28
 70
     1
102
RTVSPost2010Prop29
280
     1
102
RTVSPost2010PropOp29
 70
     1
102
RTVSPost2010Prop30
280
     1
102
RTVSPost2010PropOp30
 70
     1
102
RTVSPost2010Prop31
280
     0
102
RTVSPost2010PropOp31
 70
     1
102
RTVSPost2010Prop32
280
     0
102
RTVSPost2010PropOp32
 70
     1
102
RTVSPost2010Prop33
280
     0
102
RTVSPost2010PropOp33
 70
     1
102
RTVSPost2010Prop34
280
     0
102
RTVSPost2010PropOp34
 70
     1
102
RTVSPost2010Prop35
280
     0
102
RTVSPost2010PropOp35
 70
     1
102
RTVSPost2010Prop36
280
     0
102
RTVSPost2010PropOp36
 70
     1
102
RTVSPost2010Prop37
 90
       50
102
RTVSPost2010PropOp37
 70
     1
102
RTVSPost2010Prop38
140
0.0
102
RTVSPost2010PropOp38
 70
     1
102
RTVSPost2010Prop39
140
1.0
102
RTVSPost2010PropOp39
 70
     1
102
RTVSPost2010Prop40
 90
        0
102
RTVSPost2010PropOp40
 70
     1
102
RTVSPost2010Prop41ColorIndex
 90
       18
102
RTVSPost2010Prop41ColorRGB
 90
        0
102
RTVSPost2010PropOp41
 70
     1
102
RTVSPost2010Prop42
 90
       50
102
RTVSPost2010PropOp42
 70
     1
102
RTVSPost2010Prop43
 90
        3
102
RTVSPost2010PropOp43
 70
     1
102
RTVSPost2010Prop44ColorIndex
 90
        5
102
RTVSPost2010Prop44ColorRGB
 90
      255
102
RTVSPost2010PropOp44
 70
     1
102
RTVSPost2010Prop45
280
     0
102
RTVSPost2010PropOp45
 70
     1
102
RTVSPost2010Prop46
 90
       50
102
RTVSPost2010PropOp46
 70
     1
102
RTVSPost2010Prop47
 90
       50
102
RTVSPost2010PropOp47
 70
     1
102
RTVSPost2010Prop48
 90
       50
102
RTVSPost2010PropOp48
 70
     1
102
RTVSPost2010Prop49
280
     0
102
RTVSPost2010PropOp49
 70
     1
102
RTVSPost2010Prop50
 90
       50
102
RTVSPost2010PropOp50
 70
     1
102
RTVSPost2010Prop51ColorIndex
 90
      256
102
RTVSPost2010Prop51ColorRGB
 90
-16777216
102
RTVSPost2010PropOp51
 70
     0
102
RTVSPost2010Prop52
140
1.0
102
RTVSPost2010PropOp52
 70
     0
102
RTVSPost2010Prop53
 90
        2
102
RTVSPost2010PropOp53
 70
     1
102
RTVSPost2010Prop54
  1
strokes_ogs.tif
102
RTVSPost2010PropOp54
 70
     1
102
RTVSPost2010Prop55
280
     0
102
RTVSPost2010PropOp55
 70
     1
102
RTVSPost2010Prop56
140
1.0
102
RTVSPost2010PropOp56
 70
     1
102
RTVSPost2010Prop57
140
1.0
102
RTVSPost2010PropOp57
 70
     1
  0
XRECORD
  5
18A
102
{ACAD_REACTORS
330
189
102
}
330
189
100
AcDbXrecord
280
     1
102
RTVSPost2010Prop28
280
     0
102
RTVSPost2010PropOp28
 70
     1
102
RTVSPost2010Prop29
280
     1
102
RTVSPost2010PropOp29
 70
     1
102
RTVSPost2010Prop30
280
     1
102
RTVSPost2010PropOp30
 70
     1
102
RTVSPost2010Prop31
280
     0
102
RTVSPost2010PropOp31
 70
     1
102
RTVSPost2010Prop32
280
     0
102
RTVSPost2010PropOp32
 70
     1
102
RTVSPost2010Prop33
280
     0
102
RTVSPost2010PropOp33
 70
     1
102
RTVSPost2010Prop34
280
     0
102
RTVSPost2010PropOp34
 70
     1
102
RTVSPost2010Prop35
280
     0
102
RTVSPost2010PropOp35
 70
     1
102
RTVSPost2010Prop36
280
     0
102
RTVSPost2010PropOp36
 70
     1
102
RTVSPost2010Prop37
 90
       50
102
RTVSPost2010PropOp37
 70
     1
102
RTVSPost2010Prop38
140
0.0
102
RTVSPost2010PropOp38
 70
     1
102
RTVSPost2010Prop39
140
1.0
102
RTVSPost2010PropOp39
 70
     1
102
RTVSPost2010Prop40
 90
        0
102
RTVSPost2010PropOp40
 70
     1
102
RTVSPost2010Prop41ColorIndex
 90
       18
102
RTVSPost2010Prop41ColorRGB
 90
        0
102
RTVSPost2010PropOp41
 70
     1
102
RTVSPost2010Prop42
 90
       50
102
RTVSPost2010PropOp42
 70
     1
102
RTVSPost2010Prop43
 90
        3
102
RTVSPost2010PropOp43
 70
     1
102
RTVSPost2010Prop44ColorIndex
 90
        5
102
RTVSPost2010Prop44ColorRGB
 90
      255
102
RTVSPost2010PropOp44
 70
     1
102
RTVSPost2010Prop45
280
     0
102
RTVSPost2010PropOp45
 70
     1
102
RTVSPost2010Prop46
 90
       50
102
RTVSPost2010PropOp46
 70
     1
102
RTVSPost2010Prop47
 90
       50
102
RTVSPost2010PropOp47
 70
     1
102
RTVSPost2010Prop48
 90
       50
102
RTVSPost2010PropOp48
 70
     1
102
RTVSPost2010Prop49
280
     0
102
RTVSPost2010PropOp49
 70
     1
102
RTVSPost2010Prop50
 90
       50
102
RTVSPost2010PropOp50
 70
     1
102
RTVSPost2010Prop51ColorIndex
 90
      256
102
RTVSPost2010Prop51ColorRGB
 90
-16777216
102
RTVSPost2010PropOp51
 70
     0
102
RTVSPost2010Prop52
140
1.0
102
RTVSPost2010PropOp52
 70
     0
102
RTVSPost2010Prop53
 90
        2
102
RTVSPost2010PropOp53
 70
     1
102
RTVSPost2010Prop54
  1
strokes_ogs.tif
102
RTVSPost2010PropOp54
 70
     1
102
RTVSPost2010Prop55
280
     0
102
RTVSPost2010PropOp55
 70
     1
102
RTVSPost2010Prop56
140
1.0
102
RTVSPost2010PropOp56
 70
     1
102
RTVSPost2010Prop57
140
1.0
102
RTVSPost2010PropOp57
 70
     1
  0
XRECORD
  5
184
102
{ACAD_REACTORS
330
183
102
}
330
183
100
AcDbXrecord
280
     1
102
RTVSPost2010Prop28
280
     0
102
RTVSPost2010PropOp28
 70
     1
102
RTVSPost2010Prop29
280
     1
102
RTVSPost2010PropOp29
 70
     1
102
RTVSPost2010Prop30
280
     1
102
RTVSPost2010PropOp30
 70
     1
102
RTVSPost2010Prop31
280
     0
102
RTVSPost2010PropOp31
 70
     1
102
RTVSPost2010Prop32
280
     0
102
RTVSPost2010PropOp32
 70
     1
102
RTVSPost2010Prop33
280
     0
102
RTVSPost2010PropOp33
 70
     1
102
RTVSPost2010Prop34
280
     0
102
RTVSPost2010PropOp34
 70
     1
102
RTVSPost2010Prop35
280
     0
102
RTVSPost2010PropOp35
 70
     1
102
RTVSPost2010Prop36
280
     0
102
RTVSPost2010PropOp36
 70
     1
102
RTVSPost2010Prop37
 90
       50
102
RTVSPost2010PropOp37
 70
     1
102
RTVSPost2010Prop38
140
0.0
102
RTVSPost2010PropOp38
 70
     1
102
RTVSPost2010Prop39
140
1.0
102
RTVSPost2010PropOp39
 70
     1
102
RTVSPost2010Prop40
 90
        0
102
RTVSPost2010PropOp40
 70
     1
102
RTVSPost2010Prop41ColorIndex
 90
       18
102
RTVSPost2010Prop41ColorRGB
 90
        0
102
RTVSPost2010PropOp41
 70
     1
102
RTVSPost2010Prop42
 90
       50
102
RTVSPost2010PropOp42
 70
     1
102
RTVSPost2010Prop43
 90
        3
102
RTVSPost2010PropOp43
 70
     1
102
RTVSPost2010Prop44ColorIndex
 90
        5
102
RTVSPost2010Prop44ColorRGB
 90
      255
102
RTVSPost2010PropOp44
 70
     1
102
RTVSPost2010Prop45
280
     0
102
RTVSPost2010PropOp45
 70
     1
102
RTVSPost2010Prop46
 90
       50
102
RTVSPost2010PropOp46
 70
     1
102
RTVSPost2010Prop47
 90
       50
102
RTVSPost2010PropOp47
 70
     1
102
RTVSPost2010Prop48
 90
       50
102
RTVSPost2010PropOp48
 70
     1
102
RTVSPost2010Prop49
280
     0
102
RTVSPost2010PropOp49
 70
     1
102
RTVSPost2010Prop50
 90
       50
102
RTVSPost2010PropOp50
 70
     1
102
RTVSPost2010Prop51ColorIndex
 90
      256
102
RTVSPost2010Prop51ColorRGB
 90
-16777216
102
RTVSPost2010PropOp51
 70
     0
102
RTVSPost2010Prop52
140
1.0
102
RTVSPost2010PropOp52
 70
     0
102
RTVSPost2010Prop53
 90
        2
102
RTVSPost2010PropOp53
 70
     1
102
RTVSPost2010Prop54
  1
strokes_ogs.tif
102
RTVSPost2010PropOp54
 70
     1
102
RTVSPost2010Prop55
280
     0
102
RTVSPost2010PropOp55
 70
     1
102
RTVSPost2010Prop56
140
1.0
102
RTVSPost2010PropOp56
 70
     1
102
RTVSPost2010Prop57
140
1.0
102
RTVSPost2010PropOp57
 70
     1
  0
XRECORD
  5
186
102
{ACAD_REACTORS
330
185
102
}
330
185
100
AcDbXrecord
280
     1
102
RTVSPost2010Prop28
280
     0
102
RTVSPost2010PropOp28
 70
     1
102
RTVSPost2010Prop29
280
     1
102
RTVSPost2010PropOp29
 70
     1
102
RTVSPost2010Prop30
280
     1
102
RTVSPost2010PropOp30
 70
     1
102
RTVSPost2010Prop31
280
     0
102
RTVSPost2010PropOp31
 70
     1
102
RTVSPost2010Prop32
280
     0
102
RTVSPost2010PropOp32
 70
     1
102
RTVSPost2010Prop33
280
     0
102
RTVSPost2010PropOp33
 70
     1
102
RTVSPost2010Prop34
280
     0
102
RTVSPost2010PropOp34
 70
     1
102
RTVSPost2010Prop35
280
     0
102
RTVSPost2010PropOp35
 70
     1
102
RTVSPost2010Prop36
280
     0
102
RTVSPost2010PropOp36
 70
     1
102
RTVSPost2010Prop37
 90
       50
102
RTVSPost2010PropOp37
 70
     1
102
RTVSPost2010Prop38
140
0.0
102
RTVSPost2010PropOp38
 70
     1
102
RTVSPost2010Prop39
140
1.0
102
RTVSPost2010PropOp39
 70
     1
102
RTVSPost2010Prop40
 90
        0
102
RTVSPost2010PropOp40
 70
     1
102
RTVSPost2010Prop41ColorIndex
 90
       18
102
RTVSPost2010Prop41ColorRGB
 90
        0
102
RTVSPost2010PropOp41
 70
     1
102
RTVSPost2010Prop42
 90
       50
102
RTVSPost2010PropOp42
 70
     1
102
RTVSPost2010Prop43
 90
        3
102
RTVSPost2010PropOp43
 70
     1
102
RTVSPost2010Prop44ColorIndex
 90
        5
102
RTVSPost2010Prop44ColorRGB
 90
      255
102
RTVSPost2010PropOp44
 70
     1
102
RTVSPost2010Prop45
280
     0
102
RTVSPost2010PropOp45
 70
     1
102
RTVSPost2010Prop46
 90
       50
102
RTVSPost2010PropOp46
 70
     1
102
RTVSPost2010Prop47
 90
       50
102
RTVSPost2010PropOp47
 70
     1
102
RTVSPost2010Prop48
 90
       50
102
RTVSPost2010PropOp48
 70
     1
102
RTVSPost2010Prop49
280
     0
102
RTVSPost2010PropOp49
 70
     1
102
RTVSPost2010Prop50
 90
       50
102
RTVSPost2010PropOp50
 70
     1
102
RTVSPost2010Prop51ColorIndex
 90
      256
102
RTVSPost2010Prop51ColorRGB
 90
-16777216
102
RTVSPost2010PropOp51
 70
     0
102
RTVSPost2010Prop52
140
1.0
102
RTVSPost2010PropOp52
 70
     0
102
RTVSPost2010Prop53
 90
        2
102
RTVSPost2010PropOp53
 70
     1
102
RTVSPost2010Prop54
  1
strokes_ogs.tif
102
RTVSPost2010PropOp54
 70
     1
102
RTVSPost2010Prop55
280
     0
102
RTVSPost2010PropOp55
 70
     1
102
RTVSPost2010Prop56
140
1.0
102
RTVSPost2010PropOp56
 70
     1
102
RTVSPost2010Prop57
140
1.0
102
RTVSPost2010PropOp57
 70
     1
  0
XRECORD
  5
17C
102
{ACAD_REACTORS
330
17B
102
}
330
17B
100
AcDbXrecord
280
     1
102
RTVSPost2010Prop28
280
     0
102
RTVSPost2010PropOp28
 70
     1
102
RTVSPost2010Prop29
280
     1
102
RTVSPost2010PropOp29
 70
     1
102
RTVSPost2010Prop30
280
     1
102
RTVSPost2010PropOp30
 70
     1
102
RTVSPost2010Prop31
280
     0
102
RTVSPost2010PropOp31
 70
     1
102
RTVSPost2010Prop32
280
     0
102
RTVSPost2010PropOp32
 70
     1
102
RTVSPost2010Prop33
280
     0
102
RTVSPost2010PropOp33
 70
     1
102
RTVSPost2010Prop34
280
     0
102
RTVSPost2010PropOp34
 70
     1
102
RTVSPost2010Prop35
280
     0
102
RTVSPost2010PropOp35
 70
     1
102
RTVSPost2010Prop36
280
     0
102
RTVSPost2010PropOp36
 70
     1
102
RTVSPost2010Prop37
 90
       50
102
RTVSPost2010PropOp37
 70
     1
102
RTVSPost2010Prop38
140
0.0
102
RTVSPost2010PropOp38
 70
     1
102
RTVSPost2010Prop39
140
1.0
102
RTVSPost2010PropOp39
 70
     1
102
RTVSPost2010Prop40
 90
        0
102
RTVSPost2010PropOp40
 70
     1
102
RTVSPost2010Prop41ColorIndex
 90
       18
102
RTVSPost2010Prop41ColorRGB
 90
        0
102
RTVSPost2010PropOp41
 70
     1
102
RTVSPost2010Prop42
 90
       50
102
RTVSPost2010PropOp42
 70
     1
102
RTVSPost2010Prop43
 90
        3
102
RTVSPost2010PropOp43
 70
     1
102
RTVSPost2010Prop44ColorIndex
 90
        5
102
RTVSPost2010Prop44ColorRGB
 90
      255
102
RTVSPost2010PropOp44
 70
     1
102
RTVSPost2010Prop45
280
     0
102
RTVSPost2010PropOp45
 70
     1
102
RTVSPost2010Prop46
 90
       50
102
RTVSPost2010PropOp46
 70
     1
102
RTVSPost2010Prop47
 90
       50
102
RTVSPost2010PropOp47
 70
     1
102
RTVSPost2010Prop48
 90
       50
102
RTVSPost2010PropOp48
 70
     1
102
RTVSPost2010Prop49
280
     0
102
RTVSPost2010PropOp49
 70
     1
102
RTVSPost2010Prop50
 90
       50
102
RTVSPost2010PropOp50
 70
     1
102
RTVSPost2010Prop51ColorIndex
 90
      256
102
RTVSPost2010Prop51ColorRGB
 90
-16777216
102
RTVSPost2010PropOp51
 70
     0
102
RTVSPost2010Prop52
140
1.0
102
RTVSPost2010PropOp52
 70
     0
102
RTVSPost2010Prop53
 90
        2
102
RTVSPost2010PropOp53
 70
     1
102
RTVSPost2010Prop54
  1
strokes_ogs.tif
102
RTVSPost2010PropOp54
 70
     1
102
RTVSPost2010Prop55
280
     0
102
RTVSPost2010PropOp55
 70
     1
102
RTVSPost2010Prop56
140
1.0
102
RTVSPost2010PropOp56
 70
     1
102
RTVSPost2010Prop57
140
1.0
102
RTVSPost2010PropOp57
 70
     1
  0
XRECORD
  5
170
102
{ACAD_REACTORS
330
16F
102
}
330
16F
100
AcDbXrecord
280
     1
102
RTVSPost2010Prop28
280
     0
102
RTVSPost2010PropOp28
 70
     1
102
RTVSPost2010Prop29
280
     1
102
RTVSPost2010PropOp29
 70
     1
102
RTVSPost2010Prop30
280
     1
102
RTVSPost2010PropOp30
 70
     1
102
RTVSPost2010Prop31
280
     0
102
RTVSPost2010PropOp31
 70
     1
102
RTVSPost2010Prop32
280
     0
102
RTVSPost2010PropOp32
 70
     1
102
RTVSPost2010Prop33
280
     0
102
RTVSPost2010PropOp33
 70
     1
102
RTVSPost2010Prop34
280
     0
102
RTVSPost2010PropOp34
 70
     1
102
RTVSPost2010Prop35
280
     0
102
RTVSPost2010PropOp35
 70
     1
102
RTVSPost2010Prop36
280
     0
102
RTVSPost2010PropOp36
 70
     1
102
RTVSPost2010Prop37
 90
       50
102
RTVSPost2010PropOp37
 70
     1
102
RTVSPost2010Prop38
140
0.0
102
RTVSPost2010PropOp38
 70
     1
102
RTVSPost2010Prop39
140
1.0
102
RTVSPost2010PropOp39
 70
     1
102
RTVSPost2010Prop40
 90
        0
102
RTVSPost2010PropOp40
 70
     1
102
RTVSPost2010Prop41ColorIndex
 90
       18
102
RTVSPost2010Prop41ColorRGB
 90
        0
102
RTVSPost2010PropOp41
 70
     1
102
RTVSPost2010Prop42
 90
       50
102
RTVSPost2010PropOp42
 70
     1
102
RTVSPost2010Prop43
 90
        3
102
RTVSPost2010PropOp43
 70
     1
102
RTVSPost2010Prop44ColorIndex
 90
        5
102
RTVSPost2010Prop44ColorRGB
 90
      255
102
RTVSPost2010PropOp44
 70
     1
102
RTVSPost2010Prop45
280
     0
102
RTVSPost2010PropOp45
 70
     1
102
RTVSPost2010Prop46
 90
       50
102
RTVSPost2010PropOp46
 70
     1
102
RTVSPost2010Prop47
 90
       50
102
RTVSPost2010PropOp47
 70
     1
102
RTVSPost2010Prop48
 90
       50
102
RTVSPost2010PropOp48
 70
     1
102
RTVSPost2010Prop49
280
     0
102
RTVSPost2010PropOp49
 70
     1
102
RTVSPost2010Prop50
 90
       50
102
RTVSPost2010PropOp50
 70
     1
102
RTVSPost2010Prop51ColorIndex
 90
      256
102
RTVSPost2010Prop51ColorRGB
 90
-16777216
102
RTVSPost2010PropOp51
 70
     0
102
RTVSPost2010Prop52
140
1.0
102
RTVSPost2010PropOp52
 70
     0
102
RTVSPost2010Prop53
 90
        2
102
RTVSPost2010PropOp53
 70
     1
102
RTVSPost2010Prop54
  1
strokes_ogs.tif
102
RTVSPost2010PropOp54
 70
     1
102
RTVSPost2010Prop55
280
     0
102
RTVSPost2010PropOp55
 70
     1
102
RTVSPost2010Prop56
140
1.0
102
RTVSPost2010PropOp56
 70
     1
102
RTVSPost2010Prop57
140
1.0
102
RTVSPost2010PropOp57
 70
     1
  0
XRECORD
  5
188
102
{ACAD_REACTORS
330
187
102
}
330
187
100
AcDbXrecord
280
     1
102
RTVSPost2010Prop28
280
     0
102
RTVSPost2010PropOp28
 70
     1
102
RTVSPost2010Prop29
280
     1
102
RTVSPost2010PropOp29
 70
     1
102
RTVSPost2010Prop30
280
     1
102
RTVSPost2010PropOp30
 70
     1
102
RTVSPost2010Prop31
280
     0
102
RTVSPost2010PropOp31
 70
     1
102
RTVSPost2010Prop32
280
     0
102
RTVSPost2010PropOp32
 70
     1
102
RTVSPost2010Prop33
280
     0
102
RTVSPost2010PropOp33
 70
     1
102
RTVSPost2010Prop34
280
     0
102
RTVSPost2010PropOp34
 70
     1
102
RTVSPost2010Prop35
280
     0
102
RTVSPost2010PropOp35
 70
     1
102
RTVSPost2010Prop36
280
     0
102
RTVSPost2010PropOp36
 70
     1
102
RTVSPost2010Prop37
 90
       50
102
RTVSPost2010PropOp37
 70
     1
102
RTVSPost2010Prop38
140
0.0
102
RTVSPost2010PropOp38
 70
     1
102
RTVSPost2010Prop39
140
1.0
102
RTVSPost2010PropOp39
 70
     1
102
RTVSPost2010Prop40
 90
        0
102
RTVSPost2010PropOp40
 70
     1
102
RTVSPost2010Prop41ColorIndex
 90
       18
102
RTVSPost2010Prop41ColorRGB
 90
        0
102
RTVSPost2010PropOp41
 70
     1
102
RTVSPost2010Prop42
 90
       50
102
RTVSPost2010PropOp42
 70
     1
102
RTVSPost2010Prop43
 90
        3
102
RTVSPost2010PropOp43
 70
     1
102
RTVSPost2010Prop44ColorIndex
 90
        5
102
RTVSPost2010Prop44ColorRGB
 90
      255
102
RTVSPost2010PropOp44
 70
     1
102
RTVSPost2010Prop45
280
     0
102
RTVSPost2010PropOp45
 70
     1
102
RTVSPost2010Prop46
 90
       50
102
RTVSPost2010PropOp46
 70
     1
102
RTVSPost2010Prop47
 90
       50
102
RTVSPost2010PropOp47
 70
     1
102
RTVSPost2010Prop48
 90
       50
102
RTVSPost2010PropOp48
 70
     1
102
RTVSPost2010Prop49
280
     0
102
RTVSPost2010PropOp49
 70
     1
102
RTVSPost2010Prop50
 90
       50
102
RTVSPost2010PropOp50
 70
     1
102
RTVSPost2010Prop51ColorIndex
 90
      256
102
RTVSPost2010Prop51ColorRGB
 90
-16777216
102
RTVSPost2010PropOp51
 70
     0
102
RTVSPost2010Prop52
140
1.0
102
RTVSPost2010PropOp52
 70
     0
102
RTVSPost2010Prop53
 90
        2
102
RTVSPost2010PropOp53
 70
     1
102
RTVSPost2010Prop54
  1
strokes_ogs.tif
102
RTVSPost2010PropOp54
 70
     1
102
RTVSPost2010Prop55
280
     0
102
RTVSPost2010PropOp55
 70
     1
102
RTVSPost2010Prop56
140
1.0
102
RTVSPost2010PropOp56
 70
     1
102
RTVSPost2010Prop57
140
1.0
102
RTVSPost2010PropOp57
 70
     1
  0
ENDSEC
  0
EOF
