  0
SECTION
  2
HEADER
  9
$ACADVER
  1
AC1024
  9
$ACADMAINTVER
 70
   205
  9
$DWGCODEPAGE
  3
ANSI_1251
  9
$INSBASE
 10
0.0
 20
0.0
 30
0.0
  9
$EXTMIN
 10
1.000000000000000E+20
 20
1.000000000000000E+20
 30
1.000000000000000E+20
  9
$EXTMAX
 10
-1.000000000000000E+20
 20
-1.000000000000000E+20
 30
-1.000000000000000E+20
  9
$LIMMIN
 10
0.0
 20
0.0
  9
$LIMMAX
 10
12.0
 20
9.0
  9
$ORTHOMODE
 70
     0
  9
$REGENMODE
 70
     1
  9
$FILLMODE
 70
     1
  9
$QTEXTMODE
 70
     0
  9
$MIRRTEXT
 70
     1
  9
$LTSCALE
 40
1.0
  9
$ATTMODE
 70
     1
  9
$TEXTSIZE
 40
0.2
  9
$TRACEWID
 40
0.05
  9
$TEXTSTYLE
  7
Standard
  9
$CLAYER
  8
OracDecor_panel_moldings
  9
$CELTYPE
  6
ByLayer
  9
$CECOLOR
 62
   256
  9
$CELTSCALE
 40
1.0
  9
$DISPSILH
 70
     0
  9
$DIMSCALE
 40
1.0
  9
$DIMASZ
 40
0.18
  9
$DIMEXO
 40
0.0625
  9
$DIMDLI
 40
0.38
  9
$DIMRND
 40
0.0
  9
$DIMDLE
 40
0.0
  9
$DIMEXE
 40
0.18
  9
$DIMTP
 40
0.0
  9
$DIMTM
 40
0.0
  9
$DIMTXT
 40
0.18
  9
$DIMCEN
 40
0.09
  9
$DIMTSZ
 40
0.0
  9
$DIMTOL
 70
     0
  9
$DIMLIM
 70
     0
  9
$DIMTIH
 70
     1
  9
$DIMTOH
 70
     1
  9
$DIMSE1
 70
     0
  9
$DIMSE2
 70
     0
  9
$DIMTAD
 70
     0
  9
$DIMZIN
 70
     0
  9
$DIMBLK
  1

  9
$DIMASO
 70
     1
  9
$DIMSHO
 70
     1
  9
$DIMPOST
  1

  9
$DIMAPOST
  1

  9
$DIMALT
 70
     0
  9
$DIMALTD
 70
     2
  9
$DIMALTF
 40
25.4
  9
$DIMLFAC
 40
1.0
  9
$DIMTOFL
 70
     0
  9
$DIMTVP
 40
0.0
  9
$DIMTIX
 70
     0
  9
$DIMSOXD
 70
     0
  9
$DIMSAH
 70
     0
  9
$DIMBLK1
  1

  9
$DIMBLK2
  1

  9
$DIMSTYLE
  2
Standard
  9
$DIMCLRD
 70
     0
  9
$DIMCLRE
 70
     0
  9
$DIMCLRT
 70
     0
  9
$DIMTFAC
 40
1.0
  9
$DIMGAP
 40
0.09
  9
$DIMJUST
 70
     0
  9
$DIMSD1
 70
     0
  9
$DIMSD2
 70
     0
  9
$DIMTOLJ
 70
     1
  9
$DIMTZIN
 70
     0
  9
$DIMALTZ
 70
     0
  9
$DIMALTTZ
 70
     0
  9
$DIMUPT
 70
     0
  9
$DIMDEC
 70
     4
  9
$DIMTDEC
 70
     4
  9
$DIMALTU
 70
     2
  9
$DIMALTTD
 70
     2
  9
$DIMTXSTY
  7
Standard
  9
$DIMAUNIT
 70
     0
  9
$DIMADEC
 70
     0
  9
$DIMALTRND
 40
0.0
  9
$DIMAZIN
 70
     0
  9
$DIMDSEP
 70
    46
  9
$DIMATFIT
 70
     3
  9
$DIMFRAC
 70
     0
  9
$DIMLDRBLK
  1

  9
$DIMLUNIT
 70
     2
  9
$DIMLWD
 70
    -2
  9
$DIMLWE
 70
    -2
  9
$DIMTMOVE
 70
     0
  9
$DIMFXL
 40
1.0
  9
$DIMFXLON
 70
     0
  9
$DIMJOGANG
 40
0.7853981633974483
  9
$DIMTFILL
 70
     0
  9
$DIMTFILLCLR
 70
     0
  9
$DIMARCSYM
 70
     0
  9
$DIMLTYPE
  6

  9
$DIMLTEX1
  6

  9
$DIMLTEX2
  6

  9
$DIMTXTDIRECTION
 70
     0
  9
$LUNITS
 70
     2
  9
$LUPREC
 70
     4
  9
$SKETCHINC
 40
0.1
  9
$FILLETRAD
 40
0.5
  9
$AUNITS
 70
     0
  9
$AUPREC
 70
     0
  9
$MENU
  1
.
  9
$ELEVATION
 40
0.0
  9
$PELEVATION
 40
0.0
  9
$THICKNESS
 40
0.0
  9
$LIMCHECK
 70
     0
  9
$CHAMFERA
 40
0.5
  9
$CHAMFERB
 40
0.5
  9
$CHAMFERC
 40
1.0
  9
$CHAMFERD
 40
0.0
  9
$SKPOLY
 70
     0
  9
$TDCREATE
 40
2451380.930432396
  9
$TDUCREATE
 40
2451380.805432396
  9
$TDUPDATE
 40
2451380.966180555
  9
$TDUUPDATE
 40
2451380.841180556
  9
$TDINDWG
 40
0.0075642245
  9
$TDUSRTIMER
 40
0.0075551852
  9
$USRTIMER
 70
     1
  9
$ANGBASE
 50
0.0
  9
$ANGDIR
 70
     0
  9
$PDMODE
 70
     0
  9
$PDSIZE
 40
0.0
  9
$PLINEWID
 40
0.0
  9
$SPLFRAME
 70
     0
  9
$SPLINETYPE
 70
     6
  9
$SPLINESEGS
 70
     8
  9
$HANDSEED
  5
1BC
  9
$SURFTAB1
 70
     6
  9
$SURFTAB2
 70
     6
  9
$SURFTYPE
 70
     6
  9
$SURFU
 70
     6
  9
$SURFV
 70
     6
  9
$UCSBASE
  2

  9
$UCSNAME
  2

  9
$UCSORG
 10
0.0
 20
0.0
 30
0.0
  9
$UCSXDIR
 10
1.0
 20
0.0
 30
0.0
  9
$UCSYDIR
 10
0.0
 20
1.0
 30
0.0
  9
$UCSORTHOREF
  2

  9
$UCSORTHOVIEW
 70
     0
  9
$UCSORGTOP
 10
0.0
 20
0.0
 30
0.0
  9
$UCSORGBOTTOM
 10
0.0
 20
0.0
 30
0.0
  9
$UCSORGLEFT
 10
0.0
 20
0.0
 30
0.0
  9
$UCSORGRIGHT
 10
0.0
 20
0.0
 30
0.0
  9
$UCSORGFRONT
 10
0.0
 20
0.0
 30
0.0
  9
$UCSORGBACK
 10
0.0
 20
0.0
 30
0.0
  9
$PUCSBASE
  2

  9
$PUCSNAME
  2

  9
$PUCSORG
 10
0.0
 20
0.0
 30
0.0
  9
$PUCSXDIR
 10
1.0
 20
0.0
 30
0.0
  9
$PUCSYDIR
 10
0.0
 20
1.0
 30
0.0
  9
$PUCSORTHOREF
  2

  9
$PUCSORTHOVIEW
 70
     0
  9
$PUCSORGTOP
 10
0.0
 20
0.0
 30
0.0
  9
$PUCSORGBOTTOM
 10
0.0
 20
0.0
 30
0.0
  9
$PUCSORGLEFT
 10
0.0
 20
0.0
 30
0.0
  9
$PUCSORGRIGHT
 10
0.0
 20
0.0
 30
0.0
  9
$PUCSORGFRONT
 10
0.0
 20
0.0
 30
0.0
  9
$PUCSORGBACK
 10
0.0
 20
0.0
 30
0.0
  9
$USERI1
 70
     0
  9
$USERI2
 70
     0
  9
$USERI3
 70
     0
  9
$USERI4
 70
     0
  9
$USERI5
 70
     0
  9
$USERR1
 40
0.0
  9
$USERR2
 40
0.0
  9
$USERR3
 40
0.0
  9
$USERR4
 40
0.0
  9
$USERR5
 40
0.0
  9
$WORLDVIEW
 70
     1
  9
$SHADEDGE
 70
     3
  9
$SHADEDIF
 70
    70
  9
$TILEMODE
 70
     1
  9
$MAXACTVP
 70
    64
  9
$PINSBASE
 10
0.0
 20
0.0
 30
0.0
  9
$PLIMCHECK
 70
     0
  9
$PEXTMIN
 10
1.000000000000000E+20
 20
1.000000000000000E+20
 30
1.000000000000000E+20
  9
$PEXTMAX
 10
-1.000000000000000E+20
 20
-1.000000000000000E+20
 30
-1.000000000000000E+20
  9
$PLIMMIN
 10
0.0
 20
0.0
  9
$PLIMMAX
 10
12.0
 20
9.0
  9
$UNITMODE
 70
     0
  9
$VISRETAIN
 70
     1
  9
$PLINEGEN
 70
     0
  9
$PSLTSCALE
 70
     1
  9
$TREEDEPTH
 70
  3020
  9
$CMLSTYLE
  2
Standard
  9
$CMLJUST
 70
     0
  9
$CMLSCALE
 40
1.0
  9
$PROXYGRAPHICS
 70
     1
  9
$MEASUREMENT
 70
     1
  9
$CELWEIGHT
370
    -1
  9
$ENDCAPS
280
     0
  9
$JOINSTYLE
280
     0
  9
$LWDISPLAY
290
     0
  9
$INSUNITS
 70
     4
  9
$HYPERLINKBASE
  1

  9
$STYLESHEET
  1

  9
$XEDIT
290
     1
  9
$CEPSNTYPE
380
     0
  9
$PSTYLEMODE
290
     1
  9
$FINGERPRINTGUID
  2
{12F50282-3ED8-11D3-A8B7-0060B0F84BC6}
  9
$VERSIONGUID
  2
{12F50293-3ED8-11D3-A8B7-0060B0F84BC6}
  9
$EXTNAMES
290
     1
  9
$PSVPSCALE
 40
0.0
  9
$OLESTARTUP
290
     0
  9
$SORTENTS
280
   127
  9
$INDEXCTL
280
     0
  9
$HIDETEXT
280
     0
  9
$XCLIPFRAME
280
     2
  9
$HALOGAP
280
     0
  9
$OBSCOLOR
 70
   257
  9
$OBSLTYPE
280
     0
  9
$INTERSECTIONDISPLAY
280
     0
  9
$INTERSECTIONCOLOR
 70
   257
  9
$DIMASSOC
280
     1
  9
$PROJECTNAME
  1

  9
$CAMERADISPLAY
290
     0
  9
$LENSLENGTH
 40
50.0
  9
$CAMERAHEIGHT
 40
0.0
  9
$STEPSPERSEC
 40
2.0
  9
$STEPSIZE
 40
6.0
  9
$3DDWFPREC
 40
2.0
  9
$PSOLWIDTH
 40
0.25
  9
$PSOLHEIGHT
 40
4.0
  9
$LOFTANG1
 40
1.570796326794896
  9
$LOFTANG2
 40
1.570796326794896
  9
$LOFTMAG1
 40
0.0
  9
$LOFTMAG2
 40
0.0
  9
$LOFTPARAM
 70
     7
  9
$LOFTNORMALS
280
     1
  9
$LATITUDE
 40
37.795
  9
$LONGITUDE
 40
-122.394
  9
$NORTHDIRECTION
 40
0.0
  9
$TIMEZONE
 70
 -8000
  9
$LIGHTGLYPHDISPLAY
280
     1
  9
$TILEMODELIGHTSYNCH
280
     1
  9
$CMATERIAL
347
AB
  9
$SOLIDHIST
280
     0
  9
$SHOWHIST
280
     1
  9
$DWFFRAME
280
     2
  9
$DGNFRAME
280
     0
  9
$REALWORLDSCALE
290
     1
  9
$INTERFERECOLOR
 62
     1
  9
$INTERFEREOBJVS
345
CD
  9
$INTERFEREVPVS
346
CA
  9
$CSHADOW
280
     0
  9
$SHADOWPLANELOCATION
 40
0.0
  0
ENDSEC
  0
SECTION
  2
CLASSES
  0
CLASS
  1
ACDBDICTIONARYWDFLT
  2
AcDbDictionaryWithDefault
  3
ObjectDBX Classes
 90
        0
 91
        1
280
     0
281
     0
  0
CLASS
  1
ACDBPLACEHOLDER
  2
AcDbPlaceHolder
  3
ObjectDBX Classes
 90
        0
 91
        2
280
     0
281
     0
  0
CLASS
  1
LAYOUT
  2
AcDbLayout
  3
ObjectDBX Classes
 90
        0
 91
        3
280
     0
281
     0
  0
CLASS
  1
MATERIAL
  2
AcDbMaterial
  3
ObjectDBX Classes
 90
     1153
 91
        3
280
     0
281
     0
  0
CLASS
  1
VISUALSTYLE
  2
AcDbVisualStyle
  3
ObjectDBX Classes
 90
     4095
 91
       24
280
     0
281
     0
  0
CLASS
  1
TABLESTYLE
  2
AcDbTableStyle
  3
ObjectDBX Classes
 90
     4095
 91
        1
280
     0
281
     0
  0
CLASS
  1
SCALE
  2
AcDbScale
  3
ObjectDBX Classes
 90
     1153
 91
       17
280
     0
281
     0
  0
CLASS
  1
MLEADERSTYLE
  2
AcDbMLeaderStyle
  3
ACDB_MLEADERSTYLE_CLASS
 90
     4095
 91
        1
280
     0
281
     0
  0
CLASS
  1
ACDBSECTIONVIEWSTYLE
  2
AcDbSectionViewStyle
  3
ObjectDBX Classes
 90
     1025
 91
        1
280
     0
281
     0
  0
CLASS
  1
ACDBDETAILVIEWSTYLE
  2
AcDbDetailViewStyle
  3
ObjectDBX Classes
 90
     1025
 91
        1
280
     0
281
     0
  0
CLASS
  1
MESH
  2
AcDbSubDMesh
  3
ObjectDBX Classes
 90
        0
 91
        1
280
     0
281
     1
  0
CLASS
  1
DICTIONARYVAR
  2
AcDbDictionaryVar
  3
ObjectDBX Classes
 90
        0
 91
        9
280
     0
281
     0
  0
CLASS
  1
CELLSTYLEMAP
  2
AcDbCellStyleMap
  3
ObjectDBX Classes
 90
     1152
 91
        1
280
     0
281
     0
  0
ENDSEC
  0
SECTION
  2
TABLES
  0
TABLE
  2
VPORT
  5
8
330
0
100
AcDbSymbolTable
 70
     1
  0
VPORT
  5
A8
330
8
100
AcDbSymbolTableRecord
100
AcDbViewportTableRecord
  2
*Active
 70
     0
 10
0.0
 20
0.0
 11
1.0
 21
1.0
 12
-0.0000856424012454
 22
39.19176483154297
 13
0.0
 23
0.0
 14
0.5
 24
0.5
 15
0.5
 25
0.5
 16
-1.0
 26
-1.0
 36
1.0
 17
0.0
 27
0.0
 37
0.0
 40
1116.436451885475
 41
1.583115436294754
 42
50.0
 43
0.0
 44
0.0
 50
0.0
 51
0.0
 71
     0
 72
   100
 73
     1
 74
     3
 75
     0
 76
     0
 77
     0
 78
     0
281
     0
 65
     1
110
0.0
120
0.0
130
0.0
111
1.0
121
0.0
131
0.0
112
0.0
122
1.0
132
0.0
 79
     0
146
0.0
348
C9
 60
     3
 61
     5
292
     1
282
     1
141
0.0
142
0.0
 63
   250
421
  3355443
  0
ENDTAB
  0
TABLE
  2
LTYPE
  5
5
330
0
100
AcDbSymbolTable
 70
     1
  0
LTYPE
  5
14
330
5
100
AcDbSymbolTableRecord
100
AcDbLinetypeTableRecord
  2
ByBlock
 70
     0
  3

 72
    65
 73
     0
 40
0.0
  0
LTYPE
  5
15
330
5
100
AcDbSymbolTableRecord
100
AcDbLinetypeTableRecord
  2
ByLayer
 70
     0
  3

 72
    65
 73
     0
 40
0.0
  0
LTYPE
  5
16
330
5
100
AcDbSymbolTableRecord
100
AcDbLinetypeTableRecord
  2
Continuous
 70
     0
  3
Solid line
 72
    65
 73
     0
 40
0.0
  0
ENDTAB
  0
TABLE
  2
LAYER
  5
2
330
0
100
AcDbSymbolTable
 70
     3
  0
LAYER
  5
10
330
2
100
AcDbSymbolTableRecord
100
AcDbLayerTableRecord
  2
0
 70
     0
 62
     7
  6
Continuous
370
    -3
390
F
347
BB
  0
LAYER
  5
2B
330
2
100
AcDbSymbolTableRecord
100
AcDbLayerTableRecord
  2
ASHADE
 70
     4
 62
     7
  6
Continuous
370
    -3
390
2D
347
BB
  0
LAYER
  5
F8
330
2
100
AcDbSymbolTableRecord
100
AcDbLayerTableRecord
  2
OracDecor_panel_moldings
 70
     0
 62
   194
420
  5577905
  6
Continuous
370
    -3
390
F
347
BB
  0
ENDTAB
  0
TABLE
  2
STYLE
  5
3
330
0
100
AcDbSymbolTable
 70
     2
  0
STYLE
  5
11
330
3
100
AcDbSymbolTableRecord
100
AcDbTextStyleTableRecord
  2
Standard
 70
     0
 40
0.0
 41
1.0
 50
0.0
 71
     0
 42
0.2
  3
txt
  4

  0
STYLE
  5
2C
330
3
100
AcDbSymbolTableRecord
100
AcDbTextStyleTableRecord
  2
ASHADE
 70
     0
 40
0.2
 41
1.0
 50
0.0
 71
     0
 42
0.2
  3
simplex
  4

  0
ENDTAB
  0
TABLE
  2
VIEW
  5
6
330
0
100
AcDbSymbolTable
 70
     0
  0
ENDTAB
  0
TABLE
  2
UCS
  5
7
330
0
100
AcDbSymbolTable
 70
     0
  0
ENDTAB
  0
TABLE
  2
APPID
  5
9
330
0
100
AcDbSymbolTable
 70
     6
  0
APPID
  5
12
330
9
100
AcDbSymbolTableRecord
100
AcDbRegAppTableRecord
  2
ACAD
 70
     0
  0
APPID
  5
8F
330
9
100
AcDbSymbolTableRecord
100
AcDbRegAppTableRecord
  2
AVE_RENDER
 70
     0
  0
APPID
  5
90
330
9
100
AcDbSymbolTableRecord
100
AcDbRegAppTableRecord
  2
AVE_ENTITY_MATERIAL
 70
     0
  0
APPID
  5
9C
330
9
100
AcDbSymbolTableRecord
100
AcDbRegAppTableRecord
  2
AVE_FINISH
 70
     0
  0
APPID
  5
9D
330
9
100
AcDbSymbolTableRecord
100
AcDbRegAppTableRecord
  2
AVE_MATERIAL
 70
     0
  0
APPID
  5
9E
330
9
100
AcDbSymbolTableRecord
100
AcDbRegAppTableRecord
  2
AVE_GLOBAL
 70
     0
  0
ENDTAB
  0
TABLE
  2
DIMSTYLE
  5
A
330
0
100
AcDbSymbolTable
 70
     1
100
AcDbDimStyleTable
 71
     0
  0
DIMSTYLE
105
27
330
A
100
AcDbSymbolTableRecord
100
AcDbDimStyleTableRecord
  2
Standard
 70
     0
340
11
  0
ENDTAB
  0
TABLE
  2
BLOCK_RECORD
  5
1
330
0
100
AcDbSymbolTable
 70
     6
  0
BLOCK_RECORD
  5
1F
330
1
100
AcDbSymbolTableRecord
100
AcDbBlockTableRecord
  2
*Model_Space
340
22
 70
     0
280
     1
281
     0
  0
BLOCK_RECORD
  5
1B
330
1
100
AcDbSymbolTableRecord
100
AcDbBlockTableRecord
  2
*Paper_Space
340
1E
 70
     0
280
     1
281
     0
  0
BLOCK_RECORD
  5
23
330
1
100
AcDbSymbolTableRecord
100
AcDbBlockTableRecord
  2
*Paper_Space0
340
26
 70
     0
280
     1
281
     0
  0
BLOCK_RECORD
  5
2E
330
1
100
AcDbSymbolTableRecord
100
AcDbBlockTableRecord
  2
direct
340
0
 70
     0
280
     1
281
     0
  0
BLOCK_RECORD
  5
42
330
1
100
AcDbSymbolTableRecord
100
AcDbBlockTableRecord
  2
overhead
340
0
 70
     0
280
     1
281
     0
  0
BLOCK_RECORD
  5
5F
330
1
100
AcDbSymbolTableRecord
100
AcDbBlockTableRecord
  2
sh_spot
340
0
 70
     0
280
     1
281
     0
  0
BLOCK_RECORD
  5
91
330
1
100
AcDbSymbolTableRecord
100
AcDbBlockTableRecord
  2
AVE_RENDER
340
0
102
{BLKREFS
331
94
331
95
331
96
331
97
331
98
331
99
331
9A
331
9B
102
}
 70
     0
280
     1
281
     0
  0
BLOCK_RECORD
  5
9F
330
1
100
AcDbSymbolTableRecord
100
AcDbBlockTableRecord
  2
AVE_GLOBAL
340
0
102
{BLKREFS
331
A2
102
}
 70
     0
280
     1
281
     0
  0
ENDTAB
  0
ENDSEC
  0
SECTION
  2
BLOCKS
  0
BLOCK
  5
20
330
1F
100
AcDbEntity
  8
0
100
AcDbBlockBegin
  2
*Model_Space
 70
     0
 10
0.0
 20
0.0
 30
0.0
  3
*Model_Space
  1

  0
ENDBLK
  5
21
330
1F
100
AcDbEntity
  8
0
100
AcDbBlockEnd
  0
BLOCK
  5
1C
330
1B
100
AcDbEntity
 67
     1
  8
0
100
AcDbBlockBegin
  2
*Paper_Space
 70
     0
 10
0.0
 20
0.0
 30
0.0
  3
*Paper_Space
  1

  0
ENDBLK
  5
1D
330
1B
100
AcDbEntity
 67
     1
  8
0
100
AcDbBlockEnd
  0
BLOCK
  5
24
330
23
100
AcDbEntity
 67
     1
  8
0
100
AcDbBlockBegin
  2
*Paper_Space0
 70
     0
 10
0.0
 20
0.0
 30
0.0
  3
*Paper_Space0
  1

  0
ENDBLK
  5
25
330
23
100
AcDbEntity
 67
     1
  8
0
100
AcDbBlockEnd
  0
BLOCK
  5
40
330
2E
100
AcDbEntity
  8
0
100
AcDbBlockBegin
  2
direct
 70
     2
 10
0.0
 20
0.0
 30
0.0
  3
direct
  1

  0
ATTDEF
  5
2F
330
2E
100
AcDbEntity
  8
ASHADE
  6
Continuous
 62
     1
100
AcDbText
 10
0.0
 20
-0.1
 30
0.0
 40
0.2
  1

  7
ASHADE
 72
     1
 11
0.0
 21
-0.1
 31
0.0
100
AcDbAttributeDefinition
280
     0
  3
Light Name
  2
SNAME
 70
     0
280
     0
  0
ARC
  5
30
330
2E
100
AcDbEntity
  8
ASHADE
  6
Continuous
 62
     7
100
AcDbCircle
 10
0.0
 20
0.0
 30
0.0
 40
0.3
100
AcDbArc
 50
205.6792886194569
 51
334.3207113805431
  0
ARC
  5
31
330
2E
100
AcDbEntity
  8
ASHADE
  6
Continuous
 62
     7
100
AcDbCircle
 10
0.0
 20
0.0
 30
0.0
 40
0.3
100
AcDbArc
 50
25.67928861945685
 51
154.3207113805431
  0
LINE
  5
32
330
2E
100
AcDbEntity
  8
ASHADE
  6
Continuous
 62
     7
100
AcDbLine
 10
-0.21
 20
0.2142428528562855
 30
0.0
 11
-0.21
 21
0.5
 31
0.0
  0
LINE
  5
33
330
2E
100
AcDbEntity
  8
ASHADE
  6
Continuous
 62
     7
100
AcDbLine
 10
-0.11
 20
0.2791057147390572
 30
0.0
 11
-0.11
 21
0.5
 31
0.0
  0
LINE
  5
34
330
2E
100
AcDbEntity
  8
ASHADE
  6
Continuous
 62
     7
100
AcDbLine
 10
0.21
 20
0.2142428528562855
 30
0.0
 11
0.21
 21
0.5
 31
0.0
  0
ATTDEF
  5
35
330
2E
100
AcDbEntity
  8
ASHADE
  6
Continuous
 62
     7
100
AcDbText
 10
0.0
 20
0.25
 30
0.0
 40
0.01
  1

100
AcDbAttributeDefinition
280
     0
  3
Look-at Y
  2
LAY
 70
     1
280
     0
  0
ATTDEF
  5
36
330
2E
100
AcDbEntity
  8
ASHADE
  6
Continuous
 62
     7
100
AcDbText
 10
0.0
 20
0.22
 30
0.0
 40
0.01
  1
1
100
AcDbAttributeDefinition
280
     0
  3
Light Intensity
  2
INTENSITY
 70
     1
280
     0
  0
ATTDEF
  5
37
330
2E
100
AcDbEntity
  8
ASHADE
  6
Continuous
 62
     7
100
AcDbText
 10
0.0
 20
0.16
 30
0.0
 40
0.01
  1
-1
100
AcDbAttributeDefinition
280
     0
  3
*not used*
  2
BEAMD
 70
     1
280
     0
  0
ATTDEF
  5
38
330
2E
100
AcDbEntity
  8
ASHADE
  6
Continuous
 62
     7
100
AcDbText
 10
0.0
 20
0.175
 30
0.0
 40
0.01
  1
-1
100
AcDbAttributeDefinition
280
     0
  3
*not used*
  2
CONED
 70
     1
280
     0
  0
ATTDEF
  5
39
330
2E
100
AcDbEntity
  8
ASHADE
  6
Continuous
 62
     7
100
AcDbText
 10
0.0
 20
0.19
 30
0.0
 40
0.01
  1
0
100
AcDbAttributeDefinition
280
     0
  3
Depth Map Size
  2
CONEA
 70
     1
280
     0
  0
ATTDEF
  5
3A
330
2E
100
AcDbEntity
  8
ASHADE
  6
Continuous
 62
     7
100
AcDbText
 10
0.0
 20
0.2050000000000001
 30
0.0
 40
0.01
  1
1,1,1
100
AcDbAttributeDefinition
280
     0
  3
Light Color (RGB)
  2
COLOR
 70
     1
280
     0
  0
ATTDEF
  5
3B
330
2E
100
AcDbEntity
  8
ASHADE
  6
Continuous
 62
     7
100
AcDbText
 10
0.0
 20
0.235
 30
0.0
 40
0.01
  1

100
AcDbAttributeDefinition
280
     0
  3
Look-at Z
  2
LAZ
 70
     1
280
     0
  0
LINE
  5
3C
330
2E
100
AcDbEntity
  8
ASHADE
  6
Continuous
 62
     7
100
AcDbLine
 10
0.0
 20
0.3
 30
0.0
 11
0.0
 21
0.5
 31
0.0
  0
LINE
  5
3D
330
2E
100
AcDbEntity
  8
ASHADE
  6
Continuous
 62
     7
100
AcDbLine
 10
0.11
 20
0.2791057147390572
 30
0.0
 11
0.11
 21
0.5
 31
0.0
  0
ATTDEF
  5
3E
330
2E
100
AcDbEntity
  8
ASHADE
  6
Continuous
 62
     7
100
AcDbText
 10
0.0
 20
0.265
 30
0.0
 40
0.01
  1

100
AcDbAttributeDefinition
280
     0
  3
Look-at X
  2
LAX
 70
     1
280
     0
  0
ATTDEF
  5
3F
330
2E
100
AcDbEntity
  8
ASHADE
  6
Continuous
 62
     7
100
AcDbText
 10
0.0
 20
0.28
 30
0.0
 40
0.01
  1

100
AcDbAttributeDefinition
280
     0
  3

  2
GNAME
 70
     1
280
     0
  0
ENDBLK
  5
41
330
2E
100
AcDbEntity
  8
0
100
AcDbBlockEnd
  0
BLOCK
  5
5D
330
42
100
AcDbEntity
  8
0
100
AcDbBlockBegin
  2
overhead
 70
     2
 10
0.0
 20
0.0
 30
0.0
  3
overhead
  1

  0
ATTDEF
  5
43
330
42
100
AcDbEntity
  8
ASHADE
  6
Continuous
 62
     1
100
AcDbText
 10
0.0
 20
-0.1
 30
0.0
 40
0.2
  1

  7
ASHADE
 72
     1
 11
0.0
 21
-0.1
 31
0.0
100
AcDbAttributeDefinition
280
     0
  3
Light Name
  2
SNAME
 70
     0
280
     0
  0
ARC
  5
44
330
42
100
AcDbEntity
  8
ASHADE
  6
Continuous
 62
     7
100
AcDbCircle
 10
0.0
 20
0.0
 30
0.0
 40
0.3
100
AcDbArc
 50
205.6792886194569
 51
334.3207113805431
  0
LINE
  5
45
330
42
100
AcDbEntity
  8
ASHADE
  6
Continuous
 62
     7
100
AcDbLine
 10
-0.2041413561583015
 20
-0.2198324514393848
 30
0.0
 11
-0.2721884748777353
 21
-0.2931099352525131
 31
0.0
  0
LINE
  5
46
330
42
100
AcDbEntity
  8
ASHADE
  6
Continuous
 62
     7
100
AcDbLine
 10
-0.1096591641591904
 20
-0.2792398032442862
 30
0.0
 11
-0.1279356915190555
 21
-0.3257797704516673
 31
0.0
  0
LINE
  5
47
330
42
100
AcDbEntity
  8
ASHADE
  6
Continuous
 62
     7
100
AcDbLine
 10
0.0
 20
-0.2999999999999999
 30
0.0
 11
0.0
 21
-0.4
 31
0.0
  0
LINE
  5
48
330
42
100
AcDbEntity
  8
ASHADE
  6
Continuous
 62
     7
100
AcDbLine
 10
0.1096591641591904
 20
-0.2792398032442862
 30
0.0
 11
0.1279356915190555
 21
-0.3257797704516673
 31
0.0
  0
LINE
  5
49
330
42
100
AcDbEntity
  8
ASHADE
  6
Continuous
 62
     7
100
AcDbLine
 10
0.2041413561583015
 20
-0.2198324514393848
 30
0.0
 11
0.2721884748777353
 21
-0.2931099352525131
 31
0.0
  0
ARC
  5
4A
330
42
100
AcDbEntity
  8
ASHADE
  6
Continuous
 62
     7
100
AcDbCircle
 10
0.0
 20
0.0
 30
0.0
 40
0.3
100
AcDbArc
 50
25.67928861945685
 51
154.3207113805431
  0
LINE
  5
4B
330
42
100
AcDbEntity
  8
ASHADE
  6
Continuous
 62
     7
100
AcDbLine
 10
-0.2703701166919155
 20
0.13
 30
0.0
 11
-0.3154318028072347
 21
0.1516666666666666
 31
0.0
  0
LINE
  5
4C
330
42
100
AcDbEntity
  8
ASHADE
  6
Continuous
 62
     7
100
AcDbLine
 10
-0.2703701166919155
 20
-0.13
 30
0.0
 11
-0.3154318028072347
 21
-0.1516666666666666
 31
0.0
  0
LINE
  5
4D
330
42
100
AcDbEntity
  8
ASHADE
  6
Continuous
 62
     7
100
AcDbLine
 10
-0.2041413561583015
 20
0.2198324514393849
 30
0.0
 11
-0.2721884748777353
 21
0.2931099352525131
 31
0.0
  0
LINE
  5
4E
330
42
100
AcDbEntity
  8
ASHADE
  6
Continuous
 62
     7
100
AcDbLine
 10
-0.1096591641591904
 20
0.2792398032442862
 30
0.0
 11
-0.1279356915190555
 21
0.3257797704516674
 31
0.0
  0
LINE
  5
4F
330
42
100
AcDbEntity
  8
ASHADE
  6
Continuous
 62
     7
100
AcDbLine
 10
0.2703701166919155
 20
-0.13
 30
0.0
 11
0.3154318028072347
 21
-0.1516666666666666
 31
0.0
  0
LINE
  5
50
330
42
100
AcDbEntity
  8
ASHADE
  6
Continuous
 62
     7
100
AcDbLine
 10
0.2703701166919155
 20
0.13
 30
0.0
 11
0.3154318028072347
 21
0.1516666666666666
 31
0.0
  0
LINE
  5
51
330
42
100
AcDbEntity
  8
ASHADE
  6
Continuous
 62
     7
100
AcDbLine
 10
0.0
 20
0.3
 30
0.0
 11
0.0
 21
0.4
 31
0.0
  0
ATTDEF
  5
52
330
42
100
AcDbEntity
  8
ASHADE
  6
Continuous
 62
     7
100
AcDbText
 10
0.0
 20
0.22
 30
0.0
 40
0.01
  1
1
100
AcDbAttributeDefinition
280
     0
  3
Light Intensity
  2
INTENSITY
 70
     1
280
     0
  0
ATTDEF
  5
53
330
42
100
AcDbEntity
  8
ASHADE
  6
Continuous
 62
     7
100
AcDbText
 10
0.0
 20
0.16
 30
0.0
 40
0.01
  1
-1
100
AcDbAttributeDefinition
280
     0
  3
*not used*
  2
BEAMD
 70
     1
280
     0
  0
ATTDEF
  5
54
330
42
100
AcDbEntity
  8
ASHADE
  6
Continuous
 62
     7
100
AcDbText
 10
0.0
 20
0.175
 30
0.0
 40
0.01
  1
-1
100
AcDbAttributeDefinition
280
     0
  3
*not used*
  2
CONED
 70
     1
280
     0
  0
ATTDEF
  5
55
330
42
100
AcDbEntity
  8
ASHADE
  6
Continuous
 62
     7
100
AcDbText
 10
0.0
 20
0.19
 30
0.0
 40
0.01
  1
0
100
AcDbAttributeDefinition
280
     0
  3
Depth Map Size
  2
CONEA
 70
     1
280
     0
  0
ATTDEF
  5
56
330
42
100
AcDbEntity
  8
ASHADE
  6
Continuous
 62
     7
100
AcDbText
 10
0.0
 20
0.2050000000000001
 30
0.0
 40
0.01
  1
1,1,1
100
AcDbAttributeDefinition
280
     0
  3
Light Color (RGB)
  2
COLOR
 70
     1
280
     0
  0
ATTDEF
  5
57
330
42
100
AcDbEntity
  8
ASHADE
  6
Continuous
 62
     7
100
AcDbText
 10
0.0
 20
0.235
 30
0.0
 40
0.01
  1

100
AcDbAttributeDefinition
280
     0
  3
Look-at Z
  2
LAZ
 70
     1
280
     0
  0
ATTDEF
  5
58
330
42
100
AcDbEntity
  8
ASHADE
  6
Continuous
 62
     7
100
AcDbText
 10
0.0
 20
0.25
 30
0.0
 40
0.01
  1

100
AcDbAttributeDefinition
280
     0
  3
Look-at Y
  2
LAY
 70
     1
280
     0
  0
ATTDEF
  5
59
330
42
100
AcDbEntity
  8
ASHADE
  6
Continuous
 62
     7
100
AcDbText
 10
0.0
 20
0.265
 30
0.0
 40
0.01
  1

100
AcDbAttributeDefinition
280
     0
  3
Look-at X
  2
LAX
 70
     1
280
     0
  0
ATTDEF
  5
5A
330
42
100
AcDbEntity
  8
ASHADE
  6
Continuous
 62
     7
100
AcDbText
 10
0.0
 20
0.28
 30
0.0
 40
0.01
  1

100
AcDbAttributeDefinition
280
     0
  3

  2
GNAME
 70
     1
280
     0
  0
LINE
  5
5B
330
42
100
AcDbEntity
  8
ASHADE
  6
Continuous
 62
     7
100
AcDbLine
 10
0.1096591641591904
 20
0.2792398032442862
 30
0.0
 11
0.1279356915190555
 21
0.3257797704516674
 31
0.0
  0
LINE
  5
5C
330
42
100
AcDbEntity
  8
ASHADE
  6
Continuous
 62
     7
100
AcDbLine
 10
0.2041413561583015
 20
0.2198324514393849
 30
0.0
 11
0.2721884748777353
 21
0.2931099352525131
 31
0.0
  0
ENDBLK
  5
5E
330
42
100
AcDbEntity
  8
0
100
AcDbBlockEnd
  0
BLOCK
  5
85
330
5F
100
AcDbEntity
  8
0
100
AcDbBlockBegin
  2
sh_spot
 70
     2
 10
0.0
 20
0.0
 30
0.0
  3
sh_spot
  1

  0
LINE
  5
60
330
5F
100
AcDbEntity
  8
ASHADE
  6
Continuous
 62
     7
100
AcDbLine
 10
0.25
 20
0.26
 30
0.0
 11
-0.25
 21
0.26
 31
0.0
  0
LINE
  5
61
330
5F
100
AcDbEntity
  8
ASHADE
  6
Continuous
 62
     7
100
AcDbLine
 10
-0.25
 20
-0.3399999999999999
 30
0.0
 11
0.25
 21
-0.3399999999999999
 31
0.0
  0
ATTDEF
  5
62
330
5F
100
AcDbEntity
  8
ASHADE
  6
Continuous
 62
     1
100
AcDbText
 10
0.0
 20
-0.1
 30
0.0
 40
0.2
  1

  7
ASHADE
 72
     1
 11
0.0
 21
-0.1
 31
0.0
100
AcDbAttributeDefinition
280
     0
  3
Light Name
  2
SNAME
 70
     0
280
     0
  0
LINE
  5
63
330
5F
100
AcDbEntity
  8
ASHADE
  6
Continuous
 62
     7
100
AcDbLine
 10
-0.25
 20
-0.13
 30
0.0
 11
-0.25
 21
-0.3399999999999999
 31
0.0
  0
LINE
  5
64
330
5F
100
AcDbEntity
  8
ASHADE
  6
Continuous
 62
     7
100
AcDbLine
 10
-0.25
 20
-0.18
 30
0.0
 11
-0.29
 21
-0.18
 31
0.0
  0
LINE
  5
65
330
5F
100
AcDbEntity
  8
ASHADE
  6
Continuous
 62
     7
100
AcDbLine
 10
-0.29
 20
-0.22
 30
0.0
 11
-0.25
 21
-0.22
 31
0.0
  0
LINE
  5
66
330
5F
100
AcDbEntity
  8
ASHADE
  6
Continuous
 62
     7
100
AcDbLine
 10
-0.29
 20
-0.18
 30
0.0
 11
-0.29
 21
-0.22
 31
0.0
  0
LINE
  5
67
330
5F
100
AcDbEntity
  8
ASHADE
  6
Continuous
 62
     7
100
AcDbLine
 10
-0.1045454545454545
 20
0.26
 30
0.0
 11
-0.15
 21
0.46
 31
0.0
  0
LINE
  5
68
330
5F
100
AcDbEntity
  8
ASHADE
  6
Continuous
 62
     7
100
AcDbLine
 10
-0.21
 20
0.26
 30
0.0
 11
-0.301304347826087
 21
0.46
 31
0.0
  0
LINE
  5
69
330
5F
100
AcDbEntity
  8
ASHADE
  6
Continuous
 62
     7
100
AcDbLine
 10
-0.25
 20
0.26
 30
0.0
 11
-0.25
 21
0.13
 31
0.0
  0
LINE
  5
6A
330
5F
100
AcDbEntity
  8
ASHADE
  6
Continuous
 62
     7
100
AcDbLine
 10
-0.25
 20
0.22
 30
0.0
 11
-0.29
 21
0.22
 31
0.0
  0
LINE
  5
6B
330
5F
100
AcDbEntity
  8
ASHADE
  6
Continuous
 62
     7
100
AcDbLine
 10
-0.29
 20
0.1799999999999999
 30
0.0
 11
-0.25
 21
0.1799999999999999
 31
0.0
  0
LINE
  5
6C
330
5F
100
AcDbEntity
  8
ASHADE
  6
Continuous
 62
     7
100
AcDbLine
 10
-0.29
 20
0.22
 30
0.0
 11
-0.29
 21
0.1799999999999999
 31
0.0
  0
ATTDEF
  5
6D
330
5F
100
AcDbEntity
  8
ASHADE
  6
Continuous
 62
     7
100
AcDbText
 10
0.0
 20
-0.24
 30
0.0
 40
0.01
  1
0
100
AcDbAttributeDefinition
280
     0
  3
Depth Map Size
  2
ZSIZE
 70
     1
280
     0
  0
ATTDEF
  5
6E
330
5F
100
AcDbEntity
  8
ASHADE
  6
Continuous
 62
     7
100
AcDbText
 10
0.0
 20
-0.3300000000000001
 30
0.0
 40
0.01
  1
0,0,0
100
AcDbAttributeDefinition
280
     0
  3
Look-from XYZ
  2
LFXYZ
 70
     1
280
     0
  0
ATTDEF
  5
6F
330
5F
100
AcDbEntity
  8
ASHADE
  6
Continuous
 62
     7
100
AcDbText
 10
0.0
 20
-0.315
 30
0.0
 40
0.01
  1
0.0
100
AcDbAttributeDefinition
280
     0
  3
Beam Distribution
  2
BEAMDI
 70
     1
280
     0
  0
ATTDEF
  5
70
330
5F
100
AcDbEntity
  8
ASHADE
  6
Continuous
 62
     7
100
AcDbText
 10
0.0
 20
-0.3
 30
0.0
 40
0.01
  1
0.0
100
AcDbAttributeDefinition
280
     0
  3
Cone Delta
  2
CONEDE
 70
     1
280
     0
  0
ATTDEF
  5
71
330
5F
100
AcDbEntity
  8
ASHADE
  6
Continuous
 62
     7
100
AcDbText
 10
0.0
 20
-0.2850000000000001
 30
0.0
 40
0.01
  1
10.0
100
AcDbAttributeDefinition
280
     0
  3
Cone Angle
  2
CONEAN
 70
     1
280
     0
  0
ATTDEF
  5
72
330
5F
100
AcDbEntity
  8
ASHADE
  6
Continuous
 62
     7
100
AcDbText
 10
0.0
 20
-0.27
 30
0.0
 40
0.01
  1
-1
100
AcDbAttributeDefinition
280
     0
  3
*not used*
  2
BIASMAX
 70
     1
280
     0
  0
ATTDEF
  5
73
330
5F
100
AcDbEntity
  8
ASHADE
  6
Continuous
 62
     7
100
AcDbText
 10
0.0
 20
-0.255
 30
0.0
 40
0.01
  1
-1
100
AcDbAttributeDefinition
280
     0
  3
*not used*
  2
BIASMIN
 70
     1
280
     0
  0
ATTDEF
  5
74
330
5F
100
AcDbEntity
  8
ASHADE
  6
Continuous
 62
     7
100
AcDbText
 10
0.0
 20
-0.225
 30
0.0
 40
0.01
  1
1,1,1
100
AcDbAttributeDefinition
280
     0
  3
Light Color (RGB)
  2
COLOR
 70
     1
280
     0
  0
ATTDEF
  5
75
330
5F
100
AcDbEntity
  8
ASHADE
  6
Continuous
 62
     7
100
AcDbText
 10
0.0
 20
-0.21
 30
0.0
 40
0.01
  1
1
100
AcDbAttributeDefinition
280
     0
  3
Light Intensity
  2
INTENSITY
 70
     1
280
     0
  0
ATTDEF
  5
76
330
5F
100
AcDbEntity
  8
ASHADE
  6
Continuous
 62
     7
100
AcDbText
 10
0.0
 20
-0.15
 30
0.0
 40
0.01
  1

100
AcDbAttributeDefinition
280
     0
  3

  2
GNAME
 70
     1
280
     0
  0
ATTDEF
  5
77
330
5F
100
AcDbEntity
  8
ASHADE
  6
Continuous
 62
     7
100
AcDbText
 10
0.0
 20
-0.195
 30
0.0
 40
0.01
  1

100
AcDbAttributeDefinition
280
     0
  3
Look-at Z
  2
LAZ
 70
     1
280
     0
  0
ATTDEF
  5
78
330
5F
100
AcDbEntity
  8
ASHADE
  6
Continuous
 62
     7
100
AcDbText
 10
0.0
 20
-0.18
 30
0.0
 40
0.01
  1

100
AcDbAttributeDefinition
280
     0
  3
Look-at Y
  2
LAY
 70
     1
280
     0
  0
ATTDEF
  5
79
330
5F
100
AcDbEntity
  8
ASHADE
  6
Continuous
 62
     7
100
AcDbText
 10
0.0
 20
-0.165
 30
0.0
 40
0.01
  1

100
AcDbAttributeDefinition
280
     0
  3
Look-at X
  2
LAX
 70
     1
280
     0
  0
LINE
  5
7A
330
5F
100
AcDbEntity
  8
ASHADE
  6
Continuous
 62
     7
100
AcDbLine
 10
0.25
 20
-0.3399999999999999
 30
0.0
 11
0.25
 21
-0.13
 31
0.0
  0
LINE
  5
7B
330
5F
100
AcDbEntity
  8
ASHADE
  6
Continuous
 62
     7
100
AcDbLine
 10
0.25
 20
-0.18
 30
0.0
 11
0.29
 21
-0.18
 31
0.0
  0
LINE
  5
7C
330
5F
100
AcDbEntity
  8
ASHADE
  6
Continuous
 62
     7
100
AcDbLine
 10
0.29
 20
-0.22
 30
0.0
 11
0.25
 21
-0.22
 31
0.0
  0
LINE
  5
7D
330
5F
100
AcDbEntity
  8
ASHADE
  6
Continuous
 62
     7
100
AcDbLine
 10
0.29
 20
-0.18
 30
0.0
 11
0.29
 21
-0.22
 31
0.0
  0
LINE
  5
7E
330
5F
100
AcDbEntity
  8
ASHADE
  6
Continuous
 62
     7
100
AcDbLine
 10
0.21
 20
0.26
 30
0.0
 11
0.301304347826087
 21
0.46
 31
0.0
  0
LINE
  5
7F
330
5F
100
AcDbEntity
  8
ASHADE
  6
Continuous
 62
     7
100
AcDbLine
 10
0.1045454545454545
 20
0.26
 30
0.0
 11
0.15
 21
0.46
 31
0.0
  0
LINE
  5
80
330
5F
100
AcDbEntity
  8
ASHADE
  6
Continuous
 62
     7
100
AcDbLine
 10
0.0
 20
0.26
 30
0.0
 11
0.0
 21
0.46
 31
0.0
  0
LINE
  5
81
330
5F
100
AcDbEntity
  8
ASHADE
  6
Continuous
 62
     7
100
AcDbLine
 10
0.25
 20
0.13
 30
0.0
 11
0.25
 21
0.26
 31
0.0
  0
LINE
  5
82
330
5F
100
AcDbEntity
  8
ASHADE
  6
Continuous
 62
     7
100
AcDbLine
 10
0.25
 20
0.22
 30
0.0
 11
0.29
 21
0.22
 31
0.0
  0
LINE
  5
83
330
5F
100
AcDbEntity
  8
ASHADE
  6
Continuous
 62
     7
100
AcDbLine
 10
0.29
 20
0.1799999999999999
 30
0.0
 11
0.25
 21
0.1799999999999999
 31
0.0
  0
LINE
  5
84
330
5F
100
AcDbEntity
  8
ASHADE
  6
Continuous
 62
     7
100
AcDbLine
 10
0.29
 20
0.22
 30
0.0
 11
0.29
 21
0.1799999999999999
 31
0.0
  0
ENDBLK
  5
86
330
5F
100
AcDbEntity
  8
0
100
AcDbBlockEnd
  0
BLOCK
  5
92
330
91
100
AcDbEntity
  8
ASHADE
100
AcDbBlockBegin
  2
AVE_RENDER
 70
     0
 10
0.0
 20
0.0
 30
0.0
  3
AVE_RENDER
  1
AVE_RENDER
  0
ENDBLK
  5
93
330
91
100
AcDbEntity
  8
0
100
AcDbBlockEnd
  0
BLOCK
  5
A0
330
9F
100
AcDbEntity
  8
ASHADE
100
AcDbBlockBegin
  2
AVE_GLOBAL
 70
     0
 10
0.0
 20
0.0
 30
0.0
  3
AVE_GLOBAL
  1
AVE_GLOBAL
  0
ENDBLK
  5
A1
330
9F
100
AcDbEntity
  8
0
100
AcDbBlockEnd
  0
ENDSEC
  0
SECTION
  2
ENTITIES
  0
INSERT
  5
94
330
1F
100
AcDbEntity
  8
ASHADE
 62
     1
100
AcDbBlockReference
  2
AVE_RENDER
 10
0.0
 20
0.0
 30
0.0
1001
AVE_RENDER
1002
{
1070
     7
1000
Pref
1070
    30
1070
    20
1070
     1
1070
     0
1000

1070
    10
1070
     1
1070
    10
1040
1.0
1070
     1
1040
0.3
1040
0.7
1040
0.0
1040
10.0
1010
-1.0
1020
-1.0
1030
-1.0
1040
0.3
1070
    49
1070
     0
1070
     0
1010
1.0
1020
1.0
1030
1.0
1040
45.0
1070
     1
1070
     0
1000
WCS
1040
0.0
1070
     0
1040
10.0
1002
}
  0
INSERT
  5
95
330
1F
100
AcDbEntity
  8
ASHADE
 62
     3
100
AcDbBlockReference
  2
AVE_RENDER
 10
0.0
 20
0.0
 30
0.0
1001
AVE_RENDER
1002
{
1070
     0
1000
Full Opt
1070
     0
1070
     1
1070
     1
1070
     1
1070
     0
1070
     0
1070
     0
1070
     1
1070
     1
1040
0.0001
1040
0.0001
1002
}
  0
INSERT
  5
96
330
1F
100
AcDbEntity
  8
ASHADE
 62
     4
100
AcDbBlockReference
  2
AVE_RENDER
 10
0.0
 20
0.0
 30
0.0
1001
AVE_RENDER
1002
{
1070
     0
1000
Quick Opt
1070
     0
1070
     1
1070
     1
1070
     1
1070
     0
1070
     0
1070
     1
1002
}
  0
INSERT
  5
97
330
1F
100
AcDbEntity
  8
ASHADE
 62
     5
100
AcDbBlockReference
  2
AVE_RENDER
 10
0.0
 20
0.0
 30
0.0
1001
AVE_RENDER
1002
{
1070
     1
1000
Scanl Opt
1070
     2
1070
     0
1070
     2
1040
2.0
1040
4.0
1070
     0
1070
     1
1070
     0
1040
0.03
1002
}
  0
INSERT
  5
98
330
1F
100
AcDbEntity
  8
ASHADE
 62
     6
100
AcDbBlockReference
  2
AVE_RENDER
 10
0.0
 20
0.0
 30
0.0
1001
AVE_RENDER
1002
{
1070
     2
1000
Raytr Opt
1070
     2
1070
     0
1070
     2
1040
2.0
1040
4.0
1070
     0
1070
     1
1070
     1
1040
0.03
1070
     3
1040
0.03
1002
}
  0
INSERT
  5
99
330
1F
100
AcDbEntity
  8
ASHADE
 62
     7
100
AcDbBlockReference
  2
AVE_RENDER
 10
0.0
 20
0.0
 30
0.0
1001
AVE_RENDER
1002
{
1070
     0
1000
RFile Opt
1070
     1
1070
   640
1070
   480
1070
 10000
1070
     1
1070
     8
1070
     8
1070
     0
1070
     0
1070
     0
1070
     0
1070
     0
1070
     0
1070
     0
1002
}
  0
INSERT
  5
9A
330
1F
100
AcDbEntity
  8
ASHADE
 62
     8
100
AcDbBlockReference
  2
AVE_RENDER
 10
0.0
 20
0.0
 30
0.0
1001
AVE_RENDER
1002
{
1070
     0
1000
Fog Opt
1070
     0
1070
     0
1040
0.0
1040
1.0
1040
0.0
1040
1.0
1010
0.5
1020
0.5
1030
0.5
1002
}
  0
INSERT
  5
9B
330
1F
100
AcDbEntity
  8
ASHADE
 62
     9
100
AcDbBlockReference
  2
AVE_RENDER
 10
0.0
 20
0.0
 30
0.0
1001
AVE_RENDER
1002
{
1070
     0
1000
BG Opt
1070
     0
1070
     1
1010
0.0
1020
0.0
1030
0.0
1010
1.0
1020
0.0
1030
0.0
1010
0.0
1020
1.0
1030
0.0
1010
0.0
1020
0.0
1030
1.0
1040
0.5
1040
0.33
1040
0.0
1000

1070
     1
1000

1070
     1
1070
     1
1040
1.0
1040
1.0
1040
0.0
1040
0.0
1070
     0
1002
}
  0
INSERT
  5
A2
330
1F
100
AcDbEntity
  8
ASHADE
 62
     1
100
AcDbBlockReference
  2
AVE_GLOBAL
 10
0.0
 20
0.0
 30
0.0
1001
AVE_MATERIAL
1002
{
1000
*GLOBAL*
1000
2
1000
Global finish.
1002
{
1002
}
1002
{
1070
    63
1002
{
1002
{
1010
-1.0
1020
-1.0
1030
-1.0
1002
}
1040
0.1000000014901161
1000

1040
0.0
1002
{
1002
}
1040
0.0
1002
{
1002
}
1040
0.0
1002
}
1002
{
1002
{
1010
-1.0
1020
-1.0
1030
-1.0
1002
}
1040
0.6999999880790711
1000

1040
0.0
1002
{
1002
}
1040
0.0
1002
{
1002
}
1040
0.0
1002
}
1002
{
1002
{
1010
-1.0
1020
-1.0
1030
-1.0
1002
}
1040
0.2000000029802322
1000

1040
0.0
1002
{
1002
}
1040
0.0
1002
{
1002
}
1040
0.0
1002
}
1002
{
1070
     0
1002
{
1070
     1
1002
{
1040
1.0
1040
1.0
1000

1040
0.0
1002
{
1002
}
1040
0.0
1002
{
1002
}
1040
0.0
1002
}
1002
}
1040
1.0
1040
0.0
1040
0.0
1002
}
1002
{
1040
1.0
1040
1.0
1000

1040
0.0
1002
{
1002
}
1040
0.0
1002
{
1002
}
1040
0.0
1002
}
1002
{
1040
0.5
1040
1.0
1000

1040
0.0
1002
{
1002
}
1040
0.0
1002
{
1002
}
1040
0.0
1002
}
1002
{
1070
     0
1040
0.0
1002
{
1002
}
1040
1.0
1002
{
1002
}
1040
0.0
1002
}
1002
{
1040
0.0
1002
{
1002
{
1010
0.0
1020
0.0
1030
0.0
1002
}
1040
1.0
1000

1040
0.0
1002
{
1002
}
1040
0.0
1002
{
1002
}
1040
0.0
1002
}
1002
}
1002
{
1002
{
1070
     1
1002
{
1040
0.0
1040
1.0
1000

1040
0.0
1002
{
1002
}
1040
0.0
1002
{
1002
}
1040
0.0
1002
}
1002
}
1040
0.0
1002
{
1002
}
1010
1.0
1020
0.0
1030
0.0
1010
0.0
1020
1.0
1030
0.0
1010
0.0
1020
0.0
1030
1.0
1070
     0
1002
}
1002
{
1002
{
1040
1.0
1040
1.0
1002
{
1070
     1
1002
{
1040
1.0
1040
1.0
1000

1040
0.0
1002
{
1002
}
1040
0.0
1002
{
1002
}
1040
0.0
1002
}
1002
}
1002
}
1070
     0
1040
0.0
1002
{
1002
}
1002
}
1002
{
1002
}
1002
}
1002
{
1071
        3
1070
     3
1070
     0
1002
{
1070
     2
1070
     0
1070
     0
1040
0.0
1002
}
1070
     0
1070
     2
1002
{
1002
}
1002
}
1002
{
1040
8030.0
1040
190.3000030517578
1040
0.3050000071525574
1040
228.0
1040
545.0
1040
14.0
1040
17.39999961853027
1040
0.4560000002384186
1002
}
1002
}
  0
MESH
  5
F9
330
1F
100
AcDbEntity
  8
OracDecor_panel_moldings
 62
    61
420
 14083225
160
             39824
310
909B0000520400000C00000013000000020000003C00000006000000020000000000004000408F40000000E00000043F00000020AA2E56400000004000408F40000000E00000033F00000080FFFF57400C000000130000000A0000003C00000006000000020000000000004000408F4000000020F6FF1BC00000004044F457
310
400000004000408F40000000E00000033F00000080FFFF57400C00000013000000120000003C00000006000000020000000000004000408F4000000000EA98E5BF00000020451756400000004000408F4000000020F6FF1BC00000004044F457400C000000130000001A0000003C0000000600000002000000000000400040
310
8F40000000E00000043F00000020AA2E56400000004000408F4000000000EA98E5BF00000020451756400C00000013000000220000003C00000006000000020000000000004000408F4000000000E298E5BF000000009E8B1E400000004000408F40000000E0F4FF1BC0000000006075C73F0C000000130000002A0000003C
310
00000006000000020000000000004000408F40000000E00080063F00000000000000BF0000004000408F40000000E0F4FF1BC0000000006075C73F0C00000013000000320000003C00000006000000020000000000004000408F40000000E00080053F000000004E151D400000004000408F40000000E00080063F00000000
310
000000BF0C000000130000003A0000003C00000006000000020000000000004000408F4000000000E298E5BF000000009E8B1E400000004000408F40000000E00080053F000000004E151D400C00000013000000420000003C00000006000000020000000000004000408F4000000000E298E5BF000000009E8B1E40000000
310
4000408F40000000A0A3551CC0000000006078FB3F0C000000130000004A0000003C00000006000000020000000000004000408F40000000E0F4FF1BC0000000006075C73F0000004000408F40000000A0A3551CC0000000006078FB3F0C00000013000000520000003C00000006000000020000000000004000408F400000
310
0000E298E5BF000000009E8B1E400000004000408F40000000606EB11CC000000000A45206400C000000130000005A0000003C00000006000000020000000000004000408F40000000A0A3551CC0000000006078FB3F0000004000408F40000000606EB11CC000000000A45206400C00000013000000620000003C00000006
310
000000020000000000004000408F4000000000E298E5BF000000009E8B1E400000004000408F40000000C0C9591DC00000000088A90F400C000000130000006A0000003C00000006000000020000000000004000408F40000000606EB11CC000000000A45206400000004000408F40000000C0C9591DC00000000088A90F40
310
0C00000013000000720000003C00000006000000020000000000004000408F4000000000062EF2BF00000000F77F20400000004000408F4000000000BF6D1EC000000000E80F14400C000000130000007A0000003C00000006000000020000000000004000408F40000000C0C9591DC00000000088A90F400000004000408F
310
4000000000BF6D1EC000000000E80F14400C00000013000000820000003C00000006000000020000000000004000408F4000000000E298E5BF000000009E8B1E400000004000408F4000000000062EF2BF00000000F77F20400C000000130000008A0000003C00000006000000020000000000004000408F4000000000062E
310
F2BF00000000F77F20400000004000408F40000000001A1B20C00000000006C517400C00000013000000920000003C00000006000000020000000000004000408F4000000000BF6D1EC000000000E80F14400000004000408F40000000001A1B20C00000000006C517400C000000130000009A0000003C0000000600000002
310
0000000000004000408F4000000000062EF2BF00000000F77F20400000004000408F4000000000747821C000000000A0A31A400C00000013000000A20000003C00000006000000020000000000004000408F40000000001A1B20C00000000006C517400000004000408F4000000000747821C000000000A0A31A400C000000
310
13000000AA0000003C00000006000000020000000000004000408F4000000060FAFF2BC000000000D65D26400000004000408F4000000060973530C000000040245133400C00000013000000B20000003C00000006000000020000000000004000408F4000000020FD7F31C000000000EB6E32400000004000408F40000000
310
60973530C000000040245133400C00000013000000BA0000003C00000006000000020000000000004000408F4000000020FD7F31C000000000D65D26400000004000408F4000000020FD7F31C000000000EB6E32400C00000013000000C20000003C00000006000000020000000000004000408F4000000060FAFF2BC00000
310
0000D65D26400000004000408F4000000020FD7F31C000000000D65D26400C00000013000000CA0000003C00000006000000020000000000004000408F4000000060FAFF2BC000000000D65D26400000004000408F4000000080EBEA2EC00000008084E933400C00000013000000D20000003C000000060000000200000000
310
00004000408F4000000060973530C000000040245133400000004000408F4000000080EBEA2EC00000008084E933400C00000013000000DA0000003C00000006000000020000000000004000408F4000000060FAFF2BC000000000D65D26400000004000408F40000000804E432DC000000040BFA534400C00000013000000
310
E20000003C00000006000000020000000000004000408F4000000080EBEA2EC00000008084E933400000004000408F40000000804E432DC000000040BFA534400C00000013000000EA0000003C00000006000000020000000000004000408F4000000060FAFF2BC000000000D65D26400000004000408F40000000800FDD2B
310
C000000060035C35400C00000013000000F20000003C00000006000000020000000000004000408F40000000804E432DC000000040BFA534400000004000408F40000000800FDD2BC000000060035C35400C00000013000000FA0000003C00000006000000020000000000004000408F400000000094CCF4BF00000000FCFF
310
21400000004000408F4000000040124523C000000000B4B31C400C00000013000000020100003C00000006000000020000000000004000408F4000000000747821C000000000A0A31A400000004000408F4000000040124523C000000000B4B31C400C000000130000000A0100003C00000006000000020000000000004000
310
408F4000000000062EF2BF00000000F77F20400000004000408F400000000094CCF4BF00000000FCFF21400C00000013000000120100003C00000006000000020000000000004000408F400000000061F80CC0000000E00C9F37400000004000408F4000000000E498E5BF0000000029BA24400C000000130000001A010000
310
3C00000006000000020000000000004000408F40000000E00080053F00000000517525400000004000408F4000000000E498E5BF0000000029BA24400C00000013000000220100003C00000006000000020000000000004000408F40000000E00080063F00000000FEFF33400000004000408F40000000E00080053F000000
310
00517525400C000000130000002A0100003C00000006000000020000000000004000408F400000000061F80CC0000000E00C9F37400000004000408F40000000E00080063F00000000FEFF33400C00000013000000320100003C00000006000000020000000000004000408F40000000801A1611C000000060359838400000
310
004000408F4000000000062EF2BF00000000018023400C000000130000003A0100003C00000006000000020000000000004000408F4000000000E498E5BF0000000029BA24400000004000408F4000000000062EF2BF00000000018023400C00000013000000420100003C00000006000000020000000000004000408F4000
310
00000061F80CC0000000E00C9F37400000004000408F40000000801A1611C000000060359838400C000000130000004A0100003C00000006000000020000000000004000408F40000000801A1611C000000060359838400000004000408F4000000040FA4C25C0000000003C241E400C00000013000000520100003C000000
310
06000000020000000000004000408F4000000000062EF2BF00000000018023400000004000408F4000000040FA4C25C0000000003C241E400C000000130000005A0100003C00000006000000020000000000004000408F40000000801A1611C000000060359838400000004000408F4000000080D91229C0000000C01CD537
310
400C00000013000000620100003C00000006000000020000000000004000408F40000000C0BDA129C0000000802AFA36400000004000408F4000000080D91229C0000000C01CD537400C000000130000006A0100003C00000006000000020000000000004000408F40000000E0569927C00000000029401F40000000400040
310
8F40000000C0BDA129C0000000802AFA36400C00000013000000720100003C00000006000000020000000000004000408F4000000040FA4C25C0000000003C241E400000004000408F40000000E0569927C00000000029401F400C000000130000007A0100003C00000006000000020000000000004000408F4000000000F5
310
FF11C0000000C01BBE39400000004000408F40000000002FFB28C00000000058BA38400C00000013000000820100003C00000006000000020000000000004000408F4000000080D91229C0000000C01CD537400000004000408F40000000002FFB28C00000000058BA38400C000000130000008A0100003C00000006000000
310
020000000000004000408F40000000801A1611C000000060359838400000004000408F4000000000F5FF11C0000000C01BBE39400C00000013000000920100003C00000006000000020000000000004000408F4000000000F5FF11C0000000C01BBE39400000004000408F40000000E0984529C0000000E02E9339400C0000
310
00130000009A0100003C00000006000000020000000000004000408F40000000002FFB28C00000000058BA38400000004000408F40000000E0984529C0000000E02E9339400C00000013000000A20100003C00000006000000020000000000004000408F4000000000F5FF11C0000000C01BBE39400000004000408F400000
310
00E051DB29C000000000FB703A400C00000013000000AA0100003C00000006000000020000000000004000408F40000000E0984529C0000000E02E9339400000004000408F40000000E051DB29C000000000FB703A400C00000013000000B20100003C00000006000000020000000000004000408F4000000000F5FF11C000
310
0000C01BBE39400000004000408F4000000020E5B02AC0000000004A573B400C00000013000000BA0100003C00000006000000020000000000004000408F40000000E051DB29C000000000FB703A400000004000408F4000000020E5B02AC0000000004A573B400C00000013000000C20100003C0000000600000002000000
310
0000004000408F4000000040C70E2EC0000000005EC244400000004000408F40000000C0ED072EC0000000203E3E4B400C00000013000000CA0100003C00000006000000020000000000004000408F4000000040A65230C0000000A0A6FB4A400000004000408F40000000C0ED072EC0000000203E3E4B400C000000130000
310
00D20100003C00000006000000020000000000004000408F4000000060395830C000000000980545400000004000408F4000000040A65230C0000000A0A6FB4A400C00000013000000DA0100003C00000006000000020000000000004000408F4000000040C70E2EC0000000005EC244400000004000408F40000000603958
310
30C000000000980545400C00000013000000E20100003C00000006000000020000000000004000408F4000000040A65230C0000000A0A6FB4A400000004000408F4000000060916431C00000000096B54A400C00000013000000EA0100003C00000006000000020000000000004000408F40000000A0C56A31C0000000203D
310
4C45400000004000408F4000000060916431C00000000096B54A400C00000013000000F20100003C00000006000000020000000000004000408F4000000060395830C000000000980545400000004000408F40000000A0C56A31C0000000203D4C45400C00000013000000FA0100003C000000060000000200000000000040
310
00408F4000000060916431C00000000096B54A400000004000408F40000000E0A74632C000000020AB5F4A400C00000013000000020200003C00000006000000020000000000004000408F40000000A0944632C000000040789745400000004000408F40000000E0A74632C000000020AB5F4A400C000000130000000A0200
310
003C00000006000000020000000000004000408F40000000A0C56A31C0000000203D4C45400000004000408F40000000A0944632C000000040789745400C00000013000000120200003C00000006000000020000000000004000408F40000000E0A74632C000000020AB5F4A400000004000408F40000000A0AB2C33C00000
310
008056EB49400C000000130000001A0200003C00000006000000020000000000004000408F40000000608A2E33C0000000E0BA1546400000004000408F40000000A0AB2C33C00000008056EB49400C00000013000000220200003C00000006000000020000000000004000408F40000000A0944632C0000000407897454000
310
00004000408F40000000608A2E33C0000000E0BA1546400C000000130000002A0200003C00000006000000020000000000004000408F40000000E0A24934C0000000C0874547400000004000408F4000000020944A34C000000060EDB748400C00000013000000320200003C00000006000000020000000000004000408F40
310
00000060AB6F34C000000040463648400000004000408F4000000020944A34C000000060EDB748400C000000130000003A0200003C00000006000000020000000000004000408F4000000060206F34C00000006046C447400000004000408F4000000060AB6F34C000000040463648400C00000013000000420200003C0000
310
0006000000020000000000004000408F40000000E0A24934C0000000C0874547400000004000408F4000000060206F34C00000006046C447400C000000130000004A0200003C00000006000000020000000000004000408F40000000A0950834C0000000E03BD846400000004000408F40000000E0230A34C0000000804725
310
49400C00000013000000520200003C00000006000000020000000000004000408F4000000020944A34C000000060EDB748400000004000408F40000000E0230A34C000000080472549400C000000130000005A0200003C00000006000000020000000000004000408F40000000E0A24934C0000000C0874547400000004000
310
408F40000000A0950834C0000000E03BD846400C00000013000000620200003C00000006000000020000000000004000408F40000000A0ABAC33C000000060777446400000004000408F400000002004AB33C0000000C0B78C49400C000000130000006A0200003C00000006000000020000000000004000408F40000000E0
310
230A34C000000080472549400000004000408F400000002004AB33C0000000C0B78C49400C00000013000000720200003C00000006000000020000000000004000408F40000000A0950834C0000000E03BD846400000004000408F40000000A0ABAC33C000000060777446400C000000130000007A0200003C000000060000
310
00020000000000004000408F40000000A0AB2C33C00000008056EB49400000004000408F400000002004AB33C0000000C0B78C49400C00000013000000820200003C00000006000000020000000000004000408F40000000608A2E33C0000000E0BA1546400000004000408F40000000A0ABAC33C000000060777446400C00
310
0000130000008A0200003C00000006000000020000000000004000408F4000000080FAFF2AC000000000FF7F44400000004000408F4000000080FAFF2AC000000000FF7F4B400C00000013000000920200003C00000006000000020000000000004000408F40000000C0ED072EC0000000203E3E4B400000004000408F4000
310
000080FAFF2AC000000000FF7F4B400C000000130000009A0200003C00000006000000020000000000004000408F4000000040C70E2EC0000000005EC244400000004000408F4000000080FAFF2AC000000000FF7F44400C00000013000000A20200003C00000006000000020000000000004000408F4000000000F5FF11C0
310
000000C01BBE39400000004000408F40000000005DAF2BC0000000006E3E3C400C00000013000000AA0200003C00000006000000020000000000004000408F4000000020E5B02AC0000000004A573B400000004000408F40000000005DAF2BC0000000006E3E3C400C00000013000000B20200003C00000006000000020000
310
000000004000408F4000000000F5FF11C0000000C01BBE39400000004000408F40000000A058C32CC0000000C0F6243D400C00000013000000BA0200003C00000006000000020000000000004000408F40000000005DAF2BC0000000006E3E3C400000004000408F40000000A058C32CC0000000C0F6243D400C0000001300
310
0000C20200003C00000006000000020000000000004000408F4000000000F5FF11C0000000C01BBE39400000004000408F40000000C0F8C72DC000000000DAFE3D400C00000013000000CA0200003C00000006000000020000000000004000408F40000000A058C32CC0000000C0F6243D400000004000408F40000000C0F8
310
C72DC000000000DAFE3D400C00000013000000D20200003C00000006000000020000000000004000408F4000000000F5FF11C0000000C01BBE39400000004000408F40000000C04AAE2EC000000000E8D03E400C00000013000000DA0200003C00000006000000020000000000004000408F40000000C0F8C72DC000000000
310
DAFE3D400000004000408F40000000C04AAE2EC000000000E8D03E400C00000013000000E20200003C00000006000000020000000000004000408F4000000000F5FF11C0000000C01BBE39400000004000408F4000000020217B2FC000000080E0AF3F400C00000013000000EA0200003C0000000600000002000000000000
310
4000408F40000000C04AAE2EC000000000E8D03E400000004000408F4000000020217B2FC000000080E0AF3F400C00000013000000F20200003C00000006000000020000000000004000408F4000000000F5FF11C0000000C01BBE39400000004000408F4000000040C21430C000000040F55240400C00000013000000FA02
310
00003C00000006000000020000000000004000408F4000000020217B2FC000000080E0AF3F400000004000408F4000000040C21430C000000040F55240400C00000013000000020300003C00000006000000020000000000004000408F4000000000F5FF11C0000000C01BBE39400000004000408F4000000040065330C000
310
00004031D040400C000000130000000A0300003C00000006000000020000000000004000408F4000000040C21430C000000040F55240400000004000408F4000000040065330C00000004031D040400C00000013000000120300003C00000006000000020000000000004000408F4000000000F5FF11C0000000C01BBE3940
310
0000004000408F4000000000D77830C0000000400B5541400C000000130000001A0300003C00000006000000020000000000004000408F4000000040065330C00000004031D040400000004000408F4000000000D77830C0000000400B5541400C00000013000000220300003C00000006000000020000000000004000408F
310
4000000000F5FF11C0000000C01BBE39400000004000408F40000000008B8130C0000000805DD641400C000000130000002A0300003C00000006000000020000000000004000408F4000000000D77830C0000000400B5541400000004000408F40000000008B8130C0000000805DD641400C00000013000000320300003C00
310
000006000000020000000000004000408F4000000000F5FF11C0000000C01BBE39400000004000408F40000000C01F6B30C0000000C00E5A42400C000000130000003A0300003C00000006000000020000000000004000408F40000000008B8130C0000000805DD641400000004000408F40000000C01F6B30C0000000C00E
310
5A42400C00000013000000420300003C00000006000000020000000000004000408F4000000000F5FF11C0000000C01BBE39400000004000408F40000000600C3430C000000040D0D442400C000000130000004A0300003C00000006000000020000000000004000408F40000000C01F6B30C0000000C00E5A424000000040
310
00408F40000000600C3430C000000040D0D442400C00000013000000520300003C00000006000000020000000000004000408F4000000000F5FF11C0000000C01BBE39400000004000408F4000000040CAAE2FC000000040B94943400C000000130000005A0300003C00000006000000020000000000004000408F40000000
310
600C3430C000000040D0D442400000004000408F4000000040CAAE2FC000000040B94943400C00000013000000620300003C00000006000000020000000000004000408F4000000000F5FF11C0000000C01BBE39400000004000408F40000000005CB12EC000000040B7AF43400C000000130000006A0300003C0000000600
310
0000020000000000004000408F4000000040CAAE2FC000000040B94943400000004000408F40000000005CB12EC000000040B7AF43400C00000013000000720300003C00000006000000020000000000004000408F4000000000F5FF11C0000000C01BBE39400000004000408F4000000000026D2DC0000000C0680A44400C
310
000000130000007A0300003C00000006000000020000000000004000408F40000000005CB12EC000000040B7AF43400000004000408F4000000000026D2DC0000000C0680A44400C00000013000000820300003C00000006000000020000000000004000408F4000000000F5FF11C0000000C01BBE39400000004000408F40
310
00000080FAFF2AC000000000FF7F44400C000000130000008A0300003C00000006000000020000000000004000408F4000000080FAFF2AC000000000FF7F44400000004000408F4000000000026D2DC0000000C0680A44400C00000013000000920300003C00000006000000020000000000004000408F4000000000EA98E5
310
BF00000020451756400000004000408F40000000A0F45F1DC000000080850057400C000000130000009A0300003C00000006000000020000000000004000408F4000000040D5751EC00000008064BD56400000004000408F40000000A0F45F1DC000000080850057400C00000013000000A20300003C000000060000000200
310
00000000004000408F4000000000072EF2BF0000002000F055400000004000408F4000000040D5751EC00000008064BD56400C00000013000000AA0300003C00000006000000020000000000004000408F4000000000EA98E5BF00000020451756400000004000408F4000000000072EF2BF0000002000F055400C00000013
310
000000B20300003C00000006000000020000000000004000408F4000000000EA98E5BF00000020451756400000004000408F400000000045B81CC0000000E07B4957400C00000013000000BA0300003C00000006000000020000000000004000408F40000000A0F45F1DC000000080850057400000004000408F4000000000
310
45B81CC0000000E07B4957400C00000013000000C20300003C00000006000000020000000000004000408F4000000000EA98E5BF00000020451756400000004000408F40000000E089571CC000000080579057400C00000013000000CA0300003C00000006000000020000000000004000408F400000000045B81CC0000000
310
E07B4957400000004000408F40000000E089571CC000000080579057400C00000013000000D20300003C00000006000000020000000000004000408F4000000020F6FF1BC00000004044F457400000004000408F40000000E089571CC000000080579057400C00000013000000DA0300003C00000006000000020000000000
310
004000408F4000000000072EF2BF0000002000F055400000004000408F4000000080466D21C000000080CE5656400C00000013000000E20300003C00000006000000020000000000004000408F40000000C0AB4123C000000080F73456400000004000408F4000000080466D21C000000080CE5656400C00000013000000EA
310
0300003C00000006000000020000000000004000408F400000000097CCF4BF00000080FFBF55400000004000408F40000000C0AB4123C000000080F73456400C00000013000000F20300003C00000006000000020000000000004000408F4000000000072EF2BF0000002000F055400000004000408F400000000097CCF4BF
310
00000080FFBF55400C00000013000000FA0300003C00000006000000020000000000004000408F4000000000072EF2BF0000002000F055400000004000408F40000000005E1920C000000040F28356400C00000013000000020400003C00000006000000020000000000004000408F4000000080466D21C000000080CE5656
310
400000004000408F40000000005E1920C000000040F28356400C000000130000000A0400003C00000006000000020000000000004000408F4000000040D5751EC00000008064BD56400000004000408F40000000005E1920C000000040F28356400C00000013000000120400003C0000000600000002000000000000400040
310
8F40000000C0AB4123C000000080F73456400000004000408F4000000000A35E25C000000020241D56400C000000130000001A0400003C00000006000000020000000000004000408F4000000000072EF2BF000000E0FE8F55400000004000408F4000000000A35E25C000000020241D56400C00000013000000220400003C
310
00000006000000020000000000004000408F400000000097CCF4BF00000080FFBF55400000004000408F4000000000072EF2BF000000E0FE8F55400C000000130000002A0400003C00000006000000020000000000004000408F4000000000E698E5BF000000E0B96855400000004000408F400000000063F80CC0000000C0
310
3B1852400C00000013000000320400003C00000006000000020000000000004000408F40000000E00000043F00000080FFFF52400000004000408F400000000063F80CC0000000C03B1852400C000000130000003A0400003C00000006000000020000000000004000408F40000000E00000053F000000E054515540000000
310
4000408F40000000E00000043F00000080FFFF52400C00000013000000420400003C00000006000000020000000000004000408F4000000000E698E5BF000000E0B96855400000004000408F40000000E00000053F000000E0545155400C000000130000004A0400003C00000006000000020000000000004000408F400000
310
0000072EF2BF000000E0FE8F55400000004000408F40000000401B1611C0000000A0F1D951400C00000013000000520400003C00000006000000020000000000004000408F40000000401B1611C0000000A0F1D951400000004000408F400000000063F80CC0000000C03B1852400C000000130000005A0400003C00000006
310
000000020000000000004000408F4000000000072EF2BF000000E0FE8F55400000004000408F4000000000E698E5BF000000E0B96855400C00000013000000620400003C00000006000000020000000000004000408F40000000602CEB2EC000000020A00553400000004000408F40000000C0FAFF2BC00000004044345540
310
0C000000130000006A0400003C00000006000000020000000000004000408F4000000000A43830C000000000492C53400000004000408F40000000C0FAFF2BC000000040443455400C00000013000000720400003C00000006000000020000000000004000408F40000000602CEB2EC000000020A00553400000004000408F
310
4000000000A43830C000000000492C53400C000000130000007A0400003C00000006000000020000000000004000408F40000000C0FAFF2BC000000040443455400000004000408F4000000080FD7F31C000000040443455400C00000013000000820400003C00000006000000020000000000004000408F4000000080FD7F
310
31C000000040446453400000004000408F4000000080FD7F31C000000040443455400C000000130000008A0400003C00000006000000020000000000004000408F4000000000A43830C000000000492C53400000004000408F4000000080FD7F31C000000040446453400C00000013000000920400003C0000000600000002
310
0000000000004000408F40000000C0FAFF2BC000000040443455400000004000408F40000000A0AF592DC0000000403DD952400C000000130000009A0400003C00000006000000020000000000004000408F40000000602CEB2EC000000020A00553400000004000408F40000000A0AF592DC0000000403DD952400C000000
310
13000000A20400003C00000006000000020000000000004000408F40000000C0FAFF2BC000000040443455400000004000408F40000000E034022CC0000000E00FAE52400C00000013000000AA0400003C00000006000000020000000000004000408F40000000A0AF592DC0000000403DD952400000004000408F40000000
310
E034022CC0000000E00FAE52400C00000013000000B20400003C00000006000000020000000000004000408F40000000C0FAFF2BC000000040443455400000004000408F40000000E0B0C32AC0000000801C7E52400C00000013000000BA0400003C00000006000000020000000000004000408F40000000E034022CC00000
310
00E00FAE52400000004000408F40000000E0B0C32AC0000000801C7E52400C00000013000000C20400003C00000006000000020000000000004000408F4000000020E8CA29C0000000A03F4C52400000004000408F40000000C03C0C2AC00000000005FE55400C00000013000000CA0400003C000000060000000200000000
310
00004000408F40000000C0FAFF2BC000000040443455400000004000408F40000000C03C0C2AC00000000005FE55400C00000013000000D20400003C00000006000000020000000000004000408F40000000E0B0C32AC0000000801C7E52400000004000408F4000000020E8CA29C0000000A03F4C52400C00000013000000
310
DA0400003C00000006000000020000000000004000408F400000008028CF29C000000080E80520400000004000408F400000008042952AC0000000006A2836400C00000013000000E20400003C00000006000000020000000000004000408F40000000800FDD2BC000000060035C35400000004000408F400000008042952A
310
C0000000006A2836400C00000013000000EA0400003C00000006000000020000000000004000408F4000000060FAFF2BC000000000D65D26400000004000408F400000008028CF29C000000080E80520400C00000013000000F20400003C00000006000000020000000000004000408F40000000C0BDA129C0000000802AFA
310
36400000004000408F400000008042952AC0000000006A2836400C00000013000000FA0400003C00000006000000020000000000004000408F40000000E0569927C00000000029401F400000004000408F400000008028CF29C000000080E80520400C00000013000000020500003C00000006000000020000000000004000
310
408F4000000060FAFF2BC000000000D65D26400000004000408F4000000040FAFF2BC000000080D55D20400C000000130000000A0500003C00000006000000020000000000004000408F400000008028CF29C000000080E80520400000004000408F4000000040FAFF2BC000000080D55D20400C0000001300000012050000
310
3C00000006000000020000000000004000408F40000000C03C0C2AC00000000005FE55400000004000408F40000000C0FAFF2BC00000004044F455400C000000130000001A0500003C00000006000000020000000000004000408F40000000C0FAFF2BC000000040443455400000004000408F40000000C0FAFF2BC0000000
310
4044F455400C00000013000000220500003C00000006000000020000000000004000408F40000000C0613029C0000000E03C1B52400000004000408F40000000E0C3C027C000000080FF0A56400C000000130000002A0500003C00000006000000020000000000004000408F40000000C03C0C2AC00000000005FE55400000
310
004000408F40000000E0C3C027C000000080FF0A56400C00000013000000320500003C00000006000000020000000000004000408F4000000020E8CA29C0000000A03F4C52400000004000408F40000000C0613029C0000000E03C1B52400C000000130000003A0500003C00000006000000020000000000004000408F4000
310
0000401B1611C0000000A0F1D951400000004000408F4000000000A35E25C000000020241D56400C00000013000000420500003C00000006000000020000000000004000408F4000000000A35E25C000000020241D56400000004000408F40000000E0C3C027C000000080FF0A56400C000000130000004A0500003C000000
310
06000000020000000000004000408F40000000401B1611C0000000A0F1D951400000004000408F40000000C0613029C0000000E03C1B52400C00000013000000520500003C00000006000000020000000000004000408F40000000C0613029C0000000E03C1B52400000004000408F4000000000B1F528C0000000A059E751
310
400C000000130000005A0500003C00000006000000020000000000004000408F40000000A0F5FF11C000000020789051400000004000408F4000000000B1F528C0000000A059E751400C00000013000000620500003C00000006000000020000000000004000408F40000000401B1611C0000000A0F1D95140000000400040
310
8F40000000A0F5FF11C000000020789051400C000000130000006A0500003C00000006000000020000000000004000408F4000000000B1F528C0000000A059E751400000004000408F4000000060972329C000000000A6AD51400C00000013000000720500003C00000006000000020000000000004000408F40000000A0F5
310
FF11C000000020789051400000004000408F4000000060972329C000000000A6AD51400C000000130000007A0500003C00000006000000020000000000004000408F40000000A0F5FF11C000000020789051400000004000408F400000006094A829C000000060517451400C00000013000000820500003C00000006000000
310
020000000000004000408F400000002039742AC000000060303951400000004000408F400000006094A829C000000060517451400C000000130000008A0500003C00000006000000020000000000004000408F40000000A0F5FF11C000000020789051400000004000408F400000002039742AC000000060303951400C0000
310
0013000000920500003C00000006000000020000000000004000408F4000000060972329C000000000A6AD51400000004000408F400000006094A829C000000060517451400C000000130000009A0500003C00000006000000020000000000004000408F40000000A0F5FF11C000000020789051400000004000408F400000
310
00409F632CC00000006081CA50400C00000013000000A20500003C00000006000000020000000000004000408F40000000C08A6D2DC000000080779350400000004000408F40000000409F632CC00000006081CA50400C00000013000000AA0500003C00000006000000020000000000004000408F40000000A0F5FF11C000
310
000020789051400000004000408F40000000C08A6D2DC000000080779350400C00000013000000B20500003C00000006000000020000000000004000408F400000002039742AC000000060303951400000004000408F4000000000B45D2BC0000000202F0251400C00000013000000BA0500003C0000000600000002000000
310
0000004000408F40000000A0F5FF11C000000020789051400000004000408F4000000000B45D2BC0000000202F0251400C00000013000000C20500003C00000006000000020000000000004000408F40000000C08A6D2DC000000080779350400000004000408F40000000401D752EC0000000E0635950400C000000130000
310
00CA0500003C00000006000000020000000000004000408F40000000A0F5FF11C000000020789051400000004000408F40000000401D752EC0000000E0635950400C00000013000000D20500003C00000006000000020000000000004000408F40000000409F632CC00000006081CA50400000004000408F4000000000B45D
310
2BC0000000202F0251400C00000013000000DA0500003C00000006000000020000000000004000408F40000000401D752EC0000000E0635950400000004000408F40000000C0465A2FC0000000E0D61D50400C00000013000000E20500003C00000006000000020000000000004000408F40000000A0F5FF11C00000002078
310
9051400000004000408F40000000C0465A2FC0000000E0D61D50400C00000013000000EA0500003C00000006000000020000000000004000408F40000000C0465A2FC0000000E0D61D50400000004000408F4000000040FE0530C000000080D8C44F400C00000013000000F20500003C000000060000000200000000000040
310
00408F40000000A0F5FF11C000000020789051400000004000408F4000000040FE0530C000000080D8C44F400C00000013000000FA0500003C00000006000000020000000000004000408F4000000040FE0530C000000080D8C44F400000004000408F40000000C0404A30C00000008018454F400C00000013000000020600
310
003C00000006000000020000000000004000408F40000000A0F5FF11C000000020789051400000004000408F40000000C0404A30C00000008018454F400C000000130000000A0600003C00000006000000020000000000004000408F40000000C0404A30C00000008018454F400000004000408F40000000C0AA7330C00000
310
000062C54E400C00000013000000120600003C00000006000000020000000000004000408F40000000A0F5FF11C000000020789051400000004000408F40000000C0AA7330C00000000062C54E400C000000130000001A0600003C00000006000000020000000000004000408F40000000C0AA7330C00000000062C54E4000
310
00004000408F4000000080068230C0000000403D3F4E400C00000013000000220600003C00000006000000020000000000004000408F40000000A0F5FF11C000000020789051400000004000408F4000000080068230C0000000403D3F4E400C000000130000002A0600003C00000006000000020000000000004000408F40
310
00000080068230C0000000403D3F4E400000004000408F40000000A0417130C0000000804DBC4D400C00000013000000320600003C00000006000000020000000000004000408F40000000A0F5FF11C000000020789051400000004000408F40000000A0417130C0000000804DBC4D400C000000130000003A0600003C0000
310
0006000000020000000000004000408F40000000A0417130C0000000804DBC4D400000004000408F4000000020763D30C0000000E01A3B4D400C00000013000000420600003C00000006000000020000000000004000408F40000000A0F5FF11C000000020789051400000004000408F4000000020763D30C0000000E01A3B
310
4D400C000000130000004A0600003C00000006000000020000000000004000408F4000000020763D30C0000000E01A3B4D400000004000408F40000000C0D9D82FC000000040E3CB4C400C00000013000000520600003C00000006000000020000000000004000408F40000000A0F5FF11C000000020789051400000004000
310
408F40000000C0D9D82FC000000040E3CB4C400C000000130000005A0600003C00000006000000020000000000004000408F40000000C0D9D82FC000000040E3CB4C400000004000408F40000000A08CFE2EC000000040FD6A4C400C00000013000000620600003C00000006000000020000000000004000408F40000000A0
310
F5FF11C000000020789051400000004000408F40000000A08CFE2EC000000040FD6A4C400C000000130000006A0600003C00000006000000020000000000004000408F40000000A08CFE2EC000000040FD6A4C400000004000408F4000000040B4E12DC0000000A0D8124C400C00000013000000720600003C000000060000
310
00020000000000004000408F40000000A0F5FF11C000000020789051400000004000408F4000000040B4E12DC0000000A0D8124C400C000000130000007A0600003C00000006000000020000000000004000408F4000000040B4E12DC0000000A0D8124C400000004000408F40000000603C792CC00000000024C14B400C00
310
000013000000820600003C00000006000000020000000000004000408F40000000A0F5FF11C000000020789051400000004000408F40000000603C792CC00000000024C14B400C000000130000008A0600003C00000006000000020000000000004000408F4000000080FAFF2AC000000000FF7F4B400000004000408F4000
310
0000603C792CC00000000024C14B400C00000013000000920600003C00000006000000020000000000004000408F4000000080FAFF2AC000000000FF7F4B400000004000408F40000000A0F5FF11C000000020789051400C000000130000009A0600003C00000006000000020000000000004000408F4000000000F5FF11C0
310
000000C01BBE39400000004000408F40000000A0F5FF11C000000020789051400C00000013000000A20600003C0000000600000002000000000000C000408FC0000000C0FE7F043F00000080FFFF5740000000C000408FC0000000E0F5FF1BC00000004044F457400C00000013000000AA0600003C00000006000000020000
310
000000004000408F4000000020F6FF1BC00000004044F45740000000C000408FC0000000E0F5FF1BC00000004044F457400C00000013000000B20600003C00000006000000020000000000004000408F40000000E00000033F00000080FFFF5740000000C000408FC0000000C0FE7F043F00000080FFFF57400C0000001300
310
0000BA0600003C0000000600000002000000000000C000408FC0000000A089571CC00000008057905740000000C000408FC0000000E0F5FF1BC00000004044F457400C00000013000000C20600003C0000000600000002000000000000C000408FC0000000A089571CC000000080579057400000004000408F40000000E089
310
571CC000000080579057400C00000013000000CA0600003C0000000600000002000000000000C000408FC0000000E044B81CC0000000E07B495740000000C000408FC0000000A089571CC000000080579057400C00000013000000D20600003C0000000600000002000000000000C000408FC0000000E044B81CC0000000E0
310
7B4957400000004000408F400000000045B81CC0000000E07B4957400C00000013000000DA0600003C0000000600000002000000000000C000408FC0000000E044B81CC0000000E07B495740000000C000408FC000000080F45F1DC000000080850057400C00000013000000E20600003C0000000600000002000000000000
310
4000408F40000000A0F45F1DC00000008085005740000000C000408FC000000080F45F1DC000000080850057400C00000013000000EA0600003C0000000600000002000000000000C000408FC000000020D5751EC00000008064BD5640000000C000408FC000000080F45F1DC000000080850057400C00000013000000F206
310
00003C0000000600000002000000000000C000408FC000000020D5751EC00000008064BD56400000004000408F4000000040D5751EC00000008064BD56400C00000013000000FA0600003C0000000600000002000000000000C000408FC000000020D5751EC00000008064BD5640000000C000408FC0000000E05D1920C000
310
000040F28356400C00000013000000020700003C00000006000000020000000000004000408F40000000005E1920C000000040F2835640000000C000408FC0000000E05D1920C000000040F28356400C000000130000000A0700003C0000000600000002000000000000C000408FC000000080466D21C000000080CE565640
310
000000C000408FC0000000E05D1920C000000040F28356400C00000013000000120700003C00000006000000020000000000004000408F4000000080466D21C000000080CE565640000000C000408FC000000080466D21C000000080CE5656400C000000130000001A0700003C0000000600000002000000000000C000408F
310
C0000000A0AB4123C000000080F7345640000000C000408FC000000080466D21C000000080CE5656400C00000013000000220700003C00000006000000020000000000004000408F40000000C0AB4123C000000080F7345640000000C000408FC0000000A0AB4123C000000080F73456400C000000130000002A0700003C00
310
00000600000002000000000000C000408FC000000000A35E25C000000020241D5640000000C000408FC0000000A0AB4123C000000080F73456400C00000013000000320700003C00000006000000020000000000004000408F4000000000A35E25C000000020241D5640000000C000408FC000000000A35E25C00000002024
310
1D56400C000000130000003A0700003C0000000600000002000000000000C000408FC0000000E0C3C027C000000080FF0A5640000000C000408FC000000000A35E25C000000020241D56400C00000013000000420700003C00000006000000020000000000004000408F40000000E0C3C027C000000080FF0A5640000000C0
310
00408FC0000000E0C3C027C000000080FF0A56400C000000130000004A0700003C0000000600000002000000000000C000408FC0000000C03C0C2AC00000000005FE5540000000C000408FC0000000E0C3C027C000000080FF0A56400C00000013000000520700003C0000000600000002000000000000C000408FC0000000
310
C03C0C2AC00000000005FE55400000004000408F40000000C03C0C2AC00000000005FE55400C000000130000005A0700003C0000000600000002000000000000C000408FC0000000C03C0C2AC00000000005FE5540000000C000408FC0000000E0FAFF2BC00000004044F455400C00000013000000620700003C0000000600
310
0000020000000000004000408F40000000C0FAFF2BC00000004044F45540000000C000408FC0000000E0FAFF2BC00000004044F455400C000000130000006A0700003C0000000600000002000000000000C000408FC0000000C0FAFF2BC00000004044345540000000C000408FC0000000E0FAFF2BC00000004044F455400C
310
00000013000000720700003C00000006000000020000000000004000408F40000000C0FAFF2BC00000004044345540000000C000408FC0000000C0FAFF2BC000000040443455400C000000130000007A0700003C0000000600000002000000000000C000408FC000000080FD7F31C00000004044345540000000C000408FC0
310
000000C0FAFF2BC000000040443455400C00000013000000820700003C0000000600000002000000000000C000408FC000000080FD7F31C000000040443455400000004000408F4000000080FD7F31C000000040443455400C000000130000008A0700003C0000000600000002000000000000C000408FC000000080FD7F31
310
C00000004044345540000000C000408FC000000080FD7F31C000000040446453400C00000013000000920700003C00000006000000020000000000004000408F4000000080FD7F31C00000004044645340000000C000408FC000000080FD7F31C000000040446453400C000000130000009A0700003C000000060000000200
310
0000000000C000408FC000000000A43830C000000000492C5340000000C000408FC000000080FD7F31C000000040446453400C00000013000000A20700003C00000006000000020000000000004000408F4000000000A43830C000000000492C5340000000C000408FC000000000A43830C000000000492C53400C00000013
310
000000AA0700003C0000000600000002000000000000C000408FC0000000802CEB2EC000000020A0055340000000C000408FC000000000A43830C000000000492C53400C00000013000000B20700003C00000006000000020000000000004000408F40000000602CEB2EC000000020A0055340000000C000408FC000000080
310
2CEB2EC000000020A00553400C00000013000000BA0700003C0000000600000002000000000000C000408FC0000000C0AF592DC0000000403DD95240000000C000408FC0000000802CEB2EC000000020A00553400C00000013000000C20700003C00000006000000020000000000004000408F40000000A0AF592DC0000000
310
403DD95240000000C000408FC0000000C0AF592DC0000000403DD952400C00000013000000CA0700003C0000000600000002000000000000C000408FC00000000035022CC0000000E00FAE5240000000C000408FC0000000C0AF592DC0000000403DD952400C00000013000000D20700003C00000006000000020000000000
310
00C000408FC00000000035022CC0000000E00FAE52400000004000408F40000000E034022CC0000000E00FAE52400C00000013000000DA0700003C0000000600000002000000000000C000408FC00000000035022CC0000000E00FAE5240000000C000408FC0000000E0B0C32AC0000000801C7E52400C00000013000000E2
310
0700003C00000006000000020000000000004000408F40000000E0B0C32AC0000000801C7E5240000000C000408FC0000000E0B0C32AC0000000801C7E52400C00000013000000EA0700003C0000000600000002000000000000C000408FC000000020E8CA29C0000000A03F4C5240000000C000408FC0000000E0B0C32AC0
310
000000801C7E52400C00000013000000F20700003C00000006000000020000000000004000408F4000000020E8CA29C0000000A03F4C5240000000C000408FC000000020E8CA29C0000000A03F4C52400C00000013000000FA0700003C0000000600000002000000000000C000408FC0000000A0613029C0000000E03C1B52
310
40000000C000408FC000000020E8CA29C0000000A03F4C52400C00000013000000020800003C0000000600000002000000000000C000408FC0000000A0613029C0000000E03C1B52400000004000408F40000000C0613029C0000000E03C1B52400C000000130000000A0800003C0000000600000002000000000000C00040
310
8FC0000000A0613029C0000000E03C1B5240000000C000408FC000000000B1F528C0000000A059E751400C00000013000000120800003C00000006000000020000000000004000408F4000000000B1F528C0000000A059E75140000000C000408FC000000000B1F528C0000000A059E751400C000000130000001A0800003C
310
0000000600000002000000000000C000408FC000000060972329C000000000A6AD5140000000C000408FC000000000B1F528C0000000A059E751400C00000013000000220800003C0000000600000002000000000000C000408FC000000060972329C000000000A6AD51400000004000408F4000000060972329C000000000
310
A6AD51400C000000130000002A0800003C0000000600000002000000000000C000408FC000000060972329C000000000A6AD5140000000C000408FC00000006094A829C000000060517451400C00000013000000320800003C00000006000000020000000000004000408F400000006094A829C00000006051745140000000
310
C000408FC00000006094A829C000000060517451400C000000130000003A0800003C0000000600000002000000000000C000408FC00000000039742AC00000006030395140000000C000408FC00000006094A829C000000060517451400C00000013000000420800003C00000006000000020000000000004000408F400000
310
002039742AC00000006030395140000000C000408FC00000000039742AC000000060303951400C000000130000004A0800003C0000000600000002000000000000C000408FC000000020B45D2BC0000000202F025140000000C000408FC00000000039742AC000000060303951400C00000013000000520800003C00000006
310
00000002000000000000C000408FC000000020B45D2BC0000000202F0251400000004000408F4000000000B45D2BC0000000202F0251400C000000130000005A0800003C0000000600000002000000000000C000408FC000000020B45D2BC0000000202F025140000000C000408FC0000000409F632CC00000006081CA5040
310
0C00000013000000620800003C00000006000000020000000000004000408F40000000409F632CC00000006081CA5040000000C000408FC0000000409F632CC00000006081CA50400C000000130000006A0800003C0000000600000002000000000000C000408FC0000000C08A6D2DC00000008077935040000000C000408F
310
C0000000409F632CC00000006081CA50400C00000013000000720800003C0000000600000002000000000000C000408FC0000000C08A6D2DC000000080779350400000004000408F40000000C08A6D2DC000000080779350400C000000130000007A0800003C0000000600000002000000000000C000408FC0000000C08A6D
310
2DC00000008077935040000000C000408FC0000000601D752EC0000000E0635950400C00000013000000820800003C00000006000000020000000000004000408F40000000401D752EC0000000E063595040000000C000408FC0000000601D752EC0000000E0635950400C000000130000008A0800003C0000000600000002
310
000000000000C000408FC0000000E0465A2FC0000000E0D61D5040000000C000408FC0000000601D752EC0000000E0635950400C00000013000000920800003C00000006000000020000000000004000408F40000000C0465A2FC0000000E0D61D5040000000C000408FC0000000E0465A2FC0000000E0D61D50400C000000
310
130000009A0800003C0000000600000002000000000000C000408FC000000040FE0530C000000080D8C44F40000000C000408FC0000000E0465A2FC0000000E0D61D50400C00000013000000A20800003C00000006000000020000000000004000408F4000000040FE0530C000000080D8C44F40000000C000408FC0000000
310
40FE0530C000000080D8C44F400C00000013000000AA0800003C0000000600000002000000000000C000408FC0000000C0404A30C00000008018454F40000000C000408FC000000040FE0530C000000080D8C44F400C00000013000000B20800003C00000006000000020000000000004000408F40000000C0404A30C00000
310
008018454F40000000C000408FC0000000C0404A30C00000008018454F400C00000013000000BA0800003C0000000600000002000000000000C000408FC0000000C0AA7330C00000000062C54E40000000C000408FC0000000C0404A30C00000008018454F400C00000013000000C20800003C000000060000000200000000
310
0000C000408FC0000000C0AA7330C00000000062C54E400000004000408F40000000C0AA7330C00000000062C54E400C00000013000000CA0800003C0000000600000002000000000000C000408FC000000080068230C0000000403D3F4E40000000C000408FC0000000C0AA7330C00000000062C54E400C00000013000000
310
D20800003C0000000600000002000000000000C000408FC000000080068230C0000000403D3F4E400000004000408F4000000080068230C0000000403D3F4E400C00000013000000DA0800003C0000000600000002000000000000C000408FC000000080068230C0000000403D3F4E40000000C000408FC0000000A0417130
310
C0000000804DBC4D400C00000013000000E20800003C00000006000000020000000000004000408F40000000A0417130C0000000804DBC4D40000000C000408FC0000000A0417130C0000000804DBC4D400C00000013000000EA0800003C0000000600000002000000000000C000408FC000000020763D30C0000000E01A3B
310
4D40000000C000408FC0000000A0417130C0000000804DBC4D400C00000013000000F20800003C00000006000000020000000000004000408F4000000020763D30C0000000E01A3B4D40000000C000408FC000000020763D30C0000000E01A3B4D400C00000013000000FA0800003C0000000600000002000000000000C000
310
408FC0000000C0D9D82FC000000040E3CB4C40000000C000408FC000000020763D30C0000000E01A3B4D400C00000013000000020900003C00000006000000020000000000004000408F40000000C0D9D82FC000000040E3CB4C40000000C000408FC0000000C0D9D82FC000000040E3CB4C400C000000130000000A090000
310
3C0000000600000002000000000000C000408FC0000000C08CFE2EC000000040FD6A4C40000000C000408FC0000000C0D9D82FC000000040E3CB4C400C00000013000000120900003C0000000600000002000000000000C000408FC0000000C08CFE2EC000000040FD6A4C400000004000408F40000000A08CFE2EC0000000
310
40FD6A4C400C000000130000001A0900003C0000000600000002000000000000C000408FC000000040B4E12DC0000000A0D8124C40000000C000408FC0000000C08CFE2EC000000040FD6A4C400C00000013000000220900003C0000000600000002000000000000C000408FC000000040B4E12DC0000000A0D8124C400000
310
004000408F4000000040B4E12DC0000000A0D8124C400C000000130000002A0900003C0000000600000002000000000000C000408FC0000000803C792CC00000000024C14B40000000C000408FC000000040B4E12DC0000000A0D8124C400C00000013000000320900003C0000000600000002000000000000C000408FC000
310
0000803C792CC00000000024C14B400000004000408F40000000603C792CC00000000024C14B400C000000130000003A0900003C0000000600000002000000000000C000408FC0000000803C792CC00000000024C14B40000000C000408FC000000080FAFF2AC000000000FF7F4B400C00000013000000420900003C000000
310
06000000020000000000004000408F4000000080FAFF2AC000000000FF7F4B40000000C000408FC000000080FAFF2AC000000000FF7F4B400C000000130000004A0900003C0000000600000002000000000000C000408FC0000000C0ED072EC0000000203E3E4B40000000C000408FC000000080FAFF2AC000000000FF7F4B
310
400C00000013000000520900003C00000006000000020000000000004000408F40000000C0ED072EC0000000203E3E4B40000000C000408FC0000000C0ED072EC0000000203E3E4B400C000000130000005A0900003C0000000600000002000000000000C000408FC000000040A65230C0000000A0A6FB4A40000000C00040
310
8FC0000000C0ED072EC0000000203E3E4B400C00000013000000620900003C00000006000000020000000000004000408F4000000040A65230C0000000A0A6FB4A40000000C000408FC000000040A65230C0000000A0A6FB4A400C000000130000006A0900003C0000000600000002000000000000C000408FC00000006091
310
6431C00000000096B54A40000000C000408FC000000040A65230C0000000A0A6FB4A400C00000013000000720900003C00000006000000020000000000004000408F4000000060916431C00000000096B54A40000000C000408FC000000060916431C00000000096B54A400C000000130000007A0900003C00000006000000
310
02000000000000C000408FC0000000E0A74632C000000020AB5F4A40000000C000408FC000000060916431C00000000096B54A400C00000013000000820900003C00000006000000020000000000004000408F40000000E0A74632C000000020AB5F4A40000000C000408FC0000000E0A74632C000000020AB5F4A400C0000
310
00130000008A0900003C0000000600000002000000000000C000408FC0000000A0AB2C33C00000008056EB4940000000C000408FC0000000E0A74632C000000020AB5F4A400C00000013000000920900003C0000000600000002000000000000C000408FC0000000A0AB2C33C00000008056EB49400000004000408F400000
310
00A0AB2C33C00000008056EB49400C000000130000009A0900003C0000000600000002000000000000C000408FC0000000A0AB2C33C00000008056EB4940000000C000408FC00000000004AB33C0000000C0B78C49400C00000013000000A20900003C00000006000000020000000000004000408F400000002004AB33C000
310
0000C0B78C4940000000C000408FC00000000004AB33C0000000C0B78C49400C00000013000000AA0900003C0000000600000002000000000000C000408FC0000000E0230A34C00000008047254940000000C000408FC00000000004AB33C0000000C0B78C49400C00000013000000B20900003C0000000600000002000000
310
000000C000408FC0000000E0230A34C000000080472549400000004000408F40000000E0230A34C000000080472549400C00000013000000BA0900003C0000000600000002000000000000C000408FC000000020944A34C000000060EDB74840000000C000408FC0000000E0230A34C000000080472549400C000000130000
310
00C20900003C0000000600000002000000000000C000408FC000000020944A34C000000060EDB748400000004000408F4000000020944A34C000000060EDB748400C00000013000000CA0900003C0000000600000002000000000000C000408FC000000020944A34C000000060EDB74840000000C000408FC000000040AB6F
310
34C000000040463648400C00000013000000D20900003C0000000600000002000000000000C000408FC000000040AB6F34C000000040463648400000004000408F4000000060AB6F34C000000040463648400C00000013000000DA0900003C0000000600000002000000000000C000408FC000000040AB6F34C00000004046
310
364840000000C000408FC000000040206F34C00000006046C447400C00000013000000E20900003C00000006000000020000000000004000408F4000000060206F34C00000006046C44740000000C000408FC000000040206F34C00000006046C447400C00000013000000EA0900003C0000000600000002000000000000C0
310
00408FC0000000E0A24934C0000000C087454740000000C000408FC000000040206F34C00000006046C447400C00000013000000F20900003C0000000600000002000000000000C000408FC0000000E0A24934C0000000C0874547400000004000408F40000000E0A24934C0000000C0874547400C00000013000000FA0900
310
003C0000000600000002000000000000C000408FC000000080950834C0000000E03BD84640000000C000408FC0000000E0A24934C0000000C0874547400C00000013000000020A00003C0000000600000002000000000000C000408FC000000080950834C0000000E03BD846400000004000408F40000000A0950834C00000
310
00E03BD846400C000000130000000A0A00003C0000000600000002000000000000C000408FC000000080950834C0000000E03BD84640000000C000408FC000000080ABAC33C000000060777446400C00000013000000120A00003C00000006000000020000000000004000408F40000000A0ABAC33C0000000607774464000
310
0000C000408FC000000080ABAC33C000000060777446400C000000130000001A0A00003C0000000600000002000000000000C000408FC0000000608A2E33C0000000E0BA154640000000C000408FC000000080ABAC33C000000060777446400C00000013000000220A00003C00000006000000020000000000004000408F40
310
000000608A2E33C0000000E0BA154640000000C000408FC0000000608A2E33C0000000E0BA1546400C000000130000002A0A00003C0000000600000002000000000000C000408FC0000000A0944632C00000004078974540000000C000408FC0000000608A2E33C0000000E0BA1546400C00000013000000320A00003C0000
310
0006000000020000000000004000408F40000000A0944632C00000004078974540000000C000408FC0000000A0944632C000000040789745400C000000130000003A0A00003C0000000600000002000000000000C000408FC0000000A0C56A31C0000000203D4C4540000000C000408FC0000000A0944632C0000000407897
310
45400C00000013000000420A00003C0000000600000002000000000000C000408FC0000000A0C56A31C0000000203D4C45400000004000408F40000000A0C56A31C0000000203D4C45400C000000130000004A0A00003C0000000600000002000000000000C000408FC000000060395830C00000000098054540000000C000
310
408FC0000000A0C56A31C0000000203D4C45400C00000013000000520A00003C0000000600000002000000000000C000408FC000000060395830C000000000980545400000004000408F4000000060395830C000000000980545400C000000130000005A0A00003C0000000600000002000000000000C000408FC000000060
310
395830C00000000098054540000000C000408FC000000040C70E2EC0000000005EC244400C00000013000000620A00003C00000006000000020000000000004000408F4000000040C70E2EC0000000005EC24440000000C000408FC000000040C70E2EC0000000005EC244400C000000130000006A0A00003C000000060000
310
0002000000000000C000408FC0000000A0FAFF2AC000000000FF7F4440000000C000408FC000000040C70E2EC0000000005EC244400C00000013000000720A00003C00000006000000020000000000004000408F4000000080FAFF2AC000000000FF7F4440000000C000408FC0000000A0FAFF2AC000000000FF7F44400C00
310
0000130000007A0A00003C0000000600000002000000000000C000408FC000000000026D2DC0000000C0680A4440000000C000408FC0000000A0FAFF2AC000000000FF7F44400C00000013000000820A00003C00000006000000020000000000004000408F4000000000026D2DC0000000C0680A4440000000C000408FC000
310
000000026D2DC0000000C0680A44400C000000130000008A0A00003C0000000600000002000000000000C000408FC0000000005CB12EC000000040B7AF4340000000C000408FC000000000026D2DC0000000C0680A44400C00000013000000920A00003C00000006000000020000000000004000408F40000000005CB12EC0
310
00000040B7AF4340000000C000408FC0000000005CB12EC000000040B7AF43400C000000130000009A0A00003C0000000600000002000000000000C000408FC000000000CAAE2FC000000040B9494340000000C000408FC0000000005CB12EC000000040B7AF43400C00000013000000A20A00003C00000006000000020000
310
000000004000408F4000000040CAAE2FC000000040B9494340000000C000408FC000000000CAAE2FC000000040B94943400C00000013000000AA0A00003C0000000600000002000000000000C000408FC0000000600C3430C000000040D0D44240000000C000408FC000000000CAAE2FC000000040B94943400C0000001300
310
0000B20A00003C00000006000000020000000000004000408F40000000600C3430C000000040D0D44240000000C000408FC0000000600C3430C000000040D0D442400C00000013000000BA0A00003C0000000600000002000000000000C000408FC0000000C01F6B30C0000000C00E5A4240000000C000408FC0000000600C
310
3430C000000040D0D442400C00000013000000C20A00003C00000006000000020000000000004000408F40000000C01F6B30C0000000C00E5A4240000000C000408FC0000000C01F6B30C0000000C00E5A42400C00000013000000CA0A00003C0000000600000002000000000000C000408FC0000000008B8130C000000080
310
5DD64140000000C000408FC0000000C01F6B30C0000000C00E5A42400C00000013000000D20A00003C00000006000000020000000000004000408F40000000008B8130C0000000805DD64140000000C000408FC0000000008B8130C0000000805DD641400C00000013000000DA0A00003C0000000600000002000000000000
310
C000408FC000000000D77830C0000000400B554140000000C000408FC0000000008B8130C0000000805DD641400C00000013000000E20A00003C0000000600000002000000000000C000408FC000000000D77830C0000000400B5541400000004000408F4000000000D77830C0000000400B5541400C00000013000000EA0A
310
00003C0000000600000002000000000000C000408FC000000040065330C00000004031D04040000000C000408FC000000000D77830C0000000400B5541400C00000013000000F20A00003C0000000600000002000000000000C000408FC000000040065330C00000004031D040400000004000408F4000000040065330C000
310
00004031D040400C00000013000000FA0A00003C0000000600000002000000000000C000408FC000000040C21430C000000040F5524040000000C000408FC000000040065330C00000004031D040400C00000013000000020B00003C0000000600000002000000000000C000408FC000000040C21430C000000040F5524040
310
0000004000408F4000000040C21430C000000040F55240400C000000130000000A0B00003C0000000600000002000000000000C000408FC000000040C21430C000000040F5524040000000C000408FC000000040217B2FC000000080E0AF3F400C00000013000000120B00003C00000006000000020000000000004000408F
310
4000000020217B2FC000000080E0AF3F40000000C000408FC000000040217B2FC000000080E0AF3F400C000000130000001A0B00003C0000000600000002000000000000C000408FC0000000C04AAE2EC000000000E8D03E40000000C000408FC000000040217B2FC000000080E0AF3F400C00000013000000220B00003C00
310
000006000000020000000000004000408F40000000C04AAE2EC000000000E8D03E40000000C000408FC0000000C04AAE2EC000000000E8D03E400C000000130000002A0B00003C0000000600000002000000000000C000408FC0000000C0F8C72DC000000000DAFE3D40000000C000408FC0000000C04AAE2EC000000000E8
310
D03E400C00000013000000320B00003C0000000600000002000000000000C000408FC0000000C0F8C72DC000000000DAFE3D400000004000408F40000000C0F8C72DC000000000DAFE3D400C000000130000003A0B00003C0000000600000002000000000000C000408FC0000000C058C32CC0000000C0F6243D40000000C0
310
00408FC0000000C0F8C72DC000000000DAFE3D400C00000013000000420B00003C0000000600000002000000000000C000408FC0000000C058C32CC0000000C0F6243D400000004000408F40000000A058C32CC0000000C0F6243D400C000000130000004A0B00003C0000000600000002000000000000C000408FC0000000
310
E05CAF2BC0000000006E3E3C40000000C000408FC0000000C058C32CC0000000C0F6243D400C00000013000000520B00003C0000000600000002000000000000C000408FC0000000E05CAF2BC0000000006E3E3C400000004000408F40000000005DAF2BC0000000006E3E3C400C000000130000005A0B00003C0000000600
310
000002000000000000C000408FC000000020E5B02AC0000000004A573B40000000C000408FC0000000E05CAF2BC0000000006E3E3C400C00000013000000620B00003C0000000600000002000000000000C000408FC000000020E5B02AC0000000004A573B400000004000408F4000000020E5B02AC0000000004A573B400C
310
000000130000006A0B00003C0000000600000002000000000000C000408FC000000020E5B02AC0000000004A573B40000000C000408FC0000000E051DB29C000000000FB703A400C00000013000000720B00003C00000006000000020000000000004000408F40000000E051DB29C000000000FB703A40000000C000408FC0
310
000000E051DB29C000000000FB703A400C000000130000007A0B00003C0000000600000002000000000000C000408FC0000000E0984529C0000000E02E933940000000C000408FC0000000E051DB29C000000000FB703A400C00000013000000820B00003C00000006000000020000000000004000408F40000000E0984529
310
C0000000E02E933940000000C000408FC0000000E0984529C0000000E02E9339400C000000130000008A0B00003C0000000600000002000000000000C000408FC0000000202FFB28C00000000058BA3840000000C000408FC0000000E0984529C0000000E02E9339400C00000013000000920B00003C000000060000000200
310
00000000004000408F40000000002FFB28C00000000058BA3840000000C000408FC0000000202FFB28C00000000058BA38400C000000130000009A0B00003C0000000600000002000000000000C000408FC000000060D91229C0000000C01CD53740000000C000408FC0000000202FFB28C00000000058BA38400C00000013
310
000000A20B00003C00000006000000020000000000004000408F4000000080D91229C0000000C01CD53740000000C000408FC000000060D91229C0000000C01CD537400C00000013000000AA0B00003C0000000600000002000000000000C000408FC0000000C0BDA129C0000000802AFA3640000000C000408FC000000060
310
D91229C0000000C01CD537400C00000013000000B20B00003C00000006000000020000000000004000408F40000000C0BDA129C0000000802AFA3640000000C000408FC0000000C0BDA129C0000000802AFA36400C00000013000000BA0B00003C0000000600000002000000000000C000408FC00000008042952AC0000000
310
006A283640000000C000408FC0000000C0BDA129C0000000802AFA36400C00000013000000C20B00003C00000006000000020000000000004000408F400000008042952AC0000000006A283640000000C000408FC00000008042952AC0000000006A2836400C00000013000000CA0B00003C00000006000000020000000000
310
00C000408FC0000000A00FDD2BC000000060035C3540000000C000408FC00000008042952AC0000000006A2836400C00000013000000D20B00003C0000000600000002000000000000C000408FC0000000A00FDD2BC000000060035C35400000004000408F40000000800FDD2BC000000060035C35400C00000013000000DA
310
0B00003C0000000600000002000000000000C000408FC0000000A04E432DC000000040BFA53440000000C000408FC0000000A00FDD2BC000000060035C35400C00000013000000E20B00003C0000000600000002000000000000C000408FC0000000A04E432DC000000040BFA534400000004000408F40000000804E432DC0
310
00000040BFA534400C00000013000000EA0B00003C0000000600000002000000000000C000408FC0000000A04E432DC000000040BFA53440000000C000408FC0000000A0EBEA2EC00000008084E933400C00000013000000F20B00003C00000006000000020000000000004000408F4000000080EBEA2EC00000008084E933
310
40000000C000408FC0000000A0EBEA2EC00000008084E933400C00000013000000FA0B00003C0000000600000002000000000000C000408FC000000060973530C00000004024513340000000C000408FC0000000A0EBEA2EC00000008084E933400C00000013000000020C00003C0000000600000002000000000000C00040
310
8FC000000060973530C000000040245133400000004000408F4000000060973530C000000040245133400C000000130000000A0C00003C0000000600000002000000000000C000408FC000000060973530C00000004024513340000000C000408FC000000020FD7F31C000000000EB6E32400C00000013000000120C00003C
310
00000006000000020000000000004000408F4000000020FD7F31C000000000EB6E3240000000C000408FC000000020FD7F31C000000000EB6E32400C000000130000001A0C00003C0000000600000002000000000000C000408FC000000020FD7F31C000000000D65D2640000000C000408FC000000020FD7F31C000000000
310
EB6E32400C00000013000000220C00003C0000000600000002000000000000C000408FC000000020FD7F31C000000000D65D26400000004000408F4000000020FD7F31C000000000D65D26400C000000130000002A0C00003C0000000600000002000000000000C000408FC000000080FAFF2BC000000000D65D2640000000
310
C000408FC000000020FD7F31C000000000D65D26400C00000013000000320C00003C0000000600000002000000000000C000408FC000000080FAFF2BC000000000D65D26400000004000408F4000000060FAFF2BC000000000D65D26400C000000130000003A0C00003C0000000600000002000000000000C000408FC00000
310
0080FAFF2BC000000000D65D2640000000C000408FC000000040FAFF2BC000000080D55D20400C00000013000000420C00003C0000000600000002000000000000C000408FC000000040FAFF2BC000000080D55D20400000004000408F4000000040FAFF2BC000000080D55D20400C000000130000004A0C00003C00000006
310
00000002000000000000C000408FC000000040FAFF2BC000000080D55D2040000000C000408FC00000008028CF29C000000080E80520400C00000013000000520C00003C00000006000000020000000000004000408F400000008028CF29C000000080E8052040000000C000408FC00000008028CF29C000000080E8052040
310
0C000000130000005A0C00003C0000000600000002000000000000C000408FC0000000E0569927C00000000029401F40000000C000408FC00000008028CF29C000000080E80520400C00000013000000620C00003C00000006000000020000000000004000408F40000000E0569927C00000000029401F40000000C000408F
310
C0000000E0569927C00000000029401F400C000000130000006A0C00003C0000000600000002000000000000C000408FC000000040FA4C25C0000000003C241E40000000C000408FC0000000E0569927C00000000029401F400C00000013000000720C00003C00000006000000020000000000004000408F4000000040FA4C
310
25C0000000003C241E40000000C000408FC000000040FA4C25C0000000003C241E400C000000130000007A0C00003C0000000600000002000000000000C000408FC000000040124523C000000000B4B31C40000000C000408FC000000040FA4C25C0000000003C241E400C00000013000000820C00003C0000000600000002
310
0000000000004000408F4000000040124523C000000000B4B31C40000000C000408FC000000040124523C000000000B4B31C400C000000130000008A0C00003C00000006000000020000000000004000408F4000000040124523C000000000B4B31C400000004000408F4000000040FA4C25C0000000003C241E400C000000
310
13000000920C00003C0000000600000002000000000000C000408FC000000020747821C000000000A0A31A40000000C000408FC000000040124523C000000000B4B31C400C000000130000009A0C00003C00000006000000020000000000004000408F4000000000747821C000000000A0A31A40000000C000408FC0000000
310
20747821C000000000A0A31A400C00000013000000A20C00003C0000000600000002000000000000C000408FC0000000201A1B20C00000000006C51740000000C000408FC000000020747821C000000000A0A31A400C00000013000000AA0C00003C0000000600000002000000000000C000408FC0000000201A1B20C00000
310
000006C517400000004000408F40000000001A1B20C00000000006C517400C00000013000000B20C00003C0000000600000002000000000000C000408FC0000000201A1B20C00000000006C51740000000C000408FC0000000E0BE6D1EC000000000E80F14400C00000013000000BA0C00003C000000060000000200000000
310
00004000408F4000000000BF6D1EC000000000E80F1440000000C000408FC0000000E0BE6D1EC000000000E80F14400C00000013000000C20C00003C0000000600000002000000000000C000408FC0000000A0C9591DC00000000088A90F40000000C000408FC0000000E0BE6D1EC000000000E80F14400C00000013000000
310
CA0C00003C00000006000000020000000000004000408F40000000C0C9591DC00000000088A90F40000000C000408FC0000000A0C9591DC00000000088A90F400C00000013000000D20C00003C0000000600000002000000000000C000408FC0000000406EB11CC000000000A4520640000000C000408FC0000000A0C9591D
310
C00000000088A90F400C00000013000000DA0C00003C00000006000000020000000000004000408F40000000606EB11CC000000000A4520640000000C000408FC0000000406EB11CC000000000A45206400C00000013000000E20C00003C0000000600000002000000000000C000408FC000000080A3551CC0000000006078
310
FB3F000000C000408FC0000000406EB11CC000000000A45206400C00000013000000EA0C00003C00000006000000020000000000004000408F40000000A0A3551CC0000000006078FB3F000000C000408FC000000080A3551CC0000000006078FB3F0C00000013000000F20C00003C0000000600000002000000000000C000
310
408FC0000000A0F4FF1BC0000000006075C73F000000C000408FC000000080A3551CC0000000006078FB3F0C00000013000000FA0C00003C0000000600000002000000000000C000408FC0000000A0F4FF1BC0000000006075C73F0000004000408F40000000E0F4FF1BC0000000006075C73F0C00000013000000020D0000
310
3C0000000600000002000000000000C000408FC0000000C0FEFF063F00000000000000BF000000C000408FC0000000A0F4FF1BC0000000006075C73F0C000000130000000A0D00003C0000000600000002000000000000C000408FC0000000C0FEFF063F00000000000000BF0000004000408F40000000E00080063F000000
310
00000000BF0C00000013000000120D00003C0000000600000002000000000000C000408FC0000000C0FEFF063F00000000000000BF000000C000408FC0000000C0FE7F063F000000004E151D400C000000130000001A0D00003C0000000600000002000000000000C000408FC0000000C0FE7F063F000000004E151D400000
310
004000408F40000000E00080053F000000004E151D400C00000013000000220D00003C0000000600000002000000000000C000408FC0000000C0FE7F063F000000004E151D40000000C000408FC000000000DC98E5BF000000009E8B1E400C000000130000002A0D00003C00000006000000020000000000004000408F4000
310
000000E298E5BF000000009E8B1E40000000C000408FC000000000DC98E5BF000000009E8B1E400C00000013000000320D00003C0000000600000002000000000000C000408FC000000000042EF2BF00000000F77F2040000000C000408FC000000000DC98E5BF000000009E8B1E400C000000130000003A0D00003C000000
310
06000000020000000000004000408F4000000000062EF2BF00000000F77F2040000000C000408FC000000000042EF2BF00000000F77F20400C00000013000000420D00003C0000000600000002000000000000C000408FC00000000092CCF4BF00000000FCFF2140000000C000408FC000000000042EF2BF00000000F77F20
310
400C000000130000004A0D00003C0000000600000002000000000000C000408FC00000000092CCF4BF00000000FCFF21400000004000408F400000000094CCF4BF00000000FCFF21400C00000013000000520D00003C0000000600000002000000000000C000408FC000000000032EF2BF0000000001802340000000C00040
310
8FC00000000092CCF4BF00000000FCFF21400C000000130000005A0D00003C0000000600000002000000000000C000408FC000000000032EF2BF00000000018023400000004000408F4000000000062EF2BF00000000018023400C00000013000000620D00003C00000006000000020000000000004000408F400000000094
310
CCF4BF00000000FCFF21400000004000408F4000000000062EF2BF00000000018023400C000000130000006A0D00003C0000000600000002000000000000C000408FC000000000DE98E5BF0000000029BA2440000000C000408FC000000000032EF2BF00000000018023400C00000013000000720D00003C00000006000000
310
02000000000000C000408FC000000000DE98E5BF0000000029BA24400000004000408F4000000000E498E5BF0000000029BA24400C000000130000007A0D00003C0000000600000002000000000000C000408FC0000000C0FE7F063F0000000051752540000000C000408FC000000000DE98E5BF0000000029BA24400C0000
310
0013000000820D00003C0000000600000002000000000000C000408FC0000000C0FE7F063F00000000517525400000004000408F40000000E00080053F00000000517525400C000000130000008A0D00003C0000000600000002000000000000C000408FC0000000C0FE7F063F0000000051752540000000C000408FC00000
310
00C0FEFF063F00000000FEFF33400C00000013000000920D00003C00000006000000020000000000004000408F40000000E00080063F00000000FEFF3340000000C000408FC0000000C0FEFF063F00000000FEFF33400C000000130000009A0D00003C0000000600000002000000000000C000408FC00000008060F80CC000
310
0000E00C9F3740000000C000408FC0000000C0FEFF063F00000000FEFF33400C00000013000000A20D00003C0000000600000002000000000000C000408FC00000008060F80CC0000000E00C9F37400000004000408F400000000061F80CC0000000E00C9F37400C00000013000000AA0D00003C0000000600000002000000
310
000000C000408FC00000008060F80CC0000000E00C9F3740000000C000408FC0000000601A1611C000000060359838400C00000013000000B20D00003C00000006000000020000000000004000408F40000000801A1611C00000006035983840000000C000408FC0000000601A1611C000000060359838400C000000130000
310
00BA0D00003C0000000600000002000000000000C000408FC0000000E0F4FF11C0000000C01BBE3940000000C000408FC0000000601A1611C000000060359838400C00000013000000C20D00003C0000000600000002000000000000C000408FC0000000E0F4FF11C0000000C01BBE39400000004000408F4000000000F5FF
310
11C0000000C01BBE39400C00000013000000CA0D00003C0000000600000002000000000000C000408FC000000080F5FF11C00000002078905140000000C000408FC0000000E0F4FF11C0000000C01BBE39400C00000013000000D20D00003C0000000600000002000000000000C000408FC000000080F5FF11C00000002078
310
9051400000004000408F40000000A0F5FF11C000000020789051400C00000013000000DA0D00003C0000000600000002000000000000C000408FC000000080F5FF11C00000002078905140000000C000408FC0000000201B1611C0000000A0F1D951400C00000013000000E20D00003C000000060000000200000000000040
310
00408F40000000401B1611C0000000A0F1D95140000000C000408FC0000000201B1611C0000000A0F1D951400C00000013000000EA0D00003C0000000600000002000000000000C000408FC00000008061F80CC0000000C03B185240000000C000408FC0000000201B1611C0000000A0F1D951400C00000013000000F20D00
310
003C00000006000000020000000000004000408F400000000063F80CC0000000C03B185240000000C000408FC00000008061F80CC0000000C03B1852400C00000013000000FA0D00003C0000000600000002000000000000C000408FC0000000C0FEFF043F00000080FFFF5240000000C000408FC00000008061F80CC00000
310
00C03B1852400C00000013000000020E00003C0000000600000002000000000000C000408FC0000000C0FEFF043F00000080FFFF52400000004000408F40000000E00000043F00000080FFFF52400C000000130000000A0E00003C0000000600000002000000000000C000408FC0000000C0FEFF043F00000080FFFF524000
310
0000C000408FC0000000C0FE7F053F000000E0545155400C00000013000000120E00003C0000000600000002000000000000C000408FC0000000C0FE7F053F000000E0545155400000004000408F40000000E00000053F000000E0545155400C000000130000001A0E00003C0000000600000002000000000000C000408FC0
310
00000000E498E5BF000000E0B9685540000000C000408FC0000000C0FE7F053F000000E0545155400C00000013000000220E00003C0000000600000002000000000000C000408FC000000000E498E5BF000000E0B96855400000004000408F4000000000E698E5BF000000E0B96855400C000000130000002A0E00003C0000
310
000600000002000000000000C000408FC000000000E498E5BF000000E0B9685540000000C000408FC000000000072EF2BF000000E0FE8F55400C00000013000000320E00003C00000006000000020000000000004000408F4000000000072EF2BF000000E0FE8F5540000000C000408FC000000000072EF2BF000000E0FE8F
310
55400C000000130000003A0E00003C0000000600000002000000000000C000408FC00000000095CCF4BF00000080FFBF5540000000C000408FC000000000072EF2BF000000E0FE8F55400C00000013000000420E00003C0000000600000002000000000000C000408FC00000000095CCF4BF00000080FFBF55400000004000
310
408F400000000097CCF4BF00000080FFBF55400C000000130000004A0E00003C0000000600000002000000000000C000408FC00000000095CCF4BF00000080FFBF5540000000C000408FC000000000072EF2BF0000002000F055400C00000013000000520E00003C00000006000000020000000000004000408F4000000000
310
072EF2BF0000002000F05540000000C000408FC000000000072EF2BF0000002000F055400C000000130000005A0E00003C0000000600000002000000000000C000408FC000000000E898E5BF0000002045175640000000C000408FC000000000072EF2BF0000002000F055400C00000013000000620E00003C000000060000
310
00020000000000004000408F4000000000EA98E5BF0000002045175640000000C000408FC000000000E898E5BF00000020451756400C000000130000006A0E00003C0000000600000002000000000000C000408FC0000000C0FE7F043F00000020AA2E5640000000C000408FC000000000E898E5BF00000020451756400C00
310
000013000000720E00003C00000006000000020000000000004000408F40000000E00000043F00000020AA2E5640000000C000408FC0000000C0FE7F043F00000020AA2E56400C000000130000007A0E00003C0000000600000002000000000000C000408FC0000000C0FE7F043F00000080FFFF5740000000C000408FC000
310
0000C0FE7F043F00000020AA2E56400C00000013000000820E00003C0000000600000002000000000000C000408FC000000000E898E5BF0000002045175640000000C000408FC0000000E0F5FF1BC00000004044F457400C000000130000008A0E00003C0000000600000002000000000000C000408FC0000000A0F4FF1BC0
310
000000006075C73F000000C000408FC000000000DC98E5BF000000009E8B1E400C00000013000000920E00003C0000000600000002000000000000C000408FC000000080A3551CC0000000006078FB3F000000C000408FC000000000DC98E5BF000000009E8B1E400C000000130000009A0E00003C00000006000000020000
310
00000000C000408FC0000000406EB11CC000000000A4520640000000C000408FC000000000DC98E5BF000000009E8B1E400C00000013000000A20E00003C0000000600000002000000000000C000408FC0000000A0C9591DC00000000088A90F40000000C000408FC000000000DC98E5BF000000009E8B1E400C0000001300
310
0000AA0E00003C0000000600000002000000000000C000408FC0000000E0BE6D1EC000000000E80F1440000000C000408FC000000000042EF2BF00000000F77F20400C00000013000000B20E00003C0000000600000002000000000000C000408FC0000000201A1B20C00000000006C51740000000C000408FC00000000004
310
2EF2BF00000000F77F20400C00000013000000BA0E00003C0000000600000002000000000000C000408FC000000020747821C000000000A0A31A40000000C000408FC000000000042EF2BF00000000F77F20400C00000013000000C20E00003C0000000600000002000000000000C000408FC000000080FAFF2BC000000000
310
D65D2640000000C000408FC000000060973530C000000040245133400C00000013000000CA0E00003C0000000600000002000000000000C000408FC000000080FAFF2BC000000000D65D2640000000C000408FC0000000A0EBEA2EC00000008084E933400C00000013000000D20E00003C0000000600000002000000000000
310
C000408FC000000080FAFF2BC000000000D65D2640000000C000408FC0000000A04E432DC000000040BFA534400C00000013000000DA0E00003C0000000600000002000000000000C000408FC000000080FAFF2BC000000000D65D2640000000C000408FC0000000A00FDD2BC000000060035C35400C00000013000000E20E
310
00003C0000000600000002000000000000C000408FC00000000092CCF4BF00000000FCFF2140000000C000408FC000000040124523C000000000B4B31C400C00000013000000EA0E00003C0000000600000002000000000000C000408FC00000008060F80CC0000000E00C9F3740000000C000408FC000000000DE98E5BF00
310
00000029BA24400C00000013000000F20E00003C0000000600000002000000000000C000408FC000000000032EF2BF0000000001802340000000C000408FC0000000601A1611C000000060359838400C00000013000000FA0E00003C0000000600000002000000000000C000408FC000000000032EF2BF0000000001802340
310
000000C000408FC000000040FA4C25C0000000003C241E400C00000013000000020F00003C0000000600000002000000000000C000408FC0000000601A1611C00000006035983840000000C000408FC000000040FA4C25C0000000003C241E400C000000130000000A0F00003C0000000600000002000000000000C000408F
310
C0000000E0569927C00000000029401F40000000C000408FC0000000C0BDA129C0000000802AFA36400C00000013000000120F00003C0000000600000002000000000000C000408FC0000000601A1611C00000006035983840000000C000408FC000000060D91229C0000000C01CD537400C000000130000001A0F00003C00
310
00000600000002000000000000C000408FC0000000E0F4FF11C0000000C01BBE3940000000C000408FC0000000202FFB28C00000000058BA38400C00000013000000220F00003C0000000600000002000000000000C000408FC0000000E0F4FF11C0000000C01BBE3940000000C000408FC0000000E0984529C0000000E02E
310
9339400C000000130000002A0F00003C0000000600000002000000000000C000408FC0000000E0F4FF11C0000000C01BBE3940000000C000408FC0000000E051DB29C000000000FB703A400C00000013000000320F00003C0000000600000002000000000000C000408FC0000000E0F4FF11C0000000C01BBE3940000000C0
310
00408FC000000020E5B02AC0000000004A573B400C000000130000003A0F00003C0000000600000002000000000000C000408FC000000060395830C00000000098054540000000C000408FC000000040A65230C0000000A0A6FB4A400C00000013000000420F00003C0000000600000002000000000000C000408FC0000000
310
40C70E2EC0000000005EC24440000000C000408FC0000000C0ED072EC0000000203E3E4B400C000000130000004A0F00003C0000000600000002000000000000C000408FC0000000A0C56A31C0000000203D4C4540000000C000408FC000000060916431C00000000096B54A400C00000013000000520F00003C0000000600
310
000002000000000000C000408FC0000000A0944632C00000004078974540000000C000408FC0000000E0A74632C000000020AB5F4A400C000000130000005A0F00003C0000000600000002000000000000C000408FC0000000A0AB2C33C00000008056EB4940000000C000408FC0000000608A2E33C0000000E0BA1546400C
310
00000013000000620F00003C0000000600000002000000000000C000408FC000000020944A34C000000060EDB74840000000C000408FC0000000E0A24934C0000000C0874547400C000000130000006A0F00003C0000000600000002000000000000C000408FC000000080950834C0000000E03BD84640000000C000408FC0
310
000000E0230A34C000000080472549400C00000013000000720F00003C0000000600000002000000000000C000408FC00000000004AB33C0000000C0B78C4940000000C000408FC000000080ABAC33C000000060777446400C000000130000007A0F00003C0000000600000002000000000000C000408FC0000000A0FAFF2A
310
C000000000FF7F4440000000C000408FC000000080FAFF2AC000000000FF7F4B400C00000013000000820F00003C0000000600000002000000000000C000408FC0000000E0F4FF11C0000000C01BBE3940000000C000408FC0000000E05CAF2BC0000000006E3E3C400C000000130000008A0F00003C000000060000000200
310
0000000000C000408FC0000000E0F4FF11C0000000C01BBE3940000000C000408FC0000000C058C32CC0000000C0F6243D400C00000013000000920F00003C0000000600000002000000000000C000408FC0000000E0F4FF11C0000000C01BBE3940000000C000408FC0000000C0F8C72DC000000000DAFE3D400C00000013
310
0000009A0F00003C0000000600000002000000000000C000408FC0000000E0F4FF11C0000000C01BBE3940000000C000408FC0000000C04AAE2EC000000000E8D03E400C00000013000000A20F00003C0000000600000002000000000000C000408FC0000000E0F4FF11C0000000C01BBE3940000000C000408FC000000040
310
217B2FC000000080E0AF3F400C00000013000000AA0F00003C0000000600000002000000000000C000408FC0000000E0F4FF11C0000000C01BBE3940000000C000408FC000000040C21430C000000040F55240400C00000013000000B20F00003C0000000600000002000000000000C000408FC0000000E0F4FF11C0000000
310
C01BBE3940000000C000408FC000000040065330C00000004031D040400C00000013000000BA0F00003C0000000600000002000000000000C000408FC0000000E0F4FF11C0000000C01BBE3940000000C000408FC000000000D77830C0000000400B5541400C00000013000000C20F00003C00000006000000020000000000
310
00C000408FC0000000E0F4FF11C0000000C01BBE3940000000C000408FC0000000008B8130C0000000805DD641400C00000013000000CA0F00003C0000000600000002000000000000C000408FC0000000E0F4FF11C0000000C01BBE3940000000C000408FC0000000C01F6B30C0000000C00E5A42400C00000013000000D2
310
0F00003C0000000600000002000000000000C000408FC0000000E0F4FF11C0000000C01BBE3940000000C000408FC0000000600C3430C000000040D0D442400C00000013000000DA0F00003C0000000600000002000000000000C000408FC0000000E0F4FF11C0000000C01BBE3940000000C000408FC000000000CAAE2FC0
310
00000040B94943400C00000013000000E20F00003C0000000600000002000000000000C000408FC0000000E0F4FF11C0000000C01BBE3940000000C000408FC0000000005CB12EC000000040B7AF43400C00000013000000EA0F00003C0000000600000002000000000000C000408FC0000000E0F4FF11C0000000C01BBE39
310
40000000C000408FC000000000026D2DC0000000C0680A44400C00000013000000F20F00003C0000000600000002000000000000C000408FC0000000E0F4FF11C0000000C01BBE3940000000C000408FC0000000A0FAFF2AC000000000FF7F44400C00000013000000FA0F00003C0000000600000002000000000000C00040
310
8FC000000020D5751EC00000008064BD5640000000C000408FC000000000072EF2BF0000002000F055400C00000013000000021000003C0000000600000002000000000000C000408FC000000080F45F1DC00000008085005740000000C000408FC000000000E898E5BF00000020451756400C000000130000000A1000003C
310
0000000600000002000000000000C000408FC0000000E044B81CC0000000E07B495740000000C000408FC000000000E898E5BF00000020451756400C00000013000000121000003C0000000600000002000000000000C000408FC0000000A089571CC00000008057905740000000C000408FC000000000E898E5BF00000020
310
451756400C000000130000001A1000003C0000000600000002000000000000C000408FC00000000095CCF4BF00000080FFBF5540000000C000408FC0000000A0AB4123C000000080F73456400C00000013000000221000003C0000000600000002000000000000C000408FC000000080466D21C000000080CE565640000000
310
C000408FC000000000072EF2BF0000002000F055400C000000130000002A1000003C0000000600000002000000000000C000408FC0000000E05D1920C000000040F2835640000000C000408FC000000000072EF2BF0000002000F055400C00000013000000321000003C0000000600000002000000000000C000408FC00000
310
0000A35E25C000000020241D5640000000C000408FC000000000072EF2BF000000E0FE8F55400C000000130000003A1000003C0000000600000002000000000000C000408FC000000000E498E5BF000000E0B9685540000000C000408FC00000008061F80CC0000000C03B1852400C00000013000000421000003C00000006
310
00000002000000000000C000408FC0000000201B1611C0000000A0F1D95140000000C000408FC000000000072EF2BF000000E0FE8F55400C000000130000004A1000003C0000000600000002000000000000C000408FC000000000A43830C000000000492C5340000000C000408FC0000000C0FAFF2BC00000004044345540
310
0C00000013000000521000003C0000000600000002000000000000C000408FC0000000802CEB2EC000000020A0055340000000C000408FC0000000C0FAFF2BC000000040443455400C000000130000005A1000003C0000000600000002000000000000C000408FC0000000C0AF592DC0000000403DD95240000000C000408F
310
C0000000C0FAFF2BC000000040443455400C00000013000000621000003C0000000600000002000000000000C000408FC00000000035022CC0000000E00FAE5240000000C000408FC0000000C0FAFF2BC000000040443455400C000000130000006A1000003C0000000600000002000000000000C000408FC0000000E0B0C3
310
2AC0000000801C7E5240000000C000408FC0000000C0FAFF2BC000000040443455400C00000013000000721000003C0000000600000002000000000000C000408FC0000000C03C0C2AC00000000005FE5540000000C000408FC0000000C0FAFF2BC000000040443455400C000000130000007A1000003C0000000600000002
310
000000000000C000408FC0000000C03C0C2AC00000000005FE5540000000C000408FC000000020E8CA29C0000000A03F4C52400C00000013000000821000003C0000000600000002000000000000C000408FC000000080FAFF2BC000000000D65D2640000000C000408FC00000008028CF29C000000080E80520400C000000
310
130000008A1000003C0000000600000002000000000000C000408FC00000008028CF29C000000080E8052040000000C000408FC00000008042952AC0000000006A2836400C00000013000000921000003C0000000600000002000000000000C000408FC0000000A0613029C0000000E03C1B5240000000C000408FC0000000
310
E0C3C027C000000080FF0A56400C000000130000009A1000003C0000000600000002000000000000C000408FC0000000A0613029C0000000E03C1B5240000000C000408FC0000000201B1611C0000000A0F1D951400C00000013000000A21000003C0000000600000002000000000000C000408FC0000000201B1611C00000
310
00A0F1D95140000000C000408FC000000000A35E25C000000020241D56400C00000013000000AA1000003C0000000600000002000000000000C000408FC000000080F5FF11C00000002078905140000000C000408FC000000000B1F528C0000000A059E751400C00000013000000B21000003C000000060000000200000000
310
0000C000408FC000000080F5FF11C00000002078905140000000C000408FC000000060972329C000000000A6AD51400C00000013000000BA1000003C0000000600000002000000000000C000408FC000000080F5FF11C00000002078905140000000C000408FC00000000039742AC000000060303951400C00000013000000
310
C21000003C0000000600000002000000000000C000408FC000000080F5FF11C00000002078905140000000C000408FC00000006094A829C000000060517451400C00000013000000CA1000003C0000000600000002000000000000C000408FC000000080F5FF11C00000002078905140000000C000408FC0000000C08A6D2D
310
C000000080779350400C00000013000000D21000003C0000000600000002000000000000C000408FC000000080F5FF11C00000002078905140000000C000408FC0000000409F632CC00000006081CA50400C00000013000000DA1000003C0000000600000002000000000000C000408FC000000080F5FF11C0000000207890
310
5140000000C000408FC000000020B45D2BC0000000202F0251400C00000013000000E21000003C0000000600000002000000000000C000408FC000000080F5FF11C00000002078905140000000C000408FC0000000601D752EC0000000E0635950400C00000013000000EA1000003C0000000600000002000000000000C000
310
408FC000000080F5FF11C00000002078905140000000C000408FC0000000E0465A2FC0000000E0D61D50400C00000013000000F21000003C0000000600000002000000000000C000408FC000000080F5FF11C00000002078905140000000C000408FC000000040FE0530C000000080D8C44F400C00000013000000FA100000
310
3C0000000600000002000000000000C000408FC000000080F5FF11C00000002078905140000000C000408FC0000000C0404A30C00000008018454F400C00000013000000021100003C0000000600000002000000000000C000408FC000000080F5FF11C00000002078905140000000C000408FC0000000C0AA7330C0000000
310
0062C54E400C000000130000000A1100003C0000000600000002000000000000C000408FC000000080F5FF11C00000002078905140000000C000408FC000000080068230C0000000403D3F4E400C00000013000000121100003C0000000600000002000000000000C000408FC000000080F5FF11C000000020789051400000
310
00C000408FC0000000A0417130C0000000804DBC4D400C000000130000001A1100003C0000000600000002000000000000C000408FC000000080F5FF11C00000002078905140000000C000408FC000000020763D30C0000000E01A3B4D400C00000013000000221100003C0000000600000002000000000000C000408FC000
310
000080F5FF11C00000002078905140000000C000408FC0000000C0D9D82FC000000040E3CB4C400C000000130000002A1100003C0000000600000002000000000000C000408FC000000080F5FF11C00000002078905140000000C000408FC0000000C08CFE2EC000000040FD6A4C400C00000013000000321100003C000000
310
0600000002000000000000C000408FC000000080F5FF11C00000002078905140000000C000408FC000000040B4E12DC0000000A0D8124C400C000000130000003A1100003C0000000600000002000000000000C000408FC000000080F5FF11C00000002078905140000000C000408FC0000000803C792CC00000000024C14B
310
400C00000013000000421100003C0000000600000002000000000000C000408FC000000080F5FF11C00000002078905140000000C000408FC000000080FAFF2AC000000000FF7F4B40
100
AcDbSubDMesh
 71
     2
 72
     0
 91
        0
 92
      250
 10
-1000.000366210937
 20
0.0000400542849093
 30
75.99996948242187
 10
-1000.000366210937
 20
-4.49995994567871
 30
70.25733184814453
 10
-1000.000366210937
 20
-4.499957561492919
 30
25.74261093139649
 10
-1000.000366210937
 20
-3.621277809143066
 30
23.62129020690918
 10
-1000.000366210937
 20
-8.052933692932128
 30
5.942405700683593
 10
-1000.000366210937
 20
-13.99995803833008
 30
11.18327331542968
 10
-1000.000366210937
 20
-17.49995613098144
 30
11.18327331542968
 10
-1000.000366210937
 20
-16.20934104919433
 30
19.31695938110351
 10
-1000.000366210937
 20
-14.63145923614502
 30
20.6474494934082
 10
-1000.000366210937
 20
-13.93175983428955
 30
21.35942649841309
 10
-1000.000366210937
 20
-13.34549808502197
 30
27.34097290039063
 10
-1000.000366210937
 20
-13.84250545501709
 30
28.24386596679687
 10
-1000.000366210937
 20
-14.38153648376465
 30
29.14439010620117
 10
-1000.000366210937
 20
-14.89056968688965
 30
29.99551391601563
 10
-1000.000366210937
 20
-16.08108901977539
 30
32.64810943603516
 10
-1000.000366210937
 20
-16.32431411743164
 30
33.62650299072266
 10
-1000.000366210937
 20
-16.47203063964844
 30
34.66440582275391
 10
-1000.000366210937
 20
-16.34462547302246
 30
42.043701171875
 10
-1000.000366210937
 20
-17.41707801818847
 30
42.59561538696289
 10
-1000.000366210937
 20
-20.03353118896484
 30
45.68932723999023
 10
-1000.000366210937
 20
-20.29132270812988
 30
49.43693161010742
 10
-1000.000366210937
 20
-14.23678970336914
 30
55.5089111328125
 10
-1000.000366210937
 20
-14.94082832336426
 30
56.14723587036133
 10
-1000.000366210937
 20
-15.49716758728027
 30
56.83585357666015
 10
-1000.000366210937
 20
-16.5079116821289
 30
60.49405670166016
 10
-1000.000366210937
 20
-16.45182418823242
 30
61.54205322265625
 10
-1000.000366210937
 20
-14.71394920349121
 30
66.30416870117187
 10
-1000.000366210937
 20
-13.68301486968994
 30
68.03412628173828
 10
-1000.000366210937
 20
-12.56951427459717
 30
70.7132568359375
 10
-1000.000366210937
 20
-12.59449481964111
 30
72.42559051513672
 10
-1000.000366210937
 20
-14.00431060791015
 30
74.71971893310547
 10
-1000.000366210937
 20
-17.49996185302734
 30
84.81666564941406
 10
-1000.000366210937
 20
-13.02390098571777
 30
87.96905517578125
 10
-1000.000366210937
 20
-7.615070819854736
 30
90.95925903320312
 10
-1000.000366210937
 20
-7.179950237274169
 30
93.14818572998047
 10
-1000.000366210937
 20
-7.085485935211181
 30
94.25534057617188
 10
-1000.000366210937
 20
0.0000438689821749
 30
-0.000030517578125
 10
-1000.000366210937
 20
-1.299946784973144
 30
86.99996948242187
 10
-1000.000366210937
 20
-0.6749134063720704
 30
85.63634490966796
 10
-1000.000366210937
 20
0.0000410079592257
 30
85.27080535888671
 10
-1000.000366210937
 20
0.0000429153078585
 30
10.72913360595703
 10
-1000.000366210937
 20
-0.6749105453491211
 30
10.36359405517578
 10
-1000.000366210937
 20
-1.136233329772949
 30
9.750007629394531
 10
-1000.000366210937
 20
-1.299943923950195
 30
8.999969482421875
 10
-1000.000366210937
 20
0.0000429153078585
 30
7.270805358886718
 10
-1000.000366210937
 20
-20.28764152526855
 30
46.54320526123046
 10
-1000.000366210937
 20
-20.43620681762695
 30
48.42401885986328
 10
-1000.000366210937
 20
-20.03960990905762
 30
50.29124450683593
 10
-1000.000366210937
 20
-19.17449378967285
 30
51.83857727050781
 10
-1000.000366210937
 20
-6.999956607818603
 30
0.1832695007324219
 10
-1000.000366210937
 20
-13.99995613098144
 30
8.183269500732421
 10
1000.000122070312
 20
0.0000381469981221
 30
88.72913360595703
 10
1000.000122070312
 20
-0.6749162673950196
 30
88.36359405517578
 10
1000.000122070312
 20
-6.999962329864501
 30
95.81666564941405
 10
1000.000122070312
 20
0.0000362396494893
 30
95.99996948242187
 10
1000.000122070312
 20
-0.6749124526977539
 30
7.636344909667968
 10
1000.000122070312
 20
0.0000410080210713
 30
7.270805358886718
 10
1000.000122070312
 20
0.0000429153697041
 30
-0.000030517578125
 10
1000.000122070312
 20
-6.999957561492919
 30
0.1832695007324219
 10
1000.000122070312
 20
-7.083631992340087
 30
1.716888427734375
 10
1000.000122070312
 20
-7.173272609710693
 30
2.790351867675781
 10
1000.000122070312
 20
-7.337683677673339
 30
3.957778930664062
 10
1000.000122070312
 20
-1.136236190795898
 30
8.249931335449218
 10
1000.000122070312
 20
-7.607173919677734
 30
5.015533447265625
 10
1000.000122070312
 20
-8.052932739257812
 30
5.942405700683593
 10
1000.000122070312
 20
-8.735260009765625
 30
6.6597900390625
 10
1000.000122070312
 20
-13.99995708465576
 30
11.18327331542968
 10
1000.000122070312
 20
-17.49995613098144
 30
11.18327331542968
 10
1000.000122070312
 20
-17.49995613098144
 30
18.43327331542969
 10
1000.000122070312
 20
-16.20934104919433
 30
19.31695938110351
 10
1000.000122070312
 20
-15.45882797241211
 30
19.91217803955078
 10
1000.000122070312
 20
-14.6314582824707
 30
20.6474494934082
 10
1000.000122070312
 20
-13.93175888061523
 30
21.35942649841309
 10
1000.000122070312
 20
-1.299945831298828
 30
8.999969482421875
 10
1000.000122070312
 20
-9.634904861450195
 30
7.175491333007812
 10
1000.000122070312
 20
-3.621278762817382
 30
23.62129020690918
 10
1000.000122070312
 20
0.0000429153697041
 30
19.99996948242187
 10
1000.000122070312
 20
0.0000410080210713
 30
10.72913360595703
 10
1000.000122070312
 20
-0.6749134063720704
 30
10.36359405517578
 10
1000.000122070312
 20
-4.271585464477539
 30
24.59456443786621
 10
1000.000122070312
 20
-1.136236190795898
 30
9.750007629394531
 10
1000.000122070312
 20
-10.65034675598144
 30
7.535385131835937
 10
1000.000122070312
 20
-11.7994909286499
 30
7.81265640258789
 10
1000.000122070312
 20
-12.8159008026123
 30
22.97721099853516
 10
1000.000122070312
 20
-12.53681564331055
 30
23.83246994018555
 10
1000.000122070312
 20
-4.499958038330078
 30
25.74261093139649
 10
1000.000122070312
 20
-12.49059295654297
 30
24.7279052734375
 10
1000.000122070312
 20
-12.63593196868896
 30
25.57493400573731
 10
1000.000122070312
 20
-12.92835903167725
 30
26.44132995605469
 10
1000.000122070312
 20
-13.34549808502197
 30
27.34097290039063
 10
1000.000122070312
 20
-15.02886390686035
 30
41.51849365234375
 10
1000.000122070312
 20
-16.34462547302246
 30
42.043701171875
 10
1000.000122070312
 20
-16.32284927368164
 30
53.96602249145508
 10
1000.000122070312
 20
-15.0154857635498
 30
54.48627090454102
 10
1000.000122070312
 20
-17.41707801818847
 30
42.59561538696289
 10
1000.000122070312
 20
-17.39284324645996
 30
53.41864013671875
 10
1000.000122070312
 20
-18.27570533752441
 30
43.18335723876953
 10
1000.000122070312
 20
-18.27599906921387
 30
52.74740982055664
 10
1000.000122070312
 20
-19.18179893493652
 30
44.16976547241211
 10
1000.000122070312
 20
-19.17449378967285
 30
51.83857727050781
 10
1000.000122070312
 20
-20.28764152526855
 30
46.54320526123046
 10
1000.000122070312
 20
-20.4340877532959
 30
47.53339767456054
 10
1000.000122070312
 20
-20.43620872497559
 30
48.42401885986328
 10
1000.000122070312
 20
-20.29132270812988
 30
49.43693161010742
 10
1000.000122070312
 20
-20.03353309631348
 30
45.68932723999023
 10
1000.000122070312
 20
-20.03960990905762
 30
50.29124450683593
 10
1000.000122070312
 20
-19.67449378967285
 30
44.90989303588867
 10
1000.000122070312
 20
-19.66803169250488
 30
51.09935760498046
 10
1000.000122070312
 20
-13.49995803833008
 30
40.99996948242187
 10
1000.000122070312
 20
-13.49995803833008
 30
54.99996948242188
 10
1000.000122070312
 20
-13.8425064086914
 30
28.24386596679687
 10
1000.000122070312
 20
-14.38153553009033
 30
29.14439010620117
 10
1000.000122070312
 20
-14.89056968688965
 30
29.99551391601563
 10
1000.000122070312
 20
-15.34041404724121
 30
30.8160400390625
 10
1000.000122070312
 20
-15.74048709869385
 30
31.68701934814453
 10
1000.000122070312
 20
-16.08108901977539
 30
32.64810943603516
 10
1000.000122070312
 20
-16.32431411743164
 30
33.62650299072266
 10
1000.000122070312
 20
-16.47203063964844
 30
34.66440582275391
 10
1000.000122070312
 20
-16.50602722167969
 30
35.67472839355469
 10
1000.000122070312
 20
-16.41845321655273
 30
36.70357513427735
 10
1000.000122070312
 20
-16.20331382751465
 30
37.66260528564453
 10
1000.000122070312
 20
-15.84138679504394
 30
38.57596588134766
 10
1000.000122070312
 20
-15.34640502929687
 30
39.37277984619141
 10
1000.000122070312
 20
-14.71290588378906
 30
40.08132171630859
 10
1000.000122070312
 20
-1.136237144470214
 30
87.75000762939454
 10
1000.000122070312
 20
-7.615071296691894
 30
90.95925903320312
 10
1000.000122070312
 20
-7.343706607818603
 30
92.00814819335937
 10
1000.000122070312
 20
-7.179950714111328
 30
93.14818572998047
 10
1000.000122070312
 20
-7.085486888885498
 30
94.25534057617188
 10
1000.000122070312
 20
-1.299948692321777
 30
86.99996948242187
 10
1000.000122070312
 20
-9.628263473510742
 30
88.82760620117187
 10
1000.000122070312
 20
-8.713428497314453
 30
89.35635375976563
 10
1000.000122070312
 20
-8.049545288085937
 30
90.06166076660155
 10
1000.000122070312
 20
-1.136237144470214
 30
86.24993133544922
 10
1000.000122070312
 20
-4.271588325500488
 30
71.4053726196289
 10
1000.000122070312
 20
-10.68483734130859
 30
88.45532989501952
 10
1000.000122070312
 20
-0.6749143600463868
 30
85.63634490966796
 10
1000.000122070312
 20
0.0000400543467549
 30
85.27080535888671
 10
1000.000122070312
 20
0.0000381469981221
 30
75.99996948242187
 10
1000.000122070312
 20
-3.621282577514648
 30
72.37864685058593
 10
1000.000122070312
 20
-15.45932292938232
 30
76.08789825439453
 10
1000.000122070312
 20
-16.22125244140625
 30
76.69195556640625
 10
1000.000122070312
 20
-13.99995994567871
 30
84.81666564941406
 10
1000.000122070312
 20
-17.49996185302734
 30
77.56666564941406
 10
1000.000122070312
 20
-17.49996185302734
 30
84.81666564941406
 10
1000.000122070312
 20
-14.67516803741455
 30
75.39436340332031
 10
1000.000122070312
 20
-14.00430965423584
 30
74.71971893310547
 10
1000.000122070312
 20
-13.38220882415771
 30
73.97048950195312
 10
1000.000122070312
 20
-12.89630222320556
 30
73.19138336181641
 10
1000.000122070312
 20
-13.02390098571777
 30
87.96905517578125
 10
1000.000122070312
 20
-12.90460586547851
 30
8.011539459228515
 10
1000.000122070312
 20
-13.29152297973633
 30
22.15786743164063
 10
1000.000122070312
 20
-13.99995613098144
 30
8.183269500732421
 10
1000.000122070312
 20
-13.99995994567871
 30
87.81666564941406
 10
1000.000122070312
 20
-12.59449577331543
 30
72.42559051513672
 10
1000.000122070312
 20
-11.87649440765381
 30
88.17184448242187
 10
1000.000122070312
 20
-4.499960422515869
 30
70.25733184814453
 10
1000.000122070312
 20
-12.47986602783203
 30
71.61484527587891
 10
1000.000122070312
 20
-12.56951427459717
 30
70.7132568359375
 10
1000.000122070312
 20
-13.2269983291626
 30
68.89357757568359
 10
1000.000122070312
 20
-12.82925701141357
 30
69.81746673583984
 10
1000.000122070312
 20
-14.71394920349121
 30
66.30416870117187
 10
1000.000122070312
 20
-14.1945743560791
 30
67.16414642333984
 10
1000.000122070312
 20
-13.68301391601562
 30
68.03412628173828
 10
1000.000122070312
 20
-15.22873878479004
 30
65.39672088623047
 10
1000.000122070312
 20
-15.67632102966308
 30
64.46623992919922
 10
1000.000122070312
 20
-16.02341079711914
 30
63.53785705566406
 10
1000.000122070312
 20
-16.2900505065918
 30
62.53981018066406
 10
1000.000122070312
 20
-16.45182418823242
 30
61.54205322265625
 10
1000.000122070312
 20
-16.5079116821289
 30
60.49405670166016
 10
1000.000122070312
 20
-16.44240760803223
 30
59.47111511230469
 10
1000.000122070312
 20
-16.24008369445801
 30
58.46175765991211
 10
1000.000122070312
 20
-15.92353630065918
 30
57.5928726196289
 10
1000.000122070312
 20
-15.49716663360596
 30
56.83585357666015
 10
1000.000122070312
 20
-14.94082832336426
 30
56.14723587036133
 10
1000.000122070312
 20
-14.23678874969482
 30
55.5089111328125
 10
-1000.000366210937
 20
0.0000391006105929
 30
95.99996948242187
 10
-1000.000366210937
 20
-3.621279716491699
 30
72.37864685058593
 10
-1000.000366210937
 20
-4.27158784866333
 30
71.4053726196289
 10
-1000.000366210937
 20
-4.27158498764038
 30
24.59456443786621
 10
-1000.000366210937
 20
0.0000438689821749
 30
19.99996948242187
 10
-1000.000366210937
 20
-7.083631515502929
 30
1.716888427734375
 10
-1000.000366210937
 20
-7.173272132873535
 30
2.790351867675781
 10
-1000.000366210937
 20
-7.337683200836181
 30
3.957778930664062
 10
-1000.000366210937
 20
-7.607173442840576
 30
5.015533447265625
 10
-1000.000366210937
 20
-8.735260963439941
 30
6.6597900390625
 10
-1000.000366210937
 20
-9.634904861450195
 30
7.175491333007812
 10
-1000.000366210937
 20
-10.65034675598144
 30
7.535385131835937
 10
-1000.000366210937
 20
-11.7994909286499
 30
7.81265640258789
 10
-1000.000366210937
 20
-12.90460586547851
 30
8.011539459228515
 10
-1000.000366210937
 20
-17.49995613098144
 30
18.43327331542969
 10
-1000.000366210937
 20
-15.45882892608642
 30
19.91217803955078
 10
-1000.000366210937
 20
-13.29152297973633
 30
22.15786743164063
 10
-1000.000366210937
 20
-12.8159008026123
 30
22.97721099853516
 10
-1000.000366210937
 20
-12.53681468963623
 30
23.83246994018555
 10
-1000.000366210937
 20
-12.49059391021728
 30
24.7279052734375
 10
-1000.000366210937
 20
-12.63593196868896
 30
25.57493400573731
 10
-1000.000366210937
 20
-12.92835903167725
 30
26.44132995605469
 10
-1000.000366210937
 20
-15.34041404724121
 30
30.8160400390625
 10
-1000.000366210937
 20
-15.74048805236816
 30
31.68701934814453
 10
-1000.000366210937
 20
-16.50602722167969
 30
35.67472839355469
 10
-1000.000366210937
 20
-16.41845321655273
 30
36.70357513427735
 10
-1000.000366210937
 20
-16.20331382751465
 30
37.66260528564453
 10
-1000.000366210937
 20
-15.84138488769531
 30
38.57596588134766
 10
-1000.000366210937
 20
-15.34640502929687
 30
39.37277984619141
 10
-1000.000366210937
 20
-14.71290588378906
 30
40.08132171630859
 10
-1000.000366210937
 20
-13.49995899200439
 30
40.99996948242187
 10
-1000.000366210937
 20
-15.02886390686035
 30
41.51849365234375
 10
-1000.000366210937
 20
-18.27570533752441
 30
43.18335723876953
 10
-1000.000366210937
 20
-19.18179893493652
 30
44.16976547241211
 10
-1000.000366210937
 20
-20.43408584594727
 30
47.53339767456054
 10
-1000.000366210937
 20
-19.66802978515625
 30
51.09935760498046
 10
-1000.000366210937
 20
-18.27599906921387
 30
52.74740982055664
 10
-1000.000366210937
 20
-17.39284324645996
 30
53.41864013671875
 10
-1000.000366210937
 20
-16.32284927368164
 30
53.96602249145508
 10
-1000.000366210937
 20
-15.0154857635498
 30
54.48627090454102
 10
-1000.000366210937
 20
-15.92353630065918
 30
57.5928726196289
 10
-1000.000366210937
 20
-16.24008369445801
 30
58.46175765991211
 10
-1000.000366210937
 20
-16.44240760803223
 30
59.47111511230469
 10
-1000.000366210937
 20
-16.2900505065918
 30
62.53981018066406
 10
-1000.000366210937
 20
-16.02341079711914
 30
63.53785705566406
 10
-1000.000366210937
 20
-15.6763219833374
 30
64.46623992919922
 10
-1000.000366210937
 20
-15.22873973846435
 30
65.39672088623047
 10
-1000.000366210937
 20
-14.1945743560791
 30
67.16414642333984
 10
-1000.000366210937
 20
-13.22699737548828
 30
68.89357757568359
 10
-1000.000366210937
 20
-12.82925701141357
 30
69.81746673583984
 10
-1000.000366210937
 20
-12.47986602783203
 30
71.61484527587891
 10
-1000.000366210937
 20
-12.89630222320556
 30
73.19138336181641
 10
-1000.000366210937
 20
-13.38220882415771
 30
73.97048950195312
 10
-1000.000366210937
 20
-14.67516899108886
 30
75.39436340332031
 10
-1000.000366210937
 20
-15.45932388305664
 30
76.08789825439453
 10
-1000.000366210937
 20
-16.22125244140625
 30
76.69195556640625
 10
-1000.000366210937
 20
-17.49996185302734
 30
77.56666564941406
 10
-1000.000366210937
 20
-13.99995994567871
 30
84.81666564941406
 10
-1000.000366210937
 20
-11.87649440765381
 30
88.17184448242187
 10
-1000.000366210937
 20
-10.68483734130859
 30
88.45532989501952
 10
-1000.000366210937
 20
-9.628262519836425
 30
88.82760620117187
 10
-1000.000366210937
 20
-8.713428497314453
 30
89.35635375976563
 10
-1000.000366210937
 20
-8.049544334411621
 30
90.06166076660155
 10
-1000.000366210937
 20
-7.343706130981445
 30
92.00814819335937
 10
-1000.000366210937
 20
0.0000391006105929
 30
88.72913360595703
 10
-1000.000366210937
 20
-0.6749153137207032
 30
88.36359405517578
 10
-1000.000366210937
 20
-1.136237144470214
 30
87.75000762939454
 10
-1000.000366210937
 20
-1.136237144470214
 30
86.24993133544922
 10
-1000.000366210937
 20
-1.136234283447265
 30
8.249931335449218
 10
-1000.000366210937
 20
-0.6749095916748047
 30
7.636344909667968
 10
-1000.000366210937
 20
-19.67449188232422
 30
44.90989303588867
 10
-1000.000366210937
 20
-13.49995803833008
 30
54.99996948242188
 10
-1000.000366210937
 20
-6.999961376190185
 30
95.81666564941405
 10
-1000.000366210937
 20
-13.99996089935303
 30
87.81666564941406
 93
     1411
 90
        4
 90
       51
 90
       54
 90
       53
 90
       52
 90
        4
 90
       55
 90
       58
 90
       57
 90
       56
 90
        3
 90
       55
 90
       59
 90
       58
 90
        3
 90
       55
 90
       60
 90
       59
 90
        3
 90
       55
 90
       61
 90
       60
 90
        4
 90
       62
 90
       63
 90
       61
 90
       55
 90
        3
 90
       62
 90
       64
 90
       63
 90
        3
 90
       62
 90
       65
 90
       64
 90
        4
 90
       66
 90
       69
 90
       68
 90
       67
 90
        3
 90
       66
 90
       70
 90
       69
 90
        3
 90
       66
 90
       71
 90
       70
 90
        3
 90
       66
 90
       72
 90
       71
 90
        4
 90
       73
 90
       74
 90
       65
 90
       62
 90
        4
 90
       75
 90
       78
 90
       77
 90
       76
 90
        4
 90
       79
 90
       80
 90
       78
 90
       75
 90
        3
 90
       79
 90
       81
 90
       80
 90
        5
 90
       79
 90
       84
 90
       83
 90
       82
 90
       81
 90
        4
 90
       85
 90
       86
 90
       84
 90
       79
 90
        3
 90
       85
 90
       87
 90
       86
 90
        3
 90
       85
 90
       88
 90
       87
 90
        3
 90
       85
 90
       89
 90
       88
 90
        4
 90
       90
 90
       93
 90
       92
 90
       91
 90
        4
 90
       91
 90
       92
 90
       95
 90
       94
 90
        4
 90
       94
 90
       95
 90
       97
 90
       96
 90
        4
 90
       96
 90
       97
 90
       99
 90
       98
 90
        4
 90
      100
 90
      103
 90
      102
 90
      101
 90
        4
 90
      104
 90
      105
 90
      103
 90
      100
 90
        4
 90
      106
 90
      107
 90
      105
 90
      104
 90
        4
 90
       98
 90
       99
 90
      107
 90
      106
 90
        4
 90
      108
 90
      109
 90
       93
 90
       90
 90
        3
 90
       85
 90
      110
 90
       89
 90
        3
 90
       85
 90
      111
 90
      110
 90
        3
 90
       85
 90
      112
 90
      111
 90
        3
 90
       85
 90
      113
 90
      112
 90
        3
 90
       85
 90
      114
 90
      113
 90
        3
 90
       85
 90
      115
 90
      114
 90
        3
 90
       85
 90
      116
 90
      115
 90
        3
 90
       85
 90
      117
 90
      116
 90
        3
 90
       85
 90
      118
 90
      117
 90
        3
 90
       85
 90
      119
 90
      118
 90
        3
 90
       85
 90
      120
 90
      119
 90
        3
 90
       85
 90
      121
 90
      120
 90
        3
 90
       85
 90
      122
 90
      121
 90
        3
 90
       85
 90
      123
 90
      122
 90
        3
 90
       85
 90
      108
 90
      123
 90
        4
 90
       52
 90
      126
 90
      125
 90
      124
 90
        3
 90
       52
 90
      127
 90
      126
 90
        3
 90
       52
 90
      128
 90
      127
 90
        3
 90
       52
 90
       53
 90
      128
 90
        4
 90
      124
 90
      131
 90
      130
 90
      129
 90
        3
 90
      124
 90
      132
 90
      131
 90
        3
 90
      124
 90
      125
 90
      132
 90
        4
 90
      129
 90
      130
 90
      135
 90
      133
 90
        4
 90
      136
 90
      139
 90
      138
 90
      137
 90
        4
 90
      133
 90
      134
 90
      139
 90
      136
 90
        3
 90
      140
 90
      142
 90
      141
 90
        4
 90
      141
 90
      142
 90
      144
 90
      143
 90
        3
 90
      145
 90
      142
 90
      140
 90
        3
 90
      146
 90
      142
 90
      145
 90
        3
 90
      147
 90
      142
 90
      146
 90
        4
 90
      148
 90
      149
 90
      142
 90
      147
 90
        4
 90
      150
 90
      151
 90
       72
 90
       66
 90
        4
 90
       82
 90
       83
 90
      151
 90
      150
 90
        3
 90
      150
 90
       66
 90
      152
 90
        3
 90
      142
 90
      149
 90
      153
 90
        4
 90
      154
 90
      155
 90
      149
 90
      148
 90
        4
 90
      134
 90
      135
 90
      155
 90
      154
 90
        4
 90
      134
 90
      154
 90
      157
 90
      156
 90
        3
 90
      156
 90
      157
 90
      158
 90
        3
 90
      156
 90
      160
 90
      159
 90
        3
 90
      156
 90
      158
 90
      160
 90
        3
 90
      156
 90
      162
 90
      161
 90
        3
 90
      156
 90
      159
 90
      163
 90
        3
 90
      156
 90
      161
 90
      164
 90
        3
 90
      162
 90
      156
 90
      163
 90
        3
 90
      156
 90
      164
 90
      165
 90
        3
 90
      156
 90
      165
 90
      166
 90
        3
 90
      156
 90
      166
 90
      167
 90
        3
 90
      156
 90
      167
 90
      168
 90
        3
 90
      156
 90
      168
 90
      169
 90
        3
 90
      156
 90
      169
 90
      170
 90
        3
 90
      156
 90
      170
 90
      171
 90
        3
 90
      156
 90
      171
 90
      172
 90
        3
 90
      156
 90
      172
 90
      173
 90
        3
 90
      156
 90
      173
 90
      174
 90
        3
 90
      156
 90
      174
 90
      175
 90
        3
 90
      156
 90
      175
 90
      109
 90
        4
 90
      156
 90
      109
 90
      108
 90
       85
 90
        4
 90
      176
 90
      248
 90
       53
 90
       54
 90
        4
 90
      248
 90
       35
 90
      128
 90
       53
 90
        4
 90
       35
 90
       34
 90
      127
 90
      128
 90
        4
 90
       34
 90
      239
 90
      126
 90
      127
 90
        4
 90
      239
 90
       33
 90
      125
 90
      126
 90
        4
 90
       33
 90
      238
 90
      132
 90
      125
 90
        4
 90
      238
 90
      237
 90
      131
 90
      132
 90
        4
 90
      237
 90
      236
 90
      130
 90
      131
 90
        4
 90
      236
 90
      235
 90
      135
 90
      130
 90
        4
 90
      235
 90
      234
 90
      155
 90
      135
 90
        4
 90
      234
 90
       32
 90
      149
 90
      155
 90
        4
 90
       32
 90
      249
 90
      153
 90
      149
 90
        4
 90
      249
 90
      233
 90
      142
 90
      153
 90
        4
 90
      233
 90
       31
 90
      144
 90
      142
 90
        4
 90
       31
 90
      232
 90
      143
 90
      144
 90
        4
 90
      232
 90
      231
 90
      141
 90
      143
 90
        4
 90
      231
 90
      230
 90
      140
 90
      141
 90
        4
 90
      230
 90
      229
 90
      145
 90
      140
 90
        4
 90
      229
 90
       30
 90
      146
 90
      145
 90
        4
 90
       30
 90
      228
 90
      147
 90
      146
 90
        4
 90
      228
 90
      227
 90
      148
 90
      147
 90
        4
 90
      227
 90
       29
 90
      154
 90
      148
 90
        4
 90
       29
 90
      226
 90
      157
 90
      154
 90
        4
 90
      226
 90
       28
 90
      158
 90
      157
 90
        4
 90
       28
 90
      225
 90
      160
 90
      158
 90
        4
 90
      225
 90
      224
 90
      159
 90
      160
 90
        4
 90
      224
 90
       27
 90
      163
 90
      159
 90
        4
 90
       27
 90
      223
 90
      162
 90
      163
 90
        4
 90
      223
 90
       26
 90
      161
 90
      162
 90
        4
 90
       26
 90
      222
 90
      164
 90
      161
 90
        4
 90
      222
 90
      221
 90
      165
 90
      164
 90
        4
 90
      221
 90
      220
 90
      166
 90
      165
 90
        4
 90
      220
 90
      219
 90
      167
 90
      166
 90
        4
 90
      219
 90
       25
 90
      168
 90
      167
 90
        4
 90
       25
 90
       24
 90
      169
 90
      168
 90
        4
 90
       24
 90
      218
 90
      170
 90
      169
 90
        4
 90
      218
 90
      217
 90
      171
 90
      170
 90
        4
 90
      217
 90
      216
 90
      172
 90
      171
 90
        4
 90
      216
 90
       23
 90
      173
 90
      172
 90
        4
 90
       23
 90
       22
 90
      174
 90
      173
 90
        4
 90
       22
 90
       21
 90
      175
 90
      174
 90
        4
 90
       21
 90
      247
 90
      109
 90
      175
 90
        4
 90
      247
 90
      215
 90
       93
 90
      109
 90
        4
 90
      215
 90
      214
 90
       92
 90
       93
 90
        4
 90
      214
 90
      213
 90
       95
 90
       92
 90
        4
 90
      213
 90
      212
 90
       97
 90
       95
 90
        4
 90
      212
 90
       48
 90
       99
 90
       97
 90
        4
 90
       48
 90
      211
 90
      107
 90
       99
 90
        4
 90
      211
 90
       47
 90
      105
 90
      107
 90
        4
 90
       47
 90
       20
 90
      103
 90
      105
 90
        4
 90
       20
 90
       46
 90
      102
 90
      103
 90
        4
 90
       46
 90
      210
 90
      101
 90
      102
 90
        4
 90
      210
 90
       45
 90
      100
 90
      101
 90
        4
 90
       45
 90
       19
 90
      104
 90
      100
 90
        4
 90
       19
 90
      246
 90
      106
 90
      104
 90
        4
 90
      246
 90
      209
 90
       98
 90
      106
 90
        4
 90
      209
 90
      208
 90
       96
 90
       98
 90
        4
 90
      208
 90
       18
 90
       94
 90
       96
 90
        4
 90
       18
 90
       17
 90
       91
 90
       94
 90
        4
 90
       17
 90
      207
 90
       90
 90
       91
 90
        4
 90
      207
 90
      206
 90
      108
 90
       90
 90
        4
 90
      206
 90
      205
 90
      123
 90
      108
 90
        4
 90
      205
 90
      204
 90
      122
 90
      123
 90
        4
 90
      204
 90
      203
 90
      121
 90
      122
 90
        4
 90
      203
 90
      202
 90
      120
 90
      121
 90
        4
 90
      202
 90
      201
 90
      119
 90
      120
 90
        4
 90
      201
 90
      200
 90
      118
 90
      119
 90
        4
 90
      200
 90
       16
 90
      117
 90
      118
 90
        4
 90
       16
 90
       15
 90
      116
 90
      117
 90
        4
 90
       15
 90
       14
 90
      115
 90
      116
 90
        4
 90
       14
 90
      199
 90
      114
 90
      115
 90
        4
 90
      199
 90
      198
 90
      113
 90
      114
 90
        4
 90
      198
 90
       13
 90
      112
 90
      113
 90
        4
 90
       13
 90
       12
 90
      111
 90
      112
 90
        4
 90
       12
 90
       11
 90
      110
 90
      111
 90
        4
 90
       11
 90
       10
 90
       89
 90
      110
 90
        4
 90
       10
 90
      197
 90
       88
 90
       89
 90
        4
 90
      197
 90
      196
 90
       87
 90
       88
 90
        4
 90
      196
 90
      195
 90
       86
 90
       87
 90
        4
 90
      195
 90
      194
 90
       84
 90
       86
 90
        4
 90
      194
 90
      193
 90
       83
 90
       84
 90
        4
 90
      193
 90
      192
 90
      151
 90
       83
 90
        4
 90
      192
 90
        9
 90
       72
 90
      151
 90
        4
 90
        9
 90
        8
 90
       71
 90
       72
 90
        4
 90
        8
 90
      191
 90
       70
 90
       71
 90
        4
 90
      191
 90
        7
 90
       69
 90
       70
 90
        4
 90
        7
 90
      190
 90
       68
 90
       69
 90
        4
 90
      190
 90
        6
 90
       67
 90
       68
 90
        4
 90
        6
 90
        5
 90
       66
 90
       67
 90
        4
 90
        5
 90
       50
 90
      152
 90
       66
 90
        4
 90
       50
 90
      189
 90
      150
 90
      152
 90
        4
 90
      189
 90
      188
 90
       82
 90
      150
 90
        4
 90
      188
 90
      187
 90
       81
 90
       82
 90
        4
 90
      187
 90
      186
 90
       74
 90
       81
 90
        4
 90
      186
 90
      185
 90
       65
 90
       74
 90
        4
 90
      185
 90
        4
 90
       64
 90
       65
 90
        4
 90
        4
 90
      184
 90
       63
 90
       64
 90
        4
 90
      184
 90
      183
 90
       61
 90
       63
 90
        4
 90
      183
 90
      182
 90
       60
 90
       61
 90
        4
 90
      182
 90
      181
 90
       59
 90
       60
 90
        4
 90
      181
 90
       49
 90
       58
 90
       59
 90
        4
 90
       49
 90
       36
 90
       57
 90
       58
 90
        4
 90
       36
 90
       44
 90
       56
 90
       57
 90
        4
 90
       44
 90
      245
 90
       55
 90
       56
 90
        4
 90
      245
 90
      244
 90
       62
 90
       55
 90
        4
 90
      244
 90
       43
 90
       73
 90
       62
 90
        4
 90
       43
 90
       42
 90
       80
 90
       73
 90
        4
 90
       42
 90
       41
 90
       78
 90
       80
 90
        4
 90
       41
 90
       40
 90
       77
 90
       78
 90
        4
 90
       40
 90
      180
 90
       76
 90
       77
 90
        4
 90
      180
 90
        3
 90
       75
 90
       76
 90
        4
 90
        3
 90
      179
 90
       79
 90
       75
 90
        4
 90
      179
 90
        2
 90
       85
 90
       79
 90
        4
 90
        2
 90
        1
 90
      156
 90
       85
 90
        4
 90
        1
 90
      178
 90
      134
 90
      156
 90
        4
 90
      178
 90
      177
 90
      139
 90
      134
 90
        4
 90
      177
 90
        0
 90
      138
 90
      139
 90
        4
 90
        0
 90
       39
 90
      137
 90
      138
 90
        4
 90
       39
 90
       38
 90
      136
 90
      137
 90
        4
 90
       38
 90
      243
 90
      133
 90
      136
 90
        4
 90
      243
 90
       37
 90
      129
 90
      133
 90
        4
 90
       37
 90
      242
 90
      124
 90
      129
 90
        4
 90
      242
 90
      241
 90
       52
 90
      124
 90
        4
 90
      241
 90
      240
 90
       51
 90
       52
 90
        4
 90
      240
 90
      176
 90
       54
 90
       51
 90
        3
 90
      135
 90
      134
 90
      133
 90
        4
 90
       81
 90
       74
 90
       73
 90
       80
 90
        4
 90
      240
 90
      241
 90
      248
 90
      176
 90
        4
 90
      245
 90
       44
 90
       36
 90
       49
 90
        3
 90
      245
 90
       49
 90
      181
 90
        3
 90
      245
 90
      181
 90
      182
 90
        3
 90
      245
 90
      182
 90
      183
 90
        4
 90
      244
 90
      245
 90
      183
 90
      184
 90
        3
 90
      244
 90
      184
 90
        4
 90
        3
 90
      244
 90
        4
 90
      185
 90
        4
 90
        5
 90
        6
 90
      190
 90
        7
 90
        3
 90
        5
 90
        7
 90
      191
 90
        3
 90
        5
 90
      191
 90
        8
 90
        3
 90
        5
 90
        8
 90
        9
 90
        4
 90
       43
 90
      244
 90
      185
 90
      186
 90
        4
 90
        3
 90
      180
 90
       40
 90
       41
 90
        4
 90
      179
 90
        3
 90
       41
 90
       42
 90
        3
 90
      179
 90
       42
 90
      187
 90
        5
 90
      179
 90
      187
 90
      188
 90
      193
 90
      194
 90
        4
 90
        2
 90
      179
 90
      194
 90
      195
 90
        3
 90
        2
 90
      195
 90
      196
 90
        3
 90
        2
 90
      196
 90
      197
 90
        3
 90
        2
 90
      197
 90
       10
 90
        4
 90
      207
 90
       17
 90
      214
 90
      215
 90
        4
 90
       17
 90
       18
 90
      213
 90
      214
 90
        4
 90
       18
 90
      208
 90
      212
 90
      213
 90
        4
 90
      208
 90
      209
 90
       48
 90
      212
 90
        4
 90
       45
 90
      210
 90
       46
 90
       20
 90
        4
 90
       19
 90
       45
 90
       20
 90
       47
 90
        4
 90
      246
 90
       19
 90
       47
 90
      211
 90
        4
 90
      209
 90
      246
 90
      211
 90
       48
 90
        4
 90
      206
 90
      207
 90
      215
 90
      247
 90
        3
 90
        2
 90
       10
 90
       11
 90
        3
 90
        2
 90
       11
 90
       12
 90
        3
 90
        2
 90
       12
 90
       13
 90
        3
 90
        2
 90
       13
 90
      198
 90
        3
 90
        2
 90
      198
 90
      199
 90
        3
 90
        2
 90
      199
 90
       14
 90
        3
 90
        2
 90
       14
 90
       15
 90
        3
 90
        2
 90
       15
 90
       16
 90
        3
 90
        2
 90
       16
 90
      200
 90
        3
 90
        2
 90
      200
 90
      201
 90
        3
 90
        2
 90
      201
 90
      202
 90
        3
 90
        2
 90
      202
 90
      203
 90
        3
 90
        2
 90
      203
 90
      204
 90
        3
 90
        2
 90
      204
 90
      205
 90
        3
 90
        2
 90
      205
 90
      206
 90
        4
 90
      241
 90
      242
 90
       33
 90
      239
 90
        3
 90
      241
 90
      239
 90
       34
 90
        3
 90
      241
 90
       34
 90
       35
 90
        3
 90
      241
 90
       35
 90
      248
 90
        4
 90
      242
 90
       37
 90
      236
 90
      237
 90
        3
 90
      242
 90
      237
 90
      238
 90
        3
 90
      242
 90
      238
 90
       33
 90
        4
 90
       37
 90
      243
 90
      235
 90
      236
 90
        4
 90
       38
 90
       39
 90
        0
 90
      177
 90
        4
 90
      243
 90
       38
 90
      177
 90
      178
 90
        3
 90
      230
 90
      231
 90
      233
 90
        4
 90
      231
 90
      232
 90
       31
 90
      233
 90
        3
 90
      229
 90
      230
 90
      233
 90
        3
 90
       30
 90
      229
 90
      233
 90
        3
 90
      228
 90
       30
 90
      233
 90
        4
 90
      227
 90
      228
 90
      233
 90
       32
 90
        4
 90
      189
 90
        5
 90
        9
 90
      192
 90
        4
 90
      188
 90
      189
 90
      192
 90
      193
 90
        3
 90
      189
 90
       50
 90
        5
 90
        3
 90
      233
 90
      249
 90
       32
 90
        4
 90
       29
 90
      227
 90
       32
 90
      234
 90
        4
 90
      178
 90
       29
 90
      234
 90
      235
 90
        4
 90
      178
 90
        1
 90
      226
 90
       29
 90
        3
 90
        1
 90
       28
 90
      226
 90
        3
 90
        1
 90
      224
 90
      225
 90
        3
 90
        1
 90
      225
 90
       28
 90
        3
 90
        1
 90
       26
 90
      223
 90
        3
 90
        1
 90
       27
 90
      224
 90
        3
 90
        1
 90
      222
 90
       26
 90
        3
 90
      223
 90
       27
 90
        1
 90
        3
 90
        1
 90
      221
 90
      222
 90
        3
 90
        1
 90
      220
 90
      221
 90
        3
 90
        1
 90
      219
 90
      220
 90
        3
 90
        1
 90
       25
 90
      219
 90
        3
 90
        1
 90
       24
 90
       25
 90
        3
 90
        1
 90
      218
 90
       24
 90
        3
 90
        1
 90
      217
 90
      218
 90
        3
 90
        1
 90
      216
 90
      217
 90
        3
 90
        1
 90
       23
 90
      216
 90
        3
 90
        1
 90
       22
 90
       23
 90
        3
 90
        1
 90
       21
 90
       22
 90
        3
 90
        1
 90
      247
 90
       21
 90
        4
 90
        1
 90
        2
 90
      206
 90
      247
 90
        3
 90
      243
 90
      178
 90
      235
 90
        4
 90
       42
 90
       43
 90
      186
 90
      187
 94
      553
 90
       51
 90
       54
 90
       53
 90
       54
 90
       52
 90
       53
 90
       51
 90
       52
 90
       55
 90
       58
 90
       57
 90
       58
 90
       56
 90
       57
 90
       55
 90
       56
 90
       55
 90
       59
 90
       58
 90
       59
 90
       55
 90
       60
 90
       59
 90
       60
 90
       55
 90
       61
 90
       60
 90
       61
 90
       62
 90
       63
 90
       61
 90
       63
 90
       55
 90
       62
 90
       62
 90
       64
 90
       63
 90
       64
 90
       62
 90
       65
 90
       64
 90
       65
 90
       66
 90
       69
 90
       68
 90
       69
 90
       67
 90
       68
 90
       66
 90
       67
 90
       66
 90
       70
 90
       69
 90
       70
 90
       66
 90
       71
 90
       70
 90
       71
 90
       66
 90
       72
 90
       71
 90
       72
 90
       73
 90
       74
 90
       65
 90
       74
 90
       62
 90
       73
 90
       75
 90
       78
 90
       77
 90
       78
 90
       76
 90
       77
 90
       75
 90
       76
 90
       79
 90
       80
 90
       78
 90
       80
 90
       75
 90
       79
 90
       79
 90
       81
 90
       80
 90
       81
 90
       79
 90
       84
 90
       83
 90
       84
 90
       82
 90
       83
 90
       81
 90
       82
 90
       85
 90
       86
 90
       84
 90
       86
 90
       79
 90
       85
 90
       85
 90
       87
 90
       86
 90
       87
 90
       85
 90
       88
 90
       87
 90
       88
 90
       85
 90
       89
 90
       88
 90
       89
 90
       90
 90
       93
 90
       92
 90
       93
 90
       91
 90
       92
 90
       90
 90
       91
 90
       92
 90
       95
 90
       94
 90
       95
 90
       91
 90
       94
 90
       95
 90
       97
 90
       96
 90
       97
 90
       94
 90
       96
 90
       97
 90
       99
 90
       98
 90
       99
 90
       96
 90
       98
 90
      100
 90
      103
 90
      102
 90
      103
 90
      101
 90
      102
 90
      100
 90
      101
 90
      104
 90
      105
 90
      103
 90
      105
 90
      100
 90
      104
 90
      106
 90
      107
 90
      105
 90
      107
 90
      104
 90
      106
 90
       99
 90
      107
 90
       98
 90
      106
 90
      108
 90
      109
 90
       93
 90
      109
 90
       90
 90
      108
 90
       85
 90
      110
 90
       89
 90
      110
 90
       85
 90
      111
 90
      110
 90
      111
 90
       85
 90
      112
 90
      111
 90
      112
 90
       85
 90
      113
 90
      112
 90
      113
 90
       85
 90
      114
 90
      113
 90
      114
 90
       85
 90
      115
 90
      114
 90
      115
 90
       85
 90
      116
 90
      115
 90
      116
 90
       85
 90
      117
 90
      116
 90
      117
 90
       85
 90
      118
 90
      117
 90
      118
 90
       85
 90
      119
 90
      118
 90
      119
 90
       85
 90
      120
 90
      119
 90
      120
 90
       85
 90
      121
 90
      120
 90
      121
 90
       85
 90
      122
 90
      121
 90
      122
 90
       85
 90
      123
 90
      122
 90
      123
 90
       85
 90
      108
 90
      108
 90
      123
 90
       52
 90
      126
 90
      125
 90
      126
 90
      124
 90
      125
 90
       52
 90
      124
 90
       52
 90
      127
 90
      126
 90
      127
 90
       52
 90
      128
 90
      127
 90
      128
 90
       53
 90
      128
 90
      124
 90
      131
 90
      130
 90
      131
 90
      129
 90
      130
 90
      124
 90
      129
 90
      124
 90
      132
 90
      131
 90
      132
 90
      125
 90
      132
 90
      130
 90
      135
 90
      133
 90
      135
 90
      129
 90
      133
 90
      136
 90
      139
 90
      138
 90
      139
 90
      137
 90
      138
 90
      136
 90
      137
 90
      133
 90
      134
 90
      134
 90
      139
 90
      133
 90
      136
 90
      140
 90
      142
 90
      141
 90
      142
 90
      140
 90
      141
 90
      142
 90
      144
 90
      143
 90
      144
 90
      141
 90
      143
 90
      142
 90
      145
 90
      140
 90
      145
 90
      142
 90
      146
 90
      145
 90
      146
 90
      142
 90
      147
 90
      146
 90
      147
 90
      148
 90
      149
 90
      142
 90
      149
 90
      147
 90
      148
 90
      150
 90
      151
 90
       72
 90
      151
 90
       66
 90
      150
 90
       83
 90
      151
 90
       82
 90
      150
 90
       66
 90
      152
 90
      150
 90
      152
 90
      149
 90
      153
 90
      142
 90
      153
 90
      154
 90
      155
 90
      149
 90
      155
 90
      148
 90
      154
 90
      134
 90
      135
 90
      135
 90
      155
 90
      134
 90
      154
 90
      154
 90
      157
 90
      156
 90
      157
 90
      134
 90
      156
 90
      157
 90
      158
 90
      156
 90
      158
 90
      156
 90
      160
 90
      159
 90
      160
 90
      156
 90
      159
 90
      158
 90
      160
 90
      156
 90
      162
 90
      161
 90
      162
 90
      156
 90
      161
 90
      159
 90
      163
 90
      156
 90
      163
 90
      161
 90
      164
 90
      156
 90
      164
 90
      162
 90
      163
 90
      164
 90
      165
 90
      156
 90
      165
 90
      165
 90
      166
 90
      156
 90
      166
 90
      166
 90
      167
 90
      156
 90
      167
 90
      167
 90
      168
 90
      156
 90
      168
 90
      168
 90
      169
 90
      156
 90
      169
 90
      169
 90
      170
 90
      156
 90
      170
 90
      170
 90
      171
 90
      156
 90
      171
 90
      171
 90
      172
 90
      156
 90
      172
 90
      172
 90
      173
 90
      156
 90
      173
 90
      173
 90
      174
 90
      156
 90
      174
 90
      174
 90
      175
 90
      156
 90
      175
 90
      109
 90
      175
 90
      109
 90
      156
 90
       85
 90
      156
 90
      176
 90
      248
 90
       53
 90
      248
 90
       54
 90
      176
 90
       35
 90
      248
 90
       35
 90
      128
 90
       34
 90
       35
 90
       34
 90
      127
 90
       34
 90
      239
 90
      126
 90
      239
 90
       33
 90
      239
 90
       33
 90
      125
 90
       33
 90
      238
 90
      132
 90
      238
 90
      237
 90
      238
 90
      131
 90
      237
 90
      236
 90
      237
 90
      130
 90
      236
 90
      235
 90
      236
 90
      135
 90
      235
 90
      234
 90
      235
 90
      155
 90
      234
 90
       32
 90
      234
 90
       32
 90
      149
 90
       32
 90
      249
 90
      153
 90
      249
 90
      233
 90
      249
 90
      142
 90
      233
 90
       31
 90
      233
 90
       31
 90
      144
 90
       31
 90
      232
 90
      143
 90
      232
 90
      231
 90
      232
 90
      141
 90
      231
 90
      230
 90
      231
 90
      140
 90
      230
 90
      229
 90
      230
 90
      145
 90
      229
 90
       30
 90
      229
 90
       30
 90
      146
 90
       30
 90
      228
 90
      147
 90
      228
 90
      227
 90
      228
 90
      148
 90
      227
 90
       29
 90
      227
 90
       29
 90
      154
 90
       29
 90
      226
 90
      157
 90
      226
 90
       28
 90
      226
 90
       28
 90
      158
 90
       28
 90
      225
 90
      160
 90
      225
 90
      224
 90
      225
 90
      159
 90
      224
 90
       27
 90
      224
 90
       27
 90
      163
 90
       27
 90
      223
 90
      162
 90
      223
 90
       26
 90
      223
 90
       26
 90
      161
 90
       26
 90
      222
 90
      164
 90
      222
 90
      221
 90
      222
 90
      165
 90
      221
 90
      220
 90
      221
 90
      166
 90
      220
 90
      219
 90
      220
 90
      167
 90
      219
 90
       25
 90
      219
 90
       25
 90
      168
 90
       24
 90
       25
 90
       24
 90
      169
 90
       24
 90
      218
 90
      170
 90
      218
 90
      217
 90
      218
 90
      171
 90
      217
 90
      216
 90
      217
 90
      172
 90
      216
 90
       23
 90
      216
 90
       23
 90
      173
 90
       22
 90
       23
 90
       22
 90
      174
 90
       21
 90
       22
 90
       21
 90
      175
 90
       21
 90
      247
 90
      109
 90
      247
 90
      215
 90
      247
 90
       93
 90
      215
 90
      214
 90
      215
 90
       92
 90
      214
 90
      213
 90
      214
 90
       95
 90
      213
 90
      212
 90
      213
 90
       97
 90
      212
 90
       48
 90
      212
 90
       48
 90
       99
 90
       48
 90
      211
 90
      107
 90
      211
 90
       47
 90
      211
 90
       47
 90
      105
 90
       20
 90
       47
 90
       20
 90
      103
 90
       20
 90
       46
 90
       46
 90
      102
 90
       46
 90
      210
 90
      101
 90
      210
 90
       45
 90
      210
 90
       45
 90
      100
 90
       19
 90
       45
 90
       19
 90
      104
 90
       19
 90
      246
 90
      106
 90
      246
 90
      209
 90
      246
 90
       98
 90
      209
 90
      208
 90
      209
 90
       96
 90
      208
 90
       18
 90
      208
 90
       18
 90
       94
 90
       17
 90
       18
 90
       17
 90
       91
 90
       17
 90
      207
 90
       90
 90
      207
 90
      206
 90
      207
 90
      108
 90
      206
 90
      205
 90
      206
 90
      123
 90
      205
 90
      204
 90
      205
 90
      122
 90
      204
 90
      203
 90
      204
 90
      121
 90
      203
 90
      202
 90
      203
 90
      120
 90
      202
 90
      201
 90
      202
 90
      119
 90
      201
 90
      200
 90
      201
 90
      118
 90
      200
 90
       16
 90
      200
 90
       16
 90
      117
 90
       15
 90
       16
 90
       15
 90
      116
 90
       14
 90
       15
 90
       14
 90
      115
 90
       14
 90
      199
 90
      114
 90
      199
 90
      198
 90
      199
 90
      113
 90
      198
 90
       13
 90
      198
 90
       13
 90
      112
 90
       12
 90
       13
 90
       12
 90
      111
 90
       11
 90
       12
 90
       11
 90
      110
 90
       10
 90
       11
 90
       10
 90
       89
 90
       10
 90
      197
 90
       88
 90
      197
 90
      196
 90
      197
 90
       87
 90
      196
 90
      195
 90
      196
 90
       86
 90
      195
 90
      194
 90
      195
 90
       84
 90
      194
 90
      193
 90
      194
 90
       83
 90
      193
 90
      192
 90
      193
 90
      151
 90
      192
 90
        9
 90
      192
 90
        9
 90
       72
 90
        8
 90
        9
 90
        8
 90
       71
 90
        8
 90
      191
 90
       70
 90
      191
 90
        7
 90
      191
 90
        7
 90
       69
 90
        7
 90
      190
 90
       68
 90
      190
 90
        6
 90
      190
 90
        6
 90
       67
 90
        5
 90
        6
 90
        5
 90
       66
 90
        5
 90
       50
 90
       50
 90
      152
 90
       50
 90
      189
 90
      150
 90
      189
 90
      188
 90
      189
 90
       82
 90
      188
 90
      187
 90
      188
 90
       81
 90
      187
 90
      186
 90
      187
 90
       74
 90
      186
 90
       74
 90
       81
 90
      185
 90
      186
 90
       65
 90
      185
 90
        4
 90
      185
 90
        4
 90
       64
 90
        4
 90
      184
 90
       63
 90
      184
 90
      183
 90
      184
 90
       61
 90
      183
 90
      182
 90
      183
 90
       60
 90
      182
 90
      181
 90
      182
 90
       59
 90
      181
 90
       49
 90
      181
 90
       49
 90
       58
 90
       36
 90
       49
 90
       36
 90
       57
 90
       36
 90
       44
 90
       44
 90
       56
 90
       44
 90
      245
 90
       55
 90
      245
 90
      244
 90
      245
 90
       62
 90
      244
 90
       43
 90
      244
 90
       43
 90
       73
 90
       42
 90
       43
 90
       42
 90
       80
 90
       73
 90
       80
 90
       41
 90
       42
 90
       41
 90
       78
 90
       40
 90
       41
 90
       40
 90
       77
 90
       40
 90
      180
 90
       76
 90
      180
 90
        3
 90
      180
 90
        3
 90
       75
 90
        3
 90
      179
 90
       79
 90
      179
 90
        2
 90
      179
 90
        2
 90
       85
 90
        1
 90
        2
 90
        1
 90
      156
 90
        1
 90
      178
 90
      134
 90
      178
 90
      177
 90
      178
 90
      139
 90
      177
 90
        0
 90
      177
 90
        0
 90
      138
 90
        0
 90
       39
 90
       39
 90
      137
 90
       38
 90
       39
 90
       38
 90
      136
 90
       38
 90
      243
 90
      133
 90
      243
 90
       37
 90
      243
 90
       37
 90
      129
 90
       37
 90
      242
 90
      124
 90
      242
 90
      241
 90
      242
 90
       52
 90
      241
 90
      240
 90
      241
 90
       51
 90
      240
 90
      176
 90
      240
 90
      241
 90
      248
 90
       49
 90
      245
 90
      181
 90
      245
 90
      182
 90
      245
 90
      183
 90
      245
 90
      184
 90
      244
 90
        4
 90
      244
 90
      185
 90
      244
 90
        5
 90
        7
 90
        5
 90
      191
 90
        5
 90
        8
 90
        5
 90
        9
 90
       43
 90
      186
 90
        3
 90
       41
 90
       42
 90
      179
 90
       42
 90
      187
 90
      179
 90
      187
 90
      188
 90
      193
 90
      179
 90
      194
 90
        2
 90
      195
 90
        2
 90
      196
 90
        2
 90
      197
 90
        2
 90
       10
 90
       17
 90
      214
 90
      207
 90
      215
 90
       18
 90
      213
 90
      208
 90
      212
 90
       48
 90
      209
 90
       20
 90
       45
 90
       19
 90
       47
 90
      211
 90
      246
 90
      206
 90
      247
 90
        2
 90
       11
 90
        2
 90
       12
 90
        2
 90
       13
 90
        2
 90
      198
 90
        2
 90
      199
 90
        2
 90
       14
 90
        2
 90
       15
 90
        2
 90
       16
 90
        2
 90
      200
 90
        2
 90
      201
 90
        2
 90
      202
 90
        2
 90
      203
 90
        2
 90
      204
 90
        2
 90
      205
 90
        2
 90
      206
 90
       33
 90
      242
 90
      239
 90
      241
 90
       34
 90
      241
 90
       35
 90
      241
 90
       37
 90
      236
 90
      237
 90
      242
 90
      238
 90
      242
 90
      235
 90
      243
 90
       38
 90
      177
 90
      178
 90
      243
 90
      231
 90
      233
 90
      230
 90
      233
 90
      229
 90
      233
 90
       30
 90
      233
 90
      228
 90
      233
 90
       32
 90
      233
 90
       32
 90
      227
 90
        5
 90
      189
 90
      189
 90
      192
 90
       29
 90
      234
 90
       29
 90
      178
 90
      178
 90
      235
 90
        1
 90
      226
 90
        1
 90
       28
 90
        1
 90
      224
 90
        1
 90
      225
 90
        1
 90
       26
 90
        1
 90
      223
 90
        1
 90
       27
 90
        1
 90
      222
 90
        1
 90
      221
 90
        1
 90
      220
 90
        1
 90
      219
 90
        1
 90
       25
 90
        1
 90
       24
 90
        1
 90
      218
 90
        1
 90
      217
 90
        1
 90
      216
 90
        1
 90
       23
 90
        1
 90
       22
 90
        1
 90
       21
 90
        1
 90
      247
 95
      553
140
0.0
140
0.0
140
0.0
140
0.0
140
0.0
140
0.0
140
0.0
140
0.0
140
0.0
140
0.0
140
0.0
140
0.0
140
0.0
140
0.0
140
0.0
140
0.0
140
0.0
140
0.0
140
0.0
140
0.0
140
0.0
140
0.0
140
0.0
140
0.0
140
0.0
140
0.0
140
0.0
140
0.0
140
0.0
140
0.0
140
0.0
140
0.0
140
0.0
140
0.0
140
0.0
140
0.0
140
0.0
140
0.0
140
0.0
140
0.0
140
0.0
140
0.0
140
0.0
140
0.0
140
0.0
140
0.0
140
0.0
140
0.0
140
0.0
140
0.0
140
0.0
140
0.0
140
0.0
140
0.0
140
0.0
140
0.0
140
0.0
140
0.0
140
0.0
140
0.0
140
0.0
140
0.0
140
0.0
140
0.0
140
0.0
140
0.0
140
0.0
140
0.0
140
0.0
140
0.0
140
0.0
140
0.0
140
0.0
140
0.0
140
0.0
140
0.0
140
0.0
140
0.0
140
0.0
140
0.0
140
0.0
140
0.0
140
0.0
140
0.0
140
0.0
140
0.0
140
0.0
140
0.0
140
0.0
140
0.0
140
0.0
140
0.0
140
0.0
140
0.0
140
0.0
140
0.0
140
0.0
140
0.0
140
0.0
140
0.0
140
0.0
140
0.0
140
0.0
140
0.0
140
0.0
140
0.0
140
0.0
140
0.0
140
0.0
140
0.0
140
0.0
140
0.0
140
0.0
140
0.0
140
0.0
140
0.0
140
0.0
140
0.0
140
0.0
140
0.0
140
0.0
140
0.0
140
0.0
140
0.0
140
0.0
140
0.0
140
0.0
140
0.0
140
0.0
140
0.0
140
0.0
140
0.0
140
0.0
140
0.0
140
0.0
140
0.0
140
0.0
140
0.0
140
0.0
140
0.0
140
0.0
140
0.0
140
0.0
140
0.0
140
0.0
140
0.0
140
0.0
140
0.0
140
0.0
140
0.0
140
0.0
140
0.0
140
0.0
140
0.0
140
0.0
140
0.0
140
0.0
140
0.0
140
0.0
140
0.0
140
0.0
140
0.0
140
0.0
140
0.0
140
0.0
140
0.0
140
0.0
140
0.0
140
0.0
140
0.0
140
0.0
140
0.0
140
0.0
140
0.0
140
0.0
140
0.0
140
0.0
140
0.0
140
0.0
140
0.0
140
0.0
140
0.0
140
0.0
140
0.0
140
0.0
140
0.0
140
0.0
140
0.0
140
0.0
140
0.0
140
0.0
140
0.0
140
0.0
140
0.0
140
0.0
140
0.0
140
0.0
140
0.0
140
0.0
140
0.0
140
0.0
140
0.0
140
0.0
140
0.0
140
0.0
140
0.0
140
0.0
140
0.0
140
0.0
140
0.0
140
0.0
140
0.0
140
0.0
140
0.0
140
0.0
140
0.0
140
0.0
140
0.0
140
0.0
140
0.0
140
0.0
140
0.0
140
0.0
140
0.0
140
0.0
140
0.0
140
0.0
140
0.0
140
0.0
140
0.0
140
0.0
140
0.0
140
0.0
140
0.0
140
0.0
140
0.0
140
0.0
140
0.0
140
0.0
140
0.0
140
0.0
140
0.0
140
0.0
140
0.0
140
0.0
140
0.0
140
0.0
140
0.0
140
0.0
140
0.0
140
0.0
140
0.0
140
0.0
140
0.0
140
0.0
140
0.0
140
0.0
140
0.0
140
0.0
140
0.0
140
0.0
140
0.0
140
0.0
140
0.0
140
0.0
140
0.0
140
0.0
140
0.0
140
0.0
140
0.0
140
0.0
140
0.0
140
0.0
140
0.0
140
0.0
140
0.0
140
0.0
140
0.0
140
0.0
140
0.0
140
0.0
140
0.0
140
0.0
140
0.0
140
0.0
140
0.0
140
0.0
140
0.0
140
0.0
140
0.0
140
0.0
140
0.0
140
0.0
140
0.0
140
0.0
140
0.0
140
0.0
140
0.0
140
0.0
140
0.0
140
0.0
140
0.0
140
0.0
140
0.0
140
0.0
140
0.0
140
0.0
140
0.0
140
0.0
140
0.0
140
0.0
140
0.0
140
0.0
140
0.0
140
0.0
140
0.0
140
0.0
140
0.0
140
0.0
140
0.0
140
0.0
140
0.0
140
0.0
140
0.0
140
0.0
140
0.0
140
0.0
140
0.0
140
0.0
140
0.0
140
0.0
140
0.0
140
0.0
140
0.0
140
0.0
140
0.0
140
0.0
140
0.0
140
0.0
140
0.0
140
0.0
140
0.0
140
0.0
140
0.0
140
0.0
140
0.0
140
0.0
140
0.0
140
0.0
140
0.0
140
0.0
140
0.0
140
0.0
140
0.0
140
0.0
140
0.0
140
0.0
140
0.0
140
0.0
140
0.0
140
0.0
140
0.0
140
0.0
140
0.0
140
0.0
140
0.0
140
0.0
140
0.0
140
0.0
140
0.0
140
0.0
140
0.0
140
0.0
140
0.0
140
0.0
140
0.0
140
0.0
140
0.0
140
0.0
140
0.0
140
0.0
140
0.0
140
0.0
140
0.0
140
0.0
140
0.0
140
0.0
140
0.0
140
0.0
140
0.0
140
0.0
140
0.0
140
0.0
140
0.0
140
0.0
140
0.0
140
0.0
140
0.0
140
0.0
140
0.0
140
0.0
140
0.0
140
0.0
140
0.0
140
0.0
140
0.0
140
0.0
140
0.0
140
0.0
140
0.0
140
0.0
140
0.0
140
0.0
140
0.0
140
0.0
140
0.0
140
0.0
140
0.0
140
0.0
140
0.0
140
0.0
140
0.0
140
0.0
140
0.0
140
0.0
140
0.0
140
0.0
140
0.0
140
0.0
140
0.0
140
0.0
140
0.0
140
0.0
140
0.0
140
0.0
140
0.0
140
0.0
140
0.0
140
0.0
140
0.0
140
0.0
140
0.0
140
0.0
140
0.0
140
0.0
140
0.0
140
0.0
140
0.0
140
0.0
140
0.0
140
0.0
140
0.0
140
0.0
140
0.0
140
0.0
140
0.0
140
0.0
140
0.0
140
0.0
140
0.0
140
0.0
140
0.0
140
0.0
140
0.0
140
0.0
140
0.0
140
0.0
140
0.0
140
0.0
140
0.0
140
0.0
140
0.0
140
0.0
140
0.0
140
0.0
140
0.0
140
0.0
140
0.0
140
0.0
140
0.0
140
0.0
140
0.0
140
0.0
140
0.0
140
0.0
140
0.0
140
0.0
140
0.0
140
0.0
140
0.0
140
0.0
140
0.0
140
0.0
140
0.0
140
0.0
140
0.0
140
0.0
140
0.0
140
0.0
140
0.0
140
0.0
140
0.0
140
0.0
140
0.0
140
0.0
140
0.0
140
0.0
140
0.0
140
0.0
140
0.0
140
0.0
140
0.0
140
0.0
140
0.0
140
0.0
140
0.0
140
0.0
140
0.0
140
0.0
140
0.0
140
0.0
140
0.0
140
0.0
140
0.0
140
0.0
140
0.0
140
0.0
140
0.0
140
0.0
140
0.0
140
0.0
140
0.0
140
0.0
140
0.0
140
0.0
140
0.0
140
0.0
140
0.0
140
0.0
140
0.0
140
0.0
140
0.0
140
0.0
140
0.0
140
0.0
140
0.0
140
0.0
140
0.0
140
0.0
140
0.0
140
0.0
140
0.0
140
0.0
 90
        0
  0
POLYLINE
  5
FA
330
1F
100
AcDbEntity
  8
OracDecor_panel_moldings
 62
    21
420
 14915993
100
AcDb2dPolyline
 66
     1
 10
0.0
 20
0.0
 30
-0.0000091671463451
 70
     1
210
-0.9999999999999769
220
0.0000001788139343
230
-0.0000001192092896
  0
VERTEX
  5
FB
330
FA
100
AcDbEntity
  8
OracDecor_panel_moldings
 62
    21
420
 14915993
100
AcDbVertex
100
AcDb2dVertex
 10
0.0000391006469727
 20
88.72913360595703
 30
-0.0000091671463451
  0
VERTEX
  5
FC
330
FA
100
AcDbEntity
  8
OracDecor_panel_moldings
 62
    21
420
 14915993
100
AcDbVertex
100
AcDb2dVertex
 10
0.0000391006469727
 20
95.99996948242187
 30
-0.0000091671463451
  0
VERTEX
  5
FD
330
FA
100
AcDbEntity
  8
OracDecor_panel_moldings
 62
    21
420
 14915993
100
AcDbVertex
100
AcDb2dVertex
 10
-6.999961376190185
 20
95.81666564941405
 30
-0.0000091671463451
  0
VERTEX
  5
FE
330
FA
100
AcDbEntity
  8
OracDecor_panel_moldings
 62
    21
420
 14915993
100
AcDbVertex
100
AcDb2dVertex
 10
-7.085485935211181
 20
94.25534057617188
 30
-0.0000091671463451
  0
VERTEX
  5
FF
330
FA
100
AcDbEntity
  8
OracDecor_panel_moldings
 62
    21
420
 14915993
100
AcDbVertex
100
AcDb2dVertex
 10
-7.179950237274169
 20
93.14818572998047
 30
-0.0000091671463451
  0
VERTEX
  5
100
330
FA
100
AcDbEntity
  8
OracDecor_panel_moldings
 62
    21
420
 14915993
100
AcDbVertex
100
AcDb2dVertex
 10
-7.343706130981445
 20
92.00814819335937
 30
-0.0000091671463451
  0
VERTEX
  5
101
330
FA
100
AcDbEntity
  8
OracDecor_panel_moldings
 62
    21
420
 14915993
100
AcDbVertex
100
AcDb2dVertex
 10
-7.615070819854736
 20
90.95925903320312
 30
-0.0000091671463451
  0
VERTEX
  5
102
330
FA
100
AcDbEntity
  8
OracDecor_panel_moldings
 62
    21
420
 14915993
100
AcDbVertex
100
AcDb2dVertex
 10
-8.049544334411621
 20
90.06166076660155
 30
-0.0000091671463451
  0
VERTEX
  5
103
330
FA
100
AcDbEntity
  8
OracDecor_panel_moldings
 62
    21
420
 14915993
100
AcDbVertex
100
AcDb2dVertex
 10
-8.713428497314453
 20
89.35635375976563
 30
-0.0000091671463451
  0
VERTEX
  5
104
330
FA
100
AcDbEntity
  8
OracDecor_panel_moldings
 62
    21
420
 14915993
100
AcDbVertex
100
AcDb2dVertex
 10
-9.628262519836425
 20
88.82760620117187
 30
-0.0000091671463451
  0
VERTEX
  5
105
330
FA
100
AcDbEntity
  8
OracDecor_panel_moldings
 62
    21
420
 14915993
100
AcDbVertex
100
AcDb2dVertex
 10
-10.68483734130859
 20
88.45532989501952
 30
-0.0000091671463451
  0
VERTEX
  5
106
330
FA
100
AcDbEntity
  8
OracDecor_panel_moldings
 62
    21
420
 14915993
100
AcDbVertex
100
AcDb2dVertex
 10
-11.87649440765381
 20
88.17184448242187
 30
-0.0000091671463451
  0
VERTEX
  5
107
330
FA
100
AcDbEntity
  8
OracDecor_panel_moldings
 62
    21
420
 14915993
100
AcDbVertex
100
AcDb2dVertex
 10
-13.02390098571777
 20
87.96905517578125
 30
-0.0000091671463451
  0
VERTEX
  5
108
330
FA
100
AcDbEntity
  8
OracDecor_panel_moldings
 62
    21
420
 14915993
100
AcDbVertex
100
AcDb2dVertex
 10
-13.99996089935303
 20
87.81666564941406
 30
-0.0000091671463451
  0
VERTEX
  5
109
330
FA
100
AcDbEntity
  8
OracDecor_panel_moldings
 62
    21
420
 14915993
100
AcDbVertex
100
AcDb2dVertex
 10
-13.99995994567871
 20
84.81666564941406
 30
-0.0000091671463451
  0
VERTEX
  5
10A
330
FA
100
AcDbEntity
  8
OracDecor_panel_moldings
 62
    21
420
 14915993
100
AcDbVertex
100
AcDb2dVertex
 10
-17.49996185302734
 20
84.81666564941406
 30
-0.0000091671463451
  0
VERTEX
  5
10B
330
FA
100
AcDbEntity
  8
OracDecor_panel_moldings
 62
    21
420
 14915993
100
AcDbVertex
100
AcDb2dVertex
 10
-17.49996185302734
 20
77.56666564941406
 30
-0.0000091671463451
  0
VERTEX
  5
10C
330
FA
100
AcDbEntity
  8
OracDecor_panel_moldings
 62
    21
420
 14915993
100
AcDbVertex
100
AcDb2dVertex
 10
-16.22125244140625
 20
76.69195556640625
 30
-0.0000091671463451
  0
VERTEX
  5
10D
330
FA
100
AcDbEntity
  8
OracDecor_panel_moldings
 62
    21
420
 14915993
100
AcDbVertex
100
AcDb2dVertex
 10
-15.45932388305664
 20
76.08789825439453
 30
-0.0000091671463451
  0
VERTEX
  5
10E
330
FA
100
AcDbEntity
  8
OracDecor_panel_moldings
 62
    21
420
 14915993
100
AcDbVertex
100
AcDb2dVertex
 10
-14.67516899108886
 20
75.39436340332031
 30
-0.0000091671463451
  0
VERTEX
  5
10F
330
FA
100
AcDbEntity
  8
OracDecor_panel_moldings
 62
    21
420
 14915993
100
AcDbVertex
100
AcDb2dVertex
 10
-14.00431060791015
 20
74.71971893310547
 30
-0.0000091671463451
  0
VERTEX
  5
110
330
FA
100
AcDbEntity
  8
OracDecor_panel_moldings
 62
    21
420
 14915993
100
AcDbVertex
100
AcDb2dVertex
 10
-13.38220882415771
 20
73.97048950195312
 30
-0.0000091671463451
  0
VERTEX
  5
111
330
FA
100
AcDbEntity
  8
OracDecor_panel_moldings
 62
    21
420
 14915993
100
AcDbVertex
100
AcDb2dVertex
 10
-12.89630222320556
 20
73.19138336181641
 30
-0.0000091671463451
  0
VERTEX
  5
112
330
FA
100
AcDbEntity
  8
OracDecor_panel_moldings
 62
    21
420
 14915993
100
AcDbVertex
100
AcDb2dVertex
 10
-12.59449481964111
 20
72.42559051513672
 30
-0.0000091671463451
  0
VERTEX
  5
113
330
FA
100
AcDbEntity
  8
OracDecor_panel_moldings
 62
    21
420
 14915993
100
AcDbVertex
100
AcDb2dVertex
 10
-12.47986602783203
 20
71.61484527587891
 30
-0.0000091671463451
  0
VERTEX
  5
114
330
FA
100
AcDbEntity
  8
OracDecor_panel_moldings
 62
    21
420
 14915993
100
AcDbVertex
100
AcDb2dVertex
 10
-12.56951427459717
 20
70.7132568359375
 30
-0.0000091671463451
  0
VERTEX
  5
115
330
FA
100
AcDbEntity
  8
OracDecor_panel_moldings
 62
    21
420
 14915993
100
AcDbVertex
100
AcDb2dVertex
 10
-12.82925701141357
 20
69.81746673583984
 30
-0.0000091671463451
  0
VERTEX
  5
116
330
FA
100
AcDbEntity
  8
OracDecor_panel_moldings
 62
    21
420
 14915993
100
AcDbVertex
100
AcDb2dVertex
 10
-13.22699737548828
 20
68.89357757568359
 30
-0.0000091671463451
  0
VERTEX
  5
117
330
FA
100
AcDbEntity
  8
OracDecor_panel_moldings
 62
    21
420
 14915993
100
AcDbVertex
100
AcDb2dVertex
 10
-13.68301486968994
 20
68.03412628173828
 30
-0.0000091671463451
  0
VERTEX
  5
118
330
FA
100
AcDbEntity
  8
OracDecor_panel_moldings
 62
    21
420
 14915993
100
AcDbVertex
100
AcDb2dVertex
 10
-14.1945743560791
 20
67.16414642333984
 30
-0.0000091671463451
  0
VERTEX
  5
119
330
FA
100
AcDbEntity
  8
OracDecor_panel_moldings
 62
    21
420
 14915993
100
AcDbVertex
100
AcDb2dVertex
 10
-14.71394920349121
 20
66.30416870117187
 30
-0.0000091671463451
  0
VERTEX
  5
11A
330
FA
100
AcDbEntity
  8
OracDecor_panel_moldings
 62
    21
420
 14915993
100
AcDbVertex
100
AcDb2dVertex
 10
-15.22873973846435
 20
65.39672088623047
 30
-0.0000091671463451
  0
VERTEX
  5
11B
330
FA
100
AcDbEntity
  8
OracDecor_panel_moldings
 62
    21
420
 14915993
100
AcDbVertex
100
AcDb2dVertex
 10
-15.6763219833374
 20
64.46623992919922
 30
-0.0000091671463451
  0
VERTEX
  5
11C
330
FA
100
AcDbEntity
  8
OracDecor_panel_moldings
 62
    21
420
 14915993
100
AcDbVertex
100
AcDb2dVertex
 10
-16.02341079711914
 20
63.53785705566406
 30
-0.0000091671463451
  0
VERTEX
  5
11D
330
FA
100
AcDbEntity
  8
OracDecor_panel_moldings
 62
    21
420
 14915993
100
AcDbVertex
100
AcDb2dVertex
 10
-16.2900505065918
 20
62.53981018066406
 30
-0.0000091671463451
  0
VERTEX
  5
11E
330
FA
100
AcDbEntity
  8
OracDecor_panel_moldings
 62
    21
420
 14915993
100
AcDbVertex
100
AcDb2dVertex
 10
-16.45182418823242
 20
61.54205322265625
 30
-0.0000091671463451
  0
VERTEX
  5
11F
330
FA
100
AcDbEntity
  8
OracDecor_panel_moldings
 62
    21
420
 14915993
100
AcDbVertex
100
AcDb2dVertex
 10
-16.5079116821289
 20
60.49405670166016
 30
-0.0000091671463451
  0
VERTEX
  5
120
330
FA
100
AcDbEntity
  8
OracDecor_panel_moldings
 62
    21
420
 14915993
100
AcDbVertex
100
AcDb2dVertex
 10
-16.44240760803223
 20
59.47111511230469
 30
-0.0000091671463451
  0
VERTEX
  5
121
330
FA
100
AcDbEntity
  8
OracDecor_panel_moldings
 62
    21
420
 14915993
100
AcDbVertex
100
AcDb2dVertex
 10
-16.24008369445801
 20
58.46175765991211
 30
-0.0000091671463451
  0
VERTEX
  5
122
330
FA
100
AcDbEntity
  8
OracDecor_panel_moldings
 62
    21
420
 14915993
100
AcDbVertex
100
AcDb2dVertex
 10
-15.92353630065918
 20
57.5928726196289
 30
-0.0000091671463451
  0
VERTEX
  5
123
330
FA
100
AcDbEntity
  8
OracDecor_panel_moldings
 62
    21
420
 14915993
100
AcDbVertex
100
AcDb2dVertex
 10
-15.49716758728027
 20
56.83585357666015
 30
-0.0000091671463451
  0
VERTEX
  5
124
330
FA
100
AcDbEntity
  8
OracDecor_panel_moldings
 62
    21
420
 14915993
100
AcDbVertex
100
AcDb2dVertex
 10
-14.94082832336426
 20
56.14723587036133
 30
-0.0000091671463451
  0
VERTEX
  5
125
330
FA
100
AcDbEntity
  8
OracDecor_panel_moldings
 62
    21
420
 14915993
100
AcDbVertex
100
AcDb2dVertex
 10
-14.23678970336914
 20
55.5089111328125
 30
-0.0000091671463451
  0
VERTEX
  5
126
330
FA
100
AcDbEntity
  8
OracDecor_panel_moldings
 62
    21
420
 14915993
100
AcDbVertex
100
AcDb2dVertex
 10
-13.49995803833008
 20
54.99996948242188
 30
-0.0000091671463451
  0
VERTEX
  5
127
330
FA
100
AcDbEntity
  8
OracDecor_panel_moldings
 62
    21
420
 14915993
100
AcDbVertex
100
AcDb2dVertex
 10
-15.0154857635498
 20
54.48627090454102
 30
-0.0000091671463451
  0
VERTEX
  5
128
330
FA
100
AcDbEntity
  8
OracDecor_panel_moldings
 62
    21
420
 14915993
100
AcDbVertex
100
AcDb2dVertex
 10
-16.32284927368164
 20
53.96602249145508
 30
-0.0000091671463451
  0
VERTEX
  5
129
330
FA
100
AcDbEntity
  8
OracDecor_panel_moldings
 62
    21
420
 14915993
100
AcDbVertex
100
AcDb2dVertex
 10
-17.39284324645996
 20
53.41864013671875
 30
-0.0000091671463451
  0
VERTEX
  5
12A
330
FA
100
AcDbEntity
  8
OracDecor_panel_moldings
 62
    21
420
 14915993
100
AcDbVertex
100
AcDb2dVertex
 10
-18.27599906921387
 20
52.74740982055664
 30
-0.0000091671463451
  0
VERTEX
  5
12B
330
FA
100
AcDbEntity
  8
OracDecor_panel_moldings
 62
    21
420
 14915993
100
AcDbVertex
100
AcDb2dVertex
 10
-19.17449378967285
 20
51.83857727050781
 30
-0.0000091671463451
  0
VERTEX
  5
12C
330
FA
100
AcDbEntity
  8
OracDecor_panel_moldings
 62
    21
420
 14915993
100
AcDbVertex
100
AcDb2dVertex
 10
-19.66802978515625
 20
51.09935760498046
 30
-0.0000091671463451
  0
VERTEX
  5
12D
330
FA
100
AcDbEntity
  8
OracDecor_panel_moldings
 62
    21
420
 14915993
100
AcDbVertex
100
AcDb2dVertex
 10
-20.03960990905762
 20
50.29124450683593
 30
-0.0000091671463451
  0
VERTEX
  5
12E
330
FA
100
AcDbEntity
  8
OracDecor_panel_moldings
 62
    21
420
 14915993
100
AcDbVertex
100
AcDb2dVertex
 10
-20.29132270812988
 20
49.43693161010742
 30
-0.0000091671463451
  0
VERTEX
  5
12F
330
FA
100
AcDbEntity
  8
OracDecor_panel_moldings
 62
    21
420
 14915993
100
AcDbVertex
100
AcDb2dVertex
 10
-20.43620681762695
 20
48.42401885986328
 30
-0.0000091671463451
  0
VERTEX
  5
130
330
FA
100
AcDbEntity
  8
OracDecor_panel_moldings
 62
    21
420
 14915993
100
AcDbVertex
100
AcDb2dVertex
 10
-20.43408584594727
 20
47.53339767456054
 30
-0.0000091671463451
  0
VERTEX
  5
131
330
FA
100
AcDbEntity
  8
OracDecor_panel_moldings
 62
    21
420
 14915993
100
AcDbVertex
100
AcDb2dVertex
 10
-20.28764152526855
 20
46.54320526123046
 30
-0.0000091671463451
  0
VERTEX
  5
132
330
FA
100
AcDbEntity
  8
OracDecor_panel_moldings
 62
    21
420
 14915993
100
AcDbVertex
100
AcDb2dVertex
 10
-20.03353118896484
 20
45.68932723999023
 30
-0.0000091671463451
  0
VERTEX
  5
133
330
FA
100
AcDbEntity
  8
OracDecor_panel_moldings
 62
    21
420
 14915993
100
AcDbVertex
100
AcDb2dVertex
 10
-19.67449188232422
 20
44.90989303588867
 30
-0.0000091671463451
  0
VERTEX
  5
134
330
FA
100
AcDbEntity
  8
OracDecor_panel_moldings
 62
    21
420
 14915993
100
AcDbVertex
100
AcDb2dVertex
 10
-19.18179893493652
 20
44.16976547241211
 30
-0.0000091671463451
  0
VERTEX
  5
135
330
FA
100
AcDbEntity
  8
OracDecor_panel_moldings
 62
    21
420
 14915993
100
AcDbVertex
100
AcDb2dVertex
 10
-18.27570533752441
 20
43.18335723876953
 30
-0.0000091671463451
  0
VERTEX
  5
136
330
FA
100
AcDbEntity
  8
OracDecor_panel_moldings
 62
    21
420
 14915993
100
AcDbVertex
100
AcDb2dVertex
 10
-17.41707801818847
 20
42.59561538696289
 30
-0.0000091671463451
  0
VERTEX
  5
137
330
FA
100
AcDbEntity
  8
OracDecor_panel_moldings
 62
    21
420
 14915993
100
AcDbVertex
100
AcDb2dVertex
 10
-16.34462547302246
 20
42.043701171875
 30
-0.0000091671463451
  0
VERTEX
  5
138
330
FA
100
AcDbEntity
  8
OracDecor_panel_moldings
 62
    21
420
 14915993
100
AcDbVertex
100
AcDb2dVertex
 10
-15.02886390686035
 20
41.51849365234375
 30
-0.0000091671463451
  0
VERTEX
  5
139
330
FA
100
AcDbEntity
  8
OracDecor_panel_moldings
 62
    21
420
 14915993
100
AcDbVertex
100
AcDb2dVertex
 10
-13.49995899200439
 20
40.99996948242187
 30
-0.0000091671463451
  0
VERTEX
  5
13A
330
FA
100
AcDbEntity
  8
OracDecor_panel_moldings
 62
    21
420
 14915993
100
AcDbVertex
100
AcDb2dVertex
 10
-14.71290588378906
 20
40.08132171630859
 30
-0.0000091671463451
  0
VERTEX
  5
13B
330
FA
100
AcDbEntity
  8
OracDecor_panel_moldings
 62
    21
420
 14915993
100
AcDbVertex
100
AcDb2dVertex
 10
-15.34640502929687
 20
39.37277984619141
 30
-0.0000091671463451
  0
VERTEX
  5
13C
330
FA
100
AcDbEntity
  8
OracDecor_panel_moldings
 62
    21
420
 14915993
100
AcDbVertex
100
AcDb2dVertex
 10
-15.84138488769531
 20
38.57596588134766
 30
-0.0000091671463451
  0
VERTEX
  5
13D
330
FA
100
AcDbEntity
  8
OracDecor_panel_moldings
 62
    21
420
 14915993
100
AcDbVertex
100
AcDb2dVertex
 10
-16.20331382751465
 20
37.66260528564453
 30
-0.0000091671463451
  0
VERTEX
  5
13E
330
FA
100
AcDbEntity
  8
OracDecor_panel_moldings
 62
    21
420
 14915993
100
AcDbVertex
100
AcDb2dVertex
 10
-16.41845321655273
 20
36.70357513427735
 30
-0.0000091671463451
  0
VERTEX
  5
13F
330
FA
100
AcDbEntity
  8
OracDecor_panel_moldings
 62
    21
420
 14915993
100
AcDbVertex
100
AcDb2dVertex
 10
-16.50602722167969
 20
35.67472839355469
 30
-0.0000091671463451
  0
VERTEX
  5
140
330
FA
100
AcDbEntity
  8
OracDecor_panel_moldings
 62
    21
420
 14915993
100
AcDbVertex
100
AcDb2dVertex
 10
-16.47203063964844
 20
34.66440582275391
 30
-0.0000091671463451
  0
VERTEX
  5
141
330
FA
100
AcDbEntity
  8
OracDecor_panel_moldings
 62
    21
420
 14915993
100
AcDbVertex
100
AcDb2dVertex
 10
-16.32431411743164
 20
33.62650299072266
 30
-0.0000091671463451
  0
VERTEX
  5
142
330
FA
100
AcDbEntity
  8
OracDecor_panel_moldings
 62
    21
420
 14915993
100
AcDbVertex
100
AcDb2dVertex
 10
-16.08108901977539
 20
32.64810943603516
 30
-0.0000091671463451
  0
VERTEX
  5
143
330
FA
100
AcDbEntity
  8
OracDecor_panel_moldings
 62
    21
420
 14915993
100
AcDbVertex
100
AcDb2dVertex
 10
-15.74048805236816
 20
31.68701934814453
 30
-0.0000091671463451
  0
VERTEX
  5
144
330
FA
100
AcDbEntity
  8
OracDecor_panel_moldings
 62
    21
420
 14915993
100
AcDbVertex
100
AcDb2dVertex
 10
-15.34041404724121
 20
30.8160400390625
 30
-0.0000091671463451
  0
VERTEX
  5
145
330
FA
100
AcDbEntity
  8
OracDecor_panel_moldings
 62
    21
420
 14915993
100
AcDbVertex
100
AcDb2dVertex
 10
-14.89056968688965
 20
29.99551391601563
 30
-0.0000091671463451
  0
VERTEX
  5
146
330
FA
100
AcDbEntity
  8
OracDecor_panel_moldings
 62
    21
420
 14915993
100
AcDbVertex
100
AcDb2dVertex
 10
-14.38153648376465
 20
29.14439010620117
 30
-0.0000091671463451
  0
VERTEX
  5
147
330
FA
100
AcDbEntity
  8
OracDecor_panel_moldings
 62
    21
420
 14915993
100
AcDbVertex
100
AcDb2dVertex
 10
-13.84250545501709
 20
28.24386596679687
 30
-0.0000091671463451
  0
VERTEX
  5
148
330
FA
100
AcDbEntity
  8
OracDecor_panel_moldings
 62
    21
420
 14915993
100
AcDbVertex
100
AcDb2dVertex
 10
-13.34549808502197
 20
27.34097290039063
 30
-0.0000091671463451
  0
VERTEX
  5
149
330
FA
100
AcDbEntity
  8
OracDecor_panel_moldings
 62
    21
420
 14915993
100
AcDbVertex
100
AcDb2dVertex
 10
-12.92835903167725
 20
26.44132995605469
 30
-0.0000091671463451
  0
VERTEX
  5
14A
330
FA
100
AcDbEntity
  8
OracDecor_panel_moldings
 62
    21
420
 14915993
100
AcDbVertex
100
AcDb2dVertex
 10
-12.63593196868896
 20
25.57493400573731
 30
-0.0000091671463451
  0
VERTEX
  5
14B
330
FA
100
AcDbEntity
  8
OracDecor_panel_moldings
 62
    21
420
 14915993
100
AcDbVertex
100
AcDb2dVertex
 10
-12.49059391021728
 20
24.7279052734375
 30
-0.0000091671463451
  0
VERTEX
  5
14C
330
FA
100
AcDbEntity
  8
OracDecor_panel_moldings
 62
    21
420
 14915993
100
AcDbVertex
100
AcDb2dVertex
 10
-12.53681468963623
 20
23.83246994018555
 30
-0.0000091671463451
  0
VERTEX
  5
14D
330
FA
100
AcDbEntity
  8
OracDecor_panel_moldings
 62
    21
420
 14915993
100
AcDbVertex
100
AcDb2dVertex
 10
-12.8159008026123
 20
22.97721099853516
 30
-0.0000091671463451
  0
VERTEX
  5
14E
330
FA
100
AcDbEntity
  8
OracDecor_panel_moldings
 62
    21
420
 14915993
100
AcDbVertex
100
AcDb2dVertex
 10
-13.29152297973633
 20
22.15786743164063
 30
-0.0000091671463451
  0
VERTEX
  5
14F
330
FA
100
AcDbEntity
  8
OracDecor_panel_moldings
 62
    21
420
 14915993
100
AcDbVertex
100
AcDb2dVertex
 10
-13.93175983428955
 20
21.35942649841309
 30
-0.0000091671463451
  0
VERTEX
  5
150
330
FA
100
AcDbEntity
  8
OracDecor_panel_moldings
 62
    21
420
 14915993
100
AcDbVertex
100
AcDb2dVertex
 10
-14.63145923614502
 20
20.6474494934082
 30
-0.0000091671463451
  0
VERTEX
  5
151
330
FA
100
AcDbEntity
  8
OracDecor_panel_moldings
 62
    21
420
 14915993
100
AcDbVertex
100
AcDb2dVertex
 10
-15.45882892608642
 20
19.91217803955078
 30
-0.0000091671463451
  0
VERTEX
  5
152
330
FA
100
AcDbEntity
  8
OracDecor_panel_moldings
 62
    21
420
 14915993
100
AcDbVertex
100
AcDb2dVertex
 10
-16.20934104919433
 20
19.31695747375488
 30
-0.0000091671463451
  0
VERTEX
  5
153
330
FA
100
AcDbEntity
  8
OracDecor_panel_moldings
 62
    21
420
 14915993
100
AcDbVertex
100
AcDb2dVertex
 10
-17.49995613098144
 20
18.43327140808105
 30
-0.0000091671463451
  0
VERTEX
  5
154
330
FA
100
AcDbEntity
  8
OracDecor_panel_moldings
 62
    21
420
 14915993
100
AcDbVertex
100
AcDb2dVertex
 10
-17.49995613098144
 20
11.18327236175537
 30
-0.0000091671463451
  0
VERTEX
  5
155
330
FA
100
AcDbEntity
  8
OracDecor_panel_moldings
 62
    21
420
 14915993
100
AcDbVertex
100
AcDb2dVertex
 10
-13.99995803833008
 20
11.18327236175537
 30
-0.0000091671463451
  0
VERTEX
  5
156
330
FA
100
AcDbEntity
  8
OracDecor_panel_moldings
 62
    21
420
 14915993
100
AcDbVertex
100
AcDb2dVertex
 10
-13.99995613098144
 20
8.183268547058105
 30
-0.0000091671463451
  0
VERTEX
  5
157
330
FA
100
AcDbEntity
  8
OracDecor_panel_moldings
 62
    21
420
 14915993
100
AcDbVertex
100
AcDb2dVertex
 10
-12.90460586547851
 20
8.011538505554199
 30
-0.0000091671463451
  0
VERTEX
  5
158
330
FA
100
AcDbEntity
  8
OracDecor_panel_moldings
 62
    21
420
 14915993
100
AcDbVertex
100
AcDb2dVertex
 10
-11.7994909286499
 20
7.812655925750732
 30
-0.0000091671463451
  0
VERTEX
  5
159
330
FA
100
AcDbEntity
  8
OracDecor_panel_moldings
 62
    21
420
 14915993
100
AcDbVertex
100
AcDb2dVertex
 10
-10.65034675598144
 20
7.535384654998779
 30
-0.0000091671463451
  0
VERTEX
  5
15A
330
FA
100
AcDbEntity
  8
OracDecor_panel_moldings
 62
    21
420
 14915993
100
AcDbVertex
100
AcDb2dVertex
 10
-9.634904861450195
 20
7.175490856170654
 30
-0.0000091671463451
  0
VERTEX
  5
15B
330
FA
100
AcDbEntity
  8
OracDecor_panel_moldings
 62
    21
420
 14915993
100
AcDbVertex
100
AcDb2dVertex
 10
-8.735260963439941
 20
6.659789562225341
 30
-0.0000091671463451
  0
VERTEX
  5
15C
330
FA
100
AcDbEntity
  8
OracDecor_panel_moldings
 62
    21
420
 14915993
100
AcDbVertex
100
AcDb2dVertex
 10
-8.052933692932128
 20
5.942405223846435
 30
-0.0000091671463451
  0
VERTEX
  5
15D
330
FA
100
AcDbEntity
  8
OracDecor_panel_moldings
 62
    21
420
 14915993
100
AcDbVertex
100
AcDb2dVertex
 10
-7.607173442840576
 20
5.015532970428466
 30
-0.0000091671463451
  0
VERTEX
  5
15E
330
FA
100
AcDbEntity
  8
OracDecor_panel_moldings
 62
    21
420
 14915993
100
AcDbVertex
100
AcDb2dVertex
 10
-7.337683200836181
 20
3.957778453826904
 30
-0.0000091671463451
  0
VERTEX
  5
15F
330
FA
100
AcDbEntity
  8
OracDecor_panel_moldings
 62
    21
420
 14915993
100
AcDbVertex
100
AcDb2dVertex
 10
-7.173272132873535
 20
2.790351390838623
 30
-0.0000091671463451
  0
VERTEX
  5
160
330
FA
100
AcDbEntity
  8
OracDecor_panel_moldings
 62
    21
420
 14915993
100
AcDbVertex
100
AcDb2dVertex
 10
-7.083631515502929
 20
1.716887950897216
 30
-0.0000091671463451
  0
VERTEX
  5
161
330
FA
100
AcDbEntity
  8
OracDecor_panel_moldings
 62
    21
420
 14915993
100
AcDbVertex
100
AcDb2dVertex
 10
-6.999956607818603
 20
0.1832690834999084
 30
-0.0000091671463451
  0
VERTEX
  5
162
330
FA
100
AcDbEntity
  8
OracDecor_panel_moldings
 62
    21
420
 14915993
100
AcDbVertex
100
AcDb2dVertex
 10
0.0000438690185547
 20
-0.000030517576306
 30
-0.0000091671463451
  0
VERTEX
  5
163
330
FA
100
AcDbEntity
  8
OracDecor_panel_moldings
 62
    21
420
 14915993
100
AcDbVertex
100
AcDb2dVertex
 10
0.0000429153442383
 20
7.270805358886718
 30
-0.0000091671463451
  0
VERTEX
  5
164
330
FA
100
AcDbEntity
  8
OracDecor_panel_moldings
 62
    21
420
 14915993
100
AcDbVertex
100
AcDb2dVertex
 10
-0.6749095916748047
 20
7.636344909667968
 30
-0.0000091671463451
  0
VERTEX
  5
165
330
FA
100
AcDbEntity
  8
OracDecor_panel_moldings
 62
    21
420
 14915993
100
AcDbVertex
100
AcDb2dVertex
 10
-1.136234283447265
 20
8.249931335449218
 30
-0.0000091671463451
  0
VERTEX
  5
166
330
FA
100
AcDbEntity
  8
OracDecor_panel_moldings
 62
    21
420
 14915993
100
AcDbVertex
100
AcDb2dVertex
 10
-1.299943923950195
 20
8.999969482421875
 30
-0.0000091671463451
  0
VERTEX
  5
167
330
FA
100
AcDbEntity
  8
OracDecor_panel_moldings
 62
    21
420
 14915993
100
AcDbVertex
100
AcDb2dVertex
 10
-1.136233329772949
 20
9.750007629394531
 30
-0.0000091671463451
  0
VERTEX
  5
168
330
FA
100
AcDbEntity
  8
OracDecor_panel_moldings
 62
    21
420
 14915993
100
AcDbVertex
100
AcDb2dVertex
 10
-0.6749105453491211
 20
10.36359405517578
 30
-0.0000091671463451
  0
VERTEX
  5
169
330
FA
100
AcDbEntity
  8
OracDecor_panel_moldings
 62
    21
420
 14915993
100
AcDbVertex
100
AcDb2dVertex
 10
0.0000429153442383
 20
10.72913360595703
 30
-0.0000091671463451
  0
VERTEX
  5
16A
330
FA
100
AcDbEntity
  8
OracDecor_panel_moldings
 62
    21
420
 14915993
100
AcDbVertex
100
AcDb2dVertex
 10
0.0000438690185547
 20
19.99996948242187
 30
-0.0000091671463451
  0
VERTEX
  5
16B
330
FA
100
AcDbEntity
  8
OracDecor_panel_moldings
 62
    21
420
 14915993
100
AcDbVertex
100
AcDb2dVertex
 10
-3.621277809143066
 20
23.62129020690918
 30
-0.0000091671463451
  0
VERTEX
  5
16C
330
FA
100
AcDbEntity
  8
OracDecor_panel_moldings
 62
    21
420
 14915993
100
AcDbVertex
100
AcDb2dVertex
 10
-4.27158498764038
 20
24.59456443786621
 30
-0.0000091671463451
  0
VERTEX
  5
16D
330
FA
100
AcDbEntity
  8
OracDecor_panel_moldings
 62
    21
420
 14915993
100
AcDbVertex
100
AcDb2dVertex
 10
-4.499957561492919
 20
25.74261093139649
 30
-0.0000091671463451
  0
VERTEX
  5
16E
330
FA
100
AcDbEntity
  8
OracDecor_panel_moldings
 62
    21
420
 14915993
100
AcDbVertex
100
AcDb2dVertex
 10
-4.49995994567871
 20
70.25733184814453
 30
-0.0000091671463451
  0
VERTEX
  5
16F
330
FA
100
AcDbEntity
  8
OracDecor_panel_moldings
 62
    21
420
 14915993
100
AcDbVertex
100
AcDb2dVertex
 10
-4.27158784866333
 20
71.4053726196289
 30
-0.0000091671463451
  0
VERTEX
  5
170
330
FA
100
AcDbEntity
  8
OracDecor_panel_moldings
 62
    21
420
 14915993
100
AcDbVertex
100
AcDb2dVertex
 10
-3.621279716491699
 20
72.37864685058593
 30
-0.0000091671463451
  0
VERTEX
  5
171
330
FA
100
AcDbEntity
  8
OracDecor_panel_moldings
 62
    21
420
 14915993
100
AcDbVertex
100
AcDb2dVertex
 10
0.0000400543212891
 20
75.99996948242187
 30
-0.0000091671463451
  0
VERTEX
  5
172
330
FA
100
AcDbEntity
  8
OracDecor_panel_moldings
 62
    21
420
 14915993
100
AcDbVertex
100
AcDb2dVertex
 10
0.0000410079956055
 20
85.27080535888671
 30
-0.0000091671463451
  0
VERTEX
  5
173
330
FA
100
AcDbEntity
  8
OracDecor_panel_moldings
 62
    21
420
 14915993
100
AcDbVertex
100
AcDb2dVertex
 10
-0.6749134063720704
 20
85.63634490966796
 30
-0.0000091671463451
  0
VERTEX
  5
174
330
FA
100
AcDbEntity
  8
OracDecor_panel_moldings
 62
    21
420
 14915993
100
AcDbVertex
100
AcDb2dVertex
 10
-1.136237144470214
 20
86.24993133544922
 30
-0.0000091671463451
  0
VERTEX
  5
175
330
FA
100
AcDbEntity
  8
OracDecor_panel_moldings
 62
    21
420
 14915993
100
AcDbVertex
100
AcDb2dVertex
 10
-1.299946784973144
 20
86.99996948242187
 30
-0.0000091671463451
  0
VERTEX
  5
176
330
FA
100
AcDbEntity
  8
OracDecor_panel_moldings
 62
    21
420
 14915993
100
AcDbVertex
100
AcDb2dVertex
 10
-1.136237144470214
 20
87.75000762939454
 30
-0.0000091671463451
  0
VERTEX
  5
177
330
FA
100
AcDbEntity
  8
OracDecor_panel_moldings
 62
    21
420
 14915993
100
AcDbVertex
100
AcDb2dVertex
 10
-0.6749153137207032
 20
88.36359405517578
 30
-0.0000091671463451
  0
SEQEND
  5
178
330
FA
100
AcDbEntity
  8
OracDecor_panel_moldings
 62
    21
420
 14915993
  0
ENDSEC
  0
SECTION
  2
OBJECTS
  0
DICTIONARY
  5
C
330
0
100
AcDbDictionary
281
     1
  3
ACAD_COLOR
350
DC
  3
ACAD_DETAILVIEWSTYLE
350
F5
  3
ACAD_GROUP
350
D
  3
ACAD_LAYOUT
350
1A
  3
ACAD_MATERIAL
350
AA
  3
ACAD_MLEADERSTYLE
350
F1
  3
ACAD_MLINESTYLE
350
17
  3
ACAD_PLOTSETTINGS
350
19
  3
ACAD_PLOTSTYLENAME
350
E
  3
ACAD_SCALELIST
350
DF
  3
ACAD_SECTIONVIEWSTYLE
350
F3
  3
ACAD_TABLESTYLE
350
DD
  3
ACAD_VISUALSTYLE
350
C3
  3
ACDB_RECOMPOSE_DATA
350
185
  3
AcDbVariableDictionary
350
179
  0
DICTIONARY
  5
DC
102
{ACAD_REACTORS
330
C
102
}
330
C
100
AcDbDictionary
281
     1
  0
DICTIONARY
  5
F5
102
{ACAD_REACTORS
330
C
102
}
330
C
100
AcDbDictionary
281
     1
  3
Imperial24
350
F6
  0
DICTIONARY
  5
D
102
{ACAD_REACTORS
330
C
102
}
330
C
100
AcDbDictionary
281
     1
  0
DICTIONARY
  5
1A
102
{ACAD_REACTORS
330
C
102
}
330
C
100
AcDbDictionary
281
     1
  3
Layout1
350
1E
  3
Layout2
350
26
  3
Model
350
22
  0
DICTIONARY
  5
AA
102
{ACAD_REACTORS
330
C
102
}
330
C
100
AcDbDictionary
281
     1
  3
ByBlock
350
B3
  3
ByLayer
350
AB
  3
Global
350
BB
  0
DICTIONARY
  5
F1
102
{ACAD_REACTORS
330
C
102
}
330
C
100
AcDbDictionary
281
     1
  3
Standard
350
F2
  0
DICTIONARY
  5
17
102
{ACAD_REACTORS
330
C
102
}
330
C
100
AcDbDictionary
281
     1
  3
Standard
350
18
  0
DICTIONARY
  5
19
102
{ACAD_REACTORS
330
C
102
}
330
C
100
AcDbDictionary
281
     1
  0
ACDBDICTIONARYWDFLT
  5
E
102
{ACAD_REACTORS
330
C
102
}
330
C
100
AcDbDictionary
281
     1
  3
ByLayer
350
2D
  3
Normal
350
F
100
AcDbDictionaryWithDefault
340
F
  0
DICTIONARY
  5
DF
102
{ACAD_REACTORS
330
C
102
}
330
C
100
AcDbDictionary
281
     1
  3
A0
350
E0
  3
A1
350
E1
  3
A2
350
E2
  3
A3
350
E3
  3
A4
350
E4
  3
A5
350
E5
  3
A6
350
E6
  3
A7
350
E7
  3
A8
350
E8
  3
A9
350
E9
  3
B0
350
EA
  3
B1
350
EB
  3
B2
350
EC
  3
B3
350
ED
  3
B4
350
EE
  3
B5
350
EF
  3
B6
350
F0
  0
DICTIONARY
  5
F3
102
{ACAD_REACTORS
330
C
102
}
330
C
100
AcDbDictionary
281
     1
  3
Imperial24
350
F4
  0
DICTIONARY
  5
DD
102
{ACAD_REACTORS
330
C
102
}
330
C
100
AcDbDictionary
281
     1
  3
Standard
350
DE
  0
DICTIONARY
  5
C3
102
{ACAD_REACTORS
330
C
102
}
330
C
100
AcDbDictionary
281
     1
  3
2dWireframe
350
C9
  3
Basic
350
C8
  3
Brighten
350
CF
  3
ColorChange
350
D3
  3
Conceptual
350
CC
  3
Dim
350
CE
  3
EdgeColorOff
350
DB
  3
Facepattern
350
D2
  3
Flat
350
C4
  3
FlatWithEdges
350
C5
  3
Gouraud
350
C6
  3
GouraudWithEdges
350
C7
  3
Hidden
350
CB
  3
JitterOff
350
D9
  3
Linepattern
350
D1
  3
OverhangOff
350
DA
  3
Realistic
350
CD
  3
Shaded
350
D8
  3
Shaded with edges
350
D7
  3
Shades of Gray
350
D4
  3
Sketchy
350
D5
  3
Thicken
350
D0
  3
Wireframe
350
CA
  3
X-Ray
350
D6
  0
XRECORD
  5
185
102
{ACAD_REACTORS
330
C
102
}
330
C
100
AcDbXrecord
280
     1
 90
        1
330
DE
  0
DICTIONARY
  5
179
102
{ACAD_REACTORS
330
C
102
}
330
C
100
AcDbDictionary
281
     1
  3
CANNOSCALE
350
17F
  3
CMLEADERSTYLE
350
17B
  3
CTABLESTYLE
350
17A
  3
CVIEWDETAILSTYLE
350
17C
  3
CVIEWSECTIONSTYLE
350
17D
  3
LAYEREVAL
350
181
  3
LAYERNOTIFY
350
182
  3
LIGHTINGUNITS
350
180
  3
MSLTSCALE
350
17E
  0
ACDBDETAILVIEWSTYLE
  5
F6
102
{ACAD_XDICTIONARY
360
1BA
102
}
102
{ACAD_REACTORS
330
F5
102
}
330
F5
100
AcDbModelDocViewStyle
 70
     0
  3
Imperial24
290
     0
100
AcDbDetailViewStyle
 70
     0
 71
     0
 90
        3
 71
     1
340
11
 62
   256
 40
0.24
340
0
 62
   256
 40
0.24
300

 40
0.36
280
     3
 71
     2
340
16
 90
       25
 62
   256
 71
     3
340
11
 62
   256
 40
0.24
 90
        1
 40
0.75
 90
        1
300
%<\AcVar ViewType \f "%tc1">% %<\AcVar ViewDetailId>%\PSCALE %<\AcVar ViewScale \f "%sn">%
 71
     4
340
16
 90
       25
 62
   256
340
16
 90
       25
 62
   256
280
     0
  0
LAYOUT
  5
1E
102
{ACAD_REACTORS
330
1A
102
}
330
1A
100
AcDbPlotSettings
  1

  2
\\KTXNTBDC\CASF2PN1
  4

  6

 40
0.0
 41
0.0
 42
0.0
 43
0.0
 44
0.0
 45
0.0
 46
0.0
 47
0.0
 48
0.0
 49
0.0
140
0.0
141
0.0
142
1.0
143
1.0
 70
   688
 72
     0
 73
     0
 74
     5
  7

 75
    16
147
1.0
 76
     0
 77
     2
 78
   300
148
0.0
149
0.0
100
AcDbLayout
  1
Layout1
 70
     1
 71
     1
 10
0.0
 20
0.0
 11
12.0
 21
9.0
 12
0.0
 22
0.0
 32
0.0
 14
1.000000000000000E+20
 24
1.000000000000000E+20
 34
1.000000000000000E+20
 15
-1.000000000000000E+20
 25
-1.000000000000000E+20
 35
-1.000000000000000E+20
146
0.0
 13
0.0
 23
0.0
 33
0.0
 16
1.0
 26
0.0
 36
0.0
 17
0.0
 27
1.0
 37
0.0
 76
     0
330
1B
  0
LAYOUT
  5
26
102
{ACAD_REACTORS
330
1A
102
}
330
1A
100
AcDbPlotSettings
  1

  2
\\KTXNTBDC\CASF2PN1
  4

  6

 40
0.0
 41
0.0
 42
0.0
 43
0.0
 44
0.0
 45
0.0
 46
0.0
 47
0.0
 48
0.0
 49
0.0
140
0.0
141
0.0
142
1.0
143
1.0
 70
   688
 72
     0
 73
     0
 74
     5
  7

 75
    16
147
1.0
 76
     0
 77
     2
 78
   300
148
0.0
149
0.0
100
AcDbLayout
  1
Layout2
 70
     1
 71
     2
 10
0.0
 20
0.0
 11
12.0
 21
9.0
 12
0.0
 22
0.0
 32
0.0
 14
0.0
 24
0.0
 34
0.0
 15
0.0
 25
0.0
 35
0.0
146
0.0
 13
0.0
 23
0.0
 33
0.0
 16
1.0
 26
0.0
 36
0.0
 17
0.0
 27
1.0
 37
0.0
 76
     0
330
23
  0
LAYOUT
  5
22
102
{ACAD_REACTORS
330
1A
102
}
330
1A
100
AcDbPlotSettings
  1

  2
\\KTXNTBDC\CASF2PN1
  4

  6

 40
0.0
 41
0.0
 42
0.0
 43
0.0
 44
0.0
 45
0.0
 46
0.0
 47
0.0
 48
0.0
 49
0.0
140
0.0
141
0.0
142
1.0
143
1.0
 70
  1712
 72
     0
 73
     0
 74
     0
  7

 75
     0
147
1.0
 76
     0
 77
     2
 78
   300
148
0.0
149
0.0
100
AcDbLayout
  1
Model
 70
     1
 71
     0
 10
0.0
 20
0.0
 11
12.0
 21
9.0
 12
0.0
 22
0.0
 32
0.0
 14
0.0
 24
0.0
 34
0.0
 15
0.0
 25
0.0
 35
0.0
146
0.0
 13
0.0
 23
0.0
 33
0.0
 16
1.0
 26
0.0
 36
0.0
 17
0.0
 27
1.0
 37
0.0
 76
     0
330
1F
  0
MATERIAL
  5
B3
102
{ACAD_XDICTIONARY
360
B4
102
}
102
{ACAD_REACTORS
330
AA
102
}
330
AA
100
AcDbMaterial
  1
ByBlock
 72
     0
 43
0.0208333333333333
 43
0.0
 43
0.0
 43
0.0
 43
0.0
 43
0.0208333333333333
 43
0.0
 43
0.0
 43
0.0
 43
0.0
 43
1.0
 43
0.0
 43
0.0
 43
0.0
 43
0.0
 43
1.0
 77
     0
 47
0.0208333333333333
 47
0.0
 47
0.0
 47
0.0
 47
0.0
 47
0.0208333333333333
 47
0.0
 47
0.0
 47
0.0
 47
0.0
 47
1.0
 47
0.0
 47
0.0
 47
0.0
 47
0.0
 47
1.0
171
     0
 49
0.0208333333333333
 49
0.0
 49
0.0
 49
0.0
 49
0.0
 49
0.0208333333333333
 49
0.0
 49
0.0
 49
0.0
 49
0.0
 49
1.0
 49
0.0
 49
0.0
 49
0.0
 49
0.0
 49
1.0
175
     0
142
0.0208333333333333
142
0.0
142
0.0
142
0.0
142
0.0
142
0.0208333333333333
142
0.0
142
0.0
142
0.0
142
0.0
142
1.0
142
0.0
142
0.0
142
0.0
142
0.0
142
1.0
179
     0
144
0.0208333333333333
144
0.0
144
0.0
144
0.0
144
0.0
144
0.0208333333333333
144
0.0
144
0.0
144
0.0
144
0.0
144
1.0
144
0.0
144
0.0
144
0.0
144
0.0
144
1.0
147
0.0208333333333333
147
0.0
147
0.0
147
0.0
147
0.0
147
0.0208333333333333
147
0.0
147
0.0
147
0.0
147
0.0
147
1.0
147
0.0
147
0.0
147
0.0
147
0.0
147
1.0
  0
MATERIAL
  5
AB
102
{ACAD_XDICTIONARY
360
AC
102
}
102
{ACAD_REACTORS
330
AA
102
}
330
AA
100
AcDbMaterial
  1
ByLayer
 72
     0
 43
0.0208333333333333
 43
0.0
 43
0.0
 43
0.0
 43
0.0
 43
0.0208333333333333
 43
0.0
 43
0.0
 43
0.0
 43
0.0
 43
1.0
 43
0.0
 43
0.0
 43
0.0
 43
0.0
 43
1.0
 77
     0
 47
0.0208333333333333
 47
0.0
 47
0.0
 47
0.0
 47
0.0
 47
0.0208333333333333
 47
0.0
 47
0.0
 47
0.0
 47
0.0
 47
1.0
 47
0.0
 47
0.0
 47
0.0
 47
0.0
 47
1.0
171
     0
 49
0.0208333333333333
 49
0.0
 49
0.0
 49
0.0
 49
0.0
 49
0.0208333333333333
 49
0.0
 49
0.0
 49
0.0
 49
0.0
 49
1.0
 49
0.0
 49
0.0
 49
0.0
 49
0.0
 49
1.0
175
     0
142
0.0208333333333333
142
0.0
142
0.0
142
0.0
142
0.0
142
0.0208333333333333
142
0.0
142
0.0
142
0.0
142
0.0
142
1.0
142
0.0
142
0.0
142
0.0
142
0.0
142
1.0
179
     0
144
0.0208333333333333
144
0.0
144
0.0
144
0.0
144
0.0
144
0.0208333333333333
144
0.0
144
0.0
144
0.0
144
0.0
144
1.0
144
0.0
144
0.0
144
0.0
144
0.0
144
1.0
147
0.0208333333333333
147
0.0
147
0.0
147
0.0
147
0.0
147
0.0208333333333333
147
0.0
147
0.0
147
0.0
147
0.0
147
1.0
147
0.0
147
0.0
147
0.0
147
0.0
147
1.0
  0
MATERIAL
  5
BB
102
{ACAD_XDICTIONARY
360
BC
102
}
102
{ACAD_REACTORS
330
AA
102
}
330
AA
100
AcDbMaterial
  1
Global
 72
     0
 43
0.0208333333333333
 43
0.0
 43
0.0
 43
0.0
 43
0.0
 43
0.0208333333333333
 43
0.0
 43
0.0
 43
0.0
 43
0.0
 43
1.0
 43
0.0
 43
0.0
 43
0.0
 43
0.0
 43
1.0
 77
     0
 47
0.0208333333333333
 47
0.0
 47
0.0
 47
0.0
 47
0.0
 47
0.0208333333333333
 47
0.0
 47
0.0
 47
0.0
 47
0.0
 47
1.0
 47
0.0
 47
0.0
 47
0.0
 47
0.0
 47
1.0
171
     0
 49
0.0208333333333333
 49
0.0
 49
0.0
 49
0.0
 49
0.0
 49
0.0208333333333333
 49
0.0
 49
0.0
 49
0.0
 49
0.0
 49
1.0
 49
0.0
 49
0.0
 49
0.0
 49
0.0
 49
1.0
175
     0
142
0.0208333333333333
142
0.0
142
0.0
142
0.0
142
0.0
142
0.0208333333333333
142
0.0
142
0.0
142
0.0
142
0.0
142
1.0
142
0.0
142
0.0
142
0.0
142
0.0
142
1.0
179
     0
144
0.0208333333333333
144
0.0
144
0.0
144
0.0
144
0.0
144
0.0208333333333333
144
0.0
144
0.0
144
0.0
144
0.0
144
1.0
144
0.0
144
0.0
144
0.0
144
0.0
144
1.0
147
0.0208333333333333
147
0.0
147
0.0
147
0.0
147
0.0
147
0.0208333333333333
147
0.0
147
0.0
147
0.0
147
0.0
147
1.0
147
0.0
147
0.0
147
0.0
147
0.0
147
1.0
  0
MLEADERSTYLE
  5
F2
102
{ACAD_XDICTIONARY
360
1B6
102
}
102
{ACAD_REACTORS
330
F1
102
}
330
F1
100
AcDbMLeaderStyle
179
     2
170
     2
171
     1
172
     0
 90
        2
 40
0.0
 41
0.0
173
     1
 91
-1056964608
340
14
 92
       -2
290
     1
 42
0.09
291
     1
 43
0.36
  3
Standard
 44
0.18
300

342
11
174
     1
178
     6
175
     1
176
     0
 93
-1056964608
 45
0.18
292
     0
297
     0
 46
0.18
 94
-1056964608
 47
1.0
 49
1.0
140
1.0
293
     1
141
0.0
294
     1
177
     0
142
1.0
295
     0
296
     0
143
0.125
271
     0
272
     9
273
     9
  0
MLINESTYLE
  5
18
102
{ACAD_REACTORS
330
17
102
}
330
17
100
AcDbMlineStyle
  2
STANDARD
 70
     0
  3

 62
   256
 51
90.0
 52
90.0
 71
     2
 49
0.5
 62
   256
  6
BYLAYER
 49
-0.5
 62
   256
  6
BYLAYER
  0
ACDBPLACEHOLDER
  5
2D
102
{ACAD_REACTORS
330
E
102
}
330
E
  0
ACDBPLACEHOLDER
  5
F
102
{ACAD_REACTORS
330
E
102
}
330
E
  0
SCALE
  5
E0
102
{ACAD_REACTORS
330
DF
102
}
330
DF
100
AcDbScale
 70
     0
300
1:1
140
1.0
141
1.0
290
     1
  0
SCALE
  5
E1
102
{ACAD_REACTORS
330
DF
102
}
330
DF
100
AcDbScale
 70
     0
300
1/128" = 1'-0"
140
0.0078125
141
12.0
290
     0
  0
SCALE
  5
E2
102
{ACAD_REACTORS
330
DF
102
}
330
DF
100
AcDbScale
 70
     0
300
1/64" = 1'-0"
140
0.015625
141
12.0
290
     0
  0
SCALE
  5
E3
102
{ACAD_REACTORS
330
DF
102
}
330
DF
100
AcDbScale
 70
     0
300
1/32" = 1'-0"
140
0.03125
141
12.0
290
     0
  0
SCALE
  5
E4
102
{ACAD_REACTORS
330
DF
102
}
330
DF
100
AcDbScale
 70
     0
300
1/16" = 1'-0"
140
0.0625
141
12.0
290
     0
  0
SCALE
  5
E5
102
{ACAD_REACTORS
330
DF
102
}
330
DF
100
AcDbScale
 70
     0
300
3/32" = 1'-0"
140
0.09375
141
12.0
290
     0
  0
SCALE
  5
E6
102
{ACAD_REACTORS
330
DF
102
}
330
DF
100
AcDbScale
 70
     0
300
1/8" = 1'-0"
140
0.125
141
12.0
290
     0
  0
SCALE
  5
E7
102
{ACAD_REACTORS
330
DF
102
}
330
DF
100
AcDbScale
 70
     0
300
3/16" = 1'-0"
140
0.1875
141
12.0
290
     0
  0
SCALE
  5
E8
102
{ACAD_REACTORS
330
DF
102
}
330
DF
100
AcDbScale
 70
     0
300
1/4" = 1'-0"
140
0.25
141
12.0
290
     0
  0
SCALE
  5
E9
102
{ACAD_REACTORS
330
DF
102
}
330
DF
100
AcDbScale
 70
     0
300
3/8" = 1'-0"
140
0.375
141
12.0
290
     0
  0
SCALE
  5
EA
102
{ACAD_REACTORS
330
DF
102
}
330
DF
100
AcDbScale
 70
     0
300
1/2" = 1'-0"
140
0.5
141
12.0
290
     0
  0
SCALE
  5
EB
102
{ACAD_REACTORS
330
DF
102
}
330
DF
100
AcDbScale
 70
     0
300
3/4" = 1'-0"
140
0.75
141
12.0
290
     0
  0
SCALE
  5
EC
102
{ACAD_REACTORS
330
DF
102
}
330
DF
100
AcDbScale
 70
     0
300
1" = 1'-0"
140
1.0
141
12.0
290
     0
  0
SCALE
  5
ED
102
{ACAD_REACTORS
330
DF
102
}
330
DF
100
AcDbScale
 70
     0
300
1-1/2" = 1'-0"
140
1.5
141
12.0
290
     0
  0
SCALE
  5
EE
102
{ACAD_REACTORS
330
DF
102
}
330
DF
100
AcDbScale
 70
     0
300
3" = 1'-0"
140
3.0
141
12.0
290
     0
  0
SCALE
  5
EF
102
{ACAD_REACTORS
330
DF
102
}
330
DF
100
AcDbScale
 70
     0
300
6" = 1'-0"
140
6.0
141
12.0
290
     0
  0
SCALE
  5
F0
102
{ACAD_REACTORS
330
DF
102
}
330
DF
100
AcDbScale
 70
     0
300
1'-0" = 1'-0"
140
12.0
141
12.0
290
     0
  0
ACDBSECTIONVIEWSTYLE
  5
F4
102
{ACAD_XDICTIONARY
360
1B8
102
}
102
{ACAD_REACTORS
330
F3
102
}
330
F3
100
AcDbModelDocViewStyle
 70
     0
  3
Imperial24
290
     0
100
AcDbSectionViewStyle
 70
     0
 71
     0
 90
       78
 71
     1
340
11
 62
   256
 40
0.24
340
0
340
0
 62
   256
 40
0.24
300
I, O, Q, S, X, Z
 40
0.48
 90
        3
 40
0.18
 90
        1
 71
     2
340
16
 90
       25
 62
   256
340
16
 90
       50
 62
   256
 40
0.24
 40
0.0
 40
0.24
 71
     3
340
11
 62
   256
 40
0.24
 90
        1
 40
0.75
 90
        1
300
%<\AcVar ViewType \f "%tc1">% %<\AcVar ViewSectionStartId>%-%<\AcVar ViewSectionEndId>%\PSCALE %<\AcVar ViewScale \f "%sn">%
 71
     4
 62
   256
 62
   257
300
ANSI31
 40
1.0
 90
        0
290
     0
290
     0
 90
        6
 40
0.0
 40
1.570796326794896
 40
0.2617993877991494
 40
1.308996938995747
 40
-0.2617993877991494
 40
1.832595714594046
  0
TABLESTYLE
  5
DE
102
{ACAD_XDICTIONARY
360
183
102
}
102
{ACAD_REACTORS
330
DD
102
}
330
DD
100
AcDbTableStyle
280
     0
  3
Standard
 70
     0
 71
     0
 40
0.06
 41
0.06
280
     0
281
     0
  7
Standard
140
0.18
170
     2
 62
     0
 63
     7
283
     0
 90
      512
 91
        0
  1

274
    -2
284
     1
 64
     0
275
    -2
285
     1
 65
     0
276
    -2
286
     1
 66
     0
277
    -2
287
     1
 67
     0
278
    -2
288
     1
 68
     0
279
    -2
289
     1
 69
     0
  7
Standard
140
0.25
170
     5
 62
     0
 63
     7
283
     0
 90
      512
 91
        0
  1

274
    -2
284
     1
 64
     0
275
    -2
285
     1
 65
     0
276
    -2
286
     1
 66
     0
277
    -2
287
     1
 67
     0
278
    -2
288
     1
 68
     0
279
    -2
289
     1
 69
     0
  7
Standard
140
0.18
170
     5
 62
     0
 63
     7
283
     0
 90
      512
 91
        0
  1

274
    -2
284
     1
 64
     0
275
    -2
285
     1
 65
     0
276
    -2
286
     1
 66
     0
277
    -2
287
     1
 67
     0
278
    -2
288
     1
 68
     0
279
    -2
289
     1
 69
     0
  0
VISUALSTYLE
  5
C9
102
{ACAD_XDICTIONARY
360
190
102
}
102
{ACAD_REACTORS
330
C3
102
}
330
C3
100
AcDbVisualStyle
  2
2dWireframe
 70
     4
177
     2
291
     0
 71
     0
176
     1
 72
     2
176
     1
 73
     0
176
     1
 90
        0
176
     1
 40
0.6
176
     1
 41
30.0
176
     1
 63
     7
421
 16777215
176
     1
 74
     1
176
     1
 91
        4
176
     1
 64
     7
176
     1
 65
   257
176
     1
 75
     1
176
     1
175
     1
176
     1
 42
1.0
176
     1
 92
        0
176
     1
 66
   257
176
     1
 43
1.0
176
     1
 76
     1
176
     1
 77
     6
176
     1
 78
     2
176
     1
 67
     7
176
     1
 79
     5
176
     1
170
     0
176
     1
171
     0
176
     1
290
     0
176
     1
 93
        1
176
     1
 44
0.0
176
     1
173
     0
176
     1
1001
ACAD
1000
AcDbSavedByObjectVersion
1070
     0
  0
VISUALSTYLE
  5
C8
102
{ACAD_XDICTIONARY
360
18E
102
}
102
{ACAD_REACTORS
330
C3
102
}
330
C3
100
AcDbVisualStyle
  2
Basic
 70
     7
177
     2
291
     1
 71
     1
176
     1
 72
     0
176
     1
 73
     1
176
     1
 90
        0
176
     1
 40
0.6
176
     1
 41
30.0
176
     1
 63
     7
421
 16777215
176
     1
 74
     0
176
     1
 91
        4
176
     1
 64
     7
176
     1
 65
   257
176
     1
 75
     1
176
     1
175
     1
176
     1
 42
1.0
176
     1
 92
        8
176
     1
 66
     7
176
     1
 43
1.0
176
     1
 76
     1
176
     1
 77
     6
176
     1
 78
     2
176
     1
 67
     7
176
     1
 79
     5
176
     1
170
     0
176
     1
171
     0
176
     1
290
     0
176
     1
 93
        1
176
     1
 44
0.0
176
     1
173
     0
176
     1
1001
ACAD
1000
AcDbSavedByObjectVersion
1070
     0
  0
VISUALSTYLE
  5
CF
102
{ACAD_XDICTIONARY
360
19C
102
}
102
{ACAD_REACTORS
330
C3
102
}
330
C3
100
AcDbVisualStyle
  2
Brighten
 70
    12
177
     2
291
     1
 71
     2
176
     1
 72
     2
176
     1
 73
     0
176
     1
 90
        0
176
     1
 40
0.6
176
     1
 41
30.0
176
     1
 63
     7
421
 16777215
176
     1
 74
     1
176
     1
 91
        4
176
     1
 64
     7
176
     1
 65
   257
176
     1
 75
     1
176
     1
175
     1
176
     1
 42
1.0
176
     1
 92
        8
176
     1
 66
     7
176
     1
 43
1.0
176
     1
 76
     1
176
     1
 77
     6
176
     1
 78
     2
176
     1
 67
     7
176
     1
 79
     5
176
     1
170
     0
176
     1
171
     0
176
     1
290
     0
176
     1
 93
        1
176
     1
 44
50.0
176
     1
173
     0
176
     1
1001
ACAD
1000
AcDbSavedByObjectVersion
1070
     0
  0
VISUALSTYLE
  5
D3
102
{ACAD_XDICTIONARY
360
1A4
102
}
102
{ACAD_REACTORS
330
C3
102
}
330
C3
100
AcDbVisualStyle
  2
ColorChange
 70
    16
177
     2
291
     1
 71
     2
176
     1
 72
     2
176
     1
 73
     3
176
     1
 90
        0
176
     1
 40
0.6
176
     1
 41
30.0
176
     1
 63
     8
421
  8421504
176
     1
 74
     1
176
     1
 91
        4
176
     1
 64
     7
176
     1
 65
   257
176
     1
 75
     1
176
     1
175
     1
176
     1
 42
1.0
176
     1
 92
        8
176
     1
 66
     8
424
  8421504
176
     1
 43
1.0
176
     1
 76
     1
176
     1
 77
     6
176
     1
 78
     2
176
     1
 67
     7
176
     1
 79
     5
176
     1
170
     0
176
     1
171
     0
176
     1
290
     0
176
     1
 93
        1
176
     1
 44
0.0
176
     1
173
     0
176
     1
1001
ACAD
1000
AcDbSavedByObjectVersion
1070
     0
  0
VISUALSTYLE
  5
CC
102
{ACAD_XDICTIONARY
360
196
102
}
102
{ACAD_REACTORS
330
C3
102
}
330
C3
100
AcDbVisualStyle
  2
Conceptual
 70
     9
177
     2
291
     0
 71
     3
176
     1
 72
     2
176
     1
 73
     0
176
     1
 90
        0
176
     1
 40
0.6
176
     1
 41
30.0
176
     1
 63
     7
421
 16777215
176
     1
 74
     2
176
     1
 91
        2
176
     1
 64
     7
176
     1
 65
   257
176
     1
 75
     1
176
     1
175
     1
176
     1
 42
179.0
176
     1
 92
        8
176
     1
 66
     7
176
     1
 43
1.0
176
     1
 76
     1
176
     1
 77
     6
176
     1
 78
     2
176
     1
 67
     7
176
     1
 79
     3
176
     1
170
     0
176
     1
171
     0
176
     1
290
     0
176
     1
 93
        1
176
     1
 44
0.0
176
     1
173
     0
176
     1
1001
ACAD
1000
AcDbSavedByObjectVersion
1070
     0
  0
VISUALSTYLE
  5
CE
102
{ACAD_XDICTIONARY
360
19A
102
}
102
{ACAD_REACTORS
330
C3
102
}
330
C3
100
AcDbVisualStyle
  2
Dim
 70
    11
177
     2
291
     1
 71
     2
176
     1
 72
     2
176
     1
 73
     0
176
     1
 90
        0
176
     1
 40
0.6
176
     1
 41
30.0
176
     1
 63
     7
421
 16777215
176
     1
 74
     1
176
     1
 91
        4
176
     1
 64
     7
176
     1
 65
   257
176
     1
 75
     1
176
     1
175
     1
176
     1
 42
1.0
176
     1
 92
        8
176
     1
 66
     7
176
     1
 43
1.0
176
     1
 76
     1
176
     1
 77
     6
176
     1
 78
     2
176
     1
 67
     7
176
     1
 79
     5
176
     1
170
     0
176
     1
171
     0
176
     1
290
     0
176
     1
 93
        1
176
     1
 44
-50.0
176
     1
173
     0
176
     1
1001
ACAD
1000
AcDbSavedByObjectVersion
1070
     0
  0
VISUALSTYLE
  5
DB
102
{ACAD_XDICTIONARY
360
1B4
102
}
102
{ACAD_REACTORS
330
C3
102
}
330
C3
100
AcDbVisualStyle
  2
EdgeColorOff
 70
    22
177
     2
291
     1
 71
     2
176
     0
 72
     2
176
     0
 73
     0
176
     0
 90
        0
176
     0
 40
0.6
176
     0
 41
30.0
176
     0
 63
     7
421
 16777215
176
     0
 74
     1
176
     0
 91
        4
176
     0
 64
     7
176
     0
 65
   257
176
     0
 75
     1
176
     0
175
     1
176
     0
 42
1.0
176
     0
 92
        8
176
     2
 66
     7
176
     0
 43
1.0
176
     0
 76
     1
176
     0
 77
     6
176
     0
 78
     2
176
     0
 67
     7
176
     0
 79
     5
176
     0
170
     0
176
     0
171
     0
176
     0
290
     0
176
     0
 93
        1
176
     0
 44
0.0
176
     0
173
     0
176
     0
1001
ACAD
1000
AcDbSavedByObjectVersion
1070
     0
  0
VISUALSTYLE
  5
D2
102
{ACAD_XDICTIONARY
360
1A2
102
}
102
{ACAD_REACTORS
330
C3
102
}
330
C3
100
AcDbVisualStyle
  2
Facepattern
 70
    15
177
     2
291
     1
 71
     2
176
     1
 72
     2
176
     1
 73
     0
176
     1
 90
        0
176
     1
 40
0.6
176
     1
 41
30.0
176
     1
 63
     7
421
 16777215
176
     1
 74
     1
176
     1
 91
        4
176
     1
 64
     7
176
     1
 65
   257
176
     1
 75
     1
176
     1
175
     1
176
     1
 42
1.0
176
     1
 92
        8
176
     1
 66
     7
176
     1
 43
1.0
176
     1
 76
     1
176
     1
 77
     6
176
     1
 78
     2
176
     1
 67
     7
176
     1
 79
     5
176
     1
170
     0
176
     1
171
     0
176
     1
290
     0
176
     1
 93
        1
176
     1
 44
0.0
176
     1
173
     0
176
     1
1001
ACAD
1000
AcDbSavedByObjectVersion
1070
     0
  0
VISUALSTYLE
  5
C4
102
{ACAD_XDICTIONARY
360
186
102
}
102
{ACAD_REACTORS
330
C3
102
}
330
C3
100
AcDbVisualStyle
  2
Flat
 70
     0
177
     2
291
     1
 71
     2
176
     1
 72
     1
176
     1
 73
     1
176
     1
 90
        2
176
     1
 40
0.6
176
     1
 41
30.0
176
     1
 63
     7
421
 16777215
176
     1
 74
     0
176
     1
 91
        0
176
     1
 64
     7
176
     1
 65
   257
176
     1
 75
     1
176
     1
175
     1
176
     1
 42
1.0
176
     1
 92
        8
176
     1
 66
     7
176
     1
 43
1.0
176
     1
 76
     1
176
     1
 77
     6
176
     1
 78
     2
176
     1
 67
     7
176
     1
 79
     5
176
     1
170
     0
176
     1
171
     0
176
     1
290
     0
176
     1
 93
       13
176
     1
 44
0.0
176
     1
173
     0
176
     1
1001
ACAD
1000
AcDbSavedByObjectVersion
1070
     0
  0
VISUALSTYLE
  5
C5
102
{ACAD_XDICTIONARY
360
188
102
}
102
{ACAD_REACTORS
330
C3
102
}
330
C3
100
AcDbVisualStyle
  2
FlatWithEdges
 70
     1
177
     2
291
     1
 71
     2
176
     1
 72
     1
176
     1
 73
     1
176
     1
 90
        2
176
     1
 40
0.6
176
     1
 41
30.0
176
     1
 63
     7
421
 16777215
176
     1
 74
     1
176
     1
 91
        0
176
     1
 64
     7
176
     1
 65
   257
176
     1
 75
     1
176
     1
175
     1
176
     1
 42
1.0
176
     1
 92
        0
176
     1
 66
   257
176
     1
 43
1.0
176
     1
 76
     1
176
     1
 77
     6
176
     1
 78
     2
176
     1
 67
     7
176
     1
 79
     5
176
     1
170
     0
176
     1
171
     0
176
     1
290
     0
176
     1
 93
       13
176
     1
 44
0.0
176
     1
173
     0
176
     1
1001
ACAD
1000
AcDbSavedByObjectVersion
1070
     0
  0
VISUALSTYLE
  5
C6
102
{ACAD_XDICTIONARY
360
18A
102
}
102
{ACAD_REACTORS
330
C3
102
}
330
C3
100
AcDbVisualStyle
  2
Gouraud
 70
     2
177
     2
291
     1
 71
     2
176
     1
 72
     2
176
     1
 73
     1
176
     1
 90
        2
176
     1
 40
0.6
176
     1
 41
30.0
176
     1
 63
     7
421
 16777215
176
     1
 74
     0
176
     1
 91
        0
176
     1
 64
     7
176
     1
 65
   257
176
     1
 75
     1
176
     1
175
     1
176
     1
 42
1.0
176
     1
 92
        0
176
     1
 66
     7
176
     1
 43
1.0
176
     1
 76
     1
176
     1
 77
     6
176
     1
 78
     2
176
     1
 67
     7
176
     1
 79
     5
176
     1
170
     0
176
     1
171
     0
176
     1
290
     0
176
     1
 93
       13
176
     1
 44
0.0
176
     1
173
     0
176
     1
1001
ACAD
1000
AcDbSavedByObjectVersion
1070
     0
  0
VISUALSTYLE
  5
C7
102
{ACAD_XDICTIONARY
360
18C
102
}
102
{ACAD_REACTORS
330
C3
102
}
330
C3
100
AcDbVisualStyle
  2
GouraudWithEdges
 70
     3
177
     2
291
     1
 71
     2
176
     1
 72
     2
176
     1
 73
     1
176
     1
 90
        2
176
     1
 40
0.6
176
     1
 41
30.0
176
     1
 63
     7
421
 16777215
176
     1
 74
     1
176
     1
 91
        0
176
     1
 64
     7
176
     1
 65
   257
176
     1
 75
     1
176
     1
175
     1
176
     1
 42
1.0
176
     1
 92
        0
176
     1
 66
   257
176
     1
 43
1.0
176
     1
 76
     1
176
     1
 77
     6
176
     1
 78
     2
176
     1
 67
     7
176
     1
 79
     5
176
     1
170
     0
176
     1
171
     0
176
     1
290
     0
176
     1
 93
       13
176
     1
 44
0.0
176
     1
173
     0
176
     1
1001
ACAD
1000
AcDbSavedByObjectVersion
1070
     0
  0
VISUALSTYLE
  5
CB
102
{ACAD_XDICTIONARY
360
194
102
}
102
{ACAD_REACTORS
330
C3
102
}
330
C3
100
AcDbVisualStyle
  2
Hidden
 70
     6
177
     2
291
     0
 71
     1
176
     1
 72
     2
176
     1
 73
     2
176
     1
 90
        0
176
     1
 40
0.6
176
     1
 41
30.0
176
     1
 63
     7
421
 16777215
176
     1
 74
     2
176
     1
 91
        2
176
     1
 64
     7
176
     1
 65
   257
176
     1
 75
     2
176
     1
175
     1
176
     1
 42
40.0
176
     1
 92
        0
176
     1
 66
   257
176
     1
 43
1.0
176
     1
 76
     1
176
     1
 77
     6
176
     1
 78
     2
176
     1
 67
     7
176
     1
 79
     3
176
     1
170
     0
176
     1
171
     0
176
     1
290
     0
176
     1
 93
        1
176
     1
 44
0.0
176
     1
173
     0
176
     1
1001
ACAD
1000
AcDbSavedByObjectVersion
1070
     0
  0
VISUALSTYLE
  5
D9
102
{ACAD_XDICTIONARY
360
1B0
102
}
102
{ACAD_REACTORS
330
C3
102
}
330
C3
100
AcDbVisualStyle
  2
JitterOff
 70
    20
177
     2
291
     1
 71
     2
176
     0
 72
     2
176
     0
 73
     0
176
     0
 90
        0
176
     0
 40
0.6
176
     0
 41
30.0
176
     0
 63
     7
421
 16777215
176
     0
 74
     1
176
     0
 91
        4
176
     0
 64
     7
176
     0
 65
   257
176
     0
 75
     1
176
     0
175
     1
176
     0
 42
1.0
176
     0
 92
       10
176
     2
 66
     7
176
     0
 43
1.0
176
     0
 76
     1
176
     0
 77
     6
176
     0
 78
     2
176
     0
 67
     7
176
     0
 79
     5
176
     0
170
     0
176
     0
171
     0
176
     0
290
     0
176
     0
 93
        1
176
     0
 44
0.0
176
     0
173
     0
176
     0
1001
ACAD
1000
AcDbSavedByObjectVersion
1070
     0
  0
VISUALSTYLE
  5
D1
102
{ACAD_XDICTIONARY
360
1A0
102
}
102
{ACAD_REACTORS
330
C3
102
}
330
C3
100
AcDbVisualStyle
  2
Linepattern
 70
    14
177
     2
291
     1
 71
     2
176
     1
 72
     2
176
     1
 73
     0
176
     1
 90
        0
176
     1
 40
0.6
176
     1
 41
30.0
176
     1
 63
     7
421
 16777215
176
     1
 74
     1
176
     1
 91
        4
176
     1
 64
     7
176
     1
 65
   257
176
     1
 75
     7
176
     1
175
     7
176
     1
 42
1.0
176
     1
 92
        8
176
     1
 66
     7
176
     1
 43
1.0
176
     1
 76
     1
176
     1
 77
     6
176
     1
 78
     2
176
     1
 67
     7
176
     1
 79
     5
176
     1
170
     0
176
     1
171
     0
176
     1
290
     0
176
     1
 93
        1
176
     1
 44
0.0
176
     1
173
     0
176
     1
1001
ACAD
1000
AcDbSavedByObjectVersion
1070
     0
  0
VISUALSTYLE
  5
DA
102
{ACAD_XDICTIONARY
360
1B2
102
}
102
{ACAD_REACTORS
330
C3
102
}
330
C3
100
AcDbVisualStyle
  2
OverhangOff
 70
    21
177
     2
291
     1
 71
     2
176
     0
 72
     2
176
     0
 73
     0
176
     0
 90
        0
176
     0
 40
0.6
176
     0
 41
30.0
176
     0
 63
     7
421
 16777215
176
     0
 74
     1
176
     0
 91
        4
176
     0
 64
     7
176
     0
 65
   257
176
     0
 75
     1
176
     0
175
     1
176
     0
 42
1.0
176
     0
 92
        9
176
     2
 66
     7
176
     0
 43
1.0
176
     0
 76
     1
176
     0
 77
     6
176
     0
 78
     2
176
     0
 67
     7
176
     0
 79
     5
176
     0
170
     0
176
     0
171
     0
176
     0
290
     0
176
     0
 93
        1
176
     0
 44
0.0
176
     0
173
     0
176
     0
1001
ACAD
1000
AcDbSavedByObjectVersion
1070
     0
  0
VISUALSTYLE
  5
CD
102
{ACAD_XDICTIONARY
360
198
102
}
102
{ACAD_REACTORS
330
C3
102
}
330
C3
100
AcDbVisualStyle
  2
Realistic
 70
     8
177
     2
291
     0
 71
     2
176
     1
 72
     3
176
     1
 73
     0
176
     1
 90
        2
176
     1
 40
0.6
176
     1
 41
30.0
176
     1
 63
     7
421
 16777215
176
     1
 74
     0
176
     1
 91
        0
176
     1
 64
     7
176
     1
 65
   257
176
     1
 75
     1
176
     1
175
     1
176
     1
 42
1.0
176
     1
 92
        8
176
     1
 66
   257
176
     1
 43
1.0
176
     1
 76
     1
176
     1
 77
     6
176
     1
 78
     2
176
     1
 67
     7
176
     1
 79
     3
176
     1
170
     0
176
     1
171
     0
176
     1
290
     0
176
     1
 93
       13
176
     1
 44
0.0
176
     1
173
     0
176
     1
1001
ACAD
1000
AcDbSavedByObjectVersion
1070
     0
  0
VISUALSTYLE
  5
D8
102
{ACAD_XDICTIONARY
360
1AE
102
}
102
{ACAD_REACTORS
330
C3
102
}
330
C3
100
AcDbVisualStyle
  2
Shaded
 70
    27
177
     2
291
     0
 71
     2
176
     1
 72
     2
176
     1
 73
     1
176
     1
 90
        2
176
     1
 40
0.6
176
     1
 41
30.0
176
     1
 63
     7
421
 16777215
176
     1
 74
     0
176
     1
 91
        4
176
     1
 64
     7
176
     1
 65
   257
176
     1
 75
     1
176
     1
175
     1
176
     1
 42
1.0
176
     1
 92
        8
176
     1
 66
   257
176
     1
 43
1.0
176
     1
 76
     1
176
     1
 77
     6
176
     1
 78
     2
176
     1
 67
     8
425
  7895160
176
     1
 79
     3
176
     1
170
     0
176
     1
171
     0
176
     1
290
     0
176
     1
 93
        5
176
     1
 44
0.0
176
     1
173
     0
176
     1
1001
ACAD
1000
AcDbSavedByObjectVersion
1070
     0
  0
VISUALSTYLE
  5
D7
102
{ACAD_XDICTIONARY
360
1AC
102
}
102
{ACAD_REACTORS
330
C3
102
}
330
C3
100
AcDbVisualStyle
  2
Shaded with edges
 70
    26
177
     2
291
     0
 71
     2
176
     1
 72
     2
176
     1
 73
     1
176
     1
 90
        2
176
     1
 40
0.6
176
     1
 41
30.0
176
     1
 63
     7
421
 16777215
176
     1
 74
     1
176
     1
 91
       10
176
     1
 64
     7
176
     1
 65
   257
176
     1
 75
     2
176
     1
175
     1
176
     1
 42
1.0
176
     1
 92
        8
176
     1
 66
   257
176
     1
 43
1.0
176
     1
 76
     1
176
     1
 77
     6
176
     1
 78
     2
176
     1
 67
     7
176
     1
 79
     3
176
     1
170
     0
176
     1
171
     0
176
     1
290
     0
176
     1
 93
        5
176
     1
 44
0.0
176
     1
173
     0
176
     1
1001
ACAD
1000
AcDbSavedByObjectVersion
1070
     0
  0
VISUALSTYLE
  5
D4
102
{ACAD_XDICTIONARY
360
1A6
102
}
102
{ACAD_REACTORS
330
C3
102
}
330
C3
100
AcDbVisualStyle
  2
Shades of Gray
 70
    23
177
     2
291
     0
 71
     2
176
     1
 72
     2
176
     1
 73
     3
176
     1
 90
        0
176
     1
 40
0.6
176
     1
 41
30.0
176
     1
 63
     7
421
 16777215
176
     1
 74
     2
176
     1
 91
        2
176
     1
 64
     7
176
     1
 65
     7
176
     1
 75
     1
176
     1
175
     1
176
     1
 42
40.0
176
     1
 92
        8
176
     1
 66
     7
176
     1
 43
1.0
176
     1
 76
     1
176
     1
 77
     6
176
     1
 78
     2
176
     1
 67
     7
176
     1
 79
     3
176
     1
170
     0
176
     1
171
     0
176
     1
290
     0
176
     1
 93
        1
176
     1
 44
0.0
176
     1
173
     0
176
     1
1001
ACAD
1000
AcDbSavedByObjectVersion
1070
     0
  0
VISUALSTYLE
  5
D5
102
{ACAD_XDICTIONARY
360
1A8
102
}
102
{ACAD_REACTORS
330
C3
102
}
330
C3
100
AcDbVisualStyle
  2
Sketchy
 70
    24
177
     2
291
     0
 71
     1
176
     1
 72
     2
176
     1
 73
     2
176
     1
 90
        0
176
     1
 40
0.6
176
     1
 41
30.0
176
     1
 63
     7
421
 16777215
176
     1
 74
     2
176
     1
 91
        2
176
     1
 64
     7
176
     1
 65
     7
176
     1
 75
     1
176
     1
175
     1
176
     1
 42
40.0
176
     1
 92
       11
176
     1
 66
     7
176
     1
 43
1.0
176
     1
 76
     1
176
     1
 77
     6
176
     1
 78
     2
176
     1
 67
     7
176
     1
 79
     6
176
     1
170
     0
176
     1
171
     0
176
     1
290
     0
176
     1
 93
        1
176
     1
 44
0.0
176
     1
173
     0
176
     1
1001
ACAD
1000
AcDbSavedByObjectVersion
1070
     0
  0
VISUALSTYLE
  5
D0
102
{ACAD_XDICTIONARY
360
19E
102
}
102
{ACAD_REACTORS
330
C3
102
}
330
C3
100
AcDbVisualStyle
  2
Thicken
 70
    13
177
     2
291
     1
 71
     2
176
     1
 72
     2
176
     1
 73
     0
176
     1
 90
        0
176
     1
 40
0.6
176
     1
 41
30.0
176
     1
 63
     7
421
 16777215
176
     1
 74
     1
176
     1
 91
        4
176
     1
 64
     7
176
     1
 65
   257
176
     1
 75
     1
176
     1
175
     1
176
     1
 42
1.0
176
     1
 92
       12
176
     1
 66
     7
176
     1
 43
1.0
176
     1
 76
     1
176
     1
 77
     6
176
     1
 78
     2
176
     1
 67
     7
176
     1
 79
     5
176
     1
170
     0
176
     1
171
     0
176
     1
290
     0
176
     1
 93
        1
176
     1
 44
0.0
176
     1
173
     0
176
     1
1001
ACAD
1000
AcDbSavedByObjectVersion
1070
     0
  0
VISUALSTYLE
  5
CA
102
{ACAD_XDICTIONARY
360
192
102
}
102
{ACAD_REACTORS
330
C3
102
}
330
C3
100
AcDbVisualStyle
  2
Wireframe
 70
     5
177
     2
291
     0
 71
     0
176
     1
 72
     2
176
     1
 73
     0
176
     1
 90
        0
176
     1
 40
0.6
176
     1
 41
30.0
176
     1
 63
     7
421
 16777215
176
     1
 74
     1
176
     1
 91
        4
176
     1
 64
     7
176
     1
 65
   257
176
     1
 75
     1
176
     1
175
     1
176
     1
 42
1.0
176
     1
 92
        0
176
     1
 66
   257
176
     1
 43
1.0
176
     1
 76
     1
176
     1
 77
     6
176
     1
 78
     2
176
     1
 67
     7
176
     1
 79
     3
176
     1
170
     0
176
     1
171
     0
176
     1
290
     0
176
     1
 93
        1
176
     1
 44
0.0
176
     1
173
     0
176
     1
1001
ACAD
1000
AcDbSavedByObjectVersion
1070
     0
  0
VISUALSTYLE
  5
D6
102
{ACAD_XDICTIONARY
360
1AA
102
}
102
{ACAD_REACTORS
330
C3
102
}
330
C3
100
AcDbVisualStyle
  2
X-Ray
 70
    25
177
     2
291
     0
 71
     2
176
     1
 72
     2
176
     1
 73
     1
176
     1
 90
        1
176
     1
 40
0.5
176
     1
 41
30.0
176
     1
 63
     7
421
 16777215
176
     1
 74
     1
176
     1
 91
        0
176
     1
 64
     7
176
     1
 65
   257
176
     1
 75
     1
176
     1
175
     1
176
     1
 42
1.0
176
     1
 92
        8
176
     1
 66
     7
176
     1
 43
1.0
176
     1
 76
     1
176
     1
 77
     6
176
     1
 78
     2
176
     1
 67
     7
176
     1
 79
     3
176
     1
170
     0
176
     1
171
     0
176
     1
290
     0
176
     1
 93
       13
176
     1
 44
0.0
176
     1
173
     0
176
     1
1001
ACAD
1000
AcDbSavedByObjectVersion
1070
     0
  0
DICTIONARYVAR
  5
17F
102
{ACAD_REACTORS
330
179
102
}
330
179
100
DictionaryVariables
280
     0
  1
1:1
  0
DICTIONARYVAR
  5
17B
102
{ACAD_REACTORS
330
179
102
}
330
179
100
DictionaryVariables
280
     0
  1
STANDARD
  0
DICTIONARYVAR
  5
17A
102
{ACAD_REACTORS
330
179
102
}
330
179
100
DictionaryVariables
280
     0
  1
STANDARD
  0
DICTIONARYVAR
  5
17C
102
{ACAD_REACTORS
330
179
102
}
330
179
100
DictionaryVariables
280
     0
  1
Imperial24
  0
DICTIONARYVAR
  5
17D
102
{ACAD_REACTORS
330
179
102
}
330
179
100
DictionaryVariables
280
     0
  1
Imperial24
  0
DICTIONARYVAR
  5
181
102
{ACAD_REACTORS
330
179
102
}
330
179
100
DictionaryVariables
280
     0
  1
1
  0
DICTIONARYVAR
  5
182
102
{ACAD_REACTORS
330
179
102
}
330
179
100
DictionaryVariables
280
     0
  1
15
  0
DICTIONARYVAR
  5
180
102
{ACAD_REACTORS
330
179
102
}
330
179
100
DictionaryVariables
280
     0
  1
0
  0
DICTIONARYVAR
  5
17E
102
{ACAD_REACTORS
330
179
102
}
330
179
100
DictionaryVariables
280
     0
  1
0
  0
DICTIONARY
  5
1BA
330
F6
100
AcDbDictionary
280
     1
281
     1
  3
ACAD_XREC_ROUNDTRIP
360
1BB
  0
DICTIONARY
  5
B4
330
B3
100
AcDbDictionary
280
     1
281
     1
  3
BUMPTILE
360
B6
  3
DIFFUSETILE
360
B5
  3
OPACITYTILE
360
B9
  3
REFLECTIONTILE
360
B8
  3
REFRACTIONTILE
360
BA
  3
SPECULARTILE
360
B7
  0
DICTIONARY
  5
AC
330
AB
100
AcDbDictionary
280
     1
281
     1
  3
BUMPTILE
360
AE
  3
DIFFUSETILE
360
AD
  3
OPACITYTILE
360
B1
  3
REFLECTIONTILE
360
B0
  3
REFRACTIONTILE
360
B2
  3
SPECULARTILE
360
AF
  0
DICTIONARY
  5
BC
330
BB
100
AcDbDictionary
280
     1
281
     1
  3
BUMPTILE
360
BE
  3
DIFFUSETILE
360
BD
  3
OPACITYTILE
360
C1
  3
REFLECTIONTILE
360
C0
  3
REFRACTIONTILE
360
C2
  3
SPECULARTILE
360
BF
  0
DICTIONARY
  5
1B6
330
F2
100
AcDbDictionary
280
     1
281
     1
  3
ACAD_XREC_ROUNDTRIP
360
1B7
  0
DICTIONARY
  5
1B8
330
F4
100
AcDbDictionary
280
     1
281
     1
  3
ACAD_XREC_ROUNDTRIP
360
1B9
  0
DICTIONARY
  5
183
330
DE
100
AcDbDictionary
280
     1
281
     1
  3
ACAD_ROUNDTRIP_2008_TABLESTYLE_CELLSTYLEMAP
360
184
  0
DICTIONARY
  5
190
330
C9
100
AcDbDictionary
280
     1
281
     1
  3
ACAD_XREC_ROUNDTRIP
360
191
  0
DICTIONARY
  5
18E
330
C8
100
AcDbDictionary
280
     1
281
     1
  3
ACAD_XREC_ROUNDTRIP
360
18F
  0
DICTIONARY
  5
19C
330
CF
100
AcDbDictionary
280
     1
281
     1
  3
ACAD_XREC_ROUNDTRIP
360
19D
  0
DICTIONARY
  5
1A4
330
D3
100
AcDbDictionary
280
     1
281
     1
  3
ACAD_XREC_ROUNDTRIP
360
1A5
  0
DICTIONARY
  5
196
330
CC
100
AcDbDictionary
280
     1
281
     1
  3
ACAD_XREC_ROUNDTRIP
360
197
  0
DICTIONARY
  5
19A
330
CE
100
AcDbDictionary
280
     1
281
     1
  3
ACAD_XREC_ROUNDTRIP
360
19B
  0
DICTIONARY
  5
1B4
330
DB
100
AcDbDictionary
280
     1
281
     1
  3
ACAD_XREC_ROUNDTRIP
360
1B5
  0
DICTIONARY
  5
1A2
330
D2
100
AcDbDictionary
280
     1
281
     1
  3
ACAD_XREC_ROUNDTRIP
360
1A3
  0
DICTIONARY
  5
186
330
C4
100
AcDbDictionary
280
     1
281
     1
  3
ACAD_XREC_ROUNDTRIP
360
187
  0
DICTIONARY
  5
188
330
C5
100
AcDbDictionary
280
     1
281
     1
  3
ACAD_XREC_ROUNDTRIP
360
189
  0
DICTIONARY
  5
18A
330
C6
100
AcDbDictionary
280
     1
281
     1
  3
ACAD_XREC_ROUNDTRIP
360
18B
  0
DICTIONARY
  5
18C
330
C7
100
AcDbDictionary
280
     1
281
     1
  3
ACAD_XREC_ROUNDTRIP
360
18D
  0
DICTIONARY
  5
194
330
CB
100
AcDbDictionary
280
     1
281
     1
  3
ACAD_XREC_ROUNDTRIP
360
195
  0
DICTIONARY
  5
1B0
330
D9
100
AcDbDictionary
280
     1
281
     1
  3
ACAD_XREC_ROUNDTRIP
360
1B1
  0
DICTIONARY
  5
1A0
330
D1
100
AcDbDictionary
280
     1
281
     1
  3
ACAD_XREC_ROUNDTRIP
360
1A1
  0
DICTIONARY
  5
1B2
330
DA
100
AcDbDictionary
280
     1
281
     1
  3
ACAD_XREC_ROUNDTRIP
360
1B3
  0
DICTIONARY
  5
198
330
CD
100
AcDbDictionary
280
     1
281
     1
  3
ACAD_XREC_ROUNDTRIP
360
199
  0
DICTIONARY
  5
1AE
330
D8
100
AcDbDictionary
280
     1
281
     1
  3
ACAD_XREC_ROUNDTRIP
360
1AF
  0
DICTIONARY
  5
1AC
330
D7
100
AcDbDictionary
280
     1
281
     1
  3
ACAD_XREC_ROUNDTRIP
360
1AD
  0
DICTIONARY
  5
1A6
330
D4
100
AcDbDictionary
280
     1
281
     1
  3
ACAD_XREC_ROUNDTRIP
360
1A7
  0
DICTIONARY
  5
1A8
330
D5
100
AcDbDictionary
280
     1
281
     1
  3
ACAD_XREC_ROUNDTRIP
360
1A9
  0
DICTIONARY
  5
19E
330
D0
100
AcDbDictionary
280
     1
281
     1
  3
ACAD_XREC_ROUNDTRIP
360
19F
  0
DICTIONARY
  5
192
330
CA
100
AcDbDictionary
280
     1
281
     1
  3
ACAD_XREC_ROUNDTRIP
360
193
  0
DICTIONARY
  5
1AA
330
D6
100
AcDbDictionary
280
     1
281
     1
  3
ACAD_XREC_ROUNDTRIP
360
1AB
  0
XRECORD
  5
1BB
102
{ACAD_REACTORS
330
1BA
102
}
330
1BA
100
AcDbXrecord
280
     1
102
DISPLAYNAME
  1
Imperial24
102
FLAGS
 90
        0
  0
XRECORD
  5
B6
102
{ACAD_REACTORS
330
B4
102
}
330
B4
100
AcDbXrecord
280
     1
270
     1
271
     1
  0
XRECORD
  5
B5
102
{ACAD_REACTORS
330
B4
102
}
330
B4
100
AcDbXrecord
280
     1
270
     1
271
     1
  0
XRECORD
  5
B9
102
{ACAD_REACTORS
330
B4
102
}
330
B4
100
AcDbXrecord
280
     1
270
     1
271
     1
  0
XRECORD
  5
B8
102
{ACAD_REACTORS
330
B4
102
}
330
B4
100
AcDbXrecord
280
     1
270
     1
271
     1
  0
XRECORD
  5
BA
102
{ACAD_REACTORS
330
B4
102
}
330
B4
100
AcDbXrecord
280
     1
270
     1
271
     1
  0
XRECORD
  5
B7
102
{ACAD_REACTORS
330
B4
102
}
330
B4
100
AcDbXrecord
280
     1
270
     1
271
     1
  0
XRECORD
  5
AE
102
{ACAD_REACTORS
330
AC
102
}
330
AC
100
AcDbXrecord
280
     1
270
     1
271
     1
  0
XRECORD
  5
AD
102
{ACAD_REACTORS
330
AC
102
}
330
AC
100
AcDbXrecord
280
     1
270
     1
271
     1
  0
XRECORD
  5
B1
102
{ACAD_REACTORS
330
AC
102
}
330
AC
100
AcDbXrecord
280
     1
270
     1
271
     1
  0
XRECORD
  5
B0
102
{ACAD_REACTORS
330
AC
102
}
330
AC
100
AcDbXrecord
280
     1
270
     1
271
     1
  0
XRECORD
  5
B2
102
{ACAD_REACTORS
330
AC
102
}
330
AC
100
AcDbXrecord
280
     1
270
     1
271
     1
  0
XRECORD
  5
AF
102
{ACAD_REACTORS
330
AC
102
}
330
AC
100
AcDbXrecord
280
     1
270
     1
271
     1
  0
XRECORD
  5
BE
102
{ACAD_REACTORS
330
BC
102
}
330
BC
100
AcDbXrecord
280
     1
270
     1
271
     1
  0
XRECORD
  5
BD
102
{ACAD_REACTORS
330
BC
102
}
330
BC
100
AcDbXrecord
280
     1
270
     1
271
     1
  0
XRECORD
  5
C1
102
{ACAD_REACTORS
330
BC
102
}
330
BC
100
AcDbXrecord
280
     1
270
     1
271
     1
  0
XRECORD
  5
C0
102
{ACAD_REACTORS
330
BC
102
}
330
BC
100
AcDbXrecord
280
     1
270
     1
271
     1
  0
XRECORD
  5
C2
102
{ACAD_REACTORS
330
BC
102
}
330
BC
100
AcDbXrecord
280
     1
270
     1
271
     1
  0
XRECORD
  5
BF
102
{ACAD_REACTORS
330
BC
102
}
330
BC
100
AcDbXrecord
280
     1
270
     1
271
     1
  0
XRECORD
  5
1B7
102
{ACAD_REACTORS
330
1B6
102
}
330
1B6
100
AcDbXrecord
280
     1
102
ACAD_ROUNDTRIP_2012_MLEADER_STYLE
298
     1
  0
XRECORD
  5
1B9
102
{ACAD_REACTORS
330
1B8
102
}
330
1B8
100
AcDbXrecord
280
     1
102
DISPLAYNAME
  1
Imperial24
102
FLAGS
 90
        0
  0
CELLSTYLEMAP
  5
184
102
{ACAD_REACTORS
330
183
102
}
330
183
100
AcDbCellStyleMap
 90
        3
300
CELLSTYLE
  1
TABLEFORMAT_BEGIN
 90
        5
170
     1
 91
        0
 92
    32768
 62
   257
 93
        1
300
CONTENTFORMAT
  1
CONTENTFORMAT_BEGIN
 90
        0
 91
        0
 92
      512
 93
        0
300

 40
0.0
140
1.0
 94
        5
 62
     0
340
11
144
0.25
309
CONTENTFORMAT_END
171
     0
 94
        0
309
TABLEFORMAT_END
  1
CELLSTYLE_BEGIN
 90
        1
 91
        1
300
_TITLE
309
CELLSTYLE_END
300
CELLSTYLE
  1
TABLEFORMAT_BEGIN
 90
        5
170
     1
 91
        0
 92
        0
 62
   257
 93
        1
300
CONTENTFORMAT
  1
CONTENTFORMAT_BEGIN
 90
        0
 91
        0
 92
      512
 93
        0
300

 40
0.0
140
1.0
 94
        5
 62
     0
340
11
144
0.18
309
CONTENTFORMAT_END
171
     0
 94
        0
309
TABLEFORMAT_END
  1
CELLSTYLE_BEGIN
 90
        2
 91
        1
300
_HEADER
309
CELLSTYLE_END
300
CELLSTYLE
  1
TABLEFORMAT_BEGIN
 90
        5
170
     1
 91
        0
 92
        0
 62
   257
 93
        1
300
CONTENTFORMAT
  1
CONTENTFORMAT_BEGIN
 90
        0
 91
        0
 92
      512
 93
        0
300

 40
0.0
140
1.0
 94
        2
 62
     0
340
11
144
0.18
309
CONTENTFORMAT_END
171
     0
 94
        0
309
TABLEFORMAT_END
  1
CELLSTYLE_BEGIN
 90
        3
 91
        2
300
_DATA
309
CELLSTYLE_END
  0
XRECORD
  5
191
102
{ACAD_REACTORS
330
190
102
}
330
190
100
AcDbXrecord
280
     1
102
RTVSPost2010Prop28
280
     1
102
RTVSPost2010PropOp28
 70
     1
102
RTVSPost2010Prop29
280
     1
102
RTVSPost2010PropOp29
 70
     1
102
RTVSPost2010Prop30
280
     0
102
RTVSPost2010PropOp30
 70
     1
102
RTVSPost2010Prop31
280
     0
102
RTVSPost2010PropOp31
 70
     1
102
RTVSPost2010Prop32
280
     0
102
RTVSPost2010PropOp32
 70
     1
102
RTVSPost2010Prop33
280
     0
102
RTVSPost2010PropOp33
 70
     1
102
RTVSPost2010Prop34
280
     0
102
RTVSPost2010PropOp34
 70
     1
102
RTVSPost2010Prop35
280
     0
102
RTVSPost2010PropOp35
 70
     1
102
RTVSPost2010Prop36
280
     0
102
RTVSPost2010PropOp36
 70
     1
102
RTVSPost2010Prop37
 90
       50
102
RTVSPost2010PropOp37
 70
     1
102
RTVSPost2010Prop38
140
0.0
102
RTVSPost2010PropOp38
 70
     1
102
RTVSPost2010Prop39
140
1.0
102
RTVSPost2010PropOp39
 70
     1
102
RTVSPost2010Prop40
 90
        0
102
RTVSPost2010PropOp40
 70
     1
102
RTVSPost2010Prop41ColorIndex
 90
       18
102
RTVSPost2010Prop41ColorRGB
 90
        0
102
RTVSPost2010PropOp41
 70
     1
102
RTVSPost2010Prop42
 90
       50
102
RTVSPost2010PropOp42
 70
     1
102
RTVSPost2010Prop43
 90
        3
102
RTVSPost2010PropOp43
 70
     1
102
RTVSPost2010Prop44ColorIndex
 90
        5
102
RTVSPost2010Prop44ColorRGB
 90
      255
102
RTVSPost2010PropOp44
 70
     1
102
RTVSPost2010Prop45
280
     0
102
RTVSPost2010PropOp45
 70
     1
102
RTVSPost2010Prop46
 90
       50
102
RTVSPost2010PropOp46
 70
     1
102
RTVSPost2010Prop47
 90
       50
102
RTVSPost2010PropOp47
 70
     1
102
RTVSPost2010Prop48
 90
       50
102
RTVSPost2010PropOp48
 70
     1
102
RTVSPost2010Prop49
280
     0
102
RTVSPost2010PropOp49
 70
     1
102
RTVSPost2010Prop50
 90
       50
102
RTVSPost2010PropOp50
 70
     1
102
RTVSPost2010Prop51ColorIndex
 90
      256
102
RTVSPost2010Prop51ColorRGB
 90
-16777216
102
RTVSPost2010PropOp51
 70
     0
102
RTVSPost2010Prop52
140
1.0
102
RTVSPost2010PropOp52
 70
     0
102
RTVSPost2010Prop53
 90
        2
102
RTVSPost2010PropOp53
 70
     1
102
RTVSPost2010Prop54
  1
strokes_ogs.tif
102
RTVSPost2010PropOp54
 70
     1
102
RTVSPost2010Prop55
280
     0
102
RTVSPost2010PropOp55
 70
     1
102
RTVSPost2010Prop56
140
1.0
102
RTVSPost2010PropOp56
 70
     1
102
RTVSPost2010Prop57
140
1.0
102
RTVSPost2010PropOp57
 70
     1
  0
XRECORD
  5
18F
102
{ACAD_REACTORS
330
18E
102
}
330
18E
100
AcDbXrecord
280
     1
102
RTVSPost2010Prop28
280
     0
102
RTVSPost2010PropOp28
 70
     1
102
RTVSPost2010Prop29
280
     1
102
RTVSPost2010PropOp29
 70
     1
102
RTVSPost2010Prop30
280
     1
102
RTVSPost2010PropOp30
 70
     1
102
RTVSPost2010Prop31
280
     0
102
RTVSPost2010PropOp31
 70
     1
102
RTVSPost2010Prop32
280
     0
102
RTVSPost2010PropOp32
 70
     1
102
RTVSPost2010Prop33
280
     0
102
RTVSPost2010PropOp33
 70
     1
102
RTVSPost2010Prop34
280
     0
102
RTVSPost2010PropOp34
 70
     1
102
RTVSPost2010Prop35
280
     0
102
RTVSPost2010PropOp35
 70
     1
102
RTVSPost2010Prop36
280
     0
102
RTVSPost2010PropOp36
 70
     1
102
RTVSPost2010Prop37
 90
       50
102
RTVSPost2010PropOp37
 70
     1
102
RTVSPost2010Prop38
140
0.0
102
RTVSPost2010PropOp38
 70
     1
102
RTVSPost2010Prop39
140
1.0
102
RTVSPost2010PropOp39
 70
     1
102
RTVSPost2010Prop40
 90
        0
102
RTVSPost2010PropOp40
 70
     1
102
RTVSPost2010Prop41ColorIndex
 90
       18
102
RTVSPost2010Prop41ColorRGB
 90
        0
102
RTVSPost2010PropOp41
 70
     1
102
RTVSPost2010Prop42
 90
       50
102
RTVSPost2010PropOp42
 70
     1
102
RTVSPost2010Prop43
 90
        3
102
RTVSPost2010PropOp43
 70
     1
102
RTVSPost2010Prop44ColorIndex
 90
        5
102
RTVSPost2010Prop44ColorRGB
 90
      255
102
RTVSPost2010PropOp44
 70
     1
102
RTVSPost2010Prop45
280
     0
102
RTVSPost2010PropOp45
 70
     1
102
RTVSPost2010Prop46
 90
       50
102
RTVSPost2010PropOp46
 70
     1
102
RTVSPost2010Prop47
 90
       50
102
RTVSPost2010PropOp47
 70
     1
102
RTVSPost2010Prop48
 90
       50
102
RTVSPost2010PropOp48
 70
     1
102
RTVSPost2010Prop49
280
     0
102
RTVSPost2010PropOp49
 70
     1
102
RTVSPost2010Prop50
 90
       50
102
RTVSPost2010PropOp50
 70
     1
102
RTVSPost2010Prop51ColorIndex
 90
      256
102
RTVSPost2010Prop51ColorRGB
 90
-16777216
102
RTVSPost2010PropOp51
 70
     0
102
RTVSPost2010Prop52
140
1.0
102
RTVSPost2010PropOp52
 70
     0
102
RTVSPost2010Prop53
 90
        2
102
RTVSPost2010PropOp53
 70
     1
102
RTVSPost2010Prop54
  1
strokes_ogs.tif
102
RTVSPost2010PropOp54
 70
     1
102
RTVSPost2010Prop55
280
     0
102
RTVSPost2010PropOp55
 70
     1
102
RTVSPost2010Prop56
140
1.0
102
RTVSPost2010PropOp56
 70
     1
102
RTVSPost2010Prop57
140
1.0
102
RTVSPost2010PropOp57
 70
     1
  0
XRECORD
  5
19D
102
{ACAD_REACTORS
330
19C
102
}
330
19C
100
AcDbXrecord
280
     1
102
RTVSPost2010Prop28
280
     0
102
RTVSPost2010PropOp28
 70
     1
102
RTVSPost2010Prop29
280
     1
102
RTVSPost2010PropOp29
 70
     1
102
RTVSPost2010Prop30
280
     1
102
RTVSPost2010PropOp30
 70
     1
102
RTVSPost2010Prop31
280
     0
102
RTVSPost2010PropOp31
 70
     1
102
RTVSPost2010Prop32
280
     0
102
RTVSPost2010PropOp32
 70
     1
102
RTVSPost2010Prop33
280
     0
102
RTVSPost2010PropOp33
 70
     1
102
RTVSPost2010Prop34
280
     0
102
RTVSPost2010PropOp34
 70
     1
102
RTVSPost2010Prop35
280
     0
102
RTVSPost2010PropOp35
 70
     1
102
RTVSPost2010Prop36
280
     0
102
RTVSPost2010PropOp36
 70
     1
102
RTVSPost2010Prop37
 90
       50
102
RTVSPost2010PropOp37
 70
     1
102
RTVSPost2010Prop38
140
0.0
102
RTVSPost2010PropOp38
 70
     1
102
RTVSPost2010Prop39
140
1.0
102
RTVSPost2010PropOp39
 70
     1
102
RTVSPost2010Prop40
 90
        0
102
RTVSPost2010PropOp40
 70
     1
102
RTVSPost2010Prop41ColorIndex
 90
       18
102
RTVSPost2010Prop41ColorRGB
 90
        0
102
RTVSPost2010PropOp41
 70
     1
102
RTVSPost2010Prop42
 90
       50
102
RTVSPost2010PropOp42
 70
     1
102
RTVSPost2010Prop43
 90
        3
102
RTVSPost2010PropOp43
 70
     1
102
RTVSPost2010Prop44ColorIndex
 90
        5
102
RTVSPost2010Prop44ColorRGB
 90
      255
102
RTVSPost2010PropOp44
 70
     1
102
RTVSPost2010Prop45
280
     0
102
RTVSPost2010PropOp45
 70
     1
102
RTVSPost2010Prop46
 90
       50
102
RTVSPost2010PropOp46
 70
     1
102
RTVSPost2010Prop47
 90
       50
102
RTVSPost2010PropOp47
 70
     1
102
RTVSPost2010Prop48
 90
       50
102
RTVSPost2010PropOp48
 70
     1
102
RTVSPost2010Prop49
280
     0
102
RTVSPost2010PropOp49
 70
     1
102
RTVSPost2010Prop50
 90
       50
102
RTVSPost2010PropOp50
 70
     1
102
RTVSPost2010Prop51ColorIndex
 90
      256
102
RTVSPost2010Prop51ColorRGB
 90
-16777216
102
RTVSPost2010PropOp51
 70
     0
102
RTVSPost2010Prop52
140
1.0
102
RTVSPost2010PropOp52
 70
     0
102
RTVSPost2010Prop53
 90
        2
102
RTVSPost2010PropOp53
 70
     1
102
RTVSPost2010Prop54
  1
strokes_ogs.tif
102
RTVSPost2010PropOp54
 70
     1
102
RTVSPost2010Prop55
280
     0
102
RTVSPost2010PropOp55
 70
     1
102
RTVSPost2010Prop56
140
1.0
102
RTVSPost2010PropOp56
 70
     1
102
RTVSPost2010Prop57
140
1.0
102
RTVSPost2010PropOp57
 70
     1
  0
XRECORD
  5
1A5
102
{ACAD_REACTORS
330
1A4
102
}
330
1A4
100
AcDbXrecord
280
     1
102
RTVSPost2010Prop28
280
     0
102
RTVSPost2010PropOp28
 70
     1
102
RTVSPost2010Prop29
280
     1
102
RTVSPost2010PropOp29
 70
     1
102
RTVSPost2010Prop30
280
     1
102
RTVSPost2010PropOp30
 70
     1
102
RTVSPost2010Prop31
280
     0
102
RTVSPost2010PropOp31
 70
     1
102
RTVSPost2010Prop32
280
     0
102
RTVSPost2010PropOp32
 70
     1
102
RTVSPost2010Prop33
280
     0
102
RTVSPost2010PropOp33
 70
     1
102
RTVSPost2010Prop34
280
     0
102
RTVSPost2010PropOp34
 70
     1
102
RTVSPost2010Prop35
280
     0
102
RTVSPost2010PropOp35
 70
     1
102
RTVSPost2010Prop36
280
     0
102
RTVSPost2010PropOp36
 70
     1
102
RTVSPost2010Prop37
 90
       50
102
RTVSPost2010PropOp37
 70
     1
102
RTVSPost2010Prop38
140
0.0
102
RTVSPost2010PropOp38
 70
     1
102
RTVSPost2010Prop39
140
1.0
102
RTVSPost2010PropOp39
 70
     1
102
RTVSPost2010Prop40
 90
        0
102
RTVSPost2010PropOp40
 70
     1
102
RTVSPost2010Prop41ColorIndex
 90
       18
102
RTVSPost2010Prop41ColorRGB
 90
        0
102
RTVSPost2010PropOp41
 70
     1
102
RTVSPost2010Prop42
 90
       50
102
RTVSPost2010PropOp42
 70
     1
102
RTVSPost2010Prop43
 90
        3
102
RTVSPost2010PropOp43
 70
     1
102
RTVSPost2010Prop44ColorIndex
 90
        5
102
RTVSPost2010Prop44ColorRGB
 90
      255
102
RTVSPost2010PropOp44
 70
     1
102
RTVSPost2010Prop45
280
     0
102
RTVSPost2010PropOp45
 70
     1
102
RTVSPost2010Prop46
 90
       50
102
RTVSPost2010PropOp46
 70
     1
102
RTVSPost2010Prop47
 90
       50
102
RTVSPost2010PropOp47
 70
     1
102
RTVSPost2010Prop48
 90
       50
102
RTVSPost2010PropOp48
 70
     1
102
RTVSPost2010Prop49
280
     0
102
RTVSPost2010PropOp49
 70
     1
102
RTVSPost2010Prop50
 90
       50
102
RTVSPost2010PropOp50
 70
     1
102
RTVSPost2010Prop51ColorIndex
 90
      256
102
RTVSPost2010Prop51ColorRGB
 90
-16777216
102
RTVSPost2010PropOp51
 70
     0
102
RTVSPost2010Prop52
140
1.0
102
RTVSPost2010PropOp52
 70
     0
102
RTVSPost2010Prop53
 90
        2
102
RTVSPost2010PropOp53
 70
     1
102
RTVSPost2010Prop54
  1
strokes_ogs.tif
102
RTVSPost2010PropOp54
 70
     1
102
RTVSPost2010Prop55
280
     0
102
RTVSPost2010PropOp55
 70
     1
102
RTVSPost2010Prop56
140
1.0
102
RTVSPost2010PropOp56
 70
     1
102
RTVSPost2010Prop57
140
1.0
102
RTVSPost2010PropOp57
 70
     1
  0
XRECORD
  5
197
102
{ACAD_REACTORS
330
196
102
}
330
196
100
AcDbXrecord
280
     1
102
RTVSPost2010Prop28
280
     0
102
RTVSPost2010PropOp28
 70
     1
102
RTVSPost2010Prop29
280
     1
102
RTVSPost2010PropOp29
 70
     1
102
RTVSPost2010Prop30
280
     1
102
RTVSPost2010PropOp30
 70
     1
102
RTVSPost2010Prop31
280
     0
102
RTVSPost2010PropOp31
 70
     1
102
RTVSPost2010Prop32
280
     0
102
RTVSPost2010PropOp32
 70
     1
102
RTVSPost2010Prop33
280
     0
102
RTVSPost2010PropOp33
 70
     1
102
RTVSPost2010Prop34
280
     0
102
RTVSPost2010PropOp34
 70
     1
102
RTVSPost2010Prop35
280
     0
102
RTVSPost2010PropOp35
 70
     1
102
RTVSPost2010Prop36
280
     0
102
RTVSPost2010PropOp36
 70
     1
102
RTVSPost2010Prop37
 90
       50
102
RTVSPost2010PropOp37
 70
     1
102
RTVSPost2010Prop38
140
0.0
102
RTVSPost2010PropOp38
 70
     1
102
RTVSPost2010Prop39
140
1.0
102
RTVSPost2010PropOp39
 70
     1
102
RTVSPost2010Prop40
 90
        0
102
RTVSPost2010PropOp40
 70
     1
102
RTVSPost2010Prop41ColorIndex
 90
       18
102
RTVSPost2010Prop41ColorRGB
 90
        0
102
RTVSPost2010PropOp41
 70
     1
102
RTVSPost2010Prop42
 90
       50
102
RTVSPost2010PropOp42
 70
     1
102
RTVSPost2010Prop43
 90
        3
102
RTVSPost2010PropOp43
 70
     1
102
RTVSPost2010Prop44ColorIndex
 90
        5
102
RTVSPost2010Prop44ColorRGB
 90
      255
102
RTVSPost2010PropOp44
 70
     1
102
RTVSPost2010Prop45
280
     0
102
RTVSPost2010PropOp45
 70
     1
102
RTVSPost2010Prop46
 90
       50
102
RTVSPost2010PropOp46
 70
     1
102
RTVSPost2010Prop47
 90
       50
102
RTVSPost2010PropOp47
 70
     1
102
RTVSPost2010Prop48
 90
       50
102
RTVSPost2010PropOp48
 70
     1
102
RTVSPost2010Prop49
280
     0
102
RTVSPost2010PropOp49
 70
     1
102
RTVSPost2010Prop50
 90
       50
102
RTVSPost2010PropOp50
 70
     1
102
RTVSPost2010Prop51ColorIndex
 90
      256
102
RTVSPost2010Prop51ColorRGB
 90
-16777216
102
RTVSPost2010PropOp51
 70
     0
102
RTVSPost2010Prop52
140
1.0
102
RTVSPost2010PropOp52
 70
     0
102
RTVSPost2010Prop53
 90
        2
102
RTVSPost2010PropOp53
 70
     1
102
RTVSPost2010Prop54
  1
strokes_ogs.tif
102
RTVSPost2010PropOp54
 70
     1
102
RTVSPost2010Prop55
280
     0
102
RTVSPost2010PropOp55
 70
     1
102
RTVSPost2010Prop56
140
1.0
102
RTVSPost2010PropOp56
 70
     1
102
RTVSPost2010Prop57
140
1.0
102
RTVSPost2010PropOp57
 70
     1
  0
XRECORD
  5
19B
102
{ACAD_REACTORS
330
19A
102
}
330
19A
100
AcDbXrecord
280
     1
102
RTVSPost2010Prop28
280
     0
102
RTVSPost2010PropOp28
 70
     1
102
RTVSPost2010Prop29
280
     1
102
RTVSPost2010PropOp29
 70
     1
102
RTVSPost2010Prop30
280
     1
102
RTVSPost2010PropOp30
 70
     1
102
RTVSPost2010Prop31
280
     0
102
RTVSPost2010PropOp31
 70
     1
102
RTVSPost2010Prop32
280
     0
102
RTVSPost2010PropOp32
 70
     1
102
RTVSPost2010Prop33
280
     0
102
RTVSPost2010PropOp33
 70
     1
102
RTVSPost2010Prop34
280
     0
102
RTVSPost2010PropOp34
 70
     1
102
RTVSPost2010Prop35
280
     0
102
RTVSPost2010PropOp35
 70
     1
102
RTVSPost2010Prop36
280
     0
102
RTVSPost2010PropOp36
 70
     1
102
RTVSPost2010Prop37
 90
       50
102
RTVSPost2010PropOp37
 70
     1
102
RTVSPost2010Prop38
140
0.0
102
RTVSPost2010PropOp38
 70
     1
102
RTVSPost2010Prop39
140
1.0
102
RTVSPost2010PropOp39
 70
     1
102
RTVSPost2010Prop40
 90
        0
102
RTVSPost2010PropOp40
 70
     1
102
RTVSPost2010Prop41ColorIndex
 90
       18
102
RTVSPost2010Prop41ColorRGB
 90
        0
102
RTVSPost2010PropOp41
 70
     1
102
RTVSPost2010Prop42
 90
       50
102
RTVSPost2010PropOp42
 70
     1
102
RTVSPost2010Prop43
 90
        3
102
RTVSPost2010PropOp43
 70
     1
102
RTVSPost2010Prop44ColorIndex
 90
        5
102
RTVSPost2010Prop44ColorRGB
 90
      255
102
RTVSPost2010PropOp44
 70
     1
102
RTVSPost2010Prop45
280
     0
102
RTVSPost2010PropOp45
 70
     1
102
RTVSPost2010Prop46
 90
       50
102
RTVSPost2010PropOp46
 70
     1
102
RTVSPost2010Prop47
 90
       50
102
RTVSPost2010PropOp47
 70
     1
102
RTVSPost2010Prop48
 90
       50
102
RTVSPost2010PropOp48
 70
     1
102
RTVSPost2010Prop49
280
     0
102
RTVSPost2010PropOp49
 70
     1
102
RTVSPost2010Prop50
 90
       50
102
RTVSPost2010PropOp50
 70
     1
102
RTVSPost2010Prop51ColorIndex
 90
      256
102
RTVSPost2010Prop51ColorRGB
 90
-16777216
102
RTVSPost2010PropOp51
 70
     0
102
RTVSPost2010Prop52
140
1.0
102
RTVSPost2010PropOp52
 70
     0
102
RTVSPost2010Prop53
 90
        2
102
RTVSPost2010PropOp53
 70
     1
102
RTVSPost2010Prop54
  1
strokes_ogs.tif
102
RTVSPost2010PropOp54
 70
     1
102
RTVSPost2010Prop55
280
     0
102
RTVSPost2010PropOp55
 70
     1
102
RTVSPost2010Prop56
140
1.0
102
RTVSPost2010PropOp56
 70
     1
102
RTVSPost2010Prop57
140
1.0
102
RTVSPost2010PropOp57
 70
     1
  0
XRECORD
  5
1B5
102
{ACAD_REACTORS
330
1B4
102
}
330
1B4
100
AcDbXrecord
280
     1
102
RTVSPost2010Prop28
280
     0
102
RTVSPost2010PropOp28
 70
     0
102
RTVSPost2010Prop29
280
     1
102
RTVSPost2010PropOp29
 70
     0
102
RTVSPost2010Prop30
280
     1
102
RTVSPost2010PropOp30
 70
     0
102
RTVSPost2010Prop31
280
     0
102
RTVSPost2010PropOp31
 70
     0
102
RTVSPost2010Prop32
280
     0
102
RTVSPost2010PropOp32
 70
     0
102
RTVSPost2010Prop33
280
     0
102
RTVSPost2010PropOp33
 70
     0
102
RTVSPost2010Prop34
280
     0
102
RTVSPost2010PropOp34
 70
     0
102
RTVSPost2010Prop35
280
     0
102
RTVSPost2010PropOp35
 70
     0
102
RTVSPost2010Prop36
280
     0
102
RTVSPost2010PropOp36
 70
     0
102
RTVSPost2010Prop37
 90
       50
102
RTVSPost2010PropOp37
 70
     0
102
RTVSPost2010Prop38
140
0.0
102
RTVSPost2010PropOp38
 70
     0
102
RTVSPost2010Prop39
140
1.0
102
RTVSPost2010PropOp39
 70
     0
102
RTVSPost2010Prop40
 90
        0
102
RTVSPost2010PropOp40
 70
     0
102
RTVSPost2010Prop41ColorIndex
 90
       18
102
RTVSPost2010Prop41ColorRGB
 90
        0
102
RTVSPost2010PropOp41
 70
     0
102
RTVSPost2010Prop42
 90
       50
102
RTVSPost2010PropOp42
 70
     0
102
RTVSPost2010Prop43
 90
        3
102
RTVSPost2010PropOp43
 70
     0
102
RTVSPost2010Prop44ColorIndex
 90
        5
102
RTVSPost2010Prop44ColorRGB
 90
      255
102
RTVSPost2010PropOp44
 70
     0
102
RTVSPost2010Prop45
280
     0
102
RTVSPost2010PropOp45
 70
     0
102
RTVSPost2010Prop46
 90
       50
102
RTVSPost2010PropOp46
 70
     0
102
RTVSPost2010Prop47
 90
       50
102
RTVSPost2010PropOp47
 70
     0
102
RTVSPost2010Prop48
 90
       50
102
RTVSPost2010PropOp48
 70
     0
102
RTVSPost2010Prop49
280
     0
102
RTVSPost2010PropOp49
 70
     0
102
RTVSPost2010Prop50
 90
       50
102
RTVSPost2010PropOp50
 70
     0
102
RTVSPost2010Prop51ColorIndex
 90
      256
102
RTVSPost2010Prop51ColorRGB
 90
-16777216
102
RTVSPost2010PropOp51
 70
     0
102
RTVSPost2010Prop52
140
1.0
102
RTVSPost2010PropOp52
 70
     0
102
RTVSPost2010Prop53
 90
        2
102
RTVSPost2010PropOp53
 70
     0
102
RTVSPost2010Prop54
  1
strokes_ogs.tif
102
RTVSPost2010PropOp54
 70
     0
102
RTVSPost2010Prop55
280
     0
102
RTVSPost2010PropOp55
 70
     0
102
RTVSPost2010Prop56
140
1.0
102
RTVSPost2010PropOp56
 70
     0
102
RTVSPost2010Prop57
140
1.0
102
RTVSPost2010PropOp57
 70
     0
  0
XRECORD
  5
1A3
102
{ACAD_REACTORS
330
1A2
102
}
330
1A2
100
AcDbXrecord
280
     1
102
RTVSPost2010Prop28
280
     0
102
RTVSPost2010PropOp28
 70
     1
102
RTVSPost2010Prop29
280
     1
102
RTVSPost2010PropOp29
 70
     1
102
RTVSPost2010Prop30
280
     1
102
RTVSPost2010PropOp30
 70
     1
102
RTVSPost2010Prop31
280
     0
102
RTVSPost2010PropOp31
 70
     1
102
RTVSPost2010Prop32
280
     0
102
RTVSPost2010PropOp32
 70
     1
102
RTVSPost2010Prop33
280
     0
102
RTVSPost2010PropOp33
 70
     1
102
RTVSPost2010Prop34
280
     0
102
RTVSPost2010PropOp34
 70
     1
102
RTVSPost2010Prop35
280
     0
102
RTVSPost2010PropOp35
 70
     1
102
RTVSPost2010Prop36
280
     0
102
RTVSPost2010PropOp36
 70
     1
102
RTVSPost2010Prop37
 90
       50
102
RTVSPost2010PropOp37
 70
     1
102
RTVSPost2010Prop38
140
0.0
102
RTVSPost2010PropOp38
 70
     1
102
RTVSPost2010Prop39
140
1.0
102
RTVSPost2010PropOp39
 70
     1
102
RTVSPost2010Prop40
 90
        0
102
RTVSPost2010PropOp40
 70
     1
102
RTVSPost2010Prop41ColorIndex
 90
       18
102
RTVSPost2010Prop41ColorRGB
 90
        0
102
RTVSPost2010PropOp41
 70
     1
102
RTVSPost2010Prop42
 90
       50
102
RTVSPost2010PropOp42
 70
     1
102
RTVSPost2010Prop43
 90
        3
102
RTVSPost2010PropOp43
 70
     1
102
RTVSPost2010Prop44ColorIndex
 90
        5
102
RTVSPost2010Prop44ColorRGB
 90
      255
102
RTVSPost2010PropOp44
 70
     1
102
RTVSPost2010Prop45
280
     0
102
RTVSPost2010PropOp45
 70
     1
102
RTVSPost2010Prop46
 90
       50
102
RTVSPost2010PropOp46
 70
     1
102
RTVSPost2010Prop47
 90
       50
102
RTVSPost2010PropOp47
 70
     1
102
RTVSPost2010Prop48
 90
       50
102
RTVSPost2010PropOp48
 70
     1
102
RTVSPost2010Prop49
280
     0
102
RTVSPost2010PropOp49
 70
     1
102
RTVSPost2010Prop50
 90
       50
102
RTVSPost2010PropOp50
 70
     1
102
RTVSPost2010Prop51ColorIndex
 90
      256
102
RTVSPost2010Prop51ColorRGB
 90
-16777216
102
RTVSPost2010PropOp51
 70
     0
102
RTVSPost2010Prop52
140
1.0
102
RTVSPost2010PropOp52
 70
     0
102
RTVSPost2010Prop53
 90
        2
102
RTVSPost2010PropOp53
 70
     1
102
RTVSPost2010Prop54
  1
strokes_ogs.tif
102
RTVSPost2010PropOp54
 70
     1
102
RTVSPost2010Prop55
280
     0
102
RTVSPost2010PropOp55
 70
     1
102
RTVSPost2010Prop56
140
1.0
102
RTVSPost2010PropOp56
 70
     1
102
RTVSPost2010Prop57
140
1.0
102
RTVSPost2010PropOp57
 70
     1
  0
XRECORD
  5
187
102
{ACAD_REACTORS
330
186
102
}
330
186
100
AcDbXrecord
280
     1
102
RTVSPost2010Prop28
280
     0
102
RTVSPost2010PropOp28
 70
     1
102
RTVSPost2010Prop29
280
     1
102
RTVSPost2010PropOp29
 70
     1
102
RTVSPost2010Prop30
280
     1
102
RTVSPost2010PropOp30
 70
     1
102
RTVSPost2010Prop31
280
     0
102
RTVSPost2010PropOp31
 70
     1
102
RTVSPost2010Prop32
280
     0
102
RTVSPost2010PropOp32
 70
     1
102
RTVSPost2010Prop33
280
     0
102
RTVSPost2010PropOp33
 70
     1
102
RTVSPost2010Prop34
280
     0
102
RTVSPost2010PropOp34
 70
     1
102
RTVSPost2010Prop35
280
     0
102
RTVSPost2010PropOp35
 70
     1
102
RTVSPost2010Prop36
280
     0
102
RTVSPost2010PropOp36
 70
     1
102
RTVSPost2010Prop37
 90
       50
102
RTVSPost2010PropOp37
 70
     1
102
RTVSPost2010Prop38
140
0.0
102
RTVSPost2010PropOp38
 70
     1
102
RTVSPost2010Prop39
140
1.0
102
RTVSPost2010PropOp39
 70
     1
102
RTVSPost2010Prop40
 90
        0
102
RTVSPost2010PropOp40
 70
     1
102
RTVSPost2010Prop41ColorIndex
 90
       18
102
RTVSPost2010Prop41ColorRGB
 90
        0
102
RTVSPost2010PropOp41
 70
     1
102
RTVSPost2010Prop42
 90
       50
102
RTVSPost2010PropOp42
 70
     1
102
RTVSPost2010Prop43
 90
        3
102
RTVSPost2010PropOp43
 70
     1
102
RTVSPost2010Prop44ColorIndex
 90
        5
102
RTVSPost2010Prop44ColorRGB
 90
      255
102
RTVSPost2010PropOp44
 70
     1
102
RTVSPost2010Prop45
280
     0
102
RTVSPost2010PropOp45
 70
     1
102
RTVSPost2010Prop46
 90
       50
102
RTVSPost2010PropOp46
 70
     1
102
RTVSPost2010Prop47
 90
       50
102
RTVSPost2010PropOp47
 70
     1
102
RTVSPost2010Prop48
 90
       50
102
RTVSPost2010PropOp48
 70
     1
102
RTVSPost2010Prop49
280
     0
102
RTVSPost2010PropOp49
 70
     1
102
RTVSPost2010Prop50
 90
       50
102
RTVSPost2010PropOp50
 70
     1
102
RTVSPost2010Prop51ColorIndex
 90
      256
102
RTVSPost2010Prop51ColorRGB
 90
-16777216
102
RTVSPost2010PropOp51
 70
     0
102
RTVSPost2010Prop52
140
1.0
102
RTVSPost2010PropOp52
 70
     0
102
RTVSPost2010Prop53
 90
        2
102
RTVSPost2010PropOp53
 70
     1
102
RTVSPost2010Prop54
  1
strokes_ogs.tif
102
RTVSPost2010PropOp54
 70
     1
102
RTVSPost2010Prop55
280
     0
102
RTVSPost2010PropOp55
 70
     1
102
RTVSPost2010Prop56
140
1.0
102
RTVSPost2010PropOp56
 70
     1
102
RTVSPost2010Prop57
140
1.0
102
RTVSPost2010PropOp57
 70
     1
  0
XRECORD
  5
189
102
{ACAD_REACTORS
330
188
102
}
330
188
100
AcDbXrecord
280
     1
102
RTVSPost2010Prop28
280
     0
102
RTVSPost2010PropOp28
 70
     1
102
RTVSPost2010Prop29
280
     1
102
RTVSPost2010PropOp29
 70
     1
102
RTVSPost2010Prop30
280
     1
102
RTVSPost2010PropOp30
 70
     1
102
RTVSPost2010Prop31
280
     0
102
RTVSPost2010PropOp31
 70
     1
102
RTVSPost2010Prop32
280
     0
102
RTVSPost2010PropOp32
 70
     1
102
RTVSPost2010Prop33
280
     0
102
RTVSPost2010PropOp33
 70
     1
102
RTVSPost2010Prop34
280
     0
102
RTVSPost2010PropOp34
 70
     1
102
RTVSPost2010Prop35
280
     0
102
RTVSPost2010PropOp35
 70
     1
102
RTVSPost2010Prop36
280
     0
102
RTVSPost2010PropOp36
 70
     1
102
RTVSPost2010Prop37
 90
       50
102
RTVSPost2010PropOp37
 70
     1
102
RTVSPost2010Prop38
140
0.0
102
RTVSPost2010PropOp38
 70
     1
102
RTVSPost2010Prop39
140
1.0
102
RTVSPost2010PropOp39
 70
     1
102
RTVSPost2010Prop40
 90
        0
102
RTVSPost2010PropOp40
 70
     1
102
RTVSPost2010Prop41ColorIndex
 90
       18
102
RTVSPost2010Prop41ColorRGB
 90
        0
102
RTVSPost2010PropOp41
 70
     1
102
RTVSPost2010Prop42
 90
       50
102
RTVSPost2010PropOp42
 70
     1
102
RTVSPost2010Prop43
 90
        3
102
RTVSPost2010PropOp43
 70
     1
102
RTVSPost2010Prop44ColorIndex
 90
        5
102
RTVSPost2010Prop44ColorRGB
 90
      255
102
RTVSPost2010PropOp44
 70
     1
102
RTVSPost2010Prop45
280
     0
102
RTVSPost2010PropOp45
 70
     1
102
RTVSPost2010Prop46
 90
       50
102
RTVSPost2010PropOp46
 70
     1
102
RTVSPost2010Prop47
 90
       50
102
RTVSPost2010PropOp47
 70
     1
102
RTVSPost2010Prop48
 90
       50
102
RTVSPost2010PropOp48
 70
     1
102
RTVSPost2010Prop49
280
     0
102
RTVSPost2010PropOp49
 70
     1
102
RTVSPost2010Prop50
 90
       50
102
RTVSPost2010PropOp50
 70
     1
102
RTVSPost2010Prop51ColorIndex
 90
      256
102
RTVSPost2010Prop51ColorRGB
 90
-16777216
102
RTVSPost2010PropOp51
 70
     0
102
RTVSPost2010Prop52
140
1.0
102
RTVSPost2010PropOp52
 70
     0
102
RTVSPost2010Prop53
 90
        2
102
RTVSPost2010PropOp53
 70
     1
102
RTVSPost2010Prop54
  1
strokes_ogs.tif
102
RTVSPost2010PropOp54
 70
     1
102
RTVSPost2010Prop55
280
     0
102
RTVSPost2010PropOp55
 70
     1
102
RTVSPost2010Prop56
140
1.0
102
RTVSPost2010PropOp56
 70
     1
102
RTVSPost2010Prop57
140
1.0
102
RTVSPost2010PropOp57
 70
     1
  0
XRECORD
  5
18B
102
{ACAD_REACTORS
330
18A
102
}
330
18A
100
AcDbXrecord
280
     1
102
RTVSPost2010Prop28
280
     0
102
RTVSPost2010PropOp28
 70
     1
102
RTVSPost2010Prop29
280
     1
102
RTVSPost2010PropOp29
 70
     1
102
RTVSPost2010Prop30
280
     1
102
RTVSPost2010PropOp30
 70
     1
102
RTVSPost2010Prop31
280
     0
102
RTVSPost2010PropOp31
 70
     1
102
RTVSPost2010Prop32
280
     0
102
RTVSPost2010PropOp32
 70
     1
102
RTVSPost2010Prop33
280
     0
102
RTVSPost2010PropOp33
 70
     1
102
RTVSPost2010Prop34
280
     0
102
RTVSPost2010PropOp34
 70
     1
102
RTVSPost2010Prop35
280
     0
102
RTVSPost2010PropOp35
 70
     1
102
RTVSPost2010Prop36
280
     0
102
RTVSPost2010PropOp36
 70
     1
102
RTVSPost2010Prop37
 90
       50
102
RTVSPost2010PropOp37
 70
     1
102
RTVSPost2010Prop38
140
0.0
102
RTVSPost2010PropOp38
 70
     1
102
RTVSPost2010Prop39
140
1.0
102
RTVSPost2010PropOp39
 70
     1
102
RTVSPost2010Prop40
 90
        0
102
RTVSPost2010PropOp40
 70
     1
102
RTVSPost2010Prop41ColorIndex
 90
       18
102
RTVSPost2010Prop41ColorRGB
 90
        0
102
RTVSPost2010PropOp41
 70
     1
102
RTVSPost2010Prop42
 90
       50
102
RTVSPost2010PropOp42
 70
     1
102
RTVSPost2010Prop43
 90
        3
102
RTVSPost2010PropOp43
 70
     1
102
RTVSPost2010Prop44ColorIndex
 90
        5
102
RTVSPost2010Prop44ColorRGB
 90
      255
102
RTVSPost2010PropOp44
 70
     1
102
RTVSPost2010Prop45
280
     0
102
RTVSPost2010PropOp45
 70
     1
102
RTVSPost2010Prop46
 90
       50
102
RTVSPost2010PropOp46
 70
     1
102
RTVSPost2010Prop47
 90
       50
102
RTVSPost2010PropOp47
 70
     1
102
RTVSPost2010Prop48
 90
       50
102
RTVSPost2010PropOp48
 70
     1
102
RTVSPost2010Prop49
280
     0
102
RTVSPost2010PropOp49
 70
     1
102
RTVSPost2010Prop50
 90
       50
102
RTVSPost2010PropOp50
 70
     1
102
RTVSPost2010Prop51ColorIndex
 90
      256
102
RTVSPost2010Prop51ColorRGB
 90
-16777216
102
RTVSPost2010PropOp51
 70
     0
102
RTVSPost2010Prop52
140
1.0
102
RTVSPost2010PropOp52
 70
     0
102
RTVSPost2010Prop53
 90
        2
102
RTVSPost2010PropOp53
 70
     1
102
RTVSPost2010Prop54
  1
strokes_ogs.tif
102
RTVSPost2010PropOp54
 70
     1
102
RTVSPost2010Prop55
280
     0
102
RTVSPost2010PropOp55
 70
     1
102
RTVSPost2010Prop56
140
1.0
102
RTVSPost2010PropOp56
 70
     1
102
RTVSPost2010Prop57
140
1.0
102
RTVSPost2010PropOp57
 70
     1
  0
XRECORD
  5
18D
102
{ACAD_REACTORS
330
18C
102
}
330
18C
100
AcDbXrecord
280
     1
102
RTVSPost2010Prop28
280
     0
102
RTVSPost2010PropOp28
 70
     1
102
RTVSPost2010Prop29
280
     1
102
RTVSPost2010PropOp29
 70
     1
102
RTVSPost2010Prop30
280
     1
102
RTVSPost2010PropOp30
 70
     1
102
RTVSPost2010Prop31
280
     0
102
RTVSPost2010PropOp31
 70
     1
102
RTVSPost2010Prop32
280
     0
102
RTVSPost2010PropOp32
 70
     1
102
RTVSPost2010Prop33
280
     0
102
RTVSPost2010PropOp33
 70
     1
102
RTVSPost2010Prop34
280
     0
102
RTVSPost2010PropOp34
 70
     1
102
RTVSPost2010Prop35
280
     0
102
RTVSPost2010PropOp35
 70
     1
102
RTVSPost2010Prop36
280
     0
102
RTVSPost2010PropOp36
 70
     1
102
RTVSPost2010Prop37
 90
       50
102
RTVSPost2010PropOp37
 70
     1
102
RTVSPost2010Prop38
140
0.0
102
RTVSPost2010PropOp38
 70
     1
102
RTVSPost2010Prop39
140
1.0
102
RTVSPost2010PropOp39
 70
     1
102
RTVSPost2010Prop40
 90
        0
102
RTVSPost2010PropOp40
 70
     1
102
RTVSPost2010Prop41ColorIndex
 90
       18
102
RTVSPost2010Prop41ColorRGB
 90
        0
102
RTVSPost2010PropOp41
 70
     1
102
RTVSPost2010Prop42
 90
       50
102
RTVSPost2010PropOp42
 70
     1
102
RTVSPost2010Prop43
 90
        3
102
RTVSPost2010PropOp43
 70
     1
102
RTVSPost2010Prop44ColorIndex
 90
        5
102
RTVSPost2010Prop44ColorRGB
 90
      255
102
RTVSPost2010PropOp44
 70
     1
102
RTVSPost2010Prop45
280
     0
102
RTVSPost2010PropOp45
 70
     1
102
RTVSPost2010Prop46
 90
       50
102
RTVSPost2010PropOp46
 70
     1
102
RTVSPost2010Prop47
 90
       50
102
RTVSPost2010PropOp47
 70
     1
102
RTVSPost2010Prop48
 90
       50
102
RTVSPost2010PropOp48
 70
     1
102
RTVSPost2010Prop49
280
     0
102
RTVSPost2010PropOp49
 70
     1
102
RTVSPost2010Prop50
 90
       50
102
RTVSPost2010PropOp50
 70
     1
102
RTVSPost2010Prop51ColorIndex
 90
      256
102
RTVSPost2010Prop51ColorRGB
 90
-16777216
102
RTVSPost2010PropOp51
 70
     0
102
RTVSPost2010Prop52
140
1.0
102
RTVSPost2010PropOp52
 70
     0
102
RTVSPost2010Prop53
 90
        2
102
RTVSPost2010PropOp53
 70
     1
102
RTVSPost2010Prop54
  1
strokes_ogs.tif
102
RTVSPost2010PropOp54
 70
     1
102
RTVSPost2010Prop55
280
     0
102
RTVSPost2010PropOp55
 70
     1
102
RTVSPost2010Prop56
140
1.0
102
RTVSPost2010PropOp56
 70
     1
102
RTVSPost2010Prop57
140
1.0
102
RTVSPost2010PropOp57
 70
     1
  0
XRECORD
  5
195
102
{ACAD_REACTORS
330
194
102
}
330
194
100
AcDbXrecord
280
     1
102
RTVSPost2010Prop28
280
     0
102
RTVSPost2010PropOp28
 70
     1
102
RTVSPost2010Prop29
280
     1
102
RTVSPost2010PropOp29
 70
     1
102
RTVSPost2010Prop30
280
     1
102
RTVSPost2010PropOp30
 70
     1
102
RTVSPost2010Prop31
280
     0
102
RTVSPost2010PropOp31
 70
     1
102
RTVSPost2010Prop32
280
     0
102
RTVSPost2010PropOp32
 70
     1
102
RTVSPost2010Prop33
280
     0
102
RTVSPost2010PropOp33
 70
     1
102
RTVSPost2010Prop34
280
     0
102
RTVSPost2010PropOp34
 70
     1
102
RTVSPost2010Prop35
280
     0
102
RTVSPost2010PropOp35
 70
     1
102
RTVSPost2010Prop36
280
     0
102
RTVSPost2010PropOp36
 70
     1
102
RTVSPost2010Prop37
 90
       50
102
RTVSPost2010PropOp37
 70
     1
102
RTVSPost2010Prop38
140
0.0
102
RTVSPost2010PropOp38
 70
     1
102
RTVSPost2010Prop39
140
1.0
102
RTVSPost2010PropOp39
 70
     1
102
RTVSPost2010Prop40
 90
        0
102
RTVSPost2010PropOp40
 70
     1
102
RTVSPost2010Prop41ColorIndex
 90
       18
102
RTVSPost2010Prop41ColorRGB
 90
        0
102
RTVSPost2010PropOp41
 70
     1
102
RTVSPost2010Prop42
 90
       50
102
RTVSPost2010PropOp42
 70
     1
102
RTVSPost2010Prop43
 90
        3
102
RTVSPost2010PropOp43
 70
     1
102
RTVSPost2010Prop44ColorIndex
 90
        5
102
RTVSPost2010Prop44ColorRGB
 90
      255
102
RTVSPost2010PropOp44
 70
     1
102
RTVSPost2010Prop45
280
     0
102
RTVSPost2010PropOp45
 70
     1
102
RTVSPost2010Prop46
 90
       50
102
RTVSPost2010PropOp46
 70
     1
102
RTVSPost2010Prop47
 90
       50
102
RTVSPost2010PropOp47
 70
     1
102
RTVSPost2010Prop48
 90
       50
102
RTVSPost2010PropOp48
 70
     1
102
RTVSPost2010Prop49
280
     0
102
RTVSPost2010PropOp49
 70
     1
102
RTVSPost2010Prop50
 90
       50
102
RTVSPost2010PropOp50
 70
     1
102
RTVSPost2010Prop51ColorIndex
 90
      256
102
RTVSPost2010Prop51ColorRGB
 90
-16777216
102
RTVSPost2010PropOp51
 70
     0
102
RTVSPost2010Prop52
140
1.0
102
RTVSPost2010PropOp52
 70
     0
102
RTVSPost2010Prop53
 90
        2
102
RTVSPost2010PropOp53
 70
     1
102
RTVSPost2010Prop54
  1
strokes_ogs.tif
102
RTVSPost2010PropOp54
 70
     1
102
RTVSPost2010Prop55
280
     0
102
RTVSPost2010PropOp55
 70
     1
102
RTVSPost2010Prop56
140
1.0
102
RTVSPost2010PropOp56
 70
     1
102
RTVSPost2010Prop57
140
1.0
102
RTVSPost2010PropOp57
 70
     1
  0
XRECORD
  5
1B1
102
{ACAD_REACTORS
330
1B0
102
}
330
1B0
100
AcDbXrecord
280
     1
102
RTVSPost2010Prop28
280
     0
102
RTVSPost2010PropOp28
 70
     0
102
RTVSPost2010Prop29
280
     1
102
RTVSPost2010PropOp29
 70
     0
102
RTVSPost2010Prop30
280
     1
102
RTVSPost2010PropOp30
 70
     0
102
RTVSPost2010Prop31
280
     0
102
RTVSPost2010PropOp31
 70
     0
102
RTVSPost2010Prop32
280
     0
102
RTVSPost2010PropOp32
 70
     0
102
RTVSPost2010Prop33
280
     0
102
RTVSPost2010PropOp33
 70
     0
102
RTVSPost2010Prop34
280
     0
102
RTVSPost2010PropOp34
 70
     0
102
RTVSPost2010Prop35
280
     0
102
RTVSPost2010PropOp35
 70
     0
102
RTVSPost2010Prop36
280
     0
102
RTVSPost2010PropOp36
 70
     0
102
RTVSPost2010Prop37
 90
       50
102
RTVSPost2010PropOp37
 70
     0
102
RTVSPost2010Prop38
140
0.0
102
RTVSPost2010PropOp38
 70
     0
102
RTVSPost2010Prop39
140
1.0
102
RTVSPost2010PropOp39
 70
     0
102
RTVSPost2010Prop40
 90
        0
102
RTVSPost2010PropOp40
 70
     0
102
RTVSPost2010Prop41ColorIndex
 90
       18
102
RTVSPost2010Prop41ColorRGB
 90
        0
102
RTVSPost2010PropOp41
 70
     0
102
RTVSPost2010Prop42
 90
       50
102
RTVSPost2010PropOp42
 70
     0
102
RTVSPost2010Prop43
 90
        3
102
RTVSPost2010PropOp43
 70
     0
102
RTVSPost2010Prop44ColorIndex
 90
        5
102
RTVSPost2010Prop44ColorRGB
 90
      255
102
RTVSPost2010PropOp44
 70
     0
102
RTVSPost2010Prop45
280
     0
102
RTVSPost2010PropOp45
 70
     0
102
RTVSPost2010Prop46
 90
       50
102
RTVSPost2010PropOp46
 70
     0
102
RTVSPost2010Prop47
 90
       50
102
RTVSPost2010PropOp47
 70
     0
102
RTVSPost2010Prop48
 90
       50
102
RTVSPost2010PropOp48
 70
     0
102
RTVSPost2010Prop49
280
     0
102
RTVSPost2010PropOp49
 70
     0
102
RTVSPost2010Prop50
 90
       50
102
RTVSPost2010PropOp50
 70
     0
102
RTVSPost2010Prop51ColorIndex
 90
      256
102
RTVSPost2010Prop51ColorRGB
 90
-16777216
102
RTVSPost2010PropOp51
 70
     0
102
RTVSPost2010Prop52
140
1.0
102
RTVSPost2010PropOp52
 70
     0
102
RTVSPost2010Prop53
 90
        2
102
RTVSPost2010PropOp53
 70
     0
102
RTVSPost2010Prop54
  1
strokes_ogs.tif
102
RTVSPost2010PropOp54
 70
     0
102
RTVSPost2010Prop55
280
     0
102
RTVSPost2010PropOp55
 70
     0
102
RTVSPost2010Prop56
140
1.0
102
RTVSPost2010PropOp56
 70
     0
102
RTVSPost2010Prop57
140
1.0
102
RTVSPost2010PropOp57
 70
     0
  0
XRECORD
  5
1A1
102
{ACAD_REACTORS
330
1A0
102
}
330
1A0
100
AcDbXrecord
280
     1
102
RTVSPost2010Prop28
280
     0
102
RTVSPost2010PropOp28
 70
     1
102
RTVSPost2010Prop29
280
     1
102
RTVSPost2010PropOp29
 70
     1
102
RTVSPost2010Prop30
280
     1
102
RTVSPost2010PropOp30
 70
     1
102
RTVSPost2010Prop31
280
     0
102
RTVSPost2010PropOp31
 70
     1
102
RTVSPost2010Prop32
280
     0
102
RTVSPost2010PropOp32
 70
     1
102
RTVSPost2010Prop33
280
     0
102
RTVSPost2010PropOp33
 70
     1
102
RTVSPost2010Prop34
280
     0
102
RTVSPost2010PropOp34
 70
     1
102
RTVSPost2010Prop35
280
     0
102
RTVSPost2010PropOp35
 70
     1
102
RTVSPost2010Prop36
280
     0
102
RTVSPost2010PropOp36
 70
     1
102
RTVSPost2010Prop37
 90
       50
102
RTVSPost2010PropOp37
 70
     1
102
RTVSPost2010Prop38
140
0.0
102
RTVSPost2010PropOp38
 70
     1
102
RTVSPost2010Prop39
140
1.0
102
RTVSPost2010PropOp39
 70
     1
102
RTVSPost2010Prop40
 90
        0
102
RTVSPost2010PropOp40
 70
     1
102
RTVSPost2010Prop41ColorIndex
 90
       18
102
RTVSPost2010Prop41ColorRGB
 90
        0
102
RTVSPost2010PropOp41
 70
     1
102
RTVSPost2010Prop42
 90
       50
102
RTVSPost2010PropOp42
 70
     1
102
RTVSPost2010Prop43
 90
        3
102
RTVSPost2010PropOp43
 70
     1
102
RTVSPost2010Prop44ColorIndex
 90
        5
102
RTVSPost2010Prop44ColorRGB
 90
      255
102
RTVSPost2010PropOp44
 70
     1
102
RTVSPost2010Prop45
280
     0
102
RTVSPost2010PropOp45
 70
     1
102
RTVSPost2010Prop46
 90
       50
102
RTVSPost2010PropOp46
 70
     1
102
RTVSPost2010Prop47
 90
       50
102
RTVSPost2010PropOp47
 70
     1
102
RTVSPost2010Prop48
 90
       50
102
RTVSPost2010PropOp48
 70
     1
102
RTVSPost2010Prop49
280
     0
102
RTVSPost2010PropOp49
 70
     1
102
RTVSPost2010Prop50
 90
       50
102
RTVSPost2010PropOp50
 70
     1
102
RTVSPost2010Prop51ColorIndex
 90
      256
102
RTVSPost2010Prop51ColorRGB
 90
-16777216
102
RTVSPost2010PropOp51
 70
     0
102
RTVSPost2010Prop52
140
1.0
102
RTVSPost2010PropOp52
 70
     0
102
RTVSPost2010Prop53
 90
        2
102
RTVSPost2010PropOp53
 70
     1
102
RTVSPost2010Prop54
  1
strokes_ogs.tif
102
RTVSPost2010PropOp54
 70
     1
102
RTVSPost2010Prop55
280
     0
102
RTVSPost2010PropOp55
 70
     1
102
RTVSPost2010Prop56
140
1.0
102
RTVSPost2010PropOp56
 70
     1
102
RTVSPost2010Prop57
140
1.0
102
RTVSPost2010PropOp57
 70
     1
  0
XRECORD
  5
1B3
102
{ACAD_REACTORS
330
1B2
102
}
330
1B2
100
AcDbXrecord
280
     1
102
RTVSPost2010Prop28
280
     0
102
RTVSPost2010PropOp28
 70
     0
102
RTVSPost2010Prop29
280
     1
102
RTVSPost2010PropOp29
 70
     0
102
RTVSPost2010Prop30
280
     1
102
RTVSPost2010PropOp30
 70
     0
102
RTVSPost2010Prop31
280
     0
102
RTVSPost2010PropOp31
 70
     0
102
RTVSPost2010Prop32
280
     0
102
RTVSPost2010PropOp32
 70
     0
102
RTVSPost2010Prop33
280
     0
102
RTVSPost2010PropOp33
 70
     0
102
RTVSPost2010Prop34
280
     0
102
RTVSPost2010PropOp34
 70
     0
102
RTVSPost2010Prop35
280
     0
102
RTVSPost2010PropOp35
 70
     0
102
RTVSPost2010Prop36
280
     0
102
RTVSPost2010PropOp36
 70
     0
102
RTVSPost2010Prop37
 90
       50
102
RTVSPost2010PropOp37
 70
     0
102
RTVSPost2010Prop38
140
0.0
102
RTVSPost2010PropOp38
 70
     0
102
RTVSPost2010Prop39
140
1.0
102
RTVSPost2010PropOp39
 70
     0
102
RTVSPost2010Prop40
 90
        0
102
RTVSPost2010PropOp40
 70
     0
102
RTVSPost2010Prop41ColorIndex
 90
       18
102
RTVSPost2010Prop41ColorRGB
 90
        0
102
RTVSPost2010PropOp41
 70
     0
102
RTVSPost2010Prop42
 90
       50
102
RTVSPost2010PropOp42
 70
     0
102
RTVSPost2010Prop43
 90
        3
102
RTVSPost2010PropOp43
 70
     0
102
RTVSPost2010Prop44ColorIndex
 90
        5
102
RTVSPost2010Prop44ColorRGB
 90
      255
102
RTVSPost2010PropOp44
 70
     0
102
RTVSPost2010Prop45
280
     0
102
RTVSPost2010PropOp45
 70
     0
102
RTVSPost2010Prop46
 90
       50
102
RTVSPost2010PropOp46
 70
     0
102
RTVSPost2010Prop47
 90
       50
102
RTVSPost2010PropOp47
 70
     0
102
RTVSPost2010Prop48
 90
       50
102
RTVSPost2010PropOp48
 70
     0
102
RTVSPost2010Prop49
280
     0
102
RTVSPost2010PropOp49
 70
     0
102
RTVSPost2010Prop50
 90
       50
102
RTVSPost2010PropOp50
 70
     0
102
RTVSPost2010Prop51ColorIndex
 90
      256
102
RTVSPost2010Prop51ColorRGB
 90
-16777216
102
RTVSPost2010PropOp51
 70
     0
102
RTVSPost2010Prop52
140
1.0
102
RTVSPost2010PropOp52
 70
     0
102
RTVSPost2010Prop53
 90
        2
102
RTVSPost2010PropOp53
 70
     0
102
RTVSPost2010Prop54
  1
strokes_ogs.tif
102
RTVSPost2010PropOp54
 70
     0
102
RTVSPost2010Prop55
280
     0
102
RTVSPost2010PropOp55
 70
     0
102
RTVSPost2010Prop56
140
1.0
102
RTVSPost2010PropOp56
 70
     0
102
RTVSPost2010Prop57
140
1.0
102
RTVSPost2010PropOp57
 70
     0
  0
XRECORD
  5
199
102
{ACAD_REACTORS
330
198
102
}
330
198
100
AcDbXrecord
280
     1
102
RTVSPost2010Prop28
280
     0
102
RTVSPost2010PropOp28
 70
     1
102
RTVSPost2010Prop29
280
     1
102
RTVSPost2010PropOp29
 70
     1
102
RTVSPost2010Prop30
280
     1
102
RTVSPost2010PropOp30
 70
     1
102
RTVSPost2010Prop31
280
     0
102
RTVSPost2010PropOp31
 70
     1
102
RTVSPost2010Prop32
280
     0
102
RTVSPost2010PropOp32
 70
     1
102
RTVSPost2010Prop33
280
     0
102
RTVSPost2010PropOp33
 70
     1
102
RTVSPost2010Prop34
280
     0
102
RTVSPost2010PropOp34
 70
     1
102
RTVSPost2010Prop35
280
     0
102
RTVSPost2010PropOp35
 70
     1
102
RTVSPost2010Prop36
280
     0
102
RTVSPost2010PropOp36
 70
     1
102
RTVSPost2010Prop37
 90
       50
102
RTVSPost2010PropOp37
 70
     1
102
RTVSPost2010Prop38
140
0.0
102
RTVSPost2010PropOp38
 70
     1
102
RTVSPost2010Prop39
140
1.0
102
RTVSPost2010PropOp39
 70
     1
102
RTVSPost2010Prop40
 90
        0
102
RTVSPost2010PropOp40
 70
     1
102
RTVSPost2010Prop41ColorIndex
 90
       18
102
RTVSPost2010Prop41ColorRGB
 90
        0
102
RTVSPost2010PropOp41
 70
     1
102
RTVSPost2010Prop42
 90
       50
102
RTVSPost2010PropOp42
 70
     1
102
RTVSPost2010Prop43
 90
        3
102
RTVSPost2010PropOp43
 70
     1
102
RTVSPost2010Prop44ColorIndex
 90
        5
102
RTVSPost2010Prop44ColorRGB
 90
      255
102
RTVSPost2010PropOp44
 70
     1
102
RTVSPost2010Prop45
280
     0
102
RTVSPost2010PropOp45
 70
     1
102
RTVSPost2010Prop46
 90
       50
102
RTVSPost2010PropOp46
 70
     1
102
RTVSPost2010Prop47
 90
       50
102
RTVSPost2010PropOp47
 70
     1
102
RTVSPost2010Prop48
 90
       50
102
RTVSPost2010PropOp48
 70
     1
102
RTVSPost2010Prop49
280
     0
102
RTVSPost2010PropOp49
 70
     1
102
RTVSPost2010Prop50
 90
       50
102
RTVSPost2010PropOp50
 70
     1
102
RTVSPost2010Prop51ColorIndex
 90
      256
102
RTVSPost2010Prop51ColorRGB
 90
-16777216
102
RTVSPost2010PropOp51
 70
     0
102
RTVSPost2010Prop52
140
1.0
102
RTVSPost2010PropOp52
 70
     0
102
RTVSPost2010Prop53
 90
        2
102
RTVSPost2010PropOp53
 70
     1
102
RTVSPost2010Prop54
  1
strokes_ogs.tif
102
RTVSPost2010PropOp54
 70
     1
102
RTVSPost2010Prop55
280
     0
102
RTVSPost2010PropOp55
 70
     1
102
RTVSPost2010Prop56
140
1.0
102
RTVSPost2010PropOp56
 70
     1
102
RTVSPost2010Prop57
140
1.0
102
RTVSPost2010PropOp57
 70
     1
  0
XRECORD
  5
1AF
102
{ACAD_REACTORS
330
1AE
102
}
330
1AE
100
AcDbXrecord
280
     1
102
RTVSPost2010Prop28
280
     0
102
RTVSPost2010PropOp28
 70
     1
102
RTVSPost2010Prop29
280
     1
102
RTVSPost2010PropOp29
 70
     1
102
RTVSPost2010Prop30
280
     1
102
RTVSPost2010PropOp30
 70
     1
102
RTVSPost2010Prop31
280
     0
102
RTVSPost2010PropOp31
 70
     1
102
RTVSPost2010Prop32
280
     0
102
RTVSPost2010PropOp32
 70
     1
102
RTVSPost2010Prop33
280
     0
102
RTVSPost2010PropOp33
 70
     1
102
RTVSPost2010Prop34
280
     0
102
RTVSPost2010PropOp34
 70
     1
102
RTVSPost2010Prop35
280
     0
102
RTVSPost2010PropOp35
 70
     1
102
RTVSPost2010Prop36
280
     0
102
RTVSPost2010PropOp36
 70
     1
102
RTVSPost2010Prop37
 90
       50
102
RTVSPost2010PropOp37
 70
     1
102
RTVSPost2010Prop38
140
0.0
102
RTVSPost2010PropOp38
 70
     1
102
RTVSPost2010Prop39
140
1.0
102
RTVSPost2010PropOp39
 70
     1
102
RTVSPost2010Prop40
 90
        0
102
RTVSPost2010PropOp40
 70
     1
102
RTVSPost2010Prop41ColorIndex
 90
       18
102
RTVSPost2010Prop41ColorRGB
 90
        0
102
RTVSPost2010PropOp41
 70
     1
102
RTVSPost2010Prop42
 90
       50
102
RTVSPost2010PropOp42
 70
     1
102
RTVSPost2010Prop43
 90
        3
102
RTVSPost2010PropOp43
 70
     1
102
RTVSPost2010Prop44ColorIndex
 90
        5
102
RTVSPost2010Prop44ColorRGB
 90
      255
102
RTVSPost2010PropOp44
 70
     1
102
RTVSPost2010Prop45
280
     0
102
RTVSPost2010PropOp45
 70
     1
102
RTVSPost2010Prop46
 90
       50
102
RTVSPost2010PropOp46
 70
     1
102
RTVSPost2010Prop47
 90
       50
102
RTVSPost2010PropOp47
 70
     1
102
RTVSPost2010Prop48
 90
       50
102
RTVSPost2010PropOp48
 70
     1
102
RTVSPost2010Prop49
280
     0
102
RTVSPost2010PropOp49
 70
     1
102
RTVSPost2010Prop50
 90
       50
102
RTVSPost2010PropOp50
 70
     1
102
RTVSPost2010Prop51ColorIndex
 90
      256
102
RTVSPost2010Prop51ColorRGB
 90
-16777216
102
RTVSPost2010PropOp51
 70
     0
102
RTVSPost2010Prop52
140
1.0
102
RTVSPost2010PropOp52
 70
     0
102
RTVSPost2010Prop53
 90
        2
102
RTVSPost2010PropOp53
 70
     1
102
RTVSPost2010Prop54
  1
strokes_ogs.tif
102
RTVSPost2010PropOp54
 70
     1
102
RTVSPost2010Prop55
280
     0
102
RTVSPost2010PropOp55
 70
     1
102
RTVSPost2010Prop56
140
1.0
102
RTVSPost2010PropOp56
 70
     1
102
RTVSPost2010Prop57
140
1.0
102
RTVSPost2010PropOp57
 70
     1
  0
XRECORD
  5
1AD
102
{ACAD_REACTORS
330
1AC
102
}
330
1AC
100
AcDbXrecord
280
     1
102
RTVSPost2010Prop28
280
     0
102
RTVSPost2010PropOp28
 70
     1
102
RTVSPost2010Prop29
280
     1
102
RTVSPost2010PropOp29
 70
     1
102
RTVSPost2010Prop30
280
     1
102
RTVSPost2010PropOp30
 70
     1
102
RTVSPost2010Prop31
280
     0
102
RTVSPost2010PropOp31
 70
     1
102
RTVSPost2010Prop32
280
     0
102
RTVSPost2010PropOp32
 70
     1
102
RTVSPost2010Prop33
280
     0
102
RTVSPost2010PropOp33
 70
     1
102
RTVSPost2010Prop34
280
     0
102
RTVSPost2010PropOp34
 70
     1
102
RTVSPost2010Prop35
280
     0
102
RTVSPost2010PropOp35
 70
     1
102
RTVSPost2010Prop36
280
     0
102
RTVSPost2010PropOp36
 70
     1
102
RTVSPost2010Prop37
 90
       50
102
RTVSPost2010PropOp37
 70
     1
102
RTVSPost2010Prop38
140
0.0
102
RTVSPost2010PropOp38
 70
     1
102
RTVSPost2010Prop39
140
1.0
102
RTVSPost2010PropOp39
 70
     1
102
RTVSPost2010Prop40
 90
        0
102
RTVSPost2010PropOp40
 70
     1
102
RTVSPost2010Prop41ColorIndex
 90
       18
102
RTVSPost2010Prop41ColorRGB
 90
        0
102
RTVSPost2010PropOp41
 70
     1
102
RTVSPost2010Prop42
 90
       50
102
RTVSPost2010PropOp42
 70
     1
102
RTVSPost2010Prop43
 90
        3
102
RTVSPost2010PropOp43
 70
     1
102
RTVSPost2010Prop44ColorIndex
 90
        5
102
RTVSPost2010Prop44ColorRGB
 90
      255
102
RTVSPost2010PropOp44
 70
     1
102
RTVSPost2010Prop45
280
     0
102
RTVSPost2010PropOp45
 70
     1
102
RTVSPost2010Prop46
 90
       50
102
RTVSPost2010PropOp46
 70
     1
102
RTVSPost2010Prop47
 90
       50
102
RTVSPost2010PropOp47
 70
     1
102
RTVSPost2010Prop48
 90
       50
102
RTVSPost2010PropOp48
 70
     1
102
RTVSPost2010Prop49
280
     0
102
RTVSPost2010PropOp49
 70
     1
102
RTVSPost2010Prop50
 90
       50
102
RTVSPost2010PropOp50
 70
     1
102
RTVSPost2010Prop51ColorIndex
 90
      256
102
RTVSPost2010Prop51ColorRGB
 90
-16777216
102
RTVSPost2010PropOp51
 70
     0
102
RTVSPost2010Prop52
140
1.0
102
RTVSPost2010PropOp52
 70
     0
102
RTVSPost2010Prop53
 90
        2
102
RTVSPost2010PropOp53
 70
     1
102
RTVSPost2010Prop54
  1
strokes_ogs.tif
102
RTVSPost2010PropOp54
 70
     1
102
RTVSPost2010Prop55
280
     0
102
RTVSPost2010PropOp55
 70
     1
102
RTVSPost2010Prop56
140
1.0
102
RTVSPost2010PropOp56
 70
     1
102
RTVSPost2010Prop57
140
1.0
102
RTVSPost2010PropOp57
 70
     1
  0
XRECORD
  5
1A7
102
{ACAD_REACTORS
330
1A6
102
}
330
1A6
100
AcDbXrecord
280
     1
102
RTVSPost2010Prop28
280
     0
102
RTVSPost2010PropOp28
 70
     1
102
RTVSPost2010Prop29
280
     1
102
RTVSPost2010PropOp29
 70
     1
102
RTVSPost2010Prop30
280
     1
102
RTVSPost2010PropOp30
 70
     1
102
RTVSPost2010Prop31
280
     0
102
RTVSPost2010PropOp31
 70
     1
102
RTVSPost2010Prop32
280
     0
102
RTVSPost2010PropOp32
 70
     1
102
RTVSPost2010Prop33
280
     0
102
RTVSPost2010PropOp33
 70
     1
102
RTVSPost2010Prop34
280
     0
102
RTVSPost2010PropOp34
 70
     1
102
RTVSPost2010Prop35
280
     0
102
RTVSPost2010PropOp35
 70
     1
102
RTVSPost2010Prop36
280
     0
102
RTVSPost2010PropOp36
 70
     1
102
RTVSPost2010Prop37
 90
       50
102
RTVSPost2010PropOp37
 70
     1
102
RTVSPost2010Prop38
140
0.0
102
RTVSPost2010PropOp38
 70
     1
102
RTVSPost2010Prop39
140
1.0
102
RTVSPost2010PropOp39
 70
     1
102
RTVSPost2010Prop40
 90
        0
102
RTVSPost2010PropOp40
 70
     1
102
RTVSPost2010Prop41ColorIndex
 90
       18
102
RTVSPost2010Prop41ColorRGB
 90
        0
102
RTVSPost2010PropOp41
 70
     1
102
RTVSPost2010Prop42
 90
       50
102
RTVSPost2010PropOp42
 70
     1
102
RTVSPost2010Prop43
 90
        3
102
RTVSPost2010PropOp43
 70
     1
102
RTVSPost2010Prop44ColorIndex
 90
        5
102
RTVSPost2010Prop44ColorRGB
 90
      255
102
RTVSPost2010PropOp44
 70
     1
102
RTVSPost2010Prop45
280
     0
102
RTVSPost2010PropOp45
 70
     1
102
RTVSPost2010Prop46
 90
       50
102
RTVSPost2010PropOp46
 70
     1
102
RTVSPost2010Prop47
 90
       50
102
RTVSPost2010PropOp47
 70
     1
102
RTVSPost2010Prop48
 90
       50
102
RTVSPost2010PropOp48
 70
     1
102
RTVSPost2010Prop49
280
     0
102
RTVSPost2010PropOp49
 70
     1
102
RTVSPost2010Prop50
 90
       50
102
RTVSPost2010PropOp50
 70
     1
102
RTVSPost2010Prop51ColorIndex
 90
      256
102
RTVSPost2010Prop51ColorRGB
 90
-16777216
102
RTVSPost2010PropOp51
 70
     0
102
RTVSPost2010Prop52
140
1.0
102
RTVSPost2010PropOp52
 70
     0
102
RTVSPost2010Prop53
 90
        2
102
RTVSPost2010PropOp53
 70
     1
102
RTVSPost2010Prop54
  1
strokes_ogs.tif
102
RTVSPost2010PropOp54
 70
     1
102
RTVSPost2010Prop55
280
     0
102
RTVSPost2010PropOp55
 70
     1
102
RTVSPost2010Prop56
140
1.0
102
RTVSPost2010PropOp56
 70
     1
102
RTVSPost2010Prop57
140
1.0
102
RTVSPost2010PropOp57
 70
     1
  0
XRECORD
  5
1A9
102
{ACAD_REACTORS
330
1A8
102
}
330
1A8
100
AcDbXrecord
280
     1
102
RTVSPost2010Prop28
280
     0
102
RTVSPost2010PropOp28
 70
     1
102
RTVSPost2010Prop29
280
     1
102
RTVSPost2010PropOp29
 70
     1
102
RTVSPost2010Prop30
280
     1
102
RTVSPost2010PropOp30
 70
     1
102
RTVSPost2010Prop31
280
     0
102
RTVSPost2010PropOp31
 70
     1
102
RTVSPost2010Prop32
280
     0
102
RTVSPost2010PropOp32
 70
     1
102
RTVSPost2010Prop33
280
     0
102
RTVSPost2010PropOp33
 70
     1
102
RTVSPost2010Prop34
280
     0
102
RTVSPost2010PropOp34
 70
     1
102
RTVSPost2010Prop35
280
     0
102
RTVSPost2010PropOp35
 70
     1
102
RTVSPost2010Prop36
280
     0
102
RTVSPost2010PropOp36
 70
     1
102
RTVSPost2010Prop37
 90
       50
102
RTVSPost2010PropOp37
 70
     1
102
RTVSPost2010Prop38
140
0.0
102
RTVSPost2010PropOp38
 70
     1
102
RTVSPost2010Prop39
140
1.0
102
RTVSPost2010PropOp39
 70
     1
102
RTVSPost2010Prop40
 90
        0
102
RTVSPost2010PropOp40
 70
     1
102
RTVSPost2010Prop41ColorIndex
 90
       18
102
RTVSPost2010Prop41ColorRGB
 90
        0
102
RTVSPost2010PropOp41
 70
     1
102
RTVSPost2010Prop42
 90
       50
102
RTVSPost2010PropOp42
 70
     1
102
RTVSPost2010Prop43
 90
        3
102
RTVSPost2010PropOp43
 70
     1
102
RTVSPost2010Prop44ColorIndex
 90
        5
102
RTVSPost2010Prop44ColorRGB
 90
      255
102
RTVSPost2010PropOp44
 70
     1
102
RTVSPost2010Prop45
280
     0
102
RTVSPost2010PropOp45
 70
     1
102
RTVSPost2010Prop46
 90
       50
102
RTVSPost2010PropOp46
 70
     1
102
RTVSPost2010Prop47
 90
       50
102
RTVSPost2010PropOp47
 70
     1
102
RTVSPost2010Prop48
 90
       50
102
RTVSPost2010PropOp48
 70
     1
102
RTVSPost2010Prop49
280
     0
102
RTVSPost2010PropOp49
 70
     1
102
RTVSPost2010Prop50
 90
       50
102
RTVSPost2010PropOp50
 70
     1
102
RTVSPost2010Prop51ColorIndex
 90
      256
102
RTVSPost2010Prop51ColorRGB
 90
-16777216
102
RTVSPost2010PropOp51
 70
     0
102
RTVSPost2010Prop52
140
1.0
102
RTVSPost2010PropOp52
 70
     0
102
RTVSPost2010Prop53
 90
        2
102
RTVSPost2010PropOp53
 70
     1
102
RTVSPost2010Prop54
  1
strokes_ogs.tif
102
RTVSPost2010PropOp54
 70
     1
102
RTVSPost2010Prop55
280
     0
102
RTVSPost2010PropOp55
 70
     1
102
RTVSPost2010Prop56
140
1.0
102
RTVSPost2010PropOp56
 70
     1
102
RTVSPost2010Prop57
140
1.0
102
RTVSPost2010PropOp57
 70
     1
  0
XRECORD
  5
19F
102
{ACAD_REACTORS
330
19E
102
}
330
19E
100
AcDbXrecord
280
     1
102
RTVSPost2010Prop28
280
     0
102
RTVSPost2010PropOp28
 70
     1
102
RTVSPost2010Prop29
280
     1
102
RTVSPost2010PropOp29
 70
     1
102
RTVSPost2010Prop30
280
     1
102
RTVSPost2010PropOp30
 70
     1
102
RTVSPost2010Prop31
280
     0
102
RTVSPost2010PropOp31
 70
     1
102
RTVSPost2010Prop32
280
     0
102
RTVSPost2010PropOp32
 70
     1
102
RTVSPost2010Prop33
280
     0
102
RTVSPost2010PropOp33
 70
     1
102
RTVSPost2010Prop34
280
     0
102
RTVSPost2010PropOp34
 70
     1
102
RTVSPost2010Prop35
280
     0
102
RTVSPost2010PropOp35
 70
     1
102
RTVSPost2010Prop36
280
     0
102
RTVSPost2010PropOp36
 70
     1
102
RTVSPost2010Prop37
 90
       50
102
RTVSPost2010PropOp37
 70
     1
102
RTVSPost2010Prop38
140
0.0
102
RTVSPost2010PropOp38
 70
     1
102
RTVSPost2010Prop39
140
1.0
102
RTVSPost2010PropOp39
 70
     1
102
RTVSPost2010Prop40
 90
        0
102
RTVSPost2010PropOp40
 70
     1
102
RTVSPost2010Prop41ColorIndex
 90
       18
102
RTVSPost2010Prop41ColorRGB
 90
        0
102
RTVSPost2010PropOp41
 70
     1
102
RTVSPost2010Prop42
 90
       50
102
RTVSPost2010PropOp42
 70
     1
102
RTVSPost2010Prop43
 90
        3
102
RTVSPost2010PropOp43
 70
     1
102
RTVSPost2010Prop44ColorIndex
 90
        5
102
RTVSPost2010Prop44ColorRGB
 90
      255
102
RTVSPost2010PropOp44
 70
     1
102
RTVSPost2010Prop45
280
     0
102
RTVSPost2010PropOp45
 70
     1
102
RTVSPost2010Prop46
 90
       50
102
RTVSPost2010PropOp46
 70
     1
102
RTVSPost2010Prop47
 90
       50
102
RTVSPost2010PropOp47
 70
     1
102
RTVSPost2010Prop48
 90
       50
102
RTVSPost2010PropOp48
 70
     1
102
RTVSPost2010Prop49
280
     0
102
RTVSPost2010PropOp49
 70
     1
102
RTVSPost2010Prop50
 90
       50
102
RTVSPost2010PropOp50
 70
     1
102
RTVSPost2010Prop51ColorIndex
 90
      256
102
RTVSPost2010Prop51ColorRGB
 90
-16777216
102
RTVSPost2010PropOp51
 70
     0
102
RTVSPost2010Prop52
140
1.0
102
RTVSPost2010PropOp52
 70
     0
102
RTVSPost2010Prop53
 90
        2
102
RTVSPost2010PropOp53
 70
     1
102
RTVSPost2010Prop54
  1
strokes_ogs.tif
102
RTVSPost2010PropOp54
 70
     1
102
RTVSPost2010Prop55
280
     0
102
RTVSPost2010PropOp55
 70
     1
102
RTVSPost2010Prop56
140
1.0
102
RTVSPost2010PropOp56
 70
     1
102
RTVSPost2010Prop57
140
1.0
102
RTVSPost2010PropOp57
 70
     1
  0
XRECORD
  5
193
102
{ACAD_REACTORS
330
192
102
}
330
192
100
AcDbXrecord
280
     1
102
RTVSPost2010Prop28
280
     0
102
RTVSPost2010PropOp28
 70
     1
102
RTVSPost2010Prop29
280
     1
102
RTVSPost2010PropOp29
 70
     1
102
RTVSPost2010Prop30
280
     1
102
RTVSPost2010PropOp30
 70
     1
102
RTVSPost2010Prop31
280
     0
102
RTVSPost2010PropOp31
 70
     1
102
RTVSPost2010Prop32
280
     0
102
RTVSPost2010PropOp32
 70
     1
102
RTVSPost2010Prop33
280
     0
102
RTVSPost2010PropOp33
 70
     1
102
RTVSPost2010Prop34
280
     0
102
RTVSPost2010PropOp34
 70
     1
102
RTVSPost2010Prop35
280
     0
102
RTVSPost2010PropOp35
 70
     1
102
RTVSPost2010Prop36
280
     0
102
RTVSPost2010PropOp36
 70
     1
102
RTVSPost2010Prop37
 90
       50
102
RTVSPost2010PropOp37
 70
     1
102
RTVSPost2010Prop38
140
0.0
102
RTVSPost2010PropOp38
 70
     1
102
RTVSPost2010Prop39
140
1.0
102
RTVSPost2010PropOp39
 70
     1
102
RTVSPost2010Prop40
 90
        0
102
RTVSPost2010PropOp40
 70
     1
102
RTVSPost2010Prop41ColorIndex
 90
       18
102
RTVSPost2010Prop41ColorRGB
 90
        0
102
RTVSPost2010PropOp41
 70
     1
102
RTVSPost2010Prop42
 90
       50
102
RTVSPost2010PropOp42
 70
     1
102
RTVSPost2010Prop43
 90
        3
102
RTVSPost2010PropOp43
 70
     1
102
RTVSPost2010Prop44ColorIndex
 90
        5
102
RTVSPost2010Prop44ColorRGB
 90
      255
102
RTVSPost2010PropOp44
 70
     1
102
RTVSPost2010Prop45
280
     0
102
RTVSPost2010PropOp45
 70
     1
102
RTVSPost2010Prop46
 90
       50
102
RTVSPost2010PropOp46
 70
     1
102
RTVSPost2010Prop47
 90
       50
102
RTVSPost2010PropOp47
 70
     1
102
RTVSPost2010Prop48
 90
       50
102
RTVSPost2010PropOp48
 70
     1
102
RTVSPost2010Prop49
280
     0
102
RTVSPost2010PropOp49
 70
     1
102
RTVSPost2010Prop50
 90
       50
102
RTVSPost2010PropOp50
 70
     1
102
RTVSPost2010Prop51ColorIndex
 90
      256
102
RTVSPost2010Prop51ColorRGB
 90
-16777216
102
RTVSPost2010PropOp51
 70
     0
102
RTVSPost2010Prop52
140
1.0
102
RTVSPost2010PropOp52
 70
     0
102
RTVSPost2010Prop53
 90
        2
102
RTVSPost2010PropOp53
 70
     1
102
RTVSPost2010Prop54
  1
strokes_ogs.tif
102
RTVSPost2010PropOp54
 70
     1
102
RTVSPost2010Prop55
280
     0
102
RTVSPost2010PropOp55
 70
     1
102
RTVSPost2010Prop56
140
1.0
102
RTVSPost2010PropOp56
 70
     1
102
RTVSPost2010Prop57
140
1.0
102
RTVSPost2010PropOp57
 70
     1
  0
XRECORD
  5
1AB
102
{ACAD_REACTORS
330
1AA
102
}
330
1AA
100
AcDbXrecord
280
     1
102
RTVSPost2010Prop28
280
     0
102
RTVSPost2010PropOp28
 70
     1
102
RTVSPost2010Prop29
280
     1
102
RTVSPost2010PropOp29
 70
     1
102
RTVSPost2010Prop30
280
     1
102
RTVSPost2010PropOp30
 70
     1
102
RTVSPost2010Prop31
280
     0
102
RTVSPost2010PropOp31
 70
     1
102
RTVSPost2010Prop32
280
     0
102
RTVSPost2010PropOp32
 70
     1
102
RTVSPost2010Prop33
280
     0
102
RTVSPost2010PropOp33
 70
     1
102
RTVSPost2010Prop34
280
     0
102
RTVSPost2010PropOp34
 70
     1
102
RTVSPost2010Prop35
280
     0
102
RTVSPost2010PropOp35
 70
     1
102
RTVSPost2010Prop36
280
     0
102
RTVSPost2010PropOp36
 70
     1
102
RTVSPost2010Prop37
 90
       50
102
RTVSPost2010PropOp37
 70
     1
102
RTVSPost2010Prop38
140
0.0
102
RTVSPost2010PropOp38
 70
     1
102
RTVSPost2010Prop39
140
1.0
102
RTVSPost2010PropOp39
 70
     1
102
RTVSPost2010Prop40
 90
        0
102
RTVSPost2010PropOp40
 70
     1
102
RTVSPost2010Prop41ColorIndex
 90
       18
102
RTVSPost2010Prop41ColorRGB
 90
        0
102
RTVSPost2010PropOp41
 70
     1
102
RTVSPost2010Prop42
 90
       50
102
RTVSPost2010PropOp42
 70
     1
102
RTVSPost2010Prop43
 90
        3
102
RTVSPost2010PropOp43
 70
     1
102
RTVSPost2010Prop44ColorIndex
 90
        5
102
RTVSPost2010Prop44ColorRGB
 90
      255
102
RTVSPost2010PropOp44
 70
     1
102
RTVSPost2010Prop45
280
     0
102
RTVSPost2010PropOp45
 70
     1
102
RTVSPost2010Prop46
 90
       50
102
RTVSPost2010PropOp46
 70
     1
102
RTVSPost2010Prop47
 90
       50
102
RTVSPost2010PropOp47
 70
     1
102
RTVSPost2010Prop48
 90
       50
102
RTVSPost2010PropOp48
 70
     1
102
RTVSPost2010Prop49
280
     0
102
RTVSPost2010PropOp49
 70
     1
102
RTVSPost2010Prop50
 90
       50
102
RTVSPost2010PropOp50
 70
     1
102
RTVSPost2010Prop51ColorIndex
 90
      256
102
RTVSPost2010Prop51ColorRGB
 90
-16777216
102
RTVSPost2010PropOp51
 70
     0
102
RTVSPost2010Prop52
140
1.0
102
RTVSPost2010PropOp52
 70
     0
102
RTVSPost2010Prop53
 90
        2
102
RTVSPost2010PropOp53
 70
     1
102
RTVSPost2010Prop54
  1
strokes_ogs.tif
102
RTVSPost2010PropOp54
 70
     1
102
RTVSPost2010Prop55
280
     0
102
RTVSPost2010PropOp55
 70
     1
102
RTVSPost2010Prop56
140
1.0
102
RTVSPost2010PropOp56
 70
     1
102
RTVSPost2010Prop57
140
1.0
102
RTVSPost2010PropOp57
 70
     1
  0
ENDSEC
  0
EOF
