  0
SECTION
  2
HEADER
  9
$ACADVER
  1
AC1024
  9
$ACADMAINTVER
 70
   205
  9
$DWGCODEPAGE
  3
ANSI_1251
  9
$INSBASE
 10
0.0
 20
0.0
 30
0.0
  9
$EXTMIN
 10
1.000000000000000E+20
 20
1.000000000000000E+20
 30
1.000000000000000E+20
  9
$EXTMAX
 10
-1.000000000000000E+20
 20
-1.000000000000000E+20
 30
-1.000000000000000E+20
  9
$LIMMIN
 10
0.0
 20
0.0
  9
$LIMMAX
 10
12.0
 20
9.0
  9
$ORTHOMODE
 70
     0
  9
$REGENMODE
 70
     1
  9
$FILLMODE
 70
     1
  9
$QTEXTMODE
 70
     0
  9
$MIRRTEXT
 70
     1
  9
$LTSCALE
 40
1.0
  9
$ATTMODE
 70
     1
  9
$TEXTSIZE
 40
0.2
  9
$TRACEWID
 40
0.05
  9
$TEXTSTYLE
  7
Standard
  9
$CLAYER
  8
0
  9
$CELTYPE
  6
ByLayer
  9
$CECOLOR
 62
   256
  9
$CELTSCALE
 40
1.0
  9
$DISPSILH
 70
     0
  9
$DIMSCALE
 40
1.0
  9
$DIMASZ
 40
0.18
  9
$DIMEXO
 40
0.0625
  9
$DIMDLI
 40
0.38
  9
$DIMRND
 40
0.0
  9
$DIMDLE
 40
0.0
  9
$DIMEXE
 40
0.18
  9
$DIMTP
 40
0.0
  9
$DIMTM
 40
0.0
  9
$DIMTXT
 40
0.18
  9
$DIMCEN
 40
0.09
  9
$DIMTSZ
 40
0.0
  9
$DIMTOL
 70
     0
  9
$DIMLIM
 70
     0
  9
$DIMTIH
 70
     1
  9
$DIMTOH
 70
     1
  9
$DIMSE1
 70
     0
  9
$DIMSE2
 70
     0
  9
$DIMTAD
 70
     0
  9
$DIMZIN
 70
     0
  9
$DIMBLK
  1

  9
$DIMASO
 70
     1
  9
$DIMSHO
 70
     1
  9
$DIMPOST
  1

  9
$DIMAPOST
  1

  9
$DIMALT
 70
     0
  9
$DIMALTD
 70
     2
  9
$DIMALTF
 40
25.4
  9
$DIMLFAC
 40
1.0
  9
$DIMTOFL
 70
     0
  9
$DIMTVP
 40
0.0
  9
$DIMTIX
 70
     0
  9
$DIMSOXD
 70
     0
  9
$DIMSAH
 70
     0
  9
$DIMBLK1
  1

  9
$DIMBLK2
  1

  9
$DIMSTYLE
  2
Standard
  9
$DIMCLRD
 70
     0
  9
$DIMCLRE
 70
     0
  9
$DIMCLRT
 70
     0
  9
$DIMTFAC
 40
1.0
  9
$DIMGAP
 40
0.09
  9
$DIMJUST
 70
     0
  9
$DIMSD1
 70
     0
  9
$DIMSD2
 70
     0
  9
$DIMTOLJ
 70
     1
  9
$DIMTZIN
 70
     0
  9
$DIMALTZ
 70
     0
  9
$DIMALTTZ
 70
     0
  9
$DIMUPT
 70
     0
  9
$DIMDEC
 70
     4
  9
$DIMTDEC
 70
     4
  9
$DIMALTU
 70
     2
  9
$DIMALTTD
 70
     2
  9
$DIMTXSTY
  7
Standard
  9
$DIMAUNIT
 70
     0
  9
$DIMADEC
 70
     0
  9
$DIMALTRND
 40
0.0
  9
$DIMAZIN
 70
     0
  9
$DIMDSEP
 70
    46
  9
$DIMATFIT
 70
     3
  9
$DIMFRAC
 70
     0
  9
$DIMLDRBLK
  1

  9
$DIMLUNIT
 70
     2
  9
$DIMLWD
 70
    -2
  9
$DIMLWE
 70
    -2
  9
$DIMTMOVE
 70
     0
  9
$DIMFXL
 40
1.0
  9
$DIMFXLON
 70
     0
  9
$DIMJOGANG
 40
0.7853981633974483
  9
$DIMTFILL
 70
     0
  9
$DIMTFILLCLR
 70
     0
  9
$DIMARCSYM
 70
     0
  9
$DIMLTYPE
  6

  9
$DIMLTEX1
  6

  9
$DIMLTEX2
  6

  9
$DIMTXTDIRECTION
 70
     0
  9
$LUNITS
 70
     2
  9
$LUPREC
 70
     4
  9
$SKETCHINC
 40
0.1
  9
$FILLETRAD
 40
0.5
  9
$AUNITS
 70
     0
  9
$AUPREC
 70
     0
  9
$MENU
  1
.
  9
$ELEVATION
 40
0.0
  9
$PELEVATION
 40
0.0
  9
$THICKNESS
 40
0.0
  9
$LIMCHECK
 70
     0
  9
$CHAMFERA
 40
0.5
  9
$CHAMFERB
 40
0.5
  9
$CHAMFERC
 40
1.0
  9
$CHAMFERD
 40
0.0
  9
$SKPOLY
 70
     0
  9
$TDCREATE
 40
2451380.930432396
  9
$TDUCREATE
 40
2451380.805432396
  9
$TDUPDATE
 40
2451380.966180555
  9
$TDUUPDATE
 40
2451380.841180556
  9
$TDINDWG
 40
0.0075621991
  9
$TDUSRTIMER
 40
0.0075531597
  9
$USRTIMER
 70
     1
  9
$ANGBASE
 50
0.0
  9
$ANGDIR
 70
     0
  9
$PDMODE
 70
     0
  9
$PDSIZE
 40
0.0
  9
$PLINEWID
 40
0.0
  9
$SPLFRAME
 70
     0
  9
$SPLINETYPE
 70
     6
  9
$SPLINESEGS
 70
     8
  9
$HANDSEED
  5
19B
  9
$SURFTAB1
 70
     6
  9
$SURFTAB2
 70
     6
  9
$SURFTYPE
 70
     6
  9
$SURFU
 70
     6
  9
$SURFV
 70
     6
  9
$UCSBASE
  2

  9
$UCSNAME
  2

  9
$UCSORG
 10
0.0
 20
0.0
 30
0.0
  9
$UCSXDIR
 10
1.0
 20
0.0
 30
0.0
  9
$UCSYDIR
 10
0.0
 20
1.0
 30
0.0
  9
$UCSORTHOREF
  2

  9
$UCSORTHOVIEW
 70
     0
  9
$UCSORGTOP
 10
0.0
 20
0.0
 30
0.0
  9
$UCSORGBOTTOM
 10
0.0
 20
0.0
 30
0.0
  9
$UCSORGLEFT
 10
0.0
 20
0.0
 30
0.0
  9
$UCSORGRIGHT
 10
0.0
 20
0.0
 30
0.0
  9
$UCSORGFRONT
 10
0.0
 20
0.0
 30
0.0
  9
$UCSORGBACK
 10
0.0
 20
0.0
 30
0.0
  9
$PUCSBASE
  2

  9
$PUCSNAME
  2

  9
$PUCSORG
 10
0.0
 20
0.0
 30
0.0
  9
$PUCSXDIR
 10
1.0
 20
0.0
 30
0.0
  9
$PUCSYDIR
 10
0.0
 20
1.0
 30
0.0
  9
$PUCSORTHOREF
  2

  9
$PUCSORTHOVIEW
 70
     0
  9
$PUCSORGTOP
 10
0.0
 20
0.0
 30
0.0
  9
$PUCSORGBOTTOM
 10
0.0
 20
0.0
 30
0.0
  9
$PUCSORGLEFT
 10
0.0
 20
0.0
 30
0.0
  9
$PUCSORGRIGHT
 10
0.0
 20
0.0
 30
0.0
  9
$PUCSORGFRONT
 10
0.0
 20
0.0
 30
0.0
  9
$PUCSORGBACK
 10
0.0
 20
0.0
 30
0.0
  9
$USERI1
 70
     0
  9
$USERI2
 70
     0
  9
$USERI3
 70
     0
  9
$USERI4
 70
     0
  9
$USERI5
 70
     0
  9
$USERR1
 40
0.0
  9
$USERR2
 40
0.0
  9
$USERR3
 40
0.0
  9
$USERR4
 40
0.0
  9
$USERR5
 40
0.0
  9
$WORLDVIEW
 70
     1
  9
$SHADEDGE
 70
     3
  9
$SHADEDIF
 70
    70
  9
$TILEMODE
 70
     1
  9
$MAXACTVP
 70
    64
  9
$PINSBASE
 10
0.0
 20
0.0
 30
0.0
  9
$PLIMCHECK
 70
     0
  9
$PEXTMIN
 10
1.000000000000000E+20
 20
1.000000000000000E+20
 30
1.000000000000000E+20
  9
$PEXTMAX
 10
-1.000000000000000E+20
 20
-1.000000000000000E+20
 30
-1.000000000000000E+20
  9
$PLIMMIN
 10
0.0
 20
0.0
  9
$PLIMMAX
 10
12.0
 20
9.0
  9
$UNITMODE
 70
     0
  9
$VISRETAIN
 70
     1
  9
$PLINEGEN
 70
     0
  9
$PSLTSCALE
 70
     1
  9
$TREEDEPTH
 70
  3020
  9
$CMLSTYLE
  2
Standard
  9
$CMLJUST
 70
     0
  9
$CMLSCALE
 40
1.0
  9
$PROXYGRAPHICS
 70
     1
  9
$MEASUREMENT
 70
     1
  9
$CELWEIGHT
370
    -1
  9
$ENDCAPS
280
     0
  9
$JOINSTYLE
280
     0
  9
$LWDISPLAY
290
     0
  9
$INSUNITS
 70
     4
  9
$HYPERLINKBASE
  1

  9
$STYLESHEET
  1

  9
$XEDIT
290
     1
  9
$CEPSNTYPE
380
     0
  9
$PSTYLEMODE
290
     1
  9
$FINGERPRINTGUID
  2
{12F50282-3ED8-11D3-A8B7-0060B0F84BC6}
  9
$VERSIONGUID
  2
{12F50293-3ED8-11D3-A8B7-0060B0F84BC6}
  9
$EXTNAMES
290
     1
  9
$PSVPSCALE
 40
0.0
  9
$OLESTARTUP
290
     0
  9
$SORTENTS
280
   127
  9
$INDEXCTL
280
     0
  9
$HIDETEXT
280
     0
  9
$XCLIPFRAME
280
     2
  9
$HALOGAP
280
     0
  9
$OBSCOLOR
 70
   257
  9
$OBSLTYPE
280
     0
  9
$INTERSECTIONDISPLAY
280
     0
  9
$INTERSECTIONCOLOR
 70
   257
  9
$DIMASSOC
280
     1
  9
$PROJECTNAME
  1

  9
$CAMERADISPLAY
290
     0
  9
$LENSLENGTH
 40
50.0
  9
$CAMERAHEIGHT
 40
0.0
  9
$STEPSPERSEC
 40
2.0
  9
$STEPSIZE
 40
6.0
  9
$3DDWFPREC
 40
2.0
  9
$PSOLWIDTH
 40
0.25
  9
$PSOLHEIGHT
 40
4.0
  9
$LOFTANG1
 40
1.570796326794896
  9
$LOFTANG2
 40
1.570796326794896
  9
$LOFTMAG1
 40
0.0
  9
$LOFTMAG2
 40
0.0
  9
$LOFTPARAM
 70
     7
  9
$LOFTNORMALS
280
     1
  9
$LATITUDE
 40
37.795
  9
$LONGITUDE
 40
-122.394
  9
$NORTHDIRECTION
 40
0.0
  9
$TIMEZONE
 70
 -8000
  9
$LIGHTGLYPHDISPLAY
280
     1
  9
$TILEMODELIGHTSYNCH
280
     1
  9
$CMATERIAL
347
AB
  9
$SOLIDHIST
280
     0
  9
$SHOWHIST
280
     1
  9
$DWFFRAME
280
     2
  9
$DGNFRAME
280
     0
  9
$REALWORLDSCALE
290
     1
  9
$INTERFERECOLOR
 62
     1
  9
$INTERFEREOBJVS
345
CD
  9
$INTERFEREVPVS
346
CA
  9
$CSHADOW
280
     0
  9
$SHADOWPLANELOCATION
 40
0.0
  0
ENDSEC
  0
SECTION
  2
CLASSES
  0
CLASS
  1
ACDBDICTIONARYWDFLT
  2
AcDbDictionaryWithDefault
  3
ObjectDBX Classes
 90
        0
 91
        1
280
     0
281
     0
  0
CLASS
  1
ACDBPLACEHOLDER
  2
AcDbPlaceHolder
  3
ObjectDBX Classes
 90
        0
 91
        2
280
     0
281
     0
  0
CLASS
  1
LAYOUT
  2
AcDbLayout
  3
ObjectDBX Classes
 90
        0
 91
        3
280
     0
281
     0
  0
CLASS
  1
MATERIAL
  2
AcDbMaterial
  3
ObjectDBX Classes
 90
     1153
 91
        3
280
     0
281
     0
  0
CLASS
  1
VISUALSTYLE
  2
AcDbVisualStyle
  3
ObjectDBX Classes
 90
     4095
 91
       24
280
     0
281
     0
  0
CLASS
  1
TABLESTYLE
  2
AcDbTableStyle
  3
ObjectDBX Classes
 90
     4095
 91
        1
280
     0
281
     0
  0
CLASS
  1
SCALE
  2
AcDbScale
  3
ObjectDBX Classes
 90
     1153
 91
       17
280
     0
281
     0
  0
CLASS
  1
MLEADERSTYLE
  2
AcDbMLeaderStyle
  3
ACDB_MLEADERSTYLE_CLASS
 90
     4095
 91
        1
280
     0
281
     0
  0
CLASS
  1
ACDBSECTIONVIEWSTYLE
  2
AcDbSectionViewStyle
  3
ObjectDBX Classes
 90
     1025
 91
        1
280
     0
281
     0
  0
CLASS
  1
ACDBDETAILVIEWSTYLE
  2
AcDbDetailViewStyle
  3
ObjectDBX Classes
 90
     1025
 91
        1
280
     0
281
     0
  0
CLASS
  1
MESH
  2
AcDbSubDMesh
  3
ObjectDBX Classes
 90
        0
 91
        1
280
     0
281
     1
  0
CLASS
  1
DICTIONARYVAR
  2
AcDbDictionaryVar
  3
ObjectDBX Classes
 90
        0
 91
        9
280
     0
281
     0
  0
CLASS
  1
CELLSTYLEMAP
  2
AcDbCellStyleMap
  3
ObjectDBX Classes
 90
     1152
 91
        1
280
     0
281
     0
  0
ENDSEC
  0
SECTION
  2
TABLES
  0
TABLE
  2
VPORT
  5
8
330
0
100
AcDbSymbolTable
 70
     1
  0
VPORT
  5
A8
330
8
100
AcDbSymbolTableRecord
100
AcDbViewportTableRecord
  2
*Active
 70
     0
 10
0.0
 20
0.0
 11
1.0
 21
1.0
 12
-0.0000000000004748
 22
37.25265884399414
 13
0.0
 23
0.0
 14
0.5
 24
0.5
 15
0.5
 25
0.5
 16
-1.0
 26
-1.0
 36
1.0
 17
0.0
 27
0.0
 37
0.0
 40
1121.396938297273
 41
1.591110833012923
 42
50.0
 43
0.0
 44
0.0
 50
0.0
 51
0.0
 71
     0
 72
   100
 73
     1
 74
     3
 75
     0
 76
     0
 77
     0
 78
     0
281
     0
 65
     1
110
0.0
120
0.0
130
0.0
111
1.0
121
0.0
131
0.0
112
0.0
122
1.0
132
0.0
 79
     0
146
0.0
348
C9
 60
     3
 61
     5
292
     1
282
     1
141
0.0
142
0.0
 63
   250
421
  3355443
  0
ENDTAB
  0
TABLE
  2
LTYPE
  5
5
330
0
100
AcDbSymbolTable
 70
     1
  0
LTYPE
  5
14
330
5
100
AcDbSymbolTableRecord
100
AcDbLinetypeTableRecord
  2
ByBlock
 70
     0
  3

 72
    65
 73
     0
 40
0.0
  0
LTYPE
  5
15
330
5
100
AcDbSymbolTableRecord
100
AcDbLinetypeTableRecord
  2
ByLayer
 70
     0
  3

 72
    65
 73
     0
 40
0.0
  0
LTYPE
  5
16
330
5
100
AcDbSymbolTableRecord
100
AcDbLinetypeTableRecord
  2
Continuous
 70
     0
  3
Solid line
 72
    65
 73
     0
 40
0.0
  0
ENDTAB
  0
TABLE
  2
LAYER
  5
2
330
0
100
AcDbSymbolTable
 70
     2
  0
LAYER
  5
10
330
2
100
AcDbSymbolTableRecord
100
AcDbLayerTableRecord
  2
0
 70
     0
 62
   153
420
  5804257
  6
Continuous
370
    -3
390
F
347
BB
  0
LAYER
  5
2B
330
2
100
AcDbSymbolTableRecord
100
AcDbLayerTableRecord
  2
ASHADE
 70
     4
 62
     7
  6
Continuous
370
    -3
390
2D
347
BB
  0
ENDTAB
  0
TABLE
  2
STYLE
  5
3
330
0
100
AcDbSymbolTable
 70
     2
  0
STYLE
  5
11
330
3
100
AcDbSymbolTableRecord
100
AcDbTextStyleTableRecord
  2
Standard
 70
     0
 40
0.0
 41
1.0
 50
0.0
 71
     0
 42
0.2
  3
txt
  4

  0
STYLE
  5
2C
330
3
100
AcDbSymbolTableRecord
100
AcDbTextStyleTableRecord
  2
ASHADE
 70
     0
 40
0.2
 41
1.0
 50
0.0
 71
     0
 42
0.2
  3
simplex
  4

  0
ENDTAB
  0
TABLE
  2
VIEW
  5
6
330
0
100
AcDbSymbolTable
 70
     0
  0
ENDTAB
  0
TABLE
  2
UCS
  5
7
330
0
100
AcDbSymbolTable
 70
     0
  0
ENDTAB
  0
TABLE
  2
APPID
  5
9
330
0
100
AcDbSymbolTable
 70
     6
  0
APPID
  5
12
330
9
100
AcDbSymbolTableRecord
100
AcDbRegAppTableRecord
  2
ACAD
 70
     0
  0
APPID
  5
8F
330
9
100
AcDbSymbolTableRecord
100
AcDbRegAppTableRecord
  2
AVE_RENDER
 70
     0
  0
APPID
  5
90
330
9
100
AcDbSymbolTableRecord
100
AcDbRegAppTableRecord
  2
AVE_ENTITY_MATERIAL
 70
     0
  0
APPID
  5
9C
330
9
100
AcDbSymbolTableRecord
100
AcDbRegAppTableRecord
  2
AVE_FINISH
 70
     0
  0
APPID
  5
9D
330
9
100
AcDbSymbolTableRecord
100
AcDbRegAppTableRecord
  2
AVE_MATERIAL
 70
     0
  0
APPID
  5
9E
330
9
100
AcDbSymbolTableRecord
100
AcDbRegAppTableRecord
  2
AVE_GLOBAL
 70
     0
  0
ENDTAB
  0
TABLE
  2
DIMSTYLE
  5
A
330
0
100
AcDbSymbolTable
 70
     1
100
AcDbDimStyleTable
 71
     0
  0
DIMSTYLE
105
27
330
A
100
AcDbSymbolTableRecord
100
AcDbDimStyleTableRecord
  2
Standard
 70
     0
340
11
  0
ENDTAB
  0
TABLE
  2
BLOCK_RECORD
  5
1
330
0
100
AcDbSymbolTable
 70
     6
  0
BLOCK_RECORD
  5
1F
330
1
100
AcDbSymbolTableRecord
100
AcDbBlockTableRecord
  2
*Model_Space
340
22
 70
     0
280
     1
281
     0
  0
BLOCK_RECORD
  5
1B
330
1
100
AcDbSymbolTableRecord
100
AcDbBlockTableRecord
  2
*Paper_Space
340
1E
 70
     0
280
     1
281
     0
  0
BLOCK_RECORD
  5
23
330
1
100
AcDbSymbolTableRecord
100
AcDbBlockTableRecord
  2
*Paper_Space0
340
26
 70
     0
280
     1
281
     0
  0
BLOCK_RECORD
  5
2E
330
1
100
AcDbSymbolTableRecord
100
AcDbBlockTableRecord
  2
direct
340
0
 70
     0
280
     1
281
     0
  0
BLOCK_RECORD
  5
42
330
1
100
AcDbSymbolTableRecord
100
AcDbBlockTableRecord
  2
overhead
340
0
 70
     0
280
     1
281
     0
  0
BLOCK_RECORD
  5
5F
330
1
100
AcDbSymbolTableRecord
100
AcDbBlockTableRecord
  2
sh_spot
340
0
 70
     0
280
     1
281
     0
  0
BLOCK_RECORD
  5
91
330
1
100
AcDbSymbolTableRecord
100
AcDbBlockTableRecord
  2
AVE_RENDER
340
0
102
{BLKREFS
331
94
331
95
331
96
331
97
331
98
331
99
331
9A
331
9B
102
}
 70
     0
280
     1
281
     0
  0
BLOCK_RECORD
  5
9F
330
1
100
AcDbSymbolTableRecord
100
AcDbBlockTableRecord
  2
AVE_GLOBAL
340
0
102
{BLKREFS
331
A2
102
}
 70
     0
280
     1
281
     0
  0
ENDTAB
  0
ENDSEC
  0
SECTION
  2
BLOCKS
  0
BLOCK
  5
20
330
1F
100
AcDbEntity
  8
0
100
AcDbBlockBegin
  2
*Model_Space
 70
     0
 10
0.0
 20
0.0
 30
0.0
  3
*Model_Space
  1

  0
ENDBLK
  5
21
330
1F
100
AcDbEntity
  8
0
100
AcDbBlockEnd
  0
BLOCK
  5
1C
330
1B
100
AcDbEntity
 67
     1
  8
0
100
AcDbBlockBegin
  2
*Paper_Space
 70
     0
 10
0.0
 20
0.0
 30
0.0
  3
*Paper_Space
  1

  0
ENDBLK
  5
1D
330
1B
100
AcDbEntity
 67
     1
  8
0
100
AcDbBlockEnd
  0
BLOCK
  5
24
330
23
100
AcDbEntity
 67
     1
  8
0
100
AcDbBlockBegin
  2
*Paper_Space0
 70
     0
 10
0.0
 20
0.0
 30
0.0
  3
*Paper_Space0
  1

  0
ENDBLK
  5
25
330
23
100
AcDbEntity
 67
     1
  8
0
100
AcDbBlockEnd
  0
BLOCK
  5
40
330
2E
100
AcDbEntity
  8
0
100
AcDbBlockBegin
  2
direct
 70
     2
 10
0.0
 20
0.0
 30
0.0
  3
direct
  1

  0
ATTDEF
  5
2F
330
2E
100
AcDbEntity
  8
ASHADE
  6
Continuous
 62
     1
100
AcDbText
 10
0.0
 20
-0.1
 30
0.0
 40
0.2
  1

  7
ASHADE
 72
     1
 11
0.0
 21
-0.1
 31
0.0
100
AcDbAttributeDefinition
280
     0
  3
Light Name
  2
SNAME
 70
     0
280
     0
  0
ARC
  5
30
330
2E
100
AcDbEntity
  8
ASHADE
  6
Continuous
 62
     7
100
AcDbCircle
 10
0.0
 20
0.0
 30
0.0
 40
0.3
100
AcDbArc
 50
205.6792886194569
 51
334.3207113805431
  0
ARC
  5
31
330
2E
100
AcDbEntity
  8
ASHADE
  6
Continuous
 62
     7
100
AcDbCircle
 10
0.0
 20
0.0
 30
0.0
 40
0.3
100
AcDbArc
 50
25.67928861945685
 51
154.3207113805431
  0
LINE
  5
32
330
2E
100
AcDbEntity
  8
ASHADE
  6
Continuous
 62
     7
100
AcDbLine
 10
-0.21
 20
0.2142428528562855
 30
0.0
 11
-0.21
 21
0.5
 31
0.0
  0
LINE
  5
33
330
2E
100
AcDbEntity
  8
ASHADE
  6
Continuous
 62
     7
100
AcDbLine
 10
-0.11
 20
0.2791057147390572
 30
0.0
 11
-0.11
 21
0.5
 31
0.0
  0
LINE
  5
34
330
2E
100
AcDbEntity
  8
ASHADE
  6
Continuous
 62
     7
100
AcDbLine
 10
0.21
 20
0.2142428528562855
 30
0.0
 11
0.21
 21
0.5
 31
0.0
  0
ATTDEF
  5
35
330
2E
100
AcDbEntity
  8
ASHADE
  6
Continuous
 62
     7
100
AcDbText
 10
0.0
 20
0.25
 30
0.0
 40
0.01
  1

100
AcDbAttributeDefinition
280
     0
  3
Look-at Y
  2
LAY
 70
     1
280
     0
  0
ATTDEF
  5
36
330
2E
100
AcDbEntity
  8
ASHADE
  6
Continuous
 62
     7
100
AcDbText
 10
0.0
 20
0.22
 30
0.0
 40
0.01
  1
1
100
AcDbAttributeDefinition
280
     0
  3
Light Intensity
  2
INTENSITY
 70
     1
280
     0
  0
ATTDEF
  5
37
330
2E
100
AcDbEntity
  8
ASHADE
  6
Continuous
 62
     7
100
AcDbText
 10
0.0
 20
0.16
 30
0.0
 40
0.01
  1
-1
100
AcDbAttributeDefinition
280
     0
  3
*not used*
  2
BEAMD
 70
     1
280
     0
  0
ATTDEF
  5
38
330
2E
100
AcDbEntity
  8
ASHADE
  6
Continuous
 62
     7
100
AcDbText
 10
0.0
 20
0.175
 30
0.0
 40
0.01
  1
-1
100
AcDbAttributeDefinition
280
     0
  3
*not used*
  2
CONED
 70
     1
280
     0
  0
ATTDEF
  5
39
330
2E
100
AcDbEntity
  8
ASHADE
  6
Continuous
 62
     7
100
AcDbText
 10
0.0
 20
0.19
 30
0.0
 40
0.01
  1
0
100
AcDbAttributeDefinition
280
     0
  3
Depth Map Size
  2
CONEA
 70
     1
280
     0
  0
ATTDEF
  5
3A
330
2E
100
AcDbEntity
  8
ASHADE
  6
Continuous
 62
     7
100
AcDbText
 10
0.0
 20
0.2050000000000001
 30
0.0
 40
0.01
  1
1,1,1
100
AcDbAttributeDefinition
280
     0
  3
Light Color (RGB)
  2
COLOR
 70
     1
280
     0
  0
ATTDEF
  5
3B
330
2E
100
AcDbEntity
  8
ASHADE
  6
Continuous
 62
     7
100
AcDbText
 10
0.0
 20
0.235
 30
0.0
 40
0.01
  1

100
AcDbAttributeDefinition
280
     0
  3
Look-at Z
  2
LAZ
 70
     1
280
     0
  0
LINE
  5
3C
330
2E
100
AcDbEntity
  8
ASHADE
  6
Continuous
 62
     7
100
AcDbLine
 10
0.0
 20
0.3
 30
0.0
 11
0.0
 21
0.5
 31
0.0
  0
LINE
  5
3D
330
2E
100
AcDbEntity
  8
ASHADE
  6
Continuous
 62
     7
100
AcDbLine
 10
0.11
 20
0.2791057147390572
 30
0.0
 11
0.11
 21
0.5
 31
0.0
  0
ATTDEF
  5
3E
330
2E
100
AcDbEntity
  8
ASHADE
  6
Continuous
 62
     7
100
AcDbText
 10
0.0
 20
0.265
 30
0.0
 40
0.01
  1

100
AcDbAttributeDefinition
280
     0
  3
Look-at X
  2
LAX
 70
     1
280
     0
  0
ATTDEF
  5
3F
330
2E
100
AcDbEntity
  8
ASHADE
  6
Continuous
 62
     7
100
AcDbText
 10
0.0
 20
0.28
 30
0.0
 40
0.01
  1

100
AcDbAttributeDefinition
280
     0
  3

  2
GNAME
 70
     1
280
     0
  0
ENDBLK
  5
41
330
2E
100
AcDbEntity
  8
0
100
AcDbBlockEnd
  0
BLOCK
  5
5D
330
42
100
AcDbEntity
  8
0
100
AcDbBlockBegin
  2
overhead
 70
     2
 10
0.0
 20
0.0
 30
0.0
  3
overhead
  1

  0
ATTDEF
  5
43
330
42
100
AcDbEntity
  8
ASHADE
  6
Continuous
 62
     1
100
AcDbText
 10
0.0
 20
-0.1
 30
0.0
 40
0.2
  1

  7
ASHADE
 72
     1
 11
0.0
 21
-0.1
 31
0.0
100
AcDbAttributeDefinition
280
     0
  3
Light Name
  2
SNAME
 70
     0
280
     0
  0
ARC
  5
44
330
42
100
AcDbEntity
  8
ASHADE
  6
Continuous
 62
     7
100
AcDbCircle
 10
0.0
 20
0.0
 30
0.0
 40
0.3
100
AcDbArc
 50
205.6792886194569
 51
334.3207113805431
  0
LINE
  5
45
330
42
100
AcDbEntity
  8
ASHADE
  6
Continuous
 62
     7
100
AcDbLine
 10
-0.2041413561583015
 20
-0.2198324514393848
 30
0.0
 11
-0.2721884748777353
 21
-0.2931099352525131
 31
0.0
  0
LINE
  5
46
330
42
100
AcDbEntity
  8
ASHADE
  6
Continuous
 62
     7
100
AcDbLine
 10
-0.1096591641591904
 20
-0.2792398032442862
 30
0.0
 11
-0.1279356915190555
 21
-0.3257797704516673
 31
0.0
  0
LINE
  5
47
330
42
100
AcDbEntity
  8
ASHADE
  6
Continuous
 62
     7
100
AcDbLine
 10
0.0
 20
-0.2999999999999999
 30
0.0
 11
0.0
 21
-0.4
 31
0.0
  0
LINE
  5
48
330
42
100
AcDbEntity
  8
ASHADE
  6
Continuous
 62
     7
100
AcDbLine
 10
0.1096591641591904
 20
-0.2792398032442862
 30
0.0
 11
0.1279356915190555
 21
-0.3257797704516673
 31
0.0
  0
LINE
  5
49
330
42
100
AcDbEntity
  8
ASHADE
  6
Continuous
 62
     7
100
AcDbLine
 10
0.2041413561583015
 20
-0.2198324514393848
 30
0.0
 11
0.2721884748777353
 21
-0.2931099352525131
 31
0.0
  0
ARC
  5
4A
330
42
100
AcDbEntity
  8
ASHADE
  6
Continuous
 62
     7
100
AcDbCircle
 10
0.0
 20
0.0
 30
0.0
 40
0.3
100
AcDbArc
 50
25.67928861945685
 51
154.3207113805431
  0
LINE
  5
4B
330
42
100
AcDbEntity
  8
ASHADE
  6
Continuous
 62
     7
100
AcDbLine
 10
-0.2703701166919155
 20
0.13
 30
0.0
 11
-0.3154318028072347
 21
0.1516666666666666
 31
0.0
  0
LINE
  5
4C
330
42
100
AcDbEntity
  8
ASHADE
  6
Continuous
 62
     7
100
AcDbLine
 10
-0.2703701166919155
 20
-0.13
 30
0.0
 11
-0.3154318028072347
 21
-0.1516666666666666
 31
0.0
  0
LINE
  5
4D
330
42
100
AcDbEntity
  8
ASHADE
  6
Continuous
 62
     7
100
AcDbLine
 10
-0.2041413561583015
 20
0.2198324514393849
 30
0.0
 11
-0.2721884748777353
 21
0.2931099352525131
 31
0.0
  0
LINE
  5
4E
330
42
100
AcDbEntity
  8
ASHADE
  6
Continuous
 62
     7
100
AcDbLine
 10
-0.1096591641591904
 20
0.2792398032442862
 30
0.0
 11
-0.1279356915190555
 21
0.3257797704516674
 31
0.0
  0
LINE
  5
4F
330
42
100
AcDbEntity
  8
ASHADE
  6
Continuous
 62
     7
100
AcDbLine
 10
0.2703701166919155
 20
-0.13
 30
0.0
 11
0.3154318028072347
 21
-0.1516666666666666
 31
0.0
  0
LINE
  5
50
330
42
100
AcDbEntity
  8
ASHADE
  6
Continuous
 62
     7
100
AcDbLine
 10
0.2703701166919155
 20
0.13
 30
0.0
 11
0.3154318028072347
 21
0.1516666666666666
 31
0.0
  0
LINE
  5
51
330
42
100
AcDbEntity
  8
ASHADE
  6
Continuous
 62
     7
100
AcDbLine
 10
0.0
 20
0.3
 30
0.0
 11
0.0
 21
0.4
 31
0.0
  0
ATTDEF
  5
52
330
42
100
AcDbEntity
  8
ASHADE
  6
Continuous
 62
     7
100
AcDbText
 10
0.0
 20
0.22
 30
0.0
 40
0.01
  1
1
100
AcDbAttributeDefinition
280
     0
  3
Light Intensity
  2
INTENSITY
 70
     1
280
     0
  0
ATTDEF
  5
53
330
42
100
AcDbEntity
  8
ASHADE
  6
Continuous
 62
     7
100
AcDbText
 10
0.0
 20
0.16
 30
0.0
 40
0.01
  1
-1
100
AcDbAttributeDefinition
280
     0
  3
*not used*
  2
BEAMD
 70
     1
280
     0
  0
ATTDEF
  5
54
330
42
100
AcDbEntity
  8
ASHADE
  6
Continuous
 62
     7
100
AcDbText
 10
0.0
 20
0.175
 30
0.0
 40
0.01
  1
-1
100
AcDbAttributeDefinition
280
     0
  3
*not used*
  2
CONED
 70
     1
280
     0
  0
ATTDEF
  5
55
330
42
100
AcDbEntity
  8
ASHADE
  6
Continuous
 62
     7
100
AcDbText
 10
0.0
 20
0.19
 30
0.0
 40
0.01
  1
0
100
AcDbAttributeDefinition
280
     0
  3
Depth Map Size
  2
CONEA
 70
     1
280
     0
  0
ATTDEF
  5
56
330
42
100
AcDbEntity
  8
ASHADE
  6
Continuous
 62
     7
100
AcDbText
 10
0.0
 20
0.2050000000000001
 30
0.0
 40
0.01
  1
1,1,1
100
AcDbAttributeDefinition
280
     0
  3
Light Color (RGB)
  2
COLOR
 70
     1
280
     0
  0
ATTDEF
  5
57
330
42
100
AcDbEntity
  8
ASHADE
  6
Continuous
 62
     7
100
AcDbText
 10
0.0
 20
0.235
 30
0.0
 40
0.01
  1

100
AcDbAttributeDefinition
280
     0
  3
Look-at Z
  2
LAZ
 70
     1
280
     0
  0
ATTDEF
  5
58
330
42
100
AcDbEntity
  8
ASHADE
  6
Continuous
 62
     7
100
AcDbText
 10
0.0
 20
0.25
 30
0.0
 40
0.01
  1

100
AcDbAttributeDefinition
280
     0
  3
Look-at Y
  2
LAY
 70
     1
280
     0
  0
ATTDEF
  5
59
330
42
100
AcDbEntity
  8
ASHADE
  6
Continuous
 62
     7
100
AcDbText
 10
0.0
 20
0.265
 30
0.0
 40
0.01
  1

100
AcDbAttributeDefinition
280
     0
  3
Look-at X
  2
LAX
 70
     1
280
     0
  0
ATTDEF
  5
5A
330
42
100
AcDbEntity
  8
ASHADE
  6
Continuous
 62
     7
100
AcDbText
 10
0.0
 20
0.28
 30
0.0
 40
0.01
  1

100
AcDbAttributeDefinition
280
     0
  3

  2
GNAME
 70
     1
280
     0
  0
LINE
  5
5B
330
42
100
AcDbEntity
  8
ASHADE
  6
Continuous
 62
     7
100
AcDbLine
 10
0.1096591641591904
 20
0.2792398032442862
 30
0.0
 11
0.1279356915190555
 21
0.3257797704516674
 31
0.0
  0
LINE
  5
5C
330
42
100
AcDbEntity
  8
ASHADE
  6
Continuous
 62
     7
100
AcDbLine
 10
0.2041413561583015
 20
0.2198324514393849
 30
0.0
 11
0.2721884748777353
 21
0.2931099352525131
 31
0.0
  0
ENDBLK
  5
5E
330
42
100
AcDbEntity
  8
0
100
AcDbBlockEnd
  0
BLOCK
  5
85
330
5F
100
AcDbEntity
  8
0
100
AcDbBlockBegin
  2
sh_spot
 70
     2
 10
0.0
 20
0.0
 30
0.0
  3
sh_spot
  1

  0
LINE
  5
60
330
5F
100
AcDbEntity
  8
ASHADE
  6
Continuous
 62
     7
100
AcDbLine
 10
0.25
 20
0.26
 30
0.0
 11
-0.25
 21
0.26
 31
0.0
  0
LINE
  5
61
330
5F
100
AcDbEntity
  8
ASHADE
  6
Continuous
 62
     7
100
AcDbLine
 10
-0.25
 20
-0.3399999999999999
 30
0.0
 11
0.25
 21
-0.3399999999999999
 31
0.0
  0
ATTDEF
  5
62
330
5F
100
AcDbEntity
  8
ASHADE
  6
Continuous
 62
     1
100
AcDbText
 10
0.0
 20
-0.1
 30
0.0
 40
0.2
  1

  7
ASHADE
 72
     1
 11
0.0
 21
-0.1
 31
0.0
100
AcDbAttributeDefinition
280
     0
  3
Light Name
  2
SNAME
 70
     0
280
     0
  0
LINE
  5
63
330
5F
100
AcDbEntity
  8
ASHADE
  6
Continuous
 62
     7
100
AcDbLine
 10
-0.25
 20
-0.13
 30
0.0
 11
-0.25
 21
-0.3399999999999999
 31
0.0
  0
LINE
  5
64
330
5F
100
AcDbEntity
  8
ASHADE
  6
Continuous
 62
     7
100
AcDbLine
 10
-0.25
 20
-0.18
 30
0.0
 11
-0.29
 21
-0.18
 31
0.0
  0
LINE
  5
65
330
5F
100
AcDbEntity
  8
ASHADE
  6
Continuous
 62
     7
100
AcDbLine
 10
-0.29
 20
-0.22
 30
0.0
 11
-0.25
 21
-0.22
 31
0.0
  0
LINE
  5
66
330
5F
100
AcDbEntity
  8
ASHADE
  6
Continuous
 62
     7
100
AcDbLine
 10
-0.29
 20
-0.18
 30
0.0
 11
-0.29
 21
-0.22
 31
0.0
  0
LINE
  5
67
330
5F
100
AcDbEntity
  8
ASHADE
  6
Continuous
 62
     7
100
AcDbLine
 10
-0.1045454545454545
 20
0.26
 30
0.0
 11
-0.15
 21
0.46
 31
0.0
  0
LINE
  5
68
330
5F
100
AcDbEntity
  8
ASHADE
  6
Continuous
 62
     7
100
AcDbLine
 10
-0.21
 20
0.26
 30
0.0
 11
-0.301304347826087
 21
0.46
 31
0.0
  0
LINE
  5
69
330
5F
100
AcDbEntity
  8
ASHADE
  6
Continuous
 62
     7
100
AcDbLine
 10
-0.25
 20
0.26
 30
0.0
 11
-0.25
 21
0.13
 31
0.0
  0
LINE
  5
6A
330
5F
100
AcDbEntity
  8
ASHADE
  6
Continuous
 62
     7
100
AcDbLine
 10
-0.25
 20
0.22
 30
0.0
 11
-0.29
 21
0.22
 31
0.0
  0
LINE
  5
6B
330
5F
100
AcDbEntity
  8
ASHADE
  6
Continuous
 62
     7
100
AcDbLine
 10
-0.29
 20
0.1799999999999999
 30
0.0
 11
-0.25
 21
0.1799999999999999
 31
0.0
  0
LINE
  5
6C
330
5F
100
AcDbEntity
  8
ASHADE
  6
Continuous
 62
     7
100
AcDbLine
 10
-0.29
 20
0.22
 30
0.0
 11
-0.29
 21
0.1799999999999999
 31
0.0
  0
ATTDEF
  5
6D
330
5F
100
AcDbEntity
  8
ASHADE
  6
Continuous
 62
     7
100
AcDbText
 10
0.0
 20
-0.24
 30
0.0
 40
0.01
  1
0
100
AcDbAttributeDefinition
280
     0
  3
Depth Map Size
  2
ZSIZE
 70
     1
280
     0
  0
ATTDEF
  5
6E
330
5F
100
AcDbEntity
  8
ASHADE
  6
Continuous
 62
     7
100
AcDbText
 10
0.0
 20
-0.3300000000000001
 30
0.0
 40
0.01
  1
0,0,0
100
AcDbAttributeDefinition
280
     0
  3
Look-from XYZ
  2
LFXYZ
 70
     1
280
     0
  0
ATTDEF
  5
6F
330
5F
100
AcDbEntity
  8
ASHADE
  6
Continuous
 62
     7
100
AcDbText
 10
0.0
 20
-0.315
 30
0.0
 40
0.01
  1
0.0
100
AcDbAttributeDefinition
280
     0
  3
Beam Distribution
  2
BEAMDI
 70
     1
280
     0
  0
ATTDEF
  5
70
330
5F
100
AcDbEntity
  8
ASHADE
  6
Continuous
 62
     7
100
AcDbText
 10
0.0
 20
-0.3
 30
0.0
 40
0.01
  1
0.0
100
AcDbAttributeDefinition
280
     0
  3
Cone Delta
  2
CONEDE
 70
     1
280
     0
  0
ATTDEF
  5
71
330
5F
100
AcDbEntity
  8
ASHADE
  6
Continuous
 62
     7
100
AcDbText
 10
0.0
 20
-0.2850000000000001
 30
0.0
 40
0.01
  1
10.0
100
AcDbAttributeDefinition
280
     0
  3
Cone Angle
  2
CONEAN
 70
     1
280
     0
  0
ATTDEF
  5
72
330
5F
100
AcDbEntity
  8
ASHADE
  6
Continuous
 62
     7
100
AcDbText
 10
0.0
 20
-0.27
 30
0.0
 40
0.01
  1
-1
100
AcDbAttributeDefinition
280
     0
  3
*not used*
  2
BIASMAX
 70
     1
280
     0
  0
ATTDEF
  5
73
330
5F
100
AcDbEntity
  8
ASHADE
  6
Continuous
 62
     7
100
AcDbText
 10
0.0
 20
-0.255
 30
0.0
 40
0.01
  1
-1
100
AcDbAttributeDefinition
280
     0
  3
*not used*
  2
BIASMIN
 70
     1
280
     0
  0
ATTDEF
  5
74
330
5F
100
AcDbEntity
  8
ASHADE
  6
Continuous
 62
     7
100
AcDbText
 10
0.0
 20
-0.225
 30
0.0
 40
0.01
  1
1,1,1
100
AcDbAttributeDefinition
280
     0
  3
Light Color (RGB)
  2
COLOR
 70
     1
280
     0
  0
ATTDEF
  5
75
330
5F
100
AcDbEntity
  8
ASHADE
  6
Continuous
 62
     7
100
AcDbText
 10
0.0
 20
-0.21
 30
0.0
 40
0.01
  1
1
100
AcDbAttributeDefinition
280
     0
  3
Light Intensity
  2
INTENSITY
 70
     1
280
     0
  0
ATTDEF
  5
76
330
5F
100
AcDbEntity
  8
ASHADE
  6
Continuous
 62
     7
100
AcDbText
 10
0.0
 20
-0.15
 30
0.0
 40
0.01
  1

100
AcDbAttributeDefinition
280
     0
  3

  2
GNAME
 70
     1
280
     0
  0
ATTDEF
  5
77
330
5F
100
AcDbEntity
  8
ASHADE
  6
Continuous
 62
     7
100
AcDbText
 10
0.0
 20
-0.195
 30
0.0
 40
0.01
  1

100
AcDbAttributeDefinition
280
     0
  3
Look-at Z
  2
LAZ
 70
     1
280
     0
  0
ATTDEF
  5
78
330
5F
100
AcDbEntity
  8
ASHADE
  6
Continuous
 62
     7
100
AcDbText
 10
0.0
 20
-0.18
 30
0.0
 40
0.01
  1

100
AcDbAttributeDefinition
280
     0
  3
Look-at Y
  2
LAY
 70
     1
280
     0
  0
ATTDEF
  5
79
330
5F
100
AcDbEntity
  8
ASHADE
  6
Continuous
 62
     7
100
AcDbText
 10
0.0
 20
-0.165
 30
0.0
 40
0.01
  1

100
AcDbAttributeDefinition
280
     0
  3
Look-at X
  2
LAX
 70
     1
280
     0
  0
LINE
  5
7A
330
5F
100
AcDbEntity
  8
ASHADE
  6
Continuous
 62
     7
100
AcDbLine
 10
0.25
 20
-0.3399999999999999
 30
0.0
 11
0.25
 21
-0.13
 31
0.0
  0
LINE
  5
7B
330
5F
100
AcDbEntity
  8
ASHADE
  6
Continuous
 62
     7
100
AcDbLine
 10
0.25
 20
-0.18
 30
0.0
 11
0.29
 21
-0.18
 31
0.0
  0
LINE
  5
7C
330
5F
100
AcDbEntity
  8
ASHADE
  6
Continuous
 62
     7
100
AcDbLine
 10
0.29
 20
-0.22
 30
0.0
 11
0.25
 21
-0.22
 31
0.0
  0
LINE
  5
7D
330
5F
100
AcDbEntity
  8
ASHADE
  6
Continuous
 62
     7
100
AcDbLine
 10
0.29
 20
-0.18
 30
0.0
 11
0.29
 21
-0.22
 31
0.0
  0
LINE
  5
7E
330
5F
100
AcDbEntity
  8
ASHADE
  6
Continuous
 62
     7
100
AcDbLine
 10
0.21
 20
0.26
 30
0.0
 11
0.301304347826087
 21
0.46
 31
0.0
  0
LINE
  5
7F
330
5F
100
AcDbEntity
  8
ASHADE
  6
Continuous
 62
     7
100
AcDbLine
 10
0.1045454545454545
 20
0.26
 30
0.0
 11
0.15
 21
0.46
 31
0.0
  0
LINE
  5
80
330
5F
100
AcDbEntity
  8
ASHADE
  6
Continuous
 62
     7
100
AcDbLine
 10
0.0
 20
0.26
 30
0.0
 11
0.0
 21
0.46
 31
0.0
  0
LINE
  5
81
330
5F
100
AcDbEntity
  8
ASHADE
  6
Continuous
 62
     7
100
AcDbLine
 10
0.25
 20
0.13
 30
0.0
 11
0.25
 21
0.26
 31
0.0
  0
LINE
  5
82
330
5F
100
AcDbEntity
  8
ASHADE
  6
Continuous
 62
     7
100
AcDbLine
 10
0.25
 20
0.22
 30
0.0
 11
0.29
 21
0.22
 31
0.0
  0
LINE
  5
83
330
5F
100
AcDbEntity
  8
ASHADE
  6
Continuous
 62
     7
100
AcDbLine
 10
0.29
 20
0.1799999999999999
 30
0.0
 11
0.25
 21
0.1799999999999999
 31
0.0
  0
LINE
  5
84
330
5F
100
AcDbEntity
  8
ASHADE
  6
Continuous
 62
     7
100
AcDbLine
 10
0.29
 20
0.22
 30
0.0
 11
0.29
 21
0.1799999999999999
 31
0.0
  0
ENDBLK
  5
86
330
5F
100
AcDbEntity
  8
0
100
AcDbBlockEnd
  0
BLOCK
  5
92
330
91
100
AcDbEntity
  8
ASHADE
100
AcDbBlockBegin
  2
AVE_RENDER
 70
     0
 10
0.0
 20
0.0
 30
0.0
  3
AVE_RENDER
  1
AVE_RENDER
  0
ENDBLK
  5
93
330
91
100
AcDbEntity
  8
0
100
AcDbBlockEnd
  0
BLOCK
  5
A0
330
9F
100
AcDbEntity
  8
ASHADE
100
AcDbBlockBegin
  2
AVE_GLOBAL
 70
     0
 10
0.0
 20
0.0
 30
0.0
  3
AVE_GLOBAL
  1
AVE_GLOBAL
  0
ENDBLK
  5
A1
330
9F
100
AcDbEntity
  8
0
100
AcDbBlockEnd
  0
ENDSEC
  0
SECTION
  2
ENTITIES
  0
INSERT
  5
94
330
1F
100
AcDbEntity
  8
ASHADE
 62
     1
100
AcDbBlockReference
  2
AVE_RENDER
 10
0.0
 20
0.0
 30
0.0
1001
AVE_RENDER
1002
{
1070
     7
1000
Pref
1070
    30
1070
    20
1070
     1
1070
     0
1000

1070
    10
1070
     1
1070
    10
1040
1.0
1070
     1
1040
0.3
1040
0.7
1040
0.0
1040
10.0
1010
-1.0
1020
-1.0
1030
-1.0
1040
0.3
1070
    49
1070
     0
1070
     0
1010
1.0
1020
1.0
1030
1.0
1040
45.0
1070
     1
1070
     0
1000
WCS
1040
0.0
1070
     0
1040
10.0
1002
}
  0
INSERT
  5
95
330
1F
100
AcDbEntity
  8
ASHADE
 62
     3
100
AcDbBlockReference
  2
AVE_RENDER
 10
0.0
 20
0.0
 30
0.0
1001
AVE_RENDER
1002
{
1070
     0
1000
Full Opt
1070
     0
1070
     1
1070
     1
1070
     1
1070
     0
1070
     0
1070
     0
1070
     1
1070
     1
1040
0.0001
1040
0.0001
1002
}
  0
INSERT
  5
96
330
1F
100
AcDbEntity
  8
ASHADE
 62
     4
100
AcDbBlockReference
  2
AVE_RENDER
 10
0.0
 20
0.0
 30
0.0
1001
AVE_RENDER
1002
{
1070
     0
1000
Quick Opt
1070
     0
1070
     1
1070
     1
1070
     1
1070
     0
1070
     0
1070
     1
1002
}
  0
INSERT
  5
97
330
1F
100
AcDbEntity
  8
ASHADE
 62
     5
100
AcDbBlockReference
  2
AVE_RENDER
 10
0.0
 20
0.0
 30
0.0
1001
AVE_RENDER
1002
{
1070
     1
1000
Scanl Opt
1070
     2
1070
     0
1070
     2
1040
2.0
1040
4.0
1070
     0
1070
     1
1070
     0
1040
0.03
1002
}
  0
INSERT
  5
98
330
1F
100
AcDbEntity
  8
ASHADE
 62
     6
100
AcDbBlockReference
  2
AVE_RENDER
 10
0.0
 20
0.0
 30
0.0
1001
AVE_RENDER
1002
{
1070
     2
1000
Raytr Opt
1070
     2
1070
     0
1070
     2
1040
2.0
1040
4.0
1070
     0
1070
     1
1070
     1
1040
0.03
1070
     3
1040
0.03
1002
}
  0
INSERT
  5
99
330
1F
100
AcDbEntity
  8
ASHADE
 62
     7
100
AcDbBlockReference
  2
AVE_RENDER
 10
0.0
 20
0.0
 30
0.0
1001
AVE_RENDER
1002
{
1070
     0
1000
RFile Opt
1070
     1
1070
   640
1070
   480
1070
 10000
1070
     1
1070
     8
1070
     8
1070
     0
1070
     0
1070
     0
1070
     0
1070
     0
1070
     0
1070
     0
1002
}
  0
INSERT
  5
9A
330
1F
100
AcDbEntity
  8
ASHADE
 62
     8
100
AcDbBlockReference
  2
AVE_RENDER
 10
0.0
 20
0.0
 30
0.0
1001
AVE_RENDER
1002
{
1070
     0
1000
Fog Opt
1070
     0
1070
     0
1040
0.0
1040
1.0
1040
0.0
1040
1.0
1010
0.5
1020
0.5
1030
0.5
1002
}
  0
INSERT
  5
9B
330
1F
100
AcDbEntity
  8
ASHADE
 62
     9
100
AcDbBlockReference
  2
AVE_RENDER
 10
0.0
 20
0.0
 30
0.0
1001
AVE_RENDER
1002
{
1070
     0
1000
BG Opt
1070
     0
1070
     1
1010
0.0
1020
0.0
1030
0.0
1010
1.0
1020
0.0
1030
0.0
1010
0.0
1020
1.0
1030
0.0
1010
0.0
1020
0.0
1030
1.0
1040
0.5
1040
0.33
1040
0.0
1000

1070
     1
1000

1070
     1
1070
     1
1040
1.0
1040
1.0
1040
0.0
1040
0.0
1070
     0
1002
}
  0
INSERT
  5
A2
330
1F
100
AcDbEntity
  8
ASHADE
 62
     1
100
AcDbBlockReference
  2
AVE_GLOBAL
 10
0.0
 20
0.0
 30
0.0
1001
AVE_MATERIAL
1002
{
1000
*GLOBAL*
1000
2
1000
Global finish.
1002
{
1002
}
1002
{
1070
    63
1002
{
1002
{
1010
-1.0
1020
-1.0
1030
-1.0
1002
}
1040
0.1000000014901161
1000

1040
0.0
1002
{
1002
}
1040
0.0
1002
{
1002
}
1040
0.0
1002
}
1002
{
1002
{
1010
-1.0
1020
-1.0
1030
-1.0
1002
}
1040
0.6999999880790711
1000

1040
0.0
1002
{
1002
}
1040
0.0
1002
{
1002
}
1040
0.0
1002
}
1002
{
1002
{
1010
-1.0
1020
-1.0
1030
-1.0
1002
}
1040
0.2000000029802322
1000

1040
0.0
1002
{
1002
}
1040
0.0
1002
{
1002
}
1040
0.0
1002
}
1002
{
1070
     0
1002
{
1070
     1
1002
{
1040
1.0
1040
1.0
1000

1040
0.0
1002
{
1002
}
1040
0.0
1002
{
1002
}
1040
0.0
1002
}
1002
}
1040
1.0
1040
0.0
1040
0.0
1002
}
1002
{
1040
1.0
1040
1.0
1000

1040
0.0
1002
{
1002
}
1040
0.0
1002
{
1002
}
1040
0.0
1002
}
1002
{
1040
0.5
1040
1.0
1000

1040
0.0
1002
{
1002
}
1040
0.0
1002
{
1002
}
1040
0.0
1002
}
1002
{
1070
     0
1040
0.0
1002
{
1002
}
1040
1.0
1002
{
1002
}
1040
0.0
1002
}
1002
{
1040
0.0
1002
{
1002
{
1010
0.0
1020
0.0
1030
0.0
1002
}
1040
1.0
1000

1040
0.0
1002
{
1002
}
1040
0.0
1002
{
1002
}
1040
0.0
1002
}
1002
}
1002
{
1002
{
1070
     1
1002
{
1040
0.0
1040
1.0
1000

1040
0.0
1002
{
1002
}
1040
0.0
1002
{
1002
}
1040
0.0
1002
}
1002
}
1040
0.0
1002
{
1002
}
1010
1.0
1020
0.0
1030
0.0
1010
0.0
1020
1.0
1030
0.0
1010
0.0
1020
0.0
1030
1.0
1070
     0
1002
}
1002
{
1002
{
1040
1.0
1040
1.0
1002
{
1070
     1
1002
{
1040
1.0
1040
1.0
1000

1040
0.0
1002
{
1002
}
1040
0.0
1002
{
1002
}
1040
0.0
1002
}
1002
}
1002
}
1070
     0
1040
0.0
1002
{
1002
}
1002
}
1002
{
1002
}
1002
}
1002
{
1071
        3
1070
     3
1070
     0
1002
{
1070
     2
1070
     0
1070
     0
1040
0.0
1002
}
1070
     0
1070
     2
1002
{
1002
}
1002
}
1002
{
1040
8030.0
1040
190.3000030517578
1040
0.3050000071525574
1040
228.0
1040
545.0
1040
14.0
1040
17.39999961853027
1040
0.4560000002384186
1002
}
1002
}
  0
MESH
  5
F8
330
1F
100
AcDbEntity
  8
0
 62
   116
420
   427834
160
             30176
310
E0750000460300000C00000013000000020000003C00000006000000020000000000000000408FC000000040000024C0000000E03DBF56400000000000408F4000000040000024C0000000E03DBF56400C000000130000000A0000003C00000006000000020000000000000000408F4000000040000024C0000000E03DBF56
310
400000000000408F40000000000000D0BE0000002000D056400C00000013000000120000003C00000006000000020000000000000000408FC0000000000000D0BE0000002000D056400000000000408F40000000000000D0BE0000002000D056400C000000130000001A0000003C0000000600000002000000000000000040
310
8FC000000040000024C0000000E03DBF56400000000000408FC0000000000000D0BE0000002000D056400C00000013000000220000003C00000006000000020000000000000000408F40000000000000D0BE0000002000D056400000000000408F40000000000000D0BE000000E0AABE54400C000000130000002A0000003C
310
00000006000000020000000000000000408FC0000000000000D0BE000000E0AABE54400000000000408F40000000000000D0BE000000E0AABE54400C00000013000000320000003C00000006000000020000000000000000408FC0000000000000D0BE0000002000D056400000000000408FC0000000000000D0BE000000E0
310
AABE54400C000000130000003A0000003C00000006000000020000000000000000408F40000000004099E5BF000000E045A754400000000000408F40000000000000D0BE000000E0AABE54400C00000013000000420000003C00000006000000020000000000000000408FC0000000004099E5BF000000E045A75440000000
310
0000408F40000000004099E5BF000000E045A754400C000000130000004A0000003C00000006000000020000000000000000408FC0000000004099E5BF000000E045A754400000000000408FC0000000000000D0BE000000E0AABE54400C00000013000000520000003C00000006000000020000000000000000408F400000
310
00004099E5BF000000E045A754400000000000408F4000000000322EF2BF000000E0008054400C000000130000005A0000003C00000006000000020000000000000000408FC000000000322EF2BF000000E0008054400000000000408F4000000000322EF2BF000000E0008054400C00000013000000620000003C00000006
310
000000020000000000000000408FC000000000322EF2BF000000E0008054400000000000408FC0000000004099E5BF000000E045A754400C000000130000006A0000003C00000006000000020000000000000000408F4000000000322EF2BF000000E0008054400000000000408F4000000000C2CCF4BF0000002000505440
310
0C00000013000000720000003C00000006000000020000000000000000408FC000000000C2CCF4BF00000020005054400000000000408F4000000000C2CCF4BF00000020005054400C000000130000007A0000003C00000006000000020000000000000000408FC000000000C2CCF4BF00000020005054400000000000408F
310
C000000000322EF2BF000000E0008054400C00000013000000820000003C00000006000000020000000000000000408F4000000000C2CCF4BF00000020005054400000000000408F4000000000322EF2BF00000060FF1F54400C000000130000008A0000003C00000006000000020000000000000000408FC000000000322E
310
F2BF00000060FF1F54400000000000408F4000000000322EF2BF00000060FF1F54400C00000013000000920000003C00000006000000020000000000000000408FC000000000322EF2BF00000060FF1F54400000000000408FC000000000C2CCF4BF00000020005054400C000000130000009A0000003C0000000600000002
310
0000000000000000408F4000000000322EF2BF00000060FF1F54400000000000408F40000000004099E5BF00000060BAF853400C00000013000000A20000003C00000006000000020000000000000000408FC0000000004099E5BF00000060BAF853400000000000408F40000000004099E5BF00000060BAF853400C000000
310
13000000AA0000003C00000006000000020000000000000000408FC0000000004099E5BF00000060BAF853400000000000408FC000000000322EF2BF00000060FF1F54400C00000013000000B20000003C00000006000000020000000000000000408F40000000004099E5BF00000060BAF853400000000000408F40000000
310
00000000000000006055E153400C00000013000000BA0000003C00000006000000020000000000000000408FC000000000000000000000006055E153400000000000408F4000000000000000000000006055E153400C00000013000000C20000003C00000006000000020000000000000000408FC000000000000000000000
310
006055E153400000000000408FC0000000004099E5BF00000060BAF853400C00000013000000CA0000003C00000006000000020000000000000000408F4000000000000000000000006055E153400000000000408F40000000000000D03E0000002000D051400C00000013000000D20000003C000000060000000200000000
310
00000000408FC0000000000000D03E0000002000D051400000000000408F40000000000000D03E0000002000D051400C00000013000000DA0000003C00000006000000020000000000000000408FC0000000000000D03E0000002000D051400000000000408FC000000000000000000000006055E153400C00000013000000
310
E20000003C00000006000000020000000000000000408F40000000000000D03E0000002000D051400000000000408F400000008007E21EC000000060027650400C00000013000000EA0000003C00000006000000020000000000000000408FC00000008007E21EC000000060027650400000000000408F400000008007E21E
310
C000000060027650400C00000013000000F20000003C00000006000000020000000000000000408FC00000008007E21EC000000060027650400000000000408FC0000000000000D03E0000002000D051400C00000013000000FA0000003C00000006000000020000000000000000408F400000008007E21EC0000000600276
310
50400000000000408F400000000014D020C0000000E0614B50400C00000013000000020100003C00000006000000020000000000000000408FC00000000014D020C0000000E0614B50400000000000408F400000000014D020C0000000E0614B50400C000000130000000A0100003C00000006000000020000000000000000
310
408FC00000000014D020C0000000E0614B50400000000000408FC00000008007E21EC000000060027650400C00000013000000120100003C00000006000000020000000000000000408F40000000C005B221C0000000E0201550400000000000408F400000000014D020C0000000E0614B50400C000000130000001A010000
310
3C00000006000000020000000000000000408FC0000000C005B221C0000000E0201550400000000000408F40000000C005B221C0000000E0201550400C00000013000000220100003C00000006000000020000000000000000408FC0000000C005B221C0000000E0201550400000000000408FC00000000014D020C0000000
310
E0614B50400C000000130000002A0100003C00000006000000020000000000000000408F4000000060000022C00000000077B14F400000000000408F40000000C005B221C0000000E0201550400C00000013000000320100003C00000006000000020000000000000000408FC000000060000022C00000000077B14F400000
310
000000408F4000000060000022C00000000077B14F400C000000130000003A0100003C00000006000000020000000000000000408FC000000060000022C00000000077B14F400000000000408FC0000000C005B221C0000000E0201550400C00000013000000420100003C00000006000000020000000000000000408F4000
310
000060000022C00000000077B14F400000000000408F40000000C0FFFF21C0000000C012DD3B400C000000130000004A0100003C00000006000000020000000000000000408FC0000000C0FFFF21C0000000C012DD3B400000000000408F40000000C0FFFF21C0000000C012DD3B400C00000013000000520100003C000000
310
06000000020000000000000000408FC0000000C0FFFF21C0000000C012DD3B400000000000408FC000000060000022C00000000077B14F400C000000130000005A0100003C00000006000000020000000000000000408F40000000C0FFFF21C0000000C012DD3B400000000000408F400000000005B221C0000000C07CEB3A
310
400C00000013000000620100003C00000006000000020000000000000000408FC00000000005B221C0000000C07CEB3A400000000000408F400000000005B221C0000000C07CEB3A400C000000130000006A0100003C00000006000000020000000000000000408FC00000000005B221C0000000C07CEB3A40000000000040
310
8FC0000000C0FFFF21C0000000C012DD3B400C00000013000000720100003C00000006000000020000000000000000408F400000000005B221C0000000C07CEB3A400000000000408F400000004013D020C00000004078123A400C000000130000007A0100003C00000006000000020000000000000000408FC00000004013
310
D020C00000004078123A400000000000408F400000004013D020C00000004078123A400C00000013000000820100003C00000006000000020000000000000000408FC00000004013D020C00000004078123A400000000000408FC00000000005B221C0000000C07CEB3A400C000000130000008A0100003C00000006000000
310
020000000000000000408F400000004013D020C00000004078123A400000000000408F40000000C005E21EC0000000C0F66739400C00000013000000920100003C00000006000000020000000000000000408FC0000000C005E21EC0000000C0F66739400000000000408F40000000C005E21EC0000000C0F66739400C0000
310
00130000009A0100003C00000006000000020000000000000000408FC0000000C005E21EC0000000C0F66739400000000000408FC00000004013D020C00000004078123A400C00000013000000A20100003C00000006000000020000000000000000408F40000000C005E21EC0000000C0F66739400000000000408F400000
310
00000000D03E000000E0FFFF33400C00000013000000AA0100003C00000006000000020000000000000000408FC0000000000000D03E000000E0FFFF33400000000000408F40000000000000D03E000000E0FFFF33400C00000013000000B20100003C00000006000000020000000000000000408FC0000000000000D03E00
310
0000E0FFFF33400000000000408FC0000000C005E21EC0000000C0F66739400C00000013000000BA0100003C00000006000000020000000000000000408F40000000000000D03E000000E0FFFF33400000000000408F40000000000000E83E0000008054F527400C00000013000000C20100003C0000000600000002000000
310
0000000000408FC0000000000000E83E0000008054F527400000000000408F40000000000000E83E0000008054F527400C00000013000000CA0100003C00000006000000020000000000000000408FC0000000000000D03E000000E0FFFF33400000000000408FC0000000000000E83E0000008054F527400C000000130000
310
00D20100003C00000006000000020000000000000000408F40000000002A99E5BF000000802C3A27400000000000408F40000000000000E83E0000008054F527400C00000013000000DA0100003C00000006000000020000000000000000408FC0000000002A99E5BF000000802C3A27400000000000408F40000000002A99
310
E5BF000000802C3A27400C00000013000000E20100003C00000006000000020000000000000000408FC0000000002A99E5BF000000802C3A27400000000000408FC0000000000000E83E0000008054F527400C00000013000000EA0100003C00000006000000020000000000000000408F40000000002A99E5BF000000802C
310
3A27400000000000408F40000000002A2EF2BF00000080040026400C00000013000000F20100003C00000006000000020000000000000000408FC0000000002A2EF2BF00000080040026400000000000408F40000000002A2EF2BF00000080040026400C00000013000000FA0100003C000000060000000200000000000000
310
00408FC0000000002A2EF2BF00000080040026400000000000408FC0000000002A99E5BF000000802C3A27400C00000013000000020200003C00000006000000020000000000000000408F4000000000BACCF4BF00000080FF7F24400000000000408F40000000002A2EF2BF00000080040026400C000000130000000A0200
310
003C00000006000000020000000000000000408FC000000000BACCF4BF00000080FF7F24400000000000408F4000000000BACCF4BF00000080FF7F24400C00000013000000120200003C00000006000000020000000000000000408FC000000000BACCF4BF00000080FF7F24400000000000408FC0000000002A2EF2BF0000
310
0080040026400C000000130000001A0200003C00000006000000020000000000000000408F40000000002A2EF2BF00000080FAFF22400000000000408F4000000000BACCF4BF00000080FF7F24400C00000013000000220200003C00000006000000020000000000000000408FC0000000002A2EF2BF00000080FAFF224000
310
00000000408F40000000002A2EF2BF00000080FAFF22400C000000130000002A0200003C00000006000000020000000000000000408FC0000000002A2EF2BF00000080FAFF22400000000000408FC000000000BACCF4BF00000080FF7F24400C00000013000000320200003C00000006000000020000000000000000408F40
310
000000002C99E5BF00000080D2C521400000000000408F40000000002A2EF2BF00000080FAFF22400C000000130000003A0200003C00000006000000020000000000000000408FC0000000002C99E5BF00000080D2C521400000000000408F40000000002C99E5BF00000080D2C521400C00000013000000420200003C0000
310
0006000000020000000000000000408FC0000000002C99E5BF00000080D2C521400000000000408FC0000000002A2EF2BF00000080FAFF22400C000000130000004A0200003C00000006000000020000000000000000408F40000000002C99E5BF00000080D2C521400000000000408F40000000000000E43E00000080AA0A
310
21400C00000013000000520200003C00000006000000020000000000000000408FC0000000000000E43E00000080AA0A21400000000000408F40000000000000E43E00000080AA0A21400C000000130000005A0200003C00000006000000020000000000000000408FC0000000000000E43E00000080AA0A21400000000000
310
408FC0000000002C99E5BF00000080D2C521400C00000013000000620200003C00000006000000020000000000000000408F40000000000000E43E00000080AA0A21400000000000408F40000000000000C03E000000000000D0BE0C000000130000006A0200003C00000006000000020000000000000000408FC000000000
310
0000C03E000000000000D0BE0000000000408F40000000000000C03E000000000000D0BE0C00000013000000720200003C00000006000000020000000000000000408FC0000000000000C03E000000000000D0BE0000000000408FC0000000000000E43E00000080AA0A21400C000000130000007A0200003C000000060000
310
00020000000000000000408F4000000080FFFF2BC0000000005076D73F0000000000408F40000000000000C03E000000000000D0BE0C00000013000000820200003C00000006000000020000000000000000408FC000000080FFFF2BC0000000005076D73F0000000000408F4000000080FFFF2BC0000000005076D73F0C00
310
0000130000008A0200003C00000006000000020000000000000000408FC000000080FFFF2BC0000000005076D73F0000000000408FC0000000000000C03E000000000000D0BE0C00000013000000920200003C00000006000000020000000000000000408F4000000080FFFF2BC0000000005076D73F0000000000408F4000
310
000080FFFF2BC000000000CAEE02400C000000130000009A0200003C00000006000000020000000000000000408FC000000080FFFF2BC000000000CAEE02400000000000408F4000000080FFFF2BC000000000CAEE02400C00000013000000A20200003C00000006000000020000000000000000408FC000000080FFFF2BC0
310
000000005076D73F0000000000408FC000000080FFFF2BC000000000CAEE02400C00000013000000AA0200003C00000006000000020000000000000000408F4000000080FFFF2BC000000000CAEE02400000000000408F40000000C0FFFF30C000000000AE8F03400C00000013000000B20200003C00000006000000020000
310
000000000000408FC0000000C0FFFF30C000000000AE8F03400000000000408F40000000C0FFFF30C000000000AE8F03400C00000013000000BA0200003C00000006000000020000000000000000408FC0000000C0FFFF30C000000000AE8F03400000000000408FC000000080FFFF2BC000000000CAEE02400C0000001300
310
0000C20200003C00000006000000020000000000000000408F40000000C0FFFF30C000000000AE8F03400000000000408F4000000020F7FB30C0000000007EA30A400C00000013000000CA0200003C00000006000000020000000000000000408FC000000020F7FB30C0000000007EA30A400000000000408F4000000020F7
310
FB30C0000000007EA30A400C00000013000000D20200003C00000006000000020000000000000000408FC000000020F7FB30C0000000007EA30A400000000000408FC0000000C0FFFF30C000000000AE8F03400C00000013000000DA0200003C00000006000000020000000000000000408F4000000020F7FB30C000000000
310
7EA30A400000000000408F40000000E0021131C0000000004AC511400C00000013000000E20200003C00000006000000020000000000000000408FC0000000E0021131C0000000004AC511400000000000408F40000000E0021131C0000000004AC511400C00000013000000EA0200003C0000000600000002000000000000
310
0000408FC0000000E0021131C0000000004AC511400000000000408FC000000020F7FB30C0000000007EA30A400C00000013000000F20200003C00000006000000020000000000000000408F40000000E0021131C0000000004AC511400000000000408F40000000C03A3D31C00000000074CF15400C00000013000000FA02
310
00003C00000006000000020000000000000000408FC0000000C03A3D31C00000000074CF15400000000000408F40000000C03A3D31C00000000074CF15400C00000013000000020300003C00000006000000020000000000000000408FC0000000C03A3D31C00000000074CF15400000000000408FC0000000E0021131C000
310
0000004AC511400C000000130000000A0300003C00000006000000020000000000000000408F40000000C03A3D31C00000000074CF15400000000000408F4000000000E17F31C0000000006CC819400C00000013000000120300003C00000006000000020000000000000000408FC000000000E17F31C0000000006CC81940
310
0000000000408F4000000000E17F31C0000000006CC819400C000000130000001A0300003C00000006000000020000000000000000408FC000000000E17F31C0000000006CC819400000000000408FC0000000C03A3D31C00000000074CF15400C00000013000000220300003C00000006000000020000000000000000408F
310
4000000000E17F31C0000000006CC819400000000000408F40000000C0ECD731C00000000054BB1D400C000000130000002A0300003C00000006000000020000000000000000408FC0000000C0ECD731C00000000054BB1D400000000000408F40000000C0ECD731C00000000054BB1D400C00000013000000320300003C00
310
000006000000020000000000000000408FC0000000C0ECD731C00000000054BB1D400000000000408FC000000000E17F31C0000000006CC819400C000000130000003A0300003C00000006000000020000000000000000408F40000000C0ECD731C00000000054BB1D400000000000408F4000000060E24032C00000008007
310
C520400C00000013000000420300003C00000006000000020000000000000000408FC000000060E24032C00000008007C520400000000000408F4000000060E24032C00000008007C520400C000000130000004A0300003C00000006000000020000000000000000408FC000000060E24032C00000008007C5204000000000
310
00408FC0000000C0ECD731C00000000054BB1D400C00000013000000520300003C00000006000000020000000000000000408F4000000060E24032C00000008007C520400000000000408F40000000207CB732C000000080B69122400C000000130000005A0300003C00000006000000020000000000000000408FC0000000
310
207CB732C000000080B69122400000000000408F40000000207CB732C000000080B69122400C00000013000000620300003C00000006000000020000000000000000408FC0000000207CB732C000000080B69122400000000000408FC000000060E24032C00000008007C520400C000000130000006A0300003C0000000600
310
0000020000000000000000408F40000000207CB732C000000080B69122400000000000408F4000000000AF4C33C000000080666D24400C00000013000000720300003C00000006000000020000000000000000408FC000000000AF4C33C000000080666D24400000000000408F4000000000AF4C33C000000080666D24400C
310
000000130000007A0300003C00000006000000020000000000000000408FC000000000AF4C33C000000080666D24400000000000408FC0000000207CB732C000000080B69122400C00000013000000820300003C00000006000000020000000000000000408F4000000000AF4C33C000000080666D24400000000000408F40
310
00000000ADEB33C0000000801A0426400C000000130000008A0300003C00000006000000020000000000000000408FC000000000ADEB33C0000000801A0426400000000000408F4000000000ADEB33C0000000801A0426400C00000013000000920300003C00000006000000020000000000000000408FC000000000ADEB33
310
C0000000801A0426400000000000408FC000000000AF4C33C000000080666D24400C000000130000009A0300003C00000006000000020000000000000000408F4000000000ADEB33C0000000801A0426400000000000408F4000000040D19D34C000000080D46927400C00000013000000A20300003C000000060000000200
310
00000000000000408FC000000040D19D34C000000080D46927400000000000408F4000000040D19D34C000000080D46927400C00000013000000AA0300003C00000006000000020000000000000000408FC000000040D19D34C000000080D46927400000000000408FC000000000ADEB33C0000000801A0426400C00000013
310
000000B20300003C00000006000000020000000000000000408F4000000040D19D34C000000080D46927400000000000408F40000000E0066335C000000000979828400C00000013000000BA0300003C00000006000000020000000000000000408FC0000000E0066335C000000000979828400000000000408F40000000E0
310
066335C000000000979828400C00000013000000C20300003C00000006000000020000000000000000408FC0000000E0066335C000000000979828400000000000408FC000000040D19D34C000000080D46927400C00000013000000CA0300003C00000006000000020000000000000000408F40000000E0066335C0000000
310
00979828400000000000408F4000000000934736C00000008036B129400C00000013000000D20300003C00000006000000020000000000000000408FC000000000934736C00000008036B129400000000000408F4000000000934736C00000008036B129400C00000013000000DA0300003C00000006000000020000000000
310
000000408FC000000000934736C00000008036B129400000000000408FC0000000E0066335C000000000979828400C00000013000000E20300003C00000006000000020000000000000000408F4000000000934736C00000008036B129400000000000408F4000000000002337C000000000B4B12A400C00000013000000EA
310
0300003C00000006000000020000000000000000408FC000000000002337C000000000B4B12A400000000000408F4000000000002337C000000000B4B12A400C00000013000000F20300003C00000006000000020000000000000000408FC000000000002337C000000000B4B12A400000000000408FC000000000934736C0
310
0000008036B129400C00000013000000FA0300003C00000006000000020000000000000000408F4000000000002337C000000000B4B12A400000000000408F400000004079E537C00000000077B92B400C00000013000000020400003C00000006000000020000000000000000408FC00000004079E537C00000000077B92B
310
400000000000408F400000004079E537C00000000077B92B400C000000130000000A0400003C00000006000000020000000000000000408FC00000004079E537C00000000077B92B400000000000408FC000000000002337C000000000B4B12A400C00000013000000120400003C0000000600000002000000000000000040
310
8F400000004079E537C00000000077B92B400000000000408F4000000080809338C0000000006D012D400C000000130000001A0400003C00000006000000020000000000000000408FC000000080809338C0000000006D012D400000000000408F4000000080809338C0000000006D012D400C00000013000000220400003C
310
00000006000000020000000000000000408FC000000080809338C0000000006D012D400000000000408FC00000004079E537C00000000077B92B400C000000130000002A0400003C00000006000000020000000000000000408F4000000080809338C0000000006D012D400000000000408F4000000040231039C000000000
310
CF882E400C00000013000000320400003C00000006000000020000000000000000408FC000000040231039C000000000CF882E400000000000408F4000000040231039C000000000CF882E400C000000130000003A0400003C00000006000000020000000000000000408FC000000040231039C000000000CF882E40000000
310
0000408FC000000080809338C0000000006D012D400C00000013000000420400003C00000006000000020000000000000000408F40000000A0EC5C39C000000060AD2630400000000000408F4000000040231039C000000000CF882E400C000000130000004A0400003C00000006000000020000000000000000408FC00000
310
00A0EC5C39C000000060AD2630400000000000408F40000000A0EC5C39C000000060AD2630400C00000013000000520400003C00000006000000020000000000000000408FC0000000A0EC5C39C000000060AD2630400000000000408FC000000040231039C000000000CF882E400C000000130000005A0400003C00000006
310
000000020000000000000000408F40000000E0567D39C0000000006D1B31400000000000408F40000000A0EC5C39C000000060AD2630400C00000013000000620400003C00000006000000020000000000000000408FC0000000E0567D39C0000000006D1B31400000000000408F40000000E0567D39C0000000006D1B3140
310
0C000000130000006A0400003C00000006000000020000000000000000408FC0000000E0567D39C0000000006D1B31400000000000408FC0000000A0EC5C39C000000060AD2630400C00000013000000720400003C00000006000000020000000000000000408F40000000E0567D39C0000000006D1B31400000000000408F
310
4000000080657139C0000000E0E60F32400C000000130000007A0400003C00000006000000020000000000000000408FC000000080657139C0000000E0E60F32400000000000408F4000000080657139C0000000E0E60F32400C00000013000000820400003C00000006000000020000000000000000408FC0000000806571
310
39C0000000E0E60F32400000000000408FC0000000E0567D39C0000000006D1B31400C000000130000008A0400003C00000006000000020000000000000000408F40000000A04A3839C000000060BBEF32400000000000408F4000000080657139C0000000E0E60F32400C00000013000000920400003C0000000600000002
310
0000000000000000408FC0000000A04A3839C000000060BBEF32400000000000408F40000000A04A3839C000000060BBEF32400C000000130000009A0400003C00000006000000020000000000000000408FC0000000A04A3839C000000060BBEF32400000000000408FC000000080657139C0000000E0E60F32400C000000
310
13000000A20400003C00000006000000020000000000000000408F40000000A04A3839C000000060BBEF32400000000000408F4000000020B7D138C0000000201FB533400C00000013000000AA0400003C00000006000000020000000000000000408FC000000020B7D138C0000000201FB533400000000000408F40000000
310
20B7D138C0000000201FB533400C00000013000000B20400003C00000006000000020000000000000000408FC000000020B7D138C0000000201FB533400000000000408FC0000000A04A3839C000000060BBEF32400C00000013000000BA0400003C00000006000000020000000000000000408F40000000E0892D38C00000
310
00E0066E34400000000000408F4000000020B7D138C0000000201FB533400C00000013000000C20400003C00000006000000020000000000000000408FC0000000E0892D38C0000000E0066E34400000000000408F40000000E0892D38C0000000E0066E34400C00000013000000CA0400003C000000060000000200000000
310
00000000408FC0000000E0892D38C0000000E0066E34400000000000408FC000000020B7D138C0000000201FB533400C00000013000000D20400003C00000006000000020000000000000000408F40000000C0D55837C000000040FE0A35400000000000408F40000000E0892D38C0000000E0066E34400C00000013000000
310
DA0400003C00000006000000020000000000000000408FC0000000C0D55837C000000040FE0A35400000000000408F40000000C0D55837C000000040FE0A35400C00000013000000E20400003C00000006000000020000000000000000408FC0000000C0D55837C000000040FE0A35400000000000408FC0000000E0892D38
310
C0000000E0066E34400C00000013000000EA0400003C00000006000000020000000000000000408F40000000C0D55837C000000040FE0A35400000000000408F40000000C00D6136C0000000407A9135400C00000013000000F20400003C00000006000000020000000000000000408FC0000000C00D6136C0000000407A91
310
35400000000000408F40000000C00D6136C0000000407A9135400C00000013000000FA0400003C00000006000000020000000000000000408FC0000000C00D6136C0000000407A9135400000000000408FC0000000C0D55837C000000040FE0A35400C00000013000000020500003C00000006000000020000000000000000
310
408F40000000801E6235C0000000203D0236400000000000408F40000000C00D6136C0000000407A9135400C000000130000000A0500003C00000006000000020000000000000000408FC0000000801E6235C0000000203D0236400000000000408F40000000801E6235C0000000203D0236400C0000001300000012050000
310
3C00000006000000020000000000000000408FC0000000801E6235C0000000203D0236400000000000408FC0000000C00D6136C0000000407A9135400C000000130000001A0500003C00000006000000020000000000000000408F40000000801E6235C0000000203D0236400000000000408F4000000000166334C0000000
310
40996536400C00000013000000220500003C00000006000000020000000000000000408FC000000000166334C000000040996536400000000000408F4000000000166334C000000040996536400C000000130000002A0500003C00000006000000020000000000000000408FC000000000166334C000000040996536400000
310
000000408FC0000000801E6235C0000000203D0236400C00000013000000320500003C00000006000000020000000000000000408F4000000000000033C0000000C0F5F136400000000000408F4000000000166334C000000040996536400C000000130000003A0500003C00000006000000020000000000000000408FC000
310
000000000033C0000000C0F5F136400000000000408F4000000000000033C0000000C0F5F136400C00000013000000420500003C00000006000000020000000000000000408FC000000000000033C0000000C0F5F136400000000000408FC000000000166334C000000040996536400C000000130000004A0500003C000000
310
06000000020000000000000000408F4000000000000033C0000000C0F5F136400000000000408F4000000000000033C0000000407B7E4A400C00000013000000520500003C00000006000000020000000000000000408FC000000000000033C0000000407B7E4A400000000000408F4000000000000033C0000000407B7E4A
310
400C000000130000005A0500003C00000006000000020000000000000000408FC000000000000033C0000000407B7E4A400000000000408FC000000000000033C0000000C0F5F136400C00000013000000620500003C00000006000000020000000000000000408F4000000000000033C0000000407B7E4A40000000000040
310
8F40000000401E3233C0000000C0B21C4B400C000000130000006A0500003C00000006000000020000000000000000408FC0000000401E3233C0000000C0B21C4B400000000000408F40000000401E3233C0000000C0B21C4B400C00000013000000720500003C00000006000000020000000000000000408FC0000000401E
310
3233C0000000C0B21C4B400000000000408FC000000000000033C0000000407B7E4A400C000000130000007A0500003C00000006000000020000000000000000408F40000000401E3233C0000000C0B21C4B400000000000408F400000000091C333C0000000806DAB4B400C00000013000000820500003C00000006000000
310
020000000000000000408FC00000000091C333C0000000806DAB4B400000000000408F400000000091C333C0000000806DAB4B400C000000130000008A0500003C00000006000000020000000000000000408FC00000000091C333C0000000806DAB4B400000000000408FC0000000401E3233C0000000C0B21C4B400C0000
310
0013000000920500003C00000006000000020000000000000000408F400000000091C333C0000000806DAB4B400000000000408F40000000801BA634C0000000C0B21C4C400C000000130000009A0500003C00000006000000020000000000000000408FC0000000801BA634C0000000C0B21C4C400000000000408F400000
310
00801BA634C0000000C0B21C4C400C00000013000000A20500003C00000006000000020000000000000000408FC0000000801BA634C0000000C0B21C4C400000000000408FC00000000091C333C0000000806DAB4B400C00000013000000AA0500003C00000006000000020000000000000000408F40000000801BA634C000
310
0000C0B21C4C400000000000408F400000000091C335C0000000206C654C400C00000013000000B20500003C00000006000000020000000000000000408FC00000000091C335C0000000206C654C400000000000408F400000000091C335C0000000206C654C400C00000013000000BA0500003C0000000600000002000000
310
0000000000408FC00000000091C335C0000000206C654C400000000000408FC0000000801BA634C0000000C0B21C4C400C00000013000000C20500003C00000006000000020000000000000000408F400000000091C335C0000000206C654C400000000000408F4000000000000037C0000000407B7E4C400C000000130000
310
00CA0500003C00000006000000020000000000000000408FC000000000000037C0000000407B7E4C400000000000408F4000000000000037C0000000407B7E4C400C00000013000000D20500003C00000006000000020000000000000000408FC000000000000037C0000000407B7E4C400000000000408FC00000000091C3
310
35C0000000206C654C400C00000013000000DA0500003C00000006000000020000000000000000408F4000000000000037C0000000407BFE4D400000000000408F4000000000000037C0000000407B7E4C400C00000013000000E20500003C00000006000000020000000000000000408FC000000000000037C0000000407B
310
FE4D400000000000408F4000000000000037C0000000407BFE4D400C00000013000000EA0500003C00000006000000020000000000000000408FC000000000000037C0000000407BFE4D400000000000408FC000000000000037C0000000407B7E4C400C00000013000000F20500003C000000060000000200000000000000
310
00408F4000000000000037C0000000407BFE4D400000000000408F40000000400B9E38C0000000A0BCC84E400C00000013000000FA0500003C00000006000000020000000000000000408FC0000000400B9E38C0000000A0BCC84E400000000000408F40000000400B9E38C0000000A0BCC84E400C00000013000000020600
310
003C00000006000000020000000000000000408FC0000000400B9E38C0000000A0BCC84E400000000000408FC000000000000037C0000000407BFE4D400C000000130000000A0600003C00000006000000020000000000000000408F40000000C061FF39C0000000C0B1934F400000000000408F40000000400B9E38C00000
310
00A0BCC84E400C00000013000000120600003C00000006000000020000000000000000408FC0000000C061FF39C0000000C0B1934F400000000000408F40000000C061FF39C0000000C0B1934F400C000000130000001A0600003C00000006000000020000000000000000408FC0000000C061FF39C0000000C0B1934F4000
310
00000000408FC0000000400B9E38C0000000A0BCC84E400C00000013000000220600003C00000006000000020000000000000000408F40000000C061FF39C0000000C0B1934F400000000000408F40000000006E283BC000000020362F50400C000000130000002A0600003C00000006000000020000000000000000408FC0
310
000000006E283BC000000020362F50400000000000408F40000000006E283BC000000020362F50400C00000013000000320600003C00000006000000020000000000000000408FC0000000006E283BC000000020362F50400000000000408FC0000000C061FF39C0000000C0B1934F400C000000130000003A0600003C0000
310
0006000000020000000000000000408F40000000E05E1C3CC0000000607B9350400000000000408F40000000006E283BC000000020362F50400C00000013000000420600003C00000006000000020000000000000000408FC0000000E05E1C3CC0000000607B9350400000000000408F40000000E05E1C3CC0000000607B93
310
50400C000000130000004A0600003C00000006000000020000000000000000408FC0000000E05E1C3CC0000000607B9350400000000000408FC0000000006E283BC000000020362F50400C00000013000000520600003C00000006000000020000000000000000408F40000000E05E1C3CC0000000607B9350400000000000
310
408F4000000000EEDC3CC0000000E098F450400C000000130000005A0600003C00000006000000020000000000000000408FC000000000EEDC3CC0000000E098F450400000000000408F4000000000EEDC3CC0000000E098F450400C00000013000000620600003C00000006000000020000000000000000408FC000000000
310
EEDC3CC0000000E098F450400000000000408FC0000000E05E1C3CC0000000607B9350400C000000130000006A0600003C00000006000000020000000000000000408F40000000C0406E3DC0000000E0BE5051400000000000408F4000000000EEDC3CC0000000E098F450400C00000013000000720600003C000000060000
310
00020000000000000000408FC0000000C0406E3DC0000000E0BE5051400000000000408F40000000C0406E3DC0000000E0BE5051400C000000130000007A0600003C00000006000000020000000000000000408FC0000000C0406E3DC0000000E0BE5051400000000000408FC000000000EEDC3CC0000000E098F450400C00
310
000013000000820600003C00000006000000020000000000000000408F40000000C0406E3DC0000000E0BE5051400000000000408F40000000E086D23DC00000002074A551400C000000130000008A0600003C00000006000000020000000000000000408FC0000000E086D23DC00000002074A551400000000000408F4000
310
0000E086D23DC00000002074A551400C00000013000000920600003C00000006000000020000000000000000408FC0000000E086D23DC00000002074A551400000000000408FC0000000C0406E3DC0000000E0BE5051400C000000130000009A0600003C00000006000000020000000000000000408F4000000000280E3EC0
310
000000A092F151400000000000408F40000000E086D23DC00000002074A551400C00000013000000A20600003C00000006000000020000000000000000408FC000000000280E3EC0000000A092F151400000000000408F4000000000280E3EC0000000A092F151400C00000013000000AA0600003C00000006000000020000
310
000000000000408FC000000000280E3EC0000000A092F151400000000000408FC0000000E086D23DC00000002074A551400C00000013000000B20600003C00000006000000020000000000000000408F4000000000280E3EC0000000A092F151400000000000408F40000000009D253EC000000020B47752400C0000001300
310
0000BA0600003C00000006000000020000000000000000408FC0000000009D253EC000000020B47752400000000000408F40000000009D253EC000000020B47752400C00000013000000C20600003C00000006000000020000000000000000408FC0000000009D253EC000000020B47752400000000000408FC00000000028
310
0E3EC0000000A092F151400C00000013000000CA0600003C00000006000000020000000000000000408F40000000008FCE3DC0000000E069F052400000000000408F40000000009D253EC000000020B47752400C00000013000000D20600003C00000006000000020000000000000000408FC0000000008FCE3DC0000000E0
310
69F052400000000000408F40000000008FCE3DC0000000E069F052400C00000013000000DA0600003C00000006000000020000000000000000408FC0000000008FCE3DC0000000E069F052400000000000408FC0000000009D253EC000000020B47752400C00000013000000E20600003C0000000600000002000000000000
310
0000408F40000000008FCE3DC0000000E069F052400000000000408F40000000A0E7153DC0000000A05A5D53400C00000013000000EA0600003C00000006000000020000000000000000408FC0000000A0E7153DC0000000A05A5D53400000000000408F40000000A0E7153DC0000000A05A5D53400C00000013000000F206
310
00003C00000006000000020000000000000000408FC0000000A0E7153DC0000000A05A5D53400000000000408FC0000000008FCE3DC0000000E069F052400C00000013000000FA0600003C00000006000000020000000000000000408F40000000E079103CC0000000E05ABA53400000000000408F40000000A0E7153DC000
310
0000A05A5D53400C00000013000000020700003C00000006000000020000000000000000408FC0000000E079103CC0000000E05ABA53400000000000408F40000000E079103CC0000000E05ABA53400C000000130000000A0700003C00000006000000020000000000000000408FC0000000E079103CC0000000E05ABA5340
310
0000000000408FC0000000A0E7153DC0000000A05A5D53400C00000013000000120700003C00000006000000020000000000000000408F40000000E079103CC0000000E05ABA53400000000000408F400000008036C43AC0000000E0270554400C000000130000001A0700003C00000006000000020000000000000000408F
310
C00000008036C43AC0000000E0270554400000000000408F400000008036C43AC0000000E0270554400C00000013000000220700003C00000006000000020000000000000000408FC00000008036C43AC0000000E0270554400000000000408FC0000000E079103CC0000000E05ABA53400C000000130000002A0700003C00
310
000006000000020000000000000000408F4000000020D7A439C0000000A0862B54400000000000408F400000008036C43AC0000000E0270554400C00000013000000320700003C00000006000000020000000000000000408FC000000020D7A439C0000000A0862B54400000000000408F4000000020D7A439C0000000A086
310
2B54400C000000130000003A0700003C00000006000000020000000000000000408FC000000020D7A439C0000000A0862B54400000000000408FC00000008036C43AC0000000E0270554400C00000013000000420700003C00000006000000020000000000000000408FC0000000C0168F38C000000000D847544000000000
310
00408F40000000C0168F38C000000000D84754400C000000130000004A0700003C00000006000000020000000000000000408F4000000080C4F236C0000000E0EB6554400000000000408F40000000C0168F38C000000000D84754400C00000013000000520700003C00000006000000020000000000000000408FC0000000
310
80C4F236C0000000E0EB6554400000000000408F4000000080C4F236C0000000E0EB6554400C000000130000005A0700003C00000006000000020000000000000000408FC000000080C4F236C0000000E0EB6554400000000000408FC0000000C0168F38C000000000D84754400C00000013000000620700003C0000000600
310
0000020000000000000000408F4000000080C4F236C0000000E0EB6554400000000000408F4000000020649235C0000000607C7454400C000000130000006A0700003C00000006000000020000000000000000408FC000000020649235C0000000607C7454400000000000408F4000000020649235C0000000607C7454400C
310
00000013000000720700003C00000006000000020000000000000000408FC000000020649235C0000000607C7454400000000000408FC000000080C4F236C0000000E0EB6554400C000000130000007A0700003C00000006000000020000000000000000408F4000000020000034C0000000E03D7F54400000000000408F40
310
00000020649235C0000000607C7454400C00000013000000820700003C00000006000000020000000000000000408FC000000020000034C0000000E03D7F54400000000000408F4000000020000034C0000000E03D7F54400C000000130000008A0700003C00000006000000020000000000000000408FC000000020000034
310
C0000000E03D7F54400000000000408FC000000020649235C0000000607C7454400C00000013000000920700003C00000006000000020000000000000000408F4000000020000034C0000000E03D7F54400000000000408F4000000040000034C0000000E03D3F55400C000000130000009A0700003C000000060000000200
310
00000000000000408FC000000040000034C0000000E03D3F55400000000000408F4000000040000034C0000000E03D3F55400C00000013000000A20700003C00000006000000020000000000000000408FC000000040000034C0000000E03D3F55400000000000408FC000000020000034C0000000E03D7F54400C00000013
310
000000AA0700003C00000006000000020000000000000000408F4000000080107830C0000000E03D3F55400000000000408F4000000040000034C0000000E03D3F55400C00000013000000B20700003C00000006000000020000000000000000408FC000000080107830C0000000E03D3F55400000000000408F4000000080
310
107830C0000000E03D3F55400C00000013000000BA0700003C00000006000000020000000000000000408FC000000080107830C0000000E03D3F55400000000000408FC000000040000034C0000000E03D3F55400C00000013000000C20700003C00000006000000020000000000000000408FC000000040D4122FC0000000
310
E0EF4355400000000000408F4000000040D4122FC0000000E0EF4355400C00000013000000CA0700003C00000006000000020000000000000000408F40000000C0EA372DC0000000E0564D55400000000000408F4000000040D4122FC0000000E0EF4355400C00000013000000D20700003C00000006000000020000000000
310
000000408FC0000000C0EA372DC0000000E0564D55400000000000408F40000000C0EA372DC0000000E0564D55400C00000013000000DA0700003C00000006000000020000000000000000408FC0000000C0EA372DC0000000E0564D55400000000000408FC000000040D4122FC0000000E0EF4355400C00000013000000E2
310
0700003C00000006000000020000000000000000408FC0000000C0C9742BC000000040A95F55400000000000408F40000000C0C9742BC000000040A95F55400C00000013000000EA0700003C00000006000000020000000000000000408F40000000C0C9742BC000000040A95F55400000000000408F40000000C04DC829C0
310
00000080F37A55400C00000013000000F20700003C00000006000000020000000000000000408FC0000000C04DC829C000000080F37A55400000000000408F40000000C04DC829C000000080F37A55400C00000013000000FA0700003C00000006000000020000000000000000408FC0000000C04DC829C000000080F37A55
310
400000000000408FC0000000C0C9742BC000000040A95F55400C00000013000000020800003C00000006000000020000000000000000408FC0000000008D4828C000000060CD9D55400000000000408F40000000008D4828C000000060CD9D55400C000000130000000A0800003C0000000600000002000000000000000040
310
8F40000000E07CF426C0000000604FC855400000000000408F40000000008D4828C000000060CD9D55400C00000013000000120800003C00000006000000020000000000000000408FC0000000E07CF426C0000000604FC855400000000000408F40000000E07CF426C0000000604FC855400C000000130000001A0800003C
310
00000006000000020000000000000000408FC0000000E07CF426C0000000604FC855400000000000408FC0000000008D4828C000000060CD9D55400C00000013000000220800003C00000006000000020000000000000000408FC000000080ADDD25C00000008047F855400000000000408F4000000080ADDD25C000000080
310
47F855400C000000130000002A0800003C00000006000000020000000000000000408F40000000C05B0325C000000000D72D56400000000000408F4000000080ADDD25C00000008047F855400C00000013000000320800003C00000006000000020000000000000000408FC0000000C05B0325C000000000D72D5640000000
310
0000408F40000000C05B0325C000000000D72D56400C000000130000003A0800003C00000006000000020000000000000000408FC0000000C05B0325C000000000D72D56400000000000408FC000000080ADDD25C00000008047F855400C00000013000000420800003C00000006000000020000000000000000408FC00000
310
0000C87024C0000000203B6656400000000000408F4000000000C87024C0000000203B6656400C000000130000004A0800003C00000006000000020000000000000000408F4000000000C87024C0000000203B6656400000000000408F4000000040000024C0000000E03DBF56400C00000013000000520800003C00000006
310
000000020000000000000000408FC000000040000024C0000000E03DBF56400000000000408FC000000000C87024C0000000203B6656400C000000130000005A0800003C00000006000000020000000000000000408F4000000040D4122FC0000000E0EF4355400000000000408F4000000080107830C0000000E03D3F5540
310
0C00000013000000620800003C00000006000000020000000000000000408FC000000080107830C0000000E03D3F55400000000000408FC000000040D4122FC0000000E0EF4355400C000000130000006A0800003C00000006000000020000000000000000408F40000000C0C9742BC000000040A95F55400000000000408F
310
40000000C0EA372DC0000000E0564D55400C00000013000000720800003C00000006000000020000000000000000408FC0000000C0EA372DC0000000E0564D55400000000000408FC0000000C0C9742BC000000040A95F55400C000000130000007A0800003C00000006000000020000000000000000408F40000000008D48
310
28C000000060CD9D55400000000000408F40000000C04DC829C000000080F37A55400C00000013000000820800003C00000006000000020000000000000000408FC0000000C04DC829C000000080F37A55400000000000408FC0000000008D4828C000000060CD9D55400C000000130000008A0800003C0000000600000002
310
0000000000000000408F40000000E07CF426C0000000604FC855400000000000408F4000000080ADDD25C00000008047F855400C00000013000000920800003C00000006000000020000000000000000408FC0000000E07CF426C0000000604FC855400000000000408FC000000080ADDD25C00000008047F855400C000000
310
130000009A0800003C00000006000000020000000000000000408F40000000C05B0325C000000000D72D56400000000000408F4000000000C87024C0000000203B6656400C00000013000000A20800003C00000006000000020000000000000000408FC0000000C05B0325C000000000D72D56400000000000408FC0000000
310
00C87024C0000000203B6656400C00000013000000AA0800003C00000006000000020000000000000000408F4000000020D7A439C0000000A0862B54400000000000408F40000000C0168F38C000000000D84754400C00000013000000B20800003C00000006000000020000000000000000408FC000000020D7A439C00000
310
00A0862B54400000000000408FC0000000C0168F38C000000000D84754400C00000013000000BA0800003C00000006000000020000000000000000408FC000000080FFFF2BC000000000CAEE02400000000000408FC0000000002C99E5BF00000080D2C521400C00000013000000C20800003C000000060000000200000000
310
00000000408FC000000060000022C00000000077B14F400000000000408FC000000000000033C0000000407B7E4A400C00000013000000CA0800003C00000006000000020000000000000000408FC0000000C0FFFF21C0000000C012DD3B400000000000408FC000000000000033C0000000C0F5F136400C00000013000000
310
D20800003C00000006000000020000000000000000408FC00000000005B221C0000000C07CEB3A400000000000408FC000000000000033C0000000C0F5F136400C00000013000000DA0800003C00000006000000020000000000000000408FC00000004013D020C00000004078123A400000000000408FC000000000000033
310
C0000000C0F5F136400C00000013000000E20800003C00000006000000020000000000000000408FC0000000C005E21EC0000000C0F66739400000000000408FC000000000000033C0000000C0F5F136400C00000013000000EA0800003C00000006000000020000000000000000408FC0000000000000D03E000000E0FFFF
310
33400000000000408FC000000000000033C0000000C0F5F136400C00000013000000F20800003C00000006000000020000000000000000408FC0000000C0FFFF30C000000000AE8F03400000000000408FC0000000002C99E5BF00000080D2C521400C00000013000000FA0800003C00000006000000020000000000000000
310
408FC000000020F7FB30C0000000007EA30A400000000000408FC0000000002C99E5BF00000080D2C521400C00000013000000020900003C00000006000000020000000000000000408FC0000000E0021131C0000000004AC511400000000000408FC0000000002C99E5BF00000080D2C521400C000000130000000A090000
310
3C00000006000000020000000000000000408FC0000000C03A3D31C00000000074CF15400000000000408FC0000000002C99E5BF00000080D2C521400C00000013000000120900003C00000006000000020000000000000000408FC000000000E17F31C0000000006CC819400000000000408FC0000000002A2EF2BF000000
310
80FAFF22400C000000130000001A0900003C00000006000000020000000000000000408FC0000000C0ECD731C00000000054BB1D400000000000408FC0000000002A2EF2BF00000080FAFF22400C00000013000000220900003C00000006000000020000000000000000408FC000000060E24032C00000008007C520400000
310
000000408FC0000000002A2EF2BF00000080FAFF22400C000000130000002A0900003C00000006000000020000000000000000408FC0000000207CB732C000000080B69122400000000000408FC0000000002A2EF2BF00000080FAFF22400C00000013000000320900003C00000006000000020000000000000000408FC000
310
000000AF4C33C000000080666D24400000000000408FC0000000002A2EF2BF00000080FAFF22400C000000130000003A0900003C00000006000000020000000000000000408FC000000000ADEB33C0000000801A0426400000000000408FC000000000BACCF4BF00000080FF7F24400C00000013000000420900003C000000
310
06000000020000000000000000408FC000000040D19D34C000000080D46927400000000000408FC000000000BACCF4BF00000080FF7F24400C000000130000004A0900003C00000006000000020000000000000000408FC0000000E0066335C000000000979828400000000000408FC000000000BACCF4BF00000080FF7F24
310
400C00000013000000520900003C00000006000000020000000000000000408FC000000000934736C00000008036B129400000000000408FC000000000BACCF4BF00000080FF7F24400C000000130000005A0900003C00000006000000020000000000000000408FC000000000002337C000000000B4B12A40000000000040
310
8FC000000000BACCF4BF00000080FF7F24400C00000013000000620900003C00000006000000020000000000000000408FC00000004079E537C00000000077B92B400000000000408FC000000000BACCF4BF00000080FF7F24400C000000130000006A0900003C00000006000000020000000000000000408FC00000000016
310
6334C000000040996536400000000000408FC0000000002A99E5BF000000802C3A27400C00000013000000720900003C00000006000000020000000000000000408FC0000000801E6235C0000000203D0236400000000000408FC0000000002A99E5BF000000802C3A27400C000000130000007A0900003C00000006000000
310
020000000000000000408FC0000000C00D6136C0000000407A9135400000000000408FC0000000002A99E5BF000000802C3A27400C00000013000000820900003C00000006000000020000000000000000408FC0000000C0D55837C000000040FE0A35400000000000408FC0000000002A99E5BF000000802C3A27400C0000
310
00130000008A0900003C00000006000000020000000000000000408FC0000000E0892D38C0000000E0066E34400000000000408FC0000000002A99E5BF000000802C3A27400C00000013000000920900003C00000006000000020000000000000000408FC000000020B7D138C0000000201FB533400000000000408FC00000
310
00002A2EF2BF00000080040026400C000000130000009A0900003C00000006000000020000000000000000408FC0000000A04A3839C000000060BBEF32400000000000408FC0000000002A2EF2BF00000080040026400C00000013000000A20900003C00000006000000020000000000000000408FC000000080657139C000
310
0000E0E60F32400000000000408FC0000000002A2EF2BF00000080040026400C00000013000000AA0900003C00000006000000020000000000000000408FC0000000E0567D39C0000000006D1B31400000000000408FC0000000002A2EF2BF00000080040026400C00000013000000B20900003C0000000600000002000000
310
0000000000408FC0000000A0EC5C39C000000060AD2630400000000000408FC0000000002A2EF2BF00000080040026400C00000013000000BA0900003C00000006000000020000000000000000408FC000000080809338C0000000006D012D400000000000408FC000000000BACCF4BF00000080FF7F24400C000000130000
310
00C20900003C00000006000000020000000000000000408FC000000040231039C000000000CF882E400000000000408FC000000000BACCF4BF00000080FF7F24400C00000013000000CA0900003C00000006000000020000000000000000408FC0000000004099E5BF000000E045A754400000000000408FC000000000C870
310
24C0000000203B6656400C00000013000000D20900003C00000006000000020000000000000000408FC0000000C05B0325C000000000D72D56400000000000408FC0000000004099E5BF000000E045A754400C00000013000000DA0900003C00000006000000020000000000000000408FC000000040000024C0000000E03D
310
BF56400000000000408FC0000000004099E5BF000000E045A754400C00000013000000E20900003C00000006000000020000000000000000408FC000000000322EF2BF000000E0008054400000000000408FC000000080ADDD25C00000008047F855400C00000013000000EA0900003C000000060000000200000000000000
310
00408FC0000000E07CF426C0000000604FC855400000000000408FC000000000322EF2BF000000E0008054400C00000013000000F20900003C00000006000000020000000000000000408FC000000000322EF2BF000000E0008054400000000000408FC0000000008D4828C000000060CD9D55400C00000013000000FA0900
310
003C00000006000000020000000000000000408FC0000000C04DC829C000000080F37A55400000000000408FC000000000C2CCF4BF00000020005054400C00000013000000020A00003C00000006000000020000000000000000408FC000000000C2CCF4BF00000020005054400000000000408FC0000000C0C9742BC00000
310
0040A95F55400C000000130000000A0A00003C00000006000000020000000000000000408FC0000000C0EA372DC0000000E0564D55400000000000408FC000000000C2CCF4BF00000020005054400C00000013000000120A00003C00000006000000020000000000000000408FC000000000322EF2BF00000060FF1F544000
310
00000000408FC000000040D4122FC0000000E0EF4355400C000000130000001A0A00003C00000006000000020000000000000000408FC000000080107830C0000000E03D3F55400000000000408FC000000000322EF2BF00000060FF1F54400C00000013000000220A00003C00000006000000020000000000000000408FC0
310
00000040000034C0000000E03D3F55400000000000408FC000000000322EF2BF00000060FF1F54400C000000130000002A0A00003C00000006000000020000000000000000408FC000000020000034C0000000E03D7F54400000000000408FC0000000004099E5BF00000060BAF853400C00000013000000320A00003C0000
310
0006000000020000000000000000408FC000000060000022C00000000077B14F400000000000408FC0000000401E3233C0000000C0B21C4B400C000000130000003A0A00003C00000006000000020000000000000000408FC000000060000022C00000000077B14F400000000000408FC00000000091C333C0000000806DAB
310
4B400C00000013000000420A00003C00000006000000020000000000000000408FC000000060000022C00000000077B14F400000000000408FC0000000801BA634C0000000C0B21C4C400C000000130000004A0A00003C00000006000000020000000000000000408FC0000000C005B221C0000000E0201550400000000000
310
408FC00000000091C335C0000000206C654C400C00000013000000520A00003C00000006000000020000000000000000408FC000000020649235C0000000607C7454400000000000408FC000000000000000000000006055E153400C000000130000005A0A00003C00000006000000020000000000000000408FC000000080
310
C4F236C0000000E0EB6554400000000000408FC000000000000000000000006055E153400C00000013000000620A00003C00000006000000020000000000000000408FC000000000000000000000006055E153400000000000408FC0000000C0168F38C000000000D84754400C000000130000006A0A00003C000000060000
310
00020000000000000000408FC000000020D7A439C0000000A0862B54400000000000408FC000000000000000000000006055E153400C00000013000000720A00003C00000006000000020000000000000000408FC0000000000000D03E0000002000D051400000000000408FC00000008036C43AC0000000E0270554400C00
310
0000130000007A0A00003C00000006000000020000000000000000408FC0000000000000D03E0000002000D051400000000000408FC0000000E079103CC0000000E05ABA53400C00000013000000820A00003C00000006000000020000000000000000408FC0000000000000D03E0000002000D051400000000000408FC000
310
0000A0E7153DC0000000A05A5D53400C000000130000008A0A00003C00000006000000020000000000000000408FC0000000000000D03E0000002000D051400000000000408FC0000000008FCE3DC0000000E069F052400C00000013000000920A00003C00000006000000020000000000000000408FC00000008007E21EC0
310
00000060027650400000000000408FC0000000009D253EC000000020B47752400C000000130000009A0A00003C00000006000000020000000000000000408FC00000008007E21EC000000060027650400000000000408FC000000000280E3EC0000000A092F151400C00000013000000A20A00003C00000006000000020000
310
000000000000408FC00000008007E21EC000000060027650400000000000408FC0000000E086D23DC00000002074A551400C00000013000000AA0A00003C00000006000000020000000000000000408FC00000008007E21EC000000060027650400000000000408FC0000000C0406E3DC0000000E0BE5051400C0000001300
310
0000B20A00003C00000006000000020000000000000000408FC00000000014D020C0000000E0614B50400000000000408FC000000000EEDC3CC0000000E098F450400C00000013000000BA0A00003C00000006000000020000000000000000408FC00000000014D020C0000000E0614B50400000000000408FC0000000E05E
310
1C3CC0000000607B9350400C00000013000000C20A00003C00000006000000020000000000000000408FC00000000014D020C0000000E0614B50400000000000408FC0000000006E283BC000000020362F50400C00000013000000CA0A00003C00000006000000020000000000000000408FC00000000014D020C0000000E0
310
614B50400000000000408FC0000000C061FF39C0000000C0B1934F400C00000013000000D20A00003C00000006000000020000000000000000408FC0000000C005B221C0000000E0201550400000000000408FC0000000400B9E38C0000000A0BCC84E400C00000013000000DA0A00003C0000000600000002000000000000
310
0000408FC0000000C005B221C0000000E0201550400000000000408FC000000000000037C0000000407BFE4D400C00000013000000E20A00003C00000006000000020000000000000000408FC0000000C005B221C0000000E0201550400000000000408FC000000000000037C0000000407B7E4C400C00000013000000EA0A
310
00003C00000006000000020000000000000000408F4000000080FFFF2BC000000000CAEE02400000000000408F40000000002C99E5BF00000080D2C521400C00000013000000F20A00003C00000006000000020000000000000000408F4000000000000033C0000000C0F5F136400000000000408F40000000C0FFFF21C000
310
0000C012DD3B400C00000013000000FA0A00003C00000006000000020000000000000000408F4000000000000033C0000000407B7E4A400000000000408F4000000060000022C00000000077B14F400C00000013000000020B00003C00000006000000020000000000000000408F4000000000000033C0000000C0F5F13640
310
0000000000408F400000000005B221C0000000C07CEB3A400C000000130000000A0B00003C00000006000000020000000000000000408F4000000000000033C0000000C0F5F136400000000000408F400000004013D020C00000004078123A400C00000013000000120B00003C00000006000000020000000000000000408F
310
4000000000000033C0000000C0F5F136400000000000408F40000000C005E21EC0000000C0F66739400C000000130000001A0B00003C00000006000000020000000000000000408F4000000000000033C0000000C0F5F136400000000000408F40000000000000D03E000000E0FFFF33400C00000013000000220B00003C00
310
000006000000020000000000000000408F40000000002C99E5BF00000080D2C521400000000000408F40000000C0FFFF30C000000000AE8F03400C000000130000002A0B00003C00000006000000020000000000000000408F40000000002C99E5BF00000080D2C521400000000000408F4000000020F7FB30C0000000007E
310
A30A400C00000013000000320B00003C00000006000000020000000000000000408F40000000002C99E5BF00000080D2C521400000000000408F40000000E0021131C0000000004AC511400C000000130000003A0B00003C00000006000000020000000000000000408F40000000002C99E5BF00000080D2C5214000000000
310
00408F40000000C03A3D31C00000000074CF15400C00000013000000420B00003C00000006000000020000000000000000408F4000000000E17F31C0000000006CC819400000000000408F40000000002A2EF2BF00000080FAFF22400C000000130000004A0B00003C00000006000000020000000000000000408F40000000
310
002A2EF2BF00000080FAFF22400000000000408F40000000C0ECD731C00000000054BB1D400C00000013000000520B00003C00000006000000020000000000000000408F40000000002A2EF2BF00000080FAFF22400000000000408F4000000060E24032C00000008007C520400C000000130000005A0B00003C0000000600
310
0000020000000000000000408F40000000002A2EF2BF00000080FAFF22400000000000408F40000000207CB732C000000080B69122400C00000013000000620B00003C00000006000000020000000000000000408F40000000002A2EF2BF00000080FAFF22400000000000408F4000000000AF4C33C000000080666D24400C
310
000000130000006A0B00003C00000006000000020000000000000000408F4000000000ADEB33C0000000801A0426400000000000408F4000000000BACCF4BF00000080FF7F24400C00000013000000720B00003C00000006000000020000000000000000408F4000000000BACCF4BF00000080FF7F24400000000000408F40
310
00000040D19D34C000000080D46927400C000000130000007A0B00003C00000006000000020000000000000000408F4000000000BACCF4BF00000080FF7F24400000000000408F40000000E0066335C000000000979828400C00000013000000820B00003C00000006000000020000000000000000408F4000000000BACCF4
310
BF00000080FF7F24400000000000408F4000000000934736C00000008036B129400C000000130000008A0B00003C00000006000000020000000000000000408F4000000000BACCF4BF00000080FF7F24400000000000408F4000000000002337C000000000B4B12A400C00000013000000920B00003C000000060000000200
310
00000000000000408F4000000000BACCF4BF00000080FF7F24400000000000408F400000004079E537C00000000077B92B400C000000130000009A0B00003C00000006000000020000000000000000408F40000000801E6235C0000000203D0236400000000000408F40000000002A99E5BF000000802C3A27400C00000013
310
000000A20B00003C00000006000000020000000000000000408F4000000000166334C000000040996536400000000000408F40000000002A99E5BF000000802C3A27400C00000013000000AA0B00003C00000006000000020000000000000000408F40000000002A99E5BF000000802C3A27400000000000408F40000000C0
310
D55837C000000040FE0A35400C00000013000000B20B00003C00000006000000020000000000000000408F40000000002A99E5BF000000802C3A27400000000000408F40000000C00D6136C0000000407A9135400C00000013000000BA0B00003C00000006000000020000000000000000408F40000000002A99E5BF000000
310
802C3A27400000000000408F40000000E0892D38C0000000E0066E34400C00000013000000C20B00003C00000006000000020000000000000000408F40000000A04A3839C000000060BBEF32400000000000408F40000000002A2EF2BF00000080040026400C00000013000000CA0B00003C00000006000000020000000000
310
000000408F4000000020B7D138C0000000201FB533400000000000408F40000000002A2EF2BF00000080040026400C00000013000000D20B00003C00000006000000020000000000000000408F40000000002A2EF2BF00000080040026400000000000408F40000000E0567D39C0000000006D1B31400C00000013000000DA
310
0B00003C00000006000000020000000000000000408F40000000002A2EF2BF00000080040026400000000000408F4000000080657139C0000000E0E60F32400C00000013000000E20B00003C00000006000000020000000000000000408F40000000002A2EF2BF00000080040026400000000000408F40000000A0EC5C39C0
310
00000060AD2630400C00000013000000EA0B00003C00000006000000020000000000000000408F4000000000BACCF4BF00000080FF7F24400000000000408F4000000080809338C0000000006D012D400C00000013000000F20B00003C00000006000000020000000000000000408F4000000000BACCF4BF00000080FF7F24
310
400000000000408F4000000040231039C000000000CF882E400C00000013000000FA0B00003C00000006000000020000000000000000408F40000000C05B0325C000000000D72D56400000000000408F40000000004099E5BF000000E045A754400C00000013000000020C00003C0000000600000002000000000000000040
310
8F4000000000C87024C0000000203B6656400000000000408F40000000004099E5BF000000E045A754400C000000130000000A0C00003C00000006000000020000000000000000408F40000000004099E5BF000000E045A754400000000000408F4000000040000024C0000000E03DBF56400C00000013000000120C00003C
310
00000006000000020000000000000000408F40000000E07CF426C0000000604FC855400000000000408F4000000000322EF2BF000000E0008054400C000000130000001A0C00003C00000006000000020000000000000000408F4000000080ADDD25C00000008047F855400000000000408F4000000000322EF2BF000000E0
310
008054400C00000013000000220C00003C00000006000000020000000000000000408F4000000000322EF2BF000000E0008054400000000000408F40000000008D4828C000000060CD9D55400C000000130000002A0C00003C00000006000000020000000000000000408F40000000C0C9742BC000000040A95F5540000000
310
0000408F4000000000C2CCF4BF00000020005054400C00000013000000320C00003C00000006000000020000000000000000408F40000000C04DC829C000000080F37A55400000000000408F4000000000C2CCF4BF00000020005054400C000000130000003A0C00003C00000006000000020000000000000000408F400000
310
0000C2CCF4BF00000020005054400000000000408F40000000C0EA372DC0000000E0564D55400C00000013000000420C00003C00000006000000020000000000000000408F4000000040D4122FC0000000E0EF4355400000000000408F4000000000322EF2BF00000060FF1F54400C000000130000004A0C00003C00000006
310
000000020000000000000000408F4000000000322EF2BF00000060FF1F54400000000000408F4000000080107830C0000000E03D3F55400C00000013000000520C00003C00000006000000020000000000000000408F4000000020000034C0000000E03D7F54400000000000408F40000000004099E5BF00000060BAF85340
310
0C000000130000005A0C00003C00000006000000020000000000000000408F4000000000322EF2BF00000060FF1F54400000000000408F4000000040000034C0000000E03D3F55400C00000013000000620C00003C00000006000000020000000000000000408F4000000060000022C00000000077B14F400000000000408F
310
40000000401E3233C0000000C0B21C4B400C000000130000006A0C00003C00000006000000020000000000000000408F4000000060000022C00000000077B14F400000000000408F400000000091C333C0000000806DAB4B400C00000013000000720C00003C00000006000000020000000000000000408F40000000600000
310
22C00000000077B14F400000000000408F40000000801BA634C0000000C0B21C4C400C000000130000007A0C00003C00000006000000020000000000000000408F400000000091C335C0000000206C654C400000000000408F40000000C005B221C0000000E0201550400C00000013000000820C00003C0000000600000002
310
0000000000000000408F4000000080C4F236C0000000E0EB6554400000000000408F4000000000000000000000006055E153400C000000130000008A0C00003C00000006000000020000000000000000408F4000000020649235C0000000607C7454400000000000408F4000000000000000000000006055E153400C000000
310
13000000920C00003C00000006000000020000000000000000408F4000000000000000000000006055E153400000000000408F4000000020D7A439C0000000A0862B54400C000000130000009A0C00003C00000006000000020000000000000000408F4000000000000000000000006055E153400000000000408F40000000
310
C0168F38C000000000D84754400C00000013000000A20C00003C00000006000000020000000000000000408F40000000E079103CC0000000E05ABA53400000000000408F40000000000000D03E0000002000D051400C00000013000000AA0C00003C00000006000000020000000000000000408F400000008036C43AC00000
310
00E0270554400000000000408F40000000000000D03E0000002000D051400C00000013000000B20C00003C00000006000000020000000000000000408F40000000000000D03E0000002000D051400000000000408F40000000008FCE3DC0000000E069F052400C00000013000000BA0C00003C000000060000000200000000
310
00000000408F40000000000000D03E0000002000D051400000000000408F40000000A0E7153DC0000000A05A5D53400C00000013000000C20C00003C00000006000000020000000000000000408F4000000000280E3EC0000000A092F151400000000000408F400000008007E21EC000000060027650400C00000013000000
310
CA0C00003C00000006000000020000000000000000408F40000000009D253EC000000020B47752400000000000408F400000008007E21EC000000060027650400C00000013000000D20C00003C00000006000000020000000000000000408F400000008007E21EC000000060027650400000000000408F40000000C0406E3D
310
C0000000E0BE5051400C00000013000000DA0C00003C00000006000000020000000000000000408F400000008007E21EC000000060027650400000000000408F40000000E086D23DC00000002074A551400C00000013000000E20C00003C00000006000000020000000000000000408F40000000E05E1C3CC0000000607B93
310
50400000000000408F400000000014D020C0000000E0614B50400C00000013000000EA0C00003C00000006000000020000000000000000408F4000000000EEDC3CC0000000E098F450400000000000408F400000000014D020C0000000E0614B50400C00000013000000F20C00003C00000006000000020000000000000000
310
408F400000000014D020C0000000E0614B50400000000000408F40000000C061FF39C0000000C0B1934F400C00000013000000FA0C00003C00000006000000020000000000000000408F400000000014D020C0000000E0614B50400000000000408F40000000006E283BC000000020362F50400C00000013000000020D0000
310
3C00000006000000020000000000000000408F40000000C005B221C0000000E0201550400000000000408F4000000000000037C0000000407BFE4D400C000000130000000A0D00003C00000006000000020000000000000000408F40000000C005B221C0000000E0201550400000000000408F40000000400B9E38C0000000
310
A0BCC84E400C00000013000000120D00003C00000006000000020000000000000000408F40000000C005B221C0000000E0201550400000000000408F4000000000000037C0000000407B7E4C40
100
AcDbSubDMesh
 71
     2
 72
     0
 91
        0
 92
      186
 10
-1000.0
 20
-13.99999618530273
 30
0.3665962219238281
 10
-1000.0
 20
0.0000019073486328
 30
-0.0000038146972656
 10
-1000.0
 20
0.0000038146972656
 30
19.99999809265137
 10
-1000.0
 20
-7.720725059509277
 30
25.40610885620117
 10
-1000.0
 20
-8.406396865844726
 30
26.07214736938477
 10
-1000.0
 20
-8.847694396972656
 30
26.91987228393555
 10
-1000.0
 20
-8.999998092651367
 30
27.86356735229492
 10
-1000.0
 20
-9.000002861022949
 30
63.38644409179687
 10
-1000.0
 20
-8.847700119018554
 30
64.33013153076172
 10
-1000.0
 20
-8.406402587890625
 30
65.17784881591797
 10
-1000.0
 20
-7.720731735229492
 30
65.8438949584961
 10
-1000.0
 20
0.0000038146972656
 30
71.25000762939453
 10
-1000.0
 20
-10.00000190734863
 30
90.98815155029297
 10
-1000.0
 20
-10.50655937194824
 30
88.71624755859375
 10
-1000.0
 20
-11.47751522064209
 30
87.12984466552734
 10
-1000.0
 20
-12.8912181854248
 30
85.92111206054687
 10
-1000.0
 20
-14.60921287536621
 30
85.20842742919922
 10
-1000.0
 20
-16.46900177001953
 30
84.98815155029296
 10
-1000.0
 20
-20.00000381469726
 30
84.98815155029296
 10
-1000.0
 20
-20.00000190734863
 30
81.98815155029297
 10
-1000.0
 20
-21.57184028625488
 30
81.82009124755859
 10
-1000.0
 20
-22.94831085205078
 30
81.59252166748046
 10
-1000.0
 20
-25.64390754699707
 30
80.68009185791016
 10
-1000.0
 20
-26.76645660400391
 30
80.08055877685547
 10
-1000.0
 20
-28.06435966491699
 30
78.91179656982422
 10
-1000.0
 20
-29.0855655670166
 30
77.45865631103516
 10
-1000.0
 20
-29.80686950683594
 30
75.75646209716797
 10
-1000.0
 20
-30.14692687988282
 30
73.87036895751953
 10
-1000.0
 20
-30.0552978515625
 30
71.77457427978516
 10
-1000.0
 20
-29.82237052917481
 30
70.58521270751953
 10
-1000.0
 20
-29.4306755065918
 30
69.26165008544922
 10
-1000.0
 20
-28.86300659179688
 30
67.82183074951172
 10
-1000.0
 20
-28.11082267761231
 30
66.30440521240235
 10
-1000.0
 20
-27.15792846679688
 30
64.73767852783203
 10
-1000.0
 20
-25.99758529663086
 30
63.15386199951172
 10
-1000.0
 20
-24.61735916137695
 30
61.56825637817383
 10
-1000.0
 20
-23.0
 30
59.9881362915039
 10
-1000.0
 20
-23.0
 30
56.9881362915039
 10
-1000.0
 20
-21.76393127441406
 30
56.79236221313477
 10
-1000.0
 20
-20.64885711669922
 30
56.22420501708984
 10
-1000.0
 20
-19.76393127441406
 30
55.33927917480468
 10
-1000.0
 20
-19.19577407836914
 30
54.22420501708984
 10
-1000.0
 20
-19.0
 30
52.98813629150391
 10
-1000.0
 20
-19.0
 30
22.94515609741211
 10
-1000.0
 20
-20.38705444335938
 30
22.39686965942383
 10
-1000.0
 20
-21.38327789306641
 30
22.00874519348145
 10
-1000.0
 20
-22.37911605834961
 30
21.56827163696289
 10
-1000.0
 20
-23.34701156616211
 30
21.04294204711914
 10
-1000.0
 20
-24.17788505554199
 30
20.4297924041748
 10
-1000.0
 20
-24.81920051574707
 30
19.70750617980957
 10
-1000.0
 20
-25.21988868713379
 30
18.93645286560058
 10
-1000.0
 20
-25.44295501708984
 30
18.0621166229248
 10
-1000.0
 20
-25.4896068572998
 30
17.10713195800781
 10
-1000.0
 20
-25.36298561096192
 30
16.15108299255371
 10
-1000.0
 20
-25.06303787231445
 30
15.26720428466797
 10
-1000.0
 20
-24.57617950439453
 30
14.5027847290039
 10
-1000.0
 20
-23.89638137817383
 30
13.86223602294922
 10
-1000.0
 20
-23.13671875
 30
13.34707641601562
 10
-1000.0
 20
-22.27958679199219
 30
12.84611892700195
 10
-1000.0
 20
-21.3868236541748
 30
12.29802703857422
 10
-1000.0
 20
-20.61647415161133
 30
11.70669937133789
 10
-1000.0
 20
-19.92060852050781
 30
11.00801467895508
 10
-1000.0
 20
-19.29954528808593
 30
10.21367263793945
 10
-1000.0
 20
-18.71673774719238
 30
9.284595489501953
 10
-1000.0
 20
-18.25345420837402
 30
8.384822845458984
 10
-1000.0
 20
-17.84345626831054
 30
7.432937622070312
 10
-1000.0
 20
-17.49952697753906
 30
6.445724487304687
 10
-1000.0
 20
-17.23917770385742
 30
5.452590942382812
 10
-1000.0
 20
-17.06645011901855
 30
4.442665100097656
 10
-1000.0
 20
-16.98423957824707
 30
3.329830169677734
 10
-1000.0
 20
-16.99999618530273
 30
2.445156097412109
 10
-1000.0
 20
-13.99999618530273
 30
2.366596221923828
 10
-1000.0
 20
-0.0000038146972656
 30
91.25000762939453
 10
-1000.0
 20
0.0000095367431641
 30
8.520832061767578
 10
-1000.0
 20
-0.674947738647461
 30
8.886371612548828
 10
-1000.0
 20
-1.136270523071289
 30
9.499958038330078
 10
-1000.0
 20
-1.299982070922851
 30
10.24999618530273
 10
-1000.0
 20
-1.136270523071289
 30
11.00003433227539
 10
-1000.0
 20
-0.6749467849731446
 30
11.61362075805664
 10
-1000.0
 20
0.0000114440917969
 30
11.97916030883789
 10
-1000.0
 20
0.0
 30
79.52083587646484
 10
-1000.0
 20
-0.674957275390625
 30
79.88637542724609
 10
-1000.0
 20
-1.13627815246582
 30
80.49996185302735
 10
-1000.0
 20
-1.299989700317382
 30
81.25000762939453
 10
-1000.0
 20
-1.13627815246582
 30
82.00005340576172
 10
-1000.0
 20
-0.674957275390625
 30
82.61363983154296
 10
-1000.0
 20
-0.0000038146972656
 30
82.97917938232421
 10
-1000.0
 20
-10.22027587890625
 30
89.59735870361328
 10
-1000.0
 20
-10.93296432495117
 30
87.87936401367188
 10
-1000.0
 20
-12.1417007446289
 30
86.46566009521484
 10
-1000.0
 20
-13.72810173034668
 30
85.4947052001953
 10
-1000.0
 20
-15.53677558898925
 30
85.06151580810547
 10
-1000.0
 20
-24.55894088745117
 30
81.12255859375
 10
1000.0
 20
-13.99999618530273
 30
0.3665962219238281
 10
1000.0
 20
-13.99999618530273
 30
2.366596221923828
 10
1000.0
 20
-0.674947738647461
 30
8.886371612548828
 10
1000.0
 20
0.0000095367431641
 30
8.520832061767578
 10
1000.0
 20
0.0000019073486328
 30
-0.0000038146972656
 10
1000.0
 20
-19.0
 30
22.94515609741211
 10
1000.0
 20
-19.0
 30
52.98813629150391
 10
1000.0
 20
-9.000002861022949
 30
63.38644409179687
 10
1000.0
 20
-8.999998092651367
 30
27.86356735229492
 10
1000.0
 20
-8.847694396972656
 30
26.91987228393555
 10
1000.0
 20
-8.406396865844726
 30
26.07214736938477
 10
1000.0
 20
-7.720725059509277
 30
25.40610885620117
 10
1000.0
 20
0.0000038146972656
 30
19.99999809265137
 10
1000.0
 20
-16.99999618530273
 30
2.445156097412109
 10
1000.0
 20
-16.98423957824707
 30
3.329830169677734
 10
1000.0
 20
-17.06645011901855
 30
4.442665100097656
 10
1000.0
 20
-17.23917770385742
 30
5.452590942382812
 10
1000.0
 20
-17.49952697753906
 30
6.445724487304687
 10
1000.0
 20
-1.136270523071289
 30
9.499958038330078
 10
1000.0
 20
-17.84345626831054
 30
7.432937622070312
 10
1000.0
 20
-18.25345420837402
 30
8.384822845458984
 10
1000.0
 20
-18.71673774719238
 30
9.284595489501953
 10
1000.0
 20
-19.29954528808593
 30
10.21367263793945
 10
1000.0
 20
-19.92060852050781
 30
11.00801467895508
 10
1000.0
 20
-1.299982070922851
 30
10.24999618530273
 10
1000.0
 20
-20.61647415161133
 30
11.70669937133789
 10
1000.0
 20
-21.3868236541748
 30
12.29802703857422
 10
1000.0
 20
-22.27958679199219
 30
12.84611892700195
 10
1000.0
 20
-23.13671875
 30
13.34707641601562
 10
1000.0
 20
-23.89638137817383
 30
13.86223602294922
 10
1000.0
 20
-21.38327789306641
 30
22.00874519348145
 10
1000.0
 20
-20.38705444335938
 30
22.39686965942383
 10
1000.0
 20
-0.6749467849731446
 30
11.61362075805664
 10
1000.0
 20
0.0000114440917969
 30
11.97916030883789
 10
1000.0
 20
-23.34701156616211
 30
21.04294204711914
 10
1000.0
 20
-22.37911605834961
 30
21.56827163696289
 10
1000.0
 20
-24.17788505554199
 30
20.4297924041748
 10
1000.0
 20
-25.21988868713379
 30
18.93645286560058
 10
1000.0
 20
-24.81920051574707
 30
19.70750617980957
 10
1000.0
 20
-1.136270523071289
 30
11.00003433227539
 10
1000.0
 20
-25.4896068572998
 30
17.10713195800781
 10
1000.0
 20
-25.44295501708984
 30
18.0621166229248
 10
1000.0
 20
-25.36298561096192
 30
16.15108299255371
 10
1000.0
 20
-24.57617950439453
 30
14.5027847290039
 10
1000.0
 20
-25.06303787231445
 30
15.26720428466797
 10
1000.0
 20
-10.50655937194824
 30
88.71624755859375
 10
1000.0
 20
-10.22027587890625
 30
89.59735870361328
 10
1000.0
 20
-0.674957275390625
 30
82.61363983154296
 10
1000.0
 20
-10.00000190734863
 30
90.98815155029297
 10
1000.0
 20
-0.0000038146972656
 30
91.25000762939453
 10
1000.0
 20
-0.0000038146972656
 30
82.97917938232421
 10
1000.0
 20
-11.47751522064209
 30
87.12984466552734
 10
1000.0
 20
-10.93296432495117
 30
87.87936401367188
 10
1000.0
 20
-1.13627815246582
 30
82.00005340576172
 10
1000.0
 20
-12.1417007446289
 30
86.46566009521484
 10
1000.0
 20
-13.72810173034668
 30
85.4947052001953
 10
1000.0
 20
-12.8912181854248
 30
85.92111206054687
 10
1000.0
 20
-1.299989700317382
 30
81.25000762939453
 10
1000.0
 20
-14.60921287536621
 30
85.20842742919922
 10
1000.0
 20
-15.53677558898925
 30
85.06151580810547
 10
1000.0
 20
-1.13627815246582
 30
80.49996185302735
 10
1000.0
 20
-16.46900177001953
 30
84.98815155029296
 10
1000.0
 20
-20.00000190734863
 30
81.98815155029297
 10
1000.0
 20
-20.00000381469726
 30
84.98815155029296
 10
1000.0
 20
-0.674957275390625
 30
79.88637542724609
 10
1000.0
 20
-19.19577407836914
 30
54.22420501708984
 10
1000.0
 20
-19.76393127441406
 30
55.33927917480468
 10
1000.0
 20
-20.64885711669922
 30
56.22420501708984
 10
1000.0
 20
-21.76393127441406
 30
56.79236221313477
 10
1000.0
 20
-8.847700119018554
 30
64.33013153076172
 10
1000.0
 20
-22.94831085205078
 30
81.59252166748046
 10
1000.0
 20
-21.57184028625488
 30
81.82009124755859
 10
1000.0
 20
0.0
 30
79.52083587646484
 10
1000.0
 20
-25.64390754699707
 30
80.68009185791016
 10
1000.0
 20
-24.55894088745117
 30
81.12255859375
 10
1000.0
 20
-28.06435966491699
 30
78.91179656982422
 10
1000.0
 20
-26.76645660400391
 30
80.08055877685547
 10
1000.0
 20
0.0000038146972656
 30
71.25000762939453
 10
1000.0
 20
-29.80686950683594
 30
75.75646209716797
 10
1000.0
 20
-29.0855655670166
 30
77.45865631103516
 10
1000.0
 20
-30.0552978515625
 30
71.77457427978516
 10
1000.0
 20
-30.14692687988282
 30
73.87036895751953
 10
1000.0
 20
-7.720731735229492
 30
65.8438949584961
 10
1000.0
 20
-29.4306755065918
 30
69.26165008544922
 10
1000.0
 20
-29.82237052917481
 30
70.58521270751953
 10
1000.0
 20
-28.11082267761231
 30
66.30440521240235
 10
1000.0
 20
-28.86300659179688
 30
67.82183074951172
 10
1000.0
 20
-8.406402587890625
 30
65.17784881591797
 10
1000.0
 20
-25.99758529663086
 30
63.15386199951172
 10
1000.0
 20
-27.15792846679688
 30
64.73767852783203
 10
1000.0
 20
-23.0
 30
59.9881362915039
 10
1000.0
 20
-24.61735916137695
 30
61.56825637817383
 10
1000.0
 20
-23.0
 30
56.9881362915039
 93
     1073
 90
        4
 90
       12
 90
      141
 90
      142
 90
       72
 90
        4
 90
       72
 90
      142
 90
      143
 90
       86
 90
        4
 90
       86
 90
      143
 90
      140
 90
       85
 90
        4
 90
       85
 90
      140
 90
      146
 90
       84
 90
        4
 90
       84
 90
      146
 90
      150
 90
       83
 90
        4
 90
       83
 90
      150
 90
      153
 90
       82
 90
        4
 90
       82
 90
      153
 90
      157
 90
       81
 90
        4
 90
       81
 90
      157
 90
      165
 90
       80
 90
        4
 90
       80
 90
      165
 90
      170
 90
       11
 90
        4
 90
       11
 90
      170
 90
      175
 90
       10
 90
        4
 90
       10
 90
      175
 90
      180
 90
        9
 90
        4
 90
        9
 90
      180
 90
      162
 90
        8
 90
        4
 90
        8
 90
      162
 90
      100
 90
        7
 90
        4
 90
        7
 90
      100
 90
      101
 90
        6
 90
        4
 90
        6
 90
      101
 90
      102
 90
        5
 90
        4
 90
        5
 90
      102
 90
      103
 90
        4
 90
        4
 90
        4
 90
      103
 90
      104
 90
        3
 90
        4
 90
        3
 90
      104
 90
      105
 90
        2
 90
        4
 90
        2
 90
      105
 90
      126
 90
       79
 90
        4
 90
       79
 90
      126
 90
      125
 90
       78
 90
        4
 90
       78
 90
      125
 90
      132
 90
       77
 90
        4
 90
       77
 90
      132
 90
      117
 90
       76
 90
        4
 90
       76
 90
      117
 90
      111
 90
       75
 90
        4
 90
       75
 90
      111
 90
       95
 90
       74
 90
        4
 90
       74
 90
       95
 90
       96
 90
       73
 90
        4
 90
       73
 90
       96
 90
       97
 90
        1
 90
        4
 90
        1
 90
       97
 90
       93
 90
        0
 90
        4
 90
        0
 90
       93
 90
       94
 90
       71
 90
        4
 90
       71
 90
       94
 90
      106
 90
       70
 90
        4
 90
       70
 90
      106
 90
      107
 90
       69
 90
        4
 90
       69
 90
      107
 90
      108
 90
       68
 90
        4
 90
       68
 90
      108
 90
      109
 90
       67
 90
        4
 90
       67
 90
      109
 90
      110
 90
       66
 90
        4
 90
       66
 90
      110
 90
      112
 90
       65
 90
        4
 90
       65
 90
      112
 90
      113
 90
       64
 90
        4
 90
       64
 90
      113
 90
      114
 90
       63
 90
        4
 90
       63
 90
      114
 90
      115
 90
       62
 90
        4
 90
       62
 90
      115
 90
      116
 90
       61
 90
        4
 90
       61
 90
      116
 90
      118
 90
       60
 90
        4
 90
       60
 90
      118
 90
      119
 90
       59
 90
        4
 90
       59
 90
      119
 90
      120
 90
       58
 90
        4
 90
       58
 90
      120
 90
      121
 90
       57
 90
        4
 90
       57
 90
      121
 90
      122
 90
       56
 90
        4
 90
       56
 90
      122
 90
      136
 90
       55
 90
        4
 90
       55
 90
      136
 90
      137
 90
       54
 90
        4
 90
       54
 90
      137
 90
      135
 90
       53
 90
        4
 90
       53
 90
      135
 90
      133
 90
       52
 90
        4
 90
       52
 90
      133
 90
      134
 90
       51
 90
        4
 90
       51
 90
      134
 90
      130
 90
       50
 90
        4
 90
       50
 90
      130
 90
      131
 90
       49
 90
        4
 90
       49
 90
      131
 90
      129
 90
       48
 90
        4
 90
       48
 90
      129
 90
      127
 90
       47
 90
        4
 90
       47
 90
      127
 90
      128
 90
       46
 90
        4
 90
       46
 90
      128
 90
      123
 90
       45
 90
        4
 90
       45
 90
      123
 90
      124
 90
       44
 90
        4
 90
       44
 90
      124
 90
       98
 90
       43
 90
        4
 90
       43
 90
       98
 90
       99
 90
       42
 90
        4
 90
       42
 90
       99
 90
      158
 90
       41
 90
        4
 90
       41
 90
      158
 90
      159
 90
       40
 90
        4
 90
       40
 90
      159
 90
      160
 90
       39
 90
        4
 90
       39
 90
      160
 90
      161
 90
       38
 90
        4
 90
       38
 90
      161
 90
      185
 90
       37
 90
        4
 90
       37
 90
      185
 90
      183
 90
       36
 90
        4
 90
       36
 90
      183
 90
      184
 90
       35
 90
        4
 90
       35
 90
      184
 90
      181
 90
       34
 90
        4
 90
       34
 90
      181
 90
      182
 90
       33
 90
        4
 90
       33
 90
      182
 90
      178
 90
       32
 90
        4
 90
       32
 90
      178
 90
      179
 90
       31
 90
        4
 90
       31
 90
      179
 90
      176
 90
       30
 90
        4
 90
       30
 90
      176
 90
      177
 90
       29
 90
        4
 90
       29
 90
      177
 90
      173
 90
       28
 90
        4
 90
       28
 90
      173
 90
      174
 90
       27
 90
        4
 90
       27
 90
      174
 90
      171
 90
       26
 90
        4
 90
       26
 90
      171
 90
      172
 90
       25
 90
        4
 90
       25
 90
      172
 90
      168
 90
       24
 90
        4
 90
       24
 90
      168
 90
      169
 90
       23
 90
        4
 90
       23
 90
      169
 90
      166
 90
       22
 90
        4
 90
       92
 90
      167
 90
      163
 90
       21
 90
        4
 90
       21
 90
      163
 90
      164
 90
       20
 90
        4
 90
       20
 90
      164
 90
      155
 90
       19
 90
        4
 90
       19
 90
      155
 90
      156
 90
       18
 90
        4
 90
       18
 90
      156
 90
      154
 90
       17
 90
        4
 90
       91
 90
      152
 90
      151
 90
       16
 90
        4
 90
       90
 90
      148
 90
      149
 90
       15
 90
        4
 90
       89
 90
      147
 90
      144
 90
       14
 90
        4
 90
       88
 90
      145
 90
      138
 90
       13
 90
        4
 90
       87
 90
      139
 90
      141
 90
       12
 90
        4
 90
      154
 90
      152
 90
       91
 90
       17
 90
        4
 90
      151
 90
      148
 90
       90
 90
       16
 90
        4
 90
      149
 90
      147
 90
       89
 90
       15
 90
        4
 90
      144
 90
      145
 90
       88
 90
       14
 90
        4
 90
      138
 90
      139
 90
       87
 90
       13
 90
        4
 90
      166
 90
      167
 90
       92
 90
       22
 90
        5
 90
        0
 90
       71
 90
       74
 90
       73
 90
        1
 90
        4
 90
       43
 90
       42
 90
        7
 90
        6
 90
        3
 90
       43
 90
        6
 90
        5
 90
        3
 90
       43
 90
        5
 90
        4
 90
        3
 90
       43
 90
        4
 90
        3
 90
        3
 90
       43
 90
        3
 90
        2
 90
        3
 90
       71
 90
       70
 90
       74
 90
        3
 90
       70
 90
       69
 90
       74
 90
        3
 90
       69
 90
       68
 90
       74
 90
        3
 90
       68
 90
       67
 90
       74
 90
        4
 90
       67
 90
       66
 90
       75
 90
       74
 90
        3
 90
       66
 90
       65
 90
       75
 90
        3
 90
       65
 90
       64
 90
       75
 90
        3
 90
       64
 90
       63
 90
       75
 90
        3
 90
       63
 90
       62
 90
       75
 90
        4
 90
       62
 90
       61
 90
       76
 90
       75
 90
        3
 90
       61
 90
       60
 90
       76
 90
        3
 90
       60
 90
       59
 90
       76
 90
        3
 90
       59
 90
       58
 90
       76
 90
        3
 90
       58
 90
       57
 90
       76
 90
        3
 90
       57
 90
       56
 90
       76
 90
        3
 90
       45
 90
       44
 90
       78
 90
        5
 90
       44
 90
       43
 90
        2
 90
       79
 90
       78
 90
        3
 90
       47
 90
       46
 90
       78
 90
        3
 90
       46
 90
       45
 90
       78
 90
        3
 90
       48
 90
       47
 90
       78
 90
        3
 90
       50
 90
       49
 90
       77
 90
        4
 90
       49
 90
       48
 90
       78
 90
       77
 90
        3
 90
       52
 90
       51
 90
       77
 90
        3
 90
       51
 90
       50
 90
       77
 90
        3
 90
       53
 90
       52
 90
       77
 90
        3
 90
       56
 90
       55
 90
       76
 90
        3
 90
       55
 90
       54
 90
       76
 90
        4
 90
       54
 90
       53
 90
       77
 90
       76
 90
        3
 90
       13
 90
       87
 90
       85
 90
        3
 90
       87
 90
       12
 90
       85
 90
        4
 90
       12
 90
       72
 90
       86
 90
       85
 90
        3
 90
       14
 90
       88
 90
       84
 90
        4
 90
       88
 90
       13
 90
       85
 90
       84
 90
        3
 90
       89
 90
       14
 90
       84
 90
        3
 90
       90
 90
       15
 90
       83
 90
        4
 90
       15
 90
       89
 90
       84
 90
       83
 90
        3
 90
       16
 90
       90
 90
       83
 90
        4
 90
       91
 90
       16
 90
       83
 90
       82
 90
        3
 90
       17
 90
       91
 90
       82
 90
        4
 90
       19
 90
       18
 90
       82
 90
       81
 90
        3
 90
       18
 90
       17
 90
       82
 90
        3
 90
       42
 90
       41
 90
        7
 90
        3
 90
       41
 90
       40
 90
        7
 90
        3
 90
       40
 90
       39
 90
        7
 90
        4
 90
       39
 90
       38
 90
        8
 90
        7
 90
        3
 90
       21
 90
       20
 90
       80
 90
        4
 90
       20
 90
       19
 90
       81
 90
       80
 90
        3
 90
       22
 90
       92
 90
       80
 90
        3
 90
       92
 90
       21
 90
       80
 90
        3
 90
       24
 90
       23
 90
       11
 90
        4
 90
       23
 90
       22
 90
       80
 90
       11
 90
        3
 90
       26
 90
       25
 90
       11
 90
        3
 90
       25
 90
       24
 90
       11
 90
        3
 90
       28
 90
       27
 90
       10
 90
        4
 90
       27
 90
       26
 90
       11
 90
       10
 90
        3
 90
       30
 90
       29
 90
       10
 90
        3
 90
       29
 90
       28
 90
       10
 90
        3
 90
       32
 90
       31
 90
        9
 90
        4
 90
       31
 90
       30
 90
       10
 90
        9
 90
        3
 90
       34
 90
       33
 90
        9
 90
        3
 90
       33
 90
       32
 90
        9
 90
        3
 90
       36
 90
       35
 90
        8
 90
        4
 90
       35
 90
       34
 90
        9
 90
        8
 90
        3
 90
       38
 90
       37
 90
        8
 90
        3
 90
       37
 90
       36
 90
        8
 90
        5
 90
       93
 90
       97
 90
       96
 90
       95
 90
       94
 90
        4
 90
       98
 90
      101
 90
      100
 90
       99
 90
        3
 90
       98
 90
      102
 90
      101
 90
        3
 90
       98
 90
      103
 90
      102
 90
        3
 90
       98
 90
      104
 90
      103
 90
        3
 90
       98
 90
      105
 90
      104
 90
        3
 90
       94
 90
       95
 90
      106
 90
        3
 90
      106
 90
       95
 90
      107
 90
        3
 90
      107
 90
       95
 90
      108
 90
        3
 90
      108
 90
       95
 90
      109
 90
        4
 90
      109
 90
       95
 90
      111
 90
      110
 90
        3
 90
      110
 90
      111
 90
      112
 90
        3
 90
      112
 90
      111
 90
      113
 90
        3
 90
      113
 90
      111
 90
      114
 90
        3
 90
      114
 90
      111
 90
      115
 90
        4
 90
      115
 90
      111
 90
      117
 90
      116
 90
        3
 90
      116
 90
      117
 90
      118
 90
        3
 90
      118
 90
      117
 90
      119
 90
        3
 90
      119
 90
      117
 90
      120
 90
        3
 90
      120
 90
      117
 90
      121
 90
        3
 90
      121
 90
      117
 90
      122
 90
        3
 90
      123
 90
      125
 90
      124
 90
        5
 90
      124
 90
      125
 90
      126
 90
      105
 90
       98
 90
        3
 90
      127
 90
      125
 90
      128
 90
        3
 90
      128
 90
      125
 90
      123
 90
        3
 90
      129
 90
      125
 90
      127
 90
        3
 90
      130
 90
      132
 90
      131
 90
        4
 90
      131
 90
      132
 90
      125
 90
      129
 90
        3
 90
      133
 90
      132
 90
      134
 90
        3
 90
      134
 90
      132
 90
      130
 90
        3
 90
      135
 90
      132
 90
      133
 90
        3
 90
      122
 90
      117
 90
      136
 90
        3
 90
      136
 90
      117
 90
      137
 90
        4
 90
      137
 90
      117
 90
      132
 90
      135
 90
        3
 90
      138
 90
      140
 90
      139
 90
        3
 90
      139
 90
      140
 90
      141
 90
        4
 90
      141
 90
      140
 90
      143
 90
      142
 90
        3
 90
      144
 90
      146
 90
      145
 90
        4
 90
      145
 90
      146
 90
      140
 90
      138
 90
        3
 90
      147
 90
      146
 90
      144
 90
        3
 90
      148
 90
      150
 90
      149
 90
        4
 90
      149
 90
      150
 90
      146
 90
      147
 90
        3
 90
      151
 90
      150
 90
      148
 90
        4
 90
      152
 90
      153
 90
      150
 90
      151
 90
        3
 90
      154
 90
      153
 90
      152
 90
        4
 90
      155
 90
      157
 90
      153
 90
      156
 90
        3
 90
      156
 90
      153
 90
      154
 90
        3
 90
       99
 90
      100
 90
      158
 90
        3
 90
      158
 90
      100
 90
      159
 90
        3
 90
      159
 90
      100
 90
      160
 90
        4
 90
      160
 90
      100
 90
      162
 90
      161
 90
        3
 90
      163
 90
      165
 90
      164
 90
        4
 90
      164
 90
      165
 90
      157
 90
      155
 90
        3
 90
      166
 90
      165
 90
      167
 90
        3
 90
      167
 90
      165
 90
      163
 90
        3
 90
      168
 90
      170
 90
      169
 90
        4
 90
      169
 90
      170
 90
      165
 90
      166
 90
        3
 90
      171
 90
      170
 90
      172
 90
        3
 90
      172
 90
      170
 90
      168
 90
        3
 90
      173
 90
      175
 90
      174
 90
        4
 90
      174
 90
      175
 90
      170
 90
      171
 90
        3
 90
      176
 90
      175
 90
      177
 90
        3
 90
      177
 90
      175
 90
      173
 90
        3
 90
      178
 90
      180
 90
      179
 90
        4
 90
      179
 90
      180
 90
      175
 90
      176
 90
        3
 90
      181
 90
      180
 90
      182
 90
        3
 90
      182
 90
      180
 90
      178
 90
        3
 90
      183
 90
      162
 90
      184
 90
        4
 90
      184
 90
      162
 90
      180
 90
      181
 90
        3
 90
      161
 90
      162
 90
      185
 90
        3
 90
      185
 90
      162
 90
      183
 94
      419
 90
       12
 90
      141
 90
      141
 90
      142
 90
       72
 90
      142
 90
       12
 90
       72
 90
      142
 90
      143
 90
       86
 90
      143
 90
       72
 90
       86
 90
      140
 90
      143
 90
       85
 90
      140
 90
       85
 90
       86
 90
      140
 90
      146
 90
       84
 90
      146
 90
       84
 90
       85
 90
      146
 90
      150
 90
       83
 90
      150
 90
       83
 90
       84
 90
      150
 90
      153
 90
       82
 90
      153
 90
       82
 90
       83
 90
      153
 90
      157
 90
       81
 90
      157
 90
       81
 90
       82
 90
      157
 90
      165
 90
       80
 90
      165
 90
       80
 90
       81
 90
      165
 90
      170
 90
       11
 90
      170
 90
       11
 90
       80
 90
      170
 90
      175
 90
       10
 90
      175
 90
       10
 90
       11
 90
      175
 90
      180
 90
        9
 90
      180
 90
        9
 90
       10
 90
      162
 90
      180
 90
        8
 90
      162
 90
        8
 90
        9
 90
      100
 90
      162
 90
        7
 90
      100
 90
        7
 90
        8
 90
      100
 90
      101
 90
        6
 90
      101
 90
        6
 90
        7
 90
      101
 90
      102
 90
        5
 90
      102
 90
        5
 90
        6
 90
      102
 90
      103
 90
        4
 90
      103
 90
        4
 90
        5
 90
      103
 90
      104
 90
        3
 90
      104
 90
        3
 90
        4
 90
      104
 90
      105
 90
        2
 90
      105
 90
        2
 90
        3
 90
      105
 90
      126
 90
       79
 90
      126
 90
        2
 90
       79
 90
      125
 90
      126
 90
       78
 90
      125
 90
       78
 90
       79
 90
      125
 90
      132
 90
       77
 90
      132
 90
       77
 90
       78
 90
      117
 90
      132
 90
       76
 90
      117
 90
       76
 90
       77
 90
      111
 90
      117
 90
       75
 90
      111
 90
       75
 90
       76
 90
       95
 90
      111
 90
       74
 90
       95
 90
       74
 90
       75
 90
       95
 90
       96
 90
       73
 90
       96
 90
       73
 90
       74
 90
       96
 90
       97
 90
        1
 90
       97
 90
        1
 90
       73
 90
       93
 90
       97
 90
        0
 90
       93
 90
        0
 90
        1
 90
       93
 90
       94
 90
       71
 90
       94
 90
        0
 90
       71
 90
       94
 90
      106
 90
       70
 90
      106
 90
       70
 90
       71
 90
      106
 90
      107
 90
       69
 90
      107
 90
       69
 90
       70
 90
      107
 90
      108
 90
       68
 90
      108
 90
       68
 90
       69
 90
      108
 90
      109
 90
       67
 90
      109
 90
       67
 90
       68
 90
      109
 90
      110
 90
       66
 90
      110
 90
       66
 90
       67
 90
      110
 90
      112
 90
       65
 90
      112
 90
       65
 90
       66
 90
      112
 90
      113
 90
       64
 90
      113
 90
       64
 90
       65
 90
      113
 90
      114
 90
       63
 90
      114
 90
       63
 90
       64
 90
      114
 90
      115
 90
       62
 90
      115
 90
       62
 90
       63
 90
      115
 90
      116
 90
       61
 90
      116
 90
       61
 90
       62
 90
      116
 90
      118
 90
       60
 90
      118
 90
       60
 90
       61
 90
      118
 90
      119
 90
       59
 90
      119
 90
       59
 90
       60
 90
      119
 90
      120
 90
       58
 90
      120
 90
       58
 90
       59
 90
      120
 90
      121
 90
       57
 90
      121
 90
       57
 90
       58
 90
      121
 90
      122
 90
       56
 90
      122
 90
       56
 90
       57
 90
      122
 90
      136
 90
       55
 90
      136
 90
       55
 90
       56
 90
      136
 90
      137
 90
       54
 90
      137
 90
       54
 90
       55
 90
      135
 90
      137
 90
       53
 90
      135
 90
       53
 90
       54
 90
      133
 90
      135
 90
       52
 90
      133
 90
       52
 90
       53
 90
      133
 90
      134
 90
       51
 90
      134
 90
       51
 90
       52
 90
      130
 90
      134
 90
       50
 90
      130
 90
       50
 90
       51
 90
      130
 90
      131
 90
       49
 90
      131
 90
       49
 90
       50
 90
      129
 90
      131
 90
       48
 90
      129
 90
       48
 90
       49
 90
      127
 90
      129
 90
       47
 90
      127
 90
       47
 90
       48
 90
      127
 90
      128
 90
       46
 90
      128
 90
       46
 90
       47
 90
      123
 90
      128
 90
       45
 90
      123
 90
       45
 90
       46
 90
      123
 90
      124
 90
       44
 90
      124
 90
       44
 90
       45
 90
       98
 90
      124
 90
       43
 90
       98
 90
       43
 90
       44
 90
       98
 90
       99
 90
       42
 90
       99
 90
       42
 90
       43
 90
       99
 90
      158
 90
       41
 90
      158
 90
       41
 90
       42
 90
      158
 90
      159
 90
       40
 90
      159
 90
       40
 90
       41
 90
      159
 90
      160
 90
       39
 90
      160
 90
       39
 90
       40
 90
      160
 90
      161
 90
       38
 90
      161
 90
       38
 90
       39
 90
      161
 90
      185
 90
       37
 90
      185
 90
       37
 90
       38
 90
      183
 90
      185
 90
       36
 90
      183
 90
       36
 90
       37
 90
      183
 90
      184
 90
       35
 90
      184
 90
       35
 90
       36
 90
      181
 90
      184
 90
       34
 90
      181
 90
       34
 90
       35
 90
      181
 90
      182
 90
       33
 90
      182
 90
       33
 90
       34
 90
      178
 90
      182
 90
       32
 90
      178
 90
       32
 90
       33
 90
      178
 90
      179
 90
       31
 90
      179
 90
       31
 90
       32
 90
      176
 90
      179
 90
       30
 90
      176
 90
       30
 90
       31
 90
      176
 90
      177
 90
       29
 90
      177
 90
       29
 90
       30
 90
      173
 90
      177
 90
       28
 90
      173
 90
       28
 90
       29
 90
      173
 90
      174
 90
       27
 90
      174
 90
       27
 90
       28
 90
      171
 90
      174
 90
       26
 90
      171
 90
       26
 90
       27
 90
      171
 90
      172
 90
       25
 90
      172
 90
       25
 90
       26
 90
      168
 90
      172
 90
       24
 90
      168
 90
       24
 90
       25
 90
      168
 90
      169
 90
       23
 90
      169
 90
       23
 90
       24
 90
      166
 90
      169
 90
       22
 90
      166
 90
       22
 90
       23
 90
       92
 90
      167
 90
      163
 90
      167
 90
       21
 90
      163
 90
       21
 90
       92
 90
      163
 90
      164
 90
       20
 90
      164
 90
       20
 90
       21
 90
      155
 90
      164
 90
       19
 90
      155
 90
       19
 90
       20
 90
      155
 90
      156
 90
       18
 90
      156
 90
       18
 90
       19
 90
      154
 90
      156
 90
       17
 90
      154
 90
       17
 90
       18
 90
       91
 90
      152
 90
      151
 90
      152
 90
       16
 90
      151
 90
       16
 90
       91
 90
       90
 90
      148
 90
      148
 90
      149
 90
       15
 90
      149
 90
       15
 90
       90
 90
       89
 90
      147
 90
      144
 90
      147
 90
       14
 90
      144
 90
       14
 90
       89
 90
       88
 90
      145
 90
      138
 90
      145
 90
       13
 90
      138
 90
       13
 90
       88
 90
       87
 90
      139
 90
      139
 90
      141
 90
       12
 90
       87
 90
      152
 90
      154
 90
       17
 90
       91
 90
      148
 90
      151
 90
       16
 90
       90
 90
      147
 90
      149
 90
       15
 90
       89
 90
      144
 90
      145
 90
       14
 90
       88
 90
      138
 90
      139
 90
       13
 90
       87
 90
      166
 90
      167
 90
       22
 90
       92
 90
       71
 90
       74
 90
        7
 90
       42
 90
        6
 90
       43
 90
        5
 90
       43
 90
        4
 90
       43
 90
        3
 90
       43
 90
        2
 90
       43
 90
       70
 90
       74
 90
       69
 90
       74
 90
       68
 90
       74
 90
       67
 90
       74
 90
       66
 90
       75
 90
       65
 90
       75
 90
       64
 90
       75
 90
       63
 90
       75
 90
       62
 90
       75
 90
       61
 90
       76
 90
       60
 90
       76
 90
       59
 90
       76
 90
       58
 90
       76
 90
       57
 90
       76
 90
       56
 90
       76
 90
       44
 90
       78
 90
       45
 90
       78
 90
       46
 90
       78
 90
       47
 90
       78
 90
       48
 90
       78
 90
       49
 90
       77
 90
       50
 90
       77
 90
       51
 90
       77
 90
       52
 90
       77
 90
       53
 90
       77
 90
       55
 90
       76
 90
       54
 90
       76
 90
       85
 90
       87
 90
       13
 90
       85
 90
       12
 90
       85
 90
       84
 90
       88
 90
       14
 90
       84
 90
       84
 90
       89
 90
       15
 90
       83
 90
       83
 90
       90
 90
       16
 90
       83
 90
       82
 90
       91
 90
       17
 90
       82
 90
       18
 90
       82
 90
       19
 90
       81
 90
        7
 90
       41
 90
        7
 90
       40
 90
        7
 90
       39
 90
        8
 90
       38
 90
       20
 90
       80
 90
       21
 90
       80
 90
       80
 90
       92
 90
       22
 90
       80
 90
       11
 90
       23
 90
       11
 90
       24
 90
       11
 90
       25
 90
       11
 90
       26
 90
       10
 90
       27
 90
       10
 90
       28
 90
       10
 90
       29
 90
       10
 90
       30
 90
        9
 90
       31
 90
        9
 90
       32
 90
        9
 90
       33
 90
        9
 90
       34
 90
        8
 90
       35
 90
        8
 90
       36
 90
        8
 90
       37
 90
       94
 90
       95
 90
       98
 90
      101
 90
       99
 90
      100
 90
       98
 90
      102
 90
       98
 90
      103
 90
       98
 90
      104
 90
       98
 90
      105
 90
       95
 90
      106
 90
       95
 90
      107
 90
       95
 90
      108
 90
       95
 90
      109
 90
      110
 90
      111
 90
      111
 90
      112
 90
      111
 90
      113
 90
      111
 90
      114
 90
      111
 90
      115
 90
      116
 90
      117
 90
      117
 90
      118
 90
      117
 90
      119
 90
      117
 90
      120
 90
      117
 90
      121
 90
      117
 90
      122
 90
      123
 90
      125
 90
      124
 90
      125
 90
      125
 90
      127
 90
      125
 90
      128
 90
      125
 90
      129
 90
      130
 90
      132
 90
      131
 90
      132
 90
      132
 90
      133
 90
      132
 90
      134
 90
      132
 90
      135
 90
      117
 90
      136
 90
      117
 90
      137
 90
      138
 90
      140
 90
      139
 90
      140
 90
      140
 90
      141
 90
      144
 90
      146
 90
      145
 90
      146
 90
      146
 90
      147
 90
      148
 90
      150
 90
      149
 90
      150
 90
      150
 90
      151
 90
      152
 90
      153
 90
      153
 90
      154
 90
      155
 90
      157
 90
      153
 90
      156
 90
      100
 90
      158
 90
      100
 90
      159
 90
      100
 90
      160
 90
      161
 90
      162
 90
      163
 90
      165
 90
      164
 90
      165
 90
      165
 90
      166
 90
      165
 90
      167
 90
      168
 90
      170
 90
      169
 90
      170
 90
      170
 90
      171
 90
      170
 90
      172
 90
      173
 90
      175
 90
      174
 90
      175
 90
      175
 90
      176
 90
      175
 90
      177
 90
      178
 90
      180
 90
      179
 90
      180
 90
      180
 90
      181
 90
      180
 90
      182
 90
      162
 90
      183
 90
      162
 90
      184
 90
      162
 90
      185
 95
      419
140
0.0
140
0.0
140
0.0
140
0.0
140
0.0
140
0.0
140
0.0
140
0.0
140
0.0
140
0.0
140
0.0
140
0.0
140
0.0
140
0.0
140
0.0
140
0.0
140
0.0
140
0.0
140
0.0
140
0.0
140
0.0
140
0.0
140
0.0
140
0.0
140
0.0
140
0.0
140
0.0
140
0.0
140
0.0
140
0.0
140
0.0
140
0.0
140
0.0
140
0.0
140
0.0
140
0.0
140
0.0
140
0.0
140
0.0
140
0.0
140
0.0
140
0.0
140
0.0
140
0.0
140
0.0
140
0.0
140
0.0
140
0.0
140
0.0
140
0.0
140
0.0
140
0.0
140
0.0
140
0.0
140
0.0
140
0.0
140
0.0
140
0.0
140
0.0
140
0.0
140
0.0
140
0.0
140
0.0
140
0.0
140
0.0
140
0.0
140
0.0
140
0.0
140
0.0
140
0.0
140
0.0
140
0.0
140
0.0
140
0.0
140
0.0
140
0.0
140
0.0
140
0.0
140
0.0
140
0.0
140
0.0
140
0.0
140
0.0
140
0.0
140
0.0
140
0.0
140
0.0
140
0.0
140
0.0
140
0.0
140
0.0
140
0.0
140
0.0
140
0.0
140
0.0
140
0.0
140
0.0
140
0.0
140
0.0
140
0.0
140
0.0
140
0.0
140
0.0
140
0.0
140
0.0
140
0.0
140
0.0
140
0.0
140
0.0
140
0.0
140
0.0
140
0.0
140
0.0
140
0.0
140
0.0
140
0.0
140
0.0
140
0.0
140
0.0
140
0.0
140
0.0
140
0.0
140
0.0
140
0.0
140
0.0
140
0.0
140
0.0
140
0.0
140
0.0
140
0.0
140
0.0
140
0.0
140
0.0
140
0.0
140
0.0
140
0.0
140
0.0
140
0.0
140
0.0
140
0.0
140
0.0
140
0.0
140
0.0
140
0.0
140
0.0
140
0.0
140
0.0
140
0.0
140
0.0
140
0.0
140
0.0
140
0.0
140
0.0
140
0.0
140
0.0
140
0.0
140
0.0
140
0.0
140
0.0
140
0.0
140
0.0
140
0.0
140
0.0
140
0.0
140
0.0
140
0.0
140
0.0
140
0.0
140
0.0
140
0.0
140
0.0
140
0.0
140
0.0
140
0.0
140
0.0
140
0.0
140
0.0
140
0.0
140
0.0
140
0.0
140
0.0
140
0.0
140
0.0
140
0.0
140
0.0
140
0.0
140
0.0
140
0.0
140
0.0
140
0.0
140
0.0
140
0.0
140
0.0
140
0.0
140
0.0
140
0.0
140
0.0
140
0.0
140
0.0
140
0.0
140
0.0
140
0.0
140
0.0
140
0.0
140
0.0
140
0.0
140
0.0
140
0.0
140
0.0
140
0.0
140
0.0
140
0.0
140
0.0
140
0.0
140
0.0
140
0.0
140
0.0
140
0.0
140
0.0
140
0.0
140
0.0
140
0.0
140
0.0
140
0.0
140
0.0
140
0.0
140
0.0
140
0.0
140
0.0
140
0.0
140
0.0
140
0.0
140
0.0
140
0.0
140
0.0
140
0.0
140
0.0
140
0.0
140
0.0
140
0.0
140
0.0
140
0.0
140
0.0
140
0.0
140
0.0
140
0.0
140
0.0
140
0.0
140
0.0
140
0.0
140
0.0
140
0.0
140
0.0
140
0.0
140
0.0
140
0.0
140
0.0
140
0.0
140
0.0
140
0.0
140
0.0
140
0.0
140
0.0
140
0.0
140
0.0
140
0.0
140
0.0
140
0.0
140
0.0
140
0.0
140
0.0
140
0.0
140
0.0
140
0.0
140
0.0
140
0.0
140
0.0
140
0.0
140
0.0
140
0.0
140
0.0
140
0.0
140
0.0
140
0.0
140
0.0
140
0.0
140
0.0
140
0.0
140
0.0
140
0.0
140
0.0
140
0.0
140
0.0
140
0.0
140
0.0
140
0.0
140
0.0
140
0.0
140
0.0
140
0.0
140
0.0
140
0.0
140
0.0
140
0.0
140
0.0
140
0.0
140
0.0
140
0.0
140
0.0
140
0.0
140
0.0
140
0.0
140
0.0
140
0.0
140
0.0
140
0.0
140
0.0
140
0.0
140
0.0
140
0.0
140
0.0
140
0.0
140
0.0
140
0.0
140
0.0
140
0.0
140
0.0
140
0.0
140
0.0
140
0.0
140
0.0
140
0.0
140
0.0
140
0.0
140
0.0
140
0.0
140
0.0
140
0.0
140
0.0
140
0.0
140
0.0
140
0.0
140
0.0
140
0.0
140
0.0
140
0.0
140
0.0
140
0.0
140
0.0
140
0.0
140
0.0
140
0.0
140
0.0
140
0.0
140
0.0
140
0.0
140
0.0
140
0.0
140
0.0
140
0.0
140
0.0
140
0.0
140
0.0
140
0.0
140
0.0
140
0.0
140
0.0
140
0.0
140
0.0
140
0.0
140
0.0
140
0.0
140
0.0
140
0.0
140
0.0
140
0.0
140
0.0
140
0.0
140
0.0
140
0.0
140
0.0
140
0.0
140
0.0
140
0.0
140
0.0
140
0.0
140
0.0
140
0.0
140
0.0
140
0.0
140
0.0
140
0.0
140
0.0
140
0.0
140
0.0
140
0.0
140
0.0
140
0.0
140
0.0
140
0.0
140
0.0
140
0.0
140
0.0
140
0.0
140
0.0
140
0.0
140
0.0
140
0.0
140
0.0
140
0.0
140
0.0
140
0.0
140
0.0
140
0.0
140
0.0
140
0.0
140
0.0
140
0.0
140
0.0
 90
        0
  0
POLYLINE
  5
F9
330
1F
100
AcDbEntity
  8
0
 62
   161
420
 10132197
100
AcDb2dPolyline
 66
     1
 10
0.0
 20
0.0
 30
0.0000014085491102
 70
     1
210
-0.9999999999999769
220
0.0000001788139343
230
-0.0000001192092896
  0
VERTEX
  5
FA
330
F9
100
AcDbEntity
  8
0
 62
   161
420
 10132197
100
AcDbVertex
100
AcDb2dVertex
 10
-13.99999618530273
 20
0.3665954172611237
 30
0.0000014085491102
  0
VERTEX
  5
FB
330
F9
100
AcDbEntity
  8
0
 62
   161
420
 10132197
100
AcDbVertex
100
AcDb2dVertex
 10
0.0000019073486328
 20
-0.0000027167145618
 30
0.0000014085491102
  0
VERTEX
  5
FC
330
F9
100
AcDbEntity
  8
0
 62
   161
420
 10132197
100
AcDbVertex
100
AcDb2dVertex
 10
0.0000095367431641
 20
8.520833015441894
 30
0.0000014085491102
  0
VERTEX
  5
FD
330
F9
100
AcDbEntity
  8
0
 62
   161
420
 10132197
100
AcDbVertex
100
AcDb2dVertex
 10
-0.674947738647461
 20
8.886372566223144
 30
0.0000014085491102
  0
VERTEX
  5
FE
330
F9
100
AcDbEntity
  8
0
 62
   161
420
 10132197
100
AcDbVertex
100
AcDb2dVertex
 10
-1.136270523071289
 20
9.499958992004394
 30
0.0000014085491102
  0
VERTEX
  5
FF
330
F9
100
AcDbEntity
  8
0
 62
   161
420
 10132197
100
AcDbVertex
100
AcDb2dVertex
 10
-1.299982070922851
 20
10.24999713897705
 30
0.0000014085491102
  0
VERTEX
  5
100
330
F9
100
AcDbEntity
  8
0
 62
   161
420
 10132197
100
AcDbVertex
100
AcDb2dVertex
 10
-1.136270523071289
 20
11.0000352859497
 30
0.0000014085491102
  0
VERTEX
  5
101
330
F9
100
AcDbEntity
  8
0
 62
   161
420
 10132197
100
AcDbVertex
100
AcDb2dVertex
 10
-0.6749467849731446
 20
11.61362171173095
 30
0.0000014085491102
  0
VERTEX
  5
102
330
F9
100
AcDbEntity
  8
0
 62
   161
420
 10132197
100
AcDbVertex
100
AcDb2dVertex
 10
0.0000104904174805
 20
11.97916126251221
 30
0.0000014085491102
  0
VERTEX
  5
103
330
F9
100
AcDbEntity
  8
0
 62
   161
420
 10132197
100
AcDbVertex
100
AcDb2dVertex
 10
0.000004768371582
 20
19.99999809265137
 30
0.0000014085491102
  0
VERTEX
  5
104
330
F9
100
AcDbEntity
  8
0
 62
   161
420
 10132197
100
AcDbVertex
100
AcDb2dVertex
 10
-7.720725059509277
 20
25.40610885620117
 30
0.0000014085491102
  0
VERTEX
  5
105
330
F9
100
AcDbEntity
  8
0
 62
   161
420
 10132197
100
AcDbVertex
100
AcDb2dVertex
 10
-8.406396865844726
 20
26.07214736938477
 30
0.0000014085491102
  0
VERTEX
  5
106
330
F9
100
AcDbEntity
  8
0
 62
   161
420
 10132197
100
AcDbVertex
100
AcDb2dVertex
 10
-8.847694396972656
 20
26.91987228393555
 30
0.0000014085491102
  0
VERTEX
  5
107
330
F9
100
AcDbEntity
  8
0
 62
   161
420
 10132197
100
AcDbVertex
100
AcDb2dVertex
 10
-8.999998092651367
 20
27.86356735229492
 30
0.0000014085491102
  0
VERTEX
  5
108
330
F9
100
AcDbEntity
  8
0
 62
   161
420
 10132197
100
AcDbVertex
100
AcDb2dVertex
 10
-9.000002861022949
 20
63.38644409179687
 30
0.0000014085491102
  0
VERTEX
  5
109
330
F9
100
AcDbEntity
  8
0
 62
   161
420
 10132197
100
AcDbVertex
100
AcDb2dVertex
 10
-8.847700119018554
 20
64.33013153076172
 30
0.0000014085491102
  0
VERTEX
  5
10A
330
F9
100
AcDbEntity
  8
0
 62
   161
420
 10132197
100
AcDbVertex
100
AcDb2dVertex
 10
-8.406402587890625
 20
65.17784881591797
 30
0.0000014085491102
  0
VERTEX
  5
10B
330
F9
100
AcDbEntity
  8
0
 62
   161
420
 10132197
100
AcDbVertex
100
AcDb2dVertex
 10
-7.720731258392333
 20
65.8438949584961
 30
0.0000014085491102
  0
VERTEX
  5
10C
330
F9
100
AcDbEntity
  8
0
 62
   161
420
 10132197
100
AcDbVertex
100
AcDb2dVertex
 10
0.0000028610236313
 20
71.25000762939453
 30
0.0000014085491102
  0
VERTEX
  5
10D
330
F9
100
AcDbEntity
  8
0
 62
   161
420
 10132197
100
AcDbVertex
100
AcDb2dVertex
 10
0.0000009536751122
 20
79.52083587646484
 30
0.0000014085491102
  0
VERTEX
  5
10E
330
F9
100
AcDbEntity
  8
0
 62
   161
420
 10132197
100
AcDbVertex
100
AcDb2dVertex
 10
-0.674957275390625
 20
79.88637542724609
 30
0.0000014085491102
  0
VERTEX
  5
10F
330
F9
100
AcDbEntity
  8
0
 62
   161
420
 10132197
100
AcDbVertex
100
AcDb2dVertex
 10
-1.13627815246582
 20
80.49996185302735
 30
0.0000014085491102
  0
VERTEX
  5
110
330
F9
100
AcDbEntity
  8
0
 62
   161
420
 10132197
100
AcDbVertex
100
AcDb2dVertex
 10
-1.299989700317382
 20
81.25000762939453
 30
0.0000014085491102
  0
VERTEX
  5
111
330
F9
100
AcDbEntity
  8
0
 62
   161
420
 10132197
100
AcDbVertex
100
AcDb2dVertex
 10
-1.13627815246582
 20
82.00005340576172
 30
0.0000014085491102
  0
VERTEX
  5
112
330
F9
100
AcDbEntity
  8
0
 62
   161
420
 10132197
100
AcDbVertex
100
AcDb2dVertex
 10
-0.674957275390625
 20
82.61363983154296
 30
0.0000014085491102
  0
VERTEX
  5
113
330
F9
100
AcDbEntity
  8
0
 62
   161
420
 10132197
100
AcDbVertex
100
AcDb2dVertex
 10
-0.0000038146963561
 20
82.97917938232421
 30
0.0000014085491102
  0
VERTEX
  5
114
330
F9
100
AcDbEntity
  8
0
 62
   161
420
 10132197
100
AcDbVertex
100
AcDb2dVertex
 10
-0.0000028610220397
 20
91.25000762939453
 30
0.0000014085491102
  0
VERTEX
  5
115
330
F9
100
AcDbEntity
  8
0
 62
   161
420
 10132197
100
AcDbVertex
100
AcDb2dVertex
 10
-10.00000190734863
 20
90.98815155029297
 30
0.0000014085491102
  0
VERTEX
  5
116
330
F9
100
AcDbEntity
  8
0
 62
   161
420
 10132197
100
AcDbVertex
100
AcDb2dVertex
 10
-10.22027587890625
 20
89.59735870361328
 30
0.0000014085491102
  0
VERTEX
  5
117
330
F9
100
AcDbEntity
  8
0
 62
   161
420
 10132197
100
AcDbVertex
100
AcDb2dVertex
 10
-10.50655937194824
 20
88.71624755859375
 30
0.0000014085491102
  0
VERTEX
  5
118
330
F9
100
AcDbEntity
  8
0
 62
   161
420
 10132197
100
AcDbVertex
100
AcDb2dVertex
 10
-10.93296432495117
 20
87.87936401367188
 30
0.0000014085491102
  0
VERTEX
  5
119
330
F9
100
AcDbEntity
  8
0
 62
   161
420
 10132197
100
AcDbVertex
100
AcDb2dVertex
 10
-11.47751522064209
 20
87.12984466552734
 30
0.0000014085491102
  0
VERTEX
  5
11A
330
F9
100
AcDbEntity
  8
0
 62
   161
420
 10132197
100
AcDbVertex
100
AcDb2dVertex
 10
-12.1417007446289
 20
86.46566009521484
 30
0.0000014085491102
  0
VERTEX
  5
11B
330
F9
100
AcDbEntity
  8
0
 62
   161
420
 10132197
100
AcDbVertex
100
AcDb2dVertex
 10
-12.8912181854248
 20
85.92111206054687
 30
0.0000014085491102
  0
VERTEX
  5
11C
330
F9
100
AcDbEntity
  8
0
 62
   161
420
 10132197
100
AcDbVertex
100
AcDb2dVertex
 10
-13.72810173034668
 20
85.4947052001953
 30
0.0000014085491102
  0
VERTEX
  5
11D
330
F9
100
AcDbEntity
  8
0
 62
   161
420
 10132197
100
AcDbVertex
100
AcDb2dVertex
 10
-14.60921287536621
 20
85.20842742919922
 30
0.0000014085491102
  0
VERTEX
  5
11E
330
F9
100
AcDbEntity
  8
0
 62
   161
420
 10132197
100
AcDbVertex
100
AcDb2dVertex
 10
-15.53677558898925
 20
85.06151580810547
 30
0.0000014085491102
  0
VERTEX
  5
11F
330
F9
100
AcDbEntity
  8
0
 62
   161
420
 10132197
100
AcDbVertex
100
AcDb2dVertex
 10
-16.46900177001953
 20
84.98815155029296
 30
0.0000014085491102
  0
VERTEX
  5
120
330
F9
100
AcDbEntity
  8
0
 62
   161
420
 10132197
100
AcDbVertex
100
AcDb2dVertex
 10
-20.00000381469726
 20
84.98815155029296
 30
0.0000014085491102
  0
VERTEX
  5
121
330
F9
100
AcDbEntity
  8
0
 62
   161
420
 10132197
100
AcDbVertex
100
AcDb2dVertex
 10
-20.00000190734863
 20
81.98815155029297
 30
0.0000014085491102
  0
VERTEX
  5
122
330
F9
100
AcDbEntity
  8
0
 62
   161
420
 10132197
100
AcDbVertex
100
AcDb2dVertex
 10
-21.57184028625488
 20
81.82009124755859
 30
0.0000014085491102
  0
VERTEX
  5
123
330
F9
100
AcDbEntity
  8
0
 62
   161
420
 10132197
100
AcDbVertex
100
AcDb2dVertex
 10
-22.94831085205078
 20
81.59252166748046
 30
0.0000014085491102
  0
VERTEX
  5
124
330
F9
100
AcDbEntity
  8
0
 62
   161
420
 10132197
100
AcDbVertex
100
AcDb2dVertex
 10
-24.55894088745117
 20
81.12255859375
 30
0.0000014085491102
  0
VERTEX
  5
125
330
F9
100
AcDbEntity
  8
0
 62
   161
420
 10132197
100
AcDbVertex
100
AcDb2dVertex
 10
-25.64390754699707
 20
80.68009185791016
 30
0.0000014085491102
  0
VERTEX
  5
126
330
F9
100
AcDbEntity
  8
0
 62
   161
420
 10132197
100
AcDbVertex
100
AcDb2dVertex
 10
-26.76645660400391
 20
80.08055877685547
 30
0.0000014085491102
  0
VERTEX
  5
127
330
F9
100
AcDbEntity
  8
0
 62
   161
420
 10132197
100
AcDbVertex
100
AcDb2dVertex
 10
-28.06435966491699
 20
78.91179656982422
 30
0.0000014085491102
  0
VERTEX
  5
128
330
F9
100
AcDbEntity
  8
0
 62
   161
420
 10132197
100
AcDbVertex
100
AcDb2dVertex
 10
-29.0855655670166
 20
77.45865631103516
 30
0.0000014085491102
  0
VERTEX
  5
129
330
F9
100
AcDbEntity
  8
0
 62
   161
420
 10132197
100
AcDbVertex
100
AcDb2dVertex
 10
-29.80686950683594
 20
75.75646209716797
 30
0.0000014085491102
  0
VERTEX
  5
12A
330
F9
100
AcDbEntity
  8
0
 62
   161
420
 10132197
100
AcDbVertex
100
AcDb2dVertex
 10
-30.14692687988282
 20
73.87036895751953
 30
0.0000014085491102
  0
VERTEX
  5
12B
330
F9
100
AcDbEntity
  8
0
 62
   161
420
 10132197
100
AcDbVertex
100
AcDb2dVertex
 10
-30.0552978515625
 20
71.77457427978516
 30
0.0000014085491102
  0
VERTEX
  5
12C
330
F9
100
AcDbEntity
  8
0
 62
   161
420
 10132197
100
AcDbVertex
100
AcDb2dVertex
 10
-29.82237052917481
 20
70.58521270751953
 30
0.0000014085491102
  0
VERTEX
  5
12D
330
F9
100
AcDbEntity
  8
0
 62
   161
420
 10132197
100
AcDbVertex
100
AcDb2dVertex
 10
-29.4306755065918
 20
69.26165008544922
 30
0.0000014085491102
  0
VERTEX
  5
12E
330
F9
100
AcDbEntity
  8
0
 62
   161
420
 10132197
100
AcDbVertex
100
AcDb2dVertex
 10
-28.86300659179688
 20
67.82183074951172
 30
0.0000014085491102
  0
VERTEX
  5
12F
330
F9
100
AcDbEntity
  8
0
 62
   161
420
 10132197
100
AcDbVertex
100
AcDb2dVertex
 10
-28.11082267761231
 20
66.30440521240235
 30
0.0000014085491102
  0
VERTEX
  5
130
330
F9
100
AcDbEntity
  8
0
 62
   161
420
 10132197
100
AcDbVertex
100
AcDb2dVertex
 10
-27.15792846679688
 20
64.73767852783203
 30
0.0000014085491102
  0
VERTEX
  5
131
330
F9
100
AcDbEntity
  8
0
 62
   161
420
 10132197
100
AcDbVertex
100
AcDb2dVertex
 10
-25.99758529663086
 20
63.15386199951172
 30
0.0000014085491102
  0
VERTEX
  5
132
330
F9
100
AcDbEntity
  8
0
 62
   161
420
 10132197
100
AcDbVertex
100
AcDb2dVertex
 10
-24.61735916137695
 20
61.56825637817383
 30
0.0000014085491102
  0
VERTEX
  5
133
330
F9
100
AcDbEntity
  8
0
 62
   161
420
 10132197
100
AcDbVertex
100
AcDb2dVertex
 10
-23.0
 20
59.9881362915039
 30
0.0000014085491102
  0
VERTEX
  5
134
330
F9
100
AcDbEntity
  8
0
 62
   161
420
 10132197
100
AcDbVertex
100
AcDb2dVertex
 10
-23.0
 20
56.9881362915039
 30
0.0000014085491102
  0
VERTEX
  5
135
330
F9
100
AcDbEntity
  8
0
 62
   161
420
 10132197
100
AcDbVertex
100
AcDb2dVertex
 10
-21.76393127441406
 20
56.79236221313477
 30
0.0000014085491102
  0
VERTEX
  5
136
330
F9
100
AcDbEntity
  8
0
 62
   161
420
 10132197
100
AcDbVertex
100
AcDb2dVertex
 10
-20.64885711669922
 20
56.22420501708984
 30
0.0000014085491102
  0
VERTEX
  5
137
330
F9
100
AcDbEntity
  8
0
 62
   161
420
 10132197
100
AcDbVertex
100
AcDb2dVertex
 10
-19.76393127441406
 20
55.33927917480468
 30
0.0000014085491102
  0
VERTEX
  5
138
330
F9
100
AcDbEntity
  8
0
 62
   161
420
 10132197
100
AcDbVertex
100
AcDb2dVertex
 10
-19.19577407836914
 20
54.22420501708984
 30
0.0000014085491102
  0
VERTEX
  5
139
330
F9
100
AcDbEntity
  8
0
 62
   161
420
 10132197
100
AcDbVertex
100
AcDb2dVertex
 10
-19.0
 20
52.98813629150391
 30
0.0000014085491102
  0
VERTEX
  5
13A
330
F9
100
AcDbEntity
  8
0
 62
   161
420
 10132197
100
AcDbVertex
100
AcDb2dVertex
 10
-19.0
 20
22.94515419006348
 30
0.0000014085491102
  0
VERTEX
  5
13B
330
F9
100
AcDbEntity
  8
0
 62
   161
420
 10132197
100
AcDbVertex
100
AcDb2dVertex
 10
-20.38705444335938
 20
22.3968677520752
 30
0.0000014085491102
  0
VERTEX
  5
13C
330
F9
100
AcDbEntity
  8
0
 62
   161
420
 10132197
100
AcDbVertex
100
AcDb2dVertex
 10
-21.38327789306641
 20
22.00874328613281
 30
0.0000014085491102
  0
VERTEX
  5
13D
330
F9
100
AcDbEntity
  8
0
 62
   161
420
 10132197
100
AcDbVertex
100
AcDb2dVertex
 10
-22.37911605834961
 20
21.56826972961426
 30
0.0000014085491102
  0
VERTEX
  5
13E
330
F9
100
AcDbEntity
  8
0
 62
   161
420
 10132197
100
AcDbVertex
100
AcDb2dVertex
 10
-23.34701156616211
 20
21.04294013977051
 30
0.0000014085491102
  0
VERTEX
  5
13F
330
F9
100
AcDbEntity
  8
0
 62
   161
420
 10132197
100
AcDbVertex
100
AcDb2dVertex
 10
-24.17788505554199
 20
20.42979049682617
 30
0.0000014085491102
  0
VERTEX
  5
140
330
F9
100
AcDbEntity
  8
0
 62
   161
420
 10132197
100
AcDbVertex
100
AcDb2dVertex
 10
-24.81920051574707
 20
19.70750427246094
 30
0.0000014085491102
  0
VERTEX
  5
141
330
F9
100
AcDbEntity
  8
0
 62
   161
420
 10132197
100
AcDbVertex
100
AcDb2dVertex
 10
-25.21988868713379
 20
18.93645095825195
 30
0.0000014085491102
  0
VERTEX
  5
142
330
F9
100
AcDbEntity
  8
0
 62
   161
420
 10132197
100
AcDbVertex
100
AcDb2dVertex
 10
-25.44295501708984
 20
18.06211471557617
 30
0.0000014085491102
  0
VERTEX
  5
143
330
F9
100
AcDbEntity
  8
0
 62
   161
420
 10132197
100
AcDbVertex
100
AcDb2dVertex
 10
-25.4896068572998
 20
17.10713005065918
 30
0.0000014085491102
  0
VERTEX
  5
144
330
F9
100
AcDbEntity
  8
0
 62
   161
420
 10132197
100
AcDbVertex
100
AcDb2dVertex
 10
-25.36298561096192
 20
16.15108108520508
 30
0.0000014085491102
  0
VERTEX
  5
145
330
F9
100
AcDbEntity
  8
0
 62
   161
420
 10132197
100
AcDbVertex
100
AcDb2dVertex
 10
-25.06303787231445
 20
15.26720333099365
 30
0.0000014085491102
  0
VERTEX
  5
146
330
F9
100
AcDbEntity
  8
0
 62
   161
420
 10132197
100
AcDbVertex
100
AcDb2dVertex
 10
-24.57617950439453
 20
14.50278377532959
 30
0.0000014085491102
  0
VERTEX
  5
147
330
F9
100
AcDbEntity
  8
0
 62
   161
420
 10132197
100
AcDbVertex
100
AcDb2dVertex
 10
-23.89638137817383
 20
13.86223697662353
 30
0.0000014085491102
  0
VERTEX
  5
148
330
F9
100
AcDbEntity
  8
0
 62
   161
420
 10132197
100
AcDbVertex
100
AcDb2dVertex
 10
-23.13671875
 20
13.34707641601562
 30
0.0000014085491102
  0
VERTEX
  5
149
330
F9
100
AcDbEntity
  8
0
 62
   161
420
 10132197
100
AcDbVertex
100
AcDb2dVertex
 10
-22.27958679199219
 20
12.84611892700195
 30
0.0000014085491102
  0
VERTEX
  5
14A
330
F9
100
AcDbEntity
  8
0
 62
   161
420
 10132197
100
AcDbVertex
100
AcDb2dVertex
 10
-21.3868236541748
 20
12.29802513122558
 30
0.0000014085491102
  0
VERTEX
  5
14B
330
F9
100
AcDbEntity
  8
0
 62
   161
420
 10132197
100
AcDbVertex
100
AcDb2dVertex
 10
-20.61647415161133
 20
11.70669746398925
 30
0.0000014085491102
  0
VERTEX
  5
14C
330
F9
100
AcDbEntity
  8
0
 62
   161
420
 10132197
100
AcDbVertex
100
AcDb2dVertex
 10
-19.92060852050781
 20
11.00801372528076
 30
0.0000014085491102
  0
VERTEX
  5
14D
330
F9
100
AcDbEntity
  8
0
 62
   161
420
 10132197
100
AcDbVertex
100
AcDb2dVertex
 10
-19.29954528808593
 20
10.21367168426513
 30
0.0000014085491102
  0
VERTEX
  5
14E
330
F9
100
AcDbEntity
  8
0
 62
   161
420
 10132197
100
AcDbVertex
100
AcDb2dVertex
 10
-18.71673774719238
 20
9.284594535827636
 30
0.0000014085491102
  0
VERTEX
  5
14F
330
F9
100
AcDbEntity
  8
0
 62
   161
420
 10132197
100
AcDbVertex
100
AcDb2dVertex
 10
-18.25345420837402
 20
8.384821891784667
 30
0.0000014085491102
  0
VERTEX
  5
150
330
F9
100
AcDbEntity
  8
0
 62
   161
420
 10132197
100
AcDbVertex
100
AcDb2dVertex
 10
-17.84345626831054
 20
7.43293809890747
 30
0.0000014085491102
  0
VERTEX
  5
151
330
F9
100
AcDbEntity
  8
0
 62
   161
420
 10132197
100
AcDbVertex
100
AcDb2dVertex
 10
-17.49952697753906
 20
6.445723533630371
 30
0.0000014085491102
  0
VERTEX
  5
152
330
F9
100
AcDbEntity
  8
0
 62
   161
420
 10132197
100
AcDbVertex
100
AcDb2dVertex
 10
-17.23917770385742
 20
5.452589988708496
 30
0.0000014085491102
  0
VERTEX
  5
153
330
F9
100
AcDbEntity
  8
0
 62
   161
420
 10132197
100
AcDbVertex
100
AcDb2dVertex
 10
-17.06645011901855
 20
4.442664146423339
 30
0.0000014085491102
  0
VERTEX
  5
154
330
F9
100
AcDbEntity
  8
0
 62
   161
420
 10132197
100
AcDbVertex
100
AcDb2dVertex
 10
-16.98423957824707
 20
3.329830884933471
 30
0.0000014085491102
  0
VERTEX
  5
155
330
F9
100
AcDbEntity
  8
0
 62
   161
420
 10132197
100
AcDbVertex
100
AcDb2dVertex
 10
-16.99999618530273
 20
2.445154905319213
 30
0.0000014085491102
  0
VERTEX
  5
156
330
F9
100
AcDbEntity
  8
0
 62
   161
420
 10132197
100
AcDbVertex
100
AcDb2dVertex
 10
-13.99999618530273
 20
2.36659550666809
 30
0.0000014085491102
  0
SEQEND
  5
157
330
F9
100
AcDbEntity
  8
0
 62
   161
420
 10132197
  0
ENDSEC
  0
SECTION
  2
OBJECTS
  0
DICTIONARY
  5
C
330
0
100
AcDbDictionary
281
     1
  3
ACAD_COLOR
350
DC
  3
ACAD_DETAILVIEWSTYLE
350
F5
  3
ACAD_GROUP
350
D
  3
ACAD_LAYOUT
350
1A
  3
ACAD_MATERIAL
350
AA
  3
ACAD_MLEADERSTYLE
350
F1
  3
ACAD_MLINESTYLE
350
17
  3
ACAD_PLOTSETTINGS
350
19
  3
ACAD_PLOTSTYLENAME
350
E
  3
ACAD_SCALELIST
350
DF
  3
ACAD_SECTIONVIEWSTYLE
350
F3
  3
ACAD_TABLESTYLE
350
DD
  3
ACAD_VISUALSTYLE
350
C3
  3
ACDB_RECOMPOSE_DATA
350
164
  3
AcDbVariableDictionary
350
158
  0
DICTIONARY
  5
DC
102
{ACAD_REACTORS
330
C
102
}
330
C
100
AcDbDictionary
281
     1
  0
DICTIONARY
  5
F5
102
{ACAD_REACTORS
330
C
102
}
330
C
100
AcDbDictionary
281
     1
  3
Imperial24
350
F6
  0
DICTIONARY
  5
D
102
{ACAD_REACTORS
330
C
102
}
330
C
100
AcDbDictionary
281
     1
  0
DICTIONARY
  5
1A
102
{ACAD_REACTORS
330
C
102
}
330
C
100
AcDbDictionary
281
     1
  3
Layout1
350
1E
  3
Layout2
350
26
  3
Model
350
22
  0
DICTIONARY
  5
AA
102
{ACAD_REACTORS
330
C
102
}
330
C
100
AcDbDictionary
281
     1
  3
ByBlock
350
B3
  3
ByLayer
350
AB
  3
Global
350
BB
  0
DICTIONARY
  5
F1
102
{ACAD_REACTORS
330
C
102
}
330
C
100
AcDbDictionary
281
     1
  3
Standard
350
F2
  0
DICTIONARY
  5
17
102
{ACAD_REACTORS
330
C
102
}
330
C
100
AcDbDictionary
281
     1
  3
Standard
350
18
  0
DICTIONARY
  5
19
102
{ACAD_REACTORS
330
C
102
}
330
C
100
AcDbDictionary
281
     1
  0
ACDBDICTIONARYWDFLT
  5
E
102
{ACAD_REACTORS
330
C
102
}
330
C
100
AcDbDictionary
281
     1
  3
ByLayer
350
2D
  3
Normal
350
F
100
AcDbDictionaryWithDefault
340
F
  0
DICTIONARY
  5
DF
102
{ACAD_REACTORS
330
C
102
}
330
C
100
AcDbDictionary
281
     1
  3
A0
350
E0
  3
A1
350
E1
  3
A2
350
E2
  3
A3
350
E3
  3
A4
350
E4
  3
A5
350
E5
  3
A6
350
E6
  3
A7
350
E7
  3
A8
350
E8
  3
A9
350
E9
  3
B0
350
EA
  3
B1
350
EB
  3
B2
350
EC
  3
B3
350
ED
  3
B4
350
EE
  3
B5
350
EF
  3
B6
350
F0
  0
DICTIONARY
  5
F3
102
{ACAD_REACTORS
330
C
102
}
330
C
100
AcDbDictionary
281
     1
  3
Imperial24
350
F4
  0
DICTIONARY
  5
DD
102
{ACAD_REACTORS
330
C
102
}
330
C
100
AcDbDictionary
281
     1
  3
Standard
350
DE
  0
DICTIONARY
  5
C3
102
{ACAD_REACTORS
330
C
102
}
330
C
100
AcDbDictionary
281
     1
  3
2dWireframe
350
C9
  3
Basic
350
C8
  3
Brighten
350
CF
  3
ColorChange
350
D3
  3
Conceptual
350
CC
  3
Dim
350
CE
  3
EdgeColorOff
350
DB
  3
Facepattern
350
D2
  3
Flat
350
C4
  3
FlatWithEdges
350
C5
  3
Gouraud
350
C6
  3
GouraudWithEdges
350
C7
  3
Hidden
350
CB
  3
JitterOff
350
D9
  3
Linepattern
350
D1
  3
OverhangOff
350
DA
  3
Realistic
350
CD
  3
Shaded
350
D8
  3
Shaded with edges
350
D7
  3
Shades of Gray
350
D4
  3
Sketchy
350
D5
  3
Thicken
350
D0
  3
Wireframe
350
CA
  3
X-Ray
350
D6
  0
XRECORD
  5
164
102
{ACAD_REACTORS
330
C
102
}
330
C
100
AcDbXrecord
280
     1
 90
        1
330
DE
  0
DICTIONARY
  5
158
102
{ACAD_REACTORS
330
C
102
}
330
C
100
AcDbDictionary
281
     1
  3
CANNOSCALE
350
15E
  3
CMLEADERSTYLE
350
15A
  3
CTABLESTYLE
350
159
  3
CVIEWDETAILSTYLE
350
15B
  3
CVIEWSECTIONSTYLE
350
15C
  3
LAYEREVAL
350
160
  3
LAYERNOTIFY
350
161
  3
LIGHTINGUNITS
350
15F
  3
MSLTSCALE
350
15D
  0
ACDBDETAILVIEWSTYLE
  5
F6
102
{ACAD_XDICTIONARY
360
199
102
}
102
{ACAD_REACTORS
330
F5
102
}
330
F5
100
AcDbModelDocViewStyle
 70
     0
  3
Imperial24
290
     0
100
AcDbDetailViewStyle
 70
     0
 71
     0
 90
        3
 71
     1
340
11
 62
   256
 40
0.24
340
0
 62
   256
 40
0.24
300

 40
0.36
280
     3
 71
     2
340
16
 90
       25
 62
   256
 71
     3
340
11
 62
   256
 40
0.24
 90
        1
 40
0.75
 90
        1
300
%<\AcVar ViewType \f "%tc1">% %<\AcVar ViewDetailId>%\PSCALE %<\AcVar ViewScale \f "%sn">%
 71
     4
340
16
 90
       25
 62
   256
340
16
 90
       25
 62
   256
280
     0
  0
LAYOUT
  5
1E
102
{ACAD_REACTORS
330
1A
102
}
330
1A
100
AcDbPlotSettings
  1

  2
\\KTXNTBDC\CASF2PN1
  4

  6

 40
0.0
 41
0.0
 42
0.0
 43
0.0
 44
0.0
 45
0.0
 46
0.0
 47
0.0
 48
0.0
 49
0.0
140
0.0
141
0.0
142
1.0
143
1.0
 70
   688
 72
     0
 73
     0
 74
     5
  7

 75
    16
147
1.0
 76
     0
 77
     2
 78
   300
148
0.0
149
0.0
100
AcDbLayout
  1
Layout1
 70
     1
 71
     1
 10
0.0
 20
0.0
 11
12.0
 21
9.0
 12
0.0
 22
0.0
 32
0.0
 14
1.000000000000000E+20
 24
1.000000000000000E+20
 34
1.000000000000000E+20
 15
-1.000000000000000E+20
 25
-1.000000000000000E+20
 35
-1.000000000000000E+20
146
0.0
 13
0.0
 23
0.0
 33
0.0
 16
1.0
 26
0.0
 36
0.0
 17
0.0
 27
1.0
 37
0.0
 76
     0
330
1B
  0
LAYOUT
  5
26
102
{ACAD_REACTORS
330
1A
102
}
330
1A
100
AcDbPlotSettings
  1

  2
\\KTXNTBDC\CASF2PN1
  4

  6

 40
0.0
 41
0.0
 42
0.0
 43
0.0
 44
0.0
 45
0.0
 46
0.0
 47
0.0
 48
0.0
 49
0.0
140
0.0
141
0.0
142
1.0
143
1.0
 70
   688
 72
     0
 73
     0
 74
     5
  7

 75
    16
147
1.0
 76
     0
 77
     2
 78
   300
148
0.0
149
0.0
100
AcDbLayout
  1
Layout2
 70
     1
 71
     2
 10
0.0
 20
0.0
 11
12.0
 21
9.0
 12
0.0
 22
0.0
 32
0.0
 14
0.0
 24
0.0
 34
0.0
 15
0.0
 25
0.0
 35
0.0
146
0.0
 13
0.0
 23
0.0
 33
0.0
 16
1.0
 26
0.0
 36
0.0
 17
0.0
 27
1.0
 37
0.0
 76
     0
330
23
  0
LAYOUT
  5
22
102
{ACAD_REACTORS
330
1A
102
}
330
1A
100
AcDbPlotSettings
  1

  2
\\KTXNTBDC\CASF2PN1
  4

  6

 40
0.0
 41
0.0
 42
0.0
 43
0.0
 44
0.0
 45
0.0
 46
0.0
 47
0.0
 48
0.0
 49
0.0
140
0.0
141
0.0
142
1.0
143
1.0
 70
  1712
 72
     0
 73
     0
 74
     0
  7

 75
     0
147
1.0
 76
     0
 77
     2
 78
   300
148
0.0
149
0.0
100
AcDbLayout
  1
Model
 70
     1
 71
     0
 10
0.0
 20
0.0
 11
12.0
 21
9.0
 12
0.0
 22
0.0
 32
0.0
 14
0.0
 24
0.0
 34
0.0
 15
0.0
 25
0.0
 35
0.0
146
0.0
 13
0.0
 23
0.0
 33
0.0
 16
1.0
 26
0.0
 36
0.0
 17
0.0
 27
1.0
 37
0.0
 76
     0
330
1F
  0
MATERIAL
  5
B3
102
{ACAD_XDICTIONARY
360
B4
102
}
102
{ACAD_REACTORS
330
AA
102
}
330
AA
100
AcDbMaterial
  1
ByBlock
 72
     0
 43
0.0208333333333333
 43
0.0
 43
0.0
 43
0.0
 43
0.0
 43
0.0208333333333333
 43
0.0
 43
0.0
 43
0.0
 43
0.0
 43
1.0
 43
0.0
 43
0.0
 43
0.0
 43
0.0
 43
1.0
 77
     0
 47
0.0208333333333333
 47
0.0
 47
0.0
 47
0.0
 47
0.0
 47
0.0208333333333333
 47
0.0
 47
0.0
 47
0.0
 47
0.0
 47
1.0
 47
0.0
 47
0.0
 47
0.0
 47
0.0
 47
1.0
171
     0
 49
0.0208333333333333
 49
0.0
 49
0.0
 49
0.0
 49
0.0
 49
0.0208333333333333
 49
0.0
 49
0.0
 49
0.0
 49
0.0
 49
1.0
 49
0.0
 49
0.0
 49
0.0
 49
0.0
 49
1.0
175
     0
142
0.0208333333333333
142
0.0
142
0.0
142
0.0
142
0.0
142
0.0208333333333333
142
0.0
142
0.0
142
0.0
142
0.0
142
1.0
142
0.0
142
0.0
142
0.0
142
0.0
142
1.0
179
     0
144
0.0208333333333333
144
0.0
144
0.0
144
0.0
144
0.0
144
0.0208333333333333
144
0.0
144
0.0
144
0.0
144
0.0
144
1.0
144
0.0
144
0.0
144
0.0
144
0.0
144
1.0
147
0.0208333333333333
147
0.0
147
0.0
147
0.0
147
0.0
147
0.0208333333333333
147
0.0
147
0.0
147
0.0
147
0.0
147
1.0
147
0.0
147
0.0
147
0.0
147
0.0
147
1.0
  0
MATERIAL
  5
AB
102
{ACAD_XDICTIONARY
360
AC
102
}
102
{ACAD_REACTORS
330
AA
102
}
330
AA
100
AcDbMaterial
  1
ByLayer
 72
     0
 43
0.0208333333333333
 43
0.0
 43
0.0
 43
0.0
 43
0.0
 43
0.0208333333333333
 43
0.0
 43
0.0
 43
0.0
 43
0.0
 43
1.0
 43
0.0
 43
0.0
 43
0.0
 43
0.0
 43
1.0
 77
     0
 47
0.0208333333333333
 47
0.0
 47
0.0
 47
0.0
 47
0.0
 47
0.0208333333333333
 47
0.0
 47
0.0
 47
0.0
 47
0.0
 47
1.0
 47
0.0
 47
0.0
 47
0.0
 47
0.0
 47
1.0
171
     0
 49
0.0208333333333333
 49
0.0
 49
0.0
 49
0.0
 49
0.0
 49
0.0208333333333333
 49
0.0
 49
0.0
 49
0.0
 49
0.0
 49
1.0
 49
0.0
 49
0.0
 49
0.0
 49
0.0
 49
1.0
175
     0
142
0.0208333333333333
142
0.0
142
0.0
142
0.0
142
0.0
142
0.0208333333333333
142
0.0
142
0.0
142
0.0
142
0.0
142
1.0
142
0.0
142
0.0
142
0.0
142
0.0
142
1.0
179
     0
144
0.0208333333333333
144
0.0
144
0.0
144
0.0
144
0.0
144
0.0208333333333333
144
0.0
144
0.0
144
0.0
144
0.0
144
1.0
144
0.0
144
0.0
144
0.0
144
0.0
144
1.0
147
0.0208333333333333
147
0.0
147
0.0
147
0.0
147
0.0
147
0.0208333333333333
147
0.0
147
0.0
147
0.0
147
0.0
147
1.0
147
0.0
147
0.0
147
0.0
147
0.0
147
1.0
  0
MATERIAL
  5
BB
102
{ACAD_XDICTIONARY
360
BC
102
}
102
{ACAD_REACTORS
330
AA
102
}
330
AA
100
AcDbMaterial
  1
Global
 72
     0
 43
0.0208333333333333
 43
0.0
 43
0.0
 43
0.0
 43
0.0
 43
0.0208333333333333
 43
0.0
 43
0.0
 43
0.0
 43
0.0
 43
1.0
 43
0.0
 43
0.0
 43
0.0
 43
0.0
 43
1.0
 77
     0
 47
0.0208333333333333
 47
0.0
 47
0.0
 47
0.0
 47
0.0
 47
0.0208333333333333
 47
0.0
 47
0.0
 47
0.0
 47
0.0
 47
1.0
 47
0.0
 47
0.0
 47
0.0
 47
0.0
 47
1.0
171
     0
 49
0.0208333333333333
 49
0.0
 49
0.0
 49
0.0
 49
0.0
 49
0.0208333333333333
 49
0.0
 49
0.0
 49
0.0
 49
0.0
 49
1.0
 49
0.0
 49
0.0
 49
0.0
 49
0.0
 49
1.0
175
     0
142
0.0208333333333333
142
0.0
142
0.0
142
0.0
142
0.0
142
0.0208333333333333
142
0.0
142
0.0
142
0.0
142
0.0
142
1.0
142
0.0
142
0.0
142
0.0
142
0.0
142
1.0
179
     0
144
0.0208333333333333
144
0.0
144
0.0
144
0.0
144
0.0
144
0.0208333333333333
144
0.0
144
0.0
144
0.0
144
0.0
144
1.0
144
0.0
144
0.0
144
0.0
144
0.0
144
1.0
147
0.0208333333333333
147
0.0
147
0.0
147
0.0
147
0.0
147
0.0208333333333333
147
0.0
147
0.0
147
0.0
147
0.0
147
1.0
147
0.0
147
0.0
147
0.0
147
0.0
147
1.0
  0
MLEADERSTYLE
  5
F2
102
{ACAD_XDICTIONARY
360
195
102
}
102
{ACAD_REACTORS
330
F1
102
}
330
F1
100
AcDbMLeaderStyle
179
     2
170
     2
171
     1
172
     0
 90
        2
 40
0.0
 41
0.0
173
     1
 91
-1056964608
340
14
 92
       -2
290
     1
 42
0.09
291
     1
 43
0.36
  3
Standard
 44
0.18
300

342
11
174
     1
178
     6
175
     1
176
     0
 93
-1056964608
 45
0.18
292
     0
297
     0
 46
0.18
 94
-1056964608
 47
1.0
 49
1.0
140
1.0
293
     1
141
0.0
294
     1
177
     0
142
1.0
295
     0
296
     0
143
0.125
271
     0
272
     9
273
     9
  0
MLINESTYLE
  5
18
102
{ACAD_REACTORS
330
17
102
}
330
17
100
AcDbMlineStyle
  2
STANDARD
 70
     0
  3

 62
   256
 51
90.0
 52
90.0
 71
     2
 49
0.5
 62
   256
  6
BYLAYER
 49
-0.5
 62
   256
  6
BYLAYER
  0
ACDBPLACEHOLDER
  5
2D
102
{ACAD_REACTORS
330
E
102
}
330
E
  0
ACDBPLACEHOLDER
  5
F
102
{ACAD_REACTORS
330
E
102
}
330
E
  0
SCALE
  5
E0
102
{ACAD_REACTORS
330
DF
102
}
330
DF
100
AcDbScale
 70
     0
300
1:1
140
1.0
141
1.0
290
     1
  0
SCALE
  5
E1
102
{ACAD_REACTORS
330
DF
102
}
330
DF
100
AcDbScale
 70
     0
300
1/128" = 1'-0"
140
0.0078125
141
12.0
290
     0
  0
SCALE
  5
E2
102
{ACAD_REACTORS
330
DF
102
}
330
DF
100
AcDbScale
 70
     0
300
1/64" = 1'-0"
140
0.015625
141
12.0
290
     0
  0
SCALE
  5
E3
102
{ACAD_REACTORS
330
DF
102
}
330
DF
100
AcDbScale
 70
     0
300
1/32" = 1'-0"
140
0.03125
141
12.0
290
     0
  0
SCALE
  5
E4
102
{ACAD_REACTORS
330
DF
102
}
330
DF
100
AcDbScale
 70
     0
300
1/16" = 1'-0"
140
0.0625
141
12.0
290
     0
  0
SCALE
  5
E5
102
{ACAD_REACTORS
330
DF
102
}
330
DF
100
AcDbScale
 70
     0
300
3/32" = 1'-0"
140
0.09375
141
12.0
290
     0
  0
SCALE
  5
E6
102
{ACAD_REACTORS
330
DF
102
}
330
DF
100
AcDbScale
 70
     0
300
1/8" = 1'-0"
140
0.125
141
12.0
290
     0
  0
SCALE
  5
E7
102
{ACAD_REACTORS
330
DF
102
}
330
DF
100
AcDbScale
 70
     0
300
3/16" = 1'-0"
140
0.1875
141
12.0
290
     0
  0
SCALE
  5
E8
102
{ACAD_REACTORS
330
DF
102
}
330
DF
100
AcDbScale
 70
     0
300
1/4" = 1'-0"
140
0.25
141
12.0
290
     0
  0
SCALE
  5
E9
102
{ACAD_REACTORS
330
DF
102
}
330
DF
100
AcDbScale
 70
     0
300
3/8" = 1'-0"
140
0.375
141
12.0
290
     0
  0
SCALE
  5
EA
102
{ACAD_REACTORS
330
DF
102
}
330
DF
100
AcDbScale
 70
     0
300
1/2" = 1'-0"
140
0.5
141
12.0
290
     0
  0
SCALE
  5
EB
102
{ACAD_REACTORS
330
DF
102
}
330
DF
100
AcDbScale
 70
     0
300
3/4" = 1'-0"
140
0.75
141
12.0
290
     0
  0
SCALE
  5
EC
102
{ACAD_REACTORS
330
DF
102
}
330
DF
100
AcDbScale
 70
     0
300
1" = 1'-0"
140
1.0
141
12.0
290
     0
  0
SCALE
  5
ED
102
{ACAD_REACTORS
330
DF
102
}
330
DF
100
AcDbScale
 70
     0
300
1-1/2" = 1'-0"
140
1.5
141
12.0
290
     0
  0
SCALE
  5
EE
102
{ACAD_REACTORS
330
DF
102
}
330
DF
100
AcDbScale
 70
     0
300
3" = 1'-0"
140
3.0
141
12.0
290
     0
  0
SCALE
  5
EF
102
{ACAD_REACTORS
330
DF
102
}
330
DF
100
AcDbScale
 70
     0
300
6" = 1'-0"
140
6.0
141
12.0
290
     0
  0
SCALE
  5
F0
102
{ACAD_REACTORS
330
DF
102
}
330
DF
100
AcDbScale
 70
     0
300
1'-0" = 1'-0"
140
12.0
141
12.0
290
     0
  0
ACDBSECTIONVIEWSTYLE
  5
F4
102
{ACAD_XDICTIONARY
360
197
102
}
102
{ACAD_REACTORS
330
F3
102
}
330
F3
100
AcDbModelDocViewStyle
 70
     0
  3
Imperial24
290
     0
100
AcDbSectionViewStyle
 70
     0
 71
     0
 90
       78
 71
     1
340
11
 62
   256
 40
0.24
340
0
340
0
 62
   256
 40
0.24
300
I, O, Q, S, X, Z
 40
0.48
 90
        3
 40
0.18
 90
        1
 71
     2
340
16
 90
       25
 62
   256
340
16
 90
       50
 62
   256
 40
0.24
 40
0.0
 40
0.24
 71
     3
340
11
 62
   256
 40
0.24
 90
        1
 40
0.75
 90
        1
300
%<\AcVar ViewType \f "%tc1">% %<\AcVar ViewSectionStartId>%-%<\AcVar ViewSectionEndId>%\PSCALE %<\AcVar ViewScale \f "%sn">%
 71
     4
 62
   256
 62
   257
300
ANSI31
 40
1.0
 90
        0
290
     0
290
     0
 90
        6
 40
0.0
 40
1.570796326794896
 40
0.2617993877991494
 40
1.308996938995747
 40
-0.2617993877991494
 40
1.832595714594046
  0
TABLESTYLE
  5
DE
102
{ACAD_XDICTIONARY
360
162
102
}
102
{ACAD_REACTORS
330
DD
102
}
330
DD
100
AcDbTableStyle
280
     0
  3
Standard
 70
     0
 71
     0
 40
0.06
 41
0.06
280
     0
281
     0
  7
Standard
140
0.18
170
     2
 62
     0
 63
     7
283
     0
 90
      512
 91
        0
  1

274
    -2
284
     1
 64
     0
275
    -2
285
     1
 65
     0
276
    -2
286
     1
 66
     0
277
    -2
287
     1
 67
     0
278
    -2
288
     1
 68
     0
279
    -2
289
     1
 69
     0
  7
Standard
140
0.25
170
     5
 62
     0
 63
     7
283
     0
 90
      512
 91
        0
  1

274
    -2
284
     1
 64
     0
275
    -2
285
     1
 65
     0
276
    -2
286
     1
 66
     0
277
    -2
287
     1
 67
     0
278
    -2
288
     1
 68
     0
279
    -2
289
     1
 69
     0
  7
Standard
140
0.18
170
     5
 62
     0
 63
     7
283
     0
 90
      512
 91
        0
  1

274
    -2
284
     1
 64
     0
275
    -2
285
     1
 65
     0
276
    -2
286
     1
 66
     0
277
    -2
287
     1
 67
     0
278
    -2
288
     1
 68
     0
279
    -2
289
     1
 69
     0
  0
VISUALSTYLE
  5
C9
102
{ACAD_XDICTIONARY
360
16F
102
}
102
{ACAD_REACTORS
330
C3
102
}
330
C3
100
AcDbVisualStyle
  2
2dWireframe
 70
     4
177
     2
291
     0
 71
     0
176
     1
 72
     2
176
     1
 73
     0
176
     1
 90
        0
176
     1
 40
0.6
176
     1
 41
30.0
176
     1
 63
     7
421
 16777215
176
     1
 74
     1
176
     1
 91
        4
176
     1
 64
     7
176
     1
 65
   257
176
     1
 75
     1
176
     1
175
     1
176
     1
 42
1.0
176
     1
 92
        0
176
     1
 66
   257
176
     1
 43
1.0
176
     1
 76
     1
176
     1
 77
     6
176
     1
 78
     2
176
     1
 67
     7
176
     1
 79
     5
176
     1
170
     0
176
     1
171
     0
176
     1
290
     0
176
     1
 93
        1
176
     1
 44
0.0
176
     1
173
     0
176
     1
1001
ACAD
1000
AcDbSavedByObjectVersion
1070
     0
  0
VISUALSTYLE
  5
C8
102
{ACAD_XDICTIONARY
360
16D
102
}
102
{ACAD_REACTORS
330
C3
102
}
330
C3
100
AcDbVisualStyle
  2
Basic
 70
     7
177
     2
291
     1
 71
     1
176
     1
 72
     0
176
     1
 73
     1
176
     1
 90
        0
176
     1
 40
0.6
176
     1
 41
30.0
176
     1
 63
     7
421
 16777215
176
     1
 74
     0
176
     1
 91
        4
176
     1
 64
     7
176
     1
 65
   257
176
     1
 75
     1
176
     1
175
     1
176
     1
 42
1.0
176
     1
 92
        8
176
     1
 66
     7
176
     1
 43
1.0
176
     1
 76
     1
176
     1
 77
     6
176
     1
 78
     2
176
     1
 67
     7
176
     1
 79
     5
176
     1
170
     0
176
     1
171
     0
176
     1
290
     0
176
     1
 93
        1
176
     1
 44
0.0
176
     1
173
     0
176
     1
1001
ACAD
1000
AcDbSavedByObjectVersion
1070
     0
  0
VISUALSTYLE
  5
CF
102
{ACAD_XDICTIONARY
360
17B
102
}
102
{ACAD_REACTORS
330
C3
102
}
330
C3
100
AcDbVisualStyle
  2
Brighten
 70
    12
177
     2
291
     1
 71
     2
176
     1
 72
     2
176
     1
 73
     0
176
     1
 90
        0
176
     1
 40
0.6
176
     1
 41
30.0
176
     1
 63
     7
421
 16777215
176
     1
 74
     1
176
     1
 91
        4
176
     1
 64
     7
176
     1
 65
   257
176
     1
 75
     1
176
     1
175
     1
176
     1
 42
1.0
176
     1
 92
        8
176
     1
 66
     7
176
     1
 43
1.0
176
     1
 76
     1
176
     1
 77
     6
176
     1
 78
     2
176
     1
 67
     7
176
     1
 79
     5
176
     1
170
     0
176
     1
171
     0
176
     1
290
     0
176
     1
 93
        1
176
     1
 44
50.0
176
     1
173
     0
176
     1
1001
ACAD
1000
AcDbSavedByObjectVersion
1070
     0
  0
VISUALSTYLE
  5
D3
102
{ACAD_XDICTIONARY
360
183
102
}
102
{ACAD_REACTORS
330
C3
102
}
330
C3
100
AcDbVisualStyle
  2
ColorChange
 70
    16
177
     2
291
     1
 71
     2
176
     1
 72
     2
176
     1
 73
     3
176
     1
 90
        0
176
     1
 40
0.6
176
     1
 41
30.0
176
     1
 63
     8
421
  8421504
176
     1
 74
     1
176
     1
 91
        4
176
     1
 64
     7
176
     1
 65
   257
176
     1
 75
     1
176
     1
175
     1
176
     1
 42
1.0
176
     1
 92
        8
176
     1
 66
     8
424
  8421504
176
     1
 43
1.0
176
     1
 76
     1
176
     1
 77
     6
176
     1
 78
     2
176
     1
 67
     7
176
     1
 79
     5
176
     1
170
     0
176
     1
171
     0
176
     1
290
     0
176
     1
 93
        1
176
     1
 44
0.0
176
     1
173
     0
176
     1
1001
ACAD
1000
AcDbSavedByObjectVersion
1070
     0
  0
VISUALSTYLE
  5
CC
102
{ACAD_XDICTIONARY
360
175
102
}
102
{ACAD_REACTORS
330
C3
102
}
330
C3
100
AcDbVisualStyle
  2
Conceptual
 70
     9
177
     2
291
     0
 71
     3
176
     1
 72
     2
176
     1
 73
     0
176
     1
 90
        0
176
     1
 40
0.6
176
     1
 41
30.0
176
     1
 63
     7
421
 16777215
176
     1
 74
     2
176
     1
 91
        2
176
     1
 64
     7
176
     1
 65
   257
176
     1
 75
     1
176
     1
175
     1
176
     1
 42
179.0
176
     1
 92
        8
176
     1
 66
     7
176
     1
 43
1.0
176
     1
 76
     1
176
     1
 77
     6
176
     1
 78
     2
176
     1
 67
     7
176
     1
 79
     3
176
     1
170
     0
176
     1
171
     0
176
     1
290
     0
176
     1
 93
        1
176
     1
 44
0.0
176
     1
173
     0
176
     1
1001
ACAD
1000
AcDbSavedByObjectVersion
1070
     0
  0
VISUALSTYLE
  5
CE
102
{ACAD_XDICTIONARY
360
179
102
}
102
{ACAD_REACTORS
330
C3
102
}
330
C3
100
AcDbVisualStyle
  2
Dim
 70
    11
177
     2
291
     1
 71
     2
176
     1
 72
     2
176
     1
 73
     0
176
     1
 90
        0
176
     1
 40
0.6
176
     1
 41
30.0
176
     1
 63
     7
421
 16777215
176
     1
 74
     1
176
     1
 91
        4
176
     1
 64
     7
176
     1
 65
   257
176
     1
 75
     1
176
     1
175
     1
176
     1
 42
1.0
176
     1
 92
        8
176
     1
 66
     7
176
     1
 43
1.0
176
     1
 76
     1
176
     1
 77
     6
176
     1
 78
     2
176
     1
 67
     7
176
     1
 79
     5
176
     1
170
     0
176
     1
171
     0
176
     1
290
     0
176
     1
 93
        1
176
     1
 44
-50.0
176
     1
173
     0
176
     1
1001
ACAD
1000
AcDbSavedByObjectVersion
1070
     0
  0
VISUALSTYLE
  5
DB
102
{ACAD_XDICTIONARY
360
193
102
}
102
{ACAD_REACTORS
330
C3
102
}
330
C3
100
AcDbVisualStyle
  2
EdgeColorOff
 70
    22
177
     2
291
     1
 71
     2
176
     0
 72
     2
176
     0
 73
     0
176
     0
 90
        0
176
     0
 40
0.6
176
     0
 41
30.0
176
     0
 63
     7
421
 16777215
176
     0
 74
     1
176
     0
 91
        4
176
     0
 64
     7
176
     0
 65
   257
176
     0
 75
     1
176
     0
175
     1
176
     0
 42
1.0
176
     0
 92
        8
176
     2
 66
     7
176
     0
 43
1.0
176
     0
 76
     1
176
     0
 77
     6
176
     0
 78
     2
176
     0
 67
     7
176
     0
 79
     5
176
     0
170
     0
176
     0
171
     0
176
     0
290
     0
176
     0
 93
        1
176
     0
 44
0.0
176
     0
173
     0
176
     0
1001
ACAD
1000
AcDbSavedByObjectVersion
1070
     0
  0
VISUALSTYLE
  5
D2
102
{ACAD_XDICTIONARY
360
181
102
}
102
{ACAD_REACTORS
330
C3
102
}
330
C3
100
AcDbVisualStyle
  2
Facepattern
 70
    15
177
     2
291
     1
 71
     2
176
     1
 72
     2
176
     1
 73
     0
176
     1
 90
        0
176
     1
 40
0.6
176
     1
 41
30.0
176
     1
 63
     7
421
 16777215
176
     1
 74
     1
176
     1
 91
        4
176
     1
 64
     7
176
     1
 65
   257
176
     1
 75
     1
176
     1
175
     1
176
     1
 42
1.0
176
     1
 92
        8
176
     1
 66
     7
176
     1
 43
1.0
176
     1
 76
     1
176
     1
 77
     6
176
     1
 78
     2
176
     1
 67
     7
176
     1
 79
     5
176
     1
170
     0
176
     1
171
     0
176
     1
290
     0
176
     1
 93
        1
176
     1
 44
0.0
176
     1
173
     0
176
     1
1001
ACAD
1000
AcDbSavedByObjectVersion
1070
     0
  0
VISUALSTYLE
  5
C4
102
{ACAD_XDICTIONARY
360
165
102
}
102
{ACAD_REACTORS
330
C3
102
}
330
C3
100
AcDbVisualStyle
  2
Flat
 70
     0
177
     2
291
     1
 71
     2
176
     1
 72
     1
176
     1
 73
     1
176
     1
 90
        2
176
     1
 40
0.6
176
     1
 41
30.0
176
     1
 63
     7
421
 16777215
176
     1
 74
     0
176
     1
 91
        0
176
     1
 64
     7
176
     1
 65
   257
176
     1
 75
     1
176
     1
175
     1
176
     1
 42
1.0
176
     1
 92
        8
176
     1
 66
     7
176
     1
 43
1.0
176
     1
 76
     1
176
     1
 77
     6
176
     1
 78
     2
176
     1
 67
     7
176
     1
 79
     5
176
     1
170
     0
176
     1
171
     0
176
     1
290
     0
176
     1
 93
       13
176
     1
 44
0.0
176
     1
173
     0
176
     1
1001
ACAD
1000
AcDbSavedByObjectVersion
1070
     0
  0
VISUALSTYLE
  5
C5
102
{ACAD_XDICTIONARY
360
167
102
}
102
{ACAD_REACTORS
330
C3
102
}
330
C3
100
AcDbVisualStyle
  2
FlatWithEdges
 70
     1
177
     2
291
     1
 71
     2
176
     1
 72
     1
176
     1
 73
     1
176
     1
 90
        2
176
     1
 40
0.6
176
     1
 41
30.0
176
     1
 63
     7
421
 16777215
176
     1
 74
     1
176
     1
 91
        0
176
     1
 64
     7
176
     1
 65
   257
176
     1
 75
     1
176
     1
175
     1
176
     1
 42
1.0
176
     1
 92
        0
176
     1
 66
   257
176
     1
 43
1.0
176
     1
 76
     1
176
     1
 77
     6
176
     1
 78
     2
176
     1
 67
     7
176
     1
 79
     5
176
     1
170
     0
176
     1
171
     0
176
     1
290
     0
176
     1
 93
       13
176
     1
 44
0.0
176
     1
173
     0
176
     1
1001
ACAD
1000
AcDbSavedByObjectVersion
1070
     0
  0
VISUALSTYLE
  5
C6
102
{ACAD_XDICTIONARY
360
169
102
}
102
{ACAD_REACTORS
330
C3
102
}
330
C3
100
AcDbVisualStyle
  2
Gouraud
 70
     2
177
     2
291
     1
 71
     2
176
     1
 72
     2
176
     1
 73
     1
176
     1
 90
        2
176
     1
 40
0.6
176
     1
 41
30.0
176
     1
 63
     7
421
 16777215
176
     1
 74
     0
176
     1
 91
        0
176
     1
 64
     7
176
     1
 65
   257
176
     1
 75
     1
176
     1
175
     1
176
     1
 42
1.0
176
     1
 92
        0
176
     1
 66
     7
176
     1
 43
1.0
176
     1
 76
     1
176
     1
 77
     6
176
     1
 78
     2
176
     1
 67
     7
176
     1
 79
     5
176
     1
170
     0
176
     1
171
     0
176
     1
290
     0
176
     1
 93
       13
176
     1
 44
0.0
176
     1
173
     0
176
     1
1001
ACAD
1000
AcDbSavedByObjectVersion
1070
     0
  0
VISUALSTYLE
  5
C7
102
{ACAD_XDICTIONARY
360
16B
102
}
102
{ACAD_REACTORS
330
C3
102
}
330
C3
100
AcDbVisualStyle
  2
GouraudWithEdges
 70
     3
177
     2
291
     1
 71
     2
176
     1
 72
     2
176
     1
 73
     1
176
     1
 90
        2
176
     1
 40
0.6
176
     1
 41
30.0
176
     1
 63
     7
421
 16777215
176
     1
 74
     1
176
     1
 91
        0
176
     1
 64
     7
176
     1
 65
   257
176
     1
 75
     1
176
     1
175
     1
176
     1
 42
1.0
176
     1
 92
        0
176
     1
 66
   257
176
     1
 43
1.0
176
     1
 76
     1
176
     1
 77
     6
176
     1
 78
     2
176
     1
 67
     7
176
     1
 79
     5
176
     1
170
     0
176
     1
171
     0
176
     1
290
     0
176
     1
 93
       13
176
     1
 44
0.0
176
     1
173
     0
176
     1
1001
ACAD
1000
AcDbSavedByObjectVersion
1070
     0
  0
VISUALSTYLE
  5
CB
102
{ACAD_XDICTIONARY
360
173
102
}
102
{ACAD_REACTORS
330
C3
102
}
330
C3
100
AcDbVisualStyle
  2
Hidden
 70
     6
177
     2
291
     0
 71
     1
176
     1
 72
     2
176
     1
 73
     2
176
     1
 90
        0
176
     1
 40
0.6
176
     1
 41
30.0
176
     1
 63
     7
421
 16777215
176
     1
 74
     2
176
     1
 91
        2
176
     1
 64
     7
176
     1
 65
   257
176
     1
 75
     2
176
     1
175
     1
176
     1
 42
40.0
176
     1
 92
        0
176
     1
 66
   257
176
     1
 43
1.0
176
     1
 76
     1
176
     1
 77
     6
176
     1
 78
     2
176
     1
 67
     7
176
     1
 79
     3
176
     1
170
     0
176
     1
171
     0
176
     1
290
     0
176
     1
 93
        1
176
     1
 44
0.0
176
     1
173
     0
176
     1
1001
ACAD
1000
AcDbSavedByObjectVersion
1070
     0
  0
VISUALSTYLE
  5
D9
102
{ACAD_XDICTIONARY
360
18F
102
}
102
{ACAD_REACTORS
330
C3
102
}
330
C3
100
AcDbVisualStyle
  2
JitterOff
 70
    20
177
     2
291
     1
 71
     2
176
     0
 72
     2
176
     0
 73
     0
176
     0
 90
        0
176
     0
 40
0.6
176
     0
 41
30.0
176
     0
 63
     7
421
 16777215
176
     0
 74
     1
176
     0
 91
        4
176
     0
 64
     7
176
     0
 65
   257
176
     0
 75
     1
176
     0
175
     1
176
     0
 42
1.0
176
     0
 92
       10
176
     2
 66
     7
176
     0
 43
1.0
176
     0
 76
     1
176
     0
 77
     6
176
     0
 78
     2
176
     0
 67
     7
176
     0
 79
     5
176
     0
170
     0
176
     0
171
     0
176
     0
290
     0
176
     0
 93
        1
176
     0
 44
0.0
176
     0
173
     0
176
     0
1001
ACAD
1000
AcDbSavedByObjectVersion
1070
     0
  0
VISUALSTYLE
  5
D1
102
{ACAD_XDICTIONARY
360
17F
102
}
102
{ACAD_REACTORS
330
C3
102
}
330
C3
100
AcDbVisualStyle
  2
Linepattern
 70
    14
177
     2
291
     1
 71
     2
176
     1
 72
     2
176
     1
 73
     0
176
     1
 90
        0
176
     1
 40
0.6
176
     1
 41
30.0
176
     1
 63
     7
421
 16777215
176
     1
 74
     1
176
     1
 91
        4
176
     1
 64
     7
176
     1
 65
   257
176
     1
 75
     7
176
     1
175
     7
176
     1
 42
1.0
176
     1
 92
        8
176
     1
 66
     7
176
     1
 43
1.0
176
     1
 76
     1
176
     1
 77
     6
176
     1
 78
     2
176
     1
 67
     7
176
     1
 79
     5
176
     1
170
     0
176
     1
171
     0
176
     1
290
     0
176
     1
 93
        1
176
     1
 44
0.0
176
     1
173
     0
176
     1
1001
ACAD
1000
AcDbSavedByObjectVersion
1070
     0
  0
VISUALSTYLE
  5
DA
102
{ACAD_XDICTIONARY
360
191
102
}
102
{ACAD_REACTORS
330
C3
102
}
330
C3
100
AcDbVisualStyle
  2
OverhangOff
 70
    21
177
     2
291
     1
 71
     2
176
     0
 72
     2
176
     0
 73
     0
176
     0
 90
        0
176
     0
 40
0.6
176
     0
 41
30.0
176
     0
 63
     7
421
 16777215
176
     0
 74
     1
176
     0
 91
        4
176
     0
 64
     7
176
     0
 65
   257
176
     0
 75
     1
176
     0
175
     1
176
     0
 42
1.0
176
     0
 92
        9
176
     2
 66
     7
176
     0
 43
1.0
176
     0
 76
     1
176
     0
 77
     6
176
     0
 78
     2
176
     0
 67
     7
176
     0
 79
     5
176
     0
170
     0
176
     0
171
     0
176
     0
290
     0
176
     0
 93
        1
176
     0
 44
0.0
176
     0
173
     0
176
     0
1001
ACAD
1000
AcDbSavedByObjectVersion
1070
     0
  0
VISUALSTYLE
  5
CD
102
{ACAD_XDICTIONARY
360
177
102
}
102
{ACAD_REACTORS
330
C3
102
}
330
C3
100
AcDbVisualStyle
  2
Realistic
 70
     8
177
     2
291
     0
 71
     2
176
     1
 72
     3
176
     1
 73
     0
176
     1
 90
        2
176
     1
 40
0.6
176
     1
 41
30.0
176
     1
 63
     7
421
 16777215
176
     1
 74
     0
176
     1
 91
        0
176
     1
 64
     7
176
     1
 65
   257
176
     1
 75
     1
176
     1
175
     1
176
     1
 42
1.0
176
     1
 92
        8
176
     1
 66
   257
176
     1
 43
1.0
176
     1
 76
     1
176
     1
 77
     6
176
     1
 78
     2
176
     1
 67
     7
176
     1
 79
     3
176
     1
170
     0
176
     1
171
     0
176
     1
290
     0
176
     1
 93
       13
176
     1
 44
0.0
176
     1
173
     0
176
     1
1001
ACAD
1000
AcDbSavedByObjectVersion
1070
     0
  0
VISUALSTYLE
  5
D8
102
{ACAD_XDICTIONARY
360
18D
102
}
102
{ACAD_REACTORS
330
C3
102
}
330
C3
100
AcDbVisualStyle
  2
Shaded
 70
    27
177
     2
291
     0
 71
     2
176
     1
 72
     2
176
     1
 73
     1
176
     1
 90
        2
176
     1
 40
0.6
176
     1
 41
30.0
176
     1
 63
     7
421
 16777215
176
     1
 74
     0
176
     1
 91
        4
176
     1
 64
     7
176
     1
 65
   257
176
     1
 75
     1
176
     1
175
     1
176
     1
 42
1.0
176
     1
 92
        8
176
     1
 66
   257
176
     1
 43
1.0
176
     1
 76
     1
176
     1
 77
     6
176
     1
 78
     2
176
     1
 67
     8
425
  7895160
176
     1
 79
     3
176
     1
170
     0
176
     1
171
     0
176
     1
290
     0
176
     1
 93
        5
176
     1
 44
0.0
176
     1
173
     0
176
     1
1001
ACAD
1000
AcDbSavedByObjectVersion
1070
     0
  0
VISUALSTYLE
  5
D7
102
{ACAD_XDICTIONARY
360
18B
102
}
102
{ACAD_REACTORS
330
C3
102
}
330
C3
100
AcDbVisualStyle
  2
Shaded with edges
 70
    26
177
     2
291
     0
 71
     2
176
     1
 72
     2
176
     1
 73
     1
176
     1
 90
        2
176
     1
 40
0.6
176
     1
 41
30.0
176
     1
 63
     7
421
 16777215
176
     1
 74
     1
176
     1
 91
       10
176
     1
 64
     7
176
     1
 65
   257
176
     1
 75
     2
176
     1
175
     1
176
     1
 42
1.0
176
     1
 92
        8
176
     1
 66
   257
176
     1
 43
1.0
176
     1
 76
     1
176
     1
 77
     6
176
     1
 78
     2
176
     1
 67
     7
176
     1
 79
     3
176
     1
170
     0
176
     1
171
     0
176
     1
290
     0
176
     1
 93
        5
176
     1
 44
0.0
176
     1
173
     0
176
     1
1001
ACAD
1000
AcDbSavedByObjectVersion
1070
     0
  0
VISUALSTYLE
  5
D4
102
{ACAD_XDICTIONARY
360
185
102
}
102
{ACAD_REACTORS
330
C3
102
}
330
C3
100
AcDbVisualStyle
  2
Shades of Gray
 70
    23
177
     2
291
     0
 71
     2
176
     1
 72
     2
176
     1
 73
     3
176
     1
 90
        0
176
     1
 40
0.6
176
     1
 41
30.0
176
     1
 63
     7
421
 16777215
176
     1
 74
     2
176
     1
 91
        2
176
     1
 64
     7
176
     1
 65
     7
176
     1
 75
     1
176
     1
175
     1
176
     1
 42
40.0
176
     1
 92
        8
176
     1
 66
     7
176
     1
 43
1.0
176
     1
 76
     1
176
     1
 77
     6
176
     1
 78
     2
176
     1
 67
     7
176
     1
 79
     3
176
     1
170
     0
176
     1
171
     0
176
     1
290
     0
176
     1
 93
        1
176
     1
 44
0.0
176
     1
173
     0
176
     1
1001
ACAD
1000
AcDbSavedByObjectVersion
1070
     0
  0
VISUALSTYLE
  5
D5
102
{ACAD_XDICTIONARY
360
187
102
}
102
{ACAD_REACTORS
330
C3
102
}
330
C3
100
AcDbVisualStyle
  2
Sketchy
 70
    24
177
     2
291
     0
 71
     1
176
     1
 72
     2
176
     1
 73
     2
176
     1
 90
        0
176
     1
 40
0.6
176
     1
 41
30.0
176
     1
 63
     7
421
 16777215
176
     1
 74
     2
176
     1
 91
        2
176
     1
 64
     7
176
     1
 65
     7
176
     1
 75
     1
176
     1
175
     1
176
     1
 42
40.0
176
     1
 92
       11
176
     1
 66
     7
176
     1
 43
1.0
176
     1
 76
     1
176
     1
 77
     6
176
     1
 78
     2
176
     1
 67
     7
176
     1
 79
     6
176
     1
170
     0
176
     1
171
     0
176
     1
290
     0
176
     1
 93
        1
176
     1
 44
0.0
176
     1
173
     0
176
     1
1001
ACAD
1000
AcDbSavedByObjectVersion
1070
     0
  0
VISUALSTYLE
  5
D0
102
{ACAD_XDICTIONARY
360
17D
102
}
102
{ACAD_REACTORS
330
C3
102
}
330
C3
100
AcDbVisualStyle
  2
Thicken
 70
    13
177
     2
291
     1
 71
     2
176
     1
 72
     2
176
     1
 73
     0
176
     1
 90
        0
176
     1
 40
0.6
176
     1
 41
30.0
176
     1
 63
     7
421
 16777215
176
     1
 74
     1
176
     1
 91
        4
176
     1
 64
     7
176
     1
 65
   257
176
     1
 75
     1
176
     1
175
     1
176
     1
 42
1.0
176
     1
 92
       12
176
     1
 66
     7
176
     1
 43
1.0
176
     1
 76
     1
176
     1
 77
     6
176
     1
 78
     2
176
     1
 67
     7
176
     1
 79
     5
176
     1
170
     0
176
     1
171
     0
176
     1
290
     0
176
     1
 93
        1
176
     1
 44
0.0
176
     1
173
     0
176
     1
1001
ACAD
1000
AcDbSavedByObjectVersion
1070
     0
  0
VISUALSTYLE
  5
CA
102
{ACAD_XDICTIONARY
360
171
102
}
102
{ACAD_REACTORS
330
C3
102
}
330
C3
100
AcDbVisualStyle
  2
Wireframe
 70
     5
177
     2
291
     0
 71
     0
176
     1
 72
     2
176
     1
 73
     0
176
     1
 90
        0
176
     1
 40
0.6
176
     1
 41
30.0
176
     1
 63
     7
421
 16777215
176
     1
 74
     1
176
     1
 91
        4
176
     1
 64
     7
176
     1
 65
   257
176
     1
 75
     1
176
     1
175
     1
176
     1
 42
1.0
176
     1
 92
        0
176
     1
 66
   257
176
     1
 43
1.0
176
     1
 76
     1
176
     1
 77
     6
176
     1
 78
     2
176
     1
 67
     7
176
     1
 79
     3
176
     1
170
     0
176
     1
171
     0
176
     1
290
     0
176
     1
 93
        1
176
     1
 44
0.0
176
     1
173
     0
176
     1
1001
ACAD
1000
AcDbSavedByObjectVersion
1070
     0
  0
VISUALSTYLE
  5
D6
102
{ACAD_XDICTIONARY
360
189
102
}
102
{ACAD_REACTORS
330
C3
102
}
330
C3
100
AcDbVisualStyle
  2
X-Ray
 70
    25
177
     2
291
     0
 71
     2
176
     1
 72
     2
176
     1
 73
     1
176
     1
 90
        1
176
     1
 40
0.5
176
     1
 41
30.0
176
     1
 63
     7
421
 16777215
176
     1
 74
     1
176
     1
 91
        0
176
     1
 64
     7
176
     1
 65
   257
176
     1
 75
     1
176
     1
175
     1
176
     1
 42
1.0
176
     1
 92
        8
176
     1
 66
     7
176
     1
 43
1.0
176
     1
 76
     1
176
     1
 77
     6
176
     1
 78
     2
176
     1
 67
     7
176
     1
 79
     3
176
     1
170
     0
176
     1
171
     0
176
     1
290
     0
176
     1
 93
       13
176
     1
 44
0.0
176
     1
173
     0
176
     1
1001
ACAD
1000
AcDbSavedByObjectVersion
1070
     0
  0
DICTIONARYVAR
  5
15E
102
{ACAD_REACTORS
330
158
102
}
330
158
100
DictionaryVariables
280
     0
  1
1:1
  0
DICTIONARYVAR
  5
15A
102
{ACAD_REACTORS
330
158
102
}
330
158
100
DictionaryVariables
280
     0
  1
STANDARD
  0
DICTIONARYVAR
  5
159
102
{ACAD_REACTORS
330
158
102
}
330
158
100
DictionaryVariables
280
     0
  1
STANDARD
  0
DICTIONARYVAR
  5
15B
102
{ACAD_REACTORS
330
158
102
}
330
158
100
DictionaryVariables
280
     0
  1
Imperial24
  0
DICTIONARYVAR
  5
15C
102
{ACAD_REACTORS
330
158
102
}
330
158
100
DictionaryVariables
280
     0
  1
Imperial24
  0
DICTIONARYVAR
  5
160
102
{ACAD_REACTORS
330
158
102
}
330
158
100
DictionaryVariables
280
     0
  1
1
  0
DICTIONARYVAR
  5
161
102
{ACAD_REACTORS
330
158
102
}
330
158
100
DictionaryVariables
280
     0
  1
15
  0
DICTIONARYVAR
  5
15F
102
{ACAD_REACTORS
330
158
102
}
330
158
100
DictionaryVariables
280
     0
  1
0
  0
DICTIONARYVAR
  5
15D
102
{ACAD_REACTORS
330
158
102
}
330
158
100
DictionaryVariables
280
     0
  1
0
  0
DICTIONARY
  5
199
330
F6
100
AcDbDictionary
280
     1
281
     1
  3
ACAD_XREC_ROUNDTRIP
360
19A
  0
DICTIONARY
  5
B4
330
B3
100
AcDbDictionary
280
     1
281
     1
  3
BUMPTILE
360
B6
  3
DIFFUSETILE
360
B5
  3
OPACITYTILE
360
B9
  3
REFLECTIONTILE
360
B8
  3
REFRACTIONTILE
360
BA
  3
SPECULARTILE
360
B7
  0
DICTIONARY
  5
AC
330
AB
100
AcDbDictionary
280
     1
281
     1
  3
BUMPTILE
360
AE
  3
DIFFUSETILE
360
AD
  3
OPACITYTILE
360
B1
  3
REFLECTIONTILE
360
B0
  3
REFRACTIONTILE
360
B2
  3
SPECULARTILE
360
AF
  0
DICTIONARY
  5
BC
330
BB
100
AcDbDictionary
280
     1
281
     1
  3
BUMPTILE
360
BE
  3
DIFFUSETILE
360
BD
  3
OPACITYTILE
360
C1
  3
REFLECTIONTILE
360
C0
  3
REFRACTIONTILE
360
C2
  3
SPECULARTILE
360
BF
  0
DICTIONARY
  5
195
330
F2
100
AcDbDictionary
280
     1
281
     1
  3
ACAD_XREC_ROUNDTRIP
360
196
  0
DICTIONARY
  5
197
330
F4
100
AcDbDictionary
280
     1
281
     1
  3
ACAD_XREC_ROUNDTRIP
360
198
  0
DICTIONARY
  5
162
330
DE
100
AcDbDictionary
280
     1
281
     1
  3
ACAD_ROUNDTRIP_2008_TABLESTYLE_CELLSTYLEMAP
360
163
  0
DICTIONARY
  5
16F
330
C9
100
AcDbDictionary
280
     1
281
     1
  3
ACAD_XREC_ROUNDTRIP
360
170
  0
DICTIONARY
  5
16D
330
C8
100
AcDbDictionary
280
     1
281
     1
  3
ACAD_XREC_ROUNDTRIP
360
16E
  0
DICTIONARY
  5
17B
330
CF
100
AcDbDictionary
280
     1
281
     1
  3
ACAD_XREC_ROUNDTRIP
360
17C
  0
DICTIONARY
  5
183
330
D3
100
AcDbDictionary
280
     1
281
     1
  3
ACAD_XREC_ROUNDTRIP
360
184
  0
DICTIONARY
  5
175
330
CC
100
AcDbDictionary
280
     1
281
     1
  3
ACAD_XREC_ROUNDTRIP
360
176
  0
DICTIONARY
  5
179
330
CE
100
AcDbDictionary
280
     1
281
     1
  3
ACAD_XREC_ROUNDTRIP
360
17A
  0
DICTIONARY
  5
193
330
DB
100
AcDbDictionary
280
     1
281
     1
  3
ACAD_XREC_ROUNDTRIP
360
194
  0
DICTIONARY
  5
181
330
D2
100
AcDbDictionary
280
     1
281
     1
  3
ACAD_XREC_ROUNDTRIP
360
182
  0
DICTIONARY
  5
165
330
C4
100
AcDbDictionary
280
     1
281
     1
  3
ACAD_XREC_ROUNDTRIP
360
166
  0
DICTIONARY
  5
167
330
C5
100
AcDbDictionary
280
     1
281
     1
  3
ACAD_XREC_ROUNDTRIP
360
168
  0
DICTIONARY
  5
169
330
C6
100
AcDbDictionary
280
     1
281
     1
  3
ACAD_XREC_ROUNDTRIP
360
16A
  0
DICTIONARY
  5
16B
330
C7
100
AcDbDictionary
280
     1
281
     1
  3
ACAD_XREC_ROUNDTRIP
360
16C
  0
DICTIONARY
  5
173
330
CB
100
AcDbDictionary
280
     1
281
     1
  3
ACAD_XREC_ROUNDTRIP
360
174
  0
DICTIONARY
  5
18F
330
D9
100
AcDbDictionary
280
     1
281
     1
  3
ACAD_XREC_ROUNDTRIP
360
190
  0
DICTIONARY
  5
17F
330
D1
100
AcDbDictionary
280
     1
281
     1
  3
ACAD_XREC_ROUNDTRIP
360
180
  0
DICTIONARY
  5
191
330
DA
100
AcDbDictionary
280
     1
281
     1
  3
ACAD_XREC_ROUNDTRIP
360
192
  0
DICTIONARY
  5
177
330
CD
100
AcDbDictionary
280
     1
281
     1
  3
ACAD_XREC_ROUNDTRIP
360
178
  0
DICTIONARY
  5
18D
330
D8
100
AcDbDictionary
280
     1
281
     1
  3
ACAD_XREC_ROUNDTRIP
360
18E
  0
DICTIONARY
  5
18B
330
D7
100
AcDbDictionary
280
     1
281
     1
  3
ACAD_XREC_ROUNDTRIP
360
18C
  0
DICTIONARY
  5
185
330
D4
100
AcDbDictionary
280
     1
281
     1
  3
ACAD_XREC_ROUNDTRIP
360
186
  0
DICTIONARY
  5
187
330
D5
100
AcDbDictionary
280
     1
281
     1
  3
ACAD_XREC_ROUNDTRIP
360
188
  0
DICTIONARY
  5
17D
330
D0
100
AcDbDictionary
280
     1
281
     1
  3
ACAD_XREC_ROUNDTRIP
360
17E
  0
DICTIONARY
  5
171
330
CA
100
AcDbDictionary
280
     1
281
     1
  3
ACAD_XREC_ROUNDTRIP
360
172
  0
DICTIONARY
  5
189
330
D6
100
AcDbDictionary
280
     1
281
     1
  3
ACAD_XREC_ROUNDTRIP
360
18A
  0
XRECORD
  5
19A
102
{ACAD_REACTORS
330
199
102
}
330
199
100
AcDbXrecord
280
     1
102
DISPLAYNAME
  1
Imperial24
102
FLAGS
 90
        0
  0
XRECORD
  5
B6
102
{ACAD_REACTORS
330
B4
102
}
330
B4
100
AcDbXrecord
280
     1
270
     1
271
     1
  0
XRECORD
  5
B5
102
{ACAD_REACTORS
330
B4
102
}
330
B4
100
AcDbXrecord
280
     1
270
     1
271
     1
  0
XRECORD
  5
B9
102
{ACAD_REACTORS
330
B4
102
}
330
B4
100
AcDbXrecord
280
     1
270
     1
271
     1
  0
XRECORD
  5
B8
102
{ACAD_REACTORS
330
B4
102
}
330
B4
100
AcDbXrecord
280
     1
270
     1
271
     1
  0
XRECORD
  5
BA
102
{ACAD_REACTORS
330
B4
102
}
330
B4
100
AcDbXrecord
280
     1
270
     1
271
     1
  0
XRECORD
  5
B7
102
{ACAD_REACTORS
330
B4
102
}
330
B4
100
AcDbXrecord
280
     1
270
     1
271
     1
  0
XRECORD
  5
AE
102
{ACAD_REACTORS
330
AC
102
}
330
AC
100
AcDbXrecord
280
     1
270
     1
271
     1
  0
XRECORD
  5
AD
102
{ACAD_REACTORS
330
AC
102
}
330
AC
100
AcDbXrecord
280
     1
270
     1
271
     1
  0
XRECORD
  5
B1
102
{ACAD_REACTORS
330
AC
102
}
330
AC
100
AcDbXrecord
280
     1
270
     1
271
     1
  0
XRECORD
  5
B0
102
{ACAD_REACTORS
330
AC
102
}
330
AC
100
AcDbXrecord
280
     1
270
     1
271
     1
  0
XRECORD
  5
B2
102
{ACAD_REACTORS
330
AC
102
}
330
AC
100
AcDbXrecord
280
     1
270
     1
271
     1
  0
XRECORD
  5
AF
102
{ACAD_REACTORS
330
AC
102
}
330
AC
100
AcDbXrecord
280
     1
270
     1
271
     1
  0
XRECORD
  5
BE
102
{ACAD_REACTORS
330
BC
102
}
330
BC
100
AcDbXrecord
280
     1
270
     1
271
     1
  0
XRECORD
  5
BD
102
{ACAD_REACTORS
330
BC
102
}
330
BC
100
AcDbXrecord
280
     1
270
     1
271
     1
  0
XRECORD
  5
C1
102
{ACAD_REACTORS
330
BC
102
}
330
BC
100
AcDbXrecord
280
     1
270
     1
271
     1
  0
XRECORD
  5
C0
102
{ACAD_REACTORS
330
BC
102
}
330
BC
100
AcDbXrecord
280
     1
270
     1
271
     1
  0
XRECORD
  5
C2
102
{ACAD_REACTORS
330
BC
102
}
330
BC
100
AcDbXrecord
280
     1
270
     1
271
     1
  0
XRECORD
  5
BF
102
{ACAD_REACTORS
330
BC
102
}
330
BC
100
AcDbXrecord
280
     1
270
     1
271
     1
  0
XRECORD
  5
196
102
{ACAD_REACTORS
330
195
102
}
330
195
100
AcDbXrecord
280
     1
102
ACAD_ROUNDTRIP_2012_MLEADER_STYLE
298
     1
  0
XRECORD
  5
198
102
{ACAD_REACTORS
330
197
102
}
330
197
100
AcDbXrecord
280
     1
102
DISPLAYNAME
  1
Imperial24
102
FLAGS
 90
        0
  0
CELLSTYLEMAP
  5
163
102
{ACAD_REACTORS
330
162
102
}
330
162
100
AcDbCellStyleMap
 90
        3
300
CELLSTYLE
  1
TABLEFORMAT_BEGIN
 90
        5
170
     1
 91
        0
 92
    32768
 62
   257
 93
        1
300
CONTENTFORMAT
  1
CONTENTFORMAT_BEGIN
 90
        0
 91
        0
 92
      512
 93
        0
300

 40
0.0
140
1.0
 94
        5
 62
     0
340
11
144
0.25
309
CONTENTFORMAT_END
171
     0
 94
        0
309
TABLEFORMAT_END
  1
CELLSTYLE_BEGIN
 90
        1
 91
        1
300
_TITLE
309
CELLSTYLE_END
300
CELLSTYLE
  1
TABLEFORMAT_BEGIN
 90
        5
170
     1
 91
        0
 92
        0
 62
   257
 93
        1
300
CONTENTFORMAT
  1
CONTENTFORMAT_BEGIN
 90
        0
 91
        0
 92
      512
 93
        0
300

 40
0.0
140
1.0
 94
        5
 62
     0
340
11
144
0.18
309
CONTENTFORMAT_END
171
     0
 94
        0
309
TABLEFORMAT_END
  1
CELLSTYLE_BEGIN
 90
        2
 91
        1
300
_HEADER
309
CELLSTYLE_END
300
CELLSTYLE
  1
TABLEFORMAT_BEGIN
 90
        5
170
     1
 91
        0
 92
        0
 62
   257
 93
        1
300
CONTENTFORMAT
  1
CONTENTFORMAT_BEGIN
 90
        0
 91
        0
 92
      512
 93
        0
300

 40
0.0
140
1.0
 94
        2
 62
     0
340
11
144
0.18
309
CONTENTFORMAT_END
171
     0
 94
        0
309
TABLEFORMAT_END
  1
CELLSTYLE_BEGIN
 90
        3
 91
        2
300
_DATA
309
CELLSTYLE_END
  0
XRECORD
  5
170
102
{ACAD_REACTORS
330
16F
102
}
330
16F
100
AcDbXrecord
280
     1
102
RTVSPost2010Prop28
280
     1
102
RTVSPost2010PropOp28
 70
     1
102
RTVSPost2010Prop29
280
     1
102
RTVSPost2010PropOp29
 70
     1
102
RTVSPost2010Prop30
280
     0
102
RTVSPost2010PropOp30
 70
     1
102
RTVSPost2010Prop31
280
     0
102
RTVSPost2010PropOp31
 70
     1
102
RTVSPost2010Prop32
280
     0
102
RTVSPost2010PropOp32
 70
     1
102
RTVSPost2010Prop33
280
     0
102
RTVSPost2010PropOp33
 70
     1
102
RTVSPost2010Prop34
280
     0
102
RTVSPost2010PropOp34
 70
     1
102
RTVSPost2010Prop35
280
     0
102
RTVSPost2010PropOp35
 70
     1
102
RTVSPost2010Prop36
280
     0
102
RTVSPost2010PropOp36
 70
     1
102
RTVSPost2010Prop37
 90
       50
102
RTVSPost2010PropOp37
 70
     1
102
RTVSPost2010Prop38
140
0.0
102
RTVSPost2010PropOp38
 70
     1
102
RTVSPost2010Prop39
140
1.0
102
RTVSPost2010PropOp39
 70
     1
102
RTVSPost2010Prop40
 90
        0
102
RTVSPost2010PropOp40
 70
     1
102
RTVSPost2010Prop41ColorIndex
 90
       18
102
RTVSPost2010Prop41ColorRGB
 90
        0
102
RTVSPost2010PropOp41
 70
     1
102
RTVSPost2010Prop42
 90
       50
102
RTVSPost2010PropOp42
 70
     1
102
RTVSPost2010Prop43
 90
        3
102
RTVSPost2010PropOp43
 70
     1
102
RTVSPost2010Prop44ColorIndex
 90
        5
102
RTVSPost2010Prop44ColorRGB
 90
      255
102
RTVSPost2010PropOp44
 70
     1
102
RTVSPost2010Prop45
280
     0
102
RTVSPost2010PropOp45
 70
     1
102
RTVSPost2010Prop46
 90
       50
102
RTVSPost2010PropOp46
 70
     1
102
RTVSPost2010Prop47
 90
       50
102
RTVSPost2010PropOp47
 70
     1
102
RTVSPost2010Prop48
 90
       50
102
RTVSPost2010PropOp48
 70
     1
102
RTVSPost2010Prop49
280
     0
102
RTVSPost2010PropOp49
 70
     1
102
RTVSPost2010Prop50
 90
       50
102
RTVSPost2010PropOp50
 70
     1
102
RTVSPost2010Prop51ColorIndex
 90
      256
102
RTVSPost2010Prop51ColorRGB
 90
-16777216
102
RTVSPost2010PropOp51
 70
     0
102
RTVSPost2010Prop52
140
1.0
102
RTVSPost2010PropOp52
 70
     0
102
RTVSPost2010Prop53
 90
        2
102
RTVSPost2010PropOp53
 70
     1
102
RTVSPost2010Prop54
  1
strokes_ogs.tif
102
RTVSPost2010PropOp54
 70
     1
102
RTVSPost2010Prop55
280
     0
102
RTVSPost2010PropOp55
 70
     1
102
RTVSPost2010Prop56
140
1.0
102
RTVSPost2010PropOp56
 70
     1
102
RTVSPost2010Prop57
140
1.0
102
RTVSPost2010PropOp57
 70
     1
  0
XRECORD
  5
16E
102
{ACAD_REACTORS
330
16D
102
}
330
16D
100
AcDbXrecord
280
     1
102
RTVSPost2010Prop28
280
     0
102
RTVSPost2010PropOp28
 70
     1
102
RTVSPost2010Prop29
280
     1
102
RTVSPost2010PropOp29
 70
     1
102
RTVSPost2010Prop30
280
     1
102
RTVSPost2010PropOp30
 70
     1
102
RTVSPost2010Prop31
280
     0
102
RTVSPost2010PropOp31
 70
     1
102
RTVSPost2010Prop32
280
     0
102
RTVSPost2010PropOp32
 70
     1
102
RTVSPost2010Prop33
280
     0
102
RTVSPost2010PropOp33
 70
     1
102
RTVSPost2010Prop34
280
     0
102
RTVSPost2010PropOp34
 70
     1
102
RTVSPost2010Prop35
280
     0
102
RTVSPost2010PropOp35
 70
     1
102
RTVSPost2010Prop36
280
     0
102
RTVSPost2010PropOp36
 70
     1
102
RTVSPost2010Prop37
 90
       50
102
RTVSPost2010PropOp37
 70
     1
102
RTVSPost2010Prop38
140
0.0
102
RTVSPost2010PropOp38
 70
     1
102
RTVSPost2010Prop39
140
1.0
102
RTVSPost2010PropOp39
 70
     1
102
RTVSPost2010Prop40
 90
        0
102
RTVSPost2010PropOp40
 70
     1
102
RTVSPost2010Prop41ColorIndex
 90
       18
102
RTVSPost2010Prop41ColorRGB
 90
        0
102
RTVSPost2010PropOp41
 70
     1
102
RTVSPost2010Prop42
 90
       50
102
RTVSPost2010PropOp42
 70
     1
102
RTVSPost2010Prop43
 90
        3
102
RTVSPost2010PropOp43
 70
     1
102
RTVSPost2010Prop44ColorIndex
 90
        5
102
RTVSPost2010Prop44ColorRGB
 90
      255
102
RTVSPost2010PropOp44
 70
     1
102
RTVSPost2010Prop45
280
     0
102
RTVSPost2010PropOp45
 70
     1
102
RTVSPost2010Prop46
 90
       50
102
RTVSPost2010PropOp46
 70
     1
102
RTVSPost2010Prop47
 90
       50
102
RTVSPost2010PropOp47
 70
     1
102
RTVSPost2010Prop48
 90
       50
102
RTVSPost2010PropOp48
 70
     1
102
RTVSPost2010Prop49
280
     0
102
RTVSPost2010PropOp49
 70
     1
102
RTVSPost2010Prop50
 90
       50
102
RTVSPost2010PropOp50
 70
     1
102
RTVSPost2010Prop51ColorIndex
 90
      256
102
RTVSPost2010Prop51ColorRGB
 90
-16777216
102
RTVSPost2010PropOp51
 70
     0
102
RTVSPost2010Prop52
140
1.0
102
RTVSPost2010PropOp52
 70
     0
102
RTVSPost2010Prop53
 90
        2
102
RTVSPost2010PropOp53
 70
     1
102
RTVSPost2010Prop54
  1
strokes_ogs.tif
102
RTVSPost2010PropOp54
 70
     1
102
RTVSPost2010Prop55
280
     0
102
RTVSPost2010PropOp55
 70
     1
102
RTVSPost2010Prop56
140
1.0
102
RTVSPost2010PropOp56
 70
     1
102
RTVSPost2010Prop57
140
1.0
102
RTVSPost2010PropOp57
 70
     1
  0
XRECORD
  5
17C
102
{ACAD_REACTORS
330
17B
102
}
330
17B
100
AcDbXrecord
280
     1
102
RTVSPost2010Prop28
280
     0
102
RTVSPost2010PropOp28
 70
     1
102
RTVSPost2010Prop29
280
     1
102
RTVSPost2010PropOp29
 70
     1
102
RTVSPost2010Prop30
280
     1
102
RTVSPost2010PropOp30
 70
     1
102
RTVSPost2010Prop31
280
     0
102
RTVSPost2010PropOp31
 70
     1
102
RTVSPost2010Prop32
280
     0
102
RTVSPost2010PropOp32
 70
     1
102
RTVSPost2010Prop33
280
     0
102
RTVSPost2010PropOp33
 70
     1
102
RTVSPost2010Prop34
280
     0
102
RTVSPost2010PropOp34
 70
     1
102
RTVSPost2010Prop35
280
     0
102
RTVSPost2010PropOp35
 70
     1
102
RTVSPost2010Prop36
280
     0
102
RTVSPost2010PropOp36
 70
     1
102
RTVSPost2010Prop37
 90
       50
102
RTVSPost2010PropOp37
 70
     1
102
RTVSPost2010Prop38
140
0.0
102
RTVSPost2010PropOp38
 70
     1
102
RTVSPost2010Prop39
140
1.0
102
RTVSPost2010PropOp39
 70
     1
102
RTVSPost2010Prop40
 90
        0
102
RTVSPost2010PropOp40
 70
     1
102
RTVSPost2010Prop41ColorIndex
 90
       18
102
RTVSPost2010Prop41ColorRGB
 90
        0
102
RTVSPost2010PropOp41
 70
     1
102
RTVSPost2010Prop42
 90
       50
102
RTVSPost2010PropOp42
 70
     1
102
RTVSPost2010Prop43
 90
        3
102
RTVSPost2010PropOp43
 70
     1
102
RTVSPost2010Prop44ColorIndex
 90
        5
102
RTVSPost2010Prop44ColorRGB
 90
      255
102
RTVSPost2010PropOp44
 70
     1
102
RTVSPost2010Prop45
280
     0
102
RTVSPost2010PropOp45
 70
     1
102
RTVSPost2010Prop46
 90
       50
102
RTVSPost2010PropOp46
 70
     1
102
RTVSPost2010Prop47
 90
       50
102
RTVSPost2010PropOp47
 70
     1
102
RTVSPost2010Prop48
 90
       50
102
RTVSPost2010PropOp48
 70
     1
102
RTVSPost2010Prop49
280
     0
102
RTVSPost2010PropOp49
 70
     1
102
RTVSPost2010Prop50
 90
       50
102
RTVSPost2010PropOp50
 70
     1
102
RTVSPost2010Prop51ColorIndex
 90
      256
102
RTVSPost2010Prop51ColorRGB
 90
-16777216
102
RTVSPost2010PropOp51
 70
     0
102
RTVSPost2010Prop52
140
1.0
102
RTVSPost2010PropOp52
 70
     0
102
RTVSPost2010Prop53
 90
        2
102
RTVSPost2010PropOp53
 70
     1
102
RTVSPost2010Prop54
  1
strokes_ogs.tif
102
RTVSPost2010PropOp54
 70
     1
102
RTVSPost2010Prop55
280
     0
102
RTVSPost2010PropOp55
 70
     1
102
RTVSPost2010Prop56
140
1.0
102
RTVSPost2010PropOp56
 70
     1
102
RTVSPost2010Prop57
140
1.0
102
RTVSPost2010PropOp57
 70
     1
  0
XRECORD
  5
184
102
{ACAD_REACTORS
330
183
102
}
330
183
100
AcDbXrecord
280
     1
102
RTVSPost2010Prop28
280
     0
102
RTVSPost2010PropOp28
 70
     1
102
RTVSPost2010Prop29
280
     1
102
RTVSPost2010PropOp29
 70
     1
102
RTVSPost2010Prop30
280
     1
102
RTVSPost2010PropOp30
 70
     1
102
RTVSPost2010Prop31
280
     0
102
RTVSPost2010PropOp31
 70
     1
102
RTVSPost2010Prop32
280
     0
102
RTVSPost2010PropOp32
 70
     1
102
RTVSPost2010Prop33
280
     0
102
RTVSPost2010PropOp33
 70
     1
102
RTVSPost2010Prop34
280
     0
102
RTVSPost2010PropOp34
 70
     1
102
RTVSPost2010Prop35
280
     0
102
RTVSPost2010PropOp35
 70
     1
102
RTVSPost2010Prop36
280
     0
102
RTVSPost2010PropOp36
 70
     1
102
RTVSPost2010Prop37
 90
       50
102
RTVSPost2010PropOp37
 70
     1
102
RTVSPost2010Prop38
140
0.0
102
RTVSPost2010PropOp38
 70
     1
102
RTVSPost2010Prop39
140
1.0
102
RTVSPost2010PropOp39
 70
     1
102
RTVSPost2010Prop40
 90
        0
102
RTVSPost2010PropOp40
 70
     1
102
RTVSPost2010Prop41ColorIndex
 90
       18
102
RTVSPost2010Prop41ColorRGB
 90
        0
102
RTVSPost2010PropOp41
 70
     1
102
RTVSPost2010Prop42
 90
       50
102
RTVSPost2010PropOp42
 70
     1
102
RTVSPost2010Prop43
 90
        3
102
RTVSPost2010PropOp43
 70
     1
102
RTVSPost2010Prop44ColorIndex
 90
        5
102
RTVSPost2010Prop44ColorRGB
 90
      255
102
RTVSPost2010PropOp44
 70
     1
102
RTVSPost2010Prop45
280
     0
102
RTVSPost2010PropOp45
 70
     1
102
RTVSPost2010Prop46
 90
       50
102
RTVSPost2010PropOp46
 70
     1
102
RTVSPost2010Prop47
 90
       50
102
RTVSPost2010PropOp47
 70
     1
102
RTVSPost2010Prop48
 90
       50
102
RTVSPost2010PropOp48
 70
     1
102
RTVSPost2010Prop49
280
     0
102
RTVSPost2010PropOp49
 70
     1
102
RTVSPost2010Prop50
 90
       50
102
RTVSPost2010PropOp50
 70
     1
102
RTVSPost2010Prop51ColorIndex
 90
      256
102
RTVSPost2010Prop51ColorRGB
 90
-16777216
102
RTVSPost2010PropOp51
 70
     0
102
RTVSPost2010Prop52
140
1.0
102
RTVSPost2010PropOp52
 70
     0
102
RTVSPost2010Prop53
 90
        2
102
RTVSPost2010PropOp53
 70
     1
102
RTVSPost2010Prop54
  1
strokes_ogs.tif
102
RTVSPost2010PropOp54
 70
     1
102
RTVSPost2010Prop55
280
     0
102
RTVSPost2010PropOp55
 70
     1
102
RTVSPost2010Prop56
140
1.0
102
RTVSPost2010PropOp56
 70
     1
102
RTVSPost2010Prop57
140
1.0
102
RTVSPost2010PropOp57
 70
     1
  0
XRECORD
  5
176
102
{ACAD_REACTORS
330
175
102
}
330
175
100
AcDbXrecord
280
     1
102
RTVSPost2010Prop28
280
     0
102
RTVSPost2010PropOp28
 70
     1
102
RTVSPost2010Prop29
280
     1
102
RTVSPost2010PropOp29
 70
     1
102
RTVSPost2010Prop30
280
     1
102
RTVSPost2010PropOp30
 70
     1
102
RTVSPost2010Prop31
280
     0
102
RTVSPost2010PropOp31
 70
     1
102
RTVSPost2010Prop32
280
     0
102
RTVSPost2010PropOp32
 70
     1
102
RTVSPost2010Prop33
280
     0
102
RTVSPost2010PropOp33
 70
     1
102
RTVSPost2010Prop34
280
     0
102
RTVSPost2010PropOp34
 70
     1
102
RTVSPost2010Prop35
280
     0
102
RTVSPost2010PropOp35
 70
     1
102
RTVSPost2010Prop36
280
     0
102
RTVSPost2010PropOp36
 70
     1
102
RTVSPost2010Prop37
 90
       50
102
RTVSPost2010PropOp37
 70
     1
102
RTVSPost2010Prop38
140
0.0
102
RTVSPost2010PropOp38
 70
     1
102
RTVSPost2010Prop39
140
1.0
102
RTVSPost2010PropOp39
 70
     1
102
RTVSPost2010Prop40
 90
        0
102
RTVSPost2010PropOp40
 70
     1
102
RTVSPost2010Prop41ColorIndex
 90
       18
102
RTVSPost2010Prop41ColorRGB
 90
        0
102
RTVSPost2010PropOp41
 70
     1
102
RTVSPost2010Prop42
 90
       50
102
RTVSPost2010PropOp42
 70
     1
102
RTVSPost2010Prop43
 90
        3
102
RTVSPost2010PropOp43
 70
     1
102
RTVSPost2010Prop44ColorIndex
 90
        5
102
RTVSPost2010Prop44ColorRGB
 90
      255
102
RTVSPost2010PropOp44
 70
     1
102
RTVSPost2010Prop45
280
     0
102
RTVSPost2010PropOp45
 70
     1
102
RTVSPost2010Prop46
 90
       50
102
RTVSPost2010PropOp46
 70
     1
102
RTVSPost2010Prop47
 90
       50
102
RTVSPost2010PropOp47
 70
     1
102
RTVSPost2010Prop48
 90
       50
102
RTVSPost2010PropOp48
 70
     1
102
RTVSPost2010Prop49
280
     0
102
RTVSPost2010PropOp49
 70
     1
102
RTVSPost2010Prop50
 90
       50
102
RTVSPost2010PropOp50
 70
     1
102
RTVSPost2010Prop51ColorIndex
 90
      256
102
RTVSPost2010Prop51ColorRGB
 90
-16777216
102
RTVSPost2010PropOp51
 70
     0
102
RTVSPost2010Prop52
140
1.0
102
RTVSPost2010PropOp52
 70
     0
102
RTVSPost2010Prop53
 90
        2
102
RTVSPost2010PropOp53
 70
     1
102
RTVSPost2010Prop54
  1
strokes_ogs.tif
102
RTVSPost2010PropOp54
 70
     1
102
RTVSPost2010Prop55
280
     0
102
RTVSPost2010PropOp55
 70
     1
102
RTVSPost2010Prop56
140
1.0
102
RTVSPost2010PropOp56
 70
     1
102
RTVSPost2010Prop57
140
1.0
102
RTVSPost2010PropOp57
 70
     1
  0
XRECORD
  5
17A
102
{ACAD_REACTORS
330
179
102
}
330
179
100
AcDbXrecord
280
     1
102
RTVSPost2010Prop28
280
     0
102
RTVSPost2010PropOp28
 70
     1
102
RTVSPost2010Prop29
280
     1
102
RTVSPost2010PropOp29
 70
     1
102
RTVSPost2010Prop30
280
     1
102
RTVSPost2010PropOp30
 70
     1
102
RTVSPost2010Prop31
280
     0
102
RTVSPost2010PropOp31
 70
     1
102
RTVSPost2010Prop32
280
     0
102
RTVSPost2010PropOp32
 70
     1
102
RTVSPost2010Prop33
280
     0
102
RTVSPost2010PropOp33
 70
     1
102
RTVSPost2010Prop34
280
     0
102
RTVSPost2010PropOp34
 70
     1
102
RTVSPost2010Prop35
280
     0
102
RTVSPost2010PropOp35
 70
     1
102
RTVSPost2010Prop36
280
     0
102
RTVSPost2010PropOp36
 70
     1
102
RTVSPost2010Prop37
 90
       50
102
RTVSPost2010PropOp37
 70
     1
102
RTVSPost2010Prop38
140
0.0
102
RTVSPost2010PropOp38
 70
     1
102
RTVSPost2010Prop39
140
1.0
102
RTVSPost2010PropOp39
 70
     1
102
RTVSPost2010Prop40
 90
        0
102
RTVSPost2010PropOp40
 70
     1
102
RTVSPost2010Prop41ColorIndex
 90
       18
102
RTVSPost2010Prop41ColorRGB
 90
        0
102
RTVSPost2010PropOp41
 70
     1
102
RTVSPost2010Prop42
 90
       50
102
RTVSPost2010PropOp42
 70
     1
102
RTVSPost2010Prop43
 90
        3
102
RTVSPost2010PropOp43
 70
     1
102
RTVSPost2010Prop44ColorIndex
 90
        5
102
RTVSPost2010Prop44ColorRGB
 90
      255
102
RTVSPost2010PropOp44
 70
     1
102
RTVSPost2010Prop45
280
     0
102
RTVSPost2010PropOp45
 70
     1
102
RTVSPost2010Prop46
 90
       50
102
RTVSPost2010PropOp46
 70
     1
102
RTVSPost2010Prop47
 90
       50
102
RTVSPost2010PropOp47
 70
     1
102
RTVSPost2010Prop48
 90
       50
102
RTVSPost2010PropOp48
 70
     1
102
RTVSPost2010Prop49
280
     0
102
RTVSPost2010PropOp49
 70
     1
102
RTVSPost2010Prop50
 90
       50
102
RTVSPost2010PropOp50
 70
     1
102
RTVSPost2010Prop51ColorIndex
 90
      256
102
RTVSPost2010Prop51ColorRGB
 90
-16777216
102
RTVSPost2010PropOp51
 70
     0
102
RTVSPost2010Prop52
140
1.0
102
RTVSPost2010PropOp52
 70
     0
102
RTVSPost2010Prop53
 90
        2
102
RTVSPost2010PropOp53
 70
     1
102
RTVSPost2010Prop54
  1
strokes_ogs.tif
102
RTVSPost2010PropOp54
 70
     1
102
RTVSPost2010Prop55
280
     0
102
RTVSPost2010PropOp55
 70
     1
102
RTVSPost2010Prop56
140
1.0
102
RTVSPost2010PropOp56
 70
     1
102
RTVSPost2010Prop57
140
1.0
102
RTVSPost2010PropOp57
 70
     1
  0
XRECORD
  5
194
102
{ACAD_REACTORS
330
193
102
}
330
193
100
AcDbXrecord
280
     1
102
RTVSPost2010Prop28
280
     0
102
RTVSPost2010PropOp28
 70
     0
102
RTVSPost2010Prop29
280
     1
102
RTVSPost2010PropOp29
 70
     0
102
RTVSPost2010Prop30
280
     1
102
RTVSPost2010PropOp30
 70
     0
102
RTVSPost2010Prop31
280
     0
102
RTVSPost2010PropOp31
 70
     0
102
RTVSPost2010Prop32
280
     0
102
RTVSPost2010PropOp32
 70
     0
102
RTVSPost2010Prop33
280
     0
102
RTVSPost2010PropOp33
 70
     0
102
RTVSPost2010Prop34
280
     0
102
RTVSPost2010PropOp34
 70
     0
102
RTVSPost2010Prop35
280
     0
102
RTVSPost2010PropOp35
 70
     0
102
RTVSPost2010Prop36
280
     0
102
RTVSPost2010PropOp36
 70
     0
102
RTVSPost2010Prop37
 90
       50
102
RTVSPost2010PropOp37
 70
     0
102
RTVSPost2010Prop38
140
0.0
102
RTVSPost2010PropOp38
 70
     0
102
RTVSPost2010Prop39
140
1.0
102
RTVSPost2010PropOp39
 70
     0
102
RTVSPost2010Prop40
 90
        0
102
RTVSPost2010PropOp40
 70
     0
102
RTVSPost2010Prop41ColorIndex
 90
       18
102
RTVSPost2010Prop41ColorRGB
 90
        0
102
RTVSPost2010PropOp41
 70
     0
102
RTVSPost2010Prop42
 90
       50
102
RTVSPost2010PropOp42
 70
     0
102
RTVSPost2010Prop43
 90
        3
102
RTVSPost2010PropOp43
 70
     0
102
RTVSPost2010Prop44ColorIndex
 90
        5
102
RTVSPost2010Prop44ColorRGB
 90
      255
102
RTVSPost2010PropOp44
 70
     0
102
RTVSPost2010Prop45
280
     0
102
RTVSPost2010PropOp45
 70
     0
102
RTVSPost2010Prop46
 90
       50
102
RTVSPost2010PropOp46
 70
     0
102
RTVSPost2010Prop47
 90
       50
102
RTVSPost2010PropOp47
 70
     0
102
RTVSPost2010Prop48
 90
       50
102
RTVSPost2010PropOp48
 70
     0
102
RTVSPost2010Prop49
280
     0
102
RTVSPost2010PropOp49
 70
     0
102
RTVSPost2010Prop50
 90
       50
102
RTVSPost2010PropOp50
 70
     0
102
RTVSPost2010Prop51ColorIndex
 90
      256
102
RTVSPost2010Prop51ColorRGB
 90
-16777216
102
RTVSPost2010PropOp51
 70
     0
102
RTVSPost2010Prop52
140
1.0
102
RTVSPost2010PropOp52
 70
     0
102
RTVSPost2010Prop53
 90
        2
102
RTVSPost2010PropOp53
 70
     0
102
RTVSPost2010Prop54
  1
strokes_ogs.tif
102
RTVSPost2010PropOp54
 70
     0
102
RTVSPost2010Prop55
280
     0
102
RTVSPost2010PropOp55
 70
     0
102
RTVSPost2010Prop56
140
1.0
102
RTVSPost2010PropOp56
 70
     0
102
RTVSPost2010Prop57
140
1.0
102
RTVSPost2010PropOp57
 70
     0
  0
XRECORD
  5
182
102
{ACAD_REACTORS
330
181
102
}
330
181
100
AcDbXrecord
280
     1
102
RTVSPost2010Prop28
280
     0
102
RTVSPost2010PropOp28
 70
     1
102
RTVSPost2010Prop29
280
     1
102
RTVSPost2010PropOp29
 70
     1
102
RTVSPost2010Prop30
280
     1
102
RTVSPost2010PropOp30
 70
     1
102
RTVSPost2010Prop31
280
     0
102
RTVSPost2010PropOp31
 70
     1
102
RTVSPost2010Prop32
280
     0
102
RTVSPost2010PropOp32
 70
     1
102
RTVSPost2010Prop33
280
     0
102
RTVSPost2010PropOp33
 70
     1
102
RTVSPost2010Prop34
280
     0
102
RTVSPost2010PropOp34
 70
     1
102
RTVSPost2010Prop35
280
     0
102
RTVSPost2010PropOp35
 70
     1
102
RTVSPost2010Prop36
280
     0
102
RTVSPost2010PropOp36
 70
     1
102
RTVSPost2010Prop37
 90
       50
102
RTVSPost2010PropOp37
 70
     1
102
RTVSPost2010Prop38
140
0.0
102
RTVSPost2010PropOp38
 70
     1
102
RTVSPost2010Prop39
140
1.0
102
RTVSPost2010PropOp39
 70
     1
102
RTVSPost2010Prop40
 90
        0
102
RTVSPost2010PropOp40
 70
     1
102
RTVSPost2010Prop41ColorIndex
 90
       18
102
RTVSPost2010Prop41ColorRGB
 90
        0
102
RTVSPost2010PropOp41
 70
     1
102
RTVSPost2010Prop42
 90
       50
102
RTVSPost2010PropOp42
 70
     1
102
RTVSPost2010Prop43
 90
        3
102
RTVSPost2010PropOp43
 70
     1
102
RTVSPost2010Prop44ColorIndex
 90
        5
102
RTVSPost2010Prop44ColorRGB
 90
      255
102
RTVSPost2010PropOp44
 70
     1
102
RTVSPost2010Prop45
280
     0
102
RTVSPost2010PropOp45
 70
     1
102
RTVSPost2010Prop46
 90
       50
102
RTVSPost2010PropOp46
 70
     1
102
RTVSPost2010Prop47
 90
       50
102
RTVSPost2010PropOp47
 70
     1
102
RTVSPost2010Prop48
 90
       50
102
RTVSPost2010PropOp48
 70
     1
102
RTVSPost2010Prop49
280
     0
102
RTVSPost2010PropOp49
 70
     1
102
RTVSPost2010Prop50
 90
       50
102
RTVSPost2010PropOp50
 70
     1
102
RTVSPost2010Prop51ColorIndex
 90
      256
102
RTVSPost2010Prop51ColorRGB
 90
-16777216
102
RTVSPost2010PropOp51
 70
     0
102
RTVSPost2010Prop52
140
1.0
102
RTVSPost2010PropOp52
 70
     0
102
RTVSPost2010Prop53
 90
        2
102
RTVSPost2010PropOp53
 70
     1
102
RTVSPost2010Prop54
  1
strokes_ogs.tif
102
RTVSPost2010PropOp54
 70
     1
102
RTVSPost2010Prop55
280
     0
102
RTVSPost2010PropOp55
 70
     1
102
RTVSPost2010Prop56
140
1.0
102
RTVSPost2010PropOp56
 70
     1
102
RTVSPost2010Prop57
140
1.0
102
RTVSPost2010PropOp57
 70
     1
  0
XRECORD
  5
166
102
{ACAD_REACTORS
330
165
102
}
330
165
100
AcDbXrecord
280
     1
102
RTVSPost2010Prop28
280
     0
102
RTVSPost2010PropOp28
 70
     1
102
RTVSPost2010Prop29
280
     1
102
RTVSPost2010PropOp29
 70
     1
102
RTVSPost2010Prop30
280
     1
102
RTVSPost2010PropOp30
 70
     1
102
RTVSPost2010Prop31
280
     0
102
RTVSPost2010PropOp31
 70
     1
102
RTVSPost2010Prop32
280
     0
102
RTVSPost2010PropOp32
 70
     1
102
RTVSPost2010Prop33
280
     0
102
RTVSPost2010PropOp33
 70
     1
102
RTVSPost2010Prop34
280
     0
102
RTVSPost2010PropOp34
 70
     1
102
RTVSPost2010Prop35
280
     0
102
RTVSPost2010PropOp35
 70
     1
102
RTVSPost2010Prop36
280
     0
102
RTVSPost2010PropOp36
 70
     1
102
RTVSPost2010Prop37
 90
       50
102
RTVSPost2010PropOp37
 70
     1
102
RTVSPost2010Prop38
140
0.0
102
RTVSPost2010PropOp38
 70
     1
102
RTVSPost2010Prop39
140
1.0
102
RTVSPost2010PropOp39
 70
     1
102
RTVSPost2010Prop40
 90
        0
102
RTVSPost2010PropOp40
 70
     1
102
RTVSPost2010Prop41ColorIndex
 90
       18
102
RTVSPost2010Prop41ColorRGB
 90
        0
102
RTVSPost2010PropOp41
 70
     1
102
RTVSPost2010Prop42
 90
       50
102
RTVSPost2010PropOp42
 70
     1
102
RTVSPost2010Prop43
 90
        3
102
RTVSPost2010PropOp43
 70
     1
102
RTVSPost2010Prop44ColorIndex
 90
        5
102
RTVSPost2010Prop44ColorRGB
 90
      255
102
RTVSPost2010PropOp44
 70
     1
102
RTVSPost2010Prop45
280
     0
102
RTVSPost2010PropOp45
 70
     1
102
RTVSPost2010Prop46
 90
       50
102
RTVSPost2010PropOp46
 70
     1
102
RTVSPost2010Prop47
 90
       50
102
RTVSPost2010PropOp47
 70
     1
102
RTVSPost2010Prop48
 90
       50
102
RTVSPost2010PropOp48
 70
     1
102
RTVSPost2010Prop49
280
     0
102
RTVSPost2010PropOp49
 70
     1
102
RTVSPost2010Prop50
 90
       50
102
RTVSPost2010PropOp50
 70
     1
102
RTVSPost2010Prop51ColorIndex
 90
      256
102
RTVSPost2010Prop51ColorRGB
 90
-16777216
102
RTVSPost2010PropOp51
 70
     0
102
RTVSPost2010Prop52
140
1.0
102
RTVSPost2010PropOp52
 70
     0
102
RTVSPost2010Prop53
 90
        2
102
RTVSPost2010PropOp53
 70
     1
102
RTVSPost2010Prop54
  1
strokes_ogs.tif
102
RTVSPost2010PropOp54
 70
     1
102
RTVSPost2010Prop55
280
     0
102
RTVSPost2010PropOp55
 70
     1
102
RTVSPost2010Prop56
140
1.0
102
RTVSPost2010PropOp56
 70
     1
102
RTVSPost2010Prop57
140
1.0
102
RTVSPost2010PropOp57
 70
     1
  0
XRECORD
  5
168
102
{ACAD_REACTORS
330
167
102
}
330
167
100
AcDbXrecord
280
     1
102
RTVSPost2010Prop28
280
     0
102
RTVSPost2010PropOp28
 70
     1
102
RTVSPost2010Prop29
280
     1
102
RTVSPost2010PropOp29
 70
     1
102
RTVSPost2010Prop30
280
     1
102
RTVSPost2010PropOp30
 70
     1
102
RTVSPost2010Prop31
280
     0
102
RTVSPost2010PropOp31
 70
     1
102
RTVSPost2010Prop32
280
     0
102
RTVSPost2010PropOp32
 70
     1
102
RTVSPost2010Prop33
280
     0
102
RTVSPost2010PropOp33
 70
     1
102
RTVSPost2010Prop34
280
     0
102
RTVSPost2010PropOp34
 70
     1
102
RTVSPost2010Prop35
280
     0
102
RTVSPost2010PropOp35
 70
     1
102
RTVSPost2010Prop36
280
     0
102
RTVSPost2010PropOp36
 70
     1
102
RTVSPost2010Prop37
 90
       50
102
RTVSPost2010PropOp37
 70
     1
102
RTVSPost2010Prop38
140
0.0
102
RTVSPost2010PropOp38
 70
     1
102
RTVSPost2010Prop39
140
1.0
102
RTVSPost2010PropOp39
 70
     1
102
RTVSPost2010Prop40
 90
        0
102
RTVSPost2010PropOp40
 70
     1
102
RTVSPost2010Prop41ColorIndex
 90
       18
102
RTVSPost2010Prop41ColorRGB
 90
        0
102
RTVSPost2010PropOp41
 70
     1
102
RTVSPost2010Prop42
 90
       50
102
RTVSPost2010PropOp42
 70
     1
102
RTVSPost2010Prop43
 90
        3
102
RTVSPost2010PropOp43
 70
     1
102
RTVSPost2010Prop44ColorIndex
 90
        5
102
RTVSPost2010Prop44ColorRGB
 90
      255
102
RTVSPost2010PropOp44
 70
     1
102
RTVSPost2010Prop45
280
     0
102
RTVSPost2010PropOp45
 70
     1
102
RTVSPost2010Prop46
 90
       50
102
RTVSPost2010PropOp46
 70
     1
102
RTVSPost2010Prop47
 90
       50
102
RTVSPost2010PropOp47
 70
     1
102
RTVSPost2010Prop48
 90
       50
102
RTVSPost2010PropOp48
 70
     1
102
RTVSPost2010Prop49
280
     0
102
RTVSPost2010PropOp49
 70
     1
102
RTVSPost2010Prop50
 90
       50
102
RTVSPost2010PropOp50
 70
     1
102
RTVSPost2010Prop51ColorIndex
 90
      256
102
RTVSPost2010Prop51ColorRGB
 90
-16777216
102
RTVSPost2010PropOp51
 70
     0
102
RTVSPost2010Prop52
140
1.0
102
RTVSPost2010PropOp52
 70
     0
102
RTVSPost2010Prop53
 90
        2
102
RTVSPost2010PropOp53
 70
     1
102
RTVSPost2010Prop54
  1
strokes_ogs.tif
102
RTVSPost2010PropOp54
 70
     1
102
RTVSPost2010Prop55
280
     0
102
RTVSPost2010PropOp55
 70
     1
102
RTVSPost2010Prop56
140
1.0
102
RTVSPost2010PropOp56
 70
     1
102
RTVSPost2010Prop57
140
1.0
102
RTVSPost2010PropOp57
 70
     1
  0
XRECORD
  5
16A
102
{ACAD_REACTORS
330
169
102
}
330
169
100
AcDbXrecord
280
     1
102
RTVSPost2010Prop28
280
     0
102
RTVSPost2010PropOp28
 70
     1
102
RTVSPost2010Prop29
280
     1
102
RTVSPost2010PropOp29
 70
     1
102
RTVSPost2010Prop30
280
     1
102
RTVSPost2010PropOp30
 70
     1
102
RTVSPost2010Prop31
280
     0
102
RTVSPost2010PropOp31
 70
     1
102
RTVSPost2010Prop32
280
     0
102
RTVSPost2010PropOp32
 70
     1
102
RTVSPost2010Prop33
280
     0
102
RTVSPost2010PropOp33
 70
     1
102
RTVSPost2010Prop34
280
     0
102
RTVSPost2010PropOp34
 70
     1
102
RTVSPost2010Prop35
280
     0
102
RTVSPost2010PropOp35
 70
     1
102
RTVSPost2010Prop36
280
     0
102
RTVSPost2010PropOp36
 70
     1
102
RTVSPost2010Prop37
 90
       50
102
RTVSPost2010PropOp37
 70
     1
102
RTVSPost2010Prop38
140
0.0
102
RTVSPost2010PropOp38
 70
     1
102
RTVSPost2010Prop39
140
1.0
102
RTVSPost2010PropOp39
 70
     1
102
RTVSPost2010Prop40
 90
        0
102
RTVSPost2010PropOp40
 70
     1
102
RTVSPost2010Prop41ColorIndex
 90
       18
102
RTVSPost2010Prop41ColorRGB
 90
        0
102
RTVSPost2010PropOp41
 70
     1
102
RTVSPost2010Prop42
 90
       50
102
RTVSPost2010PropOp42
 70
     1
102
RTVSPost2010Prop43
 90
        3
102
RTVSPost2010PropOp43
 70
     1
102
RTVSPost2010Prop44ColorIndex
 90
        5
102
RTVSPost2010Prop44ColorRGB
 90
      255
102
RTVSPost2010PropOp44
 70
     1
102
RTVSPost2010Prop45
280
     0
102
RTVSPost2010PropOp45
 70
     1
102
RTVSPost2010Prop46
 90
       50
102
RTVSPost2010PropOp46
 70
     1
102
RTVSPost2010Prop47
 90
       50
102
RTVSPost2010PropOp47
 70
     1
102
RTVSPost2010Prop48
 90
       50
102
RTVSPost2010PropOp48
 70
     1
102
RTVSPost2010Prop49
280
     0
102
RTVSPost2010PropOp49
 70
     1
102
RTVSPost2010Prop50
 90
       50
102
RTVSPost2010PropOp50
 70
     1
102
RTVSPost2010Prop51ColorIndex
 90
      256
102
RTVSPost2010Prop51ColorRGB
 90
-16777216
102
RTVSPost2010PropOp51
 70
     0
102
RTVSPost2010Prop52
140
1.0
102
RTVSPost2010PropOp52
 70
     0
102
RTVSPost2010Prop53
 90
        2
102
RTVSPost2010PropOp53
 70
     1
102
RTVSPost2010Prop54
  1
strokes_ogs.tif
102
RTVSPost2010PropOp54
 70
     1
102
RTVSPost2010Prop55
280
     0
102
RTVSPost2010PropOp55
 70
     1
102
RTVSPost2010Prop56
140
1.0
102
RTVSPost2010PropOp56
 70
     1
102
RTVSPost2010Prop57
140
1.0
102
RTVSPost2010PropOp57
 70
     1
  0
XRECORD
  5
16C
102
{ACAD_REACTORS
330
16B
102
}
330
16B
100
AcDbXrecord
280
     1
102
RTVSPost2010Prop28
280
     0
102
RTVSPost2010PropOp28
 70
     1
102
RTVSPost2010Prop29
280
     1
102
RTVSPost2010PropOp29
 70
     1
102
RTVSPost2010Prop30
280
     1
102
RTVSPost2010PropOp30
 70
     1
102
RTVSPost2010Prop31
280
     0
102
RTVSPost2010PropOp31
 70
     1
102
RTVSPost2010Prop32
280
     0
102
RTVSPost2010PropOp32
 70
     1
102
RTVSPost2010Prop33
280
     0
102
RTVSPost2010PropOp33
 70
     1
102
RTVSPost2010Prop34
280
     0
102
RTVSPost2010PropOp34
 70
     1
102
RTVSPost2010Prop35
280
     0
102
RTVSPost2010PropOp35
 70
     1
102
RTVSPost2010Prop36
280
     0
102
RTVSPost2010PropOp36
 70
     1
102
RTVSPost2010Prop37
 90
       50
102
RTVSPost2010PropOp37
 70
     1
102
RTVSPost2010Prop38
140
0.0
102
RTVSPost2010PropOp38
 70
     1
102
RTVSPost2010Prop39
140
1.0
102
RTVSPost2010PropOp39
 70
     1
102
RTVSPost2010Prop40
 90
        0
102
RTVSPost2010PropOp40
 70
     1
102
RTVSPost2010Prop41ColorIndex
 90
       18
102
RTVSPost2010Prop41ColorRGB
 90
        0
102
RTVSPost2010PropOp41
 70
     1
102
RTVSPost2010Prop42
 90
       50
102
RTVSPost2010PropOp42
 70
     1
102
RTVSPost2010Prop43
 90
        3
102
RTVSPost2010PropOp43
 70
     1
102
RTVSPost2010Prop44ColorIndex
 90
        5
102
RTVSPost2010Prop44ColorRGB
 90
      255
102
RTVSPost2010PropOp44
 70
     1
102
RTVSPost2010Prop45
280
     0
102
RTVSPost2010PropOp45
 70
     1
102
RTVSPost2010Prop46
 90
       50
102
RTVSPost2010PropOp46
 70
     1
102
RTVSPost2010Prop47
 90
       50
102
RTVSPost2010PropOp47
 70
     1
102
RTVSPost2010Prop48
 90
       50
102
RTVSPost2010PropOp48
 70
     1
102
RTVSPost2010Prop49
280
     0
102
RTVSPost2010PropOp49
 70
     1
102
RTVSPost2010Prop50
 90
       50
102
RTVSPost2010PropOp50
 70
     1
102
RTVSPost2010Prop51ColorIndex
 90
      256
102
RTVSPost2010Prop51ColorRGB
 90
-16777216
102
RTVSPost2010PropOp51
 70
     0
102
RTVSPost2010Prop52
140
1.0
102
RTVSPost2010PropOp52
 70
     0
102
RTVSPost2010Prop53
 90
        2
102
RTVSPost2010PropOp53
 70
     1
102
RTVSPost2010Prop54
  1
strokes_ogs.tif
102
RTVSPost2010PropOp54
 70
     1
102
RTVSPost2010Prop55
280
     0
102
RTVSPost2010PropOp55
 70
     1
102
RTVSPost2010Prop56
140
1.0
102
RTVSPost2010PropOp56
 70
     1
102
RTVSPost2010Prop57
140
1.0
102
RTVSPost2010PropOp57
 70
     1
  0
XRECORD
  5
174
102
{ACAD_REACTORS
330
173
102
}
330
173
100
AcDbXrecord
280
     1
102
RTVSPost2010Prop28
280
     0
102
RTVSPost2010PropOp28
 70
     1
102
RTVSPost2010Prop29
280
     1
102
RTVSPost2010PropOp29
 70
     1
102
RTVSPost2010Prop30
280
     1
102
RTVSPost2010PropOp30
 70
     1
102
RTVSPost2010Prop31
280
     0
102
RTVSPost2010PropOp31
 70
     1
102
RTVSPost2010Prop32
280
     0
102
RTVSPost2010PropOp32
 70
     1
102
RTVSPost2010Prop33
280
     0
102
RTVSPost2010PropOp33
 70
     1
102
RTVSPost2010Prop34
280
     0
102
RTVSPost2010PropOp34
 70
     1
102
RTVSPost2010Prop35
280
     0
102
RTVSPost2010PropOp35
 70
     1
102
RTVSPost2010Prop36
280
     0
102
RTVSPost2010PropOp36
 70
     1
102
RTVSPost2010Prop37
 90
       50
102
RTVSPost2010PropOp37
 70
     1
102
RTVSPost2010Prop38
140
0.0
102
RTVSPost2010PropOp38
 70
     1
102
RTVSPost2010Prop39
140
1.0
102
RTVSPost2010PropOp39
 70
     1
102
RTVSPost2010Prop40
 90
        0
102
RTVSPost2010PropOp40
 70
     1
102
RTVSPost2010Prop41ColorIndex
 90
       18
102
RTVSPost2010Prop41ColorRGB
 90
        0
102
RTVSPost2010PropOp41
 70
     1
102
RTVSPost2010Prop42
 90
       50
102
RTVSPost2010PropOp42
 70
     1
102
RTVSPost2010Prop43
 90
        3
102
RTVSPost2010PropOp43
 70
     1
102
RTVSPost2010Prop44ColorIndex
 90
        5
102
RTVSPost2010Prop44ColorRGB
 90
      255
102
RTVSPost2010PropOp44
 70
     1
102
RTVSPost2010Prop45
280
     0
102
RTVSPost2010PropOp45
 70
     1
102
RTVSPost2010Prop46
 90
       50
102
RTVSPost2010PropOp46
 70
     1
102
RTVSPost2010Prop47
 90
       50
102
RTVSPost2010PropOp47
 70
     1
102
RTVSPost2010Prop48
 90
       50
102
RTVSPost2010PropOp48
 70
     1
102
RTVSPost2010Prop49
280
     0
102
RTVSPost2010PropOp49
 70
     1
102
RTVSPost2010Prop50
 90
       50
102
RTVSPost2010PropOp50
 70
     1
102
RTVSPost2010Prop51ColorIndex
 90
      256
102
RTVSPost2010Prop51ColorRGB
 90
-16777216
102
RTVSPost2010PropOp51
 70
     0
102
RTVSPost2010Prop52
140
1.0
102
RTVSPost2010PropOp52
 70
     0
102
RTVSPost2010Prop53
 90
        2
102
RTVSPost2010PropOp53
 70
     1
102
RTVSPost2010Prop54
  1
strokes_ogs.tif
102
RTVSPost2010PropOp54
 70
     1
102
RTVSPost2010Prop55
280
     0
102
RTVSPost2010PropOp55
 70
     1
102
RTVSPost2010Prop56
140
1.0
102
RTVSPost2010PropOp56
 70
     1
102
RTVSPost2010Prop57
140
1.0
102
RTVSPost2010PropOp57
 70
     1
  0
XRECORD
  5
190
102
{ACAD_REACTORS
330
18F
102
}
330
18F
100
AcDbXrecord
280
     1
102
RTVSPost2010Prop28
280
     0
102
RTVSPost2010PropOp28
 70
     0
102
RTVSPost2010Prop29
280
     1
102
RTVSPost2010PropOp29
 70
     0
102
RTVSPost2010Prop30
280
     1
102
RTVSPost2010PropOp30
 70
     0
102
RTVSPost2010Prop31
280
     0
102
RTVSPost2010PropOp31
 70
     0
102
RTVSPost2010Prop32
280
     0
102
RTVSPost2010PropOp32
 70
     0
102
RTVSPost2010Prop33
280
     0
102
RTVSPost2010PropOp33
 70
     0
102
RTVSPost2010Prop34
280
     0
102
RTVSPost2010PropOp34
 70
     0
102
RTVSPost2010Prop35
280
     0
102
RTVSPost2010PropOp35
 70
     0
102
RTVSPost2010Prop36
280
     0
102
RTVSPost2010PropOp36
 70
     0
102
RTVSPost2010Prop37
 90
       50
102
RTVSPost2010PropOp37
 70
     0
102
RTVSPost2010Prop38
140
0.0
102
RTVSPost2010PropOp38
 70
     0
102
RTVSPost2010Prop39
140
1.0
102
RTVSPost2010PropOp39
 70
     0
102
RTVSPost2010Prop40
 90
        0
102
RTVSPost2010PropOp40
 70
     0
102
RTVSPost2010Prop41ColorIndex
 90
       18
102
RTVSPost2010Prop41ColorRGB
 90
        0
102
RTVSPost2010PropOp41
 70
     0
102
RTVSPost2010Prop42
 90
       50
102
RTVSPost2010PropOp42
 70
     0
102
RTVSPost2010Prop43
 90
        3
102
RTVSPost2010PropOp43
 70
     0
102
RTVSPost2010Prop44ColorIndex
 90
        5
102
RTVSPost2010Prop44ColorRGB
 90
      255
102
RTVSPost2010PropOp44
 70
     0
102
RTVSPost2010Prop45
280
     0
102
RTVSPost2010PropOp45
 70
     0
102
RTVSPost2010Prop46
 90
       50
102
RTVSPost2010PropOp46
 70
     0
102
RTVSPost2010Prop47
 90
       50
102
RTVSPost2010PropOp47
 70
     0
102
RTVSPost2010Prop48
 90
       50
102
RTVSPost2010PropOp48
 70
     0
102
RTVSPost2010Prop49
280
     0
102
RTVSPost2010PropOp49
 70
     0
102
RTVSPost2010Prop50
 90
       50
102
RTVSPost2010PropOp50
 70
     0
102
RTVSPost2010Prop51ColorIndex
 90
      256
102
RTVSPost2010Prop51ColorRGB
 90
-16777216
102
RTVSPost2010PropOp51
 70
     0
102
RTVSPost2010Prop52
140
1.0
102
RTVSPost2010PropOp52
 70
     0
102
RTVSPost2010Prop53
 90
        2
102
RTVSPost2010PropOp53
 70
     0
102
RTVSPost2010Prop54
  1
strokes_ogs.tif
102
RTVSPost2010PropOp54
 70
     0
102
RTVSPost2010Prop55
280
     0
102
RTVSPost2010PropOp55
 70
     0
102
RTVSPost2010Prop56
140
1.0
102
RTVSPost2010PropOp56
 70
     0
102
RTVSPost2010Prop57
140
1.0
102
RTVSPost2010PropOp57
 70
     0
  0
XRECORD
  5
180
102
{ACAD_REACTORS
330
17F
102
}
330
17F
100
AcDbXrecord
280
     1
102
RTVSPost2010Prop28
280
     0
102
RTVSPost2010PropOp28
 70
     1
102
RTVSPost2010Prop29
280
     1
102
RTVSPost2010PropOp29
 70
     1
102
RTVSPost2010Prop30
280
     1
102
RTVSPost2010PropOp30
 70
     1
102
RTVSPost2010Prop31
280
     0
102
RTVSPost2010PropOp31
 70
     1
102
RTVSPost2010Prop32
280
     0
102
RTVSPost2010PropOp32
 70
     1
102
RTVSPost2010Prop33
280
     0
102
RTVSPost2010PropOp33
 70
     1
102
RTVSPost2010Prop34
280
     0
102
RTVSPost2010PropOp34
 70
     1
102
RTVSPost2010Prop35
280
     0
102
RTVSPost2010PropOp35
 70
     1
102
RTVSPost2010Prop36
280
     0
102
RTVSPost2010PropOp36
 70
     1
102
RTVSPost2010Prop37
 90
       50
102
RTVSPost2010PropOp37
 70
     1
102
RTVSPost2010Prop38
140
0.0
102
RTVSPost2010PropOp38
 70
     1
102
RTVSPost2010Prop39
140
1.0
102
RTVSPost2010PropOp39
 70
     1
102
RTVSPost2010Prop40
 90
        0
102
RTVSPost2010PropOp40
 70
     1
102
RTVSPost2010Prop41ColorIndex
 90
       18
102
RTVSPost2010Prop41ColorRGB
 90
        0
102
RTVSPost2010PropOp41
 70
     1
102
RTVSPost2010Prop42
 90
       50
102
RTVSPost2010PropOp42
 70
     1
102
RTVSPost2010Prop43
 90
        3
102
RTVSPost2010PropOp43
 70
     1
102
RTVSPost2010Prop44ColorIndex
 90
        5
102
RTVSPost2010Prop44ColorRGB
 90
      255
102
RTVSPost2010PropOp44
 70
     1
102
RTVSPost2010Prop45
280
     0
102
RTVSPost2010PropOp45
 70
     1
102
RTVSPost2010Prop46
 90
       50
102
RTVSPost2010PropOp46
 70
     1
102
RTVSPost2010Prop47
 90
       50
102
RTVSPost2010PropOp47
 70
     1
102
RTVSPost2010Prop48
 90
       50
102
RTVSPost2010PropOp48
 70
     1
102
RTVSPost2010Prop49
280
     0
102
RTVSPost2010PropOp49
 70
     1
102
RTVSPost2010Prop50
 90
       50
102
RTVSPost2010PropOp50
 70
     1
102
RTVSPost2010Prop51ColorIndex
 90
      256
102
RTVSPost2010Prop51ColorRGB
 90
-16777216
102
RTVSPost2010PropOp51
 70
     0
102
RTVSPost2010Prop52
140
1.0
102
RTVSPost2010PropOp52
 70
     0
102
RTVSPost2010Prop53
 90
        2
102
RTVSPost2010PropOp53
 70
     1
102
RTVSPost2010Prop54
  1
strokes_ogs.tif
102
RTVSPost2010PropOp54
 70
     1
102
RTVSPost2010Prop55
280
     0
102
RTVSPost2010PropOp55
 70
     1
102
RTVSPost2010Prop56
140
1.0
102
RTVSPost2010PropOp56
 70
     1
102
RTVSPost2010Prop57
140
1.0
102
RTVSPost2010PropOp57
 70
     1
  0
XRECORD
  5
192
102
{ACAD_REACTORS
330
191
102
}
330
191
100
AcDbXrecord
280
     1
102
RTVSPost2010Prop28
280
     0
102
RTVSPost2010PropOp28
 70
     0
102
RTVSPost2010Prop29
280
     1
102
RTVSPost2010PropOp29
 70
     0
102
RTVSPost2010Prop30
280
     1
102
RTVSPost2010PropOp30
 70
     0
102
RTVSPost2010Prop31
280
     0
102
RTVSPost2010PropOp31
 70
     0
102
RTVSPost2010Prop32
280
     0
102
RTVSPost2010PropOp32
 70
     0
102
RTVSPost2010Prop33
280
     0
102
RTVSPost2010PropOp33
 70
     0
102
RTVSPost2010Prop34
280
     0
102
RTVSPost2010PropOp34
 70
     0
102
RTVSPost2010Prop35
280
     0
102
RTVSPost2010PropOp35
 70
     0
102
RTVSPost2010Prop36
280
     0
102
RTVSPost2010PropOp36
 70
     0
102
RTVSPost2010Prop37
 90
       50
102
RTVSPost2010PropOp37
 70
     0
102
RTVSPost2010Prop38
140
0.0
102
RTVSPost2010PropOp38
 70
     0
102
RTVSPost2010Prop39
140
1.0
102
RTVSPost2010PropOp39
 70
     0
102
RTVSPost2010Prop40
 90
        0
102
RTVSPost2010PropOp40
 70
     0
102
RTVSPost2010Prop41ColorIndex
 90
       18
102
RTVSPost2010Prop41ColorRGB
 90
        0
102
RTVSPost2010PropOp41
 70
     0
102
RTVSPost2010Prop42
 90
       50
102
RTVSPost2010PropOp42
 70
     0
102
RTVSPost2010Prop43
 90
        3
102
RTVSPost2010PropOp43
 70
     0
102
RTVSPost2010Prop44ColorIndex
 90
        5
102
RTVSPost2010Prop44ColorRGB
 90
      255
102
RTVSPost2010PropOp44
 70
     0
102
RTVSPost2010Prop45
280
     0
102
RTVSPost2010PropOp45
 70
     0
102
RTVSPost2010Prop46
 90
       50
102
RTVSPost2010PropOp46
 70
     0
102
RTVSPost2010Prop47
 90
       50
102
RTVSPost2010PropOp47
 70
     0
102
RTVSPost2010Prop48
 90
       50
102
RTVSPost2010PropOp48
 70
     0
102
RTVSPost2010Prop49
280
     0
102
RTVSPost2010PropOp49
 70
     0
102
RTVSPost2010Prop50
 90
       50
102
RTVSPost2010PropOp50
 70
     0
102
RTVSPost2010Prop51ColorIndex
 90
      256
102
RTVSPost2010Prop51ColorRGB
 90
-16777216
102
RTVSPost2010PropOp51
 70
     0
102
RTVSPost2010Prop52
140
1.0
102
RTVSPost2010PropOp52
 70
     0
102
RTVSPost2010Prop53
 90
        2
102
RTVSPost2010PropOp53
 70
     0
102
RTVSPost2010Prop54
  1
strokes_ogs.tif
102
RTVSPost2010PropOp54
 70
     0
102
RTVSPost2010Prop55
280
     0
102
RTVSPost2010PropOp55
 70
     0
102
RTVSPost2010Prop56
140
1.0
102
RTVSPost2010PropOp56
 70
     0
102
RTVSPost2010Prop57
140
1.0
102
RTVSPost2010PropOp57
 70
     0
  0
XRECORD
  5
178
102
{ACAD_REACTORS
330
177
102
}
330
177
100
AcDbXrecord
280
     1
102
RTVSPost2010Prop28
280
     0
102
RTVSPost2010PropOp28
 70
     1
102
RTVSPost2010Prop29
280
     1
102
RTVSPost2010PropOp29
 70
     1
102
RTVSPost2010Prop30
280
     1
102
RTVSPost2010PropOp30
 70
     1
102
RTVSPost2010Prop31
280
     0
102
RTVSPost2010PropOp31
 70
     1
102
RTVSPost2010Prop32
280
     0
102
RTVSPost2010PropOp32
 70
     1
102
RTVSPost2010Prop33
280
     0
102
RTVSPost2010PropOp33
 70
     1
102
RTVSPost2010Prop34
280
     0
102
RTVSPost2010PropOp34
 70
     1
102
RTVSPost2010Prop35
280
     0
102
RTVSPost2010PropOp35
 70
     1
102
RTVSPost2010Prop36
280
     0
102
RTVSPost2010PropOp36
 70
     1
102
RTVSPost2010Prop37
 90
       50
102
RTVSPost2010PropOp37
 70
     1
102
RTVSPost2010Prop38
140
0.0
102
RTVSPost2010PropOp38
 70
     1
102
RTVSPost2010Prop39
140
1.0
102
RTVSPost2010PropOp39
 70
     1
102
RTVSPost2010Prop40
 90
        0
102
RTVSPost2010PropOp40
 70
     1
102
RTVSPost2010Prop41ColorIndex
 90
       18
102
RTVSPost2010Prop41ColorRGB
 90
        0
102
RTVSPost2010PropOp41
 70
     1
102
RTVSPost2010Prop42
 90
       50
102
RTVSPost2010PropOp42
 70
     1
102
RTVSPost2010Prop43
 90
        3
102
RTVSPost2010PropOp43
 70
     1
102
RTVSPost2010Prop44ColorIndex
 90
        5
102
RTVSPost2010Prop44ColorRGB
 90
      255
102
RTVSPost2010PropOp44
 70
     1
102
RTVSPost2010Prop45
280
     0
102
RTVSPost2010PropOp45
 70
     1
102
RTVSPost2010Prop46
 90
       50
102
RTVSPost2010PropOp46
 70
     1
102
RTVSPost2010Prop47
 90
       50
102
RTVSPost2010PropOp47
 70
     1
102
RTVSPost2010Prop48
 90
       50
102
RTVSPost2010PropOp48
 70
     1
102
RTVSPost2010Prop49
280
     0
102
RTVSPost2010PropOp49
 70
     1
102
RTVSPost2010Prop50
 90
       50
102
RTVSPost2010PropOp50
 70
     1
102
RTVSPost2010Prop51ColorIndex
 90
      256
102
RTVSPost2010Prop51ColorRGB
 90
-16777216
102
RTVSPost2010PropOp51
 70
     0
102
RTVSPost2010Prop52
140
1.0
102
RTVSPost2010PropOp52
 70
     0
102
RTVSPost2010Prop53
 90
        2
102
RTVSPost2010PropOp53
 70
     1
102
RTVSPost2010Prop54
  1
strokes_ogs.tif
102
RTVSPost2010PropOp54
 70
     1
102
RTVSPost2010Prop55
280
     0
102
RTVSPost2010PropOp55
 70
     1
102
RTVSPost2010Prop56
140
1.0
102
RTVSPost2010PropOp56
 70
     1
102
RTVSPost2010Prop57
140
1.0
102
RTVSPost2010PropOp57
 70
     1
  0
XRECORD
  5
18E
102
{ACAD_REACTORS
330
18D
102
}
330
18D
100
AcDbXrecord
280
     1
102
RTVSPost2010Prop28
280
     0
102
RTVSPost2010PropOp28
 70
     1
102
RTVSPost2010Prop29
280
     1
102
RTVSPost2010PropOp29
 70
     1
102
RTVSPost2010Prop30
280
     1
102
RTVSPost2010PropOp30
 70
     1
102
RTVSPost2010Prop31
280
     0
102
RTVSPost2010PropOp31
 70
     1
102
RTVSPost2010Prop32
280
     0
102
RTVSPost2010PropOp32
 70
     1
102
RTVSPost2010Prop33
280
     0
102
RTVSPost2010PropOp33
 70
     1
102
RTVSPost2010Prop34
280
     0
102
RTVSPost2010PropOp34
 70
     1
102
RTVSPost2010Prop35
280
     0
102
RTVSPost2010PropOp35
 70
     1
102
RTVSPost2010Prop36
280
     0
102
RTVSPost2010PropOp36
 70
     1
102
RTVSPost2010Prop37
 90
       50
102
RTVSPost2010PropOp37
 70
     1
102
RTVSPost2010Prop38
140
0.0
102
RTVSPost2010PropOp38
 70
     1
102
RTVSPost2010Prop39
140
1.0
102
RTVSPost2010PropOp39
 70
     1
102
RTVSPost2010Prop40
 90
        0
102
RTVSPost2010PropOp40
 70
     1
102
RTVSPost2010Prop41ColorIndex
 90
       18
102
RTVSPost2010Prop41ColorRGB
 90
        0
102
RTVSPost2010PropOp41
 70
     1
102
RTVSPost2010Prop42
 90
       50
102
RTVSPost2010PropOp42
 70
     1
102
RTVSPost2010Prop43
 90
        3
102
RTVSPost2010PropOp43
 70
     1
102
RTVSPost2010Prop44ColorIndex
 90
        5
102
RTVSPost2010Prop44ColorRGB
 90
      255
102
RTVSPost2010PropOp44
 70
     1
102
RTVSPost2010Prop45
280
     0
102
RTVSPost2010PropOp45
 70
     1
102
RTVSPost2010Prop46
 90
       50
102
RTVSPost2010PropOp46
 70
     1
102
RTVSPost2010Prop47
 90
       50
102
RTVSPost2010PropOp47
 70
     1
102
RTVSPost2010Prop48
 90
       50
102
RTVSPost2010PropOp48
 70
     1
102
RTVSPost2010Prop49
280
     0
102
RTVSPost2010PropOp49
 70
     1
102
RTVSPost2010Prop50
 90
       50
102
RTVSPost2010PropOp50
 70
     1
102
RTVSPost2010Prop51ColorIndex
 90
      256
102
RTVSPost2010Prop51ColorRGB
 90
-16777216
102
RTVSPost2010PropOp51
 70
     0
102
RTVSPost2010Prop52
140
1.0
102
RTVSPost2010PropOp52
 70
     0
102
RTVSPost2010Prop53
 90
        2
102
RTVSPost2010PropOp53
 70
     1
102
RTVSPost2010Prop54
  1
strokes_ogs.tif
102
RTVSPost2010PropOp54
 70
     1
102
RTVSPost2010Prop55
280
     0
102
RTVSPost2010PropOp55
 70
     1
102
RTVSPost2010Prop56
140
1.0
102
RTVSPost2010PropOp56
 70
     1
102
RTVSPost2010Prop57
140
1.0
102
RTVSPost2010PropOp57
 70
     1
  0
XRECORD
  5
18C
102
{ACAD_REACTORS
330
18B
102
}
330
18B
100
AcDbXrecord
280
     1
102
RTVSPost2010Prop28
280
     0
102
RTVSPost2010PropOp28
 70
     1
102
RTVSPost2010Prop29
280
     1
102
RTVSPost2010PropOp29
 70
     1
102
RTVSPost2010Prop30
280
     1
102
RTVSPost2010PropOp30
 70
     1
102
RTVSPost2010Prop31
280
     0
102
RTVSPost2010PropOp31
 70
     1
102
RTVSPost2010Prop32
280
     0
102
RTVSPost2010PropOp32
 70
     1
102
RTVSPost2010Prop33
280
     0
102
RTVSPost2010PropOp33
 70
     1
102
RTVSPost2010Prop34
280
     0
102
RTVSPost2010PropOp34
 70
     1
102
RTVSPost2010Prop35
280
     0
102
RTVSPost2010PropOp35
 70
     1
102
RTVSPost2010Prop36
280
     0
102
RTVSPost2010PropOp36
 70
     1
102
RTVSPost2010Prop37
 90
       50
102
RTVSPost2010PropOp37
 70
     1
102
RTVSPost2010Prop38
140
0.0
102
RTVSPost2010PropOp38
 70
     1
102
RTVSPost2010Prop39
140
1.0
102
RTVSPost2010PropOp39
 70
     1
102
RTVSPost2010Prop40
 90
        0
102
RTVSPost2010PropOp40
 70
     1
102
RTVSPost2010Prop41ColorIndex
 90
       18
102
RTVSPost2010Prop41ColorRGB
 90
        0
102
RTVSPost2010PropOp41
 70
     1
102
RTVSPost2010Prop42
 90
       50
102
RTVSPost2010PropOp42
 70
     1
102
RTVSPost2010Prop43
 90
        3
102
RTVSPost2010PropOp43
 70
     1
102
RTVSPost2010Prop44ColorIndex
 90
        5
102
RTVSPost2010Prop44ColorRGB
 90
      255
102
RTVSPost2010PropOp44
 70
     1
102
RTVSPost2010Prop45
280
     0
102
RTVSPost2010PropOp45
 70
     1
102
RTVSPost2010Prop46
 90
       50
102
RTVSPost2010PropOp46
 70
     1
102
RTVSPost2010Prop47
 90
       50
102
RTVSPost2010PropOp47
 70
     1
102
RTVSPost2010Prop48
 90
       50
102
RTVSPost2010PropOp48
 70
     1
102
RTVSPost2010Prop49
280
     0
102
RTVSPost2010PropOp49
 70
     1
102
RTVSPost2010Prop50
 90
       50
102
RTVSPost2010PropOp50
 70
     1
102
RTVSPost2010Prop51ColorIndex
 90
      256
102
RTVSPost2010Prop51ColorRGB
 90
-16777216
102
RTVSPost2010PropOp51
 70
     0
102
RTVSPost2010Prop52
140
1.0
102
RTVSPost2010PropOp52
 70
     0
102
RTVSPost2010Prop53
 90
        2
102
RTVSPost2010PropOp53
 70
     1
102
RTVSPost2010Prop54
  1
strokes_ogs.tif
102
RTVSPost2010PropOp54
 70
     1
102
RTVSPost2010Prop55
280
     0
102
RTVSPost2010PropOp55
 70
     1
102
RTVSPost2010Prop56
140
1.0
102
RTVSPost2010PropOp56
 70
     1
102
RTVSPost2010Prop57
140
1.0
102
RTVSPost2010PropOp57
 70
     1
  0
XRECORD
  5
186
102
{ACAD_REACTORS
330
185
102
}
330
185
100
AcDbXrecord
280
     1
102
RTVSPost2010Prop28
280
     0
102
RTVSPost2010PropOp28
 70
     1
102
RTVSPost2010Prop29
280
     1
102
RTVSPost2010PropOp29
 70
     1
102
RTVSPost2010Prop30
280
     1
102
RTVSPost2010PropOp30
 70
     1
102
RTVSPost2010Prop31
280
     0
102
RTVSPost2010PropOp31
 70
     1
102
RTVSPost2010Prop32
280
     0
102
RTVSPost2010PropOp32
 70
     1
102
RTVSPost2010Prop33
280
     0
102
RTVSPost2010PropOp33
 70
     1
102
RTVSPost2010Prop34
280
     0
102
RTVSPost2010PropOp34
 70
     1
102
RTVSPost2010Prop35
280
     0
102
RTVSPost2010PropOp35
 70
     1
102
RTVSPost2010Prop36
280
     0
102
RTVSPost2010PropOp36
 70
     1
102
RTVSPost2010Prop37
 90
       50
102
RTVSPost2010PropOp37
 70
     1
102
RTVSPost2010Prop38
140
0.0
102
RTVSPost2010PropOp38
 70
     1
102
RTVSPost2010Prop39
140
1.0
102
RTVSPost2010PropOp39
 70
     1
102
RTVSPost2010Prop40
 90
        0
102
RTVSPost2010PropOp40
 70
     1
102
RTVSPost2010Prop41ColorIndex
 90
       18
102
RTVSPost2010Prop41ColorRGB
 90
        0
102
RTVSPost2010PropOp41
 70
     1
102
RTVSPost2010Prop42
 90
       50
102
RTVSPost2010PropOp42
 70
     1
102
RTVSPost2010Prop43
 90
        3
102
RTVSPost2010PropOp43
 70
     1
102
RTVSPost2010Prop44ColorIndex
 90
        5
102
RTVSPost2010Prop44ColorRGB
 90
      255
102
RTVSPost2010PropOp44
 70
     1
102
RTVSPost2010Prop45
280
     0
102
RTVSPost2010PropOp45
 70
     1
102
RTVSPost2010Prop46
 90
       50
102
RTVSPost2010PropOp46
 70
     1
102
RTVSPost2010Prop47
 90
       50
102
RTVSPost2010PropOp47
 70
     1
102
RTVSPost2010Prop48
 90
       50
102
RTVSPost2010PropOp48
 70
     1
102
RTVSPost2010Prop49
280
     0
102
RTVSPost2010PropOp49
 70
     1
102
RTVSPost2010Prop50
 90
       50
102
RTVSPost2010PropOp50
 70
     1
102
RTVSPost2010Prop51ColorIndex
 90
      256
102
RTVSPost2010Prop51ColorRGB
 90
-16777216
102
RTVSPost2010PropOp51
 70
     0
102
RTVSPost2010Prop52
140
1.0
102
RTVSPost2010PropOp52
 70
     0
102
RTVSPost2010Prop53
 90
        2
102
RTVSPost2010PropOp53
 70
     1
102
RTVSPost2010Prop54
  1
strokes_ogs.tif
102
RTVSPost2010PropOp54
 70
     1
102
RTVSPost2010Prop55
280
     0
102
RTVSPost2010PropOp55
 70
     1
102
RTVSPost2010Prop56
140
1.0
102
RTVSPost2010PropOp56
 70
     1
102
RTVSPost2010Prop57
140
1.0
102
RTVSPost2010PropOp57
 70
     1
  0
XRECORD
  5
188
102
{ACAD_REACTORS
330
187
102
}
330
187
100
AcDbXrecord
280
     1
102
RTVSPost2010Prop28
280
     0
102
RTVSPost2010PropOp28
 70
     1
102
RTVSPost2010Prop29
280
     1
102
RTVSPost2010PropOp29
 70
     1
102
RTVSPost2010Prop30
280
     1
102
RTVSPost2010PropOp30
 70
     1
102
RTVSPost2010Prop31
280
     0
102
RTVSPost2010PropOp31
 70
     1
102
RTVSPost2010Prop32
280
     0
102
RTVSPost2010PropOp32
 70
     1
102
RTVSPost2010Prop33
280
     0
102
RTVSPost2010PropOp33
 70
     1
102
RTVSPost2010Prop34
280
     0
102
RTVSPost2010PropOp34
 70
     1
102
RTVSPost2010Prop35
280
     0
102
RTVSPost2010PropOp35
 70
     1
102
RTVSPost2010Prop36
280
     0
102
RTVSPost2010PropOp36
 70
     1
102
RTVSPost2010Prop37
 90
       50
102
RTVSPost2010PropOp37
 70
     1
102
RTVSPost2010Prop38
140
0.0
102
RTVSPost2010PropOp38
 70
     1
102
RTVSPost2010Prop39
140
1.0
102
RTVSPost2010PropOp39
 70
     1
102
RTVSPost2010Prop40
 90
        0
102
RTVSPost2010PropOp40
 70
     1
102
RTVSPost2010Prop41ColorIndex
 90
       18
102
RTVSPost2010Prop41ColorRGB
 90
        0
102
RTVSPost2010PropOp41
 70
     1
102
RTVSPost2010Prop42
 90
       50
102
RTVSPost2010PropOp42
 70
     1
102
RTVSPost2010Prop43
 90
        3
102
RTVSPost2010PropOp43
 70
     1
102
RTVSPost2010Prop44ColorIndex
 90
        5
102
RTVSPost2010Prop44ColorRGB
 90
      255
102
RTVSPost2010PropOp44
 70
     1
102
RTVSPost2010Prop45
280
     0
102
RTVSPost2010PropOp45
 70
     1
102
RTVSPost2010Prop46
 90
       50
102
RTVSPost2010PropOp46
 70
     1
102
RTVSPost2010Prop47
 90
       50
102
RTVSPost2010PropOp47
 70
     1
102
RTVSPost2010Prop48
 90
       50
102
RTVSPost2010PropOp48
 70
     1
102
RTVSPost2010Prop49
280
     0
102
RTVSPost2010PropOp49
 70
     1
102
RTVSPost2010Prop50
 90
       50
102
RTVSPost2010PropOp50
 70
     1
102
RTVSPost2010Prop51ColorIndex
 90
      256
102
RTVSPost2010Prop51ColorRGB
 90
-16777216
102
RTVSPost2010PropOp51
 70
     0
102
RTVSPost2010Prop52
140
1.0
102
RTVSPost2010PropOp52
 70
     0
102
RTVSPost2010Prop53
 90
        2
102
RTVSPost2010PropOp53
 70
     1
102
RTVSPost2010Prop54
  1
strokes_ogs.tif
102
RTVSPost2010PropOp54
 70
     1
102
RTVSPost2010Prop55
280
     0
102
RTVSPost2010PropOp55
 70
     1
102
RTVSPost2010Prop56
140
1.0
102
RTVSPost2010PropOp56
 70
     1
102
RTVSPost2010Prop57
140
1.0
102
RTVSPost2010PropOp57
 70
     1
  0
XRECORD
  5
17E
102
{ACAD_REACTORS
330
17D
102
}
330
17D
100
AcDbXrecord
280
     1
102
RTVSPost2010Prop28
280
     0
102
RTVSPost2010PropOp28
 70
     1
102
RTVSPost2010Prop29
280
     1
102
RTVSPost2010PropOp29
 70
     1
102
RTVSPost2010Prop30
280
     1
102
RTVSPost2010PropOp30
 70
     1
102
RTVSPost2010Prop31
280
     0
102
RTVSPost2010PropOp31
 70
     1
102
RTVSPost2010Prop32
280
     0
102
RTVSPost2010PropOp32
 70
     1
102
RTVSPost2010Prop33
280
     0
102
RTVSPost2010PropOp33
 70
     1
102
RTVSPost2010Prop34
280
     0
102
RTVSPost2010PropOp34
 70
     1
102
RTVSPost2010Prop35
280
     0
102
RTVSPost2010PropOp35
 70
     1
102
RTVSPost2010Prop36
280
     0
102
RTVSPost2010PropOp36
 70
     1
102
RTVSPost2010Prop37
 90
       50
102
RTVSPost2010PropOp37
 70
     1
102
RTVSPost2010Prop38
140
0.0
102
RTVSPost2010PropOp38
 70
     1
102
RTVSPost2010Prop39
140
1.0
102
RTVSPost2010PropOp39
 70
     1
102
RTVSPost2010Prop40
 90
        0
102
RTVSPost2010PropOp40
 70
     1
102
RTVSPost2010Prop41ColorIndex
 90
       18
102
RTVSPost2010Prop41ColorRGB
 90
        0
102
RTVSPost2010PropOp41
 70
     1
102
RTVSPost2010Prop42
 90
       50
102
RTVSPost2010PropOp42
 70
     1
102
RTVSPost2010Prop43
 90
        3
102
RTVSPost2010PropOp43
 70
     1
102
RTVSPost2010Prop44ColorIndex
 90
        5
102
RTVSPost2010Prop44ColorRGB
 90
      255
102
RTVSPost2010PropOp44
 70
     1
102
RTVSPost2010Prop45
280
     0
102
RTVSPost2010PropOp45
 70
     1
102
RTVSPost2010Prop46
 90
       50
102
RTVSPost2010PropOp46
 70
     1
102
RTVSPost2010Prop47
 90
       50
102
RTVSPost2010PropOp47
 70
     1
102
RTVSPost2010Prop48
 90
       50
102
RTVSPost2010PropOp48
 70
     1
102
RTVSPost2010Prop49
280
     0
102
RTVSPost2010PropOp49
 70
     1
102
RTVSPost2010Prop50
 90
       50
102
RTVSPost2010PropOp50
 70
     1
102
RTVSPost2010Prop51ColorIndex
 90
      256
102
RTVSPost2010Prop51ColorRGB
 90
-16777216
102
RTVSPost2010PropOp51
 70
     0
102
RTVSPost2010Prop52
140
1.0
102
RTVSPost2010PropOp52
 70
     0
102
RTVSPost2010Prop53
 90
        2
102
RTVSPost2010PropOp53
 70
     1
102
RTVSPost2010Prop54
  1
strokes_ogs.tif
102
RTVSPost2010PropOp54
 70
     1
102
RTVSPost2010Prop55
280
     0
102
RTVSPost2010PropOp55
 70
     1
102
RTVSPost2010Prop56
140
1.0
102
RTVSPost2010PropOp56
 70
     1
102
RTVSPost2010Prop57
140
1.0
102
RTVSPost2010PropOp57
 70
     1
  0
XRECORD
  5
172
102
{ACAD_REACTORS
330
171
102
}
330
171
100
AcDbXrecord
280
     1
102
RTVSPost2010Prop28
280
     0
102
RTVSPost2010PropOp28
 70
     1
102
RTVSPost2010Prop29
280
     1
102
RTVSPost2010PropOp29
 70
     1
102
RTVSPost2010Prop30
280
     1
102
RTVSPost2010PropOp30
 70
     1
102
RTVSPost2010Prop31
280
     0
102
RTVSPost2010PropOp31
 70
     1
102
RTVSPost2010Prop32
280
     0
102
RTVSPost2010PropOp32
 70
     1
102
RTVSPost2010Prop33
280
     0
102
RTVSPost2010PropOp33
 70
     1
102
RTVSPost2010Prop34
280
     0
102
RTVSPost2010PropOp34
 70
     1
102
RTVSPost2010Prop35
280
     0
102
RTVSPost2010PropOp35
 70
     1
102
RTVSPost2010Prop36
280
     0
102
RTVSPost2010PropOp36
 70
     1
102
RTVSPost2010Prop37
 90
       50
102
RTVSPost2010PropOp37
 70
     1
102
RTVSPost2010Prop38
140
0.0
102
RTVSPost2010PropOp38
 70
     1
102
RTVSPost2010Prop39
140
1.0
102
RTVSPost2010PropOp39
 70
     1
102
RTVSPost2010Prop40
 90
        0
102
RTVSPost2010PropOp40
 70
     1
102
RTVSPost2010Prop41ColorIndex
 90
       18
102
RTVSPost2010Prop41ColorRGB
 90
        0
102
RTVSPost2010PropOp41
 70
     1
102
RTVSPost2010Prop42
 90
       50
102
RTVSPost2010PropOp42
 70
     1
102
RTVSPost2010Prop43
 90
        3
102
RTVSPost2010PropOp43
 70
     1
102
RTVSPost2010Prop44ColorIndex
 90
        5
102
RTVSPost2010Prop44ColorRGB
 90
      255
102
RTVSPost2010PropOp44
 70
     1
102
RTVSPost2010Prop45
280
     0
102
RTVSPost2010PropOp45
 70
     1
102
RTVSPost2010Prop46
 90
       50
102
RTVSPost2010PropOp46
 70
     1
102
RTVSPost2010Prop47
 90
       50
102
RTVSPost2010PropOp47
 70
     1
102
RTVSPost2010Prop48
 90
       50
102
RTVSPost2010PropOp48
 70
     1
102
RTVSPost2010Prop49
280
     0
102
RTVSPost2010PropOp49
 70
     1
102
RTVSPost2010Prop50
 90
       50
102
RTVSPost2010PropOp50
 70
     1
102
RTVSPost2010Prop51ColorIndex
 90
      256
102
RTVSPost2010Prop51ColorRGB
 90
-16777216
102
RTVSPost2010PropOp51
 70
     0
102
RTVSPost2010Prop52
140
1.0
102
RTVSPost2010PropOp52
 70
     0
102
RTVSPost2010Prop53
 90
        2
102
RTVSPost2010PropOp53
 70
     1
102
RTVSPost2010Prop54
  1
strokes_ogs.tif
102
RTVSPost2010PropOp54
 70
     1
102
RTVSPost2010Prop55
280
     0
102
RTVSPost2010PropOp55
 70
     1
102
RTVSPost2010Prop56
140
1.0
102
RTVSPost2010PropOp56
 70
     1
102
RTVSPost2010Prop57
140
1.0
102
RTVSPost2010PropOp57
 70
     1
  0
XRECORD
  5
18A
102
{ACAD_REACTORS
330
189
102
}
330
189
100
AcDbXrecord
280
     1
102
RTVSPost2010Prop28
280
     0
102
RTVSPost2010PropOp28
 70
     1
102
RTVSPost2010Prop29
280
     1
102
RTVSPost2010PropOp29
 70
     1
102
RTVSPost2010Prop30
280
     1
102
RTVSPost2010PropOp30
 70
     1
102
RTVSPost2010Prop31
280
     0
102
RTVSPost2010PropOp31
 70
     1
102
RTVSPost2010Prop32
280
     0
102
RTVSPost2010PropOp32
 70
     1
102
RTVSPost2010Prop33
280
     0
102
RTVSPost2010PropOp33
 70
     1
102
RTVSPost2010Prop34
280
     0
102
RTVSPost2010PropOp34
 70
     1
102
RTVSPost2010Prop35
280
     0
102
RTVSPost2010PropOp35
 70
     1
102
RTVSPost2010Prop36
280
     0
102
RTVSPost2010PropOp36
 70
     1
102
RTVSPost2010Prop37
 90
       50
102
RTVSPost2010PropOp37
 70
     1
102
RTVSPost2010Prop38
140
0.0
102
RTVSPost2010PropOp38
 70
     1
102
RTVSPost2010Prop39
140
1.0
102
RTVSPost2010PropOp39
 70
     1
102
RTVSPost2010Prop40
 90
        0
102
RTVSPost2010PropOp40
 70
     1
102
RTVSPost2010Prop41ColorIndex
 90
       18
102
RTVSPost2010Prop41ColorRGB
 90
        0
102
RTVSPost2010PropOp41
 70
     1
102
RTVSPost2010Prop42
 90
       50
102
RTVSPost2010PropOp42
 70
     1
102
RTVSPost2010Prop43
 90
        3
102
RTVSPost2010PropOp43
 70
     1
102
RTVSPost2010Prop44ColorIndex
 90
        5
102
RTVSPost2010Prop44ColorRGB
 90
      255
102
RTVSPost2010PropOp44
 70
     1
102
RTVSPost2010Prop45
280
     0
102
RTVSPost2010PropOp45
 70
     1
102
RTVSPost2010Prop46
 90
       50
102
RTVSPost2010PropOp46
 70
     1
102
RTVSPost2010Prop47
 90
       50
102
RTVSPost2010PropOp47
 70
     1
102
RTVSPost2010Prop48
 90
       50
102
RTVSPost2010PropOp48
 70
     1
102
RTVSPost2010Prop49
280
     0
102
RTVSPost2010PropOp49
 70
     1
102
RTVSPost2010Prop50
 90
       50
102
RTVSPost2010PropOp50
 70
     1
102
RTVSPost2010Prop51ColorIndex
 90
      256
102
RTVSPost2010Prop51ColorRGB
 90
-16777216
102
RTVSPost2010PropOp51
 70
     0
102
RTVSPost2010Prop52
140
1.0
102
RTVSPost2010PropOp52
 70
     0
102
RTVSPost2010Prop53
 90
        2
102
RTVSPost2010PropOp53
 70
     1
102
RTVSPost2010Prop54
  1
strokes_ogs.tif
102
RTVSPost2010PropOp54
 70
     1
102
RTVSPost2010Prop55
280
     0
102
RTVSPost2010PropOp55
 70
     1
102
RTVSPost2010Prop56
140
1.0
102
RTVSPost2010PropOp56
 70
     1
102
RTVSPost2010Prop57
140
1.0
102
RTVSPost2010PropOp57
 70
     1
  0
ENDSEC
  0
EOF
