  0
SECTION
  2
HEADER
  9
$ACADVER
  1
AC1024
  9
$ACADMAINTVER
 70
   205
  9
$DWGCODEPAGE
  3
ANSI_1251
  9
$INSBASE
 10
0.0
 20
0.0
 30
0.0
  9
$EXTMIN
 10
1.000000000000000E+20
 20
1.000000000000000E+20
 30
1.000000000000000E+20
  9
$EXTMAX
 10
-1.000000000000000E+20
 20
-1.000000000000000E+20
 30
-1.000000000000000E+20
  9
$LIMMIN
 10
0.0
 20
0.0
  9
$LIMMAX
 10
12.0
 20
9.0
  9
$ORTHOMODE
 70
     0
  9
$REGENMODE
 70
     1
  9
$FILLMODE
 70
     1
  9
$QTEXTMODE
 70
     0
  9
$MIRRTEXT
 70
     1
  9
$LTSCALE
 40
1.0
  9
$ATTMODE
 70
     1
  9
$TEXTSIZE
 40
0.2
  9
$TRACEWID
 40
0.05
  9
$TEXTSTYLE
  7
Standard
  9
$CLAYER
  8
OracDecor_panel_moldings
  9
$CELTYPE
  6
ByLayer
  9
$CECOLOR
 62
   256
  9
$CELTSCALE
 40
1.0
  9
$DISPSILH
 70
     0
  9
$DIMSCALE
 40
1.0
  9
$DIMASZ
 40
0.18
  9
$DIMEXO
 40
0.0625
  9
$DIMDLI
 40
0.38
  9
$DIMRND
 40
0.0
  9
$DIMDLE
 40
0.0
  9
$DIMEXE
 40
0.18
  9
$DIMTP
 40
0.0
  9
$DIMTM
 40
0.0
  9
$DIMTXT
 40
0.18
  9
$DIMCEN
 40
0.09
  9
$DIMTSZ
 40
0.0
  9
$DIMTOL
 70
     0
  9
$DIMLIM
 70
     0
  9
$DIMTIH
 70
     1
  9
$DIMTOH
 70
     1
  9
$DIMSE1
 70
     0
  9
$DIMSE2
 70
     0
  9
$DIMTAD
 70
     0
  9
$DIMZIN
 70
     0
  9
$DIMBLK
  1

  9
$DIMASO
 70
     1
  9
$DIMSHO
 70
     1
  9
$DIMPOST
  1

  9
$DIMAPOST
  1

  9
$DIMALT
 70
     0
  9
$DIMALTD
 70
     2
  9
$DIMALTF
 40
25.4
  9
$DIMLFAC
 40
1.0
  9
$DIMTOFL
 70
     0
  9
$DIMTVP
 40
0.0
  9
$DIMTIX
 70
     0
  9
$DIMSOXD
 70
     0
  9
$DIMSAH
 70
     0
  9
$DIMBLK1
  1

  9
$DIMBLK2
  1

  9
$DIMSTYLE
  2
Standard
  9
$DIMCLRD
 70
     0
  9
$DIMCLRE
 70
     0
  9
$DIMCLRT
 70
     0
  9
$DIMTFAC
 40
1.0
  9
$DIMGAP
 40
0.09
  9
$DIMJUST
 70
     0
  9
$DIMSD1
 70
     0
  9
$DIMSD2
 70
     0
  9
$DIMTOLJ
 70
     1
  9
$DIMTZIN
 70
     0
  9
$DIMALTZ
 70
     0
  9
$DIMALTTZ
 70
     0
  9
$DIMUPT
 70
     0
  9
$DIMDEC
 70
     4
  9
$DIMTDEC
 70
     4
  9
$DIMALTU
 70
     2
  9
$DIMALTTD
 70
     2
  9
$DIMTXSTY
  7
Standard
  9
$DIMAUNIT
 70
     0
  9
$DIMADEC
 70
     0
  9
$DIMALTRND
 40
0.0
  9
$DIMAZIN
 70
     0
  9
$DIMDSEP
 70
    46
  9
$DIMATFIT
 70
     3
  9
$DIMFRAC
 70
     0
  9
$DIMLDRBLK
  1

  9
$DIMLUNIT
 70
     2
  9
$DIMLWD
 70
    -2
  9
$DIMLWE
 70
    -2
  9
$DIMTMOVE
 70
     0
  9
$DIMFXL
 40
1.0
  9
$DIMFXLON
 70
     0
  9
$DIMJOGANG
 40
0.7853981633974483
  9
$DIMTFILL
 70
     0
  9
$DIMTFILLCLR
 70
     0
  9
$DIMARCSYM
 70
     0
  9
$DIMLTYPE
  6

  9
$DIMLTEX1
  6

  9
$DIMLTEX2
  6

  9
$DIMTXTDIRECTION
 70
     0
  9
$LUNITS
 70
     2
  9
$LUPREC
 70
     4
  9
$SKETCHINC
 40
0.1
  9
$FILLETRAD
 40
0.5
  9
$AUNITS
 70
     0
  9
$AUPREC
 70
     0
  9
$MENU
  1
.
  9
$ELEVATION
 40
0.0
  9
$PELEVATION
 40
0.0
  9
$THICKNESS
 40
0.0
  9
$LIMCHECK
 70
     0
  9
$CHAMFERA
 40
0.5
  9
$CHAMFERB
 40
0.5
  9
$CHAMFERC
 40
1.0
  9
$CHAMFERD
 40
0.0
  9
$SKPOLY
 70
     0
  9
$TDCREATE
 40
2451380.930432396
  9
$TDUCREATE
 40
2451380.805432396
  9
$TDUPDATE
 40
2451380.966180555
  9
$TDUUPDATE
 40
2451380.841180556
  9
$TDINDWG
 40
0.0075613657
  9
$TDUSRTIMER
 40
0.0075523264
  9
$USRTIMER
 70
     1
  9
$ANGBASE
 50
0.0
  9
$ANGDIR
 70
     0
  9
$PDMODE
 70
     0
  9
$PDSIZE
 40
0.0
  9
$PLINEWID
 40
0.0
  9
$SPLFRAME
 70
     0
  9
$SPLINETYPE
 70
     6
  9
$SPLINESEGS
 70
     8
  9
$HANDSEED
  5
1C1
  9
$SURFTAB1
 70
     6
  9
$SURFTAB2
 70
     6
  9
$SURFTYPE
 70
     6
  9
$SURFU
 70
     6
  9
$SURFV
 70
     6
  9
$UCSBASE
  2

  9
$UCSNAME
  2

  9
$UCSORG
 10
0.0
 20
0.0
 30
0.0
  9
$UCSXDIR
 10
1.0
 20
0.0
 30
0.0
  9
$UCSYDIR
 10
0.0
 20
1.0
 30
0.0
  9
$UCSORTHOREF
  2

  9
$UCSORTHOVIEW
 70
     0
  9
$UCSORGTOP
 10
0.0
 20
0.0
 30
0.0
  9
$UCSORGBOTTOM
 10
0.0
 20
0.0
 30
0.0
  9
$UCSORGLEFT
 10
0.0
 20
0.0
 30
0.0
  9
$UCSORGRIGHT
 10
0.0
 20
0.0
 30
0.0
  9
$UCSORGFRONT
 10
0.0
 20
0.0
 30
0.0
  9
$UCSORGBACK
 10
0.0
 20
0.0
 30
0.0
  9
$PUCSBASE
  2

  9
$PUCSNAME
  2

  9
$PUCSORG
 10
0.0
 20
0.0
 30
0.0
  9
$PUCSXDIR
 10
1.0
 20
0.0
 30
0.0
  9
$PUCSYDIR
 10
0.0
 20
1.0
 30
0.0
  9
$PUCSORTHOREF
  2

  9
$PUCSORTHOVIEW
 70
     0
  9
$PUCSORGTOP
 10
0.0
 20
0.0
 30
0.0
  9
$PUCSORGBOTTOM
 10
0.0
 20
0.0
 30
0.0
  9
$PUCSORGLEFT
 10
0.0
 20
0.0
 30
0.0
  9
$PUCSORGRIGHT
 10
0.0
 20
0.0
 30
0.0
  9
$PUCSORGFRONT
 10
0.0
 20
0.0
 30
0.0
  9
$PUCSORGBACK
 10
0.0
 20
0.0
 30
0.0
  9
$USERI1
 70
     0
  9
$USERI2
 70
     0
  9
$USERI3
 70
     0
  9
$USERI4
 70
     0
  9
$USERI5
 70
     0
  9
$USERR1
 40
0.0
  9
$USERR2
 40
0.0
  9
$USERR3
 40
0.0
  9
$USERR4
 40
0.0
  9
$USERR5
 40
0.0
  9
$WORLDVIEW
 70
     1
  9
$SHADEDGE
 70
     3
  9
$SHADEDIF
 70
    70
  9
$TILEMODE
 70
     1
  9
$MAXACTVP
 70
    64
  9
$PINSBASE
 10
0.0
 20
0.0
 30
0.0
  9
$PLIMCHECK
 70
     0
  9
$PEXTMIN
 10
1.000000000000000E+20
 20
1.000000000000000E+20
 30
1.000000000000000E+20
  9
$PEXTMAX
 10
-1.000000000000000E+20
 20
-1.000000000000000E+20
 30
-1.000000000000000E+20
  9
$PLIMMIN
 10
0.0
 20
0.0
  9
$PLIMMAX
 10
12.0
 20
9.0
  9
$UNITMODE
 70
     0
  9
$VISRETAIN
 70
     1
  9
$PLINEGEN
 70
     0
  9
$PSLTSCALE
 70
     1
  9
$TREEDEPTH
 70
  3020
  9
$CMLSTYLE
  2
Standard
  9
$CMLJUST
 70
     0
  9
$CMLSCALE
 40
1.0
  9
$PROXYGRAPHICS
 70
     1
  9
$MEASUREMENT
 70
     1
  9
$CELWEIGHT
370
    -1
  9
$ENDCAPS
280
     0
  9
$JOINSTYLE
280
     0
  9
$LWDISPLAY
290
     0
  9
$INSUNITS
 70
     4
  9
$HYPERLINKBASE
  1

  9
$STYLESHEET
  1

  9
$XEDIT
290
     1
  9
$CEPSNTYPE
380
     0
  9
$PSTYLEMODE
290
     1
  9
$FINGERPRINTGUID
  2
{12F50282-3ED8-11D3-A8B7-0060B0F84BC6}
  9
$VERSIONGUID
  2
{12F50293-3ED8-11D3-A8B7-0060B0F84BC6}
  9
$EXTNAMES
290
     1
  9
$PSVPSCALE
 40
0.0
  9
$OLESTARTUP
290
     0
  9
$SORTENTS
280
   127
  9
$INDEXCTL
280
     0
  9
$HIDETEXT
280
     0
  9
$XCLIPFRAME
280
     2
  9
$HALOGAP
280
     0
  9
$OBSCOLOR
 70
   257
  9
$OBSLTYPE
280
     0
  9
$INTERSECTIONDISPLAY
280
     0
  9
$INTERSECTIONCOLOR
 70
   257
  9
$DIMASSOC
280
     1
  9
$PROJECTNAME
  1

  9
$CAMERADISPLAY
290
     0
  9
$LENSLENGTH
 40
50.0
  9
$CAMERAHEIGHT
 40
0.0
  9
$STEPSPERSEC
 40
2.0
  9
$STEPSIZE
 40
6.0
  9
$3DDWFPREC
 40
2.0
  9
$PSOLWIDTH
 40
0.25
  9
$PSOLHEIGHT
 40
4.0
  9
$LOFTANG1
 40
1.570796326794896
  9
$LOFTANG2
 40
1.570796326794896
  9
$LOFTMAG1
 40
0.0
  9
$LOFTMAG2
 40
0.0
  9
$LOFTPARAM
 70
     7
  9
$LOFTNORMALS
280
     1
  9
$LATITUDE
 40
37.795
  9
$LONGITUDE
 40
-122.394
  9
$NORTHDIRECTION
 40
0.0
  9
$TIMEZONE
 70
 -8000
  9
$LIGHTGLYPHDISPLAY
280
     1
  9
$TILEMODELIGHTSYNCH
280
     1
  9
$CMATERIAL
347
AB
  9
$SOLIDHIST
280
     0
  9
$SHOWHIST
280
     1
  9
$DWFFRAME
280
     2
  9
$DGNFRAME
280
     0
  9
$REALWORLDSCALE
290
     1
  9
$INTERFERECOLOR
 62
     1
  9
$INTERFEREOBJVS
345
CD
  9
$INTERFEREVPVS
346
CA
  9
$CSHADOW
280
     0
  9
$SHADOWPLANELOCATION
 40
0.0
  0
ENDSEC
  0
SECTION
  2
CLASSES
  0
CLASS
  1
ACDBDICTIONARYWDFLT
  2
AcDbDictionaryWithDefault
  3
ObjectDBX Classes
 90
        0
 91
        1
280
     0
281
     0
  0
CLASS
  1
ACDBPLACEHOLDER
  2
AcDbPlaceHolder
  3
ObjectDBX Classes
 90
        0
 91
        2
280
     0
281
     0
  0
CLASS
  1
LAYOUT
  2
AcDbLayout
  3
ObjectDBX Classes
 90
        0
 91
        3
280
     0
281
     0
  0
CLASS
  1
MATERIAL
  2
AcDbMaterial
  3
ObjectDBX Classes
 90
     1153
 91
        3
280
     0
281
     0
  0
CLASS
  1
VISUALSTYLE
  2
AcDbVisualStyle
  3
ObjectDBX Classes
 90
     4095
 91
       24
280
     0
281
     0
  0
CLASS
  1
TABLESTYLE
  2
AcDbTableStyle
  3
ObjectDBX Classes
 90
     4095
 91
        1
280
     0
281
     0
  0
CLASS
  1
SCALE
  2
AcDbScale
  3
ObjectDBX Classes
 90
     1153
 91
       17
280
     0
281
     0
  0
CLASS
  1
MLEADERSTYLE
  2
AcDbMLeaderStyle
  3
ACDB_MLEADERSTYLE_CLASS
 90
     4095
 91
        1
280
     0
281
     0
  0
CLASS
  1
ACDBSECTIONVIEWSTYLE
  2
AcDbSectionViewStyle
  3
ObjectDBX Classes
 90
     1025
 91
        1
280
     0
281
     0
  0
CLASS
  1
ACDBDETAILVIEWSTYLE
  2
AcDbDetailViewStyle
  3
ObjectDBX Classes
 90
     1025
 91
        1
280
     0
281
     0
  0
CLASS
  1
MESH
  2
AcDbSubDMesh
  3
ObjectDBX Classes
 90
        0
 91
        1
280
     0
281
     1
  0
CLASS
  1
DICTIONARYVAR
  2
AcDbDictionaryVar
  3
ObjectDBX Classes
 90
        0
 91
        9
280
     0
281
     0
  0
CLASS
  1
CELLSTYLEMAP
  2
AcDbCellStyleMap
  3
ObjectDBX Classes
 90
     1152
 91
        1
280
     0
281
     0
  0
ENDSEC
  0
SECTION
  2
TABLES
  0
TABLE
  2
VPORT
  5
8
330
0
100
AcDbSymbolTable
 70
     1
  0
VPORT
  5
A8
330
8
100
AcDbSymbolTableRecord
100
AcDbViewportTableRecord
  2
*Active
 70
     0
 10
0.0
 20
0.0
 11
1.0
 21
1.0
 12
0.0000215791878873
 22
48.98983764648438
 13
0.0
 23
0.0
 14
0.5
 24
0.5
 15
0.5
 25
0.5
 16
-1.0
 26
-1.0
 36
1.0
 17
0.0
 27
0.0
 37
0.0
 40
1150.814601871474
 41
1.551443027584544
 42
50.0
 43
0.0
 44
0.0
 50
0.0
 51
0.0
 71
     0
 72
   100
 73
     1
 74
     3
 75
     0
 76
     0
 77
     0
 78
     0
281
     0
 65
     1
110
0.0
120
0.0
130
0.0
111
1.0
121
0.0
131
0.0
112
0.0
122
1.0
132
0.0
 79
     0
146
0.0
348
C9
 60
     3
 61
     5
292
     1
282
     1
141
0.0
142
0.0
 63
   250
421
  3355443
  0
ENDTAB
  0
TABLE
  2
LTYPE
  5
5
330
0
100
AcDbSymbolTable
 70
     1
  0
LTYPE
  5
14
330
5
100
AcDbSymbolTableRecord
100
AcDbLinetypeTableRecord
  2
ByBlock
 70
     0
  3

 72
    65
 73
     0
 40
0.0
  0
LTYPE
  5
15
330
5
100
AcDbSymbolTableRecord
100
AcDbLinetypeTableRecord
  2
ByLayer
 70
     0
  3

 72
    65
 73
     0
 40
0.0
  0
LTYPE
  5
16
330
5
100
AcDbSymbolTableRecord
100
AcDbLinetypeTableRecord
  2
Continuous
 70
     0
  3
Solid line
 72
    65
 73
     0
 40
0.0
  0
ENDTAB
  0
TABLE
  2
LAYER
  5
2
330
0
100
AcDbSymbolTable
 70
     3
  0
LAYER
  5
10
330
2
100
AcDbSymbolTableRecord
100
AcDbLayerTableRecord
  2
0
 70
     0
 62
     7
  6
Continuous
370
    -3
390
F
347
BB
  0
LAYER
  5
2B
330
2
100
AcDbSymbolTableRecord
100
AcDbLayerTableRecord
  2
ASHADE
 70
     4
 62
     7
  6
Continuous
370
    -3
390
2D
347
BB
  0
LAYER
  5
F8
330
2
100
AcDbSymbolTableRecord
100
AcDbLayerTableRecord
  2
OracDecor_panel_moldings
 70
     0
 62
    56
420
  7440134
  6
Continuous
370
    -3
390
F
347
BB
  0
ENDTAB
  0
TABLE
  2
STYLE
  5
3
330
0
100
AcDbSymbolTable
 70
     2
  0
STYLE
  5
11
330
3
100
AcDbSymbolTableRecord
100
AcDbTextStyleTableRecord
  2
Standard
 70
     0
 40
0.0
 41
1.0
 50
0.0
 71
     0
 42
0.2
  3
txt
  4

  0
STYLE
  5
2C
330
3
100
AcDbSymbolTableRecord
100
AcDbTextStyleTableRecord
  2
ASHADE
 70
     0
 40
0.2
 41
1.0
 50
0.0
 71
     0
 42
0.2
  3
simplex
  4

  0
ENDTAB
  0
TABLE
  2
VIEW
  5
6
330
0
100
AcDbSymbolTable
 70
     0
  0
ENDTAB
  0
TABLE
  2
UCS
  5
7
330
0
100
AcDbSymbolTable
 70
     0
  0
ENDTAB
  0
TABLE
  2
APPID
  5
9
330
0
100
AcDbSymbolTable
 70
     6
  0
APPID
  5
12
330
9
100
AcDbSymbolTableRecord
100
AcDbRegAppTableRecord
  2
ACAD
 70
     0
  0
APPID
  5
8F
330
9
100
AcDbSymbolTableRecord
100
AcDbRegAppTableRecord
  2
AVE_RENDER
 70
     0
  0
APPID
  5
90
330
9
100
AcDbSymbolTableRecord
100
AcDbRegAppTableRecord
  2
AVE_ENTITY_MATERIAL
 70
     0
  0
APPID
  5
9C
330
9
100
AcDbSymbolTableRecord
100
AcDbRegAppTableRecord
  2
AVE_FINISH
 70
     0
  0
APPID
  5
9D
330
9
100
AcDbSymbolTableRecord
100
AcDbRegAppTableRecord
  2
AVE_MATERIAL
 70
     0
  0
APPID
  5
9E
330
9
100
AcDbSymbolTableRecord
100
AcDbRegAppTableRecord
  2
AVE_GLOBAL
 70
     0
  0
ENDTAB
  0
TABLE
  2
DIMSTYLE
  5
A
330
0
100
AcDbSymbolTable
 70
     1
100
AcDbDimStyleTable
 71
     0
  0
DIMSTYLE
105
27
330
A
100
AcDbSymbolTableRecord
100
AcDbDimStyleTableRecord
  2
Standard
 70
     0
340
11
  0
ENDTAB
  0
TABLE
  2
BLOCK_RECORD
  5
1
330
0
100
AcDbSymbolTable
 70
     6
  0
BLOCK_RECORD
  5
1F
330
1
100
AcDbSymbolTableRecord
100
AcDbBlockTableRecord
  2
*Model_Space
340
22
 70
     0
280
     1
281
     0
  0
BLOCK_RECORD
  5
1B
330
1
100
AcDbSymbolTableRecord
100
AcDbBlockTableRecord
  2
*Paper_Space
340
1E
 70
     0
280
     1
281
     0
  0
BLOCK_RECORD
  5
23
330
1
100
AcDbSymbolTableRecord
100
AcDbBlockTableRecord
  2
*Paper_Space0
340
26
 70
     0
280
     1
281
     0
  0
BLOCK_RECORD
  5
2E
330
1
100
AcDbSymbolTableRecord
100
AcDbBlockTableRecord
  2
direct
340
0
 70
     0
280
     1
281
     0
  0
BLOCK_RECORD
  5
42
330
1
100
AcDbSymbolTableRecord
100
AcDbBlockTableRecord
  2
overhead
340
0
 70
     0
280
     1
281
     0
  0
BLOCK_RECORD
  5
5F
330
1
100
AcDbSymbolTableRecord
100
AcDbBlockTableRecord
  2
sh_spot
340
0
 70
     0
280
     1
281
     0
  0
BLOCK_RECORD
  5
91
330
1
100
AcDbSymbolTableRecord
100
AcDbBlockTableRecord
  2
AVE_RENDER
340
0
102
{BLKREFS
331
94
331
95
331
96
331
97
331
98
331
99
331
9A
331
9B
102
}
 70
     0
280
     1
281
     0
  0
BLOCK_RECORD
  5
9F
330
1
100
AcDbSymbolTableRecord
100
AcDbBlockTableRecord
  2
AVE_GLOBAL
340
0
102
{BLKREFS
331
A2
102
}
 70
     0
280
     1
281
     0
  0
ENDTAB
  0
ENDSEC
  0
SECTION
  2
BLOCKS
  0
BLOCK
  5
20
330
1F
100
AcDbEntity
  8
0
100
AcDbBlockBegin
  2
*Model_Space
 70
     0
 10
0.0
 20
0.0
 30
0.0
  3
*Model_Space
  1

  0
ENDBLK
  5
21
330
1F
100
AcDbEntity
  8
0
100
AcDbBlockEnd
  0
BLOCK
  5
1C
330
1B
100
AcDbEntity
 67
     1
  8
0
100
AcDbBlockBegin
  2
*Paper_Space
 70
     0
 10
0.0
 20
0.0
 30
0.0
  3
*Paper_Space
  1

  0
ENDBLK
  5
1D
330
1B
100
AcDbEntity
 67
     1
  8
0
100
AcDbBlockEnd
  0
BLOCK
  5
24
330
23
100
AcDbEntity
 67
     1
  8
0
100
AcDbBlockBegin
  2
*Paper_Space0
 70
     0
 10
0.0
 20
0.0
 30
0.0
  3
*Paper_Space0
  1

  0
ENDBLK
  5
25
330
23
100
AcDbEntity
 67
     1
  8
0
100
AcDbBlockEnd
  0
BLOCK
  5
40
330
2E
100
AcDbEntity
  8
0
100
AcDbBlockBegin
  2
direct
 70
     2
 10
0.0
 20
0.0
 30
0.0
  3
direct
  1

  0
ATTDEF
  5
2F
330
2E
100
AcDbEntity
  8
ASHADE
  6
Continuous
 62
     1
100
AcDbText
 10
0.0
 20
-0.1
 30
0.0
 40
0.2
  1

  7
ASHADE
 72
     1
 11
0.0
 21
-0.1
 31
0.0
100
AcDbAttributeDefinition
280
     0
  3
Light Name
  2
SNAME
 70
     0
280
     0
  0
ARC
  5
30
330
2E
100
AcDbEntity
  8
ASHADE
  6
Continuous
 62
     7
100
AcDbCircle
 10
0.0
 20
0.0
 30
0.0
 40
0.3
100
AcDbArc
 50
205.6792886194569
 51
334.3207113805431
  0
ARC
  5
31
330
2E
100
AcDbEntity
  8
ASHADE
  6
Continuous
 62
     7
100
AcDbCircle
 10
0.0
 20
0.0
 30
0.0
 40
0.3
100
AcDbArc
 50
25.67928861945685
 51
154.3207113805431
  0
LINE
  5
32
330
2E
100
AcDbEntity
  8
ASHADE
  6
Continuous
 62
     7
100
AcDbLine
 10
-0.21
 20
0.2142428528562855
 30
0.0
 11
-0.21
 21
0.5
 31
0.0
  0
LINE
  5
33
330
2E
100
AcDbEntity
  8
ASHADE
  6
Continuous
 62
     7
100
AcDbLine
 10
-0.11
 20
0.2791057147390572
 30
0.0
 11
-0.11
 21
0.5
 31
0.0
  0
LINE
  5
34
330
2E
100
AcDbEntity
  8
ASHADE
  6
Continuous
 62
     7
100
AcDbLine
 10
0.21
 20
0.2142428528562855
 30
0.0
 11
0.21
 21
0.5
 31
0.0
  0
ATTDEF
  5
35
330
2E
100
AcDbEntity
  8
ASHADE
  6
Continuous
 62
     7
100
AcDbText
 10
0.0
 20
0.25
 30
0.0
 40
0.01
  1

100
AcDbAttributeDefinition
280
     0
  3
Look-at Y
  2
LAY
 70
     1
280
     0
  0
ATTDEF
  5
36
330
2E
100
AcDbEntity
  8
ASHADE
  6
Continuous
 62
     7
100
AcDbText
 10
0.0
 20
0.22
 30
0.0
 40
0.01
  1
1
100
AcDbAttributeDefinition
280
     0
  3
Light Intensity
  2
INTENSITY
 70
     1
280
     0
  0
ATTDEF
  5
37
330
2E
100
AcDbEntity
  8
ASHADE
  6
Continuous
 62
     7
100
AcDbText
 10
0.0
 20
0.16
 30
0.0
 40
0.01
  1
-1
100
AcDbAttributeDefinition
280
     0
  3
*not used*
  2
BEAMD
 70
     1
280
     0
  0
ATTDEF
  5
38
330
2E
100
AcDbEntity
  8
ASHADE
  6
Continuous
 62
     7
100
AcDbText
 10
0.0
 20
0.175
 30
0.0
 40
0.01
  1
-1
100
AcDbAttributeDefinition
280
     0
  3
*not used*
  2
CONED
 70
     1
280
     0
  0
ATTDEF
  5
39
330
2E
100
AcDbEntity
  8
ASHADE
  6
Continuous
 62
     7
100
AcDbText
 10
0.0
 20
0.19
 30
0.0
 40
0.01
  1
0
100
AcDbAttributeDefinition
280
     0
  3
Depth Map Size
  2
CONEA
 70
     1
280
     0
  0
ATTDEF
  5
3A
330
2E
100
AcDbEntity
  8
ASHADE
  6
Continuous
 62
     7
100
AcDbText
 10
0.0
 20
0.2050000000000001
 30
0.0
 40
0.01
  1
1,1,1
100
AcDbAttributeDefinition
280
     0
  3
Light Color (RGB)
  2
COLOR
 70
     1
280
     0
  0
ATTDEF
  5
3B
330
2E
100
AcDbEntity
  8
ASHADE
  6
Continuous
 62
     7
100
AcDbText
 10
0.0
 20
0.235
 30
0.0
 40
0.01
  1

100
AcDbAttributeDefinition
280
     0
  3
Look-at Z
  2
LAZ
 70
     1
280
     0
  0
LINE
  5
3C
330
2E
100
AcDbEntity
  8
ASHADE
  6
Continuous
 62
     7
100
AcDbLine
 10
0.0
 20
0.3
 30
0.0
 11
0.0
 21
0.5
 31
0.0
  0
LINE
  5
3D
330
2E
100
AcDbEntity
  8
ASHADE
  6
Continuous
 62
     7
100
AcDbLine
 10
0.11
 20
0.2791057147390572
 30
0.0
 11
0.11
 21
0.5
 31
0.0
  0
ATTDEF
  5
3E
330
2E
100
AcDbEntity
  8
ASHADE
  6
Continuous
 62
     7
100
AcDbText
 10
0.0
 20
0.265
 30
0.0
 40
0.01
  1

100
AcDbAttributeDefinition
280
     0
  3
Look-at X
  2
LAX
 70
     1
280
     0
  0
ATTDEF
  5
3F
330
2E
100
AcDbEntity
  8
ASHADE
  6
Continuous
 62
     7
100
AcDbText
 10
0.0
 20
0.28
 30
0.0
 40
0.01
  1

100
AcDbAttributeDefinition
280
     0
  3

  2
GNAME
 70
     1
280
     0
  0
ENDBLK
  5
41
330
2E
100
AcDbEntity
  8
0
100
AcDbBlockEnd
  0
BLOCK
  5
5D
330
42
100
AcDbEntity
  8
0
100
AcDbBlockBegin
  2
overhead
 70
     2
 10
0.0
 20
0.0
 30
0.0
  3
overhead
  1

  0
ATTDEF
  5
43
330
42
100
AcDbEntity
  8
ASHADE
  6
Continuous
 62
     1
100
AcDbText
 10
0.0
 20
-0.1
 30
0.0
 40
0.2
  1

  7
ASHADE
 72
     1
 11
0.0
 21
-0.1
 31
0.0
100
AcDbAttributeDefinition
280
     0
  3
Light Name
  2
SNAME
 70
     0
280
     0
  0
ARC
  5
44
330
42
100
AcDbEntity
  8
ASHADE
  6
Continuous
 62
     7
100
AcDbCircle
 10
0.0
 20
0.0
 30
0.0
 40
0.3
100
AcDbArc
 50
205.6792886194569
 51
334.3207113805431
  0
LINE
  5
45
330
42
100
AcDbEntity
  8
ASHADE
  6
Continuous
 62
     7
100
AcDbLine
 10
-0.2041413561583015
 20
-0.2198324514393848
 30
0.0
 11
-0.2721884748777353
 21
-0.2931099352525131
 31
0.0
  0
LINE
  5
46
330
42
100
AcDbEntity
  8
ASHADE
  6
Continuous
 62
     7
100
AcDbLine
 10
-0.1096591641591904
 20
-0.2792398032442862
 30
0.0
 11
-0.1279356915190555
 21
-0.3257797704516673
 31
0.0
  0
LINE
  5
47
330
42
100
AcDbEntity
  8
ASHADE
  6
Continuous
 62
     7
100
AcDbLine
 10
0.0
 20
-0.2999999999999999
 30
0.0
 11
0.0
 21
-0.4
 31
0.0
  0
LINE
  5
48
330
42
100
AcDbEntity
  8
ASHADE
  6
Continuous
 62
     7
100
AcDbLine
 10
0.1096591641591904
 20
-0.2792398032442862
 30
0.0
 11
0.1279356915190555
 21
-0.3257797704516673
 31
0.0
  0
LINE
  5
49
330
42
100
AcDbEntity
  8
ASHADE
  6
Continuous
 62
     7
100
AcDbLine
 10
0.2041413561583015
 20
-0.2198324514393848
 30
0.0
 11
0.2721884748777353
 21
-0.2931099352525131
 31
0.0
  0
ARC
  5
4A
330
42
100
AcDbEntity
  8
ASHADE
  6
Continuous
 62
     7
100
AcDbCircle
 10
0.0
 20
0.0
 30
0.0
 40
0.3
100
AcDbArc
 50
25.67928861945685
 51
154.3207113805431
  0
LINE
  5
4B
330
42
100
AcDbEntity
  8
ASHADE
  6
Continuous
 62
     7
100
AcDbLine
 10
-0.2703701166919155
 20
0.13
 30
0.0
 11
-0.3154318028072347
 21
0.1516666666666666
 31
0.0
  0
LINE
  5
4C
330
42
100
AcDbEntity
  8
ASHADE
  6
Continuous
 62
     7
100
AcDbLine
 10
-0.2703701166919155
 20
-0.13
 30
0.0
 11
-0.3154318028072347
 21
-0.1516666666666666
 31
0.0
  0
LINE
  5
4D
330
42
100
AcDbEntity
  8
ASHADE
  6
Continuous
 62
     7
100
AcDbLine
 10
-0.2041413561583015
 20
0.2198324514393849
 30
0.0
 11
-0.2721884748777353
 21
0.2931099352525131
 31
0.0
  0
LINE
  5
4E
330
42
100
AcDbEntity
  8
ASHADE
  6
Continuous
 62
     7
100
AcDbLine
 10
-0.1096591641591904
 20
0.2792398032442862
 30
0.0
 11
-0.1279356915190555
 21
0.3257797704516674
 31
0.0
  0
LINE
  5
4F
330
42
100
AcDbEntity
  8
ASHADE
  6
Continuous
 62
     7
100
AcDbLine
 10
0.2703701166919155
 20
-0.13
 30
0.0
 11
0.3154318028072347
 21
-0.1516666666666666
 31
0.0
  0
LINE
  5
50
330
42
100
AcDbEntity
  8
ASHADE
  6
Continuous
 62
     7
100
AcDbLine
 10
0.2703701166919155
 20
0.13
 30
0.0
 11
0.3154318028072347
 21
0.1516666666666666
 31
0.0
  0
LINE
  5
51
330
42
100
AcDbEntity
  8
ASHADE
  6
Continuous
 62
     7
100
AcDbLine
 10
0.0
 20
0.3
 30
0.0
 11
0.0
 21
0.4
 31
0.0
  0
ATTDEF
  5
52
330
42
100
AcDbEntity
  8
ASHADE
  6
Continuous
 62
     7
100
AcDbText
 10
0.0
 20
0.22
 30
0.0
 40
0.01
  1
1
100
AcDbAttributeDefinition
280
     0
  3
Light Intensity
  2
INTENSITY
 70
     1
280
     0
  0
ATTDEF
  5
53
330
42
100
AcDbEntity
  8
ASHADE
  6
Continuous
 62
     7
100
AcDbText
 10
0.0
 20
0.16
 30
0.0
 40
0.01
  1
-1
100
AcDbAttributeDefinition
280
     0
  3
*not used*
  2
BEAMD
 70
     1
280
     0
  0
ATTDEF
  5
54
330
42
100
AcDbEntity
  8
ASHADE
  6
Continuous
 62
     7
100
AcDbText
 10
0.0
 20
0.175
 30
0.0
 40
0.01
  1
-1
100
AcDbAttributeDefinition
280
     0
  3
*not used*
  2
CONED
 70
     1
280
     0
  0
ATTDEF
  5
55
330
42
100
AcDbEntity
  8
ASHADE
  6
Continuous
 62
     7
100
AcDbText
 10
0.0
 20
0.19
 30
0.0
 40
0.01
  1
0
100
AcDbAttributeDefinition
280
     0
  3
Depth Map Size
  2
CONEA
 70
     1
280
     0
  0
ATTDEF
  5
56
330
42
100
AcDbEntity
  8
ASHADE
  6
Continuous
 62
     7
100
AcDbText
 10
0.0
 20
0.2050000000000001
 30
0.0
 40
0.01
  1
1,1,1
100
AcDbAttributeDefinition
280
     0
  3
Light Color (RGB)
  2
COLOR
 70
     1
280
     0
  0
ATTDEF
  5
57
330
42
100
AcDbEntity
  8
ASHADE
  6
Continuous
 62
     7
100
AcDbText
 10
0.0
 20
0.235
 30
0.0
 40
0.01
  1

100
AcDbAttributeDefinition
280
     0
  3
Look-at Z
  2
LAZ
 70
     1
280
     0
  0
ATTDEF
  5
58
330
42
100
AcDbEntity
  8
ASHADE
  6
Continuous
 62
     7
100
AcDbText
 10
0.0
 20
0.25
 30
0.0
 40
0.01
  1

100
AcDbAttributeDefinition
280
     0
  3
Look-at Y
  2
LAY
 70
     1
280
     0
  0
ATTDEF
  5
59
330
42
100
AcDbEntity
  8
ASHADE
  6
Continuous
 62
     7
100
AcDbText
 10
0.0
 20
0.265
 30
0.0
 40
0.01
  1

100
AcDbAttributeDefinition
280
     0
  3
Look-at X
  2
LAX
 70
     1
280
     0
  0
ATTDEF
  5
5A
330
42
100
AcDbEntity
  8
ASHADE
  6
Continuous
 62
     7
100
AcDbText
 10
0.0
 20
0.28
 30
0.0
 40
0.01
  1

100
AcDbAttributeDefinition
280
     0
  3

  2
GNAME
 70
     1
280
     0
  0
LINE
  5
5B
330
42
100
AcDbEntity
  8
ASHADE
  6
Continuous
 62
     7
100
AcDbLine
 10
0.1096591641591904
 20
0.2792398032442862
 30
0.0
 11
0.1279356915190555
 21
0.3257797704516674
 31
0.0
  0
LINE
  5
5C
330
42
100
AcDbEntity
  8
ASHADE
  6
Continuous
 62
     7
100
AcDbLine
 10
0.2041413561583015
 20
0.2198324514393849
 30
0.0
 11
0.2721884748777353
 21
0.2931099352525131
 31
0.0
  0
ENDBLK
  5
5E
330
42
100
AcDbEntity
  8
0
100
AcDbBlockEnd
  0
BLOCK
  5
85
330
5F
100
AcDbEntity
  8
0
100
AcDbBlockBegin
  2
sh_spot
 70
     2
 10
0.0
 20
0.0
 30
0.0
  3
sh_spot
  1

  0
LINE
  5
60
330
5F
100
AcDbEntity
  8
ASHADE
  6
Continuous
 62
     7
100
AcDbLine
 10
0.25
 20
0.26
 30
0.0
 11
-0.25
 21
0.26
 31
0.0
  0
LINE
  5
61
330
5F
100
AcDbEntity
  8
ASHADE
  6
Continuous
 62
     7
100
AcDbLine
 10
-0.25
 20
-0.3399999999999999
 30
0.0
 11
0.25
 21
-0.3399999999999999
 31
0.0
  0
ATTDEF
  5
62
330
5F
100
AcDbEntity
  8
ASHADE
  6
Continuous
 62
     1
100
AcDbText
 10
0.0
 20
-0.1
 30
0.0
 40
0.2
  1

  7
ASHADE
 72
     1
 11
0.0
 21
-0.1
 31
0.0
100
AcDbAttributeDefinition
280
     0
  3
Light Name
  2
SNAME
 70
     0
280
     0
  0
LINE
  5
63
330
5F
100
AcDbEntity
  8
ASHADE
  6
Continuous
 62
     7
100
AcDbLine
 10
-0.25
 20
-0.13
 30
0.0
 11
-0.25
 21
-0.3399999999999999
 31
0.0
  0
LINE
  5
64
330
5F
100
AcDbEntity
  8
ASHADE
  6
Continuous
 62
     7
100
AcDbLine
 10
-0.25
 20
-0.18
 30
0.0
 11
-0.29
 21
-0.18
 31
0.0
  0
LINE
  5
65
330
5F
100
AcDbEntity
  8
ASHADE
  6
Continuous
 62
     7
100
AcDbLine
 10
-0.29
 20
-0.22
 30
0.0
 11
-0.25
 21
-0.22
 31
0.0
  0
LINE
  5
66
330
5F
100
AcDbEntity
  8
ASHADE
  6
Continuous
 62
     7
100
AcDbLine
 10
-0.29
 20
-0.18
 30
0.0
 11
-0.29
 21
-0.22
 31
0.0
  0
LINE
  5
67
330
5F
100
AcDbEntity
  8
ASHADE
  6
Continuous
 62
     7
100
AcDbLine
 10
-0.1045454545454545
 20
0.26
 30
0.0
 11
-0.15
 21
0.46
 31
0.0
  0
LINE
  5
68
330
5F
100
AcDbEntity
  8
ASHADE
  6
Continuous
 62
     7
100
AcDbLine
 10
-0.21
 20
0.26
 30
0.0
 11
-0.301304347826087
 21
0.46
 31
0.0
  0
LINE
  5
69
330
5F
100
AcDbEntity
  8
ASHADE
  6
Continuous
 62
     7
100
AcDbLine
 10
-0.25
 20
0.26
 30
0.0
 11
-0.25
 21
0.13
 31
0.0
  0
LINE
  5
6A
330
5F
100
AcDbEntity
  8
ASHADE
  6
Continuous
 62
     7
100
AcDbLine
 10
-0.25
 20
0.22
 30
0.0
 11
-0.29
 21
0.22
 31
0.0
  0
LINE
  5
6B
330
5F
100
AcDbEntity
  8
ASHADE
  6
Continuous
 62
     7
100
AcDbLine
 10
-0.29
 20
0.1799999999999999
 30
0.0
 11
-0.25
 21
0.1799999999999999
 31
0.0
  0
LINE
  5
6C
330
5F
100
AcDbEntity
  8
ASHADE
  6
Continuous
 62
     7
100
AcDbLine
 10
-0.29
 20
0.22
 30
0.0
 11
-0.29
 21
0.1799999999999999
 31
0.0
  0
ATTDEF
  5
6D
330
5F
100
AcDbEntity
  8
ASHADE
  6
Continuous
 62
     7
100
AcDbText
 10
0.0
 20
-0.24
 30
0.0
 40
0.01
  1
0
100
AcDbAttributeDefinition
280
     0
  3
Depth Map Size
  2
ZSIZE
 70
     1
280
     0
  0
ATTDEF
  5
6E
330
5F
100
AcDbEntity
  8
ASHADE
  6
Continuous
 62
     7
100
AcDbText
 10
0.0
 20
-0.3300000000000001
 30
0.0
 40
0.01
  1
0,0,0
100
AcDbAttributeDefinition
280
     0
  3
Look-from XYZ
  2
LFXYZ
 70
     1
280
     0
  0
ATTDEF
  5
6F
330
5F
100
AcDbEntity
  8
ASHADE
  6
Continuous
 62
     7
100
AcDbText
 10
0.0
 20
-0.315
 30
0.0
 40
0.01
  1
0.0
100
AcDbAttributeDefinition
280
     0
  3
Beam Distribution
  2
BEAMDI
 70
     1
280
     0
  0
ATTDEF
  5
70
330
5F
100
AcDbEntity
  8
ASHADE
  6
Continuous
 62
     7
100
AcDbText
 10
0.0
 20
-0.3
 30
0.0
 40
0.01
  1
0.0
100
AcDbAttributeDefinition
280
     0
  3
Cone Delta
  2
CONEDE
 70
     1
280
     0
  0
ATTDEF
  5
71
330
5F
100
AcDbEntity
  8
ASHADE
  6
Continuous
 62
     7
100
AcDbText
 10
0.0
 20
-0.2850000000000001
 30
0.0
 40
0.01
  1
10.0
100
AcDbAttributeDefinition
280
     0
  3
Cone Angle
  2
CONEAN
 70
     1
280
     0
  0
ATTDEF
  5
72
330
5F
100
AcDbEntity
  8
ASHADE
  6
Continuous
 62
     7
100
AcDbText
 10
0.0
 20
-0.27
 30
0.0
 40
0.01
  1
-1
100
AcDbAttributeDefinition
280
     0
  3
*not used*
  2
BIASMAX
 70
     1
280
     0
  0
ATTDEF
  5
73
330
5F
100
AcDbEntity
  8
ASHADE
  6
Continuous
 62
     7
100
AcDbText
 10
0.0
 20
-0.255
 30
0.0
 40
0.01
  1
-1
100
AcDbAttributeDefinition
280
     0
  3
*not used*
  2
BIASMIN
 70
     1
280
     0
  0
ATTDEF
  5
74
330
5F
100
AcDbEntity
  8
ASHADE
  6
Continuous
 62
     7
100
AcDbText
 10
0.0
 20
-0.225
 30
0.0
 40
0.01
  1
1,1,1
100
AcDbAttributeDefinition
280
     0
  3
Light Color (RGB)
  2
COLOR
 70
     1
280
     0
  0
ATTDEF
  5
75
330
5F
100
AcDbEntity
  8
ASHADE
  6
Continuous
 62
     7
100
AcDbText
 10
0.0
 20
-0.21
 30
0.0
 40
0.01
  1
1
100
AcDbAttributeDefinition
280
     0
  3
Light Intensity
  2
INTENSITY
 70
     1
280
     0
  0
ATTDEF
  5
76
330
5F
100
AcDbEntity
  8
ASHADE
  6
Continuous
 62
     7
100
AcDbText
 10
0.0
 20
-0.15
 30
0.0
 40
0.01
  1

100
AcDbAttributeDefinition
280
     0
  3

  2
GNAME
 70
     1
280
     0
  0
ATTDEF
  5
77
330
5F
100
AcDbEntity
  8
ASHADE
  6
Continuous
 62
     7
100
AcDbText
 10
0.0
 20
-0.195
 30
0.0
 40
0.01
  1

100
AcDbAttributeDefinition
280
     0
  3
Look-at Z
  2
LAZ
 70
     1
280
     0
  0
ATTDEF
  5
78
330
5F
100
AcDbEntity
  8
ASHADE
  6
Continuous
 62
     7
100
AcDbText
 10
0.0
 20
-0.18
 30
0.0
 40
0.01
  1

100
AcDbAttributeDefinition
280
     0
  3
Look-at Y
  2
LAY
 70
     1
280
     0
  0
ATTDEF
  5
79
330
5F
100
AcDbEntity
  8
ASHADE
  6
Continuous
 62
     7
100
AcDbText
 10
0.0
 20
-0.165
 30
0.0
 40
0.01
  1

100
AcDbAttributeDefinition
280
     0
  3
Look-at X
  2
LAX
 70
     1
280
     0
  0
LINE
  5
7A
330
5F
100
AcDbEntity
  8
ASHADE
  6
Continuous
 62
     7
100
AcDbLine
 10
0.25
 20
-0.3399999999999999
 30
0.0
 11
0.25
 21
-0.13
 31
0.0
  0
LINE
  5
7B
330
5F
100
AcDbEntity
  8
ASHADE
  6
Continuous
 62
     7
100
AcDbLine
 10
0.25
 20
-0.18
 30
0.0
 11
0.29
 21
-0.18
 31
0.0
  0
LINE
  5
7C
330
5F
100
AcDbEntity
  8
ASHADE
  6
Continuous
 62
     7
100
AcDbLine
 10
0.29
 20
-0.22
 30
0.0
 11
0.25
 21
-0.22
 31
0.0
  0
LINE
  5
7D
330
5F
100
AcDbEntity
  8
ASHADE
  6
Continuous
 62
     7
100
AcDbLine
 10
0.29
 20
-0.18
 30
0.0
 11
0.29
 21
-0.22
 31
0.0
  0
LINE
  5
7E
330
5F
100
AcDbEntity
  8
ASHADE
  6
Continuous
 62
     7
100
AcDbLine
 10
0.21
 20
0.26
 30
0.0
 11
0.301304347826087
 21
0.46
 31
0.0
  0
LINE
  5
7F
330
5F
100
AcDbEntity
  8
ASHADE
  6
Continuous
 62
     7
100
AcDbLine
 10
0.1045454545454545
 20
0.26
 30
0.0
 11
0.15
 21
0.46
 31
0.0
  0
LINE
  5
80
330
5F
100
AcDbEntity
  8
ASHADE
  6
Continuous
 62
     7
100
AcDbLine
 10
0.0
 20
0.26
 30
0.0
 11
0.0
 21
0.46
 31
0.0
  0
LINE
  5
81
330
5F
100
AcDbEntity
  8
ASHADE
  6
Continuous
 62
     7
100
AcDbLine
 10
0.25
 20
0.13
 30
0.0
 11
0.25
 21
0.26
 31
0.0
  0
LINE
  5
82
330
5F
100
AcDbEntity
  8
ASHADE
  6
Continuous
 62
     7
100
AcDbLine
 10
0.25
 20
0.22
 30
0.0
 11
0.29
 21
0.22
 31
0.0
  0
LINE
  5
83
330
5F
100
AcDbEntity
  8
ASHADE
  6
Continuous
 62
     7
100
AcDbLine
 10
0.29
 20
0.1799999999999999
 30
0.0
 11
0.25
 21
0.1799999999999999
 31
0.0
  0
LINE
  5
84
330
5F
100
AcDbEntity
  8
ASHADE
  6
Continuous
 62
     7
100
AcDbLine
 10
0.29
 20
0.22
 30
0.0
 11
0.29
 21
0.1799999999999999
 31
0.0
  0
ENDBLK
  5
86
330
5F
100
AcDbEntity
  8
0
100
AcDbBlockEnd
  0
BLOCK
  5
92
330
91
100
AcDbEntity
  8
ASHADE
100
AcDbBlockBegin
  2
AVE_RENDER
 70
     0
 10
0.0
 20
0.0
 30
0.0
  3
AVE_RENDER
  1
AVE_RENDER
  0
ENDBLK
  5
93
330
91
100
AcDbEntity
  8
0
100
AcDbBlockEnd
  0
BLOCK
  5
A0
330
9F
100
AcDbEntity
  8
ASHADE
100
AcDbBlockBegin
  2
AVE_GLOBAL
 70
     0
 10
0.0
 20
0.0
 30
0.0
  3
AVE_GLOBAL
  1
AVE_GLOBAL
  0
ENDBLK
  5
A1
330
9F
100
AcDbEntity
  8
0
100
AcDbBlockEnd
  0
ENDSEC
  0
SECTION
  2
ENTITIES
  0
INSERT
  5
94
330
1F
100
AcDbEntity
  8
ASHADE
 62
     1
100
AcDbBlockReference
  2
AVE_RENDER
 10
0.0
 20
0.0
 30
0.0
1001
AVE_RENDER
1002
{
1070
     7
1000
Pref
1070
    30
1070
    20
1070
     1
1070
     0
1000

1070
    10
1070
     1
1070
    10
1040
1.0
1070
     1
1040
0.3
1040
0.7
1040
0.0
1040
10.0
1010
-1.0
1020
-1.0
1030
-1.0
1040
0.3
1070
    49
1070
     0
1070
     0
1010
1.0
1020
1.0
1030
1.0
1040
45.0
1070
     1
1070
     0
1000
WCS
1040
0.0
1070
     0
1040
10.0
1002
}
  0
INSERT
  5
95
330
1F
100
AcDbEntity
  8
ASHADE
 62
     3
100
AcDbBlockReference
  2
AVE_RENDER
 10
0.0
 20
0.0
 30
0.0
1001
AVE_RENDER
1002
{
1070
     0
1000
Full Opt
1070
     0
1070
     1
1070
     1
1070
     1
1070
     0
1070
     0
1070
     0
1070
     1
1070
     1
1040
0.0001
1040
0.0001
1002
}
  0
INSERT
  5
96
330
1F
100
AcDbEntity
  8
ASHADE
 62
     4
100
AcDbBlockReference
  2
AVE_RENDER
 10
0.0
 20
0.0
 30
0.0
1001
AVE_RENDER
1002
{
1070
     0
1000
Quick Opt
1070
     0
1070
     1
1070
     1
1070
     1
1070
     0
1070
     0
1070
     1
1002
}
  0
INSERT
  5
97
330
1F
100
AcDbEntity
  8
ASHADE
 62
     5
100
AcDbBlockReference
  2
AVE_RENDER
 10
0.0
 20
0.0
 30
0.0
1001
AVE_RENDER
1002
{
1070
     1
1000
Scanl Opt
1070
     2
1070
     0
1070
     2
1040
2.0
1040
4.0
1070
     0
1070
     1
1070
     0
1040
0.03
1002
}
  0
INSERT
  5
98
330
1F
100
AcDbEntity
  8
ASHADE
 62
     6
100
AcDbBlockReference
  2
AVE_RENDER
 10
0.0
 20
0.0
 30
0.0
1001
AVE_RENDER
1002
{
1070
     2
1000
Raytr Opt
1070
     2
1070
     0
1070
     2
1040
2.0
1040
4.0
1070
     0
1070
     1
1070
     1
1040
0.03
1070
     3
1040
0.03
1002
}
  0
INSERT
  5
99
330
1F
100
AcDbEntity
  8
ASHADE
 62
     7
100
AcDbBlockReference
  2
AVE_RENDER
 10
0.0
 20
0.0
 30
0.0
1001
AVE_RENDER
1002
{
1070
     0
1000
RFile Opt
1070
     1
1070
   640
1070
   480
1070
 10000
1070
     1
1070
     8
1070
     8
1070
     0
1070
     0
1070
     0
1070
     0
1070
     0
1070
     0
1070
     0
1002
}
  0
INSERT
  5
9A
330
1F
100
AcDbEntity
  8
ASHADE
 62
     8
100
AcDbBlockReference
  2
AVE_RENDER
 10
0.0
 20
0.0
 30
0.0
1001
AVE_RENDER
1002
{
1070
     0
1000
Fog Opt
1070
     0
1070
     0
1040
0.0
1040
1.0
1040
0.0
1040
1.0
1010
0.5
1020
0.5
1030
0.5
1002
}
  0
INSERT
  5
9B
330
1F
100
AcDbEntity
  8
ASHADE
 62
     9
100
AcDbBlockReference
  2
AVE_RENDER
 10
0.0
 20
0.0
 30
0.0
1001
AVE_RENDER
1002
{
1070
     0
1000
BG Opt
1070
     0
1070
     1
1010
0.0
1020
0.0
1030
0.0
1010
1.0
1020
0.0
1030
0.0
1010
0.0
1020
1.0
1030
0.0
1010
0.0
1020
0.0
1030
1.0
1040
0.5
1040
0.33
1040
0.0
1000

1070
     1
1000

1070
     1
1070
     1
1040
1.0
1040
1.0
1040
0.0
1040
0.0
1070
     0
1002
}
  0
INSERT
  5
A2
330
1F
100
AcDbEntity
  8
ASHADE
 62
     1
100
AcDbBlockReference
  2
AVE_GLOBAL
 10
0.0
 20
0.0
 30
0.0
1001
AVE_MATERIAL
1002
{
1000
*GLOBAL*
1000
2
1000
Global finish.
1002
{
1002
}
1002
{
1070
    63
1002
{
1002
{
1010
-1.0
1020
-1.0
1030
-1.0
1002
}
1040
0.1000000014901161
1000

1040
0.0
1002
{
1002
}
1040
0.0
1002
{
1002
}
1040
0.0
1002
}
1002
{
1002
{
1010
-1.0
1020
-1.0
1030
-1.0
1002
}
1040
0.6999999880790711
1000

1040
0.0
1002
{
1002
}
1040
0.0
1002
{
1002
}
1040
0.0
1002
}
1002
{
1002
{
1010
-1.0
1020
-1.0
1030
-1.0
1002
}
1040
0.2000000029802322
1000

1040
0.0
1002
{
1002
}
1040
0.0
1002
{
1002
}
1040
0.0
1002
}
1002
{
1070
     0
1002
{
1070
     1
1002
{
1040
1.0
1040
1.0
1000

1040
0.0
1002
{
1002
}
1040
0.0
1002
{
1002
}
1040
0.0
1002
}
1002
}
1040
1.0
1040
0.0
1040
0.0
1002
}
1002
{
1040
1.0
1040
1.0
1000

1040
0.0
1002
{
1002
}
1040
0.0
1002
{
1002
}
1040
0.0
1002
}
1002
{
1040
0.5
1040
1.0
1000

1040
0.0
1002
{
1002
}
1040
0.0
1002
{
1002
}
1040
0.0
1002
}
1002
{
1070
     0
1040
0.0
1002
{
1002
}
1040
1.0
1002
{
1002
}
1040
0.0
1002
}
1002
{
1040
0.0
1002
{
1002
{
1010
0.0
1020
0.0
1030
0.0
1002
}
1040
1.0
1000

1040
0.0
1002
{
1002
}
1040
0.0
1002
{
1002
}
1040
0.0
1002
}
1002
}
1002
{
1002
{
1070
     1
1002
{
1040
0.0
1040
1.0
1000

1040
0.0
1002
{
1002
}
1040
0.0
1002
{
1002
}
1040
0.0
1002
}
1002
}
1040
0.0
1002
{
1002
}
1010
1.0
1020
0.0
1030
0.0
1010
0.0
1020
1.0
1030
0.0
1010
0.0
1020
0.0
1030
1.0
1070
     0
1002
}
1002
{
1002
{
1040
1.0
1040
1.0
1002
{
1070
     1
1002
{
1040
1.0
1040
1.0
1000

1040
0.0
1002
{
1002
}
1040
0.0
1002
{
1002
}
1040
0.0
1002
}
1002
}
1002
}
1070
     0
1040
0.0
1002
{
1002
}
1002
}
1002
{
1002
}
1002
}
1002
{
1071
        3
1070
     3
1070
     0
1002
{
1070
     2
1070
     0
1070
     0
1040
0.0
1002
}
1070
     0
1070
     2
1002
{
1002
}
1002
}
1002
{
1040
8030.0
1040
190.3000030517578
1040
0.3050000071525574
1040
228.0
1040
545.0
1040
14.0
1040
17.39999961853027
1040
0.4560000002384186
1002
}
1002
}
  0
MESH
  5
F9
330
1F
100
AcDbEntity
  8
OracDecor_panel_moldings
 62
    56
420
  7440134
160
             39176
310
08990000400400000C00000013000000020000003C0000000600000002000000000000C0FF3F8FC0000000000000F6BE000000000000043F000000E0FF3F8F40000000000000F5BE000000000000043F0C000000130000000A0000003C0000000600000002000000000000E0FF3F8F4000000060050014C0000000008059B6
310
3F000000E0FF3F8F40000000000000F5BE000000000000043F0C00000013000000120000003C0000000600000002000000000000C0FF3F8FC000000080050014C0000000008059B63F000000E0FF3F8F4000000060050014C0000000008059B63F0C000000130000001A0000003C0000000600000002000000000000C0FF3F
310
8FC000000080050014C0000000008059B63F000000C0FF3F8FC0000000000000F6BE000000000000043F0C00000013000000220000003C0000000600000002000000000000E0FF3F8F4000000060050014C0000000008059B63F000000E0FF3F8F40000000C01C7A15C000000000DAC806400C000000130000002A0000003C
310
0000000600000002000000000000C0FF3F8FC0000000E01C7A15C000000000DAC80640000000E0FF3F8F40000000C01C7A15C000000000DAC806400C00000013000000320000003C0000000600000002000000000000C0FF3F8FC000000080050014C0000000008059B63F000000C0FF3F8FC0000000E01C7A15C000000000
310
DAC806400C000000130000003A0000003C0000000600000002000000000000E0FF3F8F4000000000508C17C0000000002FFF1240000000C0FF3F8FC000000000508C17C0000000002FFF12400C00000013000000420000003C0000000600000002000000000000E0FF3F8F4000000000508C17C0000000002FFF1240000000
310
E0FF3F8F4000000040B4541AC000000000919919400C000000130000004A0000003C0000000600000002000000000000C0FF3F8FC000000060B4541AC00000000091991940000000E0FF3F8F4000000040B4541AC000000000919919400C00000013000000520000003C0000000600000002000000000000C0FF3F8FC00000
310
0060B4541AC00000000091991940000000C0FF3F8FC000000000508C17C0000000002FFF12400C000000130000005A0000003C0000000600000002000000000000E0FF3F8F4000000020D6531EC0000000804A322040000000C0FF3F8FC000000040D6531EC0000000804A3220400C00000013000000620000003C00000006
310
00000002000000000000E0FF3F8F4000000020D6531EC0000000804A322040000000E0FF3F8F4000000000B35F21C0000000802D0423400C000000130000006A0000003C0000000600000002000000000000C0FF3F8FC000000000B35F21C0000000802D042340000000E0FF3F8F4000000000B35F21C0000000802D042340
310
0C00000013000000720000003C0000000600000002000000000000C0FF3F8FC000000000B35F21C0000000802D042340000000C0FF3F8FC000000040D6531EC0000000804A3220400C000000130000007A0000003C0000000600000002000000000000E0FF3F8F4000000080C63124C000000000B3C42540000000C0FF3F8F
310
C000000080C63124C000000000B3C425400C00000013000000820000003C0000000600000002000000000000E0FF3F8F40000000C083A928C00000000085182940000000E0FF3F8F4000000080C63124C000000000B3C425400C000000130000008A0000003C0000000600000002000000000000C0FF3F8FC0000000C083A9
310
28C00000000085182940000000E0FF3F8F40000000C083A928C000000000851829400C00000013000000920000003C0000000600000002000000000000C0FF3F8FC0000000C083A928C00000000085182940000000C0FF3F8FC000000080C63124C000000000B3C425400C000000130000009A0000003C0000000600000002
310
000000000000E0FF3F8F40000000C083A928C00000000085182940000000E0FF3F8F40000000C004402BC000000000652B2B400C00000013000000A20000003C0000000600000002000000000000C0FF3F8FC0000000E004402BC000000000652B2B40000000E0FF3F8F40000000C004402BC000000000652B2B400C000000
310
13000000AA0000003C0000000600000002000000000000C0FF3F8FC0000000C083A928C00000000085182940000000C0FF3F8FC0000000E004402BC000000000652B2B400C00000013000000B20000003C0000000600000002000000000000E0FF3F8F40000000C004402BC000000000652B2B40000000E0FF3F8F40000000
310
00F8012DC0000000004FFB2D400C00000013000000BA0000003C0000000600000002000000000000C0FF3F8FC000000020F8012DC0000000004FFB2D40000000E0FF3F8F4000000000F8012DC0000000004FFB2D400C00000013000000C20000003C0000000600000002000000000000C0FF3F8FC000000020F8012DC00000
310
00004FFB2D40000000C0FF3F8FC0000000E004402BC000000000652B2B400C00000013000000CA0000003C0000000600000002000000000000E0FF3F8F4000000000F8012DC0000000004FFB2D40000000E0FF3F8F40000000C053B22DC000000080E78730400C00000013000000D20000003C000000060000000200000000
310
0000C0FF3F8FC0000000E053B22DC000000080E7873040000000E0FF3F8F40000000C053B22DC000000080E78730400C00000013000000DA0000003C0000000600000002000000000000C0FF3F8FC000000020F8012DC0000000004FFB2D40000000C0FF3F8FC0000000E053B22DC000000080E78730400C00000013000000
310
E20000003C0000000600000002000000000000E0FF3F8F40000000C053B22DC000000080E7873040000000E0FF3F8F400000002047512DC000000080011932400C00000013000000EA0000003C0000000600000002000000000000C0FF3F8FC00000002047512DC00000008001193240000000E0FF3F8F400000002047512D
310
C000000080011932400C00000013000000F20000003C0000000600000002000000000000C0FF3F8FC00000002047512DC00000008001193240000000C0FF3F8FC0000000E053B22DC000000080E78730400C00000013000000FA0000003C0000000600000002000000000000E0FF3F8F4000000000EDE92BC000000080E482
310
3340000000E0FF3F8F400000002047512DC000000080011932400C00000013000000020100003C0000000600000002000000000000C0FF3F8FC000000000EDE92BC000000080E4823340000000E0FF3F8F4000000000EDE92BC000000080E48233400C000000130000000A0100003C0000000600000002000000000000C0FF
310
3F8FC000000000EDE92BC000000080E4823340000000C0FF3F8FC00000002047512DC000000080011932400C00000013000000120100003C0000000600000002000000000000E0FF3F8F4000000000EDE92BC000000080E4823340000000E0FF3F8F400000008089A529C000000080019C34400C000000130000001A010000
310
3C0000000600000002000000000000C0FF3F8FC00000008089A529C000000080019C3440000000E0FF3F8F400000008089A529C000000080019C34400C00000013000000220100003C0000000600000002000000000000C0FF3F8FC00000008089A529C000000080019C3440000000C0FF3F8FC000000000EDE92BC0000000
310
80E48233400C000000130000002A0100003C0000000600000002000000000000E0FF3F8F4000000000CBC626C00000008013443540000000E0FF3F8F400000008089A529C000000080019C34400C00000013000000320100003C0000000600000002000000000000C0FF3F8FC000000020CBC626C000000080134435400000
310
00E0FF3F8F4000000000CBC626C000000080134435400C000000130000003A0100003C0000000600000002000000000000C0FF3F8FC000000020CBC626C00000008013443540000000C0FF3F8FC00000008089A529C000000080019C34400C00000013000000420100003C0000000600000002000000000000E0FF3F8F4000
310
000000CBC626C00000008013443540000000E0FF3F8F4000000020CBC626C000000080871539400C000000130000004A0100003C0000000600000002000000000000C0FF3F8FC000000020CBC626C00000008087153940000000E0FF3F8F4000000020CBC626C000000080871539400C00000013000000520100003C000000
310
0600000002000000000000C0FF3F8FC000000020CBC626C00000008013443540000000C0FF3F8FC000000020CBC626C000000080871539400C000000130000005A0100003C0000000600000002000000000000E0FF3F8F4000000020CBC626C00000008087153940000000E0FF3F8F4000000020594E2DC000000080F84F39
310
400C00000013000000620100003C0000000600000002000000000000C0FF3F8FC000000020594E2DC000000080F84F3940000000E0FF3F8F4000000020594E2DC000000080F84F39400C000000130000006A0100003C0000000600000002000000000000C0FF3F8FC000000020CBC626C00000008087153940000000C0FF3F
310
8FC000000020594E2DC000000080F84F39400C00000013000000720100003C0000000600000002000000000000E0FF3F8F4000000020594E2DC000000080F84F3940000000E0FF3F8F4000000040594E2DC0000000809BDB3F400C000000130000007A0100003C0000000600000002000000000000C0FF3F8FC00000004059
310
4E2DC0000000809BDB3F40000000E0FF3F8F4000000040594E2DC0000000809BDB3F400C00000013000000820100003C0000000600000002000000000000C0FF3F8FC000000020594E2DC000000080F84F3940000000C0FF3F8FC000000040594E2DC0000000809BDB3F400C000000130000008A0100003C00000006000000
310
02000000000000E0FF3F8F4000000040594E2DC0000000809BDB3F40000000E0FF3F8F40000000C0FA0B2AC0000000C0DC7740400C00000013000000920100003C0000000600000002000000000000C0FF3F8FC0000000C0FA0B2AC0000000C0DC774040000000E0FF3F8F40000000C0FA0B2AC0000000C0DC7740400C0000
310
00130000009A0100003C0000000600000002000000000000C0FF3F8FC000000040594E2DC0000000809BDB3F40000000C0FF3F8FC0000000C0FA0B2AC0000000C0DC7740400C00000013000000A20100003C0000000600000002000000000000E0FF3F8F40000000C0FA0B2AC0000000C0DC774040000000E0FF3F8F400000
310
0080582C27C000000040383041400C00000013000000AA0100003C0000000600000002000000000000C0FF3F8FC0000000A0582C27C00000004038304140000000E0FF3F8F4000000080582C27C000000040383041400C00000013000000B20100003C0000000600000002000000000000C0FF3F8FC0000000A0582C27C000
310
00004038304140000000C0FF3F8FC0000000C0FA0B2AC0000000C0DC7740400C00000013000000BA0100003C0000000600000002000000000000E0FF3F8F40000000C0739624C000000040C92A4240000000E0FF3F8F4000000080582C27C000000040383041400C00000013000000C20100003C0000000600000002000000
310
000000C0FF3F8FC0000000E0739624C000000040C92A4240000000E0FF3F8F40000000C0739624C000000040C92A42400C00000013000000CA0100003C0000000600000002000000000000C0FF3F8FC0000000E0739624C000000040C92A4240000000C0FF3F8FC0000000A0582C27C000000040383041400C000000130000
310
00D20100003C0000000600000002000000000000E0FF3F8F4000000040416B23C0000000C04BC94240000000E0FF3F8F40000000C0739624C000000040C92A42400C00000013000000DA0100003C0000000600000002000000000000C0FF3F8FC000000060416B23C0000000C04BC94240000000E0FF3F8F4000000040416B
310
23C0000000C04BC942400C00000013000000E20100003C0000000600000002000000000000C0FF3F8FC000000060416B23C0000000C04BC94240000000C0FF3F8FC0000000E0739624C000000040C92A42400C00000013000000EA0100003C0000000600000002000000000000E0FF3F8F40000000C0685B22C0000000C037
310
844340000000E0FF3F8F4000000040416B23C0000000C04BC942400C00000013000000F20100003C0000000600000002000000000000C0FF3F8FC0000000C0685B22C0000000C037844340000000E0FF3F8F40000000C0685B22C0000000C0378443400C00000013000000FA0100003C0000000600000002000000000000C0
310
FF3F8FC0000000C0685B22C0000000C037844340000000C0FF3F8FC000000060416B23C0000000C04BC942400C00000013000000020200003C0000000600000002000000000000E0FF3F8F40000000A0226C21C0000000C0DF634440000000E0FF3F8F40000000C0685B22C0000000C0378443400C000000130000000A0200
310
003C0000000600000002000000000000C0FF3F8FC0000000C0226C21C0000000C0DF634440000000E0FF3F8F40000000A0226C21C0000000C0DF6344400C00000013000000120200003C0000000600000002000000000000C0FF3F8FC0000000C0226C21C0000000C0DF634440000000C0FF3F8FC0000000C0685B22C00000
310
00C0378443400C000000130000001A0200003C0000000600000002000000000000E0FF3F8F40000000407FAD20C0000000C0F96C4540000000E0FF3F8F40000000A0226C21C0000000C0DF6344400C00000013000000220200003C0000000600000002000000000000C0FF3F8FC0000000607FAD20C0000000C0F96C454000
310
0000E0FF3F8F40000000407FAD20C0000000C0F96C45400C000000130000002A0200003C0000000600000002000000000000C0FF3F8FC0000000607FAD20C0000000C0F96C4540000000C0FF3F8FC0000000C0226C21C0000000C0DF6344400C00000013000000320200003C0000000600000002000000000000E0FF3F8F40
310
000000807E2E20C0000000C033A44640000000E0FF3F8F40000000407FAD20C0000000C0F96C45400C000000130000003A0200003C0000000600000002000000000000C0FF3F8FC0000000A07E2E20C0000000C033A44640000000E0FF3F8F40000000807E2E20C0000000C033A446400C00000013000000420200003C0000
310
000600000002000000000000C0FF3F8FC0000000A07E2E20C0000000C033A44640000000C0FF3F8FC0000000607FAD20C0000000C0F96C45400C000000130000004A0200003C0000000600000002000000000000E0FF3F8F4000000040030020C00000000059134840000000E0FF3F8F40000000807E2E20C0000000C033A4
310
46400C00000013000000520200003C0000000600000002000000000000C0FF3F8FC000000040030020C00000000059134840000000E0FF3F8F4000000040030020C000000000591348400C000000130000005A0200003C0000000600000002000000000000C0FF3F8FC000000040030020C00000000059134840000000C0FF
310
3F8FC0000000A07E2E20C0000000C033A446400C00000013000000620200003C0000000600000002000000000000E0FF3F8F4000000040030020C00000000059134840000000E0FF3F8F40000000803F2D20C0000000807DCD48400C000000130000006A0200003C0000000600000002000000000000C0FF3F8FC000000080
310
3F2D20C0000000807DCD4840000000E0FF3F8F40000000803F2D20C0000000807DCD48400C00000013000000720200003C0000000600000002000000000000C0FF3F8FC000000040030020C00000000059134840000000C0FF3F8FC0000000803F2D20C0000000807DCD48400C000000130000007A0200003C000000060000
310
0002000000000000E0FF3F8F40000000803F2D20C0000000807DCD4840000000E0FF3F8F4000000000AFB820C0000000C08D8C49400C00000013000000820200003C0000000600000002000000000000C0FF3F8FC000000020AFB820C0000000C08D8C4940000000E0FF3F8F4000000000AFB820C0000000C08D8C49400C00
310
0000130000008A0200003C0000000600000002000000000000C0FF3F8FC000000020AFB820C0000000C08D8C4940000000C0FF3F8FC0000000803F2D20C0000000807DCD48400C00000013000000920200003C0000000600000002000000000000E0FF3F8F40000000C052A821C000000040E44F4A40000000E0FF3F8F4000
310
000000AFB820C0000000C08D8C49400C000000130000009A0200003C0000000600000002000000000000C0FF3F8FC0000000E052A821C000000040E44F4A40000000E0FF3F8F40000000C052A821C000000040E44F4A400C00000013000000A20200003C0000000600000002000000000000C0FF3F8FC0000000E052A821C0
310
00000040E44F4A40000000C0FF3F8FC000000020AFB820C0000000C08D8C49400C00000013000000AA0200003C0000000600000002000000000000E0FF3F8F40000000C0420123C000000040E0134B40000000E0FF3F8F40000000C052A821C000000040E44F4A400C00000013000000B20200003C00000006000000020000
310
00000000C0FF3F8FC0000000C0420123C000000040E0134B40000000E0FF3F8F40000000C0420123C000000040E0134B400C00000013000000BA0200003C0000000600000002000000000000C0FF3F8FC0000000C0420123C000000040E0134B40000000C0FF3F8FC0000000E052A821C000000040E44F4A400C0000001300
310
0000C20200003C0000000600000002000000000000E0FF3F8F40000000A0D7B424C000000040F8CC4B40000000E0FF3F8F40000000C0420123C000000040E0134B400C00000013000000CA0200003C0000000600000002000000000000C0FF3F8FC0000000C0D7B424C000000040F8CC4B40000000E0FF3F8F40000000A0D7
310
B424C000000040F8CC4B400C00000013000000D20200003C0000000600000002000000000000C0FF3F8FC0000000C0D7B424C000000040F8CC4B40000000C0FF3F8FC0000000C0420123C000000040E0134B400C00000013000000DA0200003C0000000600000002000000000000E0FF3F8F400000004045CD26C0000000A0
310
7B7D4C40000000E0FF3F8F40000000A0D7B424C000000040F8CC4B400C00000013000000E20200003C0000000600000002000000000000C0FF3F8FC00000004045CD26C0000000A07B7D4C40000000E0FF3F8F400000004045CD26C0000000A07B7D4C400C00000013000000EA0200003C0000000600000002000000000000
310
C0FF3F8FC00000004045CD26C0000000A07B7D4C40000000C0FF3F8FC0000000C0D7B424C000000040F8CC4B400C00000013000000F20200003C0000000600000002000000000000E0FF3F8F4000000000E53129C0000000E0361B4D40000000E0FF3F8F400000004045CD26C0000000A07B7D4C400C00000013000000FA02
310
00003C0000000600000002000000000000C0FF3F8FC000000020E53129C0000000E0361B4D40000000E0FF3F8F4000000000E53129C0000000E0361B4D400C00000013000000020300003C0000000600000002000000000000C0FF3F8FC000000020E53129C0000000E0361B4D40000000C0FF3F8FC00000004045CD26C000
310
0000A07B7D4C400C000000130000000A0300003C0000000600000002000000000000E0FF3F8F4000000000C2C82BC00000000085A04D40000000E0FF3F8F4000000000E53129C0000000E0361B4D400C00000013000000120300003C0000000600000002000000000000C0FF3F8FC000000020C2C82BC00000000085A04D40
310
000000E0FF3F8F4000000000C2C82BC00000000085A04D400C000000130000001A0300003C0000000600000002000000000000C0FF3F8FC000000020C2C82BC00000000085A04D40000000C0FF3F8FC000000020E53129C0000000E0361B4D400C00000013000000220300003C0000000600000002000000000000E0FF3F8F
310
400000004005962EC000000000A00E4E40000000E0FF3F8F4000000000C2C82BC00000000085A04D400C000000130000002A0300003C0000000600000002000000000000C0FF3F8FC00000006005962EC000000000A00E4E40000000E0FF3F8F400000004005962EC000000000A00E4E400C00000013000000320300003C00
310
00000600000002000000000000C0FF3F8FC00000006005962EC000000000A00E4E40000000C0FF3F8FC000000020C2C82BC00000000085A04D400C000000130000003A0300003C0000000600000002000000000000E0FF3F8F400000004096B930C0000000E03F604E40000000E0FF3F8F400000004005962EC000000000A0
310
0E4E400C00000013000000420300003C0000000600000002000000000000C0FF3F8FC00000004096B930C0000000E03F604E40000000E0FF3F8F400000004096B930C0000000E03F604E400C000000130000004A0300003C0000000600000002000000000000C0FF3F8FC00000004096B930C0000000E03F604E40000000C0
310
FF3F8FC00000006005962EC000000000A00E4E400C00000013000000520300003C0000000600000002000000000000E0FF3F8F40000000E0291932C000000040D2934E40000000E0FF3F8F400000004096B930C0000000E03F604E400C000000130000005A0300003C0000000600000002000000000000C0FF3F8FC0000000
310
002A1932C000000040D2934E40000000E0FF3F8F40000000E0291932C000000040D2934E400C00000013000000620300003C0000000600000002000000000000C0FF3F8FC0000000002A1932C000000040D2934E40000000C0FF3F8FC00000004096B930C0000000E03F604E400C000000130000006A0300003C0000000600
310
000002000000000000E0FF3F8F4000000040C05F33C00000000003AD4E40000000E0FF3F8F40000000E0291932C000000040D2934E400C00000013000000720300003C0000000600000002000000000000C0FF3F8FC000000040C05F33C00000002003AD4E40000000E0FF3F8F4000000040C05F33C00000000003AD4E400C
310
000000130000007A0300003C0000000600000002000000000000C0FF3F8FC000000040C05F33C00000002003AD4E40000000C0FF3F8FC0000000002A1932C000000040D2934E400C00000013000000820300003C0000000600000002000000000000E0FF3F8F4000000040C05F33C00000000003AD4E40000000E0FF3F8F40
310
00000080C05F33C00000008050EE50400C000000130000008A0300003C0000000600000002000000000000C0FF3F8FC000000080C05F33C00000008050EE5040000000E0FF3F8F4000000080C05F33C00000008050EE50400C00000013000000920300003C0000000600000002000000000000C0FF3F8FC000000040C05F33
310
C00000002003AD4E40000000C0FF3F8FC000000080C05F33C00000008050EE50400C000000130000009A0300003C0000000600000002000000000000E0FF3F8F4000000080C05F33C00000008050EE5040000000E0FF3F8F40000000601FAF35C000000040930851400C00000013000000A20300003C000000060000000200
310
0000000000C0FF3F8FC0000000601FAF35C00000006093085140000000E0FF3F8F40000000601FAF35C000000040930851400C00000013000000AA0300003C0000000600000002000000000000C0FF3F8FC000000080C05F33C00000008050EE5040000000C0FF3F8FC0000000601FAF35C000000060930851400C00000013
310
000000B20300003C0000000600000002000000000000E0FF3F8F40000000601FAF35C00000004093085140000000E0FF3F8F4000000040A6D637C000000040604251400C00000013000000BA0300003C0000000600000002000000000000C0FF3F8FC000000040A6D637C00000004060425140000000E0FF3F8F4000000040
310
A6D637C000000040604251400C00000013000000C20300003C0000000600000002000000000000C0FF3F8FC000000040A6D637C00000004060425140000000C0FF3F8FC0000000601FAF35C000000060930851400C00000013000000CA0300003C0000000600000002000000000000E0FF3F8F400000002067DC38C0000000
310
00DB6B5140000000E0FF3F8F4000000040A6D637C000000040604251400C00000013000000D20300003C0000000600000002000000000000C0FF3F8FC00000002067DC38C000000000DB6B5140000000E0FF3F8F400000002067DC38C000000000DB6B51400C00000013000000DA0300003C00000006000000020000000000
310
00C0FF3F8FC00000002067DC38C000000000DB6B5140000000C0FF3F8FC000000040A6D637C000000040604251400C00000013000000E20300003C0000000600000002000000000000E0FF3F8F4000000040ABD739C000000000799E5140000000E0FF3F8F400000002067DC38C000000000DB6B51400C00000013000000EA
310
0300003C0000000600000002000000000000C0FF3F8FC000000040ABD739C000000020799E5140000000E0FF3F8F4000000040ABD739C000000000799E51400C00000013000000F20300003C0000000600000002000000000000C0FF3F8FC000000040ABD739C000000020799E5140000000C0FF3F8FC00000002067DC38C0
310
00000000DB6B51400C00000013000000FA0300003C0000000600000002000000000000E0FF3F8F400000008054C93AC0000000808BDB5140000000E0FF3F8F4000000040ABD739C000000000799E51400C00000013000000020400003C0000000600000002000000000000C0FF3F8FC00000008054C93AC0000000A08BDB51
310
40000000E0FF3F8F400000008054C93AC0000000808BDB51400C000000130000000A0400003C0000000600000002000000000000C0FF3F8FC00000008054C93AC0000000A08BDB5140000000C0FF3F8FC000000040ABD739C000000020799E51400C00000013000000120400003C0000000600000002000000000000E0FF3F
310
8F40000000E005AC3BC00000004051235240000000E0FF3F8F400000008054C93AC0000000808BDB51400C000000130000001A0400003C0000000600000002000000000000C0FF3F8FC0000000E005AC3BC00000004051235240000000E0FF3F8F40000000E005AC3BC000000040512352400C00000013000000220400003C
310
0000000600000002000000000000C0FF3F8FC0000000E005AC3BC00000004051235240000000C0FF3F8FC00000008054C93AC0000000A08BDB51400C000000130000002A0400003C0000000600000002000000000000E0FF3F8F4000000020B9823CC0000000807D795240000000E0FF3F8F40000000E005AC3BC000000040
310
512352400C00000013000000320400003C0000000600000002000000000000C0FF3F8FC000000020B9823CC0000000A07D795240000000E0FF3F8F4000000020B9823CC0000000807D7952400C000000130000003A0400003C0000000600000002000000000000C0FF3F8FC000000020B9823CC0000000A07D795240000000
310
C0FF3F8FC0000000E005AC3BC000000040512352400C00000013000000420400003C0000000600000002000000000000E0FF3F8F4000000080C4453DC000000080E7DE5240000000E0FF3F8F4000000020B9823CC0000000807D7952400C000000130000004A0400003C0000000600000002000000000000C0FF3F8FC00000
310
0080C4453DC000000080E7DE5240000000E0FF3F8F4000000080C4453DC000000080E7DE52400C00000013000000520400003C0000000600000002000000000000C0FF3F8FC000000080C4453DC000000080E7DE5240000000C0FF3F8FC000000020B9823CC0000000A07D7952400C000000130000005A0400003C00000006
310
00000002000000000000E0FF3F8F4000000080FBE93DC0000000A0FD525340000000E0FF3F8F4000000080C4453DC000000080E7DE52400C00000013000000620400003C0000000600000002000000000000C0FF3F8FC000000080FBE93DC0000000A0FD525340000000E0FF3F8F4000000080FBE93DC0000000A0FD525340
310
0C000000130000006A0400003C0000000600000002000000000000C0FF3F8FC000000080FBE93DC0000000A0FD525340000000C0FF3F8FC000000080C4453DC000000080E7DE52400C00000013000000720400003C0000000600000002000000000000E0FF3F8F4000000080286B3EC00000004050D95340000000E0FF3F8F
310
4000000080FBE93DC0000000A0FD5253400C000000130000007A0400003C0000000600000002000000000000C0FF3F8FC000000080286B3EC00000004050D95340000000E0FF3F8F4000000080286B3EC00000004050D953400C00000013000000820400003C0000000600000002000000000000C0FF3F8FC000000080286B
310
3EC00000004050D95340000000C0FF3F8FC000000080FBE93DC0000000A0FD5253400C000000130000008A0400003C0000000600000002000000000000E0FF3F8F40000000C0A9B73EC00000004076635440000000E0FF3F8F4000000080286B3EC00000004050D953400C00000013000000920400003C0000000600000002
310
000000000000C0FF3F8FC000000000AAB73EC00000004076635440000000E0FF3F8F40000000C0A9B73EC000000040766354400C000000130000009A0400003C0000000600000002000000000000C0FF3F8FC000000000AAB73EC00000004076635440000000C0FF3F8FC000000080286B3EC00000004050D953400C000000
310
13000000A20400003C0000000600000002000000000000E0FF3F8F400000008090D03EC0000000A0D4235540000000E0FF3F8F40000000C0A9B73EC000000040766354400C00000013000000AA0400003C0000000600000002000000000000C0FF3F8FC0000000C090D03EC0000000A0D4235540000000E0FF3F8F40000000
310
8090D03EC0000000A0D42355400C00000013000000B20400003C0000000600000002000000000000C0FF3F8FC000000000AAB73EC00000004076635440000000C0FF3F8FC0000000C090D03EC0000000A0D42355400C00000013000000BA0400003C0000000600000002000000000000E0FF3F8F400000008090D03EC00000
310
00A0D4235540000000E0FF3F8F40000000C050AF3EC0000000C0C8AF55400C00000013000000C20400003C0000000600000002000000000000C0FF3F8FC0000000C050AF3EC0000000C0C8AF5540000000E0FF3F8F40000000C050AF3EC0000000C0C8AF55400C00000013000000CA0400003C000000060000000200000000
310
0000C0FF3F8FC0000000C050AF3EC0000000C0C8AF5540000000C0FF3F8FC0000000C090D03EC0000000A0D42355400C00000013000000D20400003C0000000600000002000000000000E0FF3F8F4000000040057D3EC0000000C0E90C5640000000E0FF3F8F40000000C050AF3EC0000000C0C8AF55400C00000013000000
310
DA0400003C0000000600000002000000000000C0FF3F8FC000000040057D3EC0000000C0E90C5640000000E0FF3F8F4000000040057D3EC0000000C0E90C56400C00000013000000E20400003C0000000600000002000000000000C0FF3F8FC000000040057D3EC0000000C0E90C5640000000C0FF3F8FC0000000C050AF3E
310
C0000000C0C8AF55400C00000013000000EA0400003C0000000600000002000000000000E0FF3F8F400000004077343EC00000004088665640000000E0FF3F8F4000000040057D3EC0000000C0E90C56400C00000013000000F20400003C0000000600000002000000000000C0FF3F8FC00000004077343EC0000000408866
310
5640000000E0FF3F8F400000004077343EC000000040886656400C00000013000000FA0400003C0000000600000002000000000000C0FF3F8FC00000004077343EC00000004088665640000000C0FF3F8FC000000040057D3EC0000000C0E90C56400C00000013000000020500003C0000000600000002000000000000E0FF
310
3F8F40000000806FD73DC0000000E02ABC5640000000E0FF3F8F400000004077343EC000000040886656400C000000130000000A0500003C0000000600000002000000000000C0FF3F8FC0000000806FD73DC0000000E02ABC5640000000E0FF3F8F40000000806FD73DC0000000E02ABC56400C0000001300000012050000
310
3C0000000600000002000000000000C0FF3F8FC0000000806FD73DC0000000E02ABC5640000000C0FF3F8FC00000004077343EC000000040886656400C000000130000001A0500003C0000000600000002000000000000E0FF3F8F4000000000526A3DC0000000C0680A5740000000E0FF3F8F40000000806FD73DC0000000
310
E02ABC56400C00000013000000220500003C0000000600000002000000000000C0FF3F8FC000000000526A3DC0000000C0680A5740000000E0FF3F8F4000000000526A3DC0000000C0680A57400C000000130000002A0500003C0000000600000002000000000000C0FF3F8FC000000000526A3DC0000000C0680A57400000
310
00C0FF3F8FC0000000806FD73DC0000000E02ABC56400C00000013000000320500003C0000000600000002000000000000E0FF3F8F40000000C019E43CC00000000089575740000000E0FF3F8F4000000000526A3DC0000000C0680A57400C000000130000003A0500003C0000000600000002000000000000C0FF3F8FC000
310
0000C019E43CC00000002089575740000000E0FF3F8F40000000C019E43CC000000000895757400C00000013000000420500003C0000000600000002000000000000C0FF3F8FC0000000C019E43CC00000002089575740000000C0FF3F8FC000000000526A3DC0000000C0680A57400C000000130000004A0500003C000000
310
0600000002000000000000E0FF3F8F40000000001D4A3CC0000000009C9F5740000000E0FF3F8F40000000C019E43CC000000000895757400C00000013000000520500003C0000000600000002000000000000C0FF3F8FC0000000001D4A3CC0000000009C9F5740000000E0FF3F8F40000000001D4A3CC0000000009C9F57
310
400C000000130000005A0500003C0000000600000002000000000000C0FF3F8FC0000000001D4A3CC0000000009C9F5740000000C0FF3F8FC0000000C019E43CC000000020895757400C00000013000000620500003C0000000600000002000000000000E0FF3F8F40000000E088963BC00000000068E45740000000E0FF3F
310
8F40000000001D4A3CC0000000009C9F57400C000000130000006A0500003C0000000600000002000000000000C0FF3F8FC00000000089963BC00000000068E45740000000E0FF3F8F40000000E088963BC00000000068E457400C00000013000000720500003C0000000600000002000000000000C0FF3F8FC00000000089
310
963BC00000000068E45740000000C0FF3F8FC0000000001D4A3CC0000000009C9F57400C000000130000007A0500003C0000000600000002000000000000E0FF3F8F40000000C086CE3AC0000000A041235840000000E0FF3F8F40000000E088963BC00000000068E457400C00000013000000820500003C00000006000000
310
02000000000000C0FF3F8FC0000000C086CE3AC0000000A041235840000000E0FF3F8F40000000C086CE3AC0000000A0412358400C000000130000008A0500003C0000000600000002000000000000C0FF3F8FC0000000C086CE3AC0000000A041235840000000C0FF3F8FC00000000089963BC00000000068E457400C0000
310
0013000000920500003C0000000600000002000000000000E0FF3F8F40000000000DF739C0000000C0AE5A5840000000E0FF3F8F40000000C086CE3AC0000000A0412358400C000000130000009A0500003C0000000600000002000000000000C0FF3F8FC0000000200DF739C0000000C0AE5A5840000000E0FF3F8F400000
310
00000DF739C0000000C0AE5A58400C00000013000000A20500003C0000000600000002000000000000C0FF3F8FC0000000200DF739C0000000C0AE5A5840000000C0FF3F8FC0000000C086CE3AC0000000A0412358400C00000013000000AA0500003C0000000600000002000000000000E0FF3F8F40000000C02D0F39C000
310
0000002F8B5840000000E0FF3F8F40000000000DF739C0000000C0AE5A58400C00000013000000B20500003C0000000600000002000000000000C0FF3F8FC0000000C02D0F39C0000000002F8B5840000000E0FF3F8F40000000C02D0F39C0000000002F8B58400C00000013000000BA0500003C0000000600000002000000
310
000000C0FF3F8FC0000000C02D0F39C0000000002F8B5840000000C0FF3F8FC0000000200DF739C0000000C0AE5A58400C00000013000000C20500003C0000000600000002000000000000E0FF3F8F4000000000090D38C0000000C01FB65840000000E0FF3F8F40000000C02D0F39C0000000002F8B58400C000000130000
310
00CA0500003C0000000600000002000000000000C0FF3F8FC000000000090D38C0000000C01FB65840000000E0FF3F8F4000000000090D38C0000000C01FB658400C00000013000000D20500003C0000000600000002000000000000C0FF3F8FC000000000090D38C0000000C01FB65840000000C0FF3F8FC0000000C02D0F
310
39C0000000002F8B58400C00000013000000DA0500003C0000000600000002000000000000E0FF3F8F40000000A028E836C0000000605FDB5840000000E0FF3F8F4000000000090D38C0000000C01FB658400C00000013000000E20500003C0000000600000002000000000000C0FF3F8FC0000000A028E836C0000000605F
310
DB5840000000E0FF3F8F40000000A028E836C0000000605FDB58400C00000013000000EA0500003C0000000600000002000000000000C0FF3F8FC0000000A028E836C0000000605FDB5840000000C0FF3F8FC000000000090D38C0000000C01FB658400C00000013000000F20500003C0000000600000002000000000000E0
310
FF3F8F40000000605AAA35C0000000A003F85840000000E0FF3F8F40000000A028E836C0000000605FDB58400C00000013000000FA0500003C0000000600000002000000000000C0FF3F8FC0000000805AAA35C0000000A003F85840000000E0FF3F8F40000000605AAA35C0000000A003F858400C00000013000000020600
310
003C0000000600000002000000000000C0FF3F8FC0000000805AAA35C0000000A003F85840000000C0FF3F8FC0000000A028E836C0000000605FDB58400C000000130000000A0600003C0000000600000002000000000000E0FF3F8F4000000080444934C0000000E0750B5940000000E0FF3F8F40000000605AAA35C00000
310
00A003F858400C00000013000000120600003C0000000600000002000000000000C0FF3F8FC000000080444934C0000000E0750B5940000000E0FF3F8F4000000080444934C0000000E0750B59400C000000130000001A0600003C0000000600000002000000000000C0FF3F8FC000000080444934C0000000E0750B594000
310
0000C0FF3F8FC0000000805AAA35C0000000A003F858400C00000013000000220600003C0000000600000002000000000000E0FF3F8F40000000C0C05F33C0000000406C125940000000E0FF3F8F4000000080444934C0000000E0750B59400C000000130000002A0600003C0000000600000002000000000000C0FF3F8FC0
310
000000C0C05F33C0000000406C125940000000E0FF3F8F40000000C0C05F33C0000000406C1259400C00000013000000320600003C0000000600000002000000000000C0FF3F8FC0000000C0C05F33C0000000406C125940000000C0FF3F8FC000000080444934C0000000E0750B59400C000000130000003A0600003C0000
310
000600000002000000000000E0FF3F8F40000000C0C05F33C0000000406C125940000000E0FF3F8F4000000080C05F33C0000000603BAA5A400C00000013000000420600003C0000000600000002000000000000C0FF3F8FC000000080C05F33C0000000603BAA5A40000000E0FF3F8F4000000080C05F33C0000000603BAA
310
5A400C000000130000004A0600003C0000000600000002000000000000C0FF3F8FC0000000C0C05F33C0000000406C125940000000C0FF3F8FC000000080C05F33C0000000603BAA5A400C00000013000000520600003C0000000600000002000000000000E0FF3F8F4000000080C05F33C0000000603BAA5A40000000E0FF
310
3F8F4000000080975031C0000000C0A5BB5A400C000000130000005A0600003C0000000600000002000000000000C0FF3F8FC0000000A0975031C0000000C0A5BB5A40000000E0FF3F8F4000000080975031C0000000C0A5BB5A400C00000013000000620600003C0000000600000002000000000000C0FF3F8FC000000080
310
C05F33C0000000603BAA5A40000000C0FF3F8FC0000000A0975031C0000000C0A5BB5A400C000000130000006A0600003C0000000600000002000000000000E0FF3F8F4000000080975031C0000000C0A5BB5A40000000E0FF3F8F4000000000423B30C00000002018D15A400C00000013000000720600003C000000060000
310
0002000000000000C0FF3F8FC000000000423B30C00000002018D15A40000000E0FF3F8F4000000000423B30C00000002018D15A400C000000130000007A0600003C0000000600000002000000000000C0FF3F8FC000000000423B30C00000002018D15A40000000C0FF3F8FC0000000A0975031C0000000C0A5BB5A400C00
310
000013000000820600003C0000000600000002000000000000E0FF3F8F4000000040604D2EC00000002050EF5A40000000E0FF3F8F4000000000423B30C00000002018D15A400C000000130000008A0600003C0000000600000002000000000000C0FF3F8FC000000040604D2EC00000002050EF5A40000000E0FF3F8F4000
310
000040604D2EC00000002050EF5A400C00000013000000920600003C0000000600000002000000000000C0FF3F8FC000000040604D2EC00000002050EF5A40000000C0FF3F8FC000000000423B30C00000002018D15A400C000000130000009A0600003C0000000600000002000000000000E0FF3F8F400000008005172CC0
310
0000002027185B40000000E0FF3F8F4000000040604D2EC00000002050EF5A400C00000013000000A20600003C0000000600000002000000000000C0FF3F8FC00000008005172CC00000002027185B40000000E0FF3F8F400000008005172CC00000002027185B400C00000013000000AA0600003C00000006000000020000
310
00000000C0FF3F8FC00000008005172CC00000002027185B40000000C0FF3F8FC000000040604D2EC00000002050EF5A400C00000013000000B20600003C0000000600000002000000000000E0FF3F8F40000000C00DF729C0000000803D4A5B40000000E0FF3F8F400000008005172CC00000002027185B400C0000001300
310
0000BA0600003C0000000600000002000000000000C0FF3F8FC0000000E00DF729C0000000803D4A5B40000000E0FF3F8F40000000C00DF729C0000000803D4A5B400C00000013000000C20600003C0000000600000002000000000000C0FF3F8FC0000000E00DF729C0000000803D4A5B40000000C0FF3F8FC00000008005
310
172CC00000002027185B400C00000013000000CA0600003C0000000600000002000000000000E0FF3F8F40000000C0A3EB27C0000000207D865B40000000E0FF3F8F40000000C00DF729C0000000803D4A5B400C00000013000000D20600003C0000000600000002000000000000C0FF3F8FC0000000E0A3EB27C000000020
310
7D865B40000000E0FF3F8F40000000C0A3EB27C0000000207D865B400C00000013000000DA0600003C0000000600000002000000000000C0FF3F8FC0000000E0A3EB27C0000000207D865B40000000C0FF3F8FC0000000E00DF729C0000000803D4A5B400C00000013000000E20600003C0000000600000002000000000000
310
E0FF3F8F40000000C060F825C0000000C01ECE5B40000000E0FF3F8F40000000C0A3EB27C0000000207D865B400C00000013000000EA0600003C0000000600000002000000000000C0FF3F8FC0000000C060F825C0000000C01ECE5B40000000E0FF3F8F40000000C060F825C0000000C01ECE5B400C00000013000000F206
310
00003C0000000600000002000000000000C0FF3F8FC0000000C060F825C0000000C01ECE5B40000000C0FF3F8FC0000000E0A3EB27C0000000207D865B400C00000013000000FA0600003C0000000600000002000000000000E0FF3F8F40000000E02D2D24C0000000C03B215C40000000E0FF3F8F40000000C060F825C000
310
0000C01ECE5B400C00000013000000020700003C0000000600000002000000000000C0FF3F8FC0000000002E2D24C0000000C03B215C40000000E0FF3F8F40000000E02D2D24C0000000C03B215C400C000000130000000A0700003C0000000600000002000000000000C0FF3F8FC0000000002E2D24C0000000C03B215C40
310
000000C0FF3F8FC0000000C060F825C0000000C01ECE5B400C00000013000000120700003C0000000600000002000000000000E0FF3F8F40000000C094A822C000000020027C5C40000000E0FF3F8F40000000E02D2D24C0000000C03B215C400C000000130000001A0700003C0000000600000002000000000000C0FF3F8F
310
C0000000C094A822C000000020027C5C40000000E0FF3F8F40000000C094A822C000000020027C5C400C00000013000000220700003C0000000600000002000000000000C0FF3F8FC0000000C094A822C000000020027C5C40000000C0FF3F8FC0000000002E2D24C0000000C03B215C400C000000130000002A0700003C00
310
00000600000002000000000000E0FF3F8F40000000C0236921C0000000E023E15C40000000E0FF3F8F40000000C094A822C000000020027C5C400C00000013000000320700003C0000000600000002000000000000C0FF3F8FC0000000E0236921C0000000E023E15C40000000E0FF3F8F40000000C0236921C0000000E023
310
E15C400C000000130000003A0700003C0000000600000002000000000000C0FF3F8FC0000000E0236921C0000000E023E15C40000000C0FF3F8FC0000000C094A822C000000020027C5C400C00000013000000420700003C0000000600000002000000000000E0FF3F8F4000000040D49E20C000000000623E5D40000000E0
310
FF3F8F40000000C0236921C0000000E023E15C400C000000130000004A0700003C0000000600000002000000000000C0FF3F8FC000000060D49E20C000000000623E5D40000000E0FF3F8F4000000040D49E20C000000000623E5D400C00000013000000520700003C0000000600000002000000000000C0FF3F8FC0000000
310
60D49E20C000000000623E5D40000000C0FF3F8FC0000000E0236921C0000000E023E15C400C000000130000005A0700003C0000000600000002000000000000E0FF3F8F4000000000AA2620C0000000C0479C5D40000000E0FF3F8F4000000040D49E20C000000000623E5D400C00000013000000620700003C0000000600
310
000002000000000000C0FF3F8FC000000000AA2620C0000000C0479C5D40000000E0FF3F8F4000000000AA2620C0000000C0479C5D400C000000130000006A0700003C0000000600000002000000000000C0FF3F8FC000000000AA2620C0000000C0479C5D40000000C0FF3F8FC000000060D49E20C000000000623E5D400C
310
00000013000000720700003C0000000600000002000000000000E0FF3F8F4000000080040020C0000000A010F75D40000000E0FF3F8F4000000000AA2620C0000000C0479C5D400C000000130000007A0700003C0000000600000002000000000000C0FF3F8FC000000080040020C0000000A010F75D40000000E0FF3F8F40
310
00000080040020C0000000A010F75D400C00000013000000820700003C0000000600000002000000000000C0FF3F8FC000000080040020C0000000A010F75D40000000C0FF3F8FC000000000AA2620C0000000C0479C5D400C000000130000008A0700003C0000000600000002000000000000E0FF3F8F4000000000000002
310
BF0000006000005E40000000E0FF3F8F4000000080040020C0000000A010F75D400C00000013000000920700003C0000000600000002000000000000C0FF3F8FC000000000008002BF0000006000005E40000000E0FF3F8F4000000000000002BF0000006000005E400C000000130000009A0700003C000000060000000200
310
0000000000C0FF3F8FC000000080040020C0000000A010F75D40000000C0FF3F8FC000000000008002BF0000006000005E400C00000013000000A20700003C0000000600000002000000000000E0FF3F8F4000000000000002BF0000006000005E40000000C0FF3F8F4000000000008F91BF000000C008905C400C00000013
310
000000AA0700003C0000000600000002000000000000C0FF3F8FC000000000009091BF0000000009905C40000000C0FF3F8F4000000000008F91BF000000C008905C400C00000013000000B20700003C0000000600000002000000000000C0FF3F8FC000000000008002BF0000006000005E40000000C0FF3F8FC000000000
310
009091BF0000000009905C400C00000013000000BA0700003C0000000600000002000000000000E0FF3F8F40000000001A51E6BF00000040B1775C40000000C0FF3F8F4000000000008F91BF000000C008905C400C00000013000000C20700003C0000000600000002000000000000C0FF3F8FC0000000001A51E6BF000000
310
40B1775C40000000E0FF3F8F40000000001A51E6BF00000040B1775C400C00000013000000CA0700003C0000000600000002000000000000C0FF3F8FC0000000001A51E6BF00000040B1775C40000000C0FF3F8FC000000000009091BF0000000009905C400C00000013000000D20700003C00000006000000020000000000
310
00E0FF3F8F40000000001A51E6BF00000040B1775C40000000E0FF3F8F40000000006D56F2BF000000004A505C400C00000013000000DA0700003C0000000600000002000000000000C0FF3F8FC0000000006D56F2BF000000004A505C40000000E0FF3F8F40000000006D56F2BF000000004A505C400C00000013000000E2
310
0700003C0000000600000002000000000000C0FF3F8FC0000000006D56F2BF000000004A505C40000000C0FF3F8FC0000000001A51E6BF00000040B1775C400C00000013000000EA0700003C0000000600000002000000000000E0FF3F8F400000000085CCF4BF0000008088205C40000000E0FF3F8F40000000006D56F2BF
310
000000004A505C400C00000013000000F20700003C0000000600000002000000000000C0FF3F8FC00000000085CCF4BF0000008088205C40000000E0FF3F8F400000000085CCF4BF0000008088205C400C00000013000000FA0700003C0000000600000002000000000000C0FF3F8FC00000000085CCF4BF0000008088205C
310
40000000C0FF3F8FC0000000006D56F2BF000000004A505C400C00000013000000020800003C0000000600000002000000000000E0FF3F8F400000000085CCF4BF0000008088205C40000000E0FF3F8F4000000000D919F2BF00000080FBF05B400C000000130000000A0800003C0000000600000002000000000000C0FF3F
310
8FC000000000D919F2BF00000080FBF05B40000000E0FF3F8F4000000000D919F2BF00000080FBF05B400C00000013000000120800003C0000000600000002000000000000C0FF3F8FC000000000D919F2BF00000080FBF05B40000000C0FF3F8FC00000000085CCF4BF0000008088205C400C000000130000001A0800003C
310
0000000600000002000000000000E0FF3F8F40000000007A74E5BF0000004028CA5B40000000E0FF3F8F4000000000D919F2BF00000080FBF05B400C00000013000000220800003C0000000600000002000000000000C0FF3F8FC0000000007A74E5BF0000004028CA5B40000000E0FF3F8F40000000007A74E5BF00000040
310
28CA5B400C000000130000002A0800003C0000000600000002000000000000C0FF3F8FC0000000007A74E5BF0000004028CA5B40000000C0FF3F8FC000000000D919F2BF00000080FBF05B400C00000013000000320800003C0000000600000002000000000000E0FF3F8F40000000007A74E5BF0000004028CA5B40000000
310
E0FF3F8F4000000000000001BF000000C002B35B400C000000130000003A0800003C0000000600000002000000000000C0FF3F8FC000000000000001BF000000C002B35B40000000E0FF3F8F4000000000000001BF000000C002B35B400C00000013000000420800003C0000000600000002000000000000C0FF3F8FC00000
310
0000000001BF000000C002B35B40000000C0FF3F8FC0000000007A74E5BF0000004028CA5B400C000000130000004A0800003C0000000600000002000000000000E0FF3F8F4000000000000001BF000000E0604E5A40000000E0FF3F8F4000000000000001BF000000C002B35B400C00000013000000520800003C00000006
310
00000002000000000000C0FF3F8FC000000000008001BF000000E0604E5A40000000E0FF3F8F4000000000000001BF000000E0604E5A400C000000130000005A0800003C0000000600000002000000000000C0FF3F8FC000000000000001BF000000C002B35B40000000C0FF3F8FC000000000008001BF000000E0604E5A40
310
0C00000013000000620800003C0000000600000002000000000000E0FF3F8F4000000000000001BF000000E0604E5A40000000E0FF3F8F400000000018B4D5BF0000004045395A400C000000130000006A0800003C0000000600000002000000000000C0FF3F8FC00000000018B4D5BF0000004045395A40000000E0FF3F8F
310
400000000018B4D5BF0000004045395A400C00000013000000720800003C0000000600000002000000000000C0FF3F8FC00000000018B4D5BF0000004045395A40000000C0FF3F8FC000000000008001BF000000E0604E5A400C000000130000007A0800003C0000000600000002000000000000E0FF3F8F4000000000E0B8
310
E7BF0000000056295A40000000E0FF3F8F400000000018B4D5BF0000004045395A400C00000013000000820800003C0000000600000002000000000000C0FF3F8FC000000000E0B8E7BF0000000056295A40000000E0FF3F8F4000000000E0B8E7BF0000000056295A400C000000130000008A0800003C0000000600000002
310
000000000000C0FF3F8FC000000000E0B8E7BF0000000056295A40000000C0FF3F8FC00000000018B4D5BF0000004045395A400C00000013000000920800003C0000000600000002000000000000E0FF3F8F4000000040CB8C20C0000000C0FC425940000000E0FF3F8F4000000000E0B8E7BF0000000056295A400C000000
310
130000009A0800003C0000000600000002000000000000C0FF3F8FC000000060CB8C20C0000000C0FC425940000000E0FF3F8F4000000040CB8C20C0000000C0FC4259400C00000013000000A20800003C0000000600000002000000000000C0FF3F8FC000000060CB8C20C0000000C0FC425940000000C0FF3F8FC0000000
310
00E0B8E7BF0000000056295A400C00000013000000AA0800003C0000000600000002000000000000E0FF3F8F4000000040E83A22C0000000E050215940000000E0FF3F8F4000000040CB8C20C0000000C0FC4259400C00000013000000B20800003C0000000600000002000000000000C0FF3F8FC000000040E83A22C00000
310
00E050215940000000E0FF3F8F4000000040E83A22C0000000E0502159400C00000013000000BA0800003C0000000600000002000000000000C0FF3F8FC000000040E83A22C0000000E050215940000000C0FF3F8FC000000060CB8C20C0000000C0FC4259400C00000013000000C20800003C000000060000000200000000
310
0000E0FF3F8F4000000040E83A22C0000000E050215940000000E0FF3F8F40000000C022A123C00000004061F458400C00000013000000CA0800003C0000000600000002000000000000C0FF3F8FC0000000C022A123C00000004061F45840000000E0FF3F8F40000000C022A123C00000004061F458400C00000013000000
310
D20800003C0000000600000002000000000000C0FF3F8FC0000000C022A123C00000004061F45840000000C0FF3F8FC000000040E83A22C0000000E0502159400C00000013000000DA0800003C0000000600000002000000000000E0FF3F8F40000000C022A123C00000004061F45840000000E0FF3F8F4000000020BE6B31
310
C000000040B58D56400C00000013000000E20800003C0000000600000002000000000000C0FF3F8FC000000040BE6B31C000000060B58D5640000000E0FF3F8F4000000020BE6B31C000000040B58D56400C00000013000000EA0800003C0000000600000002000000000000C0FF3F8FC000000040BE6B31C000000060B58D
310
5640000000C0FF3F8FC0000000C022A123C00000004061F458400C00000013000000F20800003C0000000600000002000000000000E0FF3F8F4000000020BE6B31C000000040B58D5640000000E0FF3F8F40000000C013C432C00000004087FD55400C00000013000000FA0800003C0000000600000002000000000000C0FF
310
3F8FC0000000C013C432C00000004087FD5540000000E0FF3F8F40000000C013C432C00000004087FD55400C00000013000000020900003C0000000600000002000000000000C0FF3F8FC0000000C013C432C00000004087FD5540000000C0FF3F8FC000000040BE6B31C000000060B58D56400C000000130000000A090000
310
3C0000000600000002000000000000E0FF3F8F40000000808B7A33C000000040EB5B5540000000E0FF3F8F40000000C013C432C00000004087FD55400C00000013000000120900003C0000000600000002000000000000C0FF3F8FC0000000808B7A33C000000040EB5B5540000000E0FF3F8F40000000808B7A33C0000000
310
40EB5B55400C000000130000001A0900003C0000000600000002000000000000C0FF3F8FC0000000808B7A33C000000040EB5B5540000000C0FF3F8FC0000000C013C432C00000004087FD55400C00000013000000220900003C0000000600000002000000000000E0FF3F8F4000000080958233C0000000C001B454400000
310
00E0FF3F8F40000000808B7A33C000000040EB5B55400C000000130000002A0900003C0000000600000002000000000000C0FF3F8FC000000080958233C0000000E001B45440000000E0FF3F8F4000000080958233C0000000C001B454400C00000013000000320900003C0000000600000002000000000000C0FF3F8FC000
310
000080958233C0000000E001B45440000000C0FF3F8FC0000000808B7A33C000000040EB5B55400C000000130000003A0900003C0000000600000002000000000000E0FF3F8F4000000080958233C0000000C001B45440000000E0FF3F8F4000000040A4DB32C0000000405A1154400C00000013000000420900003C000000
310
0600000002000000000000C0FF3F8FC000000060A4DB32C0000000405A115440000000E0FF3F8F4000000040A4DB32C0000000405A1154400C000000130000004A0900003C0000000600000002000000000000C0FF3F8FC000000060A4DB32C0000000405A115440000000C0FF3F8FC000000080958233C0000000E001B454
310
400C00000013000000520900003C0000000600000002000000000000E0FF3F8F40000000C0369131C000000040277F5340000000E0FF3F8F4000000040A4DB32C0000000405A1154400C000000130000005A0900003C0000000600000002000000000000C0FF3F8FC0000000C0369131C000000040277F5340000000E0FF3F
310
8F40000000C0369131C000000040277F53400C00000013000000620900003C0000000600000002000000000000C0FF3F8FC0000000C0369131C000000040277F5340000000C0FF3F8FC000000060A4DB32C0000000405A1154400C000000130000006A0900003C0000000600000002000000000000E0FF3F8F40000000C055
310
7523C0000000409BE55040000000E0FF3F8F40000000C0369131C000000040277F53400C00000013000000720900003C0000000600000002000000000000C0FF3F8FC0000000C0557523C0000000409BE55040000000E0FF3F8F40000000C0557523C0000000409BE550400C000000130000007A0900003C00000006000000
310
02000000000000C0FF3F8FC0000000C0369131C000000040277F5340000000C0FF3F8FC0000000C0557523C0000000409BE550400C00000013000000820900003C0000000600000002000000000000E0FF3F8F40000000C0557523C0000000409BE55040000000E0FF3F8F4000000080E68D22C0000000C0E5C450400C0000
310
00130000008A0900003C0000000600000002000000000000C0FF3F8FC000000080E68D22C0000000C0E5C45040000000E0FF3F8F4000000080E68D22C0000000C0E5C450400C00000013000000920900003C0000000600000002000000000000C0FF3F8FC000000080E68D22C0000000C0E5C45040000000C0FF3F8FC00000
310
00C0557523C0000000409BE550400C000000130000009A0900003C0000000600000002000000000000E0FF3F8F4000000000838021C0000000C018A95040000000E0FF3F8F4000000080E68D22C0000000C0E5C450400C00000013000000A20900003C0000000600000002000000000000C0FF3F8FC000000000838021C000
310
0000C018A95040000000E0FF3F8F4000000000838021C0000000C018A950400C00000013000000AA0900003C0000000600000002000000000000C0FF3F8FC000000000838021C0000000C018A95040000000C0FF3F8FC000000080E68D22C0000000C0E5C450400C00000013000000B20900003C0000000600000002000000
310
000000E0FF3F8F40000000A04B9815C0000000C09FE04F40000000E0FF3F8F4000000000838021C0000000C018A950400C00000013000000BA0900003C0000000600000002000000000000C0FF3F8FC0000000C04B9815C0000000C09FE04F40000000E0FF3F8F40000000A04B9815C0000000C09FE04F400C000000130000
310
00C20900003C0000000600000002000000000000C0FF3F8FC0000000C04B9815C0000000C09FE04F40000000C0FF3F8FC000000000838021C0000000C018A950400C00000013000000CA0900003C0000000600000002000000000000E0FF3F8F40000000006A370FC0000000C058034F40000000E0FF3F8F40000000A04B98
310
15C0000000C09FE04F400C00000013000000D20900003C0000000600000002000000000000C0FF3F8FC0000000806A370FC0000000C058034F40000000E0FF3F8F40000000006A370FC0000000C058034F400C00000013000000DA0900003C0000000600000002000000000000C0FF3F8FC0000000806A370FC0000000C058
310
034F40000000C0FF3F8FC0000000C04B9815C0000000C09FE04F400C00000013000000E20900003C0000000600000002000000000000E0FF3F8F40000000006A370FC0000000C058034F40000000E0FF3F8F40000000806E8904C00000004086114E400C00000013000000EA0900003C0000000600000002000000000000C0
310
FF3F8FC0000000006F8904C00000004086114E40000000E0FF3F8F40000000806E8904C00000004086114E400C00000013000000F20900003C0000000600000002000000000000C0FF3F8FC0000000006F8904C00000004086114E40000000C0FF3F8FC0000000806A370FC0000000C058034F400C00000013000000FA0900
310
003C0000000600000002000000000000E0FF3F8F40000000003400E0BF00000080B8054C40000000E0FF3F8F40000000806E8904C00000004086114E400C00000013000000020A00003C0000000600000002000000000000C0FF3F8FC0000000003600E0BF00000080B8054C40000000E0FF3F8F40000000003400E0BF0000
310
0080B8054C400C000000130000000A0A00003C0000000600000002000000000000C0FF3F8FC0000000003600E0BF00000080B8054C40000000C0FF3F8FC0000000006F8904C00000004086114E400C00000013000000120A00003C0000000600000002000000000000E0FF3F8F40000000003400E0BF00000080B8054C4000
310
0000E0FF3F8F40000000003200E0BF00000040B35042400C000000130000001A0A00003C0000000600000002000000000000C0FF3F8FC0000000003400E0BF00000040B3504240000000E0FF3F8F40000000003200E0BF00000040B35042400C00000013000000220A00003C0000000600000002000000000000C0FF3F8FC0
310
000000003400E0BF00000040B3504240000000C0FF3F8FC0000000003600E0BF00000080B8054C400C000000130000002A0A00003C0000000600000002000000000000E0FF3F8F40000000003200E0BF00000040B3504240000000E0FF3F8F4000000000170AF2BF000000C0FC6541400C00000013000000320A00003C0000
310
000600000002000000000000C0FF3F8FC000000000180AF2BF000000C0FC654140000000E0FF3F8F4000000000170AF2BF000000C0FC6541400C000000130000003A0A00003C0000000600000002000000000000C0FF3F8FC000000000180AF2BF000000C0FC654140000000C0FF3F8FC0000000003400E0BF00000040B350
310
42400C00000013000000420A00003C0000000600000002000000000000E0FF3F8F4000000000170AF2BF000000C0FC654140000000E0FF3F8F40000000005825FDBF000000C0A49440400C000000130000004A0A00003C0000000600000002000000000000C0FF3F8FC0000000005925FDBF000000C0A4944040000000E0FF
310
3F8F40000000005825FDBF000000C0A49440400C00000013000000520A00003C0000000600000002000000000000C0FF3F8FC0000000005925FDBF000000C0A4944040000000C0FF3F8FC000000000180AF2BF000000C0FC6541400C000000130000005A0A00003C0000000600000002000000000000E0FF3F8F4000000000
310
87F501C00000008075EB3F40000000E0FF3F8F40000000005825FDBF000000C0A49440400C00000013000000620A00003C0000000600000002000000000000C0FF3F8FC00000000087F501C00000008075EB3F40000000E0FF3F8F400000000087F501C00000008075EB3F400C000000130000006A0A00003C000000060000
310
0002000000000000C0FF3F8FC0000000005925FDBF000000C0A4944040000000C0FF3F8FC00000000087F501C00000008075EB3F400C00000013000000720A00003C0000000600000002000000000000E0FF3F8F40000000802C1B03C000000080AE9D3E40000000E0FF3F8F400000000087F501C00000008075EB3F400C00
310
0000130000007A0A00003C0000000600000002000000000000C0FF3F8FC0000000002D1B03C000000080AE9D3E40000000E0FF3F8F40000000802C1B03C000000080AE9D3E400C00000013000000820A00003C0000000600000002000000000000C0FF3F8FC0000000002D1B03C000000080AE9D3E40000000C0FF3F8FC000
310
00000087F501C00000008075EB3F400C000000130000008A0A00003C0000000600000002000000000000E0FF3F8F40000000802B1B03C000000080F81F3340000000E0FF3F8F40000000802C1B03C000000080AE9D3E400C00000013000000920A00003C0000000600000002000000000000C0FF3F8FC0000000802B1B03C0
310
00000080F81F3340000000E0FF3F8F40000000802B1B03C000000080F81F33400C000000130000009A0A00003C0000000600000002000000000000C0FF3F8FC0000000802B1B03C000000080F81F3340000000C0FF3F8FC0000000002D1B03C000000080AE9D3E400C00000013000000A20A00003C00000006000000020000
310
00000000E0FF3F8F40000000802B1B03C000000080F81F3340000000E0FF3F8F4000000000F64E02C0000000800E7932400C00000013000000AA0A00003C0000000600000002000000000000C0FF3F8FC000000080F64E02C0000000800E793240000000E0FF3F8F4000000000F64E02C0000000800E7932400C0000001300
310
0000B20A00003C0000000600000002000000000000C0FF3F8FC0000000802B1B03C000000080F81F3340000000C0FF3F8FC000000080F64E02C0000000800E7932400C00000013000000BA0A00003C0000000600000002000000000000E0FF3F8F400000000026FAFFBF0000008064E13140000000E0FF3F8F4000000000F6
310
4E02C0000000800E7932400C00000013000000C20A00003C0000000600000002000000000000C0FF3F8FC00000000026FAFFBF0000008064E13140000000E0FF3F8F400000000026FAFFBF0000008064E131400C00000013000000CA0A00003C0000000600000002000000000000C0FF3F8FC00000000026FAFFBF00000080
310
64E13140000000C0FF3F8FC000000080F64E02C0000000800E7932400C00000013000000D20A00003C0000000600000002000000000000E0FF3F8F40000000000000F7BE000000002F012E40000000E0FF3F8F400000000026FAFFBF0000008064E131400C00000013000000DA0A00003C0000000600000002000000000000
310
C0FF3F8FC0000000000000F7BE000000002F012E40000000E0FF3F8F40000000000000F7BE000000002F012E400C00000013000000E20A00003C0000000600000002000000000000C0FF3F8FC0000000000000F7BE000000002F012E40000000C0FF3F8FC00000000026FAFFBF0000008064E131400C00000013000000EA0A
310
00003C0000000600000002000000000000E0FF3F8F40000000000000F7BE000000002F012E40000000E0FF3F8F40000000000000F7BE00000000F16722400C00000013000000F20A00003C0000000600000002000000000000C0FF3F8FC0000000000000F7BE00000000F1672240000000E0FF3F8F40000000000000F7BE00
310
000000F16722400C00000013000000FA0A00003C0000000600000002000000000000C0FF3F8FC0000000000000F7BE000000002F012E40000000C0FF3F8FC0000000000000F7BE00000000F16722400C00000013000000020B00003C0000000600000002000000000000E0FF3F8F40000000000000F7BE00000000F1672240
310
000000E0FF3F8F40000000005E74E5BF00000000C5AE21400C000000130000000A0B00003C0000000600000002000000000000C0FF3F8FC0000000005E74E5BF00000000C5AE2140000000E0FF3F8F40000000005E74E5BF00000000C5AE21400C00000013000000120B00003C0000000600000002000000000000C0FF3F8F
310
C0000000005E74E5BF00000000C5AE2140000000C0FF3F8FC0000000000000F7BE00000000F16722400C000000130000001A0B00003C0000000600000002000000000000E0FF3F8F4000000000CB19F2BF000000002B782040000000E0FF3F8F40000000005E74E5BF00000000C5AE21400C00000013000000220B00003C00
310
00000600000002000000000000C0FF3F8FC000000000CB19F2BF000000002B782040000000E0FF3F8F4000000000CB19F2BF000000002B7820400C000000130000002A0B00003C0000000600000002000000000000C0FF3F8FC000000000CB19F2BF000000002B782040000000C0FF3F8FC0000000005E74E5BF00000000C5
310
AE21400C00000013000000320B00003C0000000600000002000000000000E0FF3F8F400000000077CCF4BF0000000086F71D40000000E0FF3F8F4000000000CB19F2BF000000002B7820400C000000130000003A0B00003C0000000600000002000000000000C0FF3F8FC00000000077CCF4BF0000000086F71D40000000E0
310
FF3F8F400000000077CCF4BF0000000086F71D400C00000013000000420B00003C0000000600000002000000000000C0FF3F8FC00000000077CCF4BF0000000086F71D40000000C0FF3F8FC000000000CB19F2BF000000002B7820400C000000130000004A0B00003C0000000600000002000000000000E0FF3F8F40000000
310
005F56F2BF000000006EFB1A40000000E0FF3F8F400000000077CCF4BF0000000086F71D400C00000013000000520B00003C0000000600000002000000000000C0FF3F8FC0000000005F56F2BF000000006EFB1A40000000E0FF3F8F40000000005F56F2BF000000006EFB1A400C000000130000005A0B00003C0000000600
310
000002000000000000C0FF3F8FC0000000005F56F2BF000000006EFB1A40000000C0FF3F8FC00000000077CCF4BF0000000086F71D400C00000013000000620B00003C0000000600000002000000000000E0FF3F8F40000000005F56F2BF000000006EFB1A40000000E0FF3F8F4000000000FE50E6BF00000000FA8418400C
310
000000130000006A0B00003C0000000600000002000000000000C0FF3F8FC000000000FE50E6BF00000000FA841840000000E0FF3F8F4000000000FE50E6BF00000000FA8418400C00000013000000720B00003C0000000600000002000000000000C0FF3F8FC000000000FE50E6BF00000000FA841840000000C0FF3F8FC0
310
000000005F56F2BF000000006EFB1A400C000000130000007A0B00003C0000000600000002000000000000E0FF3F8F4000000000FE50E6BF00000000FA841840000000C0FF3F8F4000000000808B91BF0000000082FF16400C00000013000000820B00003C0000000600000002000000000000C0FF3F8FC000000000808C91
310
BF000000007FFF1640000000C0FF3F8F4000000000808B91BF0000000082FF16400C000000130000008A0B00003C0000000600000002000000000000C0FF3F8FC000000000FE50E6BF00000000FA841840000000C0FF3F8FC000000000808C91BF000000007FFF16400C00000013000000920B00003C000000060000000200
310
0000000000E0FF3F8F40000000000000F5BE000000000000043F000000C0FF3F8F4000000000808B91BF0000000082FF16400C000000130000009A0B00003C0000000600000002000000000000C0FF3F8FC0000000000000F6BE000000000000043F000000C0FF3F8FC000000000808C91BF000000007FFF16400C00000013
310
000000A20B00003C0000000600000002000000000000E0FF3F8F4000000000508C17C0000000002FFF1240000000E0FF3F8F40000000C01C7A15C000000000DAC806400C00000013000000AA0B00003C0000000600000002000000000000C0FF3F8FC0000000E01C7A15C000000000DAC80640000000C0FF3F8FC000000000
310
508C17C0000000002FFF12400C00000013000000B20B00003C0000000600000002000000000000E0FF3F8F4000000020D6531EC0000000804A322040000000E0FF3F8F4000000040B4541AC000000000919919400C00000013000000BA0B00003C0000000600000002000000000000C0FF3F8FC000000060B4541AC0000000
310
0091991940000000C0FF3F8FC000000040D6531EC0000000804A3220400C00000013000000C20B00003C0000000600000002000000000000E0FF3F8F4000000080C63124C000000000B3C42540000000E0FF3F8F4000000000B35F21C0000000802D0423400C00000013000000CA0B00003C00000006000000020000000000
310
00C0FF3F8FC000000000B35F21C0000000802D042340000000C0FF3F8FC000000080C63124C000000000B3C425400C00000013000000D20B00003C0000000600000002000000000000C0FF3F8FC0000000E01C7A15C000000000DAC80640000000C0FF3F8FC000000000FE50E6BF00000000FA8418400C00000013000000DA
310
0B00003C0000000600000002000000000000C0FF3F8FC000000080C05F33C0000000603BAA5A40000000C0FF3F8FC0000000C022A123C00000004061F458400C00000013000000E20B00003C0000000600000002000000000000C0FF3F8FC0000000C0C05F33C0000000406C125940000000C0FF3F8FC000000040BE6B31C0
310
00000060B58D56400C00000013000000EA0B00003C0000000600000002000000000000C0FF3F8FC0000000601FAF35C00000006093085140000000C0FF3F8FC0000000C0369131C000000040277F53400C00000013000000F20B00003C0000000600000002000000000000C0FF3F8FC000000080C05F33C00000008050EE50
310
40000000C0FF3F8FC0000000C0369131C000000040277F53400C00000013000000FA0B00003C0000000600000002000000000000C0FF3F8FC000000080444934C0000000E0750B5940000000C0FF3F8FC000000040BE6B31C000000060B58D56400C00000013000000020C00003C0000000600000002000000000000C0FF3F
310
8FC0000000805AAA35C0000000A003F85840000000C0FF3F8FC000000040BE6B31C000000060B58D56400C000000130000000A0C00003C0000000600000002000000000000C0FF3F8FC0000000A028E836C0000000605FDB5840000000C0FF3F8FC000000040BE6B31C000000060B58D56400C00000013000000120C00003C
310
0000000600000002000000000000C0FF3F8FC000000040A6D637C00000004060425140000000C0FF3F8FC0000000C0369131C000000040277F53400C000000130000001A0C00003C0000000600000002000000000000C0FF3F8FC00000002067DC38C000000000DB6B5140000000C0FF3F8FC0000000C0369131C000000040
310
277F53400C00000013000000220C00003C0000000600000002000000000000C0FF3F8FC000000040ABD739C000000020799E5140000000C0FF3F8FC000000060A4DB32C0000000405A1154400C000000130000002A0C00003C0000000600000002000000000000C0FF3F8FC00000008054C93AC0000000A08BDB5140000000
310
C0FF3F8FC000000060A4DB32C0000000405A1154400C00000013000000320C00003C0000000600000002000000000000C0FF3F8FC0000000E005AC3BC00000004051235240000000C0FF3F8FC000000060A4DB32C0000000405A1154400C000000130000003A0C00003C0000000600000002000000000000C0FF3F8FC00000
310
0020B9823CC0000000A07D795240000000C0FF3F8FC000000060A4DB32C0000000405A1154400C00000013000000420C00003C0000000600000002000000000000C0FF3F8FC000000080C4453DC000000080E7DE5240000000C0FF3F8FC000000080958233C0000000E001B454400C000000130000004A0C00003C00000006
310
00000002000000000000C0FF3F8FC000000000090D38C0000000C01FB65840000000C0FF3F8FC0000000C013C432C00000004087FD55400C00000013000000520C00003C0000000600000002000000000000C0FF3F8FC0000000C02D0F39C0000000002F8B5840000000C0FF3F8FC0000000C013C432C00000004087FD5540
310
0C000000130000005A0C00003C0000000600000002000000000000C0FF3F8FC0000000200DF739C0000000C0AE5A5840000000C0FF3F8FC0000000C013C432C00000004087FD55400C00000013000000620C00003C0000000600000002000000000000C0FF3F8FC0000000C086CE3AC0000000A041235840000000C0FF3F8F
310
C0000000C013C432C00000004087FD55400C000000130000006A0C00003C0000000600000002000000000000C0FF3F8FC00000000089963BC00000000068E45740000000C0FF3F8FC0000000808B7A33C000000040EB5B55400C00000013000000720C00003C0000000600000002000000000000C0FF3F8FC0000000001D4A
310
3CC0000000009C9F5740000000C0FF3F8FC0000000808B7A33C000000040EB5B55400C000000130000007A0C00003C0000000600000002000000000000C0FF3F8FC0000000C019E43CC00000002089575740000000C0FF3F8FC0000000808B7A33C000000040EB5B55400C00000013000000820C00003C0000000600000002
310
000000000000C0FF3F8FC000000000526A3DC0000000C0680A5740000000C0FF3F8FC0000000808B7A33C000000040EB5B55400C000000130000008A0C00003C0000000600000002000000000000C0FF3F8FC000000080286B3EC00000004050D95340000000C0FF3F8FC000000080958233C0000000E001B454400C000000
310
13000000920C00003C0000000600000002000000000000C0FF3F8FC000000080FBE93DC0000000A0FD525340000000C0FF3F8FC000000080958233C0000000E001B454400C000000130000009A0C00003C0000000600000002000000000000C0FF3F8FC000000000AAB73EC00000004076635440000000C0FF3F8FC0000000
310
80958233C0000000E001B454400C00000013000000A20C00003C0000000600000002000000000000C0FF3F8FC0000000C090D03EC0000000A0D4235540000000C0FF3F8FC000000080958233C0000000E001B454400C00000013000000AA0C00003C0000000600000002000000000000C0FF3F8FC000000040057D3EC00000
310
00C0E90C5640000000C0FF3F8FC000000080958233C0000000E001B454400C00000013000000B20C00003C0000000600000002000000000000C0FF3F8FC0000000C050AF3EC0000000C0C8AF5540000000C0FF3F8FC000000080958233C0000000E001B454400C00000013000000BA0C00003C000000060000000200000000
310
0000C0FF3F8FC0000000806FD73DC0000000E02ABC5640000000C0FF3F8FC0000000808B7A33C000000040EB5B55400C00000013000000C20C00003C0000000600000002000000000000C0FF3F8FC00000004077343EC00000004088665640000000C0FF3F8FC0000000808B7A33C000000040EB5B55400C00000013000000
310
CA0C00003C0000000600000002000000000000C0FF3F8FC000000040057D3EC0000000C0E90C5640000000C0FF3F8FC0000000808B7A33C000000040EB5B55400C00000013000000D20C00003C0000000600000002000000000000C0FF3F8FC000000000AA2620C0000000C0479C5D40000000C0FF3F8FC0000000001A51E6
310
BF00000040B1775C400C00000013000000DA0C00003C0000000600000002000000000000C0FF3F8FC000000060D49E20C000000000623E5D40000000C0FF3F8FC0000000001A51E6BF00000040B1775C400C00000013000000E20C00003C0000000600000002000000000000C0FF3F8FC0000000E0236921C0000000E023E1
310
5C40000000C0FF3F8FC0000000006D56F2BF000000004A505C400C00000013000000EA0C00003C0000000600000002000000000000C0FF3F8FC0000000C094A822C000000020027C5C40000000C0FF3F8FC0000000006D56F2BF000000004A505C400C00000013000000F20C00003C0000000600000002000000000000C0FF
310
3F8FC0000000002E2D24C0000000C03B215C40000000C0FF3F8FC00000000085CCF4BF0000008088205C400C00000013000000FA0C00003C0000000600000002000000000000C0FF3F8FC0000000C060F825C0000000C01ECE5B40000000C0FF3F8FC00000000085CCF4BF0000008088205C400C00000013000000020D0000
310
3C0000000600000002000000000000C0FF3F8FC0000000007A74E5BF0000004028CA5B40000000C0FF3F8FC00000000018B4D5BF0000004045395A400C000000130000000A0D00003C0000000600000002000000000000C0FF3F8FC000000000E0B8E7BF0000000056295A40000000C0FF3F8FC0000000007A74E5BF000000
310
4028CA5B400C00000013000000120D00003C0000000600000002000000000000C0FF3F8FC0000000E0A3EB27C0000000207D865B40000000C0FF3F8FC000000000D919F2BF00000080FBF05B400C000000130000001A0D00003C0000000600000002000000000000C0FF3F8FC0000000E00DF729C0000000803D4A5B400000
310
00C0FF3F8FC000000000D919F2BF00000080FBF05B400C00000013000000220D00003C0000000600000002000000000000C0FF3F8FC0000000A0975031C0000000C0A5BB5A40000000C0FF3F8FC000000040E83A22C0000000E0502159400C000000130000002A0D00003C0000000600000002000000000000C0FF3F8FC000
310
000000423B30C00000002018D15A40000000C0FF3F8FC000000040E83A22C0000000E0502159400C00000013000000320D00003C0000000600000002000000000000C0FF3F8FC000000040604D2EC00000002050EF5A40000000C0FF3F8FC000000060CB8C20C0000000C0FC4259400C000000130000003A0D00003C000000
310
0600000002000000000000C0FF3F8FC00000008005172CC00000002027185B40000000C0FF3F8FC000000060CB8C20C0000000C0FC4259400C00000013000000420D00003C0000000600000002000000000000C0FF3F8FC00000008005172CC00000002027185B40000000C0FF3F8FC000000000D919F2BF00000080FBF05B
310
400C000000130000004A0D00003C0000000600000002000000000000C0FF3F8FC000000040C05F33C00000002003AD4E40000000C0FF3F8FC0000000C0557523C0000000409BE550400C00000013000000520D00003C0000000600000002000000000000C0FF3F8FC0000000002A1932C000000040D2934E40000000C0FF3F
310
8FC0000000C0557523C0000000409BE550400C000000130000005A0D00003C0000000600000002000000000000C0FF3F8FC00000004096B930C0000000E03F604E40000000C0FF3F8FC0000000C0557523C0000000409BE550400C00000013000000620D00003C0000000600000002000000000000C0FF3F8FC00000006005
310
962EC000000000A00E4E40000000C0FF3F8FC000000080E68D22C0000000C0E5C450400C000000130000006A0D00003C0000000600000002000000000000C0FF3F8FC000000020C2C82BC00000000085A04D40000000C0FF3F8FC000000000838021C0000000C018A950400C00000013000000720D00003C00000006000000
310
02000000000000C0FF3F8FC000000020E53129C0000000E0361B4D40000000C0FF3F8FC0000000C04B9815C0000000C09FE04F400C000000130000007A0D00003C0000000600000002000000000000C0FF3F8FC00000004045CD26C0000000A07B7D4C40000000C0FF3F8FC0000000C04B9815C0000000C09FE04F400C0000
310
0013000000820D00003C0000000600000002000000000000C0FF3F8FC0000000C0D7B424C000000040F8CC4B40000000C0FF3F8FC0000000806A370FC0000000C058034F400C000000130000008A0D00003C0000000600000002000000000000C0FF3F8FC0000000C0420123C000000040E0134B40000000C0FF3F8FC00000
310
00006F8904C00000004086114E400C00000013000000920D00003C0000000600000002000000000000C0FF3F8FC0000000E052A821C000000040E44F4A40000000C0FF3F8FC0000000003600E0BF00000080B8054C400C000000130000009A0D00003C0000000600000002000000000000C0FF3F8FC000000020AFB820C000
310
0000C08D8C4940000000C0FF3F8FC0000000003600E0BF00000080B8054C400C00000013000000A20D00003C0000000600000002000000000000C0FF3F8FC0000000803F2D20C0000000807DCD4840000000C0FF3F8FC0000000003600E0BF00000080B8054C400C00000013000000AA0D00003C0000000600000002000000
310
000000C0FF3F8FC000000040030020C00000000059134840000000C0FF3F8FC0000000003600E0BF00000080B8054C400C00000013000000B20D00003C0000000600000002000000000000C0FF3F8FC0000000A07E2E20C0000000C033A44640000000C0FF3F8FC0000000003400E0BF00000040B35042400C000000130000
310
00BA0D00003C0000000600000002000000000000C0FF3F8FC0000000607FAD20C0000000C0F96C4540000000C0FF3F8FC0000000003400E0BF00000040B35042400C00000013000000C20D00003C0000000600000002000000000000C0FF3F8FC0000000C0226C21C0000000C0DF634440000000C0FF3F8FC0000000003400
310
E0BF00000040B35042400C00000013000000CA0D00003C0000000600000002000000000000C0FF3F8FC0000000C0685B22C0000000C037844340000000C0FF3F8FC000000000180AF2BF000000C0FC6541400C00000013000000D20D00003C0000000600000002000000000000C0FF3F8FC000000060416B23C0000000C04B
310
C94240000000C0FF3F8FC000000000180AF2BF000000C0FC6541400C00000013000000DA0D00003C0000000600000002000000000000C0FF3F8FC0000000E0739624C000000040C92A4240000000C0FF3F8FC0000000005925FDBF000000C0A49440400C00000013000000E20D00003C0000000600000002000000000000C0
310
FF3F8FC0000000A0582C27C00000004038304140000000C0FF3F8FC00000000087F501C00000008075EB3F400C00000013000000EA0D00003C0000000600000002000000000000C0FF3F8FC0000000C0FA0B2AC0000000C0DC774040000000C0FF3F8FC0000000002D1B03C000000080AE9D3E400C00000013000000F20D00
310
003C0000000600000002000000000000C0FF3F8FC000000020594E2DC000000080F84F3940000000C0FF3F8FC0000000002D1B03C000000080AE9D3E400C00000013000000FA0D00003C0000000600000002000000000000C0FF3F8FC000000020CBC626C00000008087153940000000C0FF3F8FC0000000002D1B03C00000
310
0080AE9D3E400C00000013000000020E00003C0000000600000002000000000000C0FF3F8FC000000020CBC626C00000008013443540000000C0FF3F8FC0000000802B1B03C000000080F81F33400C000000130000000A0E00003C0000000600000002000000000000C0FF3F8FC0000000005F56F2BF000000006EFB1A4000
310
0000C0FF3F8FC000000000508C17C0000000002FFF12400C00000013000000120E00003C0000000600000002000000000000C0FF3F8FC000000060B4541AC00000000091991940000000C0FF3F8FC00000000077CCF4BF0000000086F71D400C000000130000001A0E00003C0000000600000002000000000000C0FF3F8FC0
310
00000000CB19F2BF000000002B782040000000C0FF3F8FC000000040D6531EC0000000804A3220400C00000013000000220E00003C0000000600000002000000000000C0FF3F8FC000000000B35F21C0000000802D042340000000C0FF3F8FC0000000005E74E5BF00000000C5AE21400C000000130000002A0E00003C0000
310
000600000002000000000000C0FF3F8FC0000000000000F7BE00000000F1672240000000C0FF3F8FC000000080C63124C000000000B3C425400C00000013000000320E00003C0000000600000002000000000000C0FF3F8FC0000000C083A928C00000000085182940000000C0FF3F8FC0000000000000F7BE000000002F01
310
2E400C000000130000003A0E00003C0000000600000002000000000000C0FF3F8FC0000000E004402BC000000000652B2B40000000C0FF3F8FC0000000000000F7BE000000002F012E400C00000013000000420E00003C0000000600000002000000000000C0FF3F8FC00000008089A529C000000080019C3440000000C0FF
310
3F8FC0000000802B1B03C000000080F81F33400C000000130000004A0E00003C0000000600000002000000000000C0FF3F8FC000000020F8012DC0000000004FFB2D40000000C0FF3F8FC00000000026FAFFBF0000008064E131400C00000013000000520E00003C0000000600000002000000000000C0FF3F8FC000000000
310
EDE92BC000000080E4823340000000C0FF3F8FC000000080F64E02C0000000800E7932400C000000130000005A0E00003C0000000600000002000000000000C0FF3F8FC00000002047512DC00000008001193240000000C0FF3F8FC000000080F64E02C0000000800E7932400C00000013000000620E00003C000000060000
310
0002000000000000C0FF3F8FC0000000E053B22DC000000080E7873040000000C0FF3F8FC00000000026FAFFBF0000008064E131400C000000130000006A0E00003C0000000600000002000000000000E0FF3F8F4000000000FE50E6BF00000000FA841840000000E0FF3F8F40000000C01C7A15C000000000DAC806400C00
310
000013000000720E00003C0000000600000002000000000000E0FF3F8F40000000C0C05F33C0000000406C125940000000E0FF3F8F4000000020BE6B31C000000040B58D56400C000000130000007A0E00003C0000000600000002000000000000E0FF3F8F4000000080C05F33C0000000603BAA5A40000000E0FF3F8F4000
310
0000C022A123C00000004061F458400C00000013000000820E00003C0000000600000002000000000000E0FF3F8F4000000080C05F33C00000008050EE5040000000E0FF3F8F40000000C0369131C000000040277F53400C000000130000008A0E00003C0000000600000002000000000000E0FF3F8F40000000C0369131C0
310
00000040277F5340000000E0FF3F8F40000000601FAF35C000000040930851400C00000013000000920E00003C0000000600000002000000000000E0FF3F8F40000000605AAA35C0000000A003F85840000000E0FF3F8F4000000020BE6B31C000000040B58D56400C000000130000009A0E00003C00000006000000020000
310
00000000E0FF3F8F4000000080444934C0000000E0750B5940000000E0FF3F8F4000000020BE6B31C000000040B58D56400C00000013000000A20E00003C0000000600000002000000000000E0FF3F8F40000000A028E836C0000000605FDB5840000000E0FF3F8F4000000020BE6B31C000000040B58D56400C0000001300
310
0000AA0E00003C0000000600000002000000000000E0FF3F8F40000000C0369131C000000040277F5340000000E0FF3F8F4000000040A6D637C000000040604251400C00000013000000B20E00003C0000000600000002000000000000E0FF3F8F40000000C0369131C000000040277F5340000000E0FF3F8F400000002067
310
DC38C000000000DB6B51400C00000013000000BA0E00003C0000000600000002000000000000E0FF3F8F4000000040A4DB32C0000000405A115440000000E0FF3F8F4000000040ABD739C000000000799E51400C00000013000000C20E00003C0000000600000002000000000000E0FF3F8F4000000040A4DB32C000000040
310
5A115440000000E0FF3F8F400000008054C93AC0000000808BDB51400C00000013000000CA0E00003C0000000600000002000000000000E0FF3F8F4000000040A4DB32C0000000405A115440000000E0FF3F8F40000000E005AC3BC000000040512352400C00000013000000D20E00003C0000000600000002000000000000
310
E0FF3F8F4000000040A4DB32C0000000405A115440000000E0FF3F8F4000000020B9823CC0000000807D7952400C00000013000000DA0E00003C0000000600000002000000000000E0FF3F8F4000000080958233C0000000C001B45440000000E0FF3F8F4000000080C4453DC000000080E7DE52400C00000013000000E20E
310
00003C0000000600000002000000000000E0FF3F8F40000000C02D0F39C0000000002F8B5840000000E0FF3F8F40000000C013C432C00000004087FD55400C00000013000000EA0E00003C0000000600000002000000000000E0FF3F8F4000000000090D38C0000000C01FB65840000000E0FF3F8F40000000C013C432C000
310
00004087FD55400C00000013000000F20E00003C0000000600000002000000000000E0FF3F8F40000000C086CE3AC0000000A041235840000000E0FF3F8F40000000C013C432C00000004087FD55400C00000013000000FA0E00003C0000000600000002000000000000E0FF3F8F40000000000DF739C0000000C0AE5A5840
310
000000E0FF3F8F40000000C013C432C00000004087FD55400C00000013000000020F00003C0000000600000002000000000000E0FF3F8F40000000808B7A33C000000040EB5B5540000000E0FF3F8F40000000001D4A3CC0000000009C9F57400C000000130000000A0F00003C0000000600000002000000000000E0FF3F8F
310
40000000808B7A33C000000040EB5B5540000000E0FF3F8F40000000E088963BC00000000068E457400C00000013000000120F00003C0000000600000002000000000000E0FF3F8F40000000808B7A33C000000040EB5B5540000000E0FF3F8F4000000000526A3DC0000000C0680A57400C000000130000001A0F00003C00
310
00000600000002000000000000E0FF3F8F40000000808B7A33C000000040EB5B5540000000E0FF3F8F40000000C019E43CC000000000895757400C00000013000000220F00003C0000000600000002000000000000E0FF3F8F4000000080958233C0000000C001B45440000000E0FF3F8F4000000080FBE93DC0000000A0FD
310
5253400C000000130000002A0F00003C0000000600000002000000000000E0FF3F8F4000000080958233C0000000C001B45440000000E0FF3F8F4000000080286B3EC00000004050D953400C00000013000000320F00003C0000000600000002000000000000E0FF3F8F4000000080958233C0000000C001B45440000000E0
310
FF3F8F40000000C0A9B73EC000000040766354400C000000130000003A0F00003C0000000600000002000000000000E0FF3F8F4000000080958233C0000000C001B45440000000E0FF3F8F400000008090D03EC0000000A0D42355400C00000013000000420F00003C0000000600000002000000000000E0FF3F8F40000000
310
80958233C0000000C001B45440000000E0FF3F8F40000000C050AF3EC0000000C0C8AF55400C000000130000004A0F00003C0000000600000002000000000000E0FF3F8F4000000080958233C0000000C001B45440000000E0FF3F8F4000000040057D3EC0000000C0E90C56400C00000013000000520F00003C0000000600
310
000002000000000000E0FF3F8F40000000808B7A33C000000040EB5B5540000000E0FF3F8F400000004077343EC000000040886656400C000000130000005A0F00003C0000000600000002000000000000E0FF3F8F40000000808B7A33C000000040EB5B5540000000E0FF3F8F40000000806FD73DC0000000E02ABC56400C
310
00000013000000620F00003C0000000600000002000000000000E0FF3F8F40000000808B7A33C000000040EB5B5540000000E0FF3F8F4000000040057D3EC0000000C0E90C56400C000000130000006A0F00003C0000000600000002000000000000E0FF3F8F4000000040D49E20C000000000623E5D40000000E0FF3F8F40
310
000000001A51E6BF00000040B1775C400C00000013000000720F00003C0000000600000002000000000000E0FF3F8F4000000000AA2620C0000000C0479C5D40000000E0FF3F8F40000000001A51E6BF00000040B1775C400C000000130000007A0F00003C0000000600000002000000000000E0FF3F8F40000000C094A822
310
C000000020027C5C40000000E0FF3F8F40000000006D56F2BF000000004A505C400C00000013000000820F00003C0000000600000002000000000000E0FF3F8F40000000C0236921C0000000E023E15C40000000E0FF3F8F40000000006D56F2BF000000004A505C400C000000130000008A0F00003C000000060000000200
310
0000000000E0FF3F8F400000000085CCF4BF0000008088205C40000000E0FF3F8F40000000C060F825C0000000C01ECE5B400C00000013000000920F00003C0000000600000002000000000000E0FF3F8F40000000E02D2D24C0000000C03B215C40000000E0FF3F8F400000000085CCF4BF0000008088205C400C00000013
310
0000009A0F00003C0000000600000002000000000000E0FF3F8F400000000018B4D5BF0000004045395A40000000E0FF3F8F40000000007A74E5BF0000004028CA5B400C00000013000000A20F00003C0000000600000002000000000000E0FF3F8F4000000000E0B8E7BF0000000056295A40000000E0FF3F8F4000000000
310
7A74E5BF0000004028CA5B400C00000013000000AA0F00003C0000000600000002000000000000E0FF3F8F4000000000D919F2BF00000080FBF05B40000000E0FF3F8F40000000C00DF729C0000000803D4A5B400C00000013000000B20F00003C0000000600000002000000000000E0FF3F8F40000000C0A3EB27C0000000
310
207D865B40000000E0FF3F8F4000000000D919F2BF00000080FBF05B400C00000013000000BA0F00003C0000000600000002000000000000E0FF3F8F4000000040E83A22C0000000E050215940000000E0FF3F8F4000000080975031C0000000C0A5BB5A400C00000013000000C20F00003C00000006000000020000000000
310
00E0FF3F8F4000000040E83A22C0000000E050215940000000E0FF3F8F4000000000423B30C00000002018D15A400C00000013000000CA0F00003C0000000600000002000000000000E0FF3F8F4000000040CB8C20C0000000C0FC425940000000E0FF3F8F4000000040604D2EC00000002050EF5A400C00000013000000D2
310
0F00003C0000000600000002000000000000E0FF3F8F4000000040CB8C20C0000000C0FC425940000000E0FF3F8F400000008005172CC00000002027185B400C00000013000000DA0F00003C0000000600000002000000000000E0FF3F8F4000000000D919F2BF00000080FBF05B40000000E0FF3F8F400000008005172CC0
310
0000002027185B400C00000013000000E20F00003C0000000600000002000000000000E0FF3F8F4000000040C05F33C00000000003AD4E40000000E0FF3F8F40000000C0557523C0000000409BE550400C00000013000000EA0F00003C0000000600000002000000000000E0FF3F8F40000000E0291932C000000040D2934E
310
40000000E0FF3F8F40000000C0557523C0000000409BE550400C00000013000000F20F00003C0000000600000002000000000000E0FF3F8F40000000C0557523C0000000409BE55040000000E0FF3F8F400000004096B930C0000000E03F604E400C00000013000000FA0F00003C0000000600000002000000000000E0FF3F
310
8F4000000080E68D22C0000000C0E5C45040000000E0FF3F8F400000004005962EC000000000A00E4E400C00000013000000021000003C0000000600000002000000000000E0FF3F8F4000000000838021C0000000C018A95040000000E0FF3F8F4000000000C2C82BC00000000085A04D400C000000130000000A1000003C
310
0000000600000002000000000000E0FF3F8F40000000A04B9815C0000000C09FE04F40000000E0FF3F8F4000000000E53129C0000000E0361B4D400C00000013000000121000003C0000000600000002000000000000E0FF3F8F40000000A04B9815C0000000C09FE04F40000000E0FF3F8F400000004045CD26C0000000A0
310
7B7D4C400C000000130000001A1000003C0000000600000002000000000000E0FF3F8F40000000006A370FC0000000C058034F40000000E0FF3F8F40000000A0D7B424C000000040F8CC4B400C00000013000000221000003C0000000600000002000000000000E0FF3F8F40000000806E8904C00000004086114E40000000
310
E0FF3F8F40000000C0420123C000000040E0134B400C000000130000002A1000003C0000000600000002000000000000E0FF3F8F40000000003400E0BF00000080B8054C40000000E0FF3F8F4000000000AFB820C0000000C08D8C49400C00000013000000321000003C0000000600000002000000000000E0FF3F8F400000
310
00003400E0BF00000080B8054C40000000E0FF3F8F40000000C052A821C000000040E44F4A400C000000130000003A1000003C0000000600000002000000000000E0FF3F8F40000000003400E0BF00000080B8054C40000000E0FF3F8F40000000803F2D20C0000000807DCD48400C00000013000000421000003C00000006
310
00000002000000000000E0FF3F8F40000000003400E0BF00000080B8054C40000000E0FF3F8F4000000040030020C000000000591348400C000000130000004A1000003C0000000600000002000000000000E0FF3F8F40000000407FAD20C0000000C0F96C4540000000E0FF3F8F40000000003200E0BF00000040B3504240
310
0C00000013000000521000003C0000000600000002000000000000E0FF3F8F40000000807E2E20C0000000C033A44640000000E0FF3F8F40000000003200E0BF00000040B35042400C000000130000005A1000003C0000000600000002000000000000E0FF3F8F40000000A0226C21C0000000C0DF634440000000E0FF3F8F
310
40000000003200E0BF00000040B35042400C00000013000000621000003C0000000600000002000000000000E0FF3F8F4000000040416B23C0000000C04BC94240000000E0FF3F8F4000000000170AF2BF000000C0FC6541400C000000130000006A1000003C0000000600000002000000000000E0FF3F8F40000000C0685B
310
22C0000000C037844340000000E0FF3F8F4000000000170AF2BF000000C0FC6541400C00000013000000721000003C0000000600000002000000000000E0FF3F8F40000000C0739624C000000040C92A4240000000E0FF3F8F40000000005825FDBF000000C0A49440400C000000130000007A1000003C0000000600000002
310
000000000000E0FF3F8F400000000087F501C00000008075EB3F40000000E0FF3F8F4000000080582C27C000000040383041400C00000013000000821000003C0000000600000002000000000000E0FF3F8F40000000802C1B03C000000080AE9D3E40000000E0FF3F8F40000000C0FA0B2AC0000000C0DC7740400C000000
310
130000008A1000003C0000000600000002000000000000E0FF3F8F40000000802C1B03C000000080AE9D3E40000000E0FF3F8F4000000020CBC626C000000080871539400C00000013000000921000003C0000000600000002000000000000E0FF3F8F40000000802C1B03C000000080AE9D3E40000000E0FF3F8F40000000
310
20594E2DC000000080F84F39400C000000130000009A1000003C0000000600000002000000000000E0FF3F8F4000000000CBC626C00000008013443540000000E0FF3F8F40000000802B1B03C000000080F81F33400C00000013000000A21000003C0000000600000002000000000000E0FF3F8F4000000000508C17C00000
310
00002FFF1240000000E0FF3F8F40000000005F56F2BF000000006EFB1A400C00000013000000AA1000003C0000000600000002000000000000E0FF3F8F400000000077CCF4BF0000000086F71D40000000E0FF3F8F4000000040B4541AC000000000919919400C00000013000000B21000003C000000060000000200000000
310
0000E0FF3F8F4000000020D6531EC0000000804A322040000000E0FF3F8F4000000000CB19F2BF000000002B7820400C00000013000000BA1000003C0000000600000002000000000000E0FF3F8F40000000005E74E5BF00000000C5AE2140000000E0FF3F8F4000000000B35F21C0000000802D0423400C00000013000000
310
C21000003C0000000600000002000000000000E0FF3F8F4000000080C63124C000000000B3C42540000000E0FF3F8F40000000000000F7BE00000000F16722400C00000013000000CA1000003C0000000600000002000000000000E0FF3F8F40000000000000F7BE000000002F012E40000000E0FF3F8F40000000C083A928
310
C000000000851829400C00000013000000D21000003C0000000600000002000000000000E0FF3F8F40000000000000F7BE000000002F012E40000000E0FF3F8F40000000C004402BC000000000652B2B400C00000013000000DA1000003C0000000600000002000000000000E0FF3F8F400000008089A529C000000080019C
310
3440000000E0FF3F8F40000000802B1B03C000000080F81F33400C00000013000000E21000003C0000000600000002000000000000E0FF3F8F4000000000F8012DC0000000004FFB2D40000000E0FF3F8F400000000026FAFFBF0000008064E131400C00000013000000EA1000003C0000000600000002000000000000E0FF
310
3F8F4000000000EDE92BC000000080E4823340000000E0FF3F8F4000000000F64E02C0000000800E7932400C00000013000000F21000003C0000000600000002000000000000E0FF3F8F400000002047512DC00000008001193240000000E0FF3F8F4000000000F64E02C0000000800E7932400C00000013000000FA100000
310
3C0000000600000002000000000000E0FF3F8F40000000C053B22DC000000080E7873040000000E0FF3F8F400000000026FAFFBF0000008064E13140
100
AcDbSubDMesh
 71
     2
 72
     0
 91
        0
 92
      252
 10
-999.9998779296875
 20
-5.00002098083496
 30
0.0873031616210938
 10
-999.9998779296875
 20
-0.0000209808349609
 30
0.0000381469726563
 10
-999.9998779296875
 20
-12.33108329772949
 30
12.54788970947265
 10
-999.9998779296875
 20
-8.686912536621093
 30
9.508159637451171
 10
-999.9998779296875
 20
-6.582719326019287
 30
6.399967193603515
 10
-999.9998779296875
 20
-5.369250774383544
 30
2.848072052001953
 10
-999.9998779296875
 20
-14.50384616851806
 30
14.99083709716797
 10
-999.9998779296875
 20
-13.62503719329834
 30
13.58475494384765
 10
-999.9998779296875
 20
-11.38826847076416
 30
21.26592254638672
 10
-999.9998779296875
 20
-12.82331466674804
 30
20.60939788818359
 10
-999.9998779296875
 20
-13.9568862915039
 30
19.51129913330078
 10
-999.9998779296875
 20
-14.65874576568603
 30
18.09767913818359
 10
-999.9998779296875
 20
-14.84829616546631
 30
16.53087615966797
 10
-999.9998779296875
 20
-11.38826847076416
 30
25.08409881591797
 10
-999.9998779296875
 20
-14.6530237197876
 30
25.31238555908203
 10
-999.9998779296875
 20
-14.65302467346191
 30
31.85784149169922
 10
-999.9998779296875
 20
-8.000024795532226
 30
48.15115356445312
 10
-999.9998779296875
 20
-8.090809822082519
 30
45.28282928466796
 10
-999.9998779296875
 20
-8.338862419128417
 30
42.85137176513671
 10
-999.9998779296875
 20
-8.71120262145996
 30
40.78026580810546
 10
-999.9998779296875
 20
-9.178533554077148
 30
39.03295135498047
 10
-999.9998779296875
 20
-9.70948314666748
 30
37.57262420654297
 10
-999.9998779296875
 20
-10.29385280609131
 30
36.33426666259766
 10
-999.9998779296875
 20
-11.58661365509033
 30
34.37671661376953
 10
-999.9998779296875
 20
-13.02339744567871
 30
32.9364242553711
 10
-999.9998779296875
 20
-19.37402725219726
 30
61.35165786743164
 10
-999.9998779296875
 20
-18.09829711914062
 30
61.15485382080078
 10
-999.9998779296875
 20
-16.72494888305664
 30
60.75194931030273
 10
-999.9998779296875
 20
-15.2930097579956
 30
60.1142578125
 10
-999.9998779296875
 20
-13.89210605621338
 30
59.25405883789062
 10
-999.9998779296875
 20
-12.59745121002197
 30
58.21261215209961
 10
-999.9998779296875
 20
-11.40091896057129
 30
56.9803352355957
 10
-999.9998779296875
 20
-10.35320854187012
 30
55.60132598876953
 10
-999.9998779296875
 20
-9.50246238708496
 30
54.15528106689453
 10
-999.9998779296875
 20
-8.828757286071777
 30
52.62415313720703
 10
-999.9998779296875
 20
-8.360711097717285
 30
51.09807586669922
 10
-999.9998779296875
 20
-8.088375091552734
 30
49.60539245605469
 10
-999.9998779296875
 20
-19.37403106689453
 30
67.72366333007813
 10
-999.9998779296875
 20
-30.71743774414063
 30
81.55409240722656
 10
-999.9998779296875
 20
-30.41858673095703
 30
79.39552307128906
 10
-999.9998779296875
 20
-29.91399383544922
 30
77.29673004150391
 10
-999.9998779296875
 20
-29.27252960205078
 30
75.48287963867188
 10
-999.9998779296875
 20
-28.51063728332519
 30
73.89829254150391
 10
-999.9998779296875
 20
-27.67196464538574
 30
72.55183410644531
 10
-999.9998779296875
 20
-26.78644561767578
 30
71.4303970336914
 10
-999.9998779296875
 20
-25.84245681762695
 30
70.47614288330078
 10
-999.9998779296875
 20
-24.86094856262207
 30
69.68524169921875
 10
-999.9998779296875
 20
-23.83847427368164
 30
69.03712463378906
 10
-999.9998779296875
 20
-21.68407249450684
 30
68.13399505615234
 10
-999.9998779296875
 20
-19.3740348815918
 30
100.287857055664
 10
-999.9998779296875
 20
-20.28620147705078
 30
100.1790695190429
 10
-999.9998779296875
 20
-21.66544342041015
 30
99.8752212524414
 10
-999.9998779296875
 20
-22.90686988830566
 30
99.42769622802735
 10
-999.9998779296875
 20
-24.05091857910156
 30
98.84568786621095
 10
-999.9998779296875
 20
-25.05929183959961
 30
98.17474365234375
 10
-999.9998779296875
 20
-25.96504402160645
 30
97.41691589355468
 10
-999.9998779296875
 20
-26.80674362182617
 30
96.55088043212892
 10
-999.9998779296875
 20
-27.58802795410157
 30
95.56884765625
 10
-999.9998779296875
 20
-28.28950500488281
 30
94.49389648437501
 10
-999.9998779296875
 20
-28.89101791381836
 30
93.36774444580077
 10
-999.9998779296875
 20
-29.41531372070313
 30
92.16264343261718
 10
-999.9998779296875
 20
-29.84154510498047
 30
90.94011688232422
 10
-999.9998779296875
 20
-30.2049446105957
 30
89.60206604003905
 10
-999.9998779296875
 20
-30.48836135864258
 30
88.20176696777343
 10
-999.9998779296875
 20
-30.6848258972168
 30
86.74662780761719
 10
-999.9998779296875
 20
-30.8147087097168
 30
84.55985260009766
 10
-999.9998779296875
 20
-19.37403106689453
 30
106.6598739624023
 10
-999.9998779296875
 20
-8.00003433227539
 30
119.8603897094726
 10
-999.9998779296875
 20
-8.075515747070312
 30
118.4418792724609
 10
-999.9998779296875
 20
-8.310214042663574
 30
116.9747314453125
 10
-999.9998779296875
 20
-8.705351829528808
 30
115.5178146362304
 10
-999.9998779296875
 20
-9.329259872436523
 30
113.937629699707
 10
-999.9998779296875
 20
-10.08824157714844
 30
112.5192718505859
 10
-999.9998779296875
 20
-10.9851131439209
 30
111.2206268310547
 10
-999.9998779296875
 20
-11.96023464202881
 30
110.1013870239258
 10
-999.9998779296875
 20
-12.98252773284912
 30
109.1600036621094
 10
-999.9998779296875
 20
-14.04496383666992
 30
108.3773880004883
 10
-999.9998779296875
 20
-15.15112495422363
 30
107.7392654418945
 10
-999.9998779296875
 20
-16.23147583007812
 30
107.2670974731445
 10
-999.9998779296875
 20
-17.3148136138916
 30
106.9319915771484
 10
-999.9998779296875
 20
-0.0000219345092773
 30
15.00231170654297
 10
-999.9998779296875
 20
-1.998571395874023
 30
17.88043975830078
 10
-999.9998779296875
 20
-2.388266563415527
 30
19.12488555908203
 10
-999.9998779296875
 20
-2.388269424438476
 30
30.61594390869141
 10
-999.9998779296875
 20
-1.82161808013916
 30
33.16127777099609
 10
-999.9998779296875
 20
-1.127464294433593
 30
34.7967758178711
 10
-999.9998779296875
 20
-0.5000247955322266
 30
36.63047027587891
 10
-999.9998779296875
 20
-0.500025749206543
 30
56.04469299316406
 10
-999.9998779296875
 20
-2.567106246948242
 30
60.13690948486328
 10
-999.9998779296875
 20
-3.902058601379394
 30
62.0261459350586
 10
-999.9998779296875
 20
-5.398726463317871
 30
63.75487518310547
 10
-999.9998779296875
 20
-8.750999450683593
 30
66.64213562011719
 10
-999.9998779296875
 20
-17.56724166870117
 30
77.98677062988281
 10
-999.9998779296875
 20
-18.85797691345215
 30
80.27113342285156
 10
-999.9998779296875
 20
-19.51009368896484
 30
82.81261444091796
 10
-999.9998779296875
 20
-19.47869110107422
 30
85.43623352050781
 10
-999.9998779296875
 20
-18.76592636108398
 30
87.96138000488282
 10
-999.9998779296875
 20
-17.42087173461914
 30
90.21419525146484
 10
-999.9998779296875
 20
-9.81471824645996
 30
99.81843566894532
 10
-999.9998779296875
 20
-9.115053176879882
 30
100.5205612182617
 10
-999.9998779296875
 20
-8.274989128112792
 30
101.0466766357422
 10
-999.9998779296875
 20
-9.277149200439453
 30
67.07652282714843
 10
-999.9998779296875
 20
-9.729169845581054
 30
67.58760070800781
 10
-999.9998779296875
 20
-0.6973867416381836
 30
6.129859924316406
 10
-999.9998779296875
 20
-1.146086692810058
 30
6.745536804199218
 10
-999.9998779296875
 20
-1.299918174743652
 30
7.491722106933593
 10
-999.9998779296875
 20
-1.13129711151123
 30
8.234703063964843
 10
-999.9998779296875
 20
-0.6704549789428711
 30
8.841346740722656
 10
-999.9998779296875
 20
-0.0000219345092773
 30
9.203010559082031
 10
-999.9998779296875
 20
-2.288556098937988
 30
18.4728775024414
 10
-999.9998779296875
 20
-0.0171375274658203
 30
5.749507904052734
 10
-999.9998779296875
 20
-2.244886398315429
 30
31.91976165771484
 10
-999.9998779296875
 20
-0.000035285949707
 30
120.0000228881836
 10
-999.9998779296875
 20
-0.7413177490234375
 30
104.6458740234375
 10
-999.9998779296875
 20
-0.0000324249267578
 30
110.7970428466797
 10
-999.9998779296875
 20
-0.6704683303833008
 30
111.158706665039
 10
-999.9998779296875
 20
-1.13131046295166
 30
111.7653503417969
 10
-999.9998779296875
 20
-1.299931526184082
 30
112.5083312988281
 10
-999.9998779296875
 20
-1.146100044250488
 30
113.2545166015625
 10
-999.9998779296875
 20
-0.6974000930786133
 30
113.8701934814453
 10
-999.9998779296875
 20
-0.01715087890625
 30
114.2505493164062
 10
-999.9998779296875
 20
-0.3391170501708984
 30
104.8948516845703
 10
-999.9998779296875
 20
-0.0000333786010742
 30
105.2246627807617
 10
999.9999389648436
 20
-5.000020503997802
 30
0.0873031616210938
 10
999.9999389648436
 20
-0.0000200271606445
 30
0.0000381469726563
 10
999.9999389648436
 20
-5.88702392578125
 30
4.749202728271484
 10
999.9999389648436
 20
-0.0000219345092773
 30
15.00231170654297
 10
999.9999389648436
 20
-12.33108329772949
 30
12.54788970947265
 10
999.9999389648436
 20
-10.09721755981445
 30
10.88417816162109
 10
999.9999389648436
 20
-13.62503623962402
 30
13.58475494384765
 10
999.9999389648436
 20
-0.0000219345092773
 30
9.203010559082031
 10
999.9999389648436
 20
-7.581871509552001
 30
8.098224639892578
 10
999.9999389648436
 20
-1.146086692810058
 30
6.745536804199218
 10
999.9999389648436
 20
-1.299918174743652
 30
7.491722106933593
 10
999.9999389648436
 20
-1.13129711151123
 30
8.234703063964843
 10
999.9999389648436
 20
-0.6704549789428711
 30
8.841346740722656
 10
999.9999389648436
 20
-0.6973867416381836
 30
6.129859924316406
 10
999.9998779296875
 20
-0.0171337127685547
 30
5.749519348144531
 10
999.9999389648436
 20
-14.50384521484375
 30
14.99083709716797
 10
999.9999389648436
 20
-14.84829521179199
 30
16.53087615966797
 10
999.9999389648436
 20
-13.9568862915039
 30
19.51129913330078
 10
999.9999389648436
 20
-11.38826751708984
 30
21.26592254638672
 10
999.9999389648436
 20
-12.82331466674804
 30
20.60939788818359
 10
999.9999389648436
 20
-2.388266563415527
 30
19.12488555908203
 10
999.9999389648436
 20
-2.38826847076416
 30
30.61594390869141
 10
999.9999389648436
 20
-11.38826847076416
 30
25.08409881591797
 10
999.9999389648436
 20
-14.65874576568603
 30
18.09767913818359
 10
999.9999389648436
 20
-1.998571395874023
 30
17.88043975830078
 10
999.9999389648436
 20
-2.288555145263671
 30
18.4728775024414
 10
999.9999389648436
 20
-14.6530237197876
 30
25.31238555908203
 10
999.9999389648436
 20
-14.65302467346191
 30
31.85784149169922
 10
999.9999389648436
 20
-2.244886398315429
 30
31.91976165771484
 10
999.9999389648436
 20
-13.02339744567871
 30
32.9364242553711
 10
999.9999389648436
 20
-0.5000247955322266
 30
56.04469299316406
 10
999.9999389648436
 20
-8.000024795532226
 30
48.15115356445312
 10
999.9999389648436
 20
-8.090808868408203
 30
45.28282928466796
 10
999.9999389648436
 20
-8.088375091552734
 30
49.60539245605469
 10
999.9999389648436
 20
-8.338861465454101
 30
42.85137176513671
 10
999.9999389648436
 20
-8.711201667785644
 30
40.78026580810546
 10
999.9999389648436
 20
-9.178533554077148
 30
39.03295135498047
 10
999.9999389648436
 20
-9.709482192993164
 30
37.57262420654297
 10
999.9999389648436
 20
-0.5000238418579102
 30
36.63047027587891
 10
999.9999389648436
 20
-10.29385185241699
 30
36.33426666259766
 10
999.9999389648436
 20
-1.127463340759277
 30
34.7967758178711
 10
999.9999389648436
 20
-11.58661270141601
 30
34.37671661376953
 10
999.9999389648436
 20
-1.821617126464843
 30
33.16127777099609
 10
999.9999389648436
 20
-3.902057647705078
 30
62.0261459350586
 10
999.9999389648436
 20
-19.37402725219726
 30
61.35165405273437
 10
999.9999389648436
 20
-18.09829521179199
 30
61.15485382080078
 10
999.9999389648436
 20
-9.729169845581054
 30
67.58760070800781
 10
999.9999389648436
 20
-19.37403106689453
 30
67.72366333007813
 10
999.9999389648436
 20
-5.398725986480712
 30
63.75487518310547
 10
999.9999389648436
 20
-8.750999450683593
 30
66.64213562011719
 10
999.9999389648436
 20
-9.277149200439453
 30
67.07652282714843
 10
999.9999389648436
 20
-16.72494888305664
 30
60.75194931030273
 10
999.9999389648436
 20
-2.567105293273925
 30
60.13690948486328
 10
999.9999389648436
 20
-15.29300880432129
 30
60.1142578125
 10
999.9999389648436
 20
-13.89210510253906
 30
59.25405883789062
 10
999.9999389648436
 20
-12.59745025634765
 30
58.21261215209961
 10
999.9999389648436
 20
-11.40091896057129
 30
56.9803352355957
 10
999.9999389648436
 20
-10.3532075881958
 30
55.60132598876953
 10
999.9999389648436
 20
-9.50246238708496
 30
54.15528106689453
 10
999.9999389648436
 20
-8.82875633239746
 30
52.62415313720703
 10
999.9999389648436
 20
-8.360710144042968
 30
51.09807586669922
 10
999.9999389648436
 20
-17.56724166870117
 30
77.98677062988281
 10
999.9999389648436
 20
-21.68407249450684
 30
68.13398742675781
 10
999.9999389648436
 20
-19.51009368896484
 30
82.81260681152344
 10
999.9999389648436
 20
-30.81470489501953
 30
84.55985260009766
 10
999.9999389648436
 20
-30.71743392944336
 30
81.55409240722656
 10
999.9999389648436
 20
-19.47869110107422
 30
85.43623352050781
 10
999.9999389648436
 20
-18.85797500610351
 30
80.27113342285156
 10
999.9999389648436
 20
-30.41858673095703
 30
79.39552307128906
 10
999.9999389648436
 20
-29.91399383544922
 30
77.29673004150391
 10
999.9999389648436
 20
-29.27252960205078
 30
75.48287963867188
 10
999.9999389648436
 20
-28.51063728332519
 30
73.89828491210938
 10
999.9999389648436
 20
-27.67196464538574
 30
72.55183410644531
 10
999.9999389648436
 20
-26.78644561767578
 30
71.43038940429687
 10
999.9999389648436
 20
-25.84245681762695
 30
70.47613525390625
 10
999.9999389648436
 20
-24.86094856262207
 30
69.68524169921875
 10
999.9999389648436
 20
-23.83847427368164
 30
69.03712463378906
 10
999.9999389648436
 20
-9.115053176879882
 30
100.5205612182617
 10
999.9999389648436
 20
-19.3740348815918
 30
100.287857055664
 10
999.9999389648436
 20
-0.0000324249267578
 30
105.2246627807617
 10
999.9999389648436
 20
-19.37403106689453
 30
106.6598739624023
 10
999.9999389648436
 20
-8.274988174438476
 30
101.0466766357422
 10
999.9999389648436
 20
-0.7413177490234375
 30
104.6458740234375
 10
999.9999389648436
 20
-0.3391170501708984
 30
104.8948516845703
 10
999.9999389648436
 20
-20.28620147705078
 30
100.1790695190429
 10
999.9999389648436
 20
-9.81471824645996
 30
99.81843566894532
 10
999.9999389648436
 20
-21.66544151306152
 30
99.8752212524414
 10
999.9999389648436
 20
-22.90686988830566
 30
99.42769622802735
 10
999.9999389648436
 20
-24.05091857910156
 30
98.84568786621095
 10
999.9999389648436
 20
-25.05929183959961
 30
98.17474365234375
 10
999.9999389648436
 20
-25.96504211425781
 30
97.41691589355468
 10
999.9999389648436
 20
-26.80674362182617
 30
96.55088043212892
 10
999.9999389648436
 20
-27.58802604675293
 30
95.56884765625
 10
999.9999389648436
 20
-28.28950500488281
 30
94.49389648437501
 10
999.9999389648436
 20
-28.89101791381836
 30
93.36773681640625
 10
999.9999389648436
 20
-29.41531372070313
 30
92.16264343261718
 10
999.9999389648436
 20
-29.84154510498047
 30
90.94011688232422
 10
999.9999389648436
 20
-17.42086982727051
 30
90.21418762207032
 10
999.9999389648436
 20
-30.2049446105957
 30
89.60206604003905
 10
999.9999389648436
 20
-18.76592636108398
 30
87.96138000488282
 10
999.9999389648436
 20
-30.48836135864258
 30
88.20176696777343
 10
999.9999389648436
 20
-30.6848258972168
 30
86.74662780761719
 10
999.9999389648436
 20
-17.31481170654297
 30
106.9319915771484
 10
999.9999389648436
 20
-0.0000343322753906
 30
120.0000228881836
 10
999.9999389648436
 20
-8.00003433227539
 30
119.8603897094726
 10
999.9999389648436
 20
-8.075515747070312
 30
118.4418792724609
 10
999.9999389648436
 20
-8.310213088989257
 30
116.9747314453125
 10
999.9999389648436
 20
-8.705350875854492
 30
115.5178146362304
 10
999.9999389648436
 20
-9.329259872436523
 30
113.937629699707
 10
999.9999389648436
 20
-0.6974000930786133
 30
113.8701934814453
 10
999.9999389648436
 20
-10.08824062347412
 30
112.5192718505859
 10
999.9998779296875
 20
-0.0171470642089844
 30
114.2505340576172
 10
999.9999389648436
 20
-1.299931526184082
 30
112.5083312988281
 10
999.9999389648436
 20
-10.9851131439209
 30
111.2206268310547
 10
999.9999389648436
 20
-1.146100044250488
 30
113.2545166015625
 10
999.9999389648436
 20
-0.6704683303833008
 30
111.158706665039
 10
999.9999389648436
 20
-11.96023368835449
 30
110.1013870239258
 10
999.9999389648436
 20
-1.13131046295166
 30
111.7653503417969
 10
999.9999389648436
 20
-0.0000324249267578
 30
110.7970428466797
 10
999.9999389648436
 20
-12.9825267791748
 30
109.1600036621094
 10
999.9999389648436
 20
-14.04496383666992
 30
108.3773880004883
 10
999.9999389648436
 20
-15.15112495422363
 30
107.7392654418945
 10
999.9999389648436
 20
-16.23147583007812
 30
107.2670974731445
 10
-999.9998779296875
 20
-10.09721755981445
 30
10.88417816162109
 10
-999.9998779296875
 20
-7.58187198638916
 30
8.098224639892578
 10
-999.9998779296875
 20
-5.88702392578125
 30
4.749202728271484
 10
999.9999389648436
 20
-5.369250297546386
 30
2.848072052001953
 10
999.9999389648436
 20
-8.686912536621093
 30
9.508159637451171
 10
999.9999389648436
 20
-6.582718849182128
 30
6.399967193603515
 93
     1382
 90
        4
 90
        1
 90
      124
 90
      123
 90
        0
 90
        4
 90
        0
 90
      123
 90
      249
 90
        5
 90
        4
 90
      248
 90
      125
 90
      251
 90
        4
 90
        4
 90
      247
 90
      131
 90
      250
 90
        3
 90
        4
 90
      246
 90
      128
 90
      127
 90
        2
 90
        4
 90
        2
 90
      127
 90
      129
 90
        7
 90
        4
 90
        7
 90
      129
 90
      138
 90
        6
 90
        4
 90
        6
 90
      138
 90
      139
 90
       12
 90
        4
 90
       12
 90
      139
 90
      146
 90
       11
 90
        4
 90
       11
 90
      146
 90
      140
 90
       10
 90
        4
 90
       10
 90
      140
 90
      142
 90
        9
 90
        4
 90
        9
 90
      142
 90
      141
 90
        8
 90
        4
 90
        8
 90
      141
 90
      145
 90
       13
 90
        4
 90
       13
 90
      145
 90
      149
 90
       14
 90
        4
 90
       14
 90
      149
 90
      150
 90
       15
 90
        4
 90
       15
 90
      150
 90
      152
 90
       24
 90
        4
 90
       24
 90
      152
 90
      164
 90
       23
 90
        4
 90
       23
 90
      164
 90
      162
 90
       22
 90
        4
 90
       22
 90
      162
 90
      160
 90
       21
 90
        4
 90
       21
 90
      160
 90
      159
 90
       20
 90
        4
 90
       20
 90
      159
 90
      158
 90
       19
 90
        4
 90
       19
 90
      158
 90
      157
 90
       18
 90
        4
 90
       18
 90
      157
 90
      155
 90
       17
 90
        4
 90
       17
 90
      155
 90
      154
 90
       16
 90
        4
 90
       16
 90
      154
 90
      156
 90
       36
 90
        4
 90
       36
 90
      156
 90
      183
 90
       35
 90
        4
 90
       35
 90
      183
 90
      182
 90
       34
 90
        4
 90
       34
 90
      182
 90
      181
 90
       33
 90
        4
 90
       33
 90
      181
 90
      180
 90
       32
 90
        4
 90
       32
 90
      180
 90
      179
 90
       31
 90
        4
 90
       31
 90
      179
 90
      178
 90
       30
 90
        4
 90
       30
 90
      178
 90
      177
 90
       29
 90
        4
 90
       29
 90
      177
 90
      176
 90
       28
 90
        4
 90
       28
 90
      176
 90
      174
 90
       27
 90
        4
 90
       27
 90
      174
 90
      168
 90
       26
 90
        4
 90
       26
 90
      168
 90
      167
 90
       25
 90
        4
 90
       25
 90
      167
 90
      170
 90
       37
 90
        4
 90
       37
 90
      170
 90
      185
 90
       48
 90
        4
 90
       48
 90
      185
 90
      199
 90
       47
 90
        4
 90
       47
 90
      199
 90
      198
 90
       46
 90
        4
 90
       46
 90
      198
 90
      197
 90
       45
 90
        4
 90
       45
 90
      197
 90
      196
 90
       44
 90
        4
 90
       44
 90
      196
 90
      195
 90
       43
 90
        4
 90
       43
 90
      195
 90
      194
 90
       42
 90
        4
 90
       42
 90
      194
 90
      193
 90
       41
 90
        4
 90
       41
 90
      193
 90
      192
 90
       40
 90
        4
 90
       40
 90
      192
 90
      191
 90
       39
 90
        4
 90
       39
 90
      191
 90
      188
 90
       38
 90
        4
 90
       38
 90
      188
 90
      187
 90
       65
 90
        4
 90
       65
 90
      187
 90
      224
 90
       64
 90
        4
 90
       64
 90
      224
 90
      223
 90
       63
 90
        4
 90
       63
 90
      223
 90
      221
 90
       62
 90
        4
 90
       62
 90
      221
 90
      219
 90
       61
 90
        4
 90
       61
 90
      219
 90
      218
 90
       60
 90
        4
 90
       60
 90
      218
 90
      217
 90
       59
 90
        4
 90
       59
 90
      217
 90
      216
 90
       58
 90
        4
 90
       58
 90
      216
 90
      215
 90
       57
 90
        4
 90
       57
 90
      215
 90
      214
 90
       56
 90
        4
 90
       56
 90
      214
 90
      213
 90
       55
 90
        4
 90
       55
 90
      213
 90
      212
 90
       54
 90
        4
 90
       54
 90
      212
 90
      211
 90
       53
 90
        4
 90
       53
 90
      211
 90
      210
 90
       52
 90
        4
 90
       52
 90
      210
 90
      209
 90
       51
 90
        4
 90
       51
 90
      209
 90
      207
 90
       50
 90
        4
 90
       50
 90
      207
 90
      201
 90
       49
 90
        4
 90
       49
 90
      201
 90
      203
 90
       66
 90
        4
 90
       66
 90
      203
 90
      225
 90
       79
 90
        4
 90
       79
 90
      225
 90
      245
 90
       78
 90
        4
 90
       78
 90
      245
 90
      244
 90
       77
 90
        4
 90
       77
 90
      244
 90
      243
 90
       76
 90
        4
 90
       76
 90
      243
 90
      242
 90
       75
 90
        4
 90
       75
 90
      242
 90
      239
 90
       74
 90
        4
 90
       74
 90
      239
 90
      236
 90
       73
 90
        4
 90
       73
 90
      236
 90
      233
 90
       72
 90
        4
 90
       72
 90
      233
 90
      231
 90
       71
 90
        4
 90
       71
 90
      231
 90
      230
 90
       70
 90
        4
 90
       70
 90
      230
 90
      229
 90
       69
 90
        4
 90
       69
 90
      229
 90
      228
 90
       68
 90
        4
 90
       68
 90
      228
 90
      227
 90
       67
 90
        4
 90
       67
 90
      227
 90
      226
 90
      112
 90
        4
 90
      112
 90
      226
 90
      234
 90
      120
 90
        4
 90
      120
 90
      234
 90
      232
 90
      119
 90
        4
 90
      119
 90
      232
 90
      237
 90
      118
 90
        4
 90
      118
 90
      237
 90
      235
 90
      117
 90
        4
 90
      117
 90
      235
 90
      240
 90
      116
 90
        4
 90
      116
 90
      240
 90
      238
 90
      115
 90
        4
 90
      115
 90
      238
 90
      241
 90
      114
 90
        4
 90
      114
 90
      241
 90
      202
 90
      122
 90
        4
 90
      122
 90
      202
 90
      206
 90
      121
 90
        4
 90
      121
 90
      206
 90
      205
 90
      113
 90
        4
 90
      113
 90
      205
 90
      204
 90
      100
 90
        4
 90
      100
 90
      204
 90
      200
 90
       99
 90
        4
 90
       99
 90
      200
 90
      208
 90
       98
 90
        4
 90
       98
 90
      208
 90
      220
 90
       97
 90
        4
 90
       97
 90
      220
 90
      222
 90
       96
 90
        4
 90
       96
 90
      222
 90
      189
 90
       95
 90
        4
 90
       95
 90
      189
 90
      186
 90
       94
 90
        4
 90
       94
 90
      186
 90
      190
 90
       93
 90
        4
 90
       93
 90
      190
 90
      184
 90
       92
 90
        4
 90
       92
 90
      184
 90
      169
 90
      102
 90
        4
 90
      102
 90
      169
 90
      173
 90
      101
 90
        4
 90
      101
 90
      173
 90
      172
 90
       91
 90
        4
 90
       91
 90
      172
 90
      171
 90
       90
 90
        4
 90
       90
 90
      171
 90
      166
 90
       89
 90
        4
 90
       89
 90
      166
 90
      175
 90
       88
 90
        4
 90
       88
 90
      175
 90
      153
 90
       87
 90
        4
 90
       87
 90
      153
 90
      161
 90
       86
 90
        4
 90
       86
 90
      161
 90
      163
 90
       85
 90
        4
 90
       85
 90
      163
 90
      165
 90
       84
 90
        4
 90
       84
 90
      165
 90
      151
 90
      111
 90
        4
 90
      111
 90
      151
 90
      144
 90
       83
 90
        4
 90
       83
 90
      144
 90
      143
 90
       82
 90
        4
 90
       82
 90
      143
 90
      148
 90
      109
 90
        4
 90
      109
 90
      148
 90
      147
 90
       81
 90
        4
 90
       81
 90
      147
 90
      126
 90
       80
 90
        4
 90
       80
 90
      126
 90
      130
 90
      108
 90
        4
 90
      108
 90
      130
 90
      135
 90
      107
 90
        4
 90
      107
 90
      135
 90
      134
 90
      106
 90
        4
 90
      106
 90
      134
 90
      133
 90
      105
 90
        4
 90
      105
 90
      133
 90
      132
 90
      104
 90
        4
 90
      104
 90
      132
 90
      136
 90
      103
 90
        4
 90
      103
 90
      136
 90
      137
 90
      110
 90
        4
 90
      110
 90
      137
 90
      124
 90
        1
 90
        4
 90
      249
 90
      125
 90
      248
 90
        5
 90
        4
 90
      251
 90
      131
 90
      247
 90
        4
 90
        4
 90
      250
 90
      128
 90
      246
 90
        3
 90
        5
 90
        0
 90
        5
 90
      103
 90
      110
 90
        1
 90
        4
 90
       49
 90
       66
 90
       98
 90
       97
 90
        3
 90
       37
 90
       48
 90
       92
 90
        3
 90
       51
 90
       50
 90
       97
 90
        3
 90
       50
 90
       49
 90
       97
 90
        3
 90
       52
 90
       51
 90
       97
 90
        3
 90
       48
 90
       47
 90
       92
 90
        3
 90
       47
 90
       46
 90
       92
 90
        4
 90
       46
 90
       45
 90
       93
 90
       92
 90
        3
 90
       45
 90
       44
 90
       93
 90
        3
 90
       44
 90
       43
 90
       93
 90
        3
 90
       43
 90
       42
 90
       93
 90
        4
 90
       42
 90
       41
 90
       94
 90
       93
 90
        3
 90
       54
 90
       53
 90
       96
 90
        4
 90
       53
 90
       52
 90
       97
 90
       96
 90
        3
 90
       56
 90
       55
 90
       96
 90
        3
 90
       55
 90
       54
 90
       96
 90
        3
 90
       58
 90
       57
 90
       95
 90
        4
 90
       57
 90
       56
 90
       96
 90
       95
 90
        3
 90
       60
 90
       59
 90
       95
 90
        3
 90
       59
 90
       58
 90
       95
 90
        3
 90
       40
 90
       39
 90
       94
 90
        3
 90
       41
 90
       40
 90
       94
 90
        3
 90
       39
 90
       38
 90
       94
 90
        3
 90
       38
 90
       65
 90
       94
 90
        3
 90
       64
 90
       63
 90
       94
 90
        3
 90
       65
 90
       64
 90
       94
 90
        3
 90
       62
 90
       61
 90
       95
 90
        3
 90
       61
 90
       60
 90
       95
 90
        3
 90
       63
 90
       62
 90
       95
 90
        3
 90
       63
 90
       95
 90
       94
 90
        3
 90
       69
 90
       68
 90
      119
 90
        5
 90
       68
 90
       67
 90
      112
 90
      120
 90
      119
 90
        3
 90
       71
 90
       70
 90
      118
 90
        4
 90
       70
 90
       69
 90
      119
 90
      118
 90
        3
 90
       73
 90
       72
 90
      117
 90
        4
 90
       72
 90
       71
 90
      118
 90
      117
 90
        4
 90
      115
 90
      114
 90
      122
 90
      121
 90
        3
 90
      115
 90
      121
 90
      113
 90
        3
 90
       75
 90
       74
 90
      116
 90
        4
 90
       74
 90
       73
 90
      117
 90
      116
 90
        4
 90
       66
 90
       79
 90
       99
 90
       98
 90
        3
 90
       79
 90
       78
 90
       99
 90
        4
 90
       78
 90
       77
 90
      100
 90
       99
 90
        3
 90
       77
 90
       76
 90
      100
 90
        5
 90
       76
 90
      116
 90
      115
 90
      113
 90
      100
 90
        3
 90
       76
 90
       75
 90
      116
 90
        4
 90
       25
 90
       37
 90
       92
 90
      102
 90
        3
 90
       26
 90
       25
 90
      102
 90
        3
 90
       27
 90
       26
 90
      102
 90
        4
 90
       28
 90
       27
 90
      102
 90
      101
 90
        4
 90
       29
 90
       28
 90
      101
 90
       91
 90
        4
 90
       30
 90
       29
 90
       91
 90
       90
 90
        3
 90
       31
 90
       30
 90
       90
 90
        4
 90
       32
 90
       31
 90
       90
 90
       89
 90
        4
 90
       33
 90
       32
 90
       89
 90
       88
 90
        3
 90
       35
 90
       34
 90
       87
 90
        4
 90
       34
 90
       33
 90
       88
 90
       87
 90
        3
 90
       36
 90
       35
 90
       87
 90
        3
 90
       16
 90
       36
 90
       87
 90
        3
 90
       18
 90
       17
 90
       86
 90
        4
 90
       17
 90
       16
 90
       87
 90
       86
 90
        3
 90
       19
 90
       18
 90
       86
 90
        3
 90
       21
 90
       20
 90
       85
 90
        4
 90
       20
 90
       19
 90
       86
 90
       85
 90
        4
 90
       22
 90
       21
 90
       85
 90
       84
 90
        4
 90
       23
 90
       22
 90
       84
 90
      111
 90
        4
 90
       24
 90
       23
 90
      111
 90
       83
 90
        3
 90
       13
 90
       14
 90
       83
 90
        4
 90
       14
 90
       15
 90
       24
 90
       83
 90
        4
 90
        8
 90
       13
 90
       83
 90
       82
 90
        4
 90
        5
 90
      248
 90
      104
 90
      103
 90
        4
 90
      248
 90
        4
 90
      105
 90
      104
 90
        4
 90
        4
 90
      247
 90
      106
 90
      105
 90
        4
 90
      247
 90
        3
 90
      107
 90
      106
 90
        4
 90
        3
 90
      246
 90
      108
 90
      107
 90
        4
 90
      246
 90
        2
 90
       80
 90
      108
 90
        3
 90
        2
 90
        7
 90
       80
 90
        3
 90
        9
 90
        8
 90
       82
 90
        4
 90
        7
 90
        6
 90
       81
 90
       80
 90
        4
 90
       10
 90
        9
 90
       82
 90
      109
 90
        3
 90
       11
 90
       10
 90
      109
 90
        3
 90
        6
 90
       12
 90
       81
 90
        4
 90
       12
 90
       11
 90
      109
 90
       81
 90
        5
 90
      123
 90
      124
 90
      137
 90
      136
 90
      249
 90
        4
 90
      201
 90
      220
 90
      208
 90
      203
 90
        3
 90
      170
 90
      184
 90
      185
 90
        3
 90
      209
 90
      220
 90
      207
 90
        3
 90
      207
 90
      220
 90
      201
 90
        3
 90
      210
 90
      220
 90
      209
 90
        3
 90
      185
 90
      184
 90
      199
 90
        3
 90
      199
 90
      184
 90
      198
 90
        4
 90
      198
 90
      184
 90
      190
 90
      197
 90
        3
 90
      197
 90
      190
 90
      196
 90
        3
 90
      196
 90
      190
 90
      195
 90
        3
 90
      195
 90
      190
 90
      194
 90
        4
 90
      194
 90
      190
 90
      186
 90
      193
 90
        3
 90
      212
 90
      222
 90
      211
 90
        4
 90
      211
 90
      222
 90
      220
 90
      210
 90
        3
 90
      214
 90
      222
 90
      213
 90
        3
 90
      213
 90
      222
 90
      212
 90
        3
 90
      216
 90
      189
 90
      215
 90
        4
 90
      215
 90
      189
 90
      222
 90
      214
 90
        3
 90
      218
 90
      189
 90
      217
 90
        3
 90
      217
 90
      189
 90
      216
 90
        3
 90
      192
 90
      186
 90
      191
 90
        3
 90
      193
 90
      186
 90
      192
 90
        3
 90
      191
 90
      186
 90
      188
 90
        3
 90
      188
 90
      186
 90
      187
 90
        3
 90
      224
 90
      186
 90
      223
 90
        3
 90
      187
 90
      186
 90
      224
 90
        3
 90
      221
 90
      189
 90
      219
 90
        3
 90
      219
 90
      189
 90
      218
 90
        3
 90
      223
 90
      189
 90
      221
 90
        3
 90
      223
 90
      186
 90
      189
 90
        3
 90
      229
 90
      232
 90
      228
 90
        5
 90
      228
 90
      232
 90
      234
 90
      226
 90
      227
 90
        3
 90
      231
 90
      237
 90
      230
 90
        4
 90
      230
 90
      237
 90
      232
 90
      229
 90
        3
 90
      236
 90
      235
 90
      233
 90
        4
 90
      233
 90
      235
 90
      237
 90
      231
 90
        4
 90
      238
 90
      206
 90
      202
 90
      241
 90
        3
 90
      238
 90
      205
 90
      206
 90
        3
 90
      242
 90
      240
 90
      239
 90
        4
 90
      239
 90
      240
 90
      235
 90
      236
 90
        4
 90
      203
 90
      208
 90
      200
 90
      225
 90
        3
 90
      225
 90
      200
 90
      245
 90
        4
 90
      245
 90
      200
 90
      204
 90
      244
 90
        3
 90
      244
 90
      204
 90
      243
 90
        5
 90
      243
 90
      204
 90
      205
 90
      238
 90
      240
 90
        3
 90
      243
 90
      240
 90
      242
 90
        4
 90
      167
 90
      169
 90
      184
 90
      170
 90
        3
 90
      168
 90
      169
 90
      167
 90
        3
 90
      174
 90
      169
 90
      168
 90
        4
 90
      176
 90
      173
 90
      169
 90
      174
 90
        4
 90
      177
 90
      172
 90
      173
 90
      176
 90
        4
 90
      178
 90
      171
 90
      172
 90
      177
 90
        3
 90
      179
 90
      171
 90
      178
 90
        4
 90
      180
 90
      166
 90
      171
 90
      179
 90
        4
 90
      181
 90
      175
 90
      166
 90
      180
 90
        3
 90
      183
 90
      153
 90
      182
 90
        4
 90
      182
 90
      153
 90
      175
 90
      181
 90
        3
 90
      156
 90
      153
 90
      183
 90
        3
 90
      154
 90
      153
 90
      156
 90
        3
 90
      157
 90
      161
 90
      155
 90
        4
 90
      155
 90
      161
 90
      153
 90
      154
 90
        3
 90
      158
 90
      161
 90
      157
 90
        3
 90
      160
 90
      163
 90
      159
 90
        4
 90
      159
 90
      163
 90
      161
 90
      158
 90
        4
 90
      162
 90
      165
 90
      163
 90
      160
 90
        4
 90
      164
 90
      151
 90
      165
 90
      162
 90
        4
 90
      152
 90
      144
 90
      151
 90
      164
 90
        3
 90
      145
 90
      144
 90
      149
 90
        4
 90
      149
 90
      144
 90
      152
 90
      150
 90
        4
 90
      141
 90
      143
 90
      144
 90
      145
 90
        4
 90
      249
 90
      136
 90
      132
 90
      125
 90
        4
 90
      125
 90
      132
 90
      133
 90
      251
 90
        4
 90
      251
 90
      133
 90
      134
 90
      131
 90
        4
 90
      131
 90
      134
 90
      135
 90
      250
 90
        4
 90
      250
 90
      135
 90
      130
 90
      128
 90
        4
 90
      128
 90
      130
 90
      126
 90
      127
 90
        3
 90
      127
 90
      126
 90
      129
 90
        3
 90
      142
 90
      143
 90
      141
 90
        4
 90
      129
 90
      126
 90
      147
 90
      138
 90
        4
 90
      140
 90
      148
 90
      143
 90
      142
 90
        3
 90
      146
 90
      148
 90
      140
 90
        3
 90
      138
 90
      147
 90
      139
 90
        4
 90
      139
 90
      147
 90
      148
 90
      146
 94
      544
 90
        1
 90
      124
 90
      123
 90
      124
 90
        0
 90
      123
 90
        0
 90
        1
 90
      123
 90
      249
 90
        5
 90
      249
 90
        0
 90
        5
 90
      125
 90
      248
 90
      125
 90
      251
 90
        4
 90
      251
 90
        4
 90
      248
 90
      131
 90
      247
 90
      131
 90
      250
 90
        3
 90
      250
 90
        3
 90
      247
 90
      128
 90
      246
 90
      127
 90
      128
 90
        2
 90
      127
 90
        2
 90
      246
 90
      127
 90
      129
 90
        7
 90
      129
 90
        2
 90
        7
 90
      129
 90
      138
 90
        6
 90
      138
 90
        6
 90
        7
 90
      138
 90
      139
 90
       12
 90
      139
 90
        6
 90
       12
 90
      139
 90
      146
 90
       11
 90
      146
 90
       11
 90
       12
 90
      140
 90
      146
 90
       10
 90
      140
 90
       10
 90
       11
 90
      140
 90
      142
 90
        9
 90
      142
 90
        9
 90
       10
 90
      141
 90
      142
 90
        8
 90
      141
 90
        8
 90
        9
 90
      141
 90
      145
 90
       13
 90
      145
 90
        8
 90
       13
 90
      145
 90
      149
 90
       14
 90
      149
 90
       13
 90
       14
 90
      149
 90
      150
 90
       15
 90
      150
 90
       14
 90
       15
 90
      150
 90
      152
 90
       24
 90
      152
 90
       15
 90
       24
 90
      152
 90
      164
 90
       23
 90
      164
 90
       23
 90
       24
 90
      162
 90
      164
 90
       22
 90
      162
 90
       22
 90
       23
 90
      160
 90
      162
 90
       21
 90
      160
 90
       21
 90
       22
 90
      159
 90
      160
 90
       20
 90
      159
 90
       20
 90
       21
 90
      158
 90
      159
 90
       19
 90
      158
 90
       19
 90
       20
 90
      157
 90
      158
 90
       18
 90
      157
 90
       18
 90
       19
 90
      155
 90
      157
 90
       17
 90
      155
 90
       17
 90
       18
 90
      154
 90
      155
 90
       16
 90
      154
 90
       16
 90
       17
 90
      154
 90
      156
 90
       36
 90
      156
 90
       16
 90
       36
 90
      156
 90
      183
 90
       35
 90
      183
 90
       35
 90
       36
 90
      182
 90
      183
 90
       34
 90
      182
 90
       34
 90
       35
 90
      181
 90
      182
 90
       33
 90
      181
 90
       33
 90
       34
 90
      180
 90
      181
 90
       32
 90
      180
 90
       32
 90
       33
 90
      179
 90
      180
 90
       31
 90
      179
 90
       31
 90
       32
 90
      178
 90
      179
 90
       30
 90
      178
 90
       30
 90
       31
 90
      177
 90
      178
 90
       29
 90
      177
 90
       29
 90
       30
 90
      176
 90
      177
 90
       28
 90
      176
 90
       28
 90
       29
 90
      174
 90
      176
 90
       27
 90
      174
 90
       27
 90
       28
 90
      168
 90
      174
 90
       26
 90
      168
 90
       26
 90
       27
 90
      167
 90
      168
 90
       25
 90
      167
 90
       25
 90
       26
 90
      167
 90
      170
 90
       37
 90
      170
 90
       25
 90
       37
 90
      170
 90
      185
 90
       48
 90
      185
 90
       37
 90
       48
 90
      185
 90
      199
 90
       47
 90
      199
 90
       47
 90
       48
 90
      198
 90
      199
 90
       46
 90
      198
 90
       46
 90
       47
 90
      197
 90
      198
 90
       45
 90
      197
 90
       45
 90
       46
 90
      196
 90
      197
 90
       44
 90
      196
 90
       44
 90
       45
 90
      195
 90
      196
 90
       43
 90
      195
 90
       43
 90
       44
 90
      194
 90
      195
 90
       42
 90
      194
 90
       42
 90
       43
 90
      193
 90
      194
 90
       41
 90
      193
 90
       41
 90
       42
 90
      192
 90
      193
 90
       40
 90
      192
 90
       40
 90
       41
 90
      191
 90
      192
 90
       39
 90
      191
 90
       39
 90
       40
 90
      188
 90
      191
 90
       38
 90
      188
 90
       38
 90
       39
 90
      187
 90
      188
 90
       65
 90
      187
 90
       38
 90
       65
 90
      187
 90
      224
 90
       64
 90
      224
 90
       64
 90
       65
 90
      223
 90
      224
 90
       63
 90
      223
 90
       63
 90
       64
 90
      221
 90
      223
 90
       62
 90
      221
 90
       62
 90
       63
 90
      219
 90
      221
 90
       61
 90
      219
 90
       61
 90
       62
 90
      218
 90
      219
 90
       60
 90
      218
 90
       60
 90
       61
 90
      217
 90
      218
 90
       59
 90
      217
 90
       59
 90
       60
 90
      216
 90
      217
 90
       58
 90
      216
 90
       58
 90
       59
 90
      215
 90
      216
 90
       57
 90
      215
 90
       57
 90
       58
 90
      214
 90
      215
 90
       56
 90
      214
 90
       56
 90
       57
 90
      213
 90
      214
 90
       55
 90
      213
 90
       55
 90
       56
 90
      212
 90
      213
 90
       54
 90
      212
 90
       54
 90
       55
 90
      211
 90
      212
 90
       53
 90
      211
 90
       53
 90
       54
 90
      210
 90
      211
 90
       52
 90
      210
 90
       52
 90
       53
 90
      209
 90
      210
 90
       51
 90
      209
 90
       51
 90
       52
 90
      207
 90
      209
 90
       50
 90
      207
 90
       50
 90
       51
 90
      201
 90
      207
 90
       49
 90
      201
 90
       49
 90
       50
 90
      201
 90
      203
 90
       66
 90
      203
 90
       49
 90
       66
 90
      203
 90
      225
 90
       79
 90
      225
 90
       66
 90
       79
 90
      225
 90
      245
 90
       78
 90
      245
 90
       78
 90
       79
 90
      244
 90
      245
 90
       77
 90
      244
 90
       77
 90
       78
 90
      243
 90
      244
 90
       76
 90
      243
 90
       76
 90
       77
 90
      242
 90
      243
 90
       75
 90
      242
 90
       75
 90
       76
 90
      239
 90
      242
 90
       74
 90
      239
 90
       74
 90
       75
 90
      236
 90
      239
 90
       73
 90
      236
 90
       73
 90
       74
 90
      233
 90
      236
 90
       72
 90
      233
 90
       72
 90
       73
 90
      231
 90
      233
 90
       71
 90
      231
 90
       71
 90
       72
 90
      230
 90
      231
 90
       70
 90
      230
 90
       70
 90
       71
 90
      229
 90
      230
 90
       69
 90
      229
 90
       69
 90
       70
 90
      228
 90
      229
 90
       68
 90
      228
 90
       68
 90
       69
 90
      227
 90
      228
 90
       67
 90
      227
 90
       67
 90
       68
 90
      226
 90
      227
 90
      112
 90
      226
 90
       67
 90
      112
 90
      226
 90
      234
 90
      120
 90
      234
 90
      112
 90
      120
 90
      232
 90
      234
 90
      119
 90
      232
 90
      119
 90
      120
 90
      232
 90
      237
 90
      118
 90
      237
 90
      118
 90
      119
 90
      235
 90
      237
 90
      117
 90
      235
 90
      117
 90
      118
 90
      235
 90
      240
 90
      116
 90
      240
 90
      116
 90
      117
 90
      238
 90
      240
 90
      115
 90
      238
 90
      115
 90
      116
 90
      238
 90
      241
 90
      114
 90
      241
 90
      114
 90
      115
 90
      202
 90
      241
 90
      122
 90
      202
 90
      114
 90
      122
 90
      202
 90
      206
 90
      121
 90
      206
 90
      121
 90
      122
 90
      205
 90
      206
 90
      113
 90
      205
 90
      113
 90
      121
 90
      204
 90
      205
 90
      100
 90
      204
 90
      100
 90
      113
 90
      200
 90
      204
 90
       99
 90
      200
 90
       99
 90
      100
 90
      200
 90
      208
 90
       98
 90
      208
 90
       98
 90
       99
 90
      208
 90
      220
 90
       97
 90
      220
 90
       97
 90
       98
 90
      220
 90
      222
 90
       96
 90
      222
 90
       96
 90
       97
 90
      189
 90
      222
 90
       95
 90
      189
 90
       95
 90
       96
 90
      186
 90
      189
 90
       94
 90
      186
 90
       94
 90
       95
 90
      186
 90
      190
 90
       93
 90
      190
 90
       93
 90
       94
 90
      184
 90
      190
 90
       92
 90
      184
 90
       92
 90
       93
 90
      169
 90
      184
 90
      102
 90
      169
 90
       92
 90
      102
 90
      169
 90
      173
 90
      101
 90
      173
 90
      101
 90
      102
 90
      172
 90
      173
 90
       91
 90
      172
 90
       91
 90
      101
 90
      171
 90
      172
 90
       90
 90
      171
 90
       90
 90
       91
 90
      166
 90
      171
 90
       89
 90
      166
 90
       89
 90
       90
 90
      166
 90
      175
 90
       88
 90
      175
 90
       88
 90
       89
 90
      153
 90
      175
 90
       87
 90
      153
 90
       87
 90
       88
 90
      153
 90
      161
 90
       86
 90
      161
 90
       86
 90
       87
 90
      161
 90
      163
 90
       85
 90
      163
 90
       85
 90
       86
 90
      163
 90
      165
 90
       84
 90
      165
 90
       84
 90
       85
 90
      151
 90
      165
 90
      111
 90
      151
 90
       84
 90
      111
 90
      144
 90
      151
 90
       83
 90
      144
 90
       83
 90
      111
 90
      143
 90
      144
 90
       82
 90
      143
 90
       82
 90
       83
 90
      143
 90
      148
 90
      109
 90
      148
 90
       82
 90
      109
 90
      147
 90
      148
 90
       81
 90
      147
 90
       81
 90
      109
 90
      126
 90
      147
 90
       80
 90
      126
 90
       80
 90
       81
 90
      126
 90
      130
 90
      108
 90
      130
 90
       80
 90
      108
 90
      130
 90
      135
 90
      107
 90
      135
 90
      107
 90
      108
 90
      134
 90
      135
 90
      106
 90
      134
 90
      106
 90
      107
 90
      133
 90
      134
 90
      105
 90
      133
 90
      105
 90
      106
 90
      132
 90
      133
 90
      104
 90
      132
 90
      104
 90
      105
 90
      132
 90
      136
 90
      103
 90
      136
 90
      103
 90
      104
 90
      136
 90
      137
 90
      110
 90
      137
 90
      103
 90
      110
 90
      124
 90
      137
 90
        1
 90
      110
 90
      125
 90
      249
 90
        5
 90
      248
 90
      131
 90
      251
 90
        4
 90
      247
 90
      128
 90
      250
 90
        3
 90
      246
 90
        5
 90
      103
 90
       66
 90
       98
 90
       49
 90
       97
 90
       48
 90
       92
 90
       37
 90
       92
 90
       50
 90
       97
 90
       51
 90
       97
 90
       52
 90
       97
 90
       47
 90
       92
 90
       46
 90
       92
 90
       45
 90
       93
 90
       44
 90
       93
 90
       43
 90
       93
 90
       42
 90
       93
 90
       41
 90
       94
 90
       53
 90
       96
 90
       54
 90
       96
 90
       55
 90
       96
 90
       56
 90
       96
 90
       57
 90
       95
 90
       58
 90
       95
 90
       59
 90
       95
 90
       60
 90
       95
 90
       39
 90
       94
 90
       40
 90
       94
 90
       38
 90
       94
 90
       65
 90
       94
 90
       63
 90
       94
 90
       64
 90
       94
 90
       61
 90
       95
 90
       62
 90
       95
 90
       63
 90
       95
 90
       68
 90
      119
 90
       69
 90
      119
 90
       70
 90
      118
 90
       71
 90
      118
 90
       72
 90
      117
 90
       73
 90
      117
 90
      115
 90
      121
 90
      113
 90
      115
 90
       74
 90
      116
 90
       75
 90
      116
 90
       79
 90
       99
 90
       78
 90
       99
 90
       77
 90
      100
 90
       76
 90
      100
 90
       76
 90
      116
 90
       25
 90
      102
 90
       26
 90
      102
 90
       27
 90
      102
 90
       28
 90
      101
 90
       29
 90
       91
 90
       30
 90
       90
 90
       31
 90
       90
 90
       32
 90
       89
 90
       33
 90
       88
 90
       34
 90
       87
 90
       35
 90
       87
 90
       36
 90
       87
 90
       16
 90
       87
 90
       17
 90
       86
 90
       18
 90
       86
 90
       19
 90
       86
 90
       20
 90
       85
 90
       21
 90
       85
 90
       22
 90
       84
 90
       23
 90
      111
 90
       24
 90
       83
 90
       14
 90
       83
 90
       13
 90
       83
 90
        8
 90
       82
 90
      104
 90
      248
 90
        4
 90
      105
 90
      106
 90
      247
 90
        3
 90
      107
 90
      108
 90
      246
 90
        2
 90
       80
 90
        7
 90
       80
 90
        9
 90
       82
 90
        6
 90
       81
 90
       10
 90
      109
 90
       11
 90
      109
 90
       12
 90
       81
 90
      136
 90
      249
 90
      201
 90
      220
 90
      203
 90
      208
 90
      170
 90
      184
 90
      184
 90
      185
 90
      209
 90
      220
 90
      207
 90
      220
 90
      210
 90
      220
 90
      184
 90
      199
 90
      184
 90
      198
 90
      190
 90
      197
 90
      190
 90
      196
 90
      190
 90
      195
 90
      190
 90
      194
 90
      186
 90
      193
 90
      212
 90
      222
 90
      211
 90
      222
 90
      214
 90
      222
 90
      213
 90
      222
 90
      189
 90
      216
 90
      189
 90
      215
 90
      189
 90
      218
 90
      189
 90
      217
 90
      186
 90
      192
 90
      186
 90
      191
 90
      186
 90
      188
 90
      186
 90
      187
 90
      186
 90
      224
 90
      186
 90
      223
 90
      189
 90
      221
 90
      189
 90
      219
 90
      189
 90
      223
 90
      229
 90
      232
 90
      228
 90
      232
 90
      231
 90
      237
 90
      230
 90
      237
 90
      235
 90
      236
 90
      233
 90
      235
 90
      206
 90
      238
 90
      205
 90
      238
 90
      240
 90
      242
 90
      239
 90
      240
 90
      200
 90
      225
 90
      200
 90
      245
 90
      204
 90
      244
 90
      204
 90
      243
 90
      240
 90
      243
 90
      167
 90
      169
 90
      168
 90
      169
 90
      169
 90
      174
 90
      173
 90
      176
 90
      172
 90
      177
 90
      171
 90
      178
 90
      171
 90
      179
 90
      166
 90
      180
 90
      175
 90
      181
 90
      153
 90
      183
 90
      153
 90
      182
 90
      153
 90
      156
 90
      153
 90
      154
 90
      157
 90
      161
 90
      155
 90
      161
 90
      158
 90
      161
 90
      160
 90
      163
 90
      159
 90
      163
 90
      162
 90
      165
 90
      151
 90
      164
 90
      144
 90
      152
 90
      144
 90
      145
 90
      144
 90
      149
 90
      141
 90
      143
 90
      125
 90
      132
 90
      133
 90
      251
 90
      131
 90
      134
 90
      135
 90
      250
 90
      128
 90
      130
 90
      126
 90
      127
 90
      126
 90
      129
 90
      142
 90
      143
 90
      138
 90
      147
 90
      140
 90
      148
 90
      146
 90
      148
 90
      139
 90
      147
 95
      544
140
0.0
140
0.0
140
0.0
140
0.0
140
0.0
140
0.0
140
0.0
140
0.0
140
0.0
140
0.0
140
0.0
140
0.0
140
0.0
140
0.0
140
0.0
140
0.0
140
0.0
140
0.0
140
0.0
140
0.0
140
0.0
140
0.0
140
0.0
140
0.0
140
0.0
140
0.0
140
0.0
140
0.0
140
0.0
140
0.0
140
0.0
140
0.0
140
0.0
140
0.0
140
0.0
140
0.0
140
0.0
140
0.0
140
0.0
140
0.0
140
0.0
140
0.0
140
0.0
140
0.0
140
0.0
140
0.0
140
0.0
140
0.0
140
0.0
140
0.0
140
0.0
140
0.0
140
0.0
140
0.0
140
0.0
140
0.0
140
0.0
140
0.0
140
0.0
140
0.0
140
0.0
140
0.0
140
0.0
140
0.0
140
0.0
140
0.0
140
0.0
140
0.0
140
0.0
140
0.0
140
0.0
140
0.0
140
0.0
140
0.0
140
0.0
140
0.0
140
0.0
140
0.0
140
0.0
140
0.0
140
0.0
140
0.0
140
0.0
140
0.0
140
0.0
140
0.0
140
0.0
140
0.0
140
0.0
140
0.0
140
0.0
140
0.0
140
0.0
140
0.0
140
0.0
140
0.0
140
0.0
140
0.0
140
0.0
140
0.0
140
0.0
140
0.0
140
0.0
140
0.0
140
0.0
140
0.0
140
0.0
140
0.0
140
0.0
140
0.0
140
0.0
140
0.0
140
0.0
140
0.0
140
0.0
140
0.0
140
0.0
140
0.0
140
0.0
140
0.0
140
0.0
140
0.0
140
0.0
140
0.0
140
0.0
140
0.0
140
0.0
140
0.0
140
0.0
140
0.0
140
0.0
140
0.0
140
0.0
140
0.0
140
0.0
140
0.0
140
0.0
140
0.0
140
0.0
140
0.0
140
0.0
140
0.0
140
0.0
140
0.0
140
0.0
140
0.0
140
0.0
140
0.0
140
0.0
140
0.0
140
0.0
140
0.0
140
0.0
140
0.0
140
0.0
140
0.0
140
0.0
140
0.0
140
0.0
140
0.0
140
0.0
140
0.0
140
0.0
140
0.0
140
0.0
140
0.0
140
0.0
140
0.0
140
0.0
140
0.0
140
0.0
140
0.0
140
0.0
140
0.0
140
0.0
140
0.0
140
0.0
140
0.0
140
0.0
140
0.0
140
0.0
140
0.0
140
0.0
140
0.0
140
0.0
140
0.0
140
0.0
140
0.0
140
0.0
140
0.0
140
0.0
140
0.0
140
0.0
140
0.0
140
0.0
140
0.0
140
0.0
140
0.0
140
0.0
140
0.0
140
0.0
140
0.0
140
0.0
140
0.0
140
0.0
140
0.0
140
0.0
140
0.0
140
0.0
140
0.0
140
0.0
140
0.0
140
0.0
140
0.0
140
0.0
140
0.0
140
0.0
140
0.0
140
0.0
140
0.0
140
0.0
140
0.0
140
0.0
140
0.0
140
0.0
140
0.0
140
0.0
140
0.0
140
0.0
140
0.0
140
0.0
140
0.0
140
0.0
140
0.0
140
0.0
140
0.0
140
0.0
140
0.0
140
0.0
140
0.0
140
0.0
140
0.0
140
0.0
140
0.0
140
0.0
140
0.0
140
0.0
140
0.0
140
0.0
140
0.0
140
0.0
140
0.0
140
0.0
140
0.0
140
0.0
140
0.0
140
0.0
140
0.0
140
0.0
140
0.0
140
0.0
140
0.0
140
0.0
140
0.0
140
0.0
140
0.0
140
0.0
140
0.0
140
0.0
140
0.0
140
0.0
140
0.0
140
0.0
140
0.0
140
0.0
140
0.0
140
0.0
140
0.0
140
0.0
140
0.0
140
0.0
140
0.0
140
0.0
140
0.0
140
0.0
140
0.0
140
0.0
140
0.0
140
0.0
140
0.0
140
0.0
140
0.0
140
0.0
140
0.0
140
0.0
140
0.0
140
0.0
140
0.0
140
0.0
140
0.0
140
0.0
140
0.0
140
0.0
140
0.0
140
0.0
140
0.0
140
0.0
140
0.0
140
0.0
140
0.0
140
0.0
140
0.0
140
0.0
140
0.0
140
0.0
140
0.0
140
0.0
140
0.0
140
0.0
140
0.0
140
0.0
140
0.0
140
0.0
140
0.0
140
0.0
140
0.0
140
0.0
140
0.0
140
0.0
140
0.0
140
0.0
140
0.0
140
0.0
140
0.0
140
0.0
140
0.0
140
0.0
140
0.0
140
0.0
140
0.0
140
0.0
140
0.0
140
0.0
140
0.0
140
0.0
140
0.0
140
0.0
140
0.0
140
0.0
140
0.0
140
0.0
140
0.0
140
0.0
140
0.0
140
0.0
140
0.0
140
0.0
140
0.0
140
0.0
140
0.0
140
0.0
140
0.0
140
0.0
140
0.0
140
0.0
140
0.0
140
0.0
140
0.0
140
0.0
140
0.0
140
0.0
140
0.0
140
0.0
140
0.0
140
0.0
140
0.0
140
0.0
140
0.0
140
0.0
140
0.0
140
0.0
140
0.0
140
0.0
140
0.0
140
0.0
140
0.0
140
0.0
140
0.0
140
0.0
140
0.0
140
0.0
140
0.0
140
0.0
140
0.0
140
0.0
140
0.0
140
0.0
140
0.0
140
0.0
140
0.0
140
0.0
140
0.0
140
0.0
140
0.0
140
0.0
140
0.0
140
0.0
140
0.0
140
0.0
140
0.0
140
0.0
140
0.0
140
0.0
140
0.0
140
0.0
140
0.0
140
0.0
140
0.0
140
0.0
140
0.0
140
0.0
140
0.0
140
0.0
140
0.0
140
0.0
140
0.0
140
0.0
140
0.0
140
0.0
140
0.0
140
0.0
140
0.0
140
0.0
140
0.0
140
0.0
140
0.0
140
0.0
140
0.0
140
0.0
140
0.0
140
0.0
140
0.0
140
0.0
140
0.0
140
0.0
140
0.0
140
0.0
140
0.0
140
0.0
140
0.0
140
0.0
140
0.0
140
0.0
140
0.0
140
0.0
140
0.0
140
0.0
140
0.0
140
0.0
140
0.0
140
0.0
140
0.0
140
0.0
140
0.0
140
0.0
140
0.0
140
0.0
140
0.0
140
0.0
140
0.0
140
0.0
140
0.0
140
0.0
140
0.0
140
0.0
140
0.0
140
0.0
140
0.0
140
0.0
140
0.0
140
0.0
140
0.0
140
0.0
140
0.0
140
0.0
140
0.0
140
0.0
140
0.0
140
0.0
140
0.0
140
0.0
140
0.0
140
0.0
140
0.0
140
0.0
140
0.0
140
0.0
140
0.0
140
0.0
140
0.0
140
0.0
140
0.0
140
0.0
140
0.0
140
0.0
140
0.0
140
0.0
140
0.0
140
0.0
140
0.0
140
0.0
140
0.0
140
0.0
140
0.0
140
0.0
140
0.0
140
0.0
140
0.0
140
0.0
140
0.0
140
0.0
140
0.0
140
0.0
140
0.0
140
0.0
140
0.0
140
0.0
140
0.0
140
0.0
140
0.0
140
0.0
140
0.0
140
0.0
140
0.0
140
0.0
140
0.0
140
0.0
140
0.0
140
0.0
140
0.0
140
0.0
140
0.0
140
0.0
140
0.0
 90
        0
  0
POLYLINE
  5
FA
330
1F
100
AcDbEntity
  8
OracDecor_panel_moldings
 62
   194
420
  5577905
100
AcDb2dPolyline
 66
     1
 10
0.0
 20
0.0
 30
0.0000005075626177
 70
     1
210
-0.9999999999999769
220
0.0000001788139343
230
-0.0000001192092896
  0
VERTEX
  5
FB
330
FA
100
AcDbEntity
  8
OracDecor_panel_moldings
 62
   194
420
  5577905
100
AcDbVertex
100
AcDb2dVertex
 10
-5.00002098083496
 20
0.0873028635978699
 30
0.0000005075626177
  0
VERTEX
  5
FC
330
FA
100
AcDbEntity
  8
OracDecor_panel_moldings
 62
   194
420
  5577905
100
AcDbVertex
100
AcDb2dVertex
 10
-0.0000209808349609
 20
0.0000381469726563
 30
0.0000005075626177
  0
VERTEX
  5
FD
330
FA
100
AcDbEntity
  8
OracDecor_panel_moldings
 62
   194
420
  5577905
100
AcDbVertex
100
AcDb2dVertex
 10
-0.0000216960906982
 20
5.744010925292968
 30
0.0000005075626177
  0
VERTEX
  5
FE
330
FA
100
AcDbEntity
  8
OracDecor_panel_moldings
 62
   194
420
  5577905
100
AcDbVertex
100
AcDb2dVertex
 10
-0.0171229839324951
 20
5.749549865722656
 30
0.0000005075626177
  0
VERTEX
  5
FF
330
FA
100
AcDbEntity
  8
OracDecor_panel_moldings
 62
   194
420
  5577905
100
AcDbVertex
100
AcDb2dVertex
 10
-0.0342681407928467
 20
5.754966735839843
 30
0.0000005075626177
  0
VERTEX
  5
100
330
FA
100
AcDbEntity
  8
OracDecor_panel_moldings
 62
   194
420
  5577905
100
AcDbVertex
100
AcDb2dVertex
 10
-0.6973865032196045
 20
6.129859924316406
 30
0.0000005075626177
  0
VERTEX
  5
101
330
FA
100
AcDbEntity
  8
OracDecor_panel_moldings
 62
   194
420
  5577905
100
AcDbVertex
100
AcDb2dVertex
 10
-1.146086454391479
 20
6.745536804199218
 30
0.0000005075626177
  0
VERTEX
  5
102
330
FA
100
AcDbEntity
  8
OracDecor_panel_moldings
 62
   194
420
  5577905
100
AcDbVertex
100
AcDb2dVertex
 10
-1.299918174743652
 20
7.491722106933593
 30
0.0000005075626177
  0
VERTEX
  5
103
330
FA
100
AcDbEntity
  8
OracDecor_panel_moldings
 62
   194
420
  5577905
100
AcDbVertex
100
AcDb2dVertex
 10
-1.13129711151123
 20
8.234703063964843
 30
0.0000005075626177
  0
VERTEX
  5
104
330
FA
100
AcDbEntity
  8
OracDecor_panel_moldings
 62
   194
420
  5577905
100
AcDbVertex
100
AcDb2dVertex
 10
-0.6704552173614502
 20
8.841346740722656
 30
0.0000005075626177
  0
VERTEX
  5
105
330
FA
100
AcDbEntity
  8
OracDecor_panel_moldings
 62
   194
420
  5577905
100
AcDbVertex
100
AcDb2dVertex
 10
-0.0000221729278564
 20
9.203010559082031
 30
0.0000005075626177
  0
VERTEX
  5
106
330
FA
100
AcDbEntity
  8
OracDecor_panel_moldings
 62
   194
420
  5577905
100
AcDbVertex
100
AcDb2dVertex
 10
-0.0000219345092773
 20
15.00231170654297
 30
0.0000005075626177
  0
VERTEX
  5
107
330
FA
100
AcDbEntity
  8
OracDecor_panel_moldings
 62
   194
420
  5577905
100
AcDbVertex
100
AcDb2dVertex
 10
-1.998571753501892
 20
17.88043975830078
 30
0.0000005075626177
  0
VERTEX
  5
108
330
FA
100
AcDbEntity
  8
OracDecor_panel_moldings
 62
   194
420
  5577905
100
AcDbVertex
100
AcDb2dVertex
 10
-2.28855562210083
 20
18.4728775024414
 30
0.0000005075626177
  0
VERTEX
  5
109
330
FA
100
AcDbEntity
  8
OracDecor_panel_moldings
 62
   194
420
  5577905
100
AcDbVertex
100
AcDb2dVertex
 10
-2.388266086578369
 20
19.12488555908203
 30
0.0000005075626177
  0
VERTEX
  5
10A
330
FA
100
AcDbEntity
  8
OracDecor_panel_moldings
 62
   194
420
  5577905
100
AcDbVertex
100
AcDb2dVertex
 10
-2.388269424438476
 20
30.61594390869141
 30
0.0000005075626177
  0
VERTEX
  5
10B
330
FA
100
AcDbEntity
  8
OracDecor_panel_moldings
 62
   194
420
  5577905
100
AcDbVertex
100
AcDb2dVertex
 10
-2.244886636734008
 20
31.91976165771484
 30
0.0000005075626177
  0
VERTEX
  5
10C
330
FA
100
AcDbEntity
  8
OracDecor_panel_moldings
 62
   194
420
  5577905
100
AcDbVertex
100
AcDb2dVertex
 10
-1.821617603302001
 20
33.16127777099609
 30
0.0000005075626177
  0
VERTEX
  5
10D
330
FA
100
AcDbEntity
  8
OracDecor_panel_moldings
 62
   194
420
  5577905
100
AcDbVertex
100
AcDb2dVertex
 10
-1.127464056015014
 20
34.7967758178711
 30
0.0000005075626177
  0
VERTEX
  5
10E
330
FA
100
AcDbEntity
  8
OracDecor_panel_moldings
 62
   194
420
  5577905
100
AcDbVertex
100
AcDb2dVertex
 10
-0.5000247955322266
 20
36.63047027587891
 30
0.0000005075626177
  0
VERTEX
  5
10F
330
FA
100
AcDbEntity
  8
OracDecor_panel_moldings
 62
   194
420
  5577905
100
AcDbVertex
100
AcDb2dVertex
 10
-0.5000255107879639
 20
56.04469299316406
 30
0.0000005075626177
  0
VERTEX
  5
110
330
FA
100
AcDbEntity
  8
OracDecor_panel_moldings
 62
   194
420
  5577905
100
AcDbVertex
100
AcDb2dVertex
 10
-2.567106485366821
 20
60.13690948486328
 30
0.0000005075626177
  0
VERTEX
  5
111
330
FA
100
AcDbEntity
  8
OracDecor_panel_moldings
 62
   194
420
  5577905
100
AcDbVertex
100
AcDb2dVertex
 10
-3.902058124542236
 20
62.0261459350586
 30
0.0000005075626177
  0
VERTEX
  5
112
330
FA
100
AcDbEntity
  8
OracDecor_panel_moldings
 62
   194
420
  5577905
100
AcDbVertex
100
AcDb2dVertex
 10
-5.398726463317871
 20
63.75487518310547
 30
0.0000005075626177
  0
VERTEX
  5
113
330
FA
100
AcDbEntity
  8
OracDecor_panel_moldings
 62
   194
420
  5577905
100
AcDbVertex
100
AcDb2dVertex
 10
-8.750999450683593
 20
66.64213562011719
 30
0.0000005075626177
  0
VERTEX
  5
114
330
FA
100
AcDbEntity
  8
OracDecor_panel_moldings
 62
   194
420
  5577905
100
AcDbVertex
100
AcDb2dVertex
 10
-9.277149200439453
 20
67.07652282714843
 30
0.0000005075626177
  0
VERTEX
  5
115
330
FA
100
AcDbEntity
  8
OracDecor_panel_moldings
 62
   194
420
  5577905
100
AcDbVertex
100
AcDb2dVertex
 10
-9.729169845581054
 20
67.58760070800781
 30
0.0000005075626177
  0
VERTEX
  5
116
330
FA
100
AcDbEntity
  8
OracDecor_panel_moldings
 62
   194
420
  5577905
100
AcDbVertex
100
AcDb2dVertex
 10
-17.56724166870117
 20
77.98677062988281
 30
0.0000005075626177
  0
VERTEX
  5
117
330
FA
100
AcDbEntity
  8
OracDecor_panel_moldings
 62
   194
420
  5577905
100
AcDbVertex
100
AcDb2dVertex
 10
-18.85797691345215
 20
80.27113342285156
 30
0.0000005075626177
  0
VERTEX
  5
118
330
FA
100
AcDbEntity
  8
OracDecor_panel_moldings
 62
   194
420
  5577905
100
AcDbVertex
100
AcDb2dVertex
 10
-19.51009368896484
 20
82.81261444091796
 30
0.0000005075626177
  0
VERTEX
  5
119
330
FA
100
AcDbEntity
  8
OracDecor_panel_moldings
 62
   194
420
  5577905
100
AcDbVertex
100
AcDb2dVertex
 10
-19.47869110107422
 20
85.43623352050781
 30
0.0000005075626177
  0
VERTEX
  5
11A
330
FA
100
AcDbEntity
  8
OracDecor_panel_moldings
 62
   194
420
  5577905
100
AcDbVertex
100
AcDb2dVertex
 10
-18.76592636108398
 20
87.96138000488282
 30
0.0000005075626177
  0
VERTEX
  5
11B
330
FA
100
AcDbEntity
  8
OracDecor_panel_moldings
 62
   194
420
  5577905
100
AcDbVertex
100
AcDb2dVertex
 10
-17.42087173461914
 20
90.21419525146484
 30
0.0000005075626177
  0
VERTEX
  5
11C
330
FA
100
AcDbEntity
  8
OracDecor_panel_moldings
 62
   194
420
  5577905
100
AcDbVertex
100
AcDb2dVertex
 10
-9.81471824645996
 20
99.81843566894532
 30
0.0000005075626177
  0
VERTEX
  5
11D
330
FA
100
AcDbEntity
  8
OracDecor_panel_moldings
 62
   194
420
  5577905
100
AcDbVertex
100
AcDb2dVertex
 10
-9.115053176879882
 20
100.5205612182617
 30
0.0000005075626177
  0
VERTEX
  5
11E
330
FA
100
AcDbEntity
  8
OracDecor_panel_moldings
 62
   194
420
  5577905
100
AcDbVertex
100
AcDb2dVertex
 10
-8.274989128112792
 20
101.0466766357422
 30
0.0000005075626177
  0
VERTEX
  5
11F
330
FA
100
AcDbEntity
  8
OracDecor_panel_moldings
 62
   194
420
  5577905
100
AcDbVertex
100
AcDb2dVertex
 10
-0.7413179874420166
 20
104.6458740234375
 30
0.0000005075626177
  0
VERTEX
  5
120
330
FA
100
AcDbEntity
  8
OracDecor_panel_moldings
 62
   194
420
  5577905
100
AcDbVertex
100
AcDb2dVertex
 10
-0.3391172885894775
 20
104.8948516845703
 30
0.0000005075626177
  0
VERTEX
  5
121
330
FA
100
AcDbEntity
  8
OracDecor_panel_moldings
 62
   194
420
  5577905
100
AcDbVertex
100
AcDb2dVertex
 10
-0.000032901763916
 20
105.2246627807617
 30
0.0000005075626177
  0
VERTEX
  5
122
330
FA
100
AcDbEntity
  8
OracDecor_panel_moldings
 62
   194
420
  5577905
100
AcDbVertex
100
AcDb2dVertex
 10
-0.0000326633453369
 20
110.7970428466797
 30
0.0000005075626177
  0
VERTEX
  5
123
330
FA
100
AcDbEntity
  8
OracDecor_panel_moldings
 62
   194
420
  5577905
100
AcDbVertex
100
AcDb2dVertex
 10
-0.6704685688018799
 20
111.158706665039
 30
0.0000005075626177
  0
VERTEX
  5
124
330
FA
100
AcDbEntity
  8
OracDecor_panel_moldings
 62
   194
420
  5577905
100
AcDbVertex
100
AcDb2dVertex
 10
-1.131310701370239
 20
111.7653503417969
 30
0.0000005075626177
  0
VERTEX
  5
125
330
FA
100
AcDbEntity
  8
OracDecor_panel_moldings
 62
   194
420
  5577905
100
AcDbVertex
100
AcDb2dVertex
 10
-1.29993188381195
 20
112.5083312988281
 30
0.0000005075626177
  0
VERTEX
  5
126
330
FA
100
AcDbEntity
  8
OracDecor_panel_moldings
 62
   194
420
  5577905
100
AcDbVertex
100
AcDb2dVertex
 10
-1.146100521087646
 20
113.2545166015625
 30
0.0000005075626177
  0
VERTEX
  5
127
330
FA
100
AcDbEntity
  8
OracDecor_panel_moldings
 62
   194
420
  5577905
100
AcDbVertex
100
AcDb2dVertex
 10
-0.6974005699157715
 20
113.8701934814453
 30
0.0000005075626177
  0
VERTEX
  5
128
330
FA
100
AcDbEntity
  8
OracDecor_panel_moldings
 62
   194
420
  5577905
100
AcDbVertex
100
AcDb2dVertex
 10
-0.0342824459075928
 20
114.2450942993164
 30
0.0000005075626177
  0
VERTEX
  5
129
330
FA
100
AcDbEntity
  8
OracDecor_panel_moldings
 62
   194
420
  5577905
100
AcDbVertex
100
AcDb2dVertex
 10
-0.0171353816986084
 20
114.250503540039
 30
0.0000005075626177
  0
VERTEX
  5
12A
330
FA
100
AcDbEntity
  8
OracDecor_panel_moldings
 62
   194
420
  5577905
100
AcDbVertex
100
AcDb2dVertex
 10
-0.0000360012054443
 20
114.2560501098633
 30
0.0000005075626177
  0
VERTEX
  5
12B
330
FA
100
AcDbEntity
  8
OracDecor_panel_moldings
 62
   194
420
  5577905
100
AcDbVertex
100
AcDb2dVertex
 10
-0.0000348091125488
 20
120.0000228881836
 30
0.0000005075626177
  0
VERTEX
  5
12C
330
FA
100
AcDbEntity
  8
OracDecor_panel_moldings
 62
   194
420
  5577905
100
AcDbVertex
100
AcDb2dVertex
 10
-8.00003433227539
 20
119.8603897094726
 30
0.0000005075626177
  0
VERTEX
  5
12D
330
FA
100
AcDbEntity
  8
OracDecor_panel_moldings
 62
   194
420
  5577905
100
AcDbVertex
100
AcDb2dVertex
 10
-8.075515747070312
 20
118.4418792724609
 30
0.0000005075626177
  0
VERTEX
  5
12E
330
FA
100
AcDbEntity
  8
OracDecor_panel_moldings
 62
   194
420
  5577905
100
AcDbVertex
100
AcDb2dVertex
 10
-8.310214042663574
 20
116.9747314453125
 30
0.0000005075626177
  0
VERTEX
  5
12F
330
FA
100
AcDbEntity
  8
OracDecor_panel_moldings
 62
   194
420
  5577905
100
AcDbVertex
100
AcDb2dVertex
 10
-8.705351829528808
 20
115.5178146362304
 30
0.0000005075626177
  0
VERTEX
  5
130
330
FA
100
AcDbEntity
  8
OracDecor_panel_moldings
 62
   194
420
  5577905
100
AcDbVertex
100
AcDb2dVertex
 10
-9.329259872436523
 20
113.937629699707
 30
0.0000005075626177
  0
VERTEX
  5
131
330
FA
100
AcDbEntity
  8
OracDecor_panel_moldings
 62
   194
420
  5577905
100
AcDbVertex
100
AcDb2dVertex
 10
-10.08824157714844
 20
112.5192718505859
 30
0.0000005075626177
  0
VERTEX
  5
132
330
FA
100
AcDbEntity
  8
OracDecor_panel_moldings
 62
   194
420
  5577905
100
AcDbVertex
100
AcDb2dVertex
 10
-10.9851131439209
 20
111.2206268310547
 30
0.0000005075626177
  0
VERTEX
  5
133
330
FA
100
AcDbEntity
  8
OracDecor_panel_moldings
 62
   194
420
  5577905
100
AcDbVertex
100
AcDb2dVertex
 10
-11.96023464202881
 20
110.1013870239258
 30
0.0000005075626177
  0
VERTEX
  5
134
330
FA
100
AcDbEntity
  8
OracDecor_panel_moldings
 62
   194
420
  5577905
100
AcDbVertex
100
AcDb2dVertex
 10
-12.98252773284912
 20
109.1600036621094
 30
0.0000005075626177
  0
VERTEX
  5
135
330
FA
100
AcDbEntity
  8
OracDecor_panel_moldings
 62
   194
420
  5577905
100
AcDbVertex
100
AcDb2dVertex
 10
-14.04496383666992
 20
108.3773880004883
 30
0.0000005075626177
  0
VERTEX
  5
136
330
FA
100
AcDbEntity
  8
OracDecor_panel_moldings
 62
   194
420
  5577905
100
AcDbVertex
100
AcDb2dVertex
 10
-15.15112495422363
 20
107.7392654418945
 30
0.0000005075626177
  0
VERTEX
  5
137
330
FA
100
AcDbEntity
  8
OracDecor_panel_moldings
 62
   194
420
  5577905
100
AcDbVertex
100
AcDb2dVertex
 10
-16.23147583007812
 20
107.2670974731445
 30
0.0000005075626177
  0
VERTEX
  5
138
330
FA
100
AcDbEntity
  8
OracDecor_panel_moldings
 62
   194
420
  5577905
100
AcDbVertex
100
AcDb2dVertex
 10
-17.3148136138916
 20
106.9319915771484
 30
0.0000005075626177
  0
VERTEX
  5
139
330
FA
100
AcDbEntity
  8
OracDecor_panel_moldings
 62
   194
420
  5577905
100
AcDbVertex
100
AcDb2dVertex
 10
-19.37403106689453
 20
106.6598739624023
 30
0.0000005075626177
  0
VERTEX
  5
13A
330
FA
100
AcDbEntity
  8
OracDecor_panel_moldings
 62
   194
420
  5577905
100
AcDbVertex
100
AcDb2dVertex
 10
-19.3740348815918
 20
100.287857055664
 30
0.0000005075626177
  0
VERTEX
  5
13B
330
FA
100
AcDbEntity
  8
OracDecor_panel_moldings
 62
   194
420
  5577905
100
AcDbVertex
100
AcDb2dVertex
 10
-20.28620147705078
 20
100.1790695190429
 30
0.0000005075626177
  0
VERTEX
  5
13C
330
FA
100
AcDbEntity
  8
OracDecor_panel_moldings
 62
   194
420
  5577905
100
AcDbVertex
100
AcDb2dVertex
 10
-21.66544342041015
 20
99.8752212524414
 30
0.0000005075626177
  0
VERTEX
  5
13D
330
FA
100
AcDbEntity
  8
OracDecor_panel_moldings
 62
   194
420
  5577905
100
AcDbVertex
100
AcDb2dVertex
 10
-22.90686988830566
 20
99.42769622802735
 30
0.0000005075626177
  0
VERTEX
  5
13E
330
FA
100
AcDbEntity
  8
OracDecor_panel_moldings
 62
   194
420
  5577905
100
AcDbVertex
100
AcDb2dVertex
 10
-24.05091857910156
 20
98.84568786621095
 30
0.0000005075626177
  0
VERTEX
  5
13F
330
FA
100
AcDbEntity
  8
OracDecor_panel_moldings
 62
   194
420
  5577905
100
AcDbVertex
100
AcDb2dVertex
 10
-25.05929183959961
 20
98.17474365234375
 30
0.0000005075626177
  0
VERTEX
  5
140
330
FA
100
AcDbEntity
  8
OracDecor_panel_moldings
 62
   194
420
  5577905
100
AcDbVertex
100
AcDb2dVertex
 10
-25.96504402160645
 20
97.41691589355468
 30
0.0000005075626177
  0
VERTEX
  5
141
330
FA
100
AcDbEntity
  8
OracDecor_panel_moldings
 62
   194
420
  5577905
100
AcDbVertex
100
AcDb2dVertex
 10
-26.80674362182617
 20
96.55088043212892
 30
0.0000005075626177
  0
VERTEX
  5
142
330
FA
100
AcDbEntity
  8
OracDecor_panel_moldings
 62
   194
420
  5577905
100
AcDbVertex
100
AcDb2dVertex
 10
-27.58802795410157
 20
95.56884765625
 30
0.0000005075626177
  0
VERTEX
  5
143
330
FA
100
AcDbEntity
  8
OracDecor_panel_moldings
 62
   194
420
  5577905
100
AcDbVertex
100
AcDb2dVertex
 10
-28.28950500488281
 20
94.49389648437501
 30
0.0000005075626177
  0
VERTEX
  5
144
330
FA
100
AcDbEntity
  8
OracDecor_panel_moldings
 62
   194
420
  5577905
100
AcDbVertex
100
AcDb2dVertex
 10
-28.89101982116699
 20
93.36774444580077
 30
0.0000005075626177
  0
VERTEX
  5
145
330
FA
100
AcDbEntity
  8
OracDecor_panel_moldings
 62
   194
420
  5577905
100
AcDbVertex
100
AcDb2dVertex
 10
-29.41531372070313
 20
92.16264343261718
 30
0.0000005075626177
  0
VERTEX
  5
146
330
FA
100
AcDbEntity
  8
OracDecor_panel_moldings
 62
   194
420
  5577905
100
AcDbVertex
100
AcDb2dVertex
 10
-29.84154510498047
 20
90.94011688232422
 30
0.0000005075626177
  0
VERTEX
  5
147
330
FA
100
AcDbEntity
  8
OracDecor_panel_moldings
 62
   194
420
  5577905
100
AcDbVertex
100
AcDb2dVertex
 10
-30.20494651794434
 20
89.60206604003905
 30
0.0000005075626177
  0
VERTEX
  5
148
330
FA
100
AcDbEntity
  8
OracDecor_panel_moldings
 62
   194
420
  5577905
100
AcDbVertex
100
AcDb2dVertex
 10
-30.48836326599121
 20
88.20176696777343
 30
0.0000005075626177
  0
VERTEX
  5
149
330
FA
100
AcDbEntity
  8
OracDecor_panel_moldings
 62
   194
420
  5577905
100
AcDbVertex
100
AcDb2dVertex
 10
-30.6848258972168
 20
86.74662780761719
 30
0.0000005075626177
  0
VERTEX
  5
14A
330
FA
100
AcDbEntity
  8
OracDecor_panel_moldings
 62
   194
420
  5577905
100
AcDbVertex
100
AcDb2dVertex
 10
-30.8147087097168
 20
84.55985260009766
 30
0.0000005075626177
  0
VERTEX
  5
14B
330
FA
100
AcDbEntity
  8
OracDecor_panel_moldings
 62
   194
420
  5577905
100
AcDbVertex
100
AcDb2dVertex
 10
-30.71743774414063
 20
81.55409240722656
 30
0.0000005075626177
  0
VERTEX
  5
14C
330
FA
100
AcDbEntity
  8
OracDecor_panel_moldings
 62
   194
420
  5577905
100
AcDbVertex
100
AcDb2dVertex
 10
-30.41858863830567
 20
79.39552307128906
 30
0.0000005075626177
  0
VERTEX
  5
14D
330
FA
100
AcDbEntity
  8
OracDecor_panel_moldings
 62
   194
420
  5577905
100
AcDbVertex
100
AcDb2dVertex
 10
-29.91399574279785
 20
77.29673004150391
 30
0.0000005075626177
  0
VERTEX
  5
14E
330
FA
100
AcDbEntity
  8
OracDecor_panel_moldings
 62
   194
420
  5577905
100
AcDbVertex
100
AcDb2dVertex
 10
-29.27253150939942
 20
75.48287963867188
 30
0.0000005075626177
  0
VERTEX
  5
14F
330
FA
100
AcDbEntity
  8
OracDecor_panel_moldings
 62
   194
420
  5577905
100
AcDbVertex
100
AcDb2dVertex
 10
-28.51063728332519
 20
73.89829254150391
 30
0.0000005075626177
  0
VERTEX
  5
150
330
FA
100
AcDbEntity
  8
OracDecor_panel_moldings
 62
   194
420
  5577905
100
AcDbVertex
100
AcDb2dVertex
 10
-27.67196464538574
 20
72.55183410644531
 30
0.0000005075626177
  0
VERTEX
  5
151
330
FA
100
AcDbEntity
  8
OracDecor_panel_moldings
 62
   194
420
  5577905
100
AcDbVertex
100
AcDb2dVertex
 10
-26.78644561767578
 20
71.4303970336914
 30
0.0000005075626177
  0
VERTEX
  5
152
330
FA
100
AcDbEntity
  8
OracDecor_panel_moldings
 62
   194
420
  5577905
100
AcDbVertex
100
AcDb2dVertex
 10
-25.84245681762695
 20
70.47614288330078
 30
0.0000005075626177
  0
VERTEX
  5
153
330
FA
100
AcDbEntity
  8
OracDecor_panel_moldings
 62
   194
420
  5577905
100
AcDbVertex
100
AcDb2dVertex
 10
-24.86094856262207
 20
69.68524169921875
 30
0.0000005075626177
  0
VERTEX
  5
154
330
FA
100
AcDbEntity
  8
OracDecor_panel_moldings
 62
   194
420
  5577905
100
AcDbVertex
100
AcDb2dVertex
 10
-23.83847427368164
 20
69.03712463378906
 30
0.0000005075626177
  0
VERTEX
  5
155
330
FA
100
AcDbEntity
  8
OracDecor_panel_moldings
 62
   194
420
  5577905
100
AcDbVertex
100
AcDb2dVertex
 10
-21.68407249450684
 20
68.13399505615234
 30
0.0000005075626177
  0
VERTEX
  5
156
330
FA
100
AcDbEntity
  8
OracDecor_panel_moldings
 62
   194
420
  5577905
100
AcDbVertex
100
AcDb2dVertex
 10
-19.37403106689453
 20
67.72366333007813
 30
0.0000005075626177
  0
VERTEX
  5
157
330
FA
100
AcDbEntity
  8
OracDecor_panel_moldings
 62
   194
420
  5577905
100
AcDbVertex
100
AcDb2dVertex
 10
-19.37402725219726
 20
61.35165786743164
 30
0.0000005075626177
  0
VERTEX
  5
158
330
FA
100
AcDbEntity
  8
OracDecor_panel_moldings
 62
   194
420
  5577905
100
AcDbVertex
100
AcDb2dVertex
 10
-18.09829711914062
 20
61.15485382080078
 30
0.0000005075626177
  0
VERTEX
  5
159
330
FA
100
AcDbEntity
  8
OracDecor_panel_moldings
 62
   194
420
  5577905
100
AcDbVertex
100
AcDb2dVertex
 10
-16.72494888305664
 20
60.75194931030273
 30
0.0000005075626177
  0
VERTEX
  5
15A
330
FA
100
AcDbEntity
  8
OracDecor_panel_moldings
 62
   194
420
  5577905
100
AcDbVertex
100
AcDb2dVertex
 10
-15.2930097579956
 20
60.1142578125
 30
0.0000005075626177
  0
VERTEX
  5
15B
330
FA
100
AcDbEntity
  8
OracDecor_panel_moldings
 62
   194
420
  5577905
100
AcDbVertex
100
AcDb2dVertex
 10
-13.89210605621338
 20
59.25405883789062
 30
0.0000005075626177
  0
VERTEX
  5
15C
330
FA
100
AcDbEntity
  8
OracDecor_panel_moldings
 62
   194
420
  5577905
100
AcDbVertex
100
AcDb2dVertex
 10
-12.59745121002197
 20
58.21261215209961
 30
0.0000005075626177
  0
VERTEX
  5
15D
330
FA
100
AcDbEntity
  8
OracDecor_panel_moldings
 62
   194
420
  5577905
100
AcDbVertex
100
AcDb2dVertex
 10
-11.40091896057129
 20
56.9803352355957
 30
0.0000005075626177
  0
VERTEX
  5
15E
330
FA
100
AcDbEntity
  8
OracDecor_panel_moldings
 62
   194
420
  5577905
100
AcDbVertex
100
AcDb2dVertex
 10
-10.35320854187012
 20
55.60132598876953
 30
0.0000005075626177
  0
VERTEX
  5
15F
330
FA
100
AcDbEntity
  8
OracDecor_panel_moldings
 62
   194
420
  5577905
100
AcDbVertex
100
AcDb2dVertex
 10
-9.50246238708496
 20
54.15528106689453
 30
0.0000005075626177
  0
VERTEX
  5
160
330
FA
100
AcDbEntity
  8
OracDecor_panel_moldings
 62
   194
420
  5577905
100
AcDbVertex
100
AcDb2dVertex
 10
-8.828757286071777
 20
52.62415313720703
 30
0.0000005075626177
  0
VERTEX
  5
161
330
FA
100
AcDbEntity
  8
OracDecor_panel_moldings
 62
   194
420
  5577905
100
AcDbVertex
100
AcDb2dVertex
 10
-8.360711097717285
 20
51.09807586669922
 30
0.0000005075626177
  0
VERTEX
  5
162
330
FA
100
AcDbEntity
  8
OracDecor_panel_moldings
 62
   194
420
  5577905
100
AcDbVertex
100
AcDb2dVertex
 10
-8.088375091552734
 20
49.60539245605469
 30
0.0000005075626177
  0
VERTEX
  5
163
330
FA
100
AcDbEntity
  8
OracDecor_panel_moldings
 62
   194
420
  5577905
100
AcDbVertex
100
AcDb2dVertex
 10
-8.000024795532226
 20
48.15115356445312
 30
0.0000005075626177
  0
VERTEX
  5
164
330
FA
100
AcDbEntity
  8
OracDecor_panel_moldings
 62
   194
420
  5577905
100
AcDbVertex
100
AcDb2dVertex
 10
-8.090809822082519
 20
45.28282928466796
 30
0.0000005075626177
  0
VERTEX
  5
165
330
FA
100
AcDbEntity
  8
OracDecor_panel_moldings
 62
   194
420
  5577905
100
AcDbVertex
100
AcDb2dVertex
 10
-8.338862419128417
 20
42.85137176513671
 30
0.0000005075626177
  0
VERTEX
  5
166
330
FA
100
AcDbEntity
  8
OracDecor_panel_moldings
 62
   194
420
  5577905
100
AcDbVertex
100
AcDb2dVertex
 10
-8.71120262145996
 20
40.78026580810546
 30
0.0000005075626177
  0
VERTEX
  5
167
330
FA
100
AcDbEntity
  8
OracDecor_panel_moldings
 62
   194
420
  5577905
100
AcDbVertex
100
AcDb2dVertex
 10
-9.178533554077148
 20
39.03295135498047
 30
0.0000005075626177
  0
VERTEX
  5
168
330
FA
100
AcDbEntity
  8
OracDecor_panel_moldings
 62
   194
420
  5577905
100
AcDbVertex
100
AcDb2dVertex
 10
-9.70948314666748
 20
37.57262420654297
 30
0.0000005075626177
  0
VERTEX
  5
169
330
FA
100
AcDbEntity
  8
OracDecor_panel_moldings
 62
   194
420
  5577905
100
AcDbVertex
100
AcDb2dVertex
 10
-10.29385280609131
 20
36.33426666259766
 30
0.0000005075626177
  0
VERTEX
  5
16A
330
FA
100
AcDbEntity
  8
OracDecor_panel_moldings
 62
   194
420
  5577905
100
AcDbVertex
100
AcDb2dVertex
 10
-11.58661365509033
 20
34.37671661376953
 30
0.0000005075626177
  0
VERTEX
  5
16B
330
FA
100
AcDbEntity
  8
OracDecor_panel_moldings
 62
   194
420
  5577905
100
AcDbVertex
100
AcDb2dVertex
 10
-13.02339744567871
 20
32.9364242553711
 30
0.0000005075626177
  0
VERTEX
  5
16C
330
FA
100
AcDbEntity
  8
OracDecor_panel_moldings
 62
   194
420
  5577905
100
AcDbVertex
100
AcDb2dVertex
 10
-14.65302467346191
 20
31.85784149169922
 30
0.0000005075626177
  0
VERTEX
  5
16D
330
FA
100
AcDbEntity
  8
OracDecor_panel_moldings
 62
   194
420
  5577905
100
AcDbVertex
100
AcDb2dVertex
 10
-14.6530237197876
 20
25.31238555908203
 30
0.0000005075626177
  0
VERTEX
  5
16E
330
FA
100
AcDbEntity
  8
OracDecor_panel_moldings
 62
   194
420
  5577905
100
AcDbVertex
100
AcDb2dVertex
 10
-11.38826847076416
 20
25.08409881591797
 30
0.0000005075626177
  0
VERTEX
  5
16F
330
FA
100
AcDbEntity
  8
OracDecor_panel_moldings
 62
   194
420
  5577905
100
AcDbVertex
100
AcDb2dVertex
 10
-11.38826847076416
 20
21.26592254638672
 30
0.0000005075626177
  0
VERTEX
  5
170
330
FA
100
AcDbEntity
  8
OracDecor_panel_moldings
 62
   194
420
  5577905
100
AcDbVertex
100
AcDb2dVertex
 10
-12.82331466674804
 20
20.60939788818359
 30
0.0000005075626177
  0
VERTEX
  5
171
330
FA
100
AcDbEntity
  8
OracDecor_panel_moldings
 62
   194
420
  5577905
100
AcDbVertex
100
AcDb2dVertex
 10
-13.9568862915039
 20
19.51129913330078
 30
0.0000005075626177
  0
VERTEX
  5
172
330
FA
100
AcDbEntity
  8
OracDecor_panel_moldings
 62
   194
420
  5577905
100
AcDbVertex
100
AcDb2dVertex
 10
-14.65874576568603
 20
18.09767913818359
 30
0.0000005075626177
  0
VERTEX
  5
173
330
FA
100
AcDbEntity
  8
OracDecor_panel_moldings
 62
   194
420
  5577905
100
AcDbVertex
100
AcDb2dVertex
 10
-14.84829616546631
 20
16.53087615966797
 30
0.0000005075626177
  0
VERTEX
  5
174
330
FA
100
AcDbEntity
  8
OracDecor_panel_moldings
 62
   194
420
  5577905
100
AcDbVertex
100
AcDb2dVertex
 10
-14.50384616851806
 20
14.99083614349365
 30
0.0000005075626177
  0
VERTEX
  5
175
330
FA
100
AcDbEntity
  8
OracDecor_panel_moldings
 62
   194
420
  5577905
100
AcDbVertex
100
AcDb2dVertex
 10
-13.62503719329834
 20
13.58475399017334
 30
0.0000005075626177
  0
VERTEX
  5
176
330
FA
100
AcDbEntity
  8
OracDecor_panel_moldings
 62
   194
420
  5577905
100
AcDbVertex
100
AcDb2dVertex
 10
-12.33108329772949
 20
12.54788875579834
 30
0.0000005075626177
  0
VERTEX
  5
177
330
FA
100
AcDbEntity
  8
OracDecor_panel_moldings
 62
   194
420
  5577905
100
AcDbVertex
100
AcDb2dVertex
 10
-10.09721755981445
 20
10.88417625427246
 30
0.0000005075626177
  0
VERTEX
  5
178
330
FA
100
AcDbEntity
  8
OracDecor_panel_moldings
 62
   194
420
  5577905
100
AcDbVertex
100
AcDb2dVertex
 10
-8.686912536621093
 20
9.508158683776855
 30
0.0000005075626177
  0
VERTEX
  5
179
330
FA
100
AcDbEntity
  8
OracDecor_panel_moldings
 62
   194
420
  5577905
100
AcDbVertex
100
AcDb2dVertex
 10
-7.58187198638916
 20
8.098224639892578
 30
0.0000005075626177
  0
VERTEX
  5
17A
330
FA
100
AcDbEntity
  8
OracDecor_panel_moldings
 62
   194
420
  5577905
100
AcDbVertex
100
AcDb2dVertex
 10
-6.582719326019287
 20
6.399967670440673
 30
0.0000005075626177
  0
VERTEX
  5
17B
330
FA
100
AcDbEntity
  8
OracDecor_panel_moldings
 62
   194
420
  5577905
100
AcDbVertex
100
AcDb2dVertex
 10
-5.88702392578125
 20
4.749201297760009
 30
0.0000005075626177
  0
VERTEX
  5
17C
330
FA
100
AcDbEntity
  8
OracDecor_panel_moldings
 62
   194
420
  5577905
100
AcDbVertex
100
AcDb2dVertex
 10
-5.369250774383544
 20
2.848071336746215
 30
0.0000005075626177
  0
SEQEND
  5
17D
330
FA
100
AcDbEntity
  8
OracDecor_panel_moldings
 62
   194
420
  5577905
  0
ENDSEC
  0
SECTION
  2
OBJECTS
  0
DICTIONARY
  5
C
330
0
100
AcDbDictionary
281
     1
  3
ACAD_COLOR
350
DC
  3
ACAD_DETAILVIEWSTYLE
350
F5
  3
ACAD_GROUP
350
D
  3
ACAD_LAYOUT
350
1A
  3
ACAD_MATERIAL
350
AA
  3
ACAD_MLEADERSTYLE
350
F1
  3
ACAD_MLINESTYLE
350
17
  3
ACAD_PLOTSETTINGS
350
19
  3
ACAD_PLOTSTYLENAME
350
E
  3
ACAD_SCALELIST
350
DF
  3
ACAD_SECTIONVIEWSTYLE
350
F3
  3
ACAD_TABLESTYLE
350
DD
  3
ACAD_VISUALSTYLE
350
C3
  3
ACDB_RECOMPOSE_DATA
350
18A
  3
AcDbVariableDictionary
350
17E
  0
DICTIONARY
  5
DC
102
{ACAD_REACTORS
330
C
102
}
330
C
100
AcDbDictionary
281
     1
  0
DICTIONARY
  5
F5
102
{ACAD_REACTORS
330
C
102
}
330
C
100
AcDbDictionary
281
     1
  3
Imperial24
350
F6
  0
DICTIONARY
  5
D
102
{ACAD_REACTORS
330
C
102
}
330
C
100
AcDbDictionary
281
     1
  0
DICTIONARY
  5
1A
102
{ACAD_REACTORS
330
C
102
}
330
C
100
AcDbDictionary
281
     1
  3
Layout1
350
1E
  3
Layout2
350
26
  3
Model
350
22
  0
DICTIONARY
  5
AA
102
{ACAD_REACTORS
330
C
102
}
330
C
100
AcDbDictionary
281
     1
  3
ByBlock
350
B3
  3
ByLayer
350
AB
  3
Global
350
BB
  0
DICTIONARY
  5
F1
102
{ACAD_REACTORS
330
C
102
}
330
C
100
AcDbDictionary
281
     1
  3
Standard
350
F2
  0
DICTIONARY
  5
17
102
{ACAD_REACTORS
330
C
102
}
330
C
100
AcDbDictionary
281
     1
  3
Standard
350
18
  0
DICTIONARY
  5
19
102
{ACAD_REACTORS
330
C
102
}
330
C
100
AcDbDictionary
281
     1
  0
ACDBDICTIONARYWDFLT
  5
E
102
{ACAD_REACTORS
330
C
102
}
330
C
100
AcDbDictionary
281
     1
  3
ByLayer
350
2D
  3
Normal
350
F
100
AcDbDictionaryWithDefault
340
F
  0
DICTIONARY
  5
DF
102
{ACAD_REACTORS
330
C
102
}
330
C
100
AcDbDictionary
281
     1
  3
A0
350
E0
  3
A1
350
E1
  3
A2
350
E2
  3
A3
350
E3
  3
A4
350
E4
  3
A5
350
E5
  3
A6
350
E6
  3
A7
350
E7
  3
A8
350
E8
  3
A9
350
E9
  3
B0
350
EA
  3
B1
350
EB
  3
B2
350
EC
  3
B3
350
ED
  3
B4
350
EE
  3
B5
350
EF
  3
B6
350
F0
  0
DICTIONARY
  5
F3
102
{ACAD_REACTORS
330
C
102
}
330
C
100
AcDbDictionary
281
     1
  3
Imperial24
350
F4
  0
DICTIONARY
  5
DD
102
{ACAD_REACTORS
330
C
102
}
330
C
100
AcDbDictionary
281
     1
  3
Standard
350
DE
  0
DICTIONARY
  5
C3
102
{ACAD_REACTORS
330
C
102
}
330
C
100
AcDbDictionary
281
     1
  3
2dWireframe
350
C9
  3
Basic
350
C8
  3
Brighten
350
CF
  3
ColorChange
350
D3
  3
Conceptual
350
CC
  3
Dim
350
CE
  3
EdgeColorOff
350
DB
  3
Facepattern
350
D2
  3
Flat
350
C4
  3
FlatWithEdges
350
C5
  3
Gouraud
350
C6
  3
GouraudWithEdges
350
C7
  3
Hidden
350
CB
  3
JitterOff
350
D9
  3
Linepattern
350
D1
  3
OverhangOff
350
DA
  3
Realistic
350
CD
  3
Shaded
350
D8
  3
Shaded with edges
350
D7
  3
Shades of Gray
350
D4
  3
Sketchy
350
D5
  3
Thicken
350
D0
  3
Wireframe
350
CA
  3
X-Ray
350
D6
  0
XRECORD
  5
18A
102
{ACAD_REACTORS
330
C
102
}
330
C
100
AcDbXrecord
280
     1
 90
        1
330
DE
  0
DICTIONARY
  5
17E
102
{ACAD_REACTORS
330
C
102
}
330
C
100
AcDbDictionary
281
     1
  3
CANNOSCALE
350
184
  3
CMLEADERSTYLE
350
180
  3
CTABLESTYLE
350
17F
  3
CVIEWDETAILSTYLE
350
181
  3
CVIEWSECTIONSTYLE
350
182
  3
LAYEREVAL
350
186
  3
LAYERNOTIFY
350
187
  3
LIGHTINGUNITS
350
185
  3
MSLTSCALE
350
183
  0
ACDBDETAILVIEWSTYLE
  5
F6
102
{ACAD_XDICTIONARY
360
1BF
102
}
102
{ACAD_REACTORS
330
F5
102
}
330
F5
100
AcDbModelDocViewStyle
 70
     0
  3
Imperial24
290
     0
100
AcDbDetailViewStyle
 70
     0
 71
     0
 90
        3
 71
     1
340
11
 62
   256
 40
0.24
340
0
 62
   256
 40
0.24
300

 40
0.36
280
     3
 71
     2
340
16
 90
       25
 62
   256
 71
     3
340
11
 62
   256
 40
0.24
 90
        1
 40
0.75
 90
        1
300
%<\AcVar ViewType \f "%tc1">% %<\AcVar ViewDetailId>%\PSCALE %<\AcVar ViewScale \f "%sn">%
 71
     4
340
16
 90
       25
 62
   256
340
16
 90
       25
 62
   256
280
     0
  0
LAYOUT
  5
1E
102
{ACAD_REACTORS
330
1A
102
}
330
1A
100
AcDbPlotSettings
  1

  2
\\KTXNTBDC\CASF2PN1
  4

  6

 40
0.0
 41
0.0
 42
0.0
 43
0.0
 44
0.0
 45
0.0
 46
0.0
 47
0.0
 48
0.0
 49
0.0
140
0.0
141
0.0
142
1.0
143
1.0
 70
   688
 72
     0
 73
     0
 74
     5
  7

 75
    16
147
1.0
 76
     0
 77
     2
 78
   300
148
0.0
149
0.0
100
AcDbLayout
  1
Layout1
 70
     1
 71
     1
 10
0.0
 20
0.0
 11
12.0
 21
9.0
 12
0.0
 22
0.0
 32
0.0
 14
1.000000000000000E+20
 24
1.000000000000000E+20
 34
1.000000000000000E+20
 15
-1.000000000000000E+20
 25
-1.000000000000000E+20
 35
-1.000000000000000E+20
146
0.0
 13
0.0
 23
0.0
 33
0.0
 16
1.0
 26
0.0
 36
0.0
 17
0.0
 27
1.0
 37
0.0
 76
     0
330
1B
  0
LAYOUT
  5
26
102
{ACAD_REACTORS
330
1A
102
}
330
1A
100
AcDbPlotSettings
  1

  2
\\KTXNTBDC\CASF2PN1
  4

  6

 40
0.0
 41
0.0
 42
0.0
 43
0.0
 44
0.0
 45
0.0
 46
0.0
 47
0.0
 48
0.0
 49
0.0
140
0.0
141
0.0
142
1.0
143
1.0
 70
   688
 72
     0
 73
     0
 74
     5
  7

 75
    16
147
1.0
 76
     0
 77
     2
 78
   300
148
0.0
149
0.0
100
AcDbLayout
  1
Layout2
 70
     1
 71
     2
 10
0.0
 20
0.0
 11
12.0
 21
9.0
 12
0.0
 22
0.0
 32
0.0
 14
0.0
 24
0.0
 34
0.0
 15
0.0
 25
0.0
 35
0.0
146
0.0
 13
0.0
 23
0.0
 33
0.0
 16
1.0
 26
0.0
 36
0.0
 17
0.0
 27
1.0
 37
0.0
 76
     0
330
23
  0
LAYOUT
  5
22
102
{ACAD_REACTORS
330
1A
102
}
330
1A
100
AcDbPlotSettings
  1

  2
\\KTXNTBDC\CASF2PN1
  4

  6

 40
0.0
 41
0.0
 42
0.0
 43
0.0
 44
0.0
 45
0.0
 46
0.0
 47
0.0
 48
0.0
 49
0.0
140
0.0
141
0.0
142
1.0
143
1.0
 70
  1712
 72
     0
 73
     0
 74
     0
  7

 75
     0
147
1.0
 76
     0
 77
     2
 78
   300
148
0.0
149
0.0
100
AcDbLayout
  1
Model
 70
     1
 71
     0
 10
0.0
 20
0.0
 11
12.0
 21
9.0
 12
0.0
 22
0.0
 32
0.0
 14
0.0
 24
0.0
 34
0.0
 15
0.0
 25
0.0
 35
0.0
146
0.0
 13
0.0
 23
0.0
 33
0.0
 16
1.0
 26
0.0
 36
0.0
 17
0.0
 27
1.0
 37
0.0
 76
     0
330
1F
  0
MATERIAL
  5
B3
102
{ACAD_XDICTIONARY
360
B4
102
}
102
{ACAD_REACTORS
330
AA
102
}
330
AA
100
AcDbMaterial
  1
ByBlock
 72
     0
 43
0.0208333333333333
 43
0.0
 43
0.0
 43
0.0
 43
0.0
 43
0.0208333333333333
 43
0.0
 43
0.0
 43
0.0
 43
0.0
 43
1.0
 43
0.0
 43
0.0
 43
0.0
 43
0.0
 43
1.0
 77
     0
 47
0.0208333333333333
 47
0.0
 47
0.0
 47
0.0
 47
0.0
 47
0.0208333333333333
 47
0.0
 47
0.0
 47
0.0
 47
0.0
 47
1.0
 47
0.0
 47
0.0
 47
0.0
 47
0.0
 47
1.0
171
     0
 49
0.0208333333333333
 49
0.0
 49
0.0
 49
0.0
 49
0.0
 49
0.0208333333333333
 49
0.0
 49
0.0
 49
0.0
 49
0.0
 49
1.0
 49
0.0
 49
0.0
 49
0.0
 49
0.0
 49
1.0
175
     0
142
0.0208333333333333
142
0.0
142
0.0
142
0.0
142
0.0
142
0.0208333333333333
142
0.0
142
0.0
142
0.0
142
0.0
142
1.0
142
0.0
142
0.0
142
0.0
142
0.0
142
1.0
179
     0
144
0.0208333333333333
144
0.0
144
0.0
144
0.0
144
0.0
144
0.0208333333333333
144
0.0
144
0.0
144
0.0
144
0.0
144
1.0
144
0.0
144
0.0
144
0.0
144
0.0
144
1.0
147
0.0208333333333333
147
0.0
147
0.0
147
0.0
147
0.0
147
0.0208333333333333
147
0.0
147
0.0
147
0.0
147
0.0
147
1.0
147
0.0
147
0.0
147
0.0
147
0.0
147
1.0
  0
MATERIAL
  5
AB
102
{ACAD_XDICTIONARY
360
AC
102
}
102
{ACAD_REACTORS
330
AA
102
}
330
AA
100
AcDbMaterial
  1
ByLayer
 72
     0
 43
0.0208333333333333
 43
0.0
 43
0.0
 43
0.0
 43
0.0
 43
0.0208333333333333
 43
0.0
 43
0.0
 43
0.0
 43
0.0
 43
1.0
 43
0.0
 43
0.0
 43
0.0
 43
0.0
 43
1.0
 77
     0
 47
0.0208333333333333
 47
0.0
 47
0.0
 47
0.0
 47
0.0
 47
0.0208333333333333
 47
0.0
 47
0.0
 47
0.0
 47
0.0
 47
1.0
 47
0.0
 47
0.0
 47
0.0
 47
0.0
 47
1.0
171
     0
 49
0.0208333333333333
 49
0.0
 49
0.0
 49
0.0
 49
0.0
 49
0.0208333333333333
 49
0.0
 49
0.0
 49
0.0
 49
0.0
 49
1.0
 49
0.0
 49
0.0
 49
0.0
 49
0.0
 49
1.0
175
     0
142
0.0208333333333333
142
0.0
142
0.0
142
0.0
142
0.0
142
0.0208333333333333
142
0.0
142
0.0
142
0.0
142
0.0
142
1.0
142
0.0
142
0.0
142
0.0
142
0.0
142
1.0
179
     0
144
0.0208333333333333
144
0.0
144
0.0
144
0.0
144
0.0
144
0.0208333333333333
144
0.0
144
0.0
144
0.0
144
0.0
144
1.0
144
0.0
144
0.0
144
0.0
144
0.0
144
1.0
147
0.0208333333333333
147
0.0
147
0.0
147
0.0
147
0.0
147
0.0208333333333333
147
0.0
147
0.0
147
0.0
147
0.0
147
1.0
147
0.0
147
0.0
147
0.0
147
0.0
147
1.0
  0
MATERIAL
  5
BB
102
{ACAD_XDICTIONARY
360
BC
102
}
102
{ACAD_REACTORS
330
AA
102
}
330
AA
100
AcDbMaterial
  1
Global
 72
     0
 43
0.0208333333333333
 43
0.0
 43
0.0
 43
0.0
 43
0.0
 43
0.0208333333333333
 43
0.0
 43
0.0
 43
0.0
 43
0.0
 43
1.0
 43
0.0
 43
0.0
 43
0.0
 43
0.0
 43
1.0
 77
     0
 47
0.0208333333333333
 47
0.0
 47
0.0
 47
0.0
 47
0.0
 47
0.0208333333333333
 47
0.0
 47
0.0
 47
0.0
 47
0.0
 47
1.0
 47
0.0
 47
0.0
 47
0.0
 47
0.0
 47
1.0
171
     0
 49
0.0208333333333333
 49
0.0
 49
0.0
 49
0.0
 49
0.0
 49
0.0208333333333333
 49
0.0
 49
0.0
 49
0.0
 49
0.0
 49
1.0
 49
0.0
 49
0.0
 49
0.0
 49
0.0
 49
1.0
175
     0
142
0.0208333333333333
142
0.0
142
0.0
142
0.0
142
0.0
142
0.0208333333333333
142
0.0
142
0.0
142
0.0
142
0.0
142
1.0
142
0.0
142
0.0
142
0.0
142
0.0
142
1.0
179
     0
144
0.0208333333333333
144
0.0
144
0.0
144
0.0
144
0.0
144
0.0208333333333333
144
0.0
144
0.0
144
0.0
144
0.0
144
1.0
144
0.0
144
0.0
144
0.0
144
0.0
144
1.0
147
0.0208333333333333
147
0.0
147
0.0
147
0.0
147
0.0
147
0.0208333333333333
147
0.0
147
0.0
147
0.0
147
0.0
147
1.0
147
0.0
147
0.0
147
0.0
147
0.0
147
1.0
  0
MLEADERSTYLE
  5
F2
102
{ACAD_XDICTIONARY
360
1BB
102
}
102
{ACAD_REACTORS
330
F1
102
}
330
F1
100
AcDbMLeaderStyle
179
     2
170
     2
171
     1
172
     0
 90
        2
 40
0.0
 41
0.0
173
     1
 91
-1056964608
340
14
 92
       -2
290
     1
 42
0.09
291
     1
 43
0.36
  3
Standard
 44
0.18
300

342
11
174
     1
178
     6
175
     1
176
     0
 93
-1056964608
 45
0.18
292
     0
297
     0
 46
0.18
 94
-1056964608
 47
1.0
 49
1.0
140
1.0
293
     1
141
0.0
294
     1
177
     0
142
1.0
295
     0
296
     0
143
0.125
271
     0
272
     9
273
     9
  0
MLINESTYLE
  5
18
102
{ACAD_REACTORS
330
17
102
}
330
17
100
AcDbMlineStyle
  2
STANDARD
 70
     0
  3

 62
   256
 51
90.0
 52
90.0
 71
     2
 49
0.5
 62
   256
  6
BYLAYER
 49
-0.5
 62
   256
  6
BYLAYER
  0
ACDBPLACEHOLDER
  5
2D
102
{ACAD_REACTORS
330
E
102
}
330
E
  0
ACDBPLACEHOLDER
  5
F
102
{ACAD_REACTORS
330
E
102
}
330
E
  0
SCALE
  5
E0
102
{ACAD_REACTORS
330
DF
102
}
330
DF
100
AcDbScale
 70
     0
300
1:1
140
1.0
141
1.0
290
     1
  0
SCALE
  5
E1
102
{ACAD_REACTORS
330
DF
102
}
330
DF
100
AcDbScale
 70
     0
300
1/128" = 1'-0"
140
0.0078125
141
12.0
290
     0
  0
SCALE
  5
E2
102
{ACAD_REACTORS
330
DF
102
}
330
DF
100
AcDbScale
 70
     0
300
1/64" = 1'-0"
140
0.015625
141
12.0
290
     0
  0
SCALE
  5
E3
102
{ACAD_REACTORS
330
DF
102
}
330
DF
100
AcDbScale
 70
     0
300
1/32" = 1'-0"
140
0.03125
141
12.0
290
     0
  0
SCALE
  5
E4
102
{ACAD_REACTORS
330
DF
102
}
330
DF
100
AcDbScale
 70
     0
300
1/16" = 1'-0"
140
0.0625
141
12.0
290
     0
  0
SCALE
  5
E5
102
{ACAD_REACTORS
330
DF
102
}
330
DF
100
AcDbScale
 70
     0
300
3/32" = 1'-0"
140
0.09375
141
12.0
290
     0
  0
SCALE
  5
E6
102
{ACAD_REACTORS
330
DF
102
}
330
DF
100
AcDbScale
 70
     0
300
1/8" = 1'-0"
140
0.125
141
12.0
290
     0
  0
SCALE
  5
E7
102
{ACAD_REACTORS
330
DF
102
}
330
DF
100
AcDbScale
 70
     0
300
3/16" = 1'-0"
140
0.1875
141
12.0
290
     0
  0
SCALE
  5
E8
102
{ACAD_REACTORS
330
DF
102
}
330
DF
100
AcDbScale
 70
     0
300
1/4" = 1'-0"
140
0.25
141
12.0
290
     0
  0
SCALE
  5
E9
102
{ACAD_REACTORS
330
DF
102
}
330
DF
100
AcDbScale
 70
     0
300
3/8" = 1'-0"
140
0.375
141
12.0
290
     0
  0
SCALE
  5
EA
102
{ACAD_REACTORS
330
DF
102
}
330
DF
100
AcDbScale
 70
     0
300
1/2" = 1'-0"
140
0.5
141
12.0
290
     0
  0
SCALE
  5
EB
102
{ACAD_REACTORS
330
DF
102
}
330
DF
100
AcDbScale
 70
     0
300
3/4" = 1'-0"
140
0.75
141
12.0
290
     0
  0
SCALE
  5
EC
102
{ACAD_REACTORS
330
DF
102
}
330
DF
100
AcDbScale
 70
     0
300
1" = 1'-0"
140
1.0
141
12.0
290
     0
  0
SCALE
  5
ED
102
{ACAD_REACTORS
330
DF
102
}
330
DF
100
AcDbScale
 70
     0
300
1-1/2" = 1'-0"
140
1.5
141
12.0
290
     0
  0
SCALE
  5
EE
102
{ACAD_REACTORS
330
DF
102
}
330
DF
100
AcDbScale
 70
     0
300
3" = 1'-0"
140
3.0
141
12.0
290
     0
  0
SCALE
  5
EF
102
{ACAD_REACTORS
330
DF
102
}
330
DF
100
AcDbScale
 70
     0
300
6" = 1'-0"
140
6.0
141
12.0
290
     0
  0
SCALE
  5
F0
102
{ACAD_REACTORS
330
DF
102
}
330
DF
100
AcDbScale
 70
     0
300
1'-0" = 1'-0"
140
12.0
141
12.0
290
     0
  0
ACDBSECTIONVIEWSTYLE
  5
F4
102
{ACAD_XDICTIONARY
360
1BD
102
}
102
{ACAD_REACTORS
330
F3
102
}
330
F3
100
AcDbModelDocViewStyle
 70
     0
  3
Imperial24
290
     0
100
AcDbSectionViewStyle
 70
     0
 71
     0
 90
       78
 71
     1
340
11
 62
   256
 40
0.24
340
0
340
0
 62
   256
 40
0.24
300
I, O, Q, S, X, Z
 40
0.48
 90
        3
 40
0.18
 90
        1
 71
     2
340
16
 90
       25
 62
   256
340
16
 90
       50
 62
   256
 40
0.24
 40
0.0
 40
0.24
 71
     3
340
11
 62
   256
 40
0.24
 90
        1
 40
0.75
 90
        1
300
%<\AcVar ViewType \f "%tc1">% %<\AcVar ViewSectionStartId>%-%<\AcVar ViewSectionEndId>%\PSCALE %<\AcVar ViewScale \f "%sn">%
 71
     4
 62
   256
 62
   257
300
ANSI31
 40
1.0
 90
        0
290
     0
290
     0
 90
        6
 40
0.0
 40
1.570796326794896
 40
0.2617993877991494
 40
1.308996938995747
 40
-0.2617993877991494
 40
1.832595714594046
  0
TABLESTYLE
  5
DE
102
{ACAD_XDICTIONARY
360
188
102
}
102
{ACAD_REACTORS
330
DD
102
}
330
DD
100
AcDbTableStyle
280
     0
  3
Standard
 70
     0
 71
     0
 40
0.06
 41
0.06
280
     0
281
     0
  7
Standard
140
0.18
170
     2
 62
     0
 63
     7
283
     0
 90
      512
 91
        0
  1

274
    -2
284
     1
 64
     0
275
    -2
285
     1
 65
     0
276
    -2
286
     1
 66
     0
277
    -2
287
     1
 67
     0
278
    -2
288
     1
 68
     0
279
    -2
289
     1
 69
     0
  7
Standard
140
0.25
170
     5
 62
     0
 63
     7
283
     0
 90
      512
 91
        0
  1

274
    -2
284
     1
 64
     0
275
    -2
285
     1
 65
     0
276
    -2
286
     1
 66
     0
277
    -2
287
     1
 67
     0
278
    -2
288
     1
 68
     0
279
    -2
289
     1
 69
     0
  7
Standard
140
0.18
170
     5
 62
     0
 63
     7
283
     0
 90
      512
 91
        0
  1

274
    -2
284
     1
 64
     0
275
    -2
285
     1
 65
     0
276
    -2
286
     1
 66
     0
277
    -2
287
     1
 67
     0
278
    -2
288
     1
 68
     0
279
    -2
289
     1
 69
     0
  0
VISUALSTYLE
  5
C9
102
{ACAD_XDICTIONARY
360
195
102
}
102
{ACAD_REACTORS
330
C3
102
}
330
C3
100
AcDbVisualStyle
  2
2dWireframe
 70
     4
177
     2
291
     0
 71
     0
176
     1
 72
     2
176
     1
 73
     0
176
     1
 90
        0
176
     1
 40
0.6
176
     1
 41
30.0
176
     1
 63
     7
421
 16777215
176
     1
 74
     1
176
     1
 91
        4
176
     1
 64
     7
176
     1
 65
   257
176
     1
 75
     1
176
     1
175
     1
176
     1
 42
1.0
176
     1
 92
        0
176
     1
 66
   257
176
     1
 43
1.0
176
     1
 76
     1
176
     1
 77
     6
176
     1
 78
     2
176
     1
 67
     7
176
     1
 79
     5
176
     1
170
     0
176
     1
171
     0
176
     1
290
     0
176
     1
 93
        1
176
     1
 44
0.0
176
     1
173
     0
176
     1
1001
ACAD
1000
AcDbSavedByObjectVersion
1070
     0
  0
VISUALSTYLE
  5
C8
102
{ACAD_XDICTIONARY
360
193
102
}
102
{ACAD_REACTORS
330
C3
102
}
330
C3
100
AcDbVisualStyle
  2
Basic
 70
     7
177
     2
291
     1
 71
     1
176
     1
 72
     0
176
     1
 73
     1
176
     1
 90
        0
176
     1
 40
0.6
176
     1
 41
30.0
176
     1
 63
     7
421
 16777215
176
     1
 74
     0
176
     1
 91
        4
176
     1
 64
     7
176
     1
 65
   257
176
     1
 75
     1
176
     1
175
     1
176
     1
 42
1.0
176
     1
 92
        8
176
     1
 66
     7
176
     1
 43
1.0
176
     1
 76
     1
176
     1
 77
     6
176
     1
 78
     2
176
     1
 67
     7
176
     1
 79
     5
176
     1
170
     0
176
     1
171
     0
176
     1
290
     0
176
     1
 93
        1
176
     1
 44
0.0
176
     1
173
     0
176
     1
1001
ACAD
1000
AcDbSavedByObjectVersion
1070
     0
  0
VISUALSTYLE
  5
CF
102
{ACAD_XDICTIONARY
360
1A1
102
}
102
{ACAD_REACTORS
330
C3
102
}
330
C3
100
AcDbVisualStyle
  2
Brighten
 70
    12
177
     2
291
     1
 71
     2
176
     1
 72
     2
176
     1
 73
     0
176
     1
 90
        0
176
     1
 40
0.6
176
     1
 41
30.0
176
     1
 63
     7
421
 16777215
176
     1
 74
     1
176
     1
 91
        4
176
     1
 64
     7
176
     1
 65
   257
176
     1
 75
     1
176
     1
175
     1
176
     1
 42
1.0
176
     1
 92
        8
176
     1
 66
     7
176
     1
 43
1.0
176
     1
 76
     1
176
     1
 77
     6
176
     1
 78
     2
176
     1
 67
     7
176
     1
 79
     5
176
     1
170
     0
176
     1
171
     0
176
     1
290
     0
176
     1
 93
        1
176
     1
 44
50.0
176
     1
173
     0
176
     1
1001
ACAD
1000
AcDbSavedByObjectVersion
1070
     0
  0
VISUALSTYLE
  5
D3
102
{ACAD_XDICTIONARY
360
1A9
102
}
102
{ACAD_REACTORS
330
C3
102
}
330
C3
100
AcDbVisualStyle
  2
ColorChange
 70
    16
177
     2
291
     1
 71
     2
176
     1
 72
     2
176
     1
 73
     3
176
     1
 90
        0
176
     1
 40
0.6
176
     1
 41
30.0
176
     1
 63
     8
421
  8421504
176
     1
 74
     1
176
     1
 91
        4
176
     1
 64
     7
176
     1
 65
   257
176
     1
 75
     1
176
     1
175
     1
176
     1
 42
1.0
176
     1
 92
        8
176
     1
 66
     8
424
  8421504
176
     1
 43
1.0
176
     1
 76
     1
176
     1
 77
     6
176
     1
 78
     2
176
     1
 67
     7
176
     1
 79
     5
176
     1
170
     0
176
     1
171
     0
176
     1
290
     0
176
     1
 93
        1
176
     1
 44
0.0
176
     1
173
     0
176
     1
1001
ACAD
1000
AcDbSavedByObjectVersion
1070
     0
  0
VISUALSTYLE
  5
CC
102
{ACAD_XDICTIONARY
360
19B
102
}
102
{ACAD_REACTORS
330
C3
102
}
330
C3
100
AcDbVisualStyle
  2
Conceptual
 70
     9
177
     2
291
     0
 71
     3
176
     1
 72
     2
176
     1
 73
     0
176
     1
 90
        0
176
     1
 40
0.6
176
     1
 41
30.0
176
     1
 63
     7
421
 16777215
176
     1
 74
     2
176
     1
 91
        2
176
     1
 64
     7
176
     1
 65
   257
176
     1
 75
     1
176
     1
175
     1
176
     1
 42
179.0
176
     1
 92
        8
176
     1
 66
     7
176
     1
 43
1.0
176
     1
 76
     1
176
     1
 77
     6
176
     1
 78
     2
176
     1
 67
     7
176
     1
 79
     3
176
     1
170
     0
176
     1
171
     0
176
     1
290
     0
176
     1
 93
        1
176
     1
 44
0.0
176
     1
173
     0
176
     1
1001
ACAD
1000
AcDbSavedByObjectVersion
1070
     0
  0
VISUALSTYLE
  5
CE
102
{ACAD_XDICTIONARY
360
19F
102
}
102
{ACAD_REACTORS
330
C3
102
}
330
C3
100
AcDbVisualStyle
  2
Dim
 70
    11
177
     2
291
     1
 71
     2
176
     1
 72
     2
176
     1
 73
     0
176
     1
 90
        0
176
     1
 40
0.6
176
     1
 41
30.0
176
     1
 63
     7
421
 16777215
176
     1
 74
     1
176
     1
 91
        4
176
     1
 64
     7
176
     1
 65
   257
176
     1
 75
     1
176
     1
175
     1
176
     1
 42
1.0
176
     1
 92
        8
176
     1
 66
     7
176
     1
 43
1.0
176
     1
 76
     1
176
     1
 77
     6
176
     1
 78
     2
176
     1
 67
     7
176
     1
 79
     5
176
     1
170
     0
176
     1
171
     0
176
     1
290
     0
176
     1
 93
        1
176
     1
 44
-50.0
176
     1
173
     0
176
     1
1001
ACAD
1000
AcDbSavedByObjectVersion
1070
     0
  0
VISUALSTYLE
  5
DB
102
{ACAD_XDICTIONARY
360
1B9
102
}
102
{ACAD_REACTORS
330
C3
102
}
330
C3
100
AcDbVisualStyle
  2
EdgeColorOff
 70
    22
177
     2
291
     1
 71
     2
176
     0
 72
     2
176
     0
 73
     0
176
     0
 90
        0
176
     0
 40
0.6
176
     0
 41
30.0
176
     0
 63
     7
421
 16777215
176
     0
 74
     1
176
     0
 91
        4
176
     0
 64
     7
176
     0
 65
   257
176
     0
 75
     1
176
     0
175
     1
176
     0
 42
1.0
176
     0
 92
        8
176
     2
 66
     7
176
     0
 43
1.0
176
     0
 76
     1
176
     0
 77
     6
176
     0
 78
     2
176
     0
 67
     7
176
     0
 79
     5
176
     0
170
     0
176
     0
171
     0
176
     0
290
     0
176
     0
 93
        1
176
     0
 44
0.0
176
     0
173
     0
176
     0
1001
ACAD
1000
AcDbSavedByObjectVersion
1070
     0
  0
VISUALSTYLE
  5
D2
102
{ACAD_XDICTIONARY
360
1A7
102
}
102
{ACAD_REACTORS
330
C3
102
}
330
C3
100
AcDbVisualStyle
  2
Facepattern
 70
    15
177
     2
291
     1
 71
     2
176
     1
 72
     2
176
     1
 73
     0
176
     1
 90
        0
176
     1
 40
0.6
176
     1
 41
30.0
176
     1
 63
     7
421
 16777215
176
     1
 74
     1
176
     1
 91
        4
176
     1
 64
     7
176
     1
 65
   257
176
     1
 75
     1
176
     1
175
     1
176
     1
 42
1.0
176
     1
 92
        8
176
     1
 66
     7
176
     1
 43
1.0
176
     1
 76
     1
176
     1
 77
     6
176
     1
 78
     2
176
     1
 67
     7
176
     1
 79
     5
176
     1
170
     0
176
     1
171
     0
176
     1
290
     0
176
     1
 93
        1
176
     1
 44
0.0
176
     1
173
     0
176
     1
1001
ACAD
1000
AcDbSavedByObjectVersion
1070
     0
  0
VISUALSTYLE
  5
C4
102
{ACAD_XDICTIONARY
360
18B
102
}
102
{ACAD_REACTORS
330
C3
102
}
330
C3
100
AcDbVisualStyle
  2
Flat
 70
     0
177
     2
291
     1
 71
     2
176
     1
 72
     1
176
     1
 73
     1
176
     1
 90
        2
176
     1
 40
0.6
176
     1
 41
30.0
176
     1
 63
     7
421
 16777215
176
     1
 74
     0
176
     1
 91
        0
176
     1
 64
     7
176
     1
 65
   257
176
     1
 75
     1
176
     1
175
     1
176
     1
 42
1.0
176
     1
 92
        8
176
     1
 66
     7
176
     1
 43
1.0
176
     1
 76
     1
176
     1
 77
     6
176
     1
 78
     2
176
     1
 67
     7
176
     1
 79
     5
176
     1
170
     0
176
     1
171
     0
176
     1
290
     0
176
     1
 93
       13
176
     1
 44
0.0
176
     1
173
     0
176
     1
1001
ACAD
1000
AcDbSavedByObjectVersion
1070
     0
  0
VISUALSTYLE
  5
C5
102
{ACAD_XDICTIONARY
360
18D
102
}
102
{ACAD_REACTORS
330
C3
102
}
330
C3
100
AcDbVisualStyle
  2
FlatWithEdges
 70
     1
177
     2
291
     1
 71
     2
176
     1
 72
     1
176
     1
 73
     1
176
     1
 90
        2
176
     1
 40
0.6
176
     1
 41
30.0
176
     1
 63
     7
421
 16777215
176
     1
 74
     1
176
     1
 91
        0
176
     1
 64
     7
176
     1
 65
   257
176
     1
 75
     1
176
     1
175
     1
176
     1
 42
1.0
176
     1
 92
        0
176
     1
 66
   257
176
     1
 43
1.0
176
     1
 76
     1
176
     1
 77
     6
176
     1
 78
     2
176
     1
 67
     7
176
     1
 79
     5
176
     1
170
     0
176
     1
171
     0
176
     1
290
     0
176
     1
 93
       13
176
     1
 44
0.0
176
     1
173
     0
176
     1
1001
ACAD
1000
AcDbSavedByObjectVersion
1070
     0
  0
VISUALSTYLE
  5
C6
102
{ACAD_XDICTIONARY
360
18F
102
}
102
{ACAD_REACTORS
330
C3
102
}
330
C3
100
AcDbVisualStyle
  2
Gouraud
 70
     2
177
     2
291
     1
 71
     2
176
     1
 72
     2
176
     1
 73
     1
176
     1
 90
        2
176
     1
 40
0.6
176
     1
 41
30.0
176
     1
 63
     7
421
 16777215
176
     1
 74
     0
176
     1
 91
        0
176
     1
 64
     7
176
     1
 65
   257
176
     1
 75
     1
176
     1
175
     1
176
     1
 42
1.0
176
     1
 92
        0
176
     1
 66
     7
176
     1
 43
1.0
176
     1
 76
     1
176
     1
 77
     6
176
     1
 78
     2
176
     1
 67
     7
176
     1
 79
     5
176
     1
170
     0
176
     1
171
     0
176
     1
290
     0
176
     1
 93
       13
176
     1
 44
0.0
176
     1
173
     0
176
     1
1001
ACAD
1000
AcDbSavedByObjectVersion
1070
     0
  0
VISUALSTYLE
  5
C7
102
{ACAD_XDICTIONARY
360
191
102
}
102
{ACAD_REACTORS
330
C3
102
}
330
C3
100
AcDbVisualStyle
  2
GouraudWithEdges
 70
     3
177
     2
291
     1
 71
     2
176
     1
 72
     2
176
     1
 73
     1
176
     1
 90
        2
176
     1
 40
0.6
176
     1
 41
30.0
176
     1
 63
     7
421
 16777215
176
     1
 74
     1
176
     1
 91
        0
176
     1
 64
     7
176
     1
 65
   257
176
     1
 75
     1
176
     1
175
     1
176
     1
 42
1.0
176
     1
 92
        0
176
     1
 66
   257
176
     1
 43
1.0
176
     1
 76
     1
176
     1
 77
     6
176
     1
 78
     2
176
     1
 67
     7
176
     1
 79
     5
176
     1
170
     0
176
     1
171
     0
176
     1
290
     0
176
     1
 93
       13
176
     1
 44
0.0
176
     1
173
     0
176
     1
1001
ACAD
1000
AcDbSavedByObjectVersion
1070
     0
  0
VISUALSTYLE
  5
CB
102
{ACAD_XDICTIONARY
360
199
102
}
102
{ACAD_REACTORS
330
C3
102
}
330
C3
100
AcDbVisualStyle
  2
Hidden
 70
     6
177
     2
291
     0
 71
     1
176
     1
 72
     2
176
     1
 73
     2
176
     1
 90
        0
176
     1
 40
0.6
176
     1
 41
30.0
176
     1
 63
     7
421
 16777215
176
     1
 74
     2
176
     1
 91
        2
176
     1
 64
     7
176
     1
 65
   257
176
     1
 75
     2
176
     1
175
     1
176
     1
 42
40.0
176
     1
 92
        0
176
     1
 66
   257
176
     1
 43
1.0
176
     1
 76
     1
176
     1
 77
     6
176
     1
 78
     2
176
     1
 67
     7
176
     1
 79
     3
176
     1
170
     0
176
     1
171
     0
176
     1
290
     0
176
     1
 93
        1
176
     1
 44
0.0
176
     1
173
     0
176
     1
1001
ACAD
1000
AcDbSavedByObjectVersion
1070
     0
  0
VISUALSTYLE
  5
D9
102
{ACAD_XDICTIONARY
360
1B5
102
}
102
{ACAD_REACTORS
330
C3
102
}
330
C3
100
AcDbVisualStyle
  2
JitterOff
 70
    20
177
     2
291
     1
 71
     2
176
     0
 72
     2
176
     0
 73
     0
176
     0
 90
        0
176
     0
 40
0.6
176
     0
 41
30.0
176
     0
 63
     7
421
 16777215
176
     0
 74
     1
176
     0
 91
        4
176
     0
 64
     7
176
     0
 65
   257
176
     0
 75
     1
176
     0
175
     1
176
     0
 42
1.0
176
     0
 92
       10
176
     2
 66
     7
176
     0
 43
1.0
176
     0
 76
     1
176
     0
 77
     6
176
     0
 78
     2
176
     0
 67
     7
176
     0
 79
     5
176
     0
170
     0
176
     0
171
     0
176
     0
290
     0
176
     0
 93
        1
176
     0
 44
0.0
176
     0
173
     0
176
     0
1001
ACAD
1000
AcDbSavedByObjectVersion
1070
     0
  0
VISUALSTYLE
  5
D1
102
{ACAD_XDICTIONARY
360
1A5
102
}
102
{ACAD_REACTORS
330
C3
102
}
330
C3
100
AcDbVisualStyle
  2
Linepattern
 70
    14
177
     2
291
     1
 71
     2
176
     1
 72
     2
176
     1
 73
     0
176
     1
 90
        0
176
     1
 40
0.6
176
     1
 41
30.0
176
     1
 63
     7
421
 16777215
176
     1
 74
     1
176
     1
 91
        4
176
     1
 64
     7
176
     1
 65
   257
176
     1
 75
     7
176
     1
175
     7
176
     1
 42
1.0
176
     1
 92
        8
176
     1
 66
     7
176
     1
 43
1.0
176
     1
 76
     1
176
     1
 77
     6
176
     1
 78
     2
176
     1
 67
     7
176
     1
 79
     5
176
     1
170
     0
176
     1
171
     0
176
     1
290
     0
176
     1
 93
        1
176
     1
 44
0.0
176
     1
173
     0
176
     1
1001
ACAD
1000
AcDbSavedByObjectVersion
1070
     0
  0
VISUALSTYLE
  5
DA
102
{ACAD_XDICTIONARY
360
1B7
102
}
102
{ACAD_REACTORS
330
C3
102
}
330
C3
100
AcDbVisualStyle
  2
OverhangOff
 70
    21
177
     2
291
     1
 71
     2
176
     0
 72
     2
176
     0
 73
     0
176
     0
 90
        0
176
     0
 40
0.6
176
     0
 41
30.0
176
     0
 63
     7
421
 16777215
176
     0
 74
     1
176
     0
 91
        4
176
     0
 64
     7
176
     0
 65
   257
176
     0
 75
     1
176
     0
175
     1
176
     0
 42
1.0
176
     0
 92
        9
176
     2
 66
     7
176
     0
 43
1.0
176
     0
 76
     1
176
     0
 77
     6
176
     0
 78
     2
176
     0
 67
     7
176
     0
 79
     5
176
     0
170
     0
176
     0
171
     0
176
     0
290
     0
176
     0
 93
        1
176
     0
 44
0.0
176
     0
173
     0
176
     0
1001
ACAD
1000
AcDbSavedByObjectVersion
1070
     0
  0
VISUALSTYLE
  5
CD
102
{ACAD_XDICTIONARY
360
19D
102
}
102
{ACAD_REACTORS
330
C3
102
}
330
C3
100
AcDbVisualStyle
  2
Realistic
 70
     8
177
     2
291
     0
 71
     2
176
     1
 72
     3
176
     1
 73
     0
176
     1
 90
        2
176
     1
 40
0.6
176
     1
 41
30.0
176
     1
 63
     7
421
 16777215
176
     1
 74
     0
176
     1
 91
        0
176
     1
 64
     7
176
     1
 65
   257
176
     1
 75
     1
176
     1
175
     1
176
     1
 42
1.0
176
     1
 92
        8
176
     1
 66
   257
176
     1
 43
1.0
176
     1
 76
     1
176
     1
 77
     6
176
     1
 78
     2
176
     1
 67
     7
176
     1
 79
     3
176
     1
170
     0
176
     1
171
     0
176
     1
290
     0
176
     1
 93
       13
176
     1
 44
0.0
176
     1
173
     0
176
     1
1001
ACAD
1000
AcDbSavedByObjectVersion
1070
     0
  0
VISUALSTYLE
  5
D8
102
{ACAD_XDICTIONARY
360
1B3
102
}
102
{ACAD_REACTORS
330
C3
102
}
330
C3
100
AcDbVisualStyle
  2
Shaded
 70
    27
177
     2
291
     0
 71
     2
176
     1
 72
     2
176
     1
 73
     1
176
     1
 90
        2
176
     1
 40
0.6
176
     1
 41
30.0
176
     1
 63
     7
421
 16777215
176
     1
 74
     0
176
     1
 91
        4
176
     1
 64
     7
176
     1
 65
   257
176
     1
 75
     1
176
     1
175
     1
176
     1
 42
1.0
176
     1
 92
        8
176
     1
 66
   257
176
     1
 43
1.0
176
     1
 76
     1
176
     1
 77
     6
176
     1
 78
     2
176
     1
 67
     8
425
  7895160
176
     1
 79
     3
176
     1
170
     0
176
     1
171
     0
176
     1
290
     0
176
     1
 93
        5
176
     1
 44
0.0
176
     1
173
     0
176
     1
1001
ACAD
1000
AcDbSavedByObjectVersion
1070
     0
  0
VISUALSTYLE
  5
D7
102
{ACAD_XDICTIONARY
360
1B1
102
}
102
{ACAD_REACTORS
330
C3
102
}
330
C3
100
AcDbVisualStyle
  2
Shaded with edges
 70
    26
177
     2
291
     0
 71
     2
176
     1
 72
     2
176
     1
 73
     1
176
     1
 90
        2
176
     1
 40
0.6
176
     1
 41
30.0
176
     1
 63
     7
421
 16777215
176
     1
 74
     1
176
     1
 91
       10
176
     1
 64
     7
176
     1
 65
   257
176
     1
 75
     2
176
     1
175
     1
176
     1
 42
1.0
176
     1
 92
        8
176
     1
 66
   257
176
     1
 43
1.0
176
     1
 76
     1
176
     1
 77
     6
176
     1
 78
     2
176
     1
 67
     7
176
     1
 79
     3
176
     1
170
     0
176
     1
171
     0
176
     1
290
     0
176
     1
 93
        5
176
     1
 44
0.0
176
     1
173
     0
176
     1
1001
ACAD
1000
AcDbSavedByObjectVersion
1070
     0
  0
VISUALSTYLE
  5
D4
102
{ACAD_XDICTIONARY
360
1AB
102
}
102
{ACAD_REACTORS
330
C3
102
}
330
C3
100
AcDbVisualStyle
  2
Shades of Gray
 70
    23
177
     2
291
     0
 71
     2
176
     1
 72
     2
176
     1
 73
     3
176
     1
 90
        0
176
     1
 40
0.6
176
     1
 41
30.0
176
     1
 63
     7
421
 16777215
176
     1
 74
     2
176
     1
 91
        2
176
     1
 64
     7
176
     1
 65
     7
176
     1
 75
     1
176
     1
175
     1
176
     1
 42
40.0
176
     1
 92
        8
176
     1
 66
     7
176
     1
 43
1.0
176
     1
 76
     1
176
     1
 77
     6
176
     1
 78
     2
176
     1
 67
     7
176
     1
 79
     3
176
     1
170
     0
176
     1
171
     0
176
     1
290
     0
176
     1
 93
        1
176
     1
 44
0.0
176
     1
173
     0
176
     1
1001
ACAD
1000
AcDbSavedByObjectVersion
1070
     0
  0
VISUALSTYLE
  5
D5
102
{ACAD_XDICTIONARY
360
1AD
102
}
102
{ACAD_REACTORS
330
C3
102
}
330
C3
100
AcDbVisualStyle
  2
Sketchy
 70
    24
177
     2
291
     0
 71
     1
176
     1
 72
     2
176
     1
 73
     2
176
     1
 90
        0
176
     1
 40
0.6
176
     1
 41
30.0
176
     1
 63
     7
421
 16777215
176
     1
 74
     2
176
     1
 91
        2
176
     1
 64
     7
176
     1
 65
     7
176
     1
 75
     1
176
     1
175
     1
176
     1
 42
40.0
176
     1
 92
       11
176
     1
 66
     7
176
     1
 43
1.0
176
     1
 76
     1
176
     1
 77
     6
176
     1
 78
     2
176
     1
 67
     7
176
     1
 79
     6
176
     1
170
     0
176
     1
171
     0
176
     1
290
     0
176
     1
 93
        1
176
     1
 44
0.0
176
     1
173
     0
176
     1
1001
ACAD
1000
AcDbSavedByObjectVersion
1070
     0
  0
VISUALSTYLE
  5
D0
102
{ACAD_XDICTIONARY
360
1A3
102
}
102
{ACAD_REACTORS
330
C3
102
}
330
C3
100
AcDbVisualStyle
  2
Thicken
 70
    13
177
     2
291
     1
 71
     2
176
     1
 72
     2
176
     1
 73
     0
176
     1
 90
        0
176
     1
 40
0.6
176
     1
 41
30.0
176
     1
 63
     7
421
 16777215
176
     1
 74
     1
176
     1
 91
        4
176
     1
 64
     7
176
     1
 65
   257
176
     1
 75
     1
176
     1
175
     1
176
     1
 42
1.0
176
     1
 92
       12
176
     1
 66
     7
176
     1
 43
1.0
176
     1
 76
     1
176
     1
 77
     6
176
     1
 78
     2
176
     1
 67
     7
176
     1
 79
     5
176
     1
170
     0
176
     1
171
     0
176
     1
290
     0
176
     1
 93
        1
176
     1
 44
0.0
176
     1
173
     0
176
     1
1001
ACAD
1000
AcDbSavedByObjectVersion
1070
     0
  0
VISUALSTYLE
  5
CA
102
{ACAD_XDICTIONARY
360
197
102
}
102
{ACAD_REACTORS
330
C3
102
}
330
C3
100
AcDbVisualStyle
  2
Wireframe
 70
     5
177
     2
291
     0
 71
     0
176
     1
 72
     2
176
     1
 73
     0
176
     1
 90
        0
176
     1
 40
0.6
176
     1
 41
30.0
176
     1
 63
     7
421
 16777215
176
     1
 74
     1
176
     1
 91
        4
176
     1
 64
     7
176
     1
 65
   257
176
     1
 75
     1
176
     1
175
     1
176
     1
 42
1.0
176
     1
 92
        0
176
     1
 66
   257
176
     1
 43
1.0
176
     1
 76
     1
176
     1
 77
     6
176
     1
 78
     2
176
     1
 67
     7
176
     1
 79
     3
176
     1
170
     0
176
     1
171
     0
176
     1
290
     0
176
     1
 93
        1
176
     1
 44
0.0
176
     1
173
     0
176
     1
1001
ACAD
1000
AcDbSavedByObjectVersion
1070
     0
  0
VISUALSTYLE
  5
D6
102
{ACAD_XDICTIONARY
360
1AF
102
}
102
{ACAD_REACTORS
330
C3
102
}
330
C3
100
AcDbVisualStyle
  2
X-Ray
 70
    25
177
     2
291
     0
 71
     2
176
     1
 72
     2
176
     1
 73
     1
176
     1
 90
        1
176
     1
 40
0.5
176
     1
 41
30.0
176
     1
 63
     7
421
 16777215
176
     1
 74
     1
176
     1
 91
        0
176
     1
 64
     7
176
     1
 65
   257
176
     1
 75
     1
176
     1
175
     1
176
     1
 42
1.0
176
     1
 92
        8
176
     1
 66
     7
176
     1
 43
1.0
176
     1
 76
     1
176
     1
 77
     6
176
     1
 78
     2
176
     1
 67
     7
176
     1
 79
     3
176
     1
170
     0
176
     1
171
     0
176
     1
290
     0
176
     1
 93
       13
176
     1
 44
0.0
176
     1
173
     0
176
     1
1001
ACAD
1000
AcDbSavedByObjectVersion
1070
     0
  0
DICTIONARYVAR
  5
184
102
{ACAD_REACTORS
330
17E
102
}
330
17E
100
DictionaryVariables
280
     0
  1
1:1
  0
DICTIONARYVAR
  5
180
102
{ACAD_REACTORS
330
17E
102
}
330
17E
100
DictionaryVariables
280
     0
  1
STANDARD
  0
DICTIONARYVAR
  5
17F
102
{ACAD_REACTORS
330
17E
102
}
330
17E
100
DictionaryVariables
280
     0
  1
STANDARD
  0
DICTIONARYVAR
  5
181
102
{ACAD_REACTORS
330
17E
102
}
330
17E
100
DictionaryVariables
280
     0
  1
Imperial24
  0
DICTIONARYVAR
  5
182
102
{ACAD_REACTORS
330
17E
102
}
330
17E
100
DictionaryVariables
280
     0
  1
Imperial24
  0
DICTIONARYVAR
  5
186
102
{ACAD_REACTORS
330
17E
102
}
330
17E
100
DictionaryVariables
280
     0
  1
1
  0
DICTIONARYVAR
  5
187
102
{ACAD_REACTORS
330
17E
102
}
330
17E
100
DictionaryVariables
280
     0
  1
15
  0
DICTIONARYVAR
  5
185
102
{ACAD_REACTORS
330
17E
102
}
330
17E
100
DictionaryVariables
280
     0
  1
0
  0
DICTIONARYVAR
  5
183
102
{ACAD_REACTORS
330
17E
102
}
330
17E
100
DictionaryVariables
280
     0
  1
0
  0
DICTIONARY
  5
1BF
330
F6
100
AcDbDictionary
280
     1
281
     1
  3
ACAD_XREC_ROUNDTRIP
360
1C0
  0
DICTIONARY
  5
B4
330
B3
100
AcDbDictionary
280
     1
281
     1
  3
BUMPTILE
360
B6
  3
DIFFUSETILE
360
B5
  3
OPACITYTILE
360
B9
  3
REFLECTIONTILE
360
B8
  3
REFRACTIONTILE
360
BA
  3
SPECULARTILE
360
B7
  0
DICTIONARY
  5
AC
330
AB
100
AcDbDictionary
280
     1
281
     1
  3
BUMPTILE
360
AE
  3
DIFFUSETILE
360
AD
  3
OPACITYTILE
360
B1
  3
REFLECTIONTILE
360
B0
  3
REFRACTIONTILE
360
B2
  3
SPECULARTILE
360
AF
  0
DICTIONARY
  5
BC
330
BB
100
AcDbDictionary
280
     1
281
     1
  3
BUMPTILE
360
BE
  3
DIFFUSETILE
360
BD
  3
OPACITYTILE
360
C1
  3
REFLECTIONTILE
360
C0
  3
REFRACTIONTILE
360
C2
  3
SPECULARTILE
360
BF
  0
DICTIONARY
  5
1BB
330
F2
100
AcDbDictionary
280
     1
281
     1
  3
ACAD_XREC_ROUNDTRIP
360
1BC
  0
DICTIONARY
  5
1BD
330
F4
100
AcDbDictionary
280
     1
281
     1
  3
ACAD_XREC_ROUNDTRIP
360
1BE
  0
DICTIONARY
  5
188
330
DE
100
AcDbDictionary
280
     1
281
     1
  3
ACAD_ROUNDTRIP_2008_TABLESTYLE_CELLSTYLEMAP
360
189
  0
DICTIONARY
  5
195
330
C9
100
AcDbDictionary
280
     1
281
     1
  3
ACAD_XREC_ROUNDTRIP
360
196
  0
DICTIONARY
  5
193
330
C8
100
AcDbDictionary
280
     1
281
     1
  3
ACAD_XREC_ROUNDTRIP
360
194
  0
DICTIONARY
  5
1A1
330
CF
100
AcDbDictionary
280
     1
281
     1
  3
ACAD_XREC_ROUNDTRIP
360
1A2
  0
DICTIONARY
  5
1A9
330
D3
100
AcDbDictionary
280
     1
281
     1
  3
ACAD_XREC_ROUNDTRIP
360
1AA
  0
DICTIONARY
  5
19B
330
CC
100
AcDbDictionary
280
     1
281
     1
  3
ACAD_XREC_ROUNDTRIP
360
19C
  0
DICTIONARY
  5
19F
330
CE
100
AcDbDictionary
280
     1
281
     1
  3
ACAD_XREC_ROUNDTRIP
360
1A0
  0
DICTIONARY
  5
1B9
330
DB
100
AcDbDictionary
280
     1
281
     1
  3
ACAD_XREC_ROUNDTRIP
360
1BA
  0
DICTIONARY
  5
1A7
330
D2
100
AcDbDictionary
280
     1
281
     1
  3
ACAD_XREC_ROUNDTRIP
360
1A8
  0
DICTIONARY
  5
18B
330
C4
100
AcDbDictionary
280
     1
281
     1
  3
ACAD_XREC_ROUNDTRIP
360
18C
  0
DICTIONARY
  5
18D
330
C5
100
AcDbDictionary
280
     1
281
     1
  3
ACAD_XREC_ROUNDTRIP
360
18E
  0
DICTIONARY
  5
18F
330
C6
100
AcDbDictionary
280
     1
281
     1
  3
ACAD_XREC_ROUNDTRIP
360
190
  0
DICTIONARY
  5
191
330
C7
100
AcDbDictionary
280
     1
281
     1
  3
ACAD_XREC_ROUNDTRIP
360
192
  0
DICTIONARY
  5
199
330
CB
100
AcDbDictionary
280
     1
281
     1
  3
ACAD_XREC_ROUNDTRIP
360
19A
  0
DICTIONARY
  5
1B5
330
D9
100
AcDbDictionary
280
     1
281
     1
  3
ACAD_XREC_ROUNDTRIP
360
1B6
  0
DICTIONARY
  5
1A5
330
D1
100
AcDbDictionary
280
     1
281
     1
  3
ACAD_XREC_ROUNDTRIP
360
1A6
  0
DICTIONARY
  5
1B7
330
DA
100
AcDbDictionary
280
     1
281
     1
  3
ACAD_XREC_ROUNDTRIP
360
1B8
  0
DICTIONARY
  5
19D
330
CD
100
AcDbDictionary
280
     1
281
     1
  3
ACAD_XREC_ROUNDTRIP
360
19E
  0
DICTIONARY
  5
1B3
330
D8
100
AcDbDictionary
280
     1
281
     1
  3
ACAD_XREC_ROUNDTRIP
360
1B4
  0
DICTIONARY
  5
1B1
330
D7
100
AcDbDictionary
280
     1
281
     1
  3
ACAD_XREC_ROUNDTRIP
360
1B2
  0
DICTIONARY
  5
1AB
330
D4
100
AcDbDictionary
280
     1
281
     1
  3
ACAD_XREC_ROUNDTRIP
360
1AC
  0
DICTIONARY
  5
1AD
330
D5
100
AcDbDictionary
280
     1
281
     1
  3
ACAD_XREC_ROUNDTRIP
360
1AE
  0
DICTIONARY
  5
1A3
330
D0
100
AcDbDictionary
280
     1
281
     1
  3
ACAD_XREC_ROUNDTRIP
360
1A4
  0
DICTIONARY
  5
197
330
CA
100
AcDbDictionary
280
     1
281
     1
  3
ACAD_XREC_ROUNDTRIP
360
198
  0
DICTIONARY
  5
1AF
330
D6
100
AcDbDictionary
280
     1
281
     1
  3
ACAD_XREC_ROUNDTRIP
360
1B0
  0
XRECORD
  5
1C0
102
{ACAD_REACTORS
330
1BF
102
}
330
1BF
100
AcDbXrecord
280
     1
102
DISPLAYNAME
  1
Imperial24
102
FLAGS
 90
        0
  0
XRECORD
  5
B6
102
{ACAD_REACTORS
330
B4
102
}
330
B4
100
AcDbXrecord
280
     1
270
     1
271
     1
  0
XRECORD
  5
B5
102
{ACAD_REACTORS
330
B4
102
}
330
B4
100
AcDbXrecord
280
     1
270
     1
271
     1
  0
XRECORD
  5
B9
102
{ACAD_REACTORS
330
B4
102
}
330
B4
100
AcDbXrecord
280
     1
270
     1
271
     1
  0
XRECORD
  5
B8
102
{ACAD_REACTORS
330
B4
102
}
330
B4
100
AcDbXrecord
280
     1
270
     1
271
     1
  0
XRECORD
  5
BA
102
{ACAD_REACTORS
330
B4
102
}
330
B4
100
AcDbXrecord
280
     1
270
     1
271
     1
  0
XRECORD
  5
B7
102
{ACAD_REACTORS
330
B4
102
}
330
B4
100
AcDbXrecord
280
     1
270
     1
271
     1
  0
XRECORD
  5
AE
102
{ACAD_REACTORS
330
AC
102
}
330
AC
100
AcDbXrecord
280
     1
270
     1
271
     1
  0
XRECORD
  5
AD
102
{ACAD_REACTORS
330
AC
102
}
330
AC
100
AcDbXrecord
280
     1
270
     1
271
     1
  0
XRECORD
  5
B1
102
{ACAD_REACTORS
330
AC
102
}
330
AC
100
AcDbXrecord
280
     1
270
     1
271
     1
  0
XRECORD
  5
B0
102
{ACAD_REACTORS
330
AC
102
}
330
AC
100
AcDbXrecord
280
     1
270
     1
271
     1
  0
XRECORD
  5
B2
102
{ACAD_REACTORS
330
AC
102
}
330
AC
100
AcDbXrecord
280
     1
270
     1
271
     1
  0
XRECORD
  5
AF
102
{ACAD_REACTORS
330
AC
102
}
330
AC
100
AcDbXrecord
280
     1
270
     1
271
     1
  0
XRECORD
  5
BE
102
{ACAD_REACTORS
330
BC
102
}
330
BC
100
AcDbXrecord
280
     1
270
     1
271
     1
  0
XRECORD
  5
BD
102
{ACAD_REACTORS
330
BC
102
}
330
BC
100
AcDbXrecord
280
     1
270
     1
271
     1
  0
XRECORD
  5
C1
102
{ACAD_REACTORS
330
BC
102
}
330
BC
100
AcDbXrecord
280
     1
270
     1
271
     1
  0
XRECORD
  5
C0
102
{ACAD_REACTORS
330
BC
102
}
330
BC
100
AcDbXrecord
280
     1
270
     1
271
     1
  0
XRECORD
  5
C2
102
{ACAD_REACTORS
330
BC
102
}
330
BC
100
AcDbXrecord
280
     1
270
     1
271
     1
  0
XRECORD
  5
BF
102
{ACAD_REACTORS
330
BC
102
}
330
BC
100
AcDbXrecord
280
     1
270
     1
271
     1
  0
XRECORD
  5
1BC
102
{ACAD_REACTORS
330
1BB
102
}
330
1BB
100
AcDbXrecord
280
     1
102
ACAD_ROUNDTRIP_2012_MLEADER_STYLE
298
     1
  0
XRECORD
  5
1BE
102
{ACAD_REACTORS
330
1BD
102
}
330
1BD
100
AcDbXrecord
280
     1
102
DISPLAYNAME
  1
Imperial24
102
FLAGS
 90
        0
  0
CELLSTYLEMAP
  5
189
102
{ACAD_REACTORS
330
188
102
}
330
188
100
AcDbCellStyleMap
 90
        3
300
CELLSTYLE
  1
TABLEFORMAT_BEGIN
 90
        5
170
     1
 91
        0
 92
    32768
 62
   257
 93
        1
300
CONTENTFORMAT
  1
CONTENTFORMAT_BEGIN
 90
        0
 91
        0
 92
      512
 93
        0
300

 40
0.0
140
1.0
 94
        5
 62
     0
340
11
144
0.25
309
CONTENTFORMAT_END
171
     0
 94
        0
309
TABLEFORMAT_END
  1
CELLSTYLE_BEGIN
 90
        1
 91
        1
300
_TITLE
309
CELLSTYLE_END
300
CELLSTYLE
  1
TABLEFORMAT_BEGIN
 90
        5
170
     1
 91
        0
 92
        0
 62
   257
 93
        1
300
CONTENTFORMAT
  1
CONTENTFORMAT_BEGIN
 90
        0
 91
        0
 92
      512
 93
        0
300

 40
0.0
140
1.0
 94
        5
 62
     0
340
11
144
0.18
309
CONTENTFORMAT_END
171
     0
 94
        0
309
TABLEFORMAT_END
  1
CELLSTYLE_BEGIN
 90
        2
 91
        1
300
_HEADER
309
CELLSTYLE_END
300
CELLSTYLE
  1
TABLEFORMAT_BEGIN
 90
        5
170
     1
 91
        0
 92
        0
 62
   257
 93
        1
300
CONTENTFORMAT
  1
CONTENTFORMAT_BEGIN
 90
        0
 91
        0
 92
      512
 93
        0
300

 40
0.0
140
1.0
 94
        2
 62
     0
340
11
144
0.18
309
CONTENTFORMAT_END
171
     0
 94
        0
309
TABLEFORMAT_END
  1
CELLSTYLE_BEGIN
 90
        3
 91
        2
300
_DATA
309
CELLSTYLE_END
  0
XRECORD
  5
196
102
{ACAD_REACTORS
330
195
102
}
330
195
100
AcDbXrecord
280
     1
102
RTVSPost2010Prop28
280
     1
102
RTVSPost2010PropOp28
 70
     1
102
RTVSPost2010Prop29
280
     1
102
RTVSPost2010PropOp29
 70
     1
102
RTVSPost2010Prop30
280
     0
102
RTVSPost2010PropOp30
 70
     1
102
RTVSPost2010Prop31
280
     0
102
RTVSPost2010PropOp31
 70
     1
102
RTVSPost2010Prop32
280
     0
102
RTVSPost2010PropOp32
 70
     1
102
RTVSPost2010Prop33
280
     0
102
RTVSPost2010PropOp33
 70
     1
102
RTVSPost2010Prop34
280
     0
102
RTVSPost2010PropOp34
 70
     1
102
RTVSPost2010Prop35
280
     0
102
RTVSPost2010PropOp35
 70
     1
102
RTVSPost2010Prop36
280
     0
102
RTVSPost2010PropOp36
 70
     1
102
RTVSPost2010Prop37
 90
       50
102
RTVSPost2010PropOp37
 70
     1
102
RTVSPost2010Prop38
140
0.0
102
RTVSPost2010PropOp38
 70
     1
102
RTVSPost2010Prop39
140
1.0
102
RTVSPost2010PropOp39
 70
     1
102
RTVSPost2010Prop40
 90
        0
102
RTVSPost2010PropOp40
 70
     1
102
RTVSPost2010Prop41ColorIndex
 90
       18
102
RTVSPost2010Prop41ColorRGB
 90
        0
102
RTVSPost2010PropOp41
 70
     1
102
RTVSPost2010Prop42
 90
       50
102
RTVSPost2010PropOp42
 70
     1
102
RTVSPost2010Prop43
 90
        3
102
RTVSPost2010PropOp43
 70
     1
102
RTVSPost2010Prop44ColorIndex
 90
        5
102
RTVSPost2010Prop44ColorRGB
 90
      255
102
RTVSPost2010PropOp44
 70
     1
102
RTVSPost2010Prop45
280
     0
102
RTVSPost2010PropOp45
 70
     1
102
RTVSPost2010Prop46
 90
       50
102
RTVSPost2010PropOp46
 70
     1
102
RTVSPost2010Prop47
 90
       50
102
RTVSPost2010PropOp47
 70
     1
102
RTVSPost2010Prop48
 90
       50
102
RTVSPost2010PropOp48
 70
     1
102
RTVSPost2010Prop49
280
     0
102
RTVSPost2010PropOp49
 70
     1
102
RTVSPost2010Prop50
 90
       50
102
RTVSPost2010PropOp50
 70
     1
102
RTVSPost2010Prop51ColorIndex
 90
      256
102
RTVSPost2010Prop51ColorRGB
 90
-16777216
102
RTVSPost2010PropOp51
 70
     0
102
RTVSPost2010Prop52
140
1.0
102
RTVSPost2010PropOp52
 70
     0
102
RTVSPost2010Prop53
 90
        2
102
RTVSPost2010PropOp53
 70
     1
102
RTVSPost2010Prop54
  1
strokes_ogs.tif
102
RTVSPost2010PropOp54
 70
     1
102
RTVSPost2010Prop55
280
     0
102
RTVSPost2010PropOp55
 70
     1
102
RTVSPost2010Prop56
140
1.0
102
RTVSPost2010PropOp56
 70
     1
102
RTVSPost2010Prop57
140
1.0
102
RTVSPost2010PropOp57
 70
     1
  0
XRECORD
  5
194
102
{ACAD_REACTORS
330
193
102
}
330
193
100
AcDbXrecord
280
     1
102
RTVSPost2010Prop28
280
     0
102
RTVSPost2010PropOp28
 70
     1
102
RTVSPost2010Prop29
280
     1
102
RTVSPost2010PropOp29
 70
     1
102
RTVSPost2010Prop30
280
     1
102
RTVSPost2010PropOp30
 70
     1
102
RTVSPost2010Prop31
280
     0
102
RTVSPost2010PropOp31
 70
     1
102
RTVSPost2010Prop32
280
     0
102
RTVSPost2010PropOp32
 70
     1
102
RTVSPost2010Prop33
280
     0
102
RTVSPost2010PropOp33
 70
     1
102
RTVSPost2010Prop34
280
     0
102
RTVSPost2010PropOp34
 70
     1
102
RTVSPost2010Prop35
280
     0
102
RTVSPost2010PropOp35
 70
     1
102
RTVSPost2010Prop36
280
     0
102
RTVSPost2010PropOp36
 70
     1
102
RTVSPost2010Prop37
 90
       50
102
RTVSPost2010PropOp37
 70
     1
102
RTVSPost2010Prop38
140
0.0
102
RTVSPost2010PropOp38
 70
     1
102
RTVSPost2010Prop39
140
1.0
102
RTVSPost2010PropOp39
 70
     1
102
RTVSPost2010Prop40
 90
        0
102
RTVSPost2010PropOp40
 70
     1
102
RTVSPost2010Prop41ColorIndex
 90
       18
102
RTVSPost2010Prop41ColorRGB
 90
        0
102
RTVSPost2010PropOp41
 70
     1
102
RTVSPost2010Prop42
 90
       50
102
RTVSPost2010PropOp42
 70
     1
102
RTVSPost2010Prop43
 90
        3
102
RTVSPost2010PropOp43
 70
     1
102
RTVSPost2010Prop44ColorIndex
 90
        5
102
RTVSPost2010Prop44ColorRGB
 90
      255
102
RTVSPost2010PropOp44
 70
     1
102
RTVSPost2010Prop45
280
     0
102
RTVSPost2010PropOp45
 70
     1
102
RTVSPost2010Prop46
 90
       50
102
RTVSPost2010PropOp46
 70
     1
102
RTVSPost2010Prop47
 90
       50
102
RTVSPost2010PropOp47
 70
     1
102
RTVSPost2010Prop48
 90
       50
102
RTVSPost2010PropOp48
 70
     1
102
RTVSPost2010Prop49
280
     0
102
RTVSPost2010PropOp49
 70
     1
102
RTVSPost2010Prop50
 90
       50
102
RTVSPost2010PropOp50
 70
     1
102
RTVSPost2010Prop51ColorIndex
 90
      256
102
RTVSPost2010Prop51ColorRGB
 90
-16777216
102
RTVSPost2010PropOp51
 70
     0
102
RTVSPost2010Prop52
140
1.0
102
RTVSPost2010PropOp52
 70
     0
102
RTVSPost2010Prop53
 90
        2
102
RTVSPost2010PropOp53
 70
     1
102
RTVSPost2010Prop54
  1
strokes_ogs.tif
102
RTVSPost2010PropOp54
 70
     1
102
RTVSPost2010Prop55
280
     0
102
RTVSPost2010PropOp55
 70
     1
102
RTVSPost2010Prop56
140
1.0
102
RTVSPost2010PropOp56
 70
     1
102
RTVSPost2010Prop57
140
1.0
102
RTVSPost2010PropOp57
 70
     1
  0
XRECORD
  5
1A2
102
{ACAD_REACTORS
330
1A1
102
}
330
1A1
100
AcDbXrecord
280
     1
102
RTVSPost2010Prop28
280
     0
102
RTVSPost2010PropOp28
 70
     1
102
RTVSPost2010Prop29
280
     1
102
RTVSPost2010PropOp29
 70
     1
102
RTVSPost2010Prop30
280
     1
102
RTVSPost2010PropOp30
 70
     1
102
RTVSPost2010Prop31
280
     0
102
RTVSPost2010PropOp31
 70
     1
102
RTVSPost2010Prop32
280
     0
102
RTVSPost2010PropOp32
 70
     1
102
RTVSPost2010Prop33
280
     0
102
RTVSPost2010PropOp33
 70
     1
102
RTVSPost2010Prop34
280
     0
102
RTVSPost2010PropOp34
 70
     1
102
RTVSPost2010Prop35
280
     0
102
RTVSPost2010PropOp35
 70
     1
102
RTVSPost2010Prop36
280
     0
102
RTVSPost2010PropOp36
 70
     1
102
RTVSPost2010Prop37
 90
       50
102
RTVSPost2010PropOp37
 70
     1
102
RTVSPost2010Prop38
140
0.0
102
RTVSPost2010PropOp38
 70
     1
102
RTVSPost2010Prop39
140
1.0
102
RTVSPost2010PropOp39
 70
     1
102
RTVSPost2010Prop40
 90
        0
102
RTVSPost2010PropOp40
 70
     1
102
RTVSPost2010Prop41ColorIndex
 90
       18
102
RTVSPost2010Prop41ColorRGB
 90
        0
102
RTVSPost2010PropOp41
 70
     1
102
RTVSPost2010Prop42
 90
       50
102
RTVSPost2010PropOp42
 70
     1
102
RTVSPost2010Prop43
 90
        3
102
RTVSPost2010PropOp43
 70
     1
102
RTVSPost2010Prop44ColorIndex
 90
        5
102
RTVSPost2010Prop44ColorRGB
 90
      255
102
RTVSPost2010PropOp44
 70
     1
102
RTVSPost2010Prop45
280
     0
102
RTVSPost2010PropOp45
 70
     1
102
RTVSPost2010Prop46
 90
       50
102
RTVSPost2010PropOp46
 70
     1
102
RTVSPost2010Prop47
 90
       50
102
RTVSPost2010PropOp47
 70
     1
102
RTVSPost2010Prop48
 90
       50
102
RTVSPost2010PropOp48
 70
     1
102
RTVSPost2010Prop49
280
     0
102
RTVSPost2010PropOp49
 70
     1
102
RTVSPost2010Prop50
 90
       50
102
RTVSPost2010PropOp50
 70
     1
102
RTVSPost2010Prop51ColorIndex
 90
      256
102
RTVSPost2010Prop51ColorRGB
 90
-16777216
102
RTVSPost2010PropOp51
 70
     0
102
RTVSPost2010Prop52
140
1.0
102
RTVSPost2010PropOp52
 70
     0
102
RTVSPost2010Prop53
 90
        2
102
RTVSPost2010PropOp53
 70
     1
102
RTVSPost2010Prop54
  1
strokes_ogs.tif
102
RTVSPost2010PropOp54
 70
     1
102
RTVSPost2010Prop55
280
     0
102
RTVSPost2010PropOp55
 70
     1
102
RTVSPost2010Prop56
140
1.0
102
RTVSPost2010PropOp56
 70
     1
102
RTVSPost2010Prop57
140
1.0
102
RTVSPost2010PropOp57
 70
     1
  0
XRECORD
  5
1AA
102
{ACAD_REACTORS
330
1A9
102
}
330
1A9
100
AcDbXrecord
280
     1
102
RTVSPost2010Prop28
280
     0
102
RTVSPost2010PropOp28
 70
     1
102
RTVSPost2010Prop29
280
     1
102
RTVSPost2010PropOp29
 70
     1
102
RTVSPost2010Prop30
280
     1
102
RTVSPost2010PropOp30
 70
     1
102
RTVSPost2010Prop31
280
     0
102
RTVSPost2010PropOp31
 70
     1
102
RTVSPost2010Prop32
280
     0
102
RTVSPost2010PropOp32
 70
     1
102
RTVSPost2010Prop33
280
     0
102
RTVSPost2010PropOp33
 70
     1
102
RTVSPost2010Prop34
280
     0
102
RTVSPost2010PropOp34
 70
     1
102
RTVSPost2010Prop35
280
     0
102
RTVSPost2010PropOp35
 70
     1
102
RTVSPost2010Prop36
280
     0
102
RTVSPost2010PropOp36
 70
     1
102
RTVSPost2010Prop37
 90
       50
102
RTVSPost2010PropOp37
 70
     1
102
RTVSPost2010Prop38
140
0.0
102
RTVSPost2010PropOp38
 70
     1
102
RTVSPost2010Prop39
140
1.0
102
RTVSPost2010PropOp39
 70
     1
102
RTVSPost2010Prop40
 90
        0
102
RTVSPost2010PropOp40
 70
     1
102
RTVSPost2010Prop41ColorIndex
 90
       18
102
RTVSPost2010Prop41ColorRGB
 90
        0
102
RTVSPost2010PropOp41
 70
     1
102
RTVSPost2010Prop42
 90
       50
102
RTVSPost2010PropOp42
 70
     1
102
RTVSPost2010Prop43
 90
        3
102
RTVSPost2010PropOp43
 70
     1
102
RTVSPost2010Prop44ColorIndex
 90
        5
102
RTVSPost2010Prop44ColorRGB
 90
      255
102
RTVSPost2010PropOp44
 70
     1
102
RTVSPost2010Prop45
280
     0
102
RTVSPost2010PropOp45
 70
     1
102
RTVSPost2010Prop46
 90
       50
102
RTVSPost2010PropOp46
 70
     1
102
RTVSPost2010Prop47
 90
       50
102
RTVSPost2010PropOp47
 70
     1
102
RTVSPost2010Prop48
 90
       50
102
RTVSPost2010PropOp48
 70
     1
102
RTVSPost2010Prop49
280
     0
102
RTVSPost2010PropOp49
 70
     1
102
RTVSPost2010Prop50
 90
       50
102
RTVSPost2010PropOp50
 70
     1
102
RTVSPost2010Prop51ColorIndex
 90
      256
102
RTVSPost2010Prop51ColorRGB
 90
-16777216
102
RTVSPost2010PropOp51
 70
     0
102
RTVSPost2010Prop52
140
1.0
102
RTVSPost2010PropOp52
 70
     0
102
RTVSPost2010Prop53
 90
        2
102
RTVSPost2010PropOp53
 70
     1
102
RTVSPost2010Prop54
  1
strokes_ogs.tif
102
RTVSPost2010PropOp54
 70
     1
102
RTVSPost2010Prop55
280
     0
102
RTVSPost2010PropOp55
 70
     1
102
RTVSPost2010Prop56
140
1.0
102
RTVSPost2010PropOp56
 70
     1
102
RTVSPost2010Prop57
140
1.0
102
RTVSPost2010PropOp57
 70
     1
  0
XRECORD
  5
19C
102
{ACAD_REACTORS
330
19B
102
}
330
19B
100
AcDbXrecord
280
     1
102
RTVSPost2010Prop28
280
     0
102
RTVSPost2010PropOp28
 70
     1
102
RTVSPost2010Prop29
280
     1
102
RTVSPost2010PropOp29
 70
     1
102
RTVSPost2010Prop30
280
     1
102
RTVSPost2010PropOp30
 70
     1
102
RTVSPost2010Prop31
280
     0
102
RTVSPost2010PropOp31
 70
     1
102
RTVSPost2010Prop32
280
     0
102
RTVSPost2010PropOp32
 70
     1
102
RTVSPost2010Prop33
280
     0
102
RTVSPost2010PropOp33
 70
     1
102
RTVSPost2010Prop34
280
     0
102
RTVSPost2010PropOp34
 70
     1
102
RTVSPost2010Prop35
280
     0
102
RTVSPost2010PropOp35
 70
     1
102
RTVSPost2010Prop36
280
     0
102
RTVSPost2010PropOp36
 70
     1
102
RTVSPost2010Prop37
 90
       50
102
RTVSPost2010PropOp37
 70
     1
102
RTVSPost2010Prop38
140
0.0
102
RTVSPost2010PropOp38
 70
     1
102
RTVSPost2010Prop39
140
1.0
102
RTVSPost2010PropOp39
 70
     1
102
RTVSPost2010Prop40
 90
        0
102
RTVSPost2010PropOp40
 70
     1
102
RTVSPost2010Prop41ColorIndex
 90
       18
102
RTVSPost2010Prop41ColorRGB
 90
        0
102
RTVSPost2010PropOp41
 70
     1
102
RTVSPost2010Prop42
 90
       50
102
RTVSPost2010PropOp42
 70
     1
102
RTVSPost2010Prop43
 90
        3
102
RTVSPost2010PropOp43
 70
     1
102
RTVSPost2010Prop44ColorIndex
 90
        5
102
RTVSPost2010Prop44ColorRGB
 90
      255
102
RTVSPost2010PropOp44
 70
     1
102
RTVSPost2010Prop45
280
     0
102
RTVSPost2010PropOp45
 70
     1
102
RTVSPost2010Prop46
 90
       50
102
RTVSPost2010PropOp46
 70
     1
102
RTVSPost2010Prop47
 90
       50
102
RTVSPost2010PropOp47
 70
     1
102
RTVSPost2010Prop48
 90
       50
102
RTVSPost2010PropOp48
 70
     1
102
RTVSPost2010Prop49
280
     0
102
RTVSPost2010PropOp49
 70
     1
102
RTVSPost2010Prop50
 90
       50
102
RTVSPost2010PropOp50
 70
     1
102
RTVSPost2010Prop51ColorIndex
 90
      256
102
RTVSPost2010Prop51ColorRGB
 90
-16777216
102
RTVSPost2010PropOp51
 70
     0
102
RTVSPost2010Prop52
140
1.0
102
RTVSPost2010PropOp52
 70
     0
102
RTVSPost2010Prop53
 90
        2
102
RTVSPost2010PropOp53
 70
     1
102
RTVSPost2010Prop54
  1
strokes_ogs.tif
102
RTVSPost2010PropOp54
 70
     1
102
RTVSPost2010Prop55
280
     0
102
RTVSPost2010PropOp55
 70
     1
102
RTVSPost2010Prop56
140
1.0
102
RTVSPost2010PropOp56
 70
     1
102
RTVSPost2010Prop57
140
1.0
102
RTVSPost2010PropOp57
 70
     1
  0
XRECORD
  5
1A0
102
{ACAD_REACTORS
330
19F
102
}
330
19F
100
AcDbXrecord
280
     1
102
RTVSPost2010Prop28
280
     0
102
RTVSPost2010PropOp28
 70
     1
102
RTVSPost2010Prop29
280
     1
102
RTVSPost2010PropOp29
 70
     1
102
RTVSPost2010Prop30
280
     1
102
RTVSPost2010PropOp30
 70
     1
102
RTVSPost2010Prop31
280
     0
102
RTVSPost2010PropOp31
 70
     1
102
RTVSPost2010Prop32
280
     0
102
RTVSPost2010PropOp32
 70
     1
102
RTVSPost2010Prop33
280
     0
102
RTVSPost2010PropOp33
 70
     1
102
RTVSPost2010Prop34
280
     0
102
RTVSPost2010PropOp34
 70
     1
102
RTVSPost2010Prop35
280
     0
102
RTVSPost2010PropOp35
 70
     1
102
RTVSPost2010Prop36
280
     0
102
RTVSPost2010PropOp36
 70
     1
102
RTVSPost2010Prop37
 90
       50
102
RTVSPost2010PropOp37
 70
     1
102
RTVSPost2010Prop38
140
0.0
102
RTVSPost2010PropOp38
 70
     1
102
RTVSPost2010Prop39
140
1.0
102
RTVSPost2010PropOp39
 70
     1
102
RTVSPost2010Prop40
 90
        0
102
RTVSPost2010PropOp40
 70
     1
102
RTVSPost2010Prop41ColorIndex
 90
       18
102
RTVSPost2010Prop41ColorRGB
 90
        0
102
RTVSPost2010PropOp41
 70
     1
102
RTVSPost2010Prop42
 90
       50
102
RTVSPost2010PropOp42
 70
     1
102
RTVSPost2010Prop43
 90
        3
102
RTVSPost2010PropOp43
 70
     1
102
RTVSPost2010Prop44ColorIndex
 90
        5
102
RTVSPost2010Prop44ColorRGB
 90
      255
102
RTVSPost2010PropOp44
 70
     1
102
RTVSPost2010Prop45
280
     0
102
RTVSPost2010PropOp45
 70
     1
102
RTVSPost2010Prop46
 90
       50
102
RTVSPost2010PropOp46
 70
     1
102
RTVSPost2010Prop47
 90
       50
102
RTVSPost2010PropOp47
 70
     1
102
RTVSPost2010Prop48
 90
       50
102
RTVSPost2010PropOp48
 70
     1
102
RTVSPost2010Prop49
280
     0
102
RTVSPost2010PropOp49
 70
     1
102
RTVSPost2010Prop50
 90
       50
102
RTVSPost2010PropOp50
 70
     1
102
RTVSPost2010Prop51ColorIndex
 90
      256
102
RTVSPost2010Prop51ColorRGB
 90
-16777216
102
RTVSPost2010PropOp51
 70
     0
102
RTVSPost2010Prop52
140
1.0
102
RTVSPost2010PropOp52
 70
     0
102
RTVSPost2010Prop53
 90
        2
102
RTVSPost2010PropOp53
 70
     1
102
RTVSPost2010Prop54
  1
strokes_ogs.tif
102
RTVSPost2010PropOp54
 70
     1
102
RTVSPost2010Prop55
280
     0
102
RTVSPost2010PropOp55
 70
     1
102
RTVSPost2010Prop56
140
1.0
102
RTVSPost2010PropOp56
 70
     1
102
RTVSPost2010Prop57
140
1.0
102
RTVSPost2010PropOp57
 70
     1
  0
XRECORD
  5
1BA
102
{ACAD_REACTORS
330
1B9
102
}
330
1B9
100
AcDbXrecord
280
     1
102
RTVSPost2010Prop28
280
     0
102
RTVSPost2010PropOp28
 70
     0
102
RTVSPost2010Prop29
280
     1
102
RTVSPost2010PropOp29
 70
     0
102
RTVSPost2010Prop30
280
     1
102
RTVSPost2010PropOp30
 70
     0
102
RTVSPost2010Prop31
280
     0
102
RTVSPost2010PropOp31
 70
     0
102
RTVSPost2010Prop32
280
     0
102
RTVSPost2010PropOp32
 70
     0
102
RTVSPost2010Prop33
280
     0
102
RTVSPost2010PropOp33
 70
     0
102
RTVSPost2010Prop34
280
     0
102
RTVSPost2010PropOp34
 70
     0
102
RTVSPost2010Prop35
280
     0
102
RTVSPost2010PropOp35
 70
     0
102
RTVSPost2010Prop36
280
     0
102
RTVSPost2010PropOp36
 70
     0
102
RTVSPost2010Prop37
 90
       50
102
RTVSPost2010PropOp37
 70
     0
102
RTVSPost2010Prop38
140
0.0
102
RTVSPost2010PropOp38
 70
     0
102
RTVSPost2010Prop39
140
1.0
102
RTVSPost2010PropOp39
 70
     0
102
RTVSPost2010Prop40
 90
        0
102
RTVSPost2010PropOp40
 70
     0
102
RTVSPost2010Prop41ColorIndex
 90
       18
102
RTVSPost2010Prop41ColorRGB
 90
        0
102
RTVSPost2010PropOp41
 70
     0
102
RTVSPost2010Prop42
 90
       50
102
RTVSPost2010PropOp42
 70
     0
102
RTVSPost2010Prop43
 90
        3
102
RTVSPost2010PropOp43
 70
     0
102
RTVSPost2010Prop44ColorIndex
 90
        5
102
RTVSPost2010Prop44ColorRGB
 90
      255
102
RTVSPost2010PropOp44
 70
     0
102
RTVSPost2010Prop45
280
     0
102
RTVSPost2010PropOp45
 70
     0
102
RTVSPost2010Prop46
 90
       50
102
RTVSPost2010PropOp46
 70
     0
102
RTVSPost2010Prop47
 90
       50
102
RTVSPost2010PropOp47
 70
     0
102
RTVSPost2010Prop48
 90
       50
102
RTVSPost2010PropOp48
 70
     0
102
RTVSPost2010Prop49
280
     0
102
RTVSPost2010PropOp49
 70
     0
102
RTVSPost2010Prop50
 90
       50
102
RTVSPost2010PropOp50
 70
     0
102
RTVSPost2010Prop51ColorIndex
 90
      256
102
RTVSPost2010Prop51ColorRGB
 90
-16777216
102
RTVSPost2010PropOp51
 70
     0
102
RTVSPost2010Prop52
140
1.0
102
RTVSPost2010PropOp52
 70
     0
102
RTVSPost2010Prop53
 90
        2
102
RTVSPost2010PropOp53
 70
     0
102
RTVSPost2010Prop54
  1
strokes_ogs.tif
102
RTVSPost2010PropOp54
 70
     0
102
RTVSPost2010Prop55
280
     0
102
RTVSPost2010PropOp55
 70
     0
102
RTVSPost2010Prop56
140
1.0
102
RTVSPost2010PropOp56
 70
     0
102
RTVSPost2010Prop57
140
1.0
102
RTVSPost2010PropOp57
 70
     0
  0
XRECORD
  5
1A8
102
{ACAD_REACTORS
330
1A7
102
}
330
1A7
100
AcDbXrecord
280
     1
102
RTVSPost2010Prop28
280
     0
102
RTVSPost2010PropOp28
 70
     1
102
RTVSPost2010Prop29
280
     1
102
RTVSPost2010PropOp29
 70
     1
102
RTVSPost2010Prop30
280
     1
102
RTVSPost2010PropOp30
 70
     1
102
RTVSPost2010Prop31
280
     0
102
RTVSPost2010PropOp31
 70
     1
102
RTVSPost2010Prop32
280
     0
102
RTVSPost2010PropOp32
 70
     1
102
RTVSPost2010Prop33
280
     0
102
RTVSPost2010PropOp33
 70
     1
102
RTVSPost2010Prop34
280
     0
102
RTVSPost2010PropOp34
 70
     1
102
RTVSPost2010Prop35
280
     0
102
RTVSPost2010PropOp35
 70
     1
102
RTVSPost2010Prop36
280
     0
102
RTVSPost2010PropOp36
 70
     1
102
RTVSPost2010Prop37
 90
       50
102
RTVSPost2010PropOp37
 70
     1
102
RTVSPost2010Prop38
140
0.0
102
RTVSPost2010PropOp38
 70
     1
102
RTVSPost2010Prop39
140
1.0
102
RTVSPost2010PropOp39
 70
     1
102
RTVSPost2010Prop40
 90
        0
102
RTVSPost2010PropOp40
 70
     1
102
RTVSPost2010Prop41ColorIndex
 90
       18
102
RTVSPost2010Prop41ColorRGB
 90
        0
102
RTVSPost2010PropOp41
 70
     1
102
RTVSPost2010Prop42
 90
       50
102
RTVSPost2010PropOp42
 70
     1
102
RTVSPost2010Prop43
 90
        3
102
RTVSPost2010PropOp43
 70
     1
102
RTVSPost2010Prop44ColorIndex
 90
        5
102
RTVSPost2010Prop44ColorRGB
 90
      255
102
RTVSPost2010PropOp44
 70
     1
102
RTVSPost2010Prop45
280
     0
102
RTVSPost2010PropOp45
 70
     1
102
RTVSPost2010Prop46
 90
       50
102
RTVSPost2010PropOp46
 70
     1
102
RTVSPost2010Prop47
 90
       50
102
RTVSPost2010PropOp47
 70
     1
102
RTVSPost2010Prop48
 90
       50
102
RTVSPost2010PropOp48
 70
     1
102
RTVSPost2010Prop49
280
     0
102
RTVSPost2010PropOp49
 70
     1
102
RTVSPost2010Prop50
 90
       50
102
RTVSPost2010PropOp50
 70
     1
102
RTVSPost2010Prop51ColorIndex
 90
      256
102
RTVSPost2010Prop51ColorRGB
 90
-16777216
102
RTVSPost2010PropOp51
 70
     0
102
RTVSPost2010Prop52
140
1.0
102
RTVSPost2010PropOp52
 70
     0
102
RTVSPost2010Prop53
 90
        2
102
RTVSPost2010PropOp53
 70
     1
102
RTVSPost2010Prop54
  1
strokes_ogs.tif
102
RTVSPost2010PropOp54
 70
     1
102
RTVSPost2010Prop55
280
     0
102
RTVSPost2010PropOp55
 70
     1
102
RTVSPost2010Prop56
140
1.0
102
RTVSPost2010PropOp56
 70
     1
102
RTVSPost2010Prop57
140
1.0
102
RTVSPost2010PropOp57
 70
     1
  0
XRECORD
  5
18C
102
{ACAD_REACTORS
330
18B
102
}
330
18B
100
AcDbXrecord
280
     1
102
RTVSPost2010Prop28
280
     0
102
RTVSPost2010PropOp28
 70
     1
102
RTVSPost2010Prop29
280
     1
102
RTVSPost2010PropOp29
 70
     1
102
RTVSPost2010Prop30
280
     1
102
RTVSPost2010PropOp30
 70
     1
102
RTVSPost2010Prop31
280
     0
102
RTVSPost2010PropOp31
 70
     1
102
RTVSPost2010Prop32
280
     0
102
RTVSPost2010PropOp32
 70
     1
102
RTVSPost2010Prop33
280
     0
102
RTVSPost2010PropOp33
 70
     1
102
RTVSPost2010Prop34
280
     0
102
RTVSPost2010PropOp34
 70
     1
102
RTVSPost2010Prop35
280
     0
102
RTVSPost2010PropOp35
 70
     1
102
RTVSPost2010Prop36
280
     0
102
RTVSPost2010PropOp36
 70
     1
102
RTVSPost2010Prop37
 90
       50
102
RTVSPost2010PropOp37
 70
     1
102
RTVSPost2010Prop38
140
0.0
102
RTVSPost2010PropOp38
 70
     1
102
RTVSPost2010Prop39
140
1.0
102
RTVSPost2010PropOp39
 70
     1
102
RTVSPost2010Prop40
 90
        0
102
RTVSPost2010PropOp40
 70
     1
102
RTVSPost2010Prop41ColorIndex
 90
       18
102
RTVSPost2010Prop41ColorRGB
 90
        0
102
RTVSPost2010PropOp41
 70
     1
102
RTVSPost2010Prop42
 90
       50
102
RTVSPost2010PropOp42
 70
     1
102
RTVSPost2010Prop43
 90
        3
102
RTVSPost2010PropOp43
 70
     1
102
RTVSPost2010Prop44ColorIndex
 90
        5
102
RTVSPost2010Prop44ColorRGB
 90
      255
102
RTVSPost2010PropOp44
 70
     1
102
RTVSPost2010Prop45
280
     0
102
RTVSPost2010PropOp45
 70
     1
102
RTVSPost2010Prop46
 90
       50
102
RTVSPost2010PropOp46
 70
     1
102
RTVSPost2010Prop47
 90
       50
102
RTVSPost2010PropOp47
 70
     1
102
RTVSPost2010Prop48
 90
       50
102
RTVSPost2010PropOp48
 70
     1
102
RTVSPost2010Prop49
280
     0
102
RTVSPost2010PropOp49
 70
     1
102
RTVSPost2010Prop50
 90
       50
102
RTVSPost2010PropOp50
 70
     1
102
RTVSPost2010Prop51ColorIndex
 90
      256
102
RTVSPost2010Prop51ColorRGB
 90
-16777216
102
RTVSPost2010PropOp51
 70
     0
102
RTVSPost2010Prop52
140
1.0
102
RTVSPost2010PropOp52
 70
     0
102
RTVSPost2010Prop53
 90
        2
102
RTVSPost2010PropOp53
 70
     1
102
RTVSPost2010Prop54
  1
strokes_ogs.tif
102
RTVSPost2010PropOp54
 70
     1
102
RTVSPost2010Prop55
280
     0
102
RTVSPost2010PropOp55
 70
     1
102
RTVSPost2010Prop56
140
1.0
102
RTVSPost2010PropOp56
 70
     1
102
RTVSPost2010Prop57
140
1.0
102
RTVSPost2010PropOp57
 70
     1
  0
XRECORD
  5
18E
102
{ACAD_REACTORS
330
18D
102
}
330
18D
100
AcDbXrecord
280
     1
102
RTVSPost2010Prop28
280
     0
102
RTVSPost2010PropOp28
 70
     1
102
RTVSPost2010Prop29
280
     1
102
RTVSPost2010PropOp29
 70
     1
102
RTVSPost2010Prop30
280
     1
102
RTVSPost2010PropOp30
 70
     1
102
RTVSPost2010Prop31
280
     0
102
RTVSPost2010PropOp31
 70
     1
102
RTVSPost2010Prop32
280
     0
102
RTVSPost2010PropOp32
 70
     1
102
RTVSPost2010Prop33
280
     0
102
RTVSPost2010PropOp33
 70
     1
102
RTVSPost2010Prop34
280
     0
102
RTVSPost2010PropOp34
 70
     1
102
RTVSPost2010Prop35
280
     0
102
RTVSPost2010PropOp35
 70
     1
102
RTVSPost2010Prop36
280
     0
102
RTVSPost2010PropOp36
 70
     1
102
RTVSPost2010Prop37
 90
       50
102
RTVSPost2010PropOp37
 70
     1
102
RTVSPost2010Prop38
140
0.0
102
RTVSPost2010PropOp38
 70
     1
102
RTVSPost2010Prop39
140
1.0
102
RTVSPost2010PropOp39
 70
     1
102
RTVSPost2010Prop40
 90
        0
102
RTVSPost2010PropOp40
 70
     1
102
RTVSPost2010Prop41ColorIndex
 90
       18
102
RTVSPost2010Prop41ColorRGB
 90
        0
102
RTVSPost2010PropOp41
 70
     1
102
RTVSPost2010Prop42
 90
       50
102
RTVSPost2010PropOp42
 70
     1
102
RTVSPost2010Prop43
 90
        3
102
RTVSPost2010PropOp43
 70
     1
102
RTVSPost2010Prop44ColorIndex
 90
        5
102
RTVSPost2010Prop44ColorRGB
 90
      255
102
RTVSPost2010PropOp44
 70
     1
102
RTVSPost2010Prop45
280
     0
102
RTVSPost2010PropOp45
 70
     1
102
RTVSPost2010Prop46
 90
       50
102
RTVSPost2010PropOp46
 70
     1
102
RTVSPost2010Prop47
 90
       50
102
RTVSPost2010PropOp47
 70
     1
102
RTVSPost2010Prop48
 90
       50
102
RTVSPost2010PropOp48
 70
     1
102
RTVSPost2010Prop49
280
     0
102
RTVSPost2010PropOp49
 70
     1
102
RTVSPost2010Prop50
 90
       50
102
RTVSPost2010PropOp50
 70
     1
102
RTVSPost2010Prop51ColorIndex
 90
      256
102
RTVSPost2010Prop51ColorRGB
 90
-16777216
102
RTVSPost2010PropOp51
 70
     0
102
RTVSPost2010Prop52
140
1.0
102
RTVSPost2010PropOp52
 70
     0
102
RTVSPost2010Prop53
 90
        2
102
RTVSPost2010PropOp53
 70
     1
102
RTVSPost2010Prop54
  1
strokes_ogs.tif
102
RTVSPost2010PropOp54
 70
     1
102
RTVSPost2010Prop55
280
     0
102
RTVSPost2010PropOp55
 70
     1
102
RTVSPost2010Prop56
140
1.0
102
RTVSPost2010PropOp56
 70
     1
102
RTVSPost2010Prop57
140
1.0
102
RTVSPost2010PropOp57
 70
     1
  0
XRECORD
  5
190
102
{ACAD_REACTORS
330
18F
102
}
330
18F
100
AcDbXrecord
280
     1
102
RTVSPost2010Prop28
280
     0
102
RTVSPost2010PropOp28
 70
     1
102
RTVSPost2010Prop29
280
     1
102
RTVSPost2010PropOp29
 70
     1
102
RTVSPost2010Prop30
280
     1
102
RTVSPost2010PropOp30
 70
     1
102
RTVSPost2010Prop31
280
     0
102
RTVSPost2010PropOp31
 70
     1
102
RTVSPost2010Prop32
280
     0
102
RTVSPost2010PropOp32
 70
     1
102
RTVSPost2010Prop33
280
     0
102
RTVSPost2010PropOp33
 70
     1
102
RTVSPost2010Prop34
280
     0
102
RTVSPost2010PropOp34
 70
     1
102
RTVSPost2010Prop35
280
     0
102
RTVSPost2010PropOp35
 70
     1
102
RTVSPost2010Prop36
280
     0
102
RTVSPost2010PropOp36
 70
     1
102
RTVSPost2010Prop37
 90
       50
102
RTVSPost2010PropOp37
 70
     1
102
RTVSPost2010Prop38
140
0.0
102
RTVSPost2010PropOp38
 70
     1
102
RTVSPost2010Prop39
140
1.0
102
RTVSPost2010PropOp39
 70
     1
102
RTVSPost2010Prop40
 90
        0
102
RTVSPost2010PropOp40
 70
     1
102
RTVSPost2010Prop41ColorIndex
 90
       18
102
RTVSPost2010Prop41ColorRGB
 90
        0
102
RTVSPost2010PropOp41
 70
     1
102
RTVSPost2010Prop42
 90
       50
102
RTVSPost2010PropOp42
 70
     1
102
RTVSPost2010Prop43
 90
        3
102
RTVSPost2010PropOp43
 70
     1
102
RTVSPost2010Prop44ColorIndex
 90
        5
102
RTVSPost2010Prop44ColorRGB
 90
      255
102
RTVSPost2010PropOp44
 70
     1
102
RTVSPost2010Prop45
280
     0
102
RTVSPost2010PropOp45
 70
     1
102
RTVSPost2010Prop46
 90
       50
102
RTVSPost2010PropOp46
 70
     1
102
RTVSPost2010Prop47
 90
       50
102
RTVSPost2010PropOp47
 70
     1
102
RTVSPost2010Prop48
 90
       50
102
RTVSPost2010PropOp48
 70
     1
102
RTVSPost2010Prop49
280
     0
102
RTVSPost2010PropOp49
 70
     1
102
RTVSPost2010Prop50
 90
       50
102
RTVSPost2010PropOp50
 70
     1
102
RTVSPost2010Prop51ColorIndex
 90
      256
102
RTVSPost2010Prop51ColorRGB
 90
-16777216
102
RTVSPost2010PropOp51
 70
     0
102
RTVSPost2010Prop52
140
1.0
102
RTVSPost2010PropOp52
 70
     0
102
RTVSPost2010Prop53
 90
        2
102
RTVSPost2010PropOp53
 70
     1
102
RTVSPost2010Prop54
  1
strokes_ogs.tif
102
RTVSPost2010PropOp54
 70
     1
102
RTVSPost2010Prop55
280
     0
102
RTVSPost2010PropOp55
 70
     1
102
RTVSPost2010Prop56
140
1.0
102
RTVSPost2010PropOp56
 70
     1
102
RTVSPost2010Prop57
140
1.0
102
RTVSPost2010PropOp57
 70
     1
  0
XRECORD
  5
192
102
{ACAD_REACTORS
330
191
102
}
330
191
100
AcDbXrecord
280
     1
102
RTVSPost2010Prop28
280
     0
102
RTVSPost2010PropOp28
 70
     1
102
RTVSPost2010Prop29
280
     1
102
RTVSPost2010PropOp29
 70
     1
102
RTVSPost2010Prop30
280
     1
102
RTVSPost2010PropOp30
 70
     1
102
RTVSPost2010Prop31
280
     0
102
RTVSPost2010PropOp31
 70
     1
102
RTVSPost2010Prop32
280
     0
102
RTVSPost2010PropOp32
 70
     1
102
RTVSPost2010Prop33
280
     0
102
RTVSPost2010PropOp33
 70
     1
102
RTVSPost2010Prop34
280
     0
102
RTVSPost2010PropOp34
 70
     1
102
RTVSPost2010Prop35
280
     0
102
RTVSPost2010PropOp35
 70
     1
102
RTVSPost2010Prop36
280
     0
102
RTVSPost2010PropOp36
 70
     1
102
RTVSPost2010Prop37
 90
       50
102
RTVSPost2010PropOp37
 70
     1
102
RTVSPost2010Prop38
140
0.0
102
RTVSPost2010PropOp38
 70
     1
102
RTVSPost2010Prop39
140
1.0
102
RTVSPost2010PropOp39
 70
     1
102
RTVSPost2010Prop40
 90
        0
102
RTVSPost2010PropOp40
 70
     1
102
RTVSPost2010Prop41ColorIndex
 90
       18
102
RTVSPost2010Prop41ColorRGB
 90
        0
102
RTVSPost2010PropOp41
 70
     1
102
RTVSPost2010Prop42
 90
       50
102
RTVSPost2010PropOp42
 70
     1
102
RTVSPost2010Prop43
 90
        3
102
RTVSPost2010PropOp43
 70
     1
102
RTVSPost2010Prop44ColorIndex
 90
        5
102
RTVSPost2010Prop44ColorRGB
 90
      255
102
RTVSPost2010PropOp44
 70
     1
102
RTVSPost2010Prop45
280
     0
102
RTVSPost2010PropOp45
 70
     1
102
RTVSPost2010Prop46
 90
       50
102
RTVSPost2010PropOp46
 70
     1
102
RTVSPost2010Prop47
 90
       50
102
RTVSPost2010PropOp47
 70
     1
102
RTVSPost2010Prop48
 90
       50
102
RTVSPost2010PropOp48
 70
     1
102
RTVSPost2010Prop49
280
     0
102
RTVSPost2010PropOp49
 70
     1
102
RTVSPost2010Prop50
 90
       50
102
RTVSPost2010PropOp50
 70
     1
102
RTVSPost2010Prop51ColorIndex
 90
      256
102
RTVSPost2010Prop51ColorRGB
 90
-16777216
102
RTVSPost2010PropOp51
 70
     0
102
RTVSPost2010Prop52
140
1.0
102
RTVSPost2010PropOp52
 70
     0
102
RTVSPost2010Prop53
 90
        2
102
RTVSPost2010PropOp53
 70
     1
102
RTVSPost2010Prop54
  1
strokes_ogs.tif
102
RTVSPost2010PropOp54
 70
     1
102
RTVSPost2010Prop55
280
     0
102
RTVSPost2010PropOp55
 70
     1
102
RTVSPost2010Prop56
140
1.0
102
RTVSPost2010PropOp56
 70
     1
102
RTVSPost2010Prop57
140
1.0
102
RTVSPost2010PropOp57
 70
     1
  0
XRECORD
  5
19A
102
{ACAD_REACTORS
330
199
102
}
330
199
100
AcDbXrecord
280
     1
102
RTVSPost2010Prop28
280
     0
102
RTVSPost2010PropOp28
 70
     1
102
RTVSPost2010Prop29
280
     1
102
RTVSPost2010PropOp29
 70
     1
102
RTVSPost2010Prop30
280
     1
102
RTVSPost2010PropOp30
 70
     1
102
RTVSPost2010Prop31
280
     0
102
RTVSPost2010PropOp31
 70
     1
102
RTVSPost2010Prop32
280
     0
102
RTVSPost2010PropOp32
 70
     1
102
RTVSPost2010Prop33
280
     0
102
RTVSPost2010PropOp33
 70
     1
102
RTVSPost2010Prop34
280
     0
102
RTVSPost2010PropOp34
 70
     1
102
RTVSPost2010Prop35
280
     0
102
RTVSPost2010PropOp35
 70
     1
102
RTVSPost2010Prop36
280
     0
102
RTVSPost2010PropOp36
 70
     1
102
RTVSPost2010Prop37
 90
       50
102
RTVSPost2010PropOp37
 70
     1
102
RTVSPost2010Prop38
140
0.0
102
RTVSPost2010PropOp38
 70
     1
102
RTVSPost2010Prop39
140
1.0
102
RTVSPost2010PropOp39
 70
     1
102
RTVSPost2010Prop40
 90
        0
102
RTVSPost2010PropOp40
 70
     1
102
RTVSPost2010Prop41ColorIndex
 90
       18
102
RTVSPost2010Prop41ColorRGB
 90
        0
102
RTVSPost2010PropOp41
 70
     1
102
RTVSPost2010Prop42
 90
       50
102
RTVSPost2010PropOp42
 70
     1
102
RTVSPost2010Prop43
 90
        3
102
RTVSPost2010PropOp43
 70
     1
102
RTVSPost2010Prop44ColorIndex
 90
        5
102
RTVSPost2010Prop44ColorRGB
 90
      255
102
RTVSPost2010PropOp44
 70
     1
102
RTVSPost2010Prop45
280
     0
102
RTVSPost2010PropOp45
 70
     1
102
RTVSPost2010Prop46
 90
       50
102
RTVSPost2010PropOp46
 70
     1
102
RTVSPost2010Prop47
 90
       50
102
RTVSPost2010PropOp47
 70
     1
102
RTVSPost2010Prop48
 90
       50
102
RTVSPost2010PropOp48
 70
     1
102
RTVSPost2010Prop49
280
     0
102
RTVSPost2010PropOp49
 70
     1
102
RTVSPost2010Prop50
 90
       50
102
RTVSPost2010PropOp50
 70
     1
102
RTVSPost2010Prop51ColorIndex
 90
      256
102
RTVSPost2010Prop51ColorRGB
 90
-16777216
102
RTVSPost2010PropOp51
 70
     0
102
RTVSPost2010Prop52
140
1.0
102
RTVSPost2010PropOp52
 70
     0
102
RTVSPost2010Prop53
 90
        2
102
RTVSPost2010PropOp53
 70
     1
102
RTVSPost2010Prop54
  1
strokes_ogs.tif
102
RTVSPost2010PropOp54
 70
     1
102
RTVSPost2010Prop55
280
     0
102
RTVSPost2010PropOp55
 70
     1
102
RTVSPost2010Prop56
140
1.0
102
RTVSPost2010PropOp56
 70
     1
102
RTVSPost2010Prop57
140
1.0
102
RTVSPost2010PropOp57
 70
     1
  0
XRECORD
  5
1B6
102
{ACAD_REACTORS
330
1B5
102
}
330
1B5
100
AcDbXrecord
280
     1
102
RTVSPost2010Prop28
280
     0
102
RTVSPost2010PropOp28
 70
     0
102
RTVSPost2010Prop29
280
     1
102
RTVSPost2010PropOp29
 70
     0
102
RTVSPost2010Prop30
280
     1
102
RTVSPost2010PropOp30
 70
     0
102
RTVSPost2010Prop31
280
     0
102
RTVSPost2010PropOp31
 70
     0
102
RTVSPost2010Prop32
280
     0
102
RTVSPost2010PropOp32
 70
     0
102
RTVSPost2010Prop33
280
     0
102
RTVSPost2010PropOp33
 70
     0
102
RTVSPost2010Prop34
280
     0
102
RTVSPost2010PropOp34
 70
     0
102
RTVSPost2010Prop35
280
     0
102
RTVSPost2010PropOp35
 70
     0
102
RTVSPost2010Prop36
280
     0
102
RTVSPost2010PropOp36
 70
     0
102
RTVSPost2010Prop37
 90
       50
102
RTVSPost2010PropOp37
 70
     0
102
RTVSPost2010Prop38
140
0.0
102
RTVSPost2010PropOp38
 70
     0
102
RTVSPost2010Prop39
140
1.0
102
RTVSPost2010PropOp39
 70
     0
102
RTVSPost2010Prop40
 90
        0
102
RTVSPost2010PropOp40
 70
     0
102
RTVSPost2010Prop41ColorIndex
 90
       18
102
RTVSPost2010Prop41ColorRGB
 90
        0
102
RTVSPost2010PropOp41
 70
     0
102
RTVSPost2010Prop42
 90
       50
102
RTVSPost2010PropOp42
 70
     0
102
RTVSPost2010Prop43
 90
        3
102
RTVSPost2010PropOp43
 70
     0
102
RTVSPost2010Prop44ColorIndex
 90
        5
102
RTVSPost2010Prop44ColorRGB
 90
      255
102
RTVSPost2010PropOp44
 70
     0
102
RTVSPost2010Prop45
280
     0
102
RTVSPost2010PropOp45
 70
     0
102
RTVSPost2010Prop46
 90
       50
102
RTVSPost2010PropOp46
 70
     0
102
RTVSPost2010Prop47
 90
       50
102
RTVSPost2010PropOp47
 70
     0
102
RTVSPost2010Prop48
 90
       50
102
RTVSPost2010PropOp48
 70
     0
102
RTVSPost2010Prop49
280
     0
102
RTVSPost2010PropOp49
 70
     0
102
RTVSPost2010Prop50
 90
       50
102
RTVSPost2010PropOp50
 70
     0
102
RTVSPost2010Prop51ColorIndex
 90
      256
102
RTVSPost2010Prop51ColorRGB
 90
-16777216
102
RTVSPost2010PropOp51
 70
     0
102
RTVSPost2010Prop52
140
1.0
102
RTVSPost2010PropOp52
 70
     0
102
RTVSPost2010Prop53
 90
        2
102
RTVSPost2010PropOp53
 70
     0
102
RTVSPost2010Prop54
  1
strokes_ogs.tif
102
RTVSPost2010PropOp54
 70
     0
102
RTVSPost2010Prop55
280
     0
102
RTVSPost2010PropOp55
 70
     0
102
RTVSPost2010Prop56
140
1.0
102
RTVSPost2010PropOp56
 70
     0
102
RTVSPost2010Prop57
140
1.0
102
RTVSPost2010PropOp57
 70
     0
  0
XRECORD
  5
1A6
102
{ACAD_REACTORS
330
1A5
102
}
330
1A5
100
AcDbXrecord
280
     1
102
RTVSPost2010Prop28
280
     0
102
RTVSPost2010PropOp28
 70
     1
102
RTVSPost2010Prop29
280
     1
102
RTVSPost2010PropOp29
 70
     1
102
RTVSPost2010Prop30
280
     1
102
RTVSPost2010PropOp30
 70
     1
102
RTVSPost2010Prop31
280
     0
102
RTVSPost2010PropOp31
 70
     1
102
RTVSPost2010Prop32
280
     0
102
RTVSPost2010PropOp32
 70
     1
102
RTVSPost2010Prop33
280
     0
102
RTVSPost2010PropOp33
 70
     1
102
RTVSPost2010Prop34
280
     0
102
RTVSPost2010PropOp34
 70
     1
102
RTVSPost2010Prop35
280
     0
102
RTVSPost2010PropOp35
 70
     1
102
RTVSPost2010Prop36
280
     0
102
RTVSPost2010PropOp36
 70
     1
102
RTVSPost2010Prop37
 90
       50
102
RTVSPost2010PropOp37
 70
     1
102
RTVSPost2010Prop38
140
0.0
102
RTVSPost2010PropOp38
 70
     1
102
RTVSPost2010Prop39
140
1.0
102
RTVSPost2010PropOp39
 70
     1
102
RTVSPost2010Prop40
 90
        0
102
RTVSPost2010PropOp40
 70
     1
102
RTVSPost2010Prop41ColorIndex
 90
       18
102
RTVSPost2010Prop41ColorRGB
 90
        0
102
RTVSPost2010PropOp41
 70
     1
102
RTVSPost2010Prop42
 90
       50
102
RTVSPost2010PropOp42
 70
     1
102
RTVSPost2010Prop43
 90
        3
102
RTVSPost2010PropOp43
 70
     1
102
RTVSPost2010Prop44ColorIndex
 90
        5
102
RTVSPost2010Prop44ColorRGB
 90
      255
102
RTVSPost2010PropOp44
 70
     1
102
RTVSPost2010Prop45
280
     0
102
RTVSPost2010PropOp45
 70
     1
102
RTVSPost2010Prop46
 90
       50
102
RTVSPost2010PropOp46
 70
     1
102
RTVSPost2010Prop47
 90
       50
102
RTVSPost2010PropOp47
 70
     1
102
RTVSPost2010Prop48
 90
       50
102
RTVSPost2010PropOp48
 70
     1
102
RTVSPost2010Prop49
280
     0
102
RTVSPost2010PropOp49
 70
     1
102
RTVSPost2010Prop50
 90
       50
102
RTVSPost2010PropOp50
 70
     1
102
RTVSPost2010Prop51ColorIndex
 90
      256
102
RTVSPost2010Prop51ColorRGB
 90
-16777216
102
RTVSPost2010PropOp51
 70
     0
102
RTVSPost2010Prop52
140
1.0
102
RTVSPost2010PropOp52
 70
     0
102
RTVSPost2010Prop53
 90
        2
102
RTVSPost2010PropOp53
 70
     1
102
RTVSPost2010Prop54
  1
strokes_ogs.tif
102
RTVSPost2010PropOp54
 70
     1
102
RTVSPost2010Prop55
280
     0
102
RTVSPost2010PropOp55
 70
     1
102
RTVSPost2010Prop56
140
1.0
102
RTVSPost2010PropOp56
 70
     1
102
RTVSPost2010Prop57
140
1.0
102
RTVSPost2010PropOp57
 70
     1
  0
XRECORD
  5
1B8
102
{ACAD_REACTORS
330
1B7
102
}
330
1B7
100
AcDbXrecord
280
     1
102
RTVSPost2010Prop28
280
     0
102
RTVSPost2010PropOp28
 70
     0
102
RTVSPost2010Prop29
280
     1
102
RTVSPost2010PropOp29
 70
     0
102
RTVSPost2010Prop30
280
     1
102
RTVSPost2010PropOp30
 70
     0
102
RTVSPost2010Prop31
280
     0
102
RTVSPost2010PropOp31
 70
     0
102
RTVSPost2010Prop32
280
     0
102
RTVSPost2010PropOp32
 70
     0
102
RTVSPost2010Prop33
280
     0
102
RTVSPost2010PropOp33
 70
     0
102
RTVSPost2010Prop34
280
     0
102
RTVSPost2010PropOp34
 70
     0
102
RTVSPost2010Prop35
280
     0
102
RTVSPost2010PropOp35
 70
     0
102
RTVSPost2010Prop36
280
     0
102
RTVSPost2010PropOp36
 70
     0
102
RTVSPost2010Prop37
 90
       50
102
RTVSPost2010PropOp37
 70
     0
102
RTVSPost2010Prop38
140
0.0
102
RTVSPost2010PropOp38
 70
     0
102
RTVSPost2010Prop39
140
1.0
102
RTVSPost2010PropOp39
 70
     0
102
RTVSPost2010Prop40
 90
        0
102
RTVSPost2010PropOp40
 70
     0
102
RTVSPost2010Prop41ColorIndex
 90
       18
102
RTVSPost2010Prop41ColorRGB
 90
        0
102
RTVSPost2010PropOp41
 70
     0
102
RTVSPost2010Prop42
 90
       50
102
RTVSPost2010PropOp42
 70
     0
102
RTVSPost2010Prop43
 90
        3
102
RTVSPost2010PropOp43
 70
     0
102
RTVSPost2010Prop44ColorIndex
 90
        5
102
RTVSPost2010Prop44ColorRGB
 90
      255
102
RTVSPost2010PropOp44
 70
     0
102
RTVSPost2010Prop45
280
     0
102
RTVSPost2010PropOp45
 70
     0
102
RTVSPost2010Prop46
 90
       50
102
RTVSPost2010PropOp46
 70
     0
102
RTVSPost2010Prop47
 90
       50
102
RTVSPost2010PropOp47
 70
     0
102
RTVSPost2010Prop48
 90
       50
102
RTVSPost2010PropOp48
 70
     0
102
RTVSPost2010Prop49
280
     0
102
RTVSPost2010PropOp49
 70
     0
102
RTVSPost2010Prop50
 90
       50
102
RTVSPost2010PropOp50
 70
     0
102
RTVSPost2010Prop51ColorIndex
 90
      256
102
RTVSPost2010Prop51ColorRGB
 90
-16777216
102
RTVSPost2010PropOp51
 70
     0
102
RTVSPost2010Prop52
140
1.0
102
RTVSPost2010PropOp52
 70
     0
102
RTVSPost2010Prop53
 90
        2
102
RTVSPost2010PropOp53
 70
     0
102
RTVSPost2010Prop54
  1
strokes_ogs.tif
102
RTVSPost2010PropOp54
 70
     0
102
RTVSPost2010Prop55
280
     0
102
RTVSPost2010PropOp55
 70
     0
102
RTVSPost2010Prop56
140
1.0
102
RTVSPost2010PropOp56
 70
     0
102
RTVSPost2010Prop57
140
1.0
102
RTVSPost2010PropOp57
 70
     0
  0
XRECORD
  5
19E
102
{ACAD_REACTORS
330
19D
102
}
330
19D
100
AcDbXrecord
280
     1
102
RTVSPost2010Prop28
280
     0
102
RTVSPost2010PropOp28
 70
     1
102
RTVSPost2010Prop29
280
     1
102
RTVSPost2010PropOp29
 70
     1
102
RTVSPost2010Prop30
280
     1
102
RTVSPost2010PropOp30
 70
     1
102
RTVSPost2010Prop31
280
     0
102
RTVSPost2010PropOp31
 70
     1
102
RTVSPost2010Prop32
280
     0
102
RTVSPost2010PropOp32
 70
     1
102
RTVSPost2010Prop33
280
     0
102
RTVSPost2010PropOp33
 70
     1
102
RTVSPost2010Prop34
280
     0
102
RTVSPost2010PropOp34
 70
     1
102
RTVSPost2010Prop35
280
     0
102
RTVSPost2010PropOp35
 70
     1
102
RTVSPost2010Prop36
280
     0
102
RTVSPost2010PropOp36
 70
     1
102
RTVSPost2010Prop37
 90
       50
102
RTVSPost2010PropOp37
 70
     1
102
RTVSPost2010Prop38
140
0.0
102
RTVSPost2010PropOp38
 70
     1
102
RTVSPost2010Prop39
140
1.0
102
RTVSPost2010PropOp39
 70
     1
102
RTVSPost2010Prop40
 90
        0
102
RTVSPost2010PropOp40
 70
     1
102
RTVSPost2010Prop41ColorIndex
 90
       18
102
RTVSPost2010Prop41ColorRGB
 90
        0
102
RTVSPost2010PropOp41
 70
     1
102
RTVSPost2010Prop42
 90
       50
102
RTVSPost2010PropOp42
 70
     1
102
RTVSPost2010Prop43
 90
        3
102
RTVSPost2010PropOp43
 70
     1
102
RTVSPost2010Prop44ColorIndex
 90
        5
102
RTVSPost2010Prop44ColorRGB
 90
      255
102
RTVSPost2010PropOp44
 70
     1
102
RTVSPost2010Prop45
280
     0
102
RTVSPost2010PropOp45
 70
     1
102
RTVSPost2010Prop46
 90
       50
102
RTVSPost2010PropOp46
 70
     1
102
RTVSPost2010Prop47
 90
       50
102
RTVSPost2010PropOp47
 70
     1
102
RTVSPost2010Prop48
 90
       50
102
RTVSPost2010PropOp48
 70
     1
102
RTVSPost2010Prop49
280
     0
102
RTVSPost2010PropOp49
 70
     1
102
RTVSPost2010Prop50
 90
       50
102
RTVSPost2010PropOp50
 70
     1
102
RTVSPost2010Prop51ColorIndex
 90
      256
102
RTVSPost2010Prop51ColorRGB
 90
-16777216
102
RTVSPost2010PropOp51
 70
     0
102
RTVSPost2010Prop52
140
1.0
102
RTVSPost2010PropOp52
 70
     0
102
RTVSPost2010Prop53
 90
        2
102
RTVSPost2010PropOp53
 70
     1
102
RTVSPost2010Prop54
  1
strokes_ogs.tif
102
RTVSPost2010PropOp54
 70
     1
102
RTVSPost2010Prop55
280
     0
102
RTVSPost2010PropOp55
 70
     1
102
RTVSPost2010Prop56
140
1.0
102
RTVSPost2010PropOp56
 70
     1
102
RTVSPost2010Prop57
140
1.0
102
RTVSPost2010PropOp57
 70
     1
  0
XRECORD
  5
1B4
102
{ACAD_REACTORS
330
1B3
102
}
330
1B3
100
AcDbXrecord
280
     1
102
RTVSPost2010Prop28
280
     0
102
RTVSPost2010PropOp28
 70
     1
102
RTVSPost2010Prop29
280
     1
102
RTVSPost2010PropOp29
 70
     1
102
RTVSPost2010Prop30
280
     1
102
RTVSPost2010PropOp30
 70
     1
102
RTVSPost2010Prop31
280
     0
102
RTVSPost2010PropOp31
 70
     1
102
RTVSPost2010Prop32
280
     0
102
RTVSPost2010PropOp32
 70
     1
102
RTVSPost2010Prop33
280
     0
102
RTVSPost2010PropOp33
 70
     1
102
RTVSPost2010Prop34
280
     0
102
RTVSPost2010PropOp34
 70
     1
102
RTVSPost2010Prop35
280
     0
102
RTVSPost2010PropOp35
 70
     1
102
RTVSPost2010Prop36
280
     0
102
RTVSPost2010PropOp36
 70
     1
102
RTVSPost2010Prop37
 90
       50
102
RTVSPost2010PropOp37
 70
     1
102
RTVSPost2010Prop38
140
0.0
102
RTVSPost2010PropOp38
 70
     1
102
RTVSPost2010Prop39
140
1.0
102
RTVSPost2010PropOp39
 70
     1
102
RTVSPost2010Prop40
 90
        0
102
RTVSPost2010PropOp40
 70
     1
102
RTVSPost2010Prop41ColorIndex
 90
       18
102
RTVSPost2010Prop41ColorRGB
 90
        0
102
RTVSPost2010PropOp41
 70
     1
102
RTVSPost2010Prop42
 90
       50
102
RTVSPost2010PropOp42
 70
     1
102
RTVSPost2010Prop43
 90
        3
102
RTVSPost2010PropOp43
 70
     1
102
RTVSPost2010Prop44ColorIndex
 90
        5
102
RTVSPost2010Prop44ColorRGB
 90
      255
102
RTVSPost2010PropOp44
 70
     1
102
RTVSPost2010Prop45
280
     0
102
RTVSPost2010PropOp45
 70
     1
102
RTVSPost2010Prop46
 90
       50
102
RTVSPost2010PropOp46
 70
     1
102
RTVSPost2010Prop47
 90
       50
102
RTVSPost2010PropOp47
 70
     1
102
RTVSPost2010Prop48
 90
       50
102
RTVSPost2010PropOp48
 70
     1
102
RTVSPost2010Prop49
280
     0
102
RTVSPost2010PropOp49
 70
     1
102
RTVSPost2010Prop50
 90
       50
102
RTVSPost2010PropOp50
 70
     1
102
RTVSPost2010Prop51ColorIndex
 90
      256
102
RTVSPost2010Prop51ColorRGB
 90
-16777216
102
RTVSPost2010PropOp51
 70
     0
102
RTVSPost2010Prop52
140
1.0
102
RTVSPost2010PropOp52
 70
     0
102
RTVSPost2010Prop53
 90
        2
102
RTVSPost2010PropOp53
 70
     1
102
RTVSPost2010Prop54
  1
strokes_ogs.tif
102
RTVSPost2010PropOp54
 70
     1
102
RTVSPost2010Prop55
280
     0
102
RTVSPost2010PropOp55
 70
     1
102
RTVSPost2010Prop56
140
1.0
102
RTVSPost2010PropOp56
 70
     1
102
RTVSPost2010Prop57
140
1.0
102
RTVSPost2010PropOp57
 70
     1
  0
XRECORD
  5
1B2
102
{ACAD_REACTORS
330
1B1
102
}
330
1B1
100
AcDbXrecord
280
     1
102
RTVSPost2010Prop28
280
     0
102
RTVSPost2010PropOp28
 70
     1
102
RTVSPost2010Prop29
280
     1
102
RTVSPost2010PropOp29
 70
     1
102
RTVSPost2010Prop30
280
     1
102
RTVSPost2010PropOp30
 70
     1
102
RTVSPost2010Prop31
280
     0
102
RTVSPost2010PropOp31
 70
     1
102
RTVSPost2010Prop32
280
     0
102
RTVSPost2010PropOp32
 70
     1
102
RTVSPost2010Prop33
280
     0
102
RTVSPost2010PropOp33
 70
     1
102
RTVSPost2010Prop34
280
     0
102
RTVSPost2010PropOp34
 70
     1
102
RTVSPost2010Prop35
280
     0
102
RTVSPost2010PropOp35
 70
     1
102
RTVSPost2010Prop36
280
     0
102
RTVSPost2010PropOp36
 70
     1
102
RTVSPost2010Prop37
 90
       50
102
RTVSPost2010PropOp37
 70
     1
102
RTVSPost2010Prop38
140
0.0
102
RTVSPost2010PropOp38
 70
     1
102
RTVSPost2010Prop39
140
1.0
102
RTVSPost2010PropOp39
 70
     1
102
RTVSPost2010Prop40
 90
        0
102
RTVSPost2010PropOp40
 70
     1
102
RTVSPost2010Prop41ColorIndex
 90
       18
102
RTVSPost2010Prop41ColorRGB
 90
        0
102
RTVSPost2010PropOp41
 70
     1
102
RTVSPost2010Prop42
 90
       50
102
RTVSPost2010PropOp42
 70
     1
102
RTVSPost2010Prop43
 90
        3
102
RTVSPost2010PropOp43
 70
     1
102
RTVSPost2010Prop44ColorIndex
 90
        5
102
RTVSPost2010Prop44ColorRGB
 90
      255
102
RTVSPost2010PropOp44
 70
     1
102
RTVSPost2010Prop45
280
     0
102
RTVSPost2010PropOp45
 70
     1
102
RTVSPost2010Prop46
 90
       50
102
RTVSPost2010PropOp46
 70
     1
102
RTVSPost2010Prop47
 90
       50
102
RTVSPost2010PropOp47
 70
     1
102
RTVSPost2010Prop48
 90
       50
102
RTVSPost2010PropOp48
 70
     1
102
RTVSPost2010Prop49
280
     0
102
RTVSPost2010PropOp49
 70
     1
102
RTVSPost2010Prop50
 90
       50
102
RTVSPost2010PropOp50
 70
     1
102
RTVSPost2010Prop51ColorIndex
 90
      256
102
RTVSPost2010Prop51ColorRGB
 90
-16777216
102
RTVSPost2010PropOp51
 70
     0
102
RTVSPost2010Prop52
140
1.0
102
RTVSPost2010PropOp52
 70
     0
102
RTVSPost2010Prop53
 90
        2
102
RTVSPost2010PropOp53
 70
     1
102
RTVSPost2010Prop54
  1
strokes_ogs.tif
102
RTVSPost2010PropOp54
 70
     1
102
RTVSPost2010Prop55
280
     0
102
RTVSPost2010PropOp55
 70
     1
102
RTVSPost2010Prop56
140
1.0
102
RTVSPost2010PropOp56
 70
     1
102
RTVSPost2010Prop57
140
1.0
102
RTVSPost2010PropOp57
 70
     1
  0
XRECORD
  5
1AC
102
{ACAD_REACTORS
330
1AB
102
}
330
1AB
100
AcDbXrecord
280
     1
102
RTVSPost2010Prop28
280
     0
102
RTVSPost2010PropOp28
 70
     1
102
RTVSPost2010Prop29
280
     1
102
RTVSPost2010PropOp29
 70
     1
102
RTVSPost2010Prop30
280
     1
102
RTVSPost2010PropOp30
 70
     1
102
RTVSPost2010Prop31
280
     0
102
RTVSPost2010PropOp31
 70
     1
102
RTVSPost2010Prop32
280
     0
102
RTVSPost2010PropOp32
 70
     1
102
RTVSPost2010Prop33
280
     0
102
RTVSPost2010PropOp33
 70
     1
102
RTVSPost2010Prop34
280
     0
102
RTVSPost2010PropOp34
 70
     1
102
RTVSPost2010Prop35
280
     0
102
RTVSPost2010PropOp35
 70
     1
102
RTVSPost2010Prop36
280
     0
102
RTVSPost2010PropOp36
 70
     1
102
RTVSPost2010Prop37
 90
       50
102
RTVSPost2010PropOp37
 70
     1
102
RTVSPost2010Prop38
140
0.0
102
RTVSPost2010PropOp38
 70
     1
102
RTVSPost2010Prop39
140
1.0
102
RTVSPost2010PropOp39
 70
     1
102
RTVSPost2010Prop40
 90
        0
102
RTVSPost2010PropOp40
 70
     1
102
RTVSPost2010Prop41ColorIndex
 90
       18
102
RTVSPost2010Prop41ColorRGB
 90
        0
102
RTVSPost2010PropOp41
 70
     1
102
RTVSPost2010Prop42
 90
       50
102
RTVSPost2010PropOp42
 70
     1
102
RTVSPost2010Prop43
 90
        3
102
RTVSPost2010PropOp43
 70
     1
102
RTVSPost2010Prop44ColorIndex
 90
        5
102
RTVSPost2010Prop44ColorRGB
 90
      255
102
RTVSPost2010PropOp44
 70
     1
102
RTVSPost2010Prop45
280
     0
102
RTVSPost2010PropOp45
 70
     1
102
RTVSPost2010Prop46
 90
       50
102
RTVSPost2010PropOp46
 70
     1
102
RTVSPost2010Prop47
 90
       50
102
RTVSPost2010PropOp47
 70
     1
102
RTVSPost2010Prop48
 90
       50
102
RTVSPost2010PropOp48
 70
     1
102
RTVSPost2010Prop49
280
     0
102
RTVSPost2010PropOp49
 70
     1
102
RTVSPost2010Prop50
 90
       50
102
RTVSPost2010PropOp50
 70
     1
102
RTVSPost2010Prop51ColorIndex
 90
      256
102
RTVSPost2010Prop51ColorRGB
 90
-16777216
102
RTVSPost2010PropOp51
 70
     0
102
RTVSPost2010Prop52
140
1.0
102
RTVSPost2010PropOp52
 70
     0
102
RTVSPost2010Prop53
 90
        2
102
RTVSPost2010PropOp53
 70
     1
102
RTVSPost2010Prop54
  1
strokes_ogs.tif
102
RTVSPost2010PropOp54
 70
     1
102
RTVSPost2010Prop55
280
     0
102
RTVSPost2010PropOp55
 70
     1
102
RTVSPost2010Prop56
140
1.0
102
RTVSPost2010PropOp56
 70
     1
102
RTVSPost2010Prop57
140
1.0
102
RTVSPost2010PropOp57
 70
     1
  0
XRECORD
  5
1AE
102
{ACAD_REACTORS
330
1AD
102
}
330
1AD
100
AcDbXrecord
280
     1
102
RTVSPost2010Prop28
280
     0
102
RTVSPost2010PropOp28
 70
     1
102
RTVSPost2010Prop29
280
     1
102
RTVSPost2010PropOp29
 70
     1
102
RTVSPost2010Prop30
280
     1
102
RTVSPost2010PropOp30
 70
     1
102
RTVSPost2010Prop31
280
     0
102
RTVSPost2010PropOp31
 70
     1
102
RTVSPost2010Prop32
280
     0
102
RTVSPost2010PropOp32
 70
     1
102
RTVSPost2010Prop33
280
     0
102
RTVSPost2010PropOp33
 70
     1
102
RTVSPost2010Prop34
280
     0
102
RTVSPost2010PropOp34
 70
     1
102
RTVSPost2010Prop35
280
     0
102
RTVSPost2010PropOp35
 70
     1
102
RTVSPost2010Prop36
280
     0
102
RTVSPost2010PropOp36
 70
     1
102
RTVSPost2010Prop37
 90
       50
102
RTVSPost2010PropOp37
 70
     1
102
RTVSPost2010Prop38
140
0.0
102
RTVSPost2010PropOp38
 70
     1
102
RTVSPost2010Prop39
140
1.0
102
RTVSPost2010PropOp39
 70
     1
102
RTVSPost2010Prop40
 90
        0
102
RTVSPost2010PropOp40
 70
     1
102
RTVSPost2010Prop41ColorIndex
 90
       18
102
RTVSPost2010Prop41ColorRGB
 90
        0
102
RTVSPost2010PropOp41
 70
     1
102
RTVSPost2010Prop42
 90
       50
102
RTVSPost2010PropOp42
 70
     1
102
RTVSPost2010Prop43
 90
        3
102
RTVSPost2010PropOp43
 70
     1
102
RTVSPost2010Prop44ColorIndex
 90
        5
102
RTVSPost2010Prop44ColorRGB
 90
      255
102
RTVSPost2010PropOp44
 70
     1
102
RTVSPost2010Prop45
280
     0
102
RTVSPost2010PropOp45
 70
     1
102
RTVSPost2010Prop46
 90
       50
102
RTVSPost2010PropOp46
 70
     1
102
RTVSPost2010Prop47
 90
       50
102
RTVSPost2010PropOp47
 70
     1
102
RTVSPost2010Prop48
 90
       50
102
RTVSPost2010PropOp48
 70
     1
102
RTVSPost2010Prop49
280
     0
102
RTVSPost2010PropOp49
 70
     1
102
RTVSPost2010Prop50
 90
       50
102
RTVSPost2010PropOp50
 70
     1
102
RTVSPost2010Prop51ColorIndex
 90
      256
102
RTVSPost2010Prop51ColorRGB
 90
-16777216
102
RTVSPost2010PropOp51
 70
     0
102
RTVSPost2010Prop52
140
1.0
102
RTVSPost2010PropOp52
 70
     0
102
RTVSPost2010Prop53
 90
        2
102
RTVSPost2010PropOp53
 70
     1
102
RTVSPost2010Prop54
  1
strokes_ogs.tif
102
RTVSPost2010PropOp54
 70
     1
102
RTVSPost2010Prop55
280
     0
102
RTVSPost2010PropOp55
 70
     1
102
RTVSPost2010Prop56
140
1.0
102
RTVSPost2010PropOp56
 70
     1
102
RTVSPost2010Prop57
140
1.0
102
RTVSPost2010PropOp57
 70
     1
  0
XRECORD
  5
1A4
102
{ACAD_REACTORS
330
1A3
102
}
330
1A3
100
AcDbXrecord
280
     1
102
RTVSPost2010Prop28
280
     0
102
RTVSPost2010PropOp28
 70
     1
102
RTVSPost2010Prop29
280
     1
102
RTVSPost2010PropOp29
 70
     1
102
RTVSPost2010Prop30
280
     1
102
RTVSPost2010PropOp30
 70
     1
102
RTVSPost2010Prop31
280
     0
102
RTVSPost2010PropOp31
 70
     1
102
RTVSPost2010Prop32
280
     0
102
RTVSPost2010PropOp32
 70
     1
102
RTVSPost2010Prop33
280
     0
102
RTVSPost2010PropOp33
 70
     1
102
RTVSPost2010Prop34
280
     0
102
RTVSPost2010PropOp34
 70
     1
102
RTVSPost2010Prop35
280
     0
102
RTVSPost2010PropOp35
 70
     1
102
RTVSPost2010Prop36
280
     0
102
RTVSPost2010PropOp36
 70
     1
102
RTVSPost2010Prop37
 90
       50
102
RTVSPost2010PropOp37
 70
     1
102
RTVSPost2010Prop38
140
0.0
102
RTVSPost2010PropOp38
 70
     1
102
RTVSPost2010Prop39
140
1.0
102
RTVSPost2010PropOp39
 70
     1
102
RTVSPost2010Prop40
 90
        0
102
RTVSPost2010PropOp40
 70
     1
102
RTVSPost2010Prop41ColorIndex
 90
       18
102
RTVSPost2010Prop41ColorRGB
 90
        0
102
RTVSPost2010PropOp41
 70
     1
102
RTVSPost2010Prop42
 90
       50
102
RTVSPost2010PropOp42
 70
     1
102
RTVSPost2010Prop43
 90
        3
102
RTVSPost2010PropOp43
 70
     1
102
RTVSPost2010Prop44ColorIndex
 90
        5
102
RTVSPost2010Prop44ColorRGB
 90
      255
102
RTVSPost2010PropOp44
 70
     1
102
RTVSPost2010Prop45
280
     0
102
RTVSPost2010PropOp45
 70
     1
102
RTVSPost2010Prop46
 90
       50
102
RTVSPost2010PropOp46
 70
     1
102
RTVSPost2010Prop47
 90
       50
102
RTVSPost2010PropOp47
 70
     1
102
RTVSPost2010Prop48
 90
       50
102
RTVSPost2010PropOp48
 70
     1
102
RTVSPost2010Prop49
280
     0
102
RTVSPost2010PropOp49
 70
     1
102
RTVSPost2010Prop50
 90
       50
102
RTVSPost2010PropOp50
 70
     1
102
RTVSPost2010Prop51ColorIndex
 90
      256
102
RTVSPost2010Prop51ColorRGB
 90
-16777216
102
RTVSPost2010PropOp51
 70
     0
102
RTVSPost2010Prop52
140
1.0
102
RTVSPost2010PropOp52
 70
     0
102
RTVSPost2010Prop53
 90
        2
102
RTVSPost2010PropOp53
 70
     1
102
RTVSPost2010Prop54
  1
strokes_ogs.tif
102
RTVSPost2010PropOp54
 70
     1
102
RTVSPost2010Prop55
280
     0
102
RTVSPost2010PropOp55
 70
     1
102
RTVSPost2010Prop56
140
1.0
102
RTVSPost2010PropOp56
 70
     1
102
RTVSPost2010Prop57
140
1.0
102
RTVSPost2010PropOp57
 70
     1
  0
XRECORD
  5
198
102
{ACAD_REACTORS
330
197
102
}
330
197
100
AcDbXrecord
280
     1
102
RTVSPost2010Prop28
280
     0
102
RTVSPost2010PropOp28
 70
     1
102
RTVSPost2010Prop29
280
     1
102
RTVSPost2010PropOp29
 70
     1
102
RTVSPost2010Prop30
280
     1
102
RTVSPost2010PropOp30
 70
     1
102
RTVSPost2010Prop31
280
     0
102
RTVSPost2010PropOp31
 70
     1
102
RTVSPost2010Prop32
280
     0
102
RTVSPost2010PropOp32
 70
     1
102
RTVSPost2010Prop33
280
     0
102
RTVSPost2010PropOp33
 70
     1
102
RTVSPost2010Prop34
280
     0
102
RTVSPost2010PropOp34
 70
     1
102
RTVSPost2010Prop35
280
     0
102
RTVSPost2010PropOp35
 70
     1
102
RTVSPost2010Prop36
280
     0
102
RTVSPost2010PropOp36
 70
     1
102
RTVSPost2010Prop37
 90
       50
102
RTVSPost2010PropOp37
 70
     1
102
RTVSPost2010Prop38
140
0.0
102
RTVSPost2010PropOp38
 70
     1
102
RTVSPost2010Prop39
140
1.0
102
RTVSPost2010PropOp39
 70
     1
102
RTVSPost2010Prop40
 90
        0
102
RTVSPost2010PropOp40
 70
     1
102
RTVSPost2010Prop41ColorIndex
 90
       18
102
RTVSPost2010Prop41ColorRGB
 90
        0
102
RTVSPost2010PropOp41
 70
     1
102
RTVSPost2010Prop42
 90
       50
102
RTVSPost2010PropOp42
 70
     1
102
RTVSPost2010Prop43
 90
        3
102
RTVSPost2010PropOp43
 70
     1
102
RTVSPost2010Prop44ColorIndex
 90
        5
102
RTVSPost2010Prop44ColorRGB
 90
      255
102
RTVSPost2010PropOp44
 70
     1
102
RTVSPost2010Prop45
280
     0
102
RTVSPost2010PropOp45
 70
     1
102
RTVSPost2010Prop46
 90
       50
102
RTVSPost2010PropOp46
 70
     1
102
RTVSPost2010Prop47
 90
       50
102
RTVSPost2010PropOp47
 70
     1
102
RTVSPost2010Prop48
 90
       50
102
RTVSPost2010PropOp48
 70
     1
102
RTVSPost2010Prop49
280
     0
102
RTVSPost2010PropOp49
 70
     1
102
RTVSPost2010Prop50
 90
       50
102
RTVSPost2010PropOp50
 70
     1
102
RTVSPost2010Prop51ColorIndex
 90
      256
102
RTVSPost2010Prop51ColorRGB
 90
-16777216
102
RTVSPost2010PropOp51
 70
     0
102
RTVSPost2010Prop52
140
1.0
102
RTVSPost2010PropOp52
 70
     0
102
RTVSPost2010Prop53
 90
        2
102
RTVSPost2010PropOp53
 70
     1
102
RTVSPost2010Prop54
  1
strokes_ogs.tif
102
RTVSPost2010PropOp54
 70
     1
102
RTVSPost2010Prop55
280
     0
102
RTVSPost2010PropOp55
 70
     1
102
RTVSPost2010Prop56
140
1.0
102
RTVSPost2010PropOp56
 70
     1
102
RTVSPost2010Prop57
140
1.0
102
RTVSPost2010PropOp57
 70
     1
  0
XRECORD
  5
1B0
102
{ACAD_REACTORS
330
1AF
102
}
330
1AF
100
AcDbXrecord
280
     1
102
RTVSPost2010Prop28
280
     0
102
RTVSPost2010PropOp28
 70
     1
102
RTVSPost2010Prop29
280
     1
102
RTVSPost2010PropOp29
 70
     1
102
RTVSPost2010Prop30
280
     1
102
RTVSPost2010PropOp30
 70
     1
102
RTVSPost2010Prop31
280
     0
102
RTVSPost2010PropOp31
 70
     1
102
RTVSPost2010Prop32
280
     0
102
RTVSPost2010PropOp32
 70
     1
102
RTVSPost2010Prop33
280
     0
102
RTVSPost2010PropOp33
 70
     1
102
RTVSPost2010Prop34
280
     0
102
RTVSPost2010PropOp34
 70
     1
102
RTVSPost2010Prop35
280
     0
102
RTVSPost2010PropOp35
 70
     1
102
RTVSPost2010Prop36
280
     0
102
RTVSPost2010PropOp36
 70
     1
102
RTVSPost2010Prop37
 90
       50
102
RTVSPost2010PropOp37
 70
     1
102
RTVSPost2010Prop38
140
0.0
102
RTVSPost2010PropOp38
 70
     1
102
RTVSPost2010Prop39
140
1.0
102
RTVSPost2010PropOp39
 70
     1
102
RTVSPost2010Prop40
 90
        0
102
RTVSPost2010PropOp40
 70
     1
102
RTVSPost2010Prop41ColorIndex
 90
       18
102
RTVSPost2010Prop41ColorRGB
 90
        0
102
RTVSPost2010PropOp41
 70
     1
102
RTVSPost2010Prop42
 90
       50
102
RTVSPost2010PropOp42
 70
     1
102
RTVSPost2010Prop43
 90
        3
102
RTVSPost2010PropOp43
 70
     1
102
RTVSPost2010Prop44ColorIndex
 90
        5
102
RTVSPost2010Prop44ColorRGB
 90
      255
102
RTVSPost2010PropOp44
 70
     1
102
RTVSPost2010Prop45
280
     0
102
RTVSPost2010PropOp45
 70
     1
102
RTVSPost2010Prop46
 90
       50
102
RTVSPost2010PropOp46
 70
     1
102
RTVSPost2010Prop47
 90
       50
102
RTVSPost2010PropOp47
 70
     1
102
RTVSPost2010Prop48
 90
       50
102
RTVSPost2010PropOp48
 70
     1
102
RTVSPost2010Prop49
280
     0
102
RTVSPost2010PropOp49
 70
     1
102
RTVSPost2010Prop50
 90
       50
102
RTVSPost2010PropOp50
 70
     1
102
RTVSPost2010Prop51ColorIndex
 90
      256
102
RTVSPost2010Prop51ColorRGB
 90
-16777216
102
RTVSPost2010PropOp51
 70
     0
102
RTVSPost2010Prop52
140
1.0
102
RTVSPost2010PropOp52
 70
     0
102
RTVSPost2010Prop53
 90
        2
102
RTVSPost2010PropOp53
 70
     1
102
RTVSPost2010Prop54
  1
strokes_ogs.tif
102
RTVSPost2010PropOp54
 70
     1
102
RTVSPost2010Prop55
280
     0
102
RTVSPost2010PropOp55
 70
     1
102
RTVSPost2010Prop56
140
1.0
102
RTVSPost2010PropOp56
 70
     1
102
RTVSPost2010Prop57
140
1.0
102
RTVSPost2010PropOp57
 70
     1
  0
ENDSEC
  0
EOF
