  0
SECTION
  2
HEADER
  9
$ACADVER
  1
AC1024
  9
$ACADMAINTVER
 70
   205
  9
$DWGCODEPAGE
  3
ANSI_1251
  9
$INSBASE
 10
0.0
 20
0.0
 30
0.0
  9
$EXTMIN
 10
1.000000000000000E+20
 20
1.000000000000000E+20
 30
1.000000000000000E+20
  9
$EXTMAX
 10
-1.000000000000000E+20
 20
-1.000000000000000E+20
 30
-1.000000000000000E+20
  9
$LIMMIN
 10
0.0
 20
0.0
  9
$LIMMAX
 10
12.0
 20
9.0
  9
$ORTHOMODE
 70
     0
  9
$REGENMODE
 70
     1
  9
$FILLMODE
 70
     1
  9
$QTEXTMODE
 70
     0
  9
$MIRRTEXT
 70
     1
  9
$LTSCALE
 40
1.0
  9
$ATTMODE
 70
     1
  9
$TEXTSIZE
 40
0.2
  9
$TRACEWID
 40
0.05
  9
$TEXTSTYLE
  7
Standard
  9
$CLAYER
  8
OracDecor_panel_moldings
  9
$CELTYPE
  6
ByLayer
  9
$CECOLOR
 62
   256
  9
$CELTSCALE
 40
1.0
  9
$DISPSILH
 70
     0
  9
$DIMSCALE
 40
1.0
  9
$DIMASZ
 40
0.18
  9
$DIMEXO
 40
0.0625
  9
$DIMDLI
 40
0.38
  9
$DIMRND
 40
0.0
  9
$DIMDLE
 40
0.0
  9
$DIMEXE
 40
0.18
  9
$DIMTP
 40
0.0
  9
$DIMTM
 40
0.0
  9
$DIMTXT
 40
0.18
  9
$DIMCEN
 40
0.09
  9
$DIMTSZ
 40
0.0
  9
$DIMTOL
 70
     0
  9
$DIMLIM
 70
     0
  9
$DIMTIH
 70
     1
  9
$DIMTOH
 70
     1
  9
$DIMSE1
 70
     0
  9
$DIMSE2
 70
     0
  9
$DIMTAD
 70
     0
  9
$DIMZIN
 70
     0
  9
$DIMBLK
  1

  9
$DIMASO
 70
     1
  9
$DIMSHO
 70
     1
  9
$DIMPOST
  1

  9
$DIMAPOST
  1

  9
$DIMALT
 70
     0
  9
$DIMALTD
 70
     2
  9
$DIMALTF
 40
25.4
  9
$DIMLFAC
 40
1.0
  9
$DIMTOFL
 70
     0
  9
$DIMTVP
 40
0.0
  9
$DIMTIX
 70
     0
  9
$DIMSOXD
 70
     0
  9
$DIMSAH
 70
     0
  9
$DIMBLK1
  1

  9
$DIMBLK2
  1

  9
$DIMSTYLE
  2
Standard
  9
$DIMCLRD
 70
     0
  9
$DIMCLRE
 70
     0
  9
$DIMCLRT
 70
     0
  9
$DIMTFAC
 40
1.0
  9
$DIMGAP
 40
0.09
  9
$DIMJUST
 70
     0
  9
$DIMSD1
 70
     0
  9
$DIMSD2
 70
     0
  9
$DIMTOLJ
 70
     1
  9
$DIMTZIN
 70
     0
  9
$DIMALTZ
 70
     0
  9
$DIMALTTZ
 70
     0
  9
$DIMUPT
 70
     0
  9
$DIMDEC
 70
     4
  9
$DIMTDEC
 70
     4
  9
$DIMALTU
 70
     2
  9
$DIMALTTD
 70
     2
  9
$DIMTXSTY
  7
Standard
  9
$DIMAUNIT
 70
     0
  9
$DIMADEC
 70
     0
  9
$DIMALTRND
 40
0.0
  9
$DIMAZIN
 70
     0
  9
$DIMDSEP
 70
    46
  9
$DIMATFIT
 70
     3
  9
$DIMFRAC
 70
     0
  9
$DIMLDRBLK
  1

  9
$DIMLUNIT
 70
     2
  9
$DIMLWD
 70
    -2
  9
$DIMLWE
 70
    -2
  9
$DIMTMOVE
 70
     0
  9
$DIMFXL
 40
1.0
  9
$DIMFXLON
 70
     0
  9
$DIMJOGANG
 40
0.7853981633974483
  9
$DIMTFILL
 70
     0
  9
$DIMTFILLCLR
 70
     0
  9
$DIMARCSYM
 70
     0
  9
$DIMLTYPE
  6

  9
$DIMLTEX1
  6

  9
$DIMLTEX2
  6

  9
$DIMTXTDIRECTION
 70
     0
  9
$LUNITS
 70
     2
  9
$LUPREC
 70
     4
  9
$SKETCHINC
 40
0.1
  9
$FILLETRAD
 40
0.5
  9
$AUNITS
 70
     0
  9
$AUPREC
 70
     0
  9
$MENU
  1
.
  9
$ELEVATION
 40
0.0
  9
$PELEVATION
 40
0.0
  9
$THICKNESS
 40
0.0
  9
$LIMCHECK
 70
     0
  9
$CHAMFERA
 40
0.5
  9
$CHAMFERB
 40
0.5
  9
$CHAMFERC
 40
1.0
  9
$CHAMFERD
 40
0.0
  9
$SKPOLY
 70
     0
  9
$TDCREATE
 40
2451380.930432396
  9
$TDUCREATE
 40
2451380.805432396
  9
$TDUPDATE
 40
2451380.966180555
  9
$TDUUPDATE
 40
2451380.841180556
  9
$TDINDWG
 40
0.0075624421
  9
$TDUSRTIMER
 40
0.0075534028
  9
$USRTIMER
 70
     1
  9
$ANGBASE
 50
0.0
  9
$ANGDIR
 70
     0
  9
$PDMODE
 70
     0
  9
$PDSIZE
 40
0.0
  9
$PLINEWID
 40
0.0
  9
$SPLFRAME
 70
     0
  9
$SPLINETYPE
 70
     6
  9
$SPLINESEGS
 70
     8
  9
$HANDSEED
  5
19D
  9
$SURFTAB1
 70
     6
  9
$SURFTAB2
 70
     6
  9
$SURFTYPE
 70
     6
  9
$SURFU
 70
     6
  9
$SURFV
 70
     6
  9
$UCSBASE
  2

  9
$UCSNAME
  2

  9
$UCSORG
 10
0.0
 20
0.0
 30
0.0
  9
$UCSXDIR
 10
1.0
 20
0.0
 30
0.0
  9
$UCSYDIR
 10
0.0
 20
1.0
 30
0.0
  9
$UCSORTHOREF
  2

  9
$UCSORTHOVIEW
 70
     0
  9
$UCSORGTOP
 10
0.0
 20
0.0
 30
0.0
  9
$UCSORGBOTTOM
 10
0.0
 20
0.0
 30
0.0
  9
$UCSORGLEFT
 10
0.0
 20
0.0
 30
0.0
  9
$UCSORGRIGHT
 10
0.0
 20
0.0
 30
0.0
  9
$UCSORGFRONT
 10
0.0
 20
0.0
 30
0.0
  9
$UCSORGBACK
 10
0.0
 20
0.0
 30
0.0
  9
$PUCSBASE
  2

  9
$PUCSNAME
  2

  9
$PUCSORG
 10
0.0
 20
0.0
 30
0.0
  9
$PUCSXDIR
 10
1.0
 20
0.0
 30
0.0
  9
$PUCSYDIR
 10
0.0
 20
1.0
 30
0.0
  9
$PUCSORTHOREF
  2

  9
$PUCSORTHOVIEW
 70
     0
  9
$PUCSORGTOP
 10
0.0
 20
0.0
 30
0.0
  9
$PUCSORGBOTTOM
 10
0.0
 20
0.0
 30
0.0
  9
$PUCSORGLEFT
 10
0.0
 20
0.0
 30
0.0
  9
$PUCSORGRIGHT
 10
0.0
 20
0.0
 30
0.0
  9
$PUCSORGFRONT
 10
0.0
 20
0.0
 30
0.0
  9
$PUCSORGBACK
 10
0.0
 20
0.0
 30
0.0
  9
$USERI1
 70
     0
  9
$USERI2
 70
     0
  9
$USERI3
 70
     0
  9
$USERI4
 70
     0
  9
$USERI5
 70
     0
  9
$USERR1
 40
0.0
  9
$USERR2
 40
0.0
  9
$USERR3
 40
0.0
  9
$USERR4
 40
0.0
  9
$USERR5
 40
0.0
  9
$WORLDVIEW
 70
     1
  9
$SHADEDGE
 70
     3
  9
$SHADEDIF
 70
    70
  9
$TILEMODE
 70
     1
  9
$MAXACTVP
 70
    64
  9
$PINSBASE
 10
0.0
 20
0.0
 30
0.0
  9
$PLIMCHECK
 70
     0
  9
$PEXTMIN
 10
1.000000000000000E+20
 20
1.000000000000000E+20
 30
1.000000000000000E+20
  9
$PEXTMAX
 10
-1.000000000000000E+20
 20
-1.000000000000000E+20
 30
-1.000000000000000E+20
  9
$PLIMMIN
 10
0.0
 20
0.0
  9
$PLIMMAX
 10
12.0
 20
9.0
  9
$UNITMODE
 70
     0
  9
$VISRETAIN
 70
     1
  9
$PLINEGEN
 70
     0
  9
$PSLTSCALE
 70
     1
  9
$TREEDEPTH
 70
  3020
  9
$CMLSTYLE
  2
Standard
  9
$CMLJUST
 70
     0
  9
$CMLSCALE
 40
1.0
  9
$PROXYGRAPHICS
 70
     1
  9
$MEASUREMENT
 70
     1
  9
$CELWEIGHT
370
    -1
  9
$ENDCAPS
280
     0
  9
$JOINSTYLE
280
     0
  9
$LWDISPLAY
290
     0
  9
$INSUNITS
 70
     4
  9
$HYPERLINKBASE
  1

  9
$STYLESHEET
  1

  9
$XEDIT
290
     1
  9
$CEPSNTYPE
380
     0
  9
$PSTYLEMODE
290
     1
  9
$FINGERPRINTGUID
  2
{12F50282-3ED8-11D3-A8B7-0060B0F84BC6}
  9
$VERSIONGUID
  2
{12F50293-3ED8-11D3-A8B7-0060B0F84BC6}
  9
$EXTNAMES
290
     1
  9
$PSVPSCALE
 40
0.0
  9
$OLESTARTUP
290
     0
  9
$SORTENTS
280
   127
  9
$INDEXCTL
280
     0
  9
$HIDETEXT
280
     0
  9
$XCLIPFRAME
280
     2
  9
$HALOGAP
280
     0
  9
$OBSCOLOR
 70
   257
  9
$OBSLTYPE
280
     0
  9
$INTERSECTIONDISPLAY
280
     0
  9
$INTERSECTIONCOLOR
 70
   257
  9
$DIMASSOC
280
     1
  9
$PROJECTNAME
  1

  9
$CAMERADISPLAY
290
     0
  9
$LENSLENGTH
 40
50.0
  9
$CAMERAHEIGHT
 40
0.0
  9
$STEPSPERSEC
 40
2.0
  9
$STEPSIZE
 40
6.0
  9
$3DDWFPREC
 40
2.0
  9
$PSOLWIDTH
 40
0.25
  9
$PSOLHEIGHT
 40
4.0
  9
$LOFTANG1
 40
1.570796326794896
  9
$LOFTANG2
 40
1.570796326794896
  9
$LOFTMAG1
 40
0.0
  9
$LOFTMAG2
 40
0.0
  9
$LOFTPARAM
 70
     7
  9
$LOFTNORMALS
280
     1
  9
$LATITUDE
 40
37.795
  9
$LONGITUDE
 40
-122.394
  9
$NORTHDIRECTION
 40
0.0
  9
$TIMEZONE
 70
 -8000
  9
$LIGHTGLYPHDISPLAY
280
     1
  9
$TILEMODELIGHTSYNCH
280
     1
  9
$CMATERIAL
347
AB
  9
$SOLIDHIST
280
     0
  9
$SHOWHIST
280
     1
  9
$DWFFRAME
280
     2
  9
$DGNFRAME
280
     0
  9
$REALWORLDSCALE
290
     1
  9
$INTERFERECOLOR
 62
     1
  9
$INTERFEREOBJVS
345
CD
  9
$INTERFEREVPVS
346
CA
  9
$CSHADOW
280
     0
  9
$SHADOWPLANELOCATION
 40
0.0
  0
ENDSEC
  0
SECTION
  2
CLASSES
  0
CLASS
  1
ACDBDICTIONARYWDFLT
  2
AcDbDictionaryWithDefault
  3
ObjectDBX Classes
 90
        0
 91
        1
280
     0
281
     0
  0
CLASS
  1
ACDBPLACEHOLDER
  2
AcDbPlaceHolder
  3
ObjectDBX Classes
 90
        0
 91
        2
280
     0
281
     0
  0
CLASS
  1
LAYOUT
  2
AcDbLayout
  3
ObjectDBX Classes
 90
        0
 91
        3
280
     0
281
     0
  0
CLASS
  1
MATERIAL
  2
AcDbMaterial
  3
ObjectDBX Classes
 90
     1153
 91
        3
280
     0
281
     0
  0
CLASS
  1
VISUALSTYLE
  2
AcDbVisualStyle
  3
ObjectDBX Classes
 90
     4095
 91
       24
280
     0
281
     0
  0
CLASS
  1
TABLESTYLE
  2
AcDbTableStyle
  3
ObjectDBX Classes
 90
     4095
 91
        1
280
     0
281
     0
  0
CLASS
  1
SCALE
  2
AcDbScale
  3
ObjectDBX Classes
 90
     1153
 91
       17
280
     0
281
     0
  0
CLASS
  1
MLEADERSTYLE
  2
AcDbMLeaderStyle
  3
ACDB_MLEADERSTYLE_CLASS
 90
     4095
 91
        1
280
     0
281
     0
  0
CLASS
  1
ACDBSECTIONVIEWSTYLE
  2
AcDbSectionViewStyle
  3
ObjectDBX Classes
 90
     1025
 91
        1
280
     0
281
     0
  0
CLASS
  1
ACDBDETAILVIEWSTYLE
  2
AcDbDetailViewStyle
  3
ObjectDBX Classes
 90
     1025
 91
        1
280
     0
281
     0
  0
CLASS
  1
MESH
  2
AcDbSubDMesh
  3
ObjectDBX Classes
 90
        0
 91
        1
280
     0
281
     1
  0
CLASS
  1
DICTIONARYVAR
  2
AcDbDictionaryVar
  3
ObjectDBX Classes
 90
        0
 91
        9
280
     0
281
     0
  0
CLASS
  1
CELLSTYLEMAP
  2
AcDbCellStyleMap
  3
ObjectDBX Classes
 90
     1152
 91
        1
280
     0
281
     0
  0
ENDSEC
  0
SECTION
  2
TABLES
  0
TABLE
  2
VPORT
  5
8
330
0
100
AcDbSymbolTable
 70
     1
  0
VPORT
  5
A8
330
8
100
AcDbSymbolTableRecord
100
AcDbViewportTableRecord
  2
*Active
 70
     0
 10
0.0
 20
0.0
 11
1.0
 21
1.0
 12
-0.0000215791878873
 22
41.23308563232422
 13
0.0
 23
0.0
 14
0.5
 24
0.5
 15
0.5
 25
0.5
 16
-1.0
 26
-1.0
 36
1.0
 17
0.0
 27
0.0
 37
0.0
 40
1122.147279236074
 41
1.576155816042105
 42
50.0
 43
0.0
 44
0.0
 50
0.0
 51
0.0
 71
     0
 72
   100
 73
     1
 74
     3
 75
     0
 76
     0
 77
     0
 78
     0
281
     0
 65
     1
110
0.0
120
0.0
130
0.0
111
1.0
121
0.0
131
0.0
112
0.0
122
1.0
132
0.0
 79
     0
146
0.0
348
C9
 60
     3
 61
     5
292
     1
282
     1
141
0.0
142
0.0
 63
   250
421
  3355443
  0
ENDTAB
  0
TABLE
  2
LTYPE
  5
5
330
0
100
AcDbSymbolTable
 70
     1
  0
LTYPE
  5
14
330
5
100
AcDbSymbolTableRecord
100
AcDbLinetypeTableRecord
  2
ByBlock
 70
     0
  3

 72
    65
 73
     0
 40
0.0
  0
LTYPE
  5
15
330
5
100
AcDbSymbolTableRecord
100
AcDbLinetypeTableRecord
  2
ByLayer
 70
     0
  3

 72
    65
 73
     0
 40
0.0
  0
LTYPE
  5
16
330
5
100
AcDbSymbolTableRecord
100
AcDbLinetypeTableRecord
  2
Continuous
 70
     0
  3
Solid line
 72
    65
 73
     0
 40
0.0
  0
ENDTAB
  0
TABLE
  2
LAYER
  5
2
330
0
100
AcDbSymbolTable
 70
     3
  0
LAYER
  5
10
330
2
100
AcDbSymbolTableRecord
100
AcDbLayerTableRecord
  2
0
 70
     0
 62
     7
  6
Continuous
370
    -3
390
F
347
BB
  0
LAYER
  5
2B
330
2
100
AcDbSymbolTableRecord
100
AcDbLayerTableRecord
  2
ASHADE
 70
     4
 62
     7
  6
Continuous
370
    -3
390
2D
347
BB
  0
LAYER
  5
F8
330
2
100
AcDbSymbolTableRecord
100
AcDbLayerTableRecord
  2
OracDecor_panel_moldings
 70
     0
 62
   134
420
  1814932
  6
Continuous
370
    -3
390
F
347
BB
  0
ENDTAB
  0
TABLE
  2
STYLE
  5
3
330
0
100
AcDbSymbolTable
 70
     2
  0
STYLE
  5
11
330
3
100
AcDbSymbolTableRecord
100
AcDbTextStyleTableRecord
  2
Standard
 70
     0
 40
0.0
 41
1.0
 50
0.0
 71
     0
 42
0.2
  3
txt
  4

  0
STYLE
  5
2C
330
3
100
AcDbSymbolTableRecord
100
AcDbTextStyleTableRecord
  2
ASHADE
 70
     0
 40
0.2
 41
1.0
 50
0.0
 71
     0
 42
0.2
  3
simplex
  4

  0
ENDTAB
  0
TABLE
  2
VIEW
  5
6
330
0
100
AcDbSymbolTable
 70
     0
  0
ENDTAB
  0
TABLE
  2
UCS
  5
7
330
0
100
AcDbSymbolTable
 70
     0
  0
ENDTAB
  0
TABLE
  2
APPID
  5
9
330
0
100
AcDbSymbolTable
 70
     6
  0
APPID
  5
12
330
9
100
AcDbSymbolTableRecord
100
AcDbRegAppTableRecord
  2
ACAD
 70
     0
  0
APPID
  5
8F
330
9
100
AcDbSymbolTableRecord
100
AcDbRegAppTableRecord
  2
AVE_RENDER
 70
     0
  0
APPID
  5
90
330
9
100
AcDbSymbolTableRecord
100
AcDbRegAppTableRecord
  2
AVE_ENTITY_MATERIAL
 70
     0
  0
APPID
  5
9C
330
9
100
AcDbSymbolTableRecord
100
AcDbRegAppTableRecord
  2
AVE_FINISH
 70
     0
  0
APPID
  5
9D
330
9
100
AcDbSymbolTableRecord
100
AcDbRegAppTableRecord
  2
AVE_MATERIAL
 70
     0
  0
APPID
  5
9E
330
9
100
AcDbSymbolTableRecord
100
AcDbRegAppTableRecord
  2
AVE_GLOBAL
 70
     0
  0
ENDTAB
  0
TABLE
  2
DIMSTYLE
  5
A
330
0
100
AcDbSymbolTable
 70
     1
100
AcDbDimStyleTable
 71
     0
  0
DIMSTYLE
105
27
330
A
100
AcDbSymbolTableRecord
100
AcDbDimStyleTableRecord
  2
Standard
 70
     0
340
11
  0
ENDTAB
  0
TABLE
  2
BLOCK_RECORD
  5
1
330
0
100
AcDbSymbolTable
 70
     6
  0
BLOCK_RECORD
  5
1F
330
1
100
AcDbSymbolTableRecord
100
AcDbBlockTableRecord
  2
*Model_Space
340
22
 70
     0
280
     1
281
     0
  0
BLOCK_RECORD
  5
1B
330
1
100
AcDbSymbolTableRecord
100
AcDbBlockTableRecord
  2
*Paper_Space
340
1E
 70
     0
280
     1
281
     0
  0
BLOCK_RECORD
  5
23
330
1
100
AcDbSymbolTableRecord
100
AcDbBlockTableRecord
  2
*Paper_Space0
340
26
 70
     0
280
     1
281
     0
  0
BLOCK_RECORD
  5
2E
330
1
100
AcDbSymbolTableRecord
100
AcDbBlockTableRecord
  2
direct
340
0
 70
     0
280
     1
281
     0
  0
BLOCK_RECORD
  5
42
330
1
100
AcDbSymbolTableRecord
100
AcDbBlockTableRecord
  2
overhead
340
0
 70
     0
280
     1
281
     0
  0
BLOCK_RECORD
  5
5F
330
1
100
AcDbSymbolTableRecord
100
AcDbBlockTableRecord
  2
sh_spot
340
0
 70
     0
280
     1
281
     0
  0
BLOCK_RECORD
  5
91
330
1
100
AcDbSymbolTableRecord
100
AcDbBlockTableRecord
  2
AVE_RENDER
340
0
102
{BLKREFS
331
94
331
95
331
96
331
97
331
98
331
99
331
9A
331
9B
102
}
 70
     0
280
     1
281
     0
  0
BLOCK_RECORD
  5
9F
330
1
100
AcDbSymbolTableRecord
100
AcDbBlockTableRecord
  2
AVE_GLOBAL
340
0
102
{BLKREFS
331
A2
102
}
 70
     0
280
     1
281
     0
  0
ENDTAB
  0
ENDSEC
  0
SECTION
  2
BLOCKS
  0
BLOCK
  5
20
330
1F
100
AcDbEntity
  8
0
100
AcDbBlockBegin
  2
*Model_Space
 70
     0
 10
0.0
 20
0.0
 30
0.0
  3
*Model_Space
  1

  0
ENDBLK
  5
21
330
1F
100
AcDbEntity
  8
0
100
AcDbBlockEnd
  0
BLOCK
  5
1C
330
1B
100
AcDbEntity
 67
     1
  8
0
100
AcDbBlockBegin
  2
*Paper_Space
 70
     0
 10
0.0
 20
0.0
 30
0.0
  3
*Paper_Space
  1

  0
ENDBLK
  5
1D
330
1B
100
AcDbEntity
 67
     1
  8
0
100
AcDbBlockEnd
  0
BLOCK
  5
24
330
23
100
AcDbEntity
 67
     1
  8
0
100
AcDbBlockBegin
  2
*Paper_Space0
 70
     0
 10
0.0
 20
0.0
 30
0.0
  3
*Paper_Space0
  1

  0
ENDBLK
  5
25
330
23
100
AcDbEntity
 67
     1
  8
0
100
AcDbBlockEnd
  0
BLOCK
  5
40
330
2E
100
AcDbEntity
  8
0
100
AcDbBlockBegin
  2
direct
 70
     2
 10
0.0
 20
0.0
 30
0.0
  3
direct
  1

  0
ATTDEF
  5
2F
330
2E
100
AcDbEntity
  8
ASHADE
  6
Continuous
 62
     1
100
AcDbText
 10
0.0
 20
-0.1
 30
0.0
 40
0.2
  1

  7
ASHADE
 72
     1
 11
0.0
 21
-0.1
 31
0.0
100
AcDbAttributeDefinition
280
     0
  3
Light Name
  2
SNAME
 70
     0
280
     0
  0
ARC
  5
30
330
2E
100
AcDbEntity
  8
ASHADE
  6
Continuous
 62
     7
100
AcDbCircle
 10
0.0
 20
0.0
 30
0.0
 40
0.3
100
AcDbArc
 50
205.6792886194569
 51
334.3207113805431
  0
ARC
  5
31
330
2E
100
AcDbEntity
  8
ASHADE
  6
Continuous
 62
     7
100
AcDbCircle
 10
0.0
 20
0.0
 30
0.0
 40
0.3
100
AcDbArc
 50
25.67928861945685
 51
154.3207113805431
  0
LINE
  5
32
330
2E
100
AcDbEntity
  8
ASHADE
  6
Continuous
 62
     7
100
AcDbLine
 10
-0.21
 20
0.2142428528562855
 30
0.0
 11
-0.21
 21
0.5
 31
0.0
  0
LINE
  5
33
330
2E
100
AcDbEntity
  8
ASHADE
  6
Continuous
 62
     7
100
AcDbLine
 10
-0.11
 20
0.2791057147390572
 30
0.0
 11
-0.11
 21
0.5
 31
0.0
  0
LINE
  5
34
330
2E
100
AcDbEntity
  8
ASHADE
  6
Continuous
 62
     7
100
AcDbLine
 10
0.21
 20
0.2142428528562855
 30
0.0
 11
0.21
 21
0.5
 31
0.0
  0
ATTDEF
  5
35
330
2E
100
AcDbEntity
  8
ASHADE
  6
Continuous
 62
     7
100
AcDbText
 10
0.0
 20
0.25
 30
0.0
 40
0.01
  1

100
AcDbAttributeDefinition
280
     0
  3
Look-at Y
  2
LAY
 70
     1
280
     0
  0
ATTDEF
  5
36
330
2E
100
AcDbEntity
  8
ASHADE
  6
Continuous
 62
     7
100
AcDbText
 10
0.0
 20
0.22
 30
0.0
 40
0.01
  1
1
100
AcDbAttributeDefinition
280
     0
  3
Light Intensity
  2
INTENSITY
 70
     1
280
     0
  0
ATTDEF
  5
37
330
2E
100
AcDbEntity
  8
ASHADE
  6
Continuous
 62
     7
100
AcDbText
 10
0.0
 20
0.16
 30
0.0
 40
0.01
  1
-1
100
AcDbAttributeDefinition
280
     0
  3
*not used*
  2
BEAMD
 70
     1
280
     0
  0
ATTDEF
  5
38
330
2E
100
AcDbEntity
  8
ASHADE
  6
Continuous
 62
     7
100
AcDbText
 10
0.0
 20
0.175
 30
0.0
 40
0.01
  1
-1
100
AcDbAttributeDefinition
280
     0
  3
*not used*
  2
CONED
 70
     1
280
     0
  0
ATTDEF
  5
39
330
2E
100
AcDbEntity
  8
ASHADE
  6
Continuous
 62
     7
100
AcDbText
 10
0.0
 20
0.19
 30
0.0
 40
0.01
  1
0
100
AcDbAttributeDefinition
280
     0
  3
Depth Map Size
  2
CONEA
 70
     1
280
     0
  0
ATTDEF
  5
3A
330
2E
100
AcDbEntity
  8
ASHADE
  6
Continuous
 62
     7
100
AcDbText
 10
0.0
 20
0.2050000000000001
 30
0.0
 40
0.01
  1
1,1,1
100
AcDbAttributeDefinition
280
     0
  3
Light Color (RGB)
  2
COLOR
 70
     1
280
     0
  0
ATTDEF
  5
3B
330
2E
100
AcDbEntity
  8
ASHADE
  6
Continuous
 62
     7
100
AcDbText
 10
0.0
 20
0.235
 30
0.0
 40
0.01
  1

100
AcDbAttributeDefinition
280
     0
  3
Look-at Z
  2
LAZ
 70
     1
280
     0
  0
LINE
  5
3C
330
2E
100
AcDbEntity
  8
ASHADE
  6
Continuous
 62
     7
100
AcDbLine
 10
0.0
 20
0.3
 30
0.0
 11
0.0
 21
0.5
 31
0.0
  0
LINE
  5
3D
330
2E
100
AcDbEntity
  8
ASHADE
  6
Continuous
 62
     7
100
AcDbLine
 10
0.11
 20
0.2791057147390572
 30
0.0
 11
0.11
 21
0.5
 31
0.0
  0
ATTDEF
  5
3E
330
2E
100
AcDbEntity
  8
ASHADE
  6
Continuous
 62
     7
100
AcDbText
 10
0.0
 20
0.265
 30
0.0
 40
0.01
  1

100
AcDbAttributeDefinition
280
     0
  3
Look-at X
  2
LAX
 70
     1
280
     0
  0
ATTDEF
  5
3F
330
2E
100
AcDbEntity
  8
ASHADE
  6
Continuous
 62
     7
100
AcDbText
 10
0.0
 20
0.28
 30
0.0
 40
0.01
  1

100
AcDbAttributeDefinition
280
     0
  3

  2
GNAME
 70
     1
280
     0
  0
ENDBLK
  5
41
330
2E
100
AcDbEntity
  8
0
100
AcDbBlockEnd
  0
BLOCK
  5
5D
330
42
100
AcDbEntity
  8
0
100
AcDbBlockBegin
  2
overhead
 70
     2
 10
0.0
 20
0.0
 30
0.0
  3
overhead
  1

  0
ATTDEF
  5
43
330
42
100
AcDbEntity
  8
ASHADE
  6
Continuous
 62
     1
100
AcDbText
 10
0.0
 20
-0.1
 30
0.0
 40
0.2
  1

  7
ASHADE
 72
     1
 11
0.0
 21
-0.1
 31
0.0
100
AcDbAttributeDefinition
280
     0
  3
Light Name
  2
SNAME
 70
     0
280
     0
  0
ARC
  5
44
330
42
100
AcDbEntity
  8
ASHADE
  6
Continuous
 62
     7
100
AcDbCircle
 10
0.0
 20
0.0
 30
0.0
 40
0.3
100
AcDbArc
 50
205.6792886194569
 51
334.3207113805431
  0
LINE
  5
45
330
42
100
AcDbEntity
  8
ASHADE
  6
Continuous
 62
     7
100
AcDbLine
 10
-0.2041413561583015
 20
-0.2198324514393848
 30
0.0
 11
-0.2721884748777353
 21
-0.2931099352525131
 31
0.0
  0
LINE
  5
46
330
42
100
AcDbEntity
  8
ASHADE
  6
Continuous
 62
     7
100
AcDbLine
 10
-0.1096591641591904
 20
-0.2792398032442862
 30
0.0
 11
-0.1279356915190555
 21
-0.3257797704516673
 31
0.0
  0
LINE
  5
47
330
42
100
AcDbEntity
  8
ASHADE
  6
Continuous
 62
     7
100
AcDbLine
 10
0.0
 20
-0.2999999999999999
 30
0.0
 11
0.0
 21
-0.4
 31
0.0
  0
LINE
  5
48
330
42
100
AcDbEntity
  8
ASHADE
  6
Continuous
 62
     7
100
AcDbLine
 10
0.1096591641591904
 20
-0.2792398032442862
 30
0.0
 11
0.1279356915190555
 21
-0.3257797704516673
 31
0.0
  0
LINE
  5
49
330
42
100
AcDbEntity
  8
ASHADE
  6
Continuous
 62
     7
100
AcDbLine
 10
0.2041413561583015
 20
-0.2198324514393848
 30
0.0
 11
0.2721884748777353
 21
-0.2931099352525131
 31
0.0
  0
ARC
  5
4A
330
42
100
AcDbEntity
  8
ASHADE
  6
Continuous
 62
     7
100
AcDbCircle
 10
0.0
 20
0.0
 30
0.0
 40
0.3
100
AcDbArc
 50
25.67928861945685
 51
154.3207113805431
  0
LINE
  5
4B
330
42
100
AcDbEntity
  8
ASHADE
  6
Continuous
 62
     7
100
AcDbLine
 10
-0.2703701166919155
 20
0.13
 30
0.0
 11
-0.3154318028072347
 21
0.1516666666666666
 31
0.0
  0
LINE
  5
4C
330
42
100
AcDbEntity
  8
ASHADE
  6
Continuous
 62
     7
100
AcDbLine
 10
-0.2703701166919155
 20
-0.13
 30
0.0
 11
-0.3154318028072347
 21
-0.1516666666666666
 31
0.0
  0
LINE
  5
4D
330
42
100
AcDbEntity
  8
ASHADE
  6
Continuous
 62
     7
100
AcDbLine
 10
-0.2041413561583015
 20
0.2198324514393849
 30
0.0
 11
-0.2721884748777353
 21
0.2931099352525131
 31
0.0
  0
LINE
  5
4E
330
42
100
AcDbEntity
  8
ASHADE
  6
Continuous
 62
     7
100
AcDbLine
 10
-0.1096591641591904
 20
0.2792398032442862
 30
0.0
 11
-0.1279356915190555
 21
0.3257797704516674
 31
0.0
  0
LINE
  5
4F
330
42
100
AcDbEntity
  8
ASHADE
  6
Continuous
 62
     7
100
AcDbLine
 10
0.2703701166919155
 20
-0.13
 30
0.0
 11
0.3154318028072347
 21
-0.1516666666666666
 31
0.0
  0
LINE
  5
50
330
42
100
AcDbEntity
  8
ASHADE
  6
Continuous
 62
     7
100
AcDbLine
 10
0.2703701166919155
 20
0.13
 30
0.0
 11
0.3154318028072347
 21
0.1516666666666666
 31
0.0
  0
LINE
  5
51
330
42
100
AcDbEntity
  8
ASHADE
  6
Continuous
 62
     7
100
AcDbLine
 10
0.0
 20
0.3
 30
0.0
 11
0.0
 21
0.4
 31
0.0
  0
ATTDEF
  5
52
330
42
100
AcDbEntity
  8
ASHADE
  6
Continuous
 62
     7
100
AcDbText
 10
0.0
 20
0.22
 30
0.0
 40
0.01
  1
1
100
AcDbAttributeDefinition
280
     0
  3
Light Intensity
  2
INTENSITY
 70
     1
280
     0
  0
ATTDEF
  5
53
330
42
100
AcDbEntity
  8
ASHADE
  6
Continuous
 62
     7
100
AcDbText
 10
0.0
 20
0.16
 30
0.0
 40
0.01
  1
-1
100
AcDbAttributeDefinition
280
     0
  3
*not used*
  2
BEAMD
 70
     1
280
     0
  0
ATTDEF
  5
54
330
42
100
AcDbEntity
  8
ASHADE
  6
Continuous
 62
     7
100
AcDbText
 10
0.0
 20
0.175
 30
0.0
 40
0.01
  1
-1
100
AcDbAttributeDefinition
280
     0
  3
*not used*
  2
CONED
 70
     1
280
     0
  0
ATTDEF
  5
55
330
42
100
AcDbEntity
  8
ASHADE
  6
Continuous
 62
     7
100
AcDbText
 10
0.0
 20
0.19
 30
0.0
 40
0.01
  1
0
100
AcDbAttributeDefinition
280
     0
  3
Depth Map Size
  2
CONEA
 70
     1
280
     0
  0
ATTDEF
  5
56
330
42
100
AcDbEntity
  8
ASHADE
  6
Continuous
 62
     7
100
AcDbText
 10
0.0
 20
0.2050000000000001
 30
0.0
 40
0.01
  1
1,1,1
100
AcDbAttributeDefinition
280
     0
  3
Light Color (RGB)
  2
COLOR
 70
     1
280
     0
  0
ATTDEF
  5
57
330
42
100
AcDbEntity
  8
ASHADE
  6
Continuous
 62
     7
100
AcDbText
 10
0.0
 20
0.235
 30
0.0
 40
0.01
  1

100
AcDbAttributeDefinition
280
     0
  3
Look-at Z
  2
LAZ
 70
     1
280
     0
  0
ATTDEF
  5
58
330
42
100
AcDbEntity
  8
ASHADE
  6
Continuous
 62
     7
100
AcDbText
 10
0.0
 20
0.25
 30
0.0
 40
0.01
  1

100
AcDbAttributeDefinition
280
     0
  3
Look-at Y
  2
LAY
 70
     1
280
     0
  0
ATTDEF
  5
59
330
42
100
AcDbEntity
  8
ASHADE
  6
Continuous
 62
     7
100
AcDbText
 10
0.0
 20
0.265
 30
0.0
 40
0.01
  1

100
AcDbAttributeDefinition
280
     0
  3
Look-at X
  2
LAX
 70
     1
280
     0
  0
ATTDEF
  5
5A
330
42
100
AcDbEntity
  8
ASHADE
  6
Continuous
 62
     7
100
AcDbText
 10
0.0
 20
0.28
 30
0.0
 40
0.01
  1

100
AcDbAttributeDefinition
280
     0
  3

  2
GNAME
 70
     1
280
     0
  0
LINE
  5
5B
330
42
100
AcDbEntity
  8
ASHADE
  6
Continuous
 62
     7
100
AcDbLine
 10
0.1096591641591904
 20
0.2792398032442862
 30
0.0
 11
0.1279356915190555
 21
0.3257797704516674
 31
0.0
  0
LINE
  5
5C
330
42
100
AcDbEntity
  8
ASHADE
  6
Continuous
 62
     7
100
AcDbLine
 10
0.2041413561583015
 20
0.2198324514393849
 30
0.0
 11
0.2721884748777353
 21
0.2931099352525131
 31
0.0
  0
ENDBLK
  5
5E
330
42
100
AcDbEntity
  8
0
100
AcDbBlockEnd
  0
BLOCK
  5
85
330
5F
100
AcDbEntity
  8
0
100
AcDbBlockBegin
  2
sh_spot
 70
     2
 10
0.0
 20
0.0
 30
0.0
  3
sh_spot
  1

  0
LINE
  5
60
330
5F
100
AcDbEntity
  8
ASHADE
  6
Continuous
 62
     7
100
AcDbLine
 10
0.25
 20
0.26
 30
0.0
 11
-0.25
 21
0.26
 31
0.0
  0
LINE
  5
61
330
5F
100
AcDbEntity
  8
ASHADE
  6
Continuous
 62
     7
100
AcDbLine
 10
-0.25
 20
-0.3399999999999999
 30
0.0
 11
0.25
 21
-0.3399999999999999
 31
0.0
  0
ATTDEF
  5
62
330
5F
100
AcDbEntity
  8
ASHADE
  6
Continuous
 62
     1
100
AcDbText
 10
0.0
 20
-0.1
 30
0.0
 40
0.2
  1

  7
ASHADE
 72
     1
 11
0.0
 21
-0.1
 31
0.0
100
AcDbAttributeDefinition
280
     0
  3
Light Name
  2
SNAME
 70
     0
280
     0
  0
LINE
  5
63
330
5F
100
AcDbEntity
  8
ASHADE
  6
Continuous
 62
     7
100
AcDbLine
 10
-0.25
 20
-0.13
 30
0.0
 11
-0.25
 21
-0.3399999999999999
 31
0.0
  0
LINE
  5
64
330
5F
100
AcDbEntity
  8
ASHADE
  6
Continuous
 62
     7
100
AcDbLine
 10
-0.25
 20
-0.18
 30
0.0
 11
-0.29
 21
-0.18
 31
0.0
  0
LINE
  5
65
330
5F
100
AcDbEntity
  8
ASHADE
  6
Continuous
 62
     7
100
AcDbLine
 10
-0.29
 20
-0.22
 30
0.0
 11
-0.25
 21
-0.22
 31
0.0
  0
LINE
  5
66
330
5F
100
AcDbEntity
  8
ASHADE
  6
Continuous
 62
     7
100
AcDbLine
 10
-0.29
 20
-0.18
 30
0.0
 11
-0.29
 21
-0.22
 31
0.0
  0
LINE
  5
67
330
5F
100
AcDbEntity
  8
ASHADE
  6
Continuous
 62
     7
100
AcDbLine
 10
-0.1045454545454545
 20
0.26
 30
0.0
 11
-0.15
 21
0.46
 31
0.0
  0
LINE
  5
68
330
5F
100
AcDbEntity
  8
ASHADE
  6
Continuous
 62
     7
100
AcDbLine
 10
-0.21
 20
0.26
 30
0.0
 11
-0.301304347826087
 21
0.46
 31
0.0
  0
LINE
  5
69
330
5F
100
AcDbEntity
  8
ASHADE
  6
Continuous
 62
     7
100
AcDbLine
 10
-0.25
 20
0.26
 30
0.0
 11
-0.25
 21
0.13
 31
0.0
  0
LINE
  5
6A
330
5F
100
AcDbEntity
  8
ASHADE
  6
Continuous
 62
     7
100
AcDbLine
 10
-0.25
 20
0.22
 30
0.0
 11
-0.29
 21
0.22
 31
0.0
  0
LINE
  5
6B
330
5F
100
AcDbEntity
  8
ASHADE
  6
Continuous
 62
     7
100
AcDbLine
 10
-0.29
 20
0.1799999999999999
 30
0.0
 11
-0.25
 21
0.1799999999999999
 31
0.0
  0
LINE
  5
6C
330
5F
100
AcDbEntity
  8
ASHADE
  6
Continuous
 62
     7
100
AcDbLine
 10
-0.29
 20
0.22
 30
0.0
 11
-0.29
 21
0.1799999999999999
 31
0.0
  0
ATTDEF
  5
6D
330
5F
100
AcDbEntity
  8
ASHADE
  6
Continuous
 62
     7
100
AcDbText
 10
0.0
 20
-0.24
 30
0.0
 40
0.01
  1
0
100
AcDbAttributeDefinition
280
     0
  3
Depth Map Size
  2
ZSIZE
 70
     1
280
     0
  0
ATTDEF
  5
6E
330
5F
100
AcDbEntity
  8
ASHADE
  6
Continuous
 62
     7
100
AcDbText
 10
0.0
 20
-0.3300000000000001
 30
0.0
 40
0.01
  1
0,0,0
100
AcDbAttributeDefinition
280
     0
  3
Look-from XYZ
  2
LFXYZ
 70
     1
280
     0
  0
ATTDEF
  5
6F
330
5F
100
AcDbEntity
  8
ASHADE
  6
Continuous
 62
     7
100
AcDbText
 10
0.0
 20
-0.315
 30
0.0
 40
0.01
  1
0.0
100
AcDbAttributeDefinition
280
     0
  3
Beam Distribution
  2
BEAMDI
 70
     1
280
     0
  0
ATTDEF
  5
70
330
5F
100
AcDbEntity
  8
ASHADE
  6
Continuous
 62
     7
100
AcDbText
 10
0.0
 20
-0.3
 30
0.0
 40
0.01
  1
0.0
100
AcDbAttributeDefinition
280
     0
  3
Cone Delta
  2
CONEDE
 70
     1
280
     0
  0
ATTDEF
  5
71
330
5F
100
AcDbEntity
  8
ASHADE
  6
Continuous
 62
     7
100
AcDbText
 10
0.0
 20
-0.2850000000000001
 30
0.0
 40
0.01
  1
10.0
100
AcDbAttributeDefinition
280
     0
  3
Cone Angle
  2
CONEAN
 70
     1
280
     0
  0
ATTDEF
  5
72
330
5F
100
AcDbEntity
  8
ASHADE
  6
Continuous
 62
     7
100
AcDbText
 10
0.0
 20
-0.27
 30
0.0
 40
0.01
  1
-1
100
AcDbAttributeDefinition
280
     0
  3
*not used*
  2
BIASMAX
 70
     1
280
     0
  0
ATTDEF
  5
73
330
5F
100
AcDbEntity
  8
ASHADE
  6
Continuous
 62
     7
100
AcDbText
 10
0.0
 20
-0.255
 30
0.0
 40
0.01
  1
-1
100
AcDbAttributeDefinition
280
     0
  3
*not used*
  2
BIASMIN
 70
     1
280
     0
  0
ATTDEF
  5
74
330
5F
100
AcDbEntity
  8
ASHADE
  6
Continuous
 62
     7
100
AcDbText
 10
0.0
 20
-0.225
 30
0.0
 40
0.01
  1
1,1,1
100
AcDbAttributeDefinition
280
     0
  3
Light Color (RGB)
  2
COLOR
 70
     1
280
     0
  0
ATTDEF
  5
75
330
5F
100
AcDbEntity
  8
ASHADE
  6
Continuous
 62
     7
100
AcDbText
 10
0.0
 20
-0.21
 30
0.0
 40
0.01
  1
1
100
AcDbAttributeDefinition
280
     0
  3
Light Intensity
  2
INTENSITY
 70
     1
280
     0
  0
ATTDEF
  5
76
330
5F
100
AcDbEntity
  8
ASHADE
  6
Continuous
 62
     7
100
AcDbText
 10
0.0
 20
-0.15
 30
0.0
 40
0.01
  1

100
AcDbAttributeDefinition
280
     0
  3

  2
GNAME
 70
     1
280
     0
  0
ATTDEF
  5
77
330
5F
100
AcDbEntity
  8
ASHADE
  6
Continuous
 62
     7
100
AcDbText
 10
0.0
 20
-0.195
 30
0.0
 40
0.01
  1

100
AcDbAttributeDefinition
280
     0
  3
Look-at Z
  2
LAZ
 70
     1
280
     0
  0
ATTDEF
  5
78
330
5F
100
AcDbEntity
  8
ASHADE
  6
Continuous
 62
     7
100
AcDbText
 10
0.0
 20
-0.18
 30
0.0
 40
0.01
  1

100
AcDbAttributeDefinition
280
     0
  3
Look-at Y
  2
LAY
 70
     1
280
     0
  0
ATTDEF
  5
79
330
5F
100
AcDbEntity
  8
ASHADE
  6
Continuous
 62
     7
100
AcDbText
 10
0.0
 20
-0.165
 30
0.0
 40
0.01
  1

100
AcDbAttributeDefinition
280
     0
  3
Look-at X
  2
LAX
 70
     1
280
     0
  0
LINE
  5
7A
330
5F
100
AcDbEntity
  8
ASHADE
  6
Continuous
 62
     7
100
AcDbLine
 10
0.25
 20
-0.3399999999999999
 30
0.0
 11
0.25
 21
-0.13
 31
0.0
  0
LINE
  5
7B
330
5F
100
AcDbEntity
  8
ASHADE
  6
Continuous
 62
     7
100
AcDbLine
 10
0.25
 20
-0.18
 30
0.0
 11
0.29
 21
-0.18
 31
0.0
  0
LINE
  5
7C
330
5F
100
AcDbEntity
  8
ASHADE
  6
Continuous
 62
     7
100
AcDbLine
 10
0.29
 20
-0.22
 30
0.0
 11
0.25
 21
-0.22
 31
0.0
  0
LINE
  5
7D
330
5F
100
AcDbEntity
  8
ASHADE
  6
Continuous
 62
     7
100
AcDbLine
 10
0.29
 20
-0.18
 30
0.0
 11
0.29
 21
-0.22
 31
0.0
  0
LINE
  5
7E
330
5F
100
AcDbEntity
  8
ASHADE
  6
Continuous
 62
     7
100
AcDbLine
 10
0.21
 20
0.26
 30
0.0
 11
0.301304347826087
 21
0.46
 31
0.0
  0
LINE
  5
7F
330
5F
100
AcDbEntity
  8
ASHADE
  6
Continuous
 62
     7
100
AcDbLine
 10
0.1045454545454545
 20
0.26
 30
0.0
 11
0.15
 21
0.46
 31
0.0
  0
LINE
  5
80
330
5F
100
AcDbEntity
  8
ASHADE
  6
Continuous
 62
     7
100
AcDbLine
 10
0.0
 20
0.26
 30
0.0
 11
0.0
 21
0.46
 31
0.0
  0
LINE
  5
81
330
5F
100
AcDbEntity
  8
ASHADE
  6
Continuous
 62
     7
100
AcDbLine
 10
0.25
 20
0.13
 30
0.0
 11
0.25
 21
0.26
 31
0.0
  0
LINE
  5
82
330
5F
100
AcDbEntity
  8
ASHADE
  6
Continuous
 62
     7
100
AcDbLine
 10
0.25
 20
0.22
 30
0.0
 11
0.29
 21
0.22
 31
0.0
  0
LINE
  5
83
330
5F
100
AcDbEntity
  8
ASHADE
  6
Continuous
 62
     7
100
AcDbLine
 10
0.29
 20
0.1799999999999999
 30
0.0
 11
0.25
 21
0.1799999999999999
 31
0.0
  0
LINE
  5
84
330
5F
100
AcDbEntity
  8
ASHADE
  6
Continuous
 62
     7
100
AcDbLine
 10
0.29
 20
0.22
 30
0.0
 11
0.29
 21
0.1799999999999999
 31
0.0
  0
ENDBLK
  5
86
330
5F
100
AcDbEntity
  8
0
100
AcDbBlockEnd
  0
BLOCK
  5
92
330
91
100
AcDbEntity
  8
ASHADE
100
AcDbBlockBegin
  2
AVE_RENDER
 70
     0
 10
0.0
 20
0.0
 30
0.0
  3
AVE_RENDER
  1
AVE_RENDER
  0
ENDBLK
  5
93
330
91
100
AcDbEntity
  8
0
100
AcDbBlockEnd
  0
BLOCK
  5
A0
330
9F
100
AcDbEntity
  8
ASHADE
100
AcDbBlockBegin
  2
AVE_GLOBAL
 70
     0
 10
0.0
 20
0.0
 30
0.0
  3
AVE_GLOBAL
  1
AVE_GLOBAL
  0
ENDBLK
  5
A1
330
9F
100
AcDbEntity
  8
0
100
AcDbBlockEnd
  0
ENDSEC
  0
SECTION
  2
ENTITIES
  0
INSERT
  5
94
330
1F
100
AcDbEntity
  8
ASHADE
 62
     1
100
AcDbBlockReference
  2
AVE_RENDER
 10
0.0
 20
0.0
 30
0.0
1001
AVE_RENDER
1002
{
1070
     7
1000
Pref
1070
    30
1070
    20
1070
     1
1070
     0
1000

1070
    10
1070
     1
1070
    10
1040
1.0
1070
     1
1040
0.3
1040
0.7
1040
0.0
1040
10.0
1010
-1.0
1020
-1.0
1030
-1.0
1040
0.3
1070
    49
1070
     0
1070
     0
1010
1.0
1020
1.0
1030
1.0
1040
45.0
1070
     1
1070
     0
1000
WCS
1040
0.0
1070
     0
1040
10.0
1002
}
  0
INSERT
  5
95
330
1F
100
AcDbEntity
  8
ASHADE
 62
     3
100
AcDbBlockReference
  2
AVE_RENDER
 10
0.0
 20
0.0
 30
0.0
1001
AVE_RENDER
1002
{
1070
     0
1000
Full Opt
1070
     0
1070
     1
1070
     1
1070
     1
1070
     0
1070
     0
1070
     0
1070
     1
1070
     1
1040
0.0001
1040
0.0001
1002
}
  0
INSERT
  5
96
330
1F
100
AcDbEntity
  8
ASHADE
 62
     4
100
AcDbBlockReference
  2
AVE_RENDER
 10
0.0
 20
0.0
 30
0.0
1001
AVE_RENDER
1002
{
1070
     0
1000
Quick Opt
1070
     0
1070
     1
1070
     1
1070
     1
1070
     0
1070
     0
1070
     1
1002
}
  0
INSERT
  5
97
330
1F
100
AcDbEntity
  8
ASHADE
 62
     5
100
AcDbBlockReference
  2
AVE_RENDER
 10
0.0
 20
0.0
 30
0.0
1001
AVE_RENDER
1002
{
1070
     1
1000
Scanl Opt
1070
     2
1070
     0
1070
     2
1040
2.0
1040
4.0
1070
     0
1070
     1
1070
     0
1040
0.03
1002
}
  0
INSERT
  5
98
330
1F
100
AcDbEntity
  8
ASHADE
 62
     6
100
AcDbBlockReference
  2
AVE_RENDER
 10
0.0
 20
0.0
 30
0.0
1001
AVE_RENDER
1002
{
1070
     2
1000
Raytr Opt
1070
     2
1070
     0
1070
     2
1040
2.0
1040
4.0
1070
     0
1070
     1
1070
     1
1040
0.03
1070
     3
1040
0.03
1002
}
  0
INSERT
  5
99
330
1F
100
AcDbEntity
  8
ASHADE
 62
     7
100
AcDbBlockReference
  2
AVE_RENDER
 10
0.0
 20
0.0
 30
0.0
1001
AVE_RENDER
1002
{
1070
     0
1000
RFile Opt
1070
     1
1070
   640
1070
   480
1070
 10000
1070
     1
1070
     8
1070
     8
1070
     0
1070
     0
1070
     0
1070
     0
1070
     0
1070
     0
1070
     0
1002
}
  0
INSERT
  5
9A
330
1F
100
AcDbEntity
  8
ASHADE
 62
     8
100
AcDbBlockReference
  2
AVE_RENDER
 10
0.0
 20
0.0
 30
0.0
1001
AVE_RENDER
1002
{
1070
     0
1000
Fog Opt
1070
     0
1070
     0
1040
0.0
1040
1.0
1040
0.0
1040
1.0
1010
0.5
1020
0.5
1030
0.5
1002
}
  0
INSERT
  5
9B
330
1F
100
AcDbEntity
  8
ASHADE
 62
     9
100
AcDbBlockReference
  2
AVE_RENDER
 10
0.0
 20
0.0
 30
0.0
1001
AVE_RENDER
1002
{
1070
     0
1000
BG Opt
1070
     0
1070
     1
1010
0.0
1020
0.0
1030
0.0
1010
1.0
1020
0.0
1030
0.0
1010
0.0
1020
1.0
1030
0.0
1010
0.0
1020
0.0
1030
1.0
1040
0.5
1040
0.33
1040
0.0
1000

1070
     1
1000

1070
     1
1070
     1
1040
1.0
1040
1.0
1040
0.0
1040
0.0
1070
     0
1002
}
  0
INSERT
  5
A2
330
1F
100
AcDbEntity
  8
ASHADE
 62
     1
100
AcDbBlockReference
  2
AVE_GLOBAL
 10
0.0
 20
0.0
 30
0.0
1001
AVE_MATERIAL
1002
{
1000
*GLOBAL*
1000
2
1000
Global finish.
1002
{
1002
}
1002
{
1070
    63
1002
{
1002
{
1010
-1.0
1020
-1.0
1030
-1.0
1002
}
1040
0.1000000014901161
1000

1040
0.0
1002
{
1002
}
1040
0.0
1002
{
1002
}
1040
0.0
1002
}
1002
{
1002
{
1010
-1.0
1020
-1.0
1030
-1.0
1002
}
1040
0.6999999880790711
1000

1040
0.0
1002
{
1002
}
1040
0.0
1002
{
1002
}
1040
0.0
1002
}
1002
{
1002
{
1010
-1.0
1020
-1.0
1030
-1.0
1002
}
1040
0.2000000029802322
1000

1040
0.0
1002
{
1002
}
1040
0.0
1002
{
1002
}
1040
0.0
1002
}
1002
{
1070
     0
1002
{
1070
     1
1002
{
1040
1.0
1040
1.0
1000

1040
0.0
1002
{
1002
}
1040
0.0
1002
{
1002
}
1040
0.0
1002
}
1002
}
1040
1.0
1040
0.0
1040
0.0
1002
}
1002
{
1040
1.0
1040
1.0
1000

1040
0.0
1002
{
1002
}
1040
0.0
1002
{
1002
}
1040
0.0
1002
}
1002
{
1040
0.5
1040
1.0
1000

1040
0.0
1002
{
1002
}
1040
0.0
1002
{
1002
}
1040
0.0
1002
}
1002
{
1070
     0
1040
0.0
1002
{
1002
}
1040
1.0
1002
{
1002
}
1040
0.0
1002
}
1002
{
1040
0.0
1002
{
1002
{
1010
0.0
1020
0.0
1030
0.0
1002
}
1040
1.0
1000

1040
0.0
1002
{
1002
}
1040
0.0
1002
{
1002
}
1040
0.0
1002
}
1002
}
1002
{
1002
{
1070
     1
1002
{
1040
0.0
1040
1.0
1000

1040
0.0
1002
{
1002
}
1040
0.0
1002
{
1002
}
1040
0.0
1002
}
1002
}
1040
0.0
1002
{
1002
}
1010
1.0
1020
0.0
1030
0.0
1010
0.0
1020
1.0
1030
0.0
1010
0.0
1020
0.0
1030
1.0
1070
     0
1002
}
1002
{
1002
{
1040
1.0
1040
1.0
1002
{
1070
     1
1002
{
1040
1.0
1040
1.0
1000

1040
0.0
1002
{
1002
}
1040
0.0
1002
{
1002
}
1040
0.0
1002
}
1002
}
1002
}
1070
     0
1040
0.0
1002
{
1002
}
1002
}
1002
{
1002
}
1002
}
1002
{
1071
        3
1070
     3
1070
     0
1002
{
1070
     2
1070
     0
1070
     0
1040
0.0
1002
}
1070
     0
1070
     2
1002
{
1002
}
1002
}
1002
{
1040
8030.0
1040
190.3000030517578
1040
0.3050000071525574
1040
228.0
1040
545.0
1040
14.0
1040
17.39999961853027
1040
0.4560000002384186
1002
}
1002
}
  0
MESH
  5
F9
330
1F
100
AcDbEntity
  8
OracDecor_panel_moldings
 62
   136
420
   427889
160
             29816
310
787400003C0300000C00000013000000020000003C00000006000000020000000000000000408FC0000000C0070018C000000000F23559400000000000408FC0000000000000FFBE00000060004059400C000000130000000A0000003C00000006000000020000000000000000408FC0000000C0070018C000000000F23559
310
40000000E0FF3F8F40000000C0070018C000000000F23559400C00000013000000120000003C0000000600000002000000000000E0FF3F8F40000000C0070018C000000000F2355940000000E0FF3F8F4000000000000000BF00000040004059400C000000130000001A0000003C0000000600000002000000000000000040
310
8FC0000000000000FFBE0000006000405940000000E0FF3F8F4000000000000000BF00000040004059400C00000013000000220000003C00000006000000020000000000000000408FC0000000C0070018C000000000F23559400000000000408FC000000040A31E19C0000000206EE658400C000000130000002A0000003C
310
0000000600000002000000000000E0FF3F8F4000000060A31E19C0000000206EE658400000000000408FC000000040A31E19C0000000206EE658400C00000013000000320000003C0000000600000002000000000000E0FF3F8F40000000C0070018C000000000F2355940000000E0FF3F8F4000000060A31E19C000000020
310
6EE658400C000000130000003A0000003C00000006000000020000000000000000408FC000000040AB471AC0000000807EB558400000000000408FC000000080DAF01BC000000060438558400C00000013000000420000003C0000000600000002000000000000E0FF3F8F40000000A0DAF01BC00000006043855840000000
310
0000408FC000000080DAF01BC000000060438558400C000000130000004A0000003C0000000600000002000000000000E0FF3F8F40000000A0DAF01BC00000006043855840000000E0FF3F8F4000000060AB471AC0000000807EB558400C00000013000000520000003C00000006000000020000000000000000408FC00000
310
0040AB471AC0000000807EB55840000000E0FF3F8F4000000060AB471AC0000000807EB558400C000000130000005A0000003C00000006000000020000000000000000408FC0000000E00AE81DC0000000206D5B58400000000000408FC000000080912B20C0000000607F3458400C00000013000000620000003C00000006
310
00000002000000000000E0FF3F8F4000000080912B20C0000000607F3458400000000000408FC000000080912B20C0000000607F3458400C000000130000006A0000003C0000000600000002000000000000E0FF3F8F4000000080912B20C0000000607F345840000000E0FF3F8F40000000000BE81DC0000000206D5B5840
310
0C00000013000000720000003C00000006000000020000000000000000408FC0000000E00AE81DC0000000206D5B5840000000E0FF3F8F40000000000BE81DC0000000206D5B58400C000000130000007A0000003C00000006000000020000000000000000408FC0000000E05C7A21C000000080101558400000000000408F
310
C0000000C049FC22C00000004082FA57400C00000013000000820000003C0000000600000002000000000000E0FF3F8F40000000C049FC22C00000004082FA57400000000000408FC0000000C049FC22C00000004082FA57400C000000130000008A0000003C0000000600000002000000000000E0FF3F8F40000000C049FC
310
22C00000004082FA5740000000E0FF3F8F40000000E05C7A21C000000080101558400C00000013000000920000003C00000006000000020000000000000000408FC0000000E05C7A21C00000008010155840000000E0FF3F8F40000000E05C7A21C000000080101558400C000000130000009A0000003C0000000600000002
310
0000000000000000408FC0000000E0030027C0000000C014D657400000000000408FC000000000D68324C0000000A0F6E757400C00000013000000A20000003C00000006000000020000000000000000408FC0000000E0030027C0000000C014D65740000000E0FF3F8F4000000000040027C0000000C014D657400C000000
310
13000000AA0000003C0000000600000002000000000000E0FF3F8F4000000000040027C0000000C014D65740000000E0FF3F8F4000000000D68324C0000000A0F6E757400C00000013000000B20000003C00000006000000020000000000000000408FC000000000D68324C0000000A0F6E75740000000E0FF3F8F40000000
310
00D68324C0000000A0F6E757400C00000013000000BA0000003C00000006000000020000000000000000408FC0000000E0030027C0000000C0143657400000000000408FC0000000E0030027C0000000C014D657400C00000013000000C20000003C00000006000000020000000000000000408FC0000000E0030027C00000
310
00C014365740000000E0FF3F8F4000000000040027C0000000C0143657400C00000013000000CA0000003C0000000600000002000000000000E0FF3F8F4000000000040027C0000000C014365740000000E0FF3F8F4000000000040027C0000000C014D657400C00000013000000D20000003C000000060000000200000000
310
00000000408FC0000000E0030027C0000000C0143657400000000000408FC0000000E0CF622BC000000080630C57400C00000013000000DA0000003C0000000600000002000000000000E0FF3F8F40000000E0CF622BC000000080630C57400000000000408FC0000000E0CF622BC000000080630C57400C00000013000000
310
E20000003C0000000600000002000000000000E0FF3F8F40000000E0CF622BC000000080630C5740000000E0FF3F8F4000000000040027C0000000C0143657400C00000013000000EA0000003C00000006000000020000000000000000408FC00000006097362EC000000080B3E356400000000000408FC0000000809A6230
310
C000000080CCB056400C00000013000000F20000003C0000000600000002000000000000E0FF3F8F40000000809A6230C000000080CCB056400000000000408FC0000000809A6230C000000080CCB056400C00000013000000FA0000003C0000000600000002000000000000E0FF3F8F40000000809A6230C000000080CCB0
310
5640000000E0FF3F8F400000006097362EC000000080B3E356400C00000013000000020100003C00000006000000020000000000000000408FC00000006097362EC000000080B3E35640000000E0FF3F8F400000006097362EC000000080B3E356400C000000130000000A0100003C00000006000000020000000000000000
310
408FC0000000808B9431C000000080A07156400000000000408FC000000040569A32C000000080E32A56400C00000013000000120100003C0000000600000002000000000000E0FF3F8F4000000040569A32C000000080E32A56400000000000408FC000000040569A32C000000080E32A56400C000000130000001A010000
310
3C0000000600000002000000000000E0FF3F8F4000000040569A32C000000080E32A5640000000E0FF3F8F40000000808B9431C000000080A07156400C00000013000000220100003C00000006000000020000000000000000408FC0000000808B9431C000000080A0715640000000E0FF3F8F40000000808B9431C0000000
310
80A07156400C000000130000002A0100003C00000006000000020000000000000000408FC0000000A0877E33C0000000A0BBD955400000000000408FC000000060243034C000000000338455400C00000013000000320100003C0000000600000002000000000000E0FF3F8F4000000060243034C000000000338455400000
310
000000408FC000000060243034C000000000338455400C000000130000003A0100003C0000000600000002000000000000E0FF3F8F4000000060243034C00000000033845540000000E0FF3F8F40000000A0877E33C0000000A0BBD955400C00000013000000420100003C00000006000000020000000000000000408FC000
310
0000A0877E33C0000000A0BBD95540000000E0FF3F8F40000000A0877E33C0000000A0BBD955400C000000130000004A0100003C00000006000000020000000000000000408FC00000006053B634C0000000C0D72655400000000000408FC000000000190735C0000000E09BC854400C00000013000000520100003C000000
310
0600000002000000000000E0FF3F8F4000000000190735C0000000E09BC854400000000000408FC000000000190735C0000000E09BC854400C000000130000005A0100003C0000000600000002000000000000E0FF3F8F4000000000190735C0000000E09BC85440000000E0FF3F8F400000006053B634C0000000C0D72655
310
400C00000013000000620100003C00000006000000020000000000000000408FC00000006053B634C0000000C0D7265540000000E0FF3F8F400000006053B634C0000000C0D72655400C000000130000006A0100003C00000006000000020000000000000000408FC0000000C0B52535C000000040B4655440000000000040
310
8FC000000080E20F35C0000000807C0554400C00000013000000720100003C0000000600000002000000000000E0FF3F8F4000000080E20F35C0000000807C0554400000000000408FC000000080E20F35C0000000807C0554400C000000130000007A0100003C0000000600000002000000000000E0FF3F8F4000000080E2
310
0F35C0000000807C055440000000E0FF3F8F40000000C0B52535C000000040B46554400C00000013000000820100003C00000006000000020000000000000000408FC0000000C0B52535C000000040B4655440000000E0FF3F8F40000000C0B52535C000000040B46554400C000000130000008A0100003C00000006000000
310
020000000000000000408FC0000000A0BEC434C0000000A014A453400000000000408FC000000060E14934C000000060BC4853400C00000013000000920100003C0000000600000002000000000000E0FF3F8F4000000080E14934C000000060BC4853400000000000408FC000000060E14934C000000060BC4853400C0000
310
00130000009A0100003C0000000600000002000000000000E0FF3F8F4000000080E14934C000000060BC485340000000E0FF3F8F40000000C0BEC434C0000000A014A453400C00000013000000A20100003C00000006000000020000000000000000408FC0000000A0BEC434C0000000A014A45340000000E0FF3F8F400000
310
00C0BEC434C0000000A014A453400C00000013000000AA0100003C00000006000000020000000000000000408FC0000000C0579A33C000000020C5EF52400000000000408FC00000000034C332C0000000E0CE9F52400C00000013000000B20100003C0000000600000002000000000000E0FF3F8F400000000034C332C000
310
0000E0CE9F52400000000000408FC00000000034C332C0000000E0CE9F52400C00000013000000BA0100003C0000000600000002000000000000E0FF3F8F400000000034C332C0000000E0CE9F5240000000E0FF3F8F40000000C0579A33C000000020C5EF52400C00000013000000C20100003C0000000600000002000000
310
0000000000408FC0000000C0579A33C000000020C5EF5240000000E0FF3F8F40000000C0579A33C000000020C5EF52400C00000013000000CA0100003C00000006000000020000000000000000408FC0000000E0010030C0000000C014F651400000000000408FC0000000E0C6BB31C0000000209F5552400C000000130000
310
00D20100003C00000006000000020000000000000000408FC0000000E0010030C0000000C014F65140000000E0FF3F8F4000000000020030C0000000C014F651400C00000013000000DA0100003C0000000600000002000000000000E0FF3F8F4000000000020030C0000000C014F65140000000E0FF3F8F4000000000C7BB
310
31C0000000209F5552400C00000013000000E20100003C00000006000000020000000000000000408FC0000000E0C6BB31C0000000209F555240000000E0FF3F8F4000000000C7BB31C0000000209F5552400C00000013000000EA0100003C00000006000000020000000000000000408FC0000000E0010033C0000000C014
310
3651400000000000408FC0000000E0010030C0000000C014F651400C00000013000000F20100003C00000006000000020000000000000000408FC0000000E0010033C0000000C014365140000000E0FF3F8F4000000000020033C0000000C0143651400C00000013000000FA0100003C0000000600000002000000000000E0
310
FF3F8F4000000000020030C0000000C014F65140000000E0FF3F8F4000000000020033C0000000C0143651400C00000013000000020200003C00000006000000020000000000000000408FC0000000E0010033C0000000C0143651400000000000408FC000000020309230C000000000C65850400C000000130000000A0200
310
003C0000000600000002000000000000E0FF3F8F4000000040309230C000000000C65850400000000000408FC000000020309230C000000000C65850400C00000013000000120200003C0000000600000002000000000000E0FF3F8F4000000040309230C000000000C6585040000000E0FF3F8F4000000000020033C00000
310
00C0143651400C000000130000001A0200003C00000006000000020000000000000000408FC0000000202A442EC000000020BC684F400000000000408FC000000040FB152CC0000000A01D264E400C00000013000000220200003C0000000600000002000000000000E0FF3F8F4000000040FB152CC0000000A01D264E4000
310
00000000408FC000000040FB152CC0000000A01D264E400C000000130000002A0200003C0000000600000002000000000000E0FF3F8F4000000040FB152CC0000000A01D264E40000000E0FF3F8F40000000402A442EC000000020BC684F400C00000013000000320200003C00000006000000020000000000000000408FC0
310
000000202A442EC000000020BC684F40000000E0FF3F8F40000000402A442EC000000020BC684F400C000000130000003A0200003C00000006000000020000000000000000408FC000000040A94F2AC000000040D2BE4C400000000000408FC000000080A73229C0000000209D664B400C00000013000000420200003C0000
310
000600000002000000000000E0FF3F8F4000000080A73229C0000000209D664B400000000000408FC000000080A73229C0000000209D664B400C000000130000004A0200003C0000000600000002000000000000E0FF3F8F4000000080A73229C0000000209D664B40000000E0FF3F8F4000000040A94F2AC000000040D2BE
310
4C400C00000013000000520200003C00000006000000020000000000000000408FC000000040A94F2AC000000040D2BE4C40000000E0FF3F8F4000000040A94F2AC000000040D2BE4C400C000000130000005A0200003C00000006000000020000000000000000408FC0000000C0169928C000000060C1EF49400000000000
310
408FC0000000C0169928C0000000E03F9048400C00000013000000620200003C0000000600000002000000000000E0FF3F8F40000000C0169928C0000000E03F9048400000000000408FC0000000C0169928C0000000E03F9048400C000000130000006A0200003C0000000600000002000000000000E0FF3F8F40000000C0
310
169928C0000000E03F904840000000E0FF3F8F40000000C0169928C000000060C1EF49400C00000013000000720200003C00000006000000020000000000000000408FC0000000C0169928C000000060C1EF4940000000E0FF3F8F40000000C0169928C000000060C1EF49400C000000130000007A0200003C000000060000
310
00020000000000000000408FC000000080A73229C000000020641947400000000000408FC000000040A94F2AC0000000002FC145400C00000013000000820200003C0000000600000002000000000000E0FF3F8F4000000040A94F2AC0000000002FC145400000000000408FC000000040A94F2AC0000000002FC145400C00
310
0000130000008A0200003C0000000600000002000000000000E0FF3F8F4000000040A94F2AC0000000002FC14540000000E0FF3F8F4000000080A73229C000000020641947400C00000013000000920200003C00000006000000020000000000000000408FC000000080A73229C00000002064194740000000E0FF3F8F4000
310
000080A73229C000000020641947400C000000130000009A0200003C00000006000000020000000000000000408FC000000060FB152CC0000000A0E35944400000000000408FC0000000C029442EC000000040451743400C00000013000000A20200003C0000000600000002000000000000E0FF3F8F40000000E029442EC0
310
00000040451743400000000000408FC0000000C029442EC000000040451743400C00000013000000AA0200003C0000000600000002000000000000E0FF3F8F40000000E029442EC00000004045174340000000E0FF3F8F4000000060FB152CC0000000A0E35944400C00000013000000B20200003C00000006000000020000
310
000000000000408FC000000060FB152CC0000000A0E3594440000000E0FF3F8F4000000060FB152CC0000000A0E35944400C00000013000000BA0200003C00000006000000020000000000000000408FC0000000E0010033C0000000C0D71340400000000000408FC000000020309230C00000006075CE41400C0000001300
310
0000C20200003C00000006000000020000000000000000408FC0000000E0010033C0000000C0D7134040000000E0FF3F8F4000000000020033C0000000C0D71340400C00000013000000CA0200003C0000000600000002000000000000E0FF3F8F4000000000020033C0000000C0D7134040000000E0FF3F8F400000002030
310
9230C00000006075CE41400C00000013000000D20200003C00000006000000020000000000000000408FC000000020309230C00000006075CE4140000000E0FF3F8F4000000020309230C00000006075CE41400C00000013000000DA0200003C00000006000000020000000000000000408FC0000000C0010030C000000040
310
AF273D400000000000408FC0000000E0010033C0000000C0D71340400C00000013000000E20200003C00000006000000020000000000000000408FC0000000C0010030C000000040AF273D40000000E0FF3F8F40000000C0010030C000000040AF273D400C00000013000000EA0200003C0000000600000002000000000000
310
E0FF3F8F40000000C0010030C000000040AF273D40000000E0FF3F8F4000000000020033C0000000C0D71340400C00000013000000F20200003C00000006000000020000000000000000408FC0000000C0010030C000000040AF273D400000000000408FC0000000A0C6BB31C0000000A085A93B400C00000013000000FA02
310
00003C0000000600000002000000000000E0FF3F8F40000000C0C6BB31C0000000A085A93B400000000000408FC0000000A0C6BB31C0000000A085A93B400C00000013000000020300003C0000000600000002000000000000E0FF3F8F40000000C0C6BB31C0000000A085A93B40000000E0FF3F8F40000000C0010030C000
310
000040AF273D400C000000130000000A0300003C00000006000000020000000000000000408FC0000000C033C332C000000060C6803A400000000000408FC000000080579A33C000000080ED4039400C00000013000000120300003C0000000600000002000000000000E0FF3F8F4000000080579A33C000000080ED403940
310
0000000000408FC000000080579A33C000000080ED4039400C000000130000001A0300003C0000000600000002000000000000E0FF3F8F4000000080579A33C000000080ED403940000000E0FF3F8F40000000C033C332C000000060C6803A400C00000013000000220300003C00000006000000020000000000000000408F
310
C0000000C033C332C000000060C6803A40000000E0FF3F8F40000000C033C332C000000060C6803A400C000000130000002A0300003C00000006000000020000000000000000408FC000000040E14934C0000000A010DD37400000000000408FC000000040BEC434C0000000C0AF6F36400C00000013000000320300003C00
310
00000600000002000000000000E0FF3F8F4000000040BEC434C0000000C0AF6F36400000000000408FC000000040BEC434C0000000C0AF6F36400C000000130000003A0300003C0000000600000002000000000000E0FF3F8F4000000040BEC434C0000000C0AF6F3640000000E0FF3F8F4000000040E14934C0000000A010
310
DD37400C00000013000000420300003C00000006000000020000000000000000408FC000000040E14934C0000000A010DD3740000000E0FF3F8F4000000040E14934C0000000A010DD37400C000000130000004A0300003C00000006000000020000000000000000408FC000000040E20F35C00000006010EA344000000000
310
00408FC000000080B52535C000000020316933400C00000013000000520300003C0000000600000002000000000000E0FF3F8F4000000080B52535C000000020316933400000000000408FC000000080B52535C000000020316933400C000000130000005A0300003C0000000600000002000000000000E0FF3F8F40000000
310
80B52535C00000002031693340000000E0FF3F8F4000000040E20F35C00000006010EA34400C00000013000000620300003C00000006000000020000000000000000408FC000000040E20F35C00000006010EA3440000000E0FF3F8F4000000040E20F35C00000006010EA34400C000000130000006A0300003C0000000600
310
0000020000000000000000408FC0000000E0180735C00000008092DD31400000000000408FC00000006053B634C000000000A36430400C00000013000000720300003C0000000600000002000000000000E0FF3F8F400000008053B634C000000040A36430400000000000408FC00000006053B634C000000000A36430400C
310
000000130000007A0300003C0000000600000002000000000000E0FF3F8F400000008053B634C000000040A3643040000000E0FF3F8F40000000E0180735C0000000C092DD31400C00000013000000820300003C00000006000000020000000000000000408FC0000000E0180735C00000008092DD3140000000E0FF3F8F40
310
000000E0180735C0000000C092DD31400C000000130000008A0300003C00000006000000020000000000000000408FC000000080243034C0000000006DDE2D400000000000408FC000000080877E33C00000000027322B400C00000013000000920300003C0000000600000002000000000000E0FF3F8F4000000080877E33
310
C00000008026322B400000000000408FC000000080877E33C00000000027322B400C000000130000009A0300003C0000000600000002000000000000E0FF3F8F4000000080877E33C00000008026322B40000000E0FF3F8F4000000080243034C0000000806CDE2D400C00000013000000A20300003C000000060000000200
310
00000000000000408FC000000080243034C0000000006DDE2D40000000E0FF3F8F4000000080243034C0000000806CDE2D400C00000013000000AA0300003C00000006000000020000000000000000408FC000000020569A32C000000000E8A828400000000000408FC0000000408B9431C000000000007326400C00000013
310
000000B20300003C0000000600000002000000000000E0FF3F8F40000000408B9431C000000080007326400000000000408FC0000000408B9431C000000000007326400C00000013000000BA0300003C0000000600000002000000000000E0FF3F8F40000000408B9431C00000008000732640000000E0FF3F8F4000000040
310
569A32C000000080E8A828400C00000013000000C20300003C00000006000000020000000000000000408FC000000020569A32C000000000E8A82840000000E0FF3F8F4000000040569A32C000000080E8A828400C00000013000000CA0300003C00000006000000020000000000000000408FC0000000409A6230C0000000
310
00A07924400000000000408FC0000000C096362EC00000000068E222400C00000013000000D20300003C0000000600000002000000000000E0FF3F8F40000000C096362EC00000008068E222400000000000408FC0000000C096362EC00000000068E222400C00000013000000DA0300003C00000006000000020000000000
310
00E0FF3F8F40000000C096362EC00000008068E22240000000E0FF3F8F40000000409A6230C0000000809F7924400C00000013000000E20300003C00000006000000020000000000000000408FC0000000409A6230C000000000A0792440000000E0FF3F8F40000000409A6230C0000000809F7924400C00000013000000EA
310
0300003C00000006000000020000000000000000408FC000000060030027C0000000005E4F20400000000000408FC000000040CF622BC000000000E89C21400C00000013000000F20300003C00000006000000020000000000000000408FC000000060030027C0000000005E4F2040000000E0FF3F8F4000000080030027C0
310
000000805E4F20400C00000013000000FA0300003C0000000600000002000000000000E0FF3F8F4000000080030027C0000000805E4F2040000000E0FF3F8F4000000040CF622BC000000000E89C21400C00000013000000020400003C00000006000000020000000000000000408FC000000040CF622BC000000000E89C21
310
40000000E0FF3F8F4000000040CF622BC000000000E89C21400C000000130000000A0400003C00000006000000020000000000000000408FC000000060030027C000000000BC9E16400000000000408FC000000060030027C0000000005E4F20400C00000013000000120400003C0000000600000002000000000000000040
310
8FC000000060030027C000000000BC9E1640000000E0FF3F8F4000000080030027C000000000BC9E16400C000000130000001A0400003C0000000600000002000000000000E0FF3F8F4000000080030027C000000000BC9E1640000000E0FF3F8F4000000080030027C0000000805E4F20400C00000013000000220400003C
310
00000006000000020000000000000000408FC000000060030027C000000000BC9E16400000000000408FC000000080D58324C0000000009E8015400C000000130000002A0400003C0000000600000002000000000000E0FF3F8F4000000080D58324C0000000009E8015400000000000408FC000000080D58324C000000000
310
9E8015400C00000013000000320400003C0000000600000002000000000000E0FF3F8F4000000080D58324C0000000009E801540000000E0FF3F8F4000000080030027C000000000BC9E16400C000000130000003A0400003C00000006000000020000000000000000408FC00000004049FC22C000000000E4571440000000
310
0000408FC0000000605C7A21C00000000001AF12400C00000013000000420400003C0000000600000002000000000000E0FF3F8F40000000805C7A21C00000000001AF12400000000000408FC0000000605C7A21C00000000001AF12400C000000130000004A0400003C0000000600000002000000000000E0FF3F8F400000
310
00805C7A21C00000000001AF1240000000E0FF3F8F400000004049FC22C000000000E45714400C00000013000000520400003C00000006000000020000000000000000408FC00000004049FC22C000000000E4571440000000E0FF3F8F400000004049FC22C000000000E45714400C000000130000005A0400003C00000006
310
000000020000000000000000408FC000000000912B20C00000000012B810400000000000408FC0000000E009E81DC0000000006E920C400C00000013000000620400003C0000000600000002000000000000E0FF3F8F40000000000AE81DC0000000006E920C400000000000408FC0000000E009E81DC0000000006E920C40
310
0C000000130000006A0400003C0000000600000002000000000000E0FF3F8F40000000000AE81DC0000000006E920C40000000E0FF3F8F4000000000912B20C00000000012B810400C00000013000000720400003C00000006000000020000000000000000408FC000000000912B20C00000000012B81040000000E0FF3F8F
310
4000000000912B20C00000000012B810400C000000130000007A0400003C00000006000000020000000000000000408FC000000060D9F01BC000000000A45707400000000000408FC000000060AA471AC000000000445001400C00000013000000820400003C0000000600000002000000000000E0FF3F8F4000000080AA47
310
1AC000000000445001400000000000408FC000000060AA471AC000000000445001400C000000130000008A0400003C0000000600000002000000000000E0FF3F8F4000000080AA471AC00000000044500140000000E0FF3F8F4000000080D9F01BC000000000A45707400C00000013000000920400003C0000000600000002
310
0000000000000000408FC000000060D9F01BC000000000A4570740000000E0FF3F8F4000000080D9F01BC000000000A45707400C000000130000009A0400003C00000006000000020000000000000000408FC000000080060018C000000000001DC43F0000000000408FC000000040A21E19C0000000009C64F63F0C000000
310
13000000A20400003C00000006000000020000000000000000408FC000000080060018C000000000001DC43F000000E0FF3F8F40000000A0060018C000000000E01CC43F0C00000013000000AA0400003C0000000600000002000000000000E0FF3F8F40000000A0060018C000000000E01CC43F000000E0FF3F8F40000000
310
60A21E19C0000000009C64F63F0C00000013000000B20400003C00000006000000020000000000000000408FC000000040A21E19C0000000009C64F63F000000E0FF3F8F4000000060A21E19C0000000009C64F63F0C00000013000000BA0400003C00000006000000020000000000000000408FC000000080060018C00000
310
0000001DC43F0000000000408FC0000000000000F9BE000000000000F43E0C00000013000000C20400003C00000006000000020000000000000000408FC0000000000000F9BE000000000000F43E000000E0FF3F8F40000000000000FABE000000000000F43E0C00000013000000CA0400003C000000060000000200000000
310
0000E0FF3F8F40000000000000FABE000000000000F43E000000E0FF3F8F40000000A0060018C000000000E01CC43F0C00000013000000D20400003C00000006000000020000000000000000408FC0000000000000F9BE000000000000F43E0000000000408FC0000000000000FBBE000000005B151D400C00000013000000
310
DA0400003C00000006000000020000000000000000408FC0000000000000FBBE000000005B151D40000000E0FF3F8F40000000000000FCBE000000005B151D400C00000013000000E20400003C0000000600000002000000000000E0FF3F8F40000000000000FABE000000000000F43E000000E0FF3F8F40000000000000FC
310
BE000000005B151D400C00000013000000EA0400003C00000006000000020000000000000000408FC0000000006E99E5BF00000000AB8B1E400000000000408FC0000000000000FBBE000000005B151D400C00000013000000F20400003C00000006000000020000000000000000408FC0000000006E99E5BF00000000AB8B
310
1E40000000E0FF3F8F40000000007099E5BF00000000AB8B1E400C00000013000000FA0400003C0000000600000002000000000000E0FF3F8F40000000000000FCBE000000005B151D40000000E0FF3F8F40000000007099E5BF00000000AB8B1E400C00000013000000020500003C00000006000000020000000000000000
310
408FC0000000004B2EF2BF00000000FD7F20400000000000408FC0000000006E99E5BF00000000AB8B1E400C000000130000000A0500003C00000006000000020000000000000000408FC0000000004B2EF2BF00000000FD7F2040000000E0FF3F8F40000000004B2EF2BF00000080FD7F20400C0000001300000012050000
310
3C0000000600000002000000000000E0FF3F8F40000000004B2EF2BF00000080FD7F2040000000E0FF3F8F40000000007099E5BF00000000AB8B1E400C000000130000001A0500003C00000006000000020000000000000000408FC000000000D9CCF4BF00000000020022400000000000408FC0000000004B2EF2BF000000
310
00FD7F20400C00000013000000220500003C00000006000000020000000000000000408FC000000000D9CCF4BF0000000002002240000000E0FF3F8F4000000000D9CCF4BF00000080020022400C000000130000002A0500003C0000000600000002000000000000E0FF3F8F40000000004B2EF2BF00000080FD7F20400000
310
00E0FF3F8F4000000000D9CCF4BF00000080020022400C00000013000000320500003C00000006000000020000000000000000408FC0000000004B2EF2BF00000000078023400000000000408FC000000000D9CCF4BF00000000020022400C000000130000003A0500003C00000006000000020000000000000000408FC000
310
0000004B2EF2BF0000000007802340000000E0FF3F8F40000000004B2EF2BF00000080078023400C00000013000000420500003C0000000600000002000000000000E0FF3F8F40000000004B2EF2BF0000008007802340000000E0FF3F8F4000000000D9CCF4BF00000080020022400C000000130000004A0500003C000000
310
06000000020000000000000000408FC0000000006E99E5BF000000002FBA24400000000000408FC0000000004B2EF2BF00000000078023400C00000013000000520500003C00000006000000020000000000000000408FC0000000006E99E5BF000000002FBA2440000000E0FF3F8F40000000007099E5BF000000802FBA24
310
400C000000130000005A0500003C0000000600000002000000000000E0FF3F8F40000000004B2EF2BF0000008007802340000000E0FF3F8F40000000007099E5BF000000802FBA24400C00000013000000620500003C00000006000000020000000000000000408FC0000000000000FBBE0000008057752540000000000040
310
8FC0000000006E99E5BF000000002FBA24400C000000130000006A0500003C00000006000000020000000000000000408FC0000000000000FBBE0000008057752540000000E0FF3F8F40000000000000FCBE00000080577525400C00000013000000720500003C0000000600000002000000000000E0FF3F8F400000000000
310
00FCBE0000008057752540000000E0FF3F8F40000000007099E5BF000000802FBA24400C000000130000007A0500003C00000006000000020000000000000000408FC0000000000000FABE00000040010034400000000000408FC0000000000000FBBE00000080577525400C00000013000000820500003C00000006000000
310
020000000000000000408FC0000000000000FABE0000004001003440000000E0FF3F8F40000000000000FBBE00000040010034400C000000130000008A0500003C0000000600000002000000000000E0FF3F8F40000000000000FBBE0000004001003440000000E0FF3F8F40000000000000FCBE00000080577525400C0000
310
0013000000920500003C00000006000000020000000000000000408FC00000008084F800C000000000101F36400000000000408FC0000000000000FABE00000040010034400C000000130000009A0500003C00000006000000020000000000000000408FC00000008084F800C000000000101F3640000000E0FF3F8F400000
310
008084F800C000000000101F36400C00000013000000A20500003C0000000600000002000000000000E0FF3F8F400000008084F800C000000000101F3640000000E0FF3F8F40000000000000FBBE00000040010034400C00000013000000AA0500003C00000006000000020000000000000000408FC000000000592C06C000
310
000080381837400000000000408FC00000008084F800C000000000101F36400C00000013000000B20500003C00000006000000020000000000000000408FC000000000592C06C00000008038183740000000E0FF3F8F4000000000592C06C000000080381837400C00000013000000BA0500003C0000000600000002000000
310
000000E0FF3F8F4000000000592C06C00000008038183740000000E0FF3F8F400000008084F800C000000000101F36400C00000013000000C20500003C00000006000000020000000000000000408FC0000000800D0008C0000000E01E3E38400000000000408FC000000000592C06C000000080381837400C000000130000
310
00CA0500003C00000006000000020000000000000000408FC0000000800D0008C0000000E01E3E3840000000E0FF3F8F40000000800D0008C0000000E01E3E38400C00000013000000D20500003C0000000600000002000000000000E0FF3F8F40000000800D0008C0000000E01E3E3840000000E0FF3F8F4000000000592C
310
06C000000080381837400C00000013000000DA0500003C00000006000000020000000000000000408FC0000000800F0008C0000000E0783053400000000000408FC0000000800D0008C0000000E01E3E38400C00000013000000E20500003C00000006000000020000000000000000408FC0000000800F0008C0000000E078
310
305340000000E0FF3F8F40000000800F0008C0000000E0783053400C00000013000000EA0500003C0000000600000002000000000000E0FF3F8F40000000800F0008C0000000E078305340000000E0FF3F8F40000000800D0008C0000000E01E3E38400C00000013000000F20500003C000000060000000200000000000000
310
00408FC0000000005A2C06C000000060F27953400000000000408FC0000000800F0008C0000000E0783053400C00000013000000FA0500003C00000006000000020000000000000000408FC0000000005A2C06C000000060F2795340000000E0FF3F8F40000000805A2C06C000000060F27953400C00000013000000020600
310
003C0000000600000002000000000000E0FF3F8F40000000805A2C06C000000060F2795340000000E0FF3F8F40000000800F0008C0000000E0783053400C000000130000000A0600003C00000006000000020000000000000000408FC00000008085F800C0000000803CB853400000000000408FC0000000005A2C06C00000
310
0060F27953400C00000013000000120600003C00000006000000020000000000000000408FC00000008085F800C0000000803CB85340000000E0FF3F8F400000008085F800C0000000803CB853400C000000130000001A0600003C0000000600000002000000000000E0FF3F8F400000008085F800C0000000803CB8534000
310
0000E0FF3F8F40000000805A2C06C000000060F27953400C00000013000000220600003C00000006000000020000000000000000408FC0000000000000FEBE00000040004054400000000000408FC00000008085F800C0000000803CB853400C000000130000002A0600003C00000006000000020000000000000000408FC0
310
000000000000FEBE0000004000405440000000E0FF3F8F40000000000000FFBE00000040004054400C00000013000000320600003C0000000600000002000000000000E0FF3F8F40000000000000FFBE0000004000405440000000E0FF3F8F400000008085F800C0000000803CB853400C000000130000003A0600003C0000
310
0006000000020000000000000000408FC0000000000000FEBE00000040004054400000000000408FC0000000000000FFBE000000C0559156400C00000013000000420600003C00000006000000020000000000000000408FC0000000000000FFBE000000C055915640000000E0FF3F8F4000000000000000BF000000C05591
310
56400C000000130000004A0600003C0000000600000002000000000000E0FF3F8F40000000000000FFBE0000004000405440000000E0FF3F8F4000000000000000BF000000C0559156400C00000013000000520600003C00000006000000020000000000000000408FC0000000007699E5BF000000A0BAA856400000000000
310
408FC0000000000000FFBE000000C0559156400C000000130000005A0600003C00000006000000020000000000000000408FC0000000007699E5BF000000A0BAA85640000000E0FF3F8F40000000007899E5BF000000A0BAA856400C00000013000000620600003C0000000600000002000000000000E0FF3F8F4000000000
310
000000BF000000C055915640000000E0FF3F8F40000000007899E5BF000000A0BAA856400C000000130000006A0600003C00000006000000020000000000000000408FC0000000004E2EF2BF000000A0FFCF56400000000000408FC0000000007699E5BF000000A0BAA856400C00000013000000720600003C000000060000
310
00020000000000000000408FC0000000004E2EF2BF000000A0FFCF5640000000E0FF3F8F40000000004E2EF2BF000000A0FFCF56400C000000130000007A0600003C0000000600000002000000000000E0FF3F8F40000000007899E5BF000000A0BAA85640000000E0FF3F8F40000000004E2EF2BF000000A0FFCF56400C00
310
000013000000820600003C00000006000000020000000000000000408FC000000000DDCCF4BF00000040000057400000000000408FC0000000004E2EF2BF000000A0FFCF56400C000000130000008A0600003C00000006000000020000000000000000408FC000000000DDCCF4BF0000004000005740000000E0FF3F8F4000
310
000000DDCCF4BF00000040000057400C00000013000000920600003C0000000600000002000000000000E0FF3F8F4000000000DDCCF4BF0000004000005740000000E0FF3F8F40000000004E2EF2BF000000A0FFCF56400C000000130000009A0600003C00000006000000020000000000000000408FC0000000004E2EF2BF
310
000000E0003057400000000000408FC000000000DDCCF4BF00000040000057400C00000013000000A20600003C00000006000000020000000000000000408FC0000000004E2EF2BF000000E000305740000000E0FF3F8F40000000004E2EF2BF000000E0003057400C00000013000000AA0600003C00000006000000020000
310
00000000E0FF3F8F4000000000DDCCF4BF0000004000005740000000E0FF3F8F40000000004E2EF2BF000000E0003057400C00000013000000B20600003C00000006000000020000000000000000408FC0000000007699E5BF000000E0455757400000000000408FC0000000004E2EF2BF000000E0003057400C0000001300
310
0000BA0600003C00000006000000020000000000000000408FC0000000007699E5BF000000E045575740000000E0FF3F8F40000000007899E5BF000000E0455757400C00000013000000C20600003C0000000600000002000000000000E0FF3F8F40000000007899E5BF000000E045575740000000E0FF3F8F40000000004E
310
2EF2BF000000E0003057400C00000013000000CA0600003C00000006000000020000000000000000408FC0000000000000FFBE000000E0AA6E57400000000000408FC0000000007699E5BF000000E0455757400C00000013000000D20600003C00000006000000020000000000000000408FC0000000000000FFBE000000E0
310
AA6E5740000000E0FF3F8F4000000000000000BF000000E0AA6E57400C00000013000000DA0600003C0000000600000002000000000000E0FF3F8F4000000000000000BF000000E0AA6E5740000000E0FF3F8F40000000007899E5BF000000E0455757400C00000013000000E20600003C0000000600000002000000000000
310
0000408FC0000000000000FFBE00000060004059400000000000408FC0000000000000FFBE000000E0AA6E57400C00000013000000EA0600003C0000000600000002000000000000E0FF3F8F4000000000000000BF000000E0AA6E5740000000E0FF3F8F4000000000000000BF00000040004059400C00000013000000F206
310
00003C00000006000000020000000000000000408FC000000040AB471AC0000000807EB558400000000000408FC000000040A31E19C0000000206EE658400C00000013000000FA0600003C0000000600000002000000000000E0FF3F8F4000000060A31E19C0000000206EE65840000000E0FF3F8F4000000060AB471AC000
310
0000807EB558400C00000013000000020700003C00000006000000020000000000000000408FC0000000E00AE81DC0000000206D5B58400000000000408FC000000080DAF01BC000000060438558400C000000130000000A0700003C0000000600000002000000000000E0FF3F8F40000000A0DAF01BC00000006043855840
310
000000E0FF3F8F40000000000BE81DC0000000206D5B58400C00000013000000120700003C00000006000000020000000000000000408FC0000000E05C7A21C000000080101558400000000000408FC000000080912B20C0000000607F3458400C000000130000001A0700003C0000000600000002000000000000E0FF3F8F
310
4000000080912B20C0000000607F345840000000E0FF3F8F40000000E05C7A21C000000080101558400C00000013000000220700003C00000006000000020000000000000000408FC000000000D68324C0000000A0F6E757400000000000408FC0000000C049FC22C00000004082FA57400C000000130000002A0700003C00
310
00000600000002000000000000E0FF3F8F40000000C049FC22C00000004082FA5740000000E0FF3F8F4000000000D68324C0000000A0F6E757400C00000013000000320700003C00000006000000020000000000000000408FC00000004049FC22C000000000E45714400000000000408FC000000080D58324C0000000009E
310
8015400C000000130000003A0700003C0000000600000002000000000000E0FF3F8F4000000080D58324C0000000009E801540000000E0FF3F8F400000004049FC22C000000000E45714400C00000013000000420700003C00000006000000020000000000000000408FC000000000912B20C00000000012B8104000000000
310
00408FC0000000605C7A21C00000000001AF12400C000000130000004A0700003C0000000600000002000000000000E0FF3F8F40000000805C7A21C00000000001AF1240000000E0FF3F8F4000000000912B20C00000000012B810400C00000013000000520700003C00000006000000020000000000000000408FC0000000
310
60D9F01BC000000000A45707400000000000408FC0000000E009E81DC0000000006E920C400C000000130000005A0700003C0000000600000002000000000000E0FF3F8F40000000000AE81DC0000000006E920C40000000E0FF3F8F4000000080D9F01BC000000000A45707400C00000013000000620700003C0000000600
310
0000020000000000000000408FC000000040A21E19C0000000009C64F63F0000000000408FC000000060AA471AC000000000445001400C000000130000006A0700003C0000000600000002000000000000E0FF3F8F4000000080AA471AC00000000044500140000000E0FF3F8F4000000060A21E19C0000000009C64F63F0C
310
00000013000000720700003C00000006000000020000000000000000408FC0000000C033C332C000000060C6803A400000000000408FC0000000A0C6BB31C0000000A085A93B400C000000130000007A0700003C0000000600000002000000000000E0FF3F8F40000000C0C6BB31C0000000A085A93B40000000E0FF3F8F40
310
000000C033C332C000000060C6803A400C00000013000000820700003C00000006000000020000000000000000408FC000000040E14934C0000000A010DD37400000000000408FC000000080579A33C000000080ED4039400C000000130000008A0700003C0000000600000002000000000000E0FF3F8F4000000080579A33
310
C000000080ED403940000000E0FF3F8F4000000040E14934C0000000A010DD37400C00000013000000920700003C00000006000000020000000000000000408FC000000040E20F35C00000006010EA34400000000000408FC000000040BEC434C0000000C0AF6F36400C000000130000009A0700003C000000060000000200
310
0000000000E0FF3F8F4000000040BEC434C0000000C0AF6F3640000000E0FF3F8F4000000040E20F35C00000006010EA34400C00000013000000A20700003C00000006000000020000000000000000408FC0000000E0180735C00000008092DD31400000000000408FC000000080B52535C000000020316933400C00000013
310
000000AA0700003C0000000600000002000000000000E0FF3F8F4000000080B52535C00000002031693340000000E0FF3F8F40000000E0180735C0000000C092DD31400C00000013000000B20700003C00000006000000020000000000000000408FC000000080243034C0000000006DDE2D400000000000408FC000000060
310
53B634C000000000A36430400C00000013000000BA0700003C0000000600000002000000000000E0FF3F8F400000008053B634C000000040A3643040000000E0FF3F8F4000000080243034C0000000806CDE2D400C00000013000000C20700003C00000006000000020000000000000000408FC000000020569A32C0000000
310
00E8A828400000000000408FC000000080877E33C00000000027322B400C00000013000000CA0700003C0000000600000002000000000000E0FF3F8F4000000080877E33C00000008026322B40000000E0FF3F8F4000000040569A32C000000080E8A828400C00000013000000D20700003C00000006000000020000000000
310
000000408FC0000000409A6230C000000000A07924400000000000408FC0000000408B9431C000000000007326400C00000013000000DA0700003C0000000600000002000000000000E0FF3F8F40000000408B9431C00000008000732640000000E0FF3F8F40000000409A6230C0000000809F7924400C00000013000000E2
310
0700003C00000006000000020000000000000000408FC000000040CF622BC000000000E89C21400000000000408FC0000000C096362EC00000000068E222400C00000013000000EA0700003C0000000600000002000000000000E0FF3F8F40000000C096362EC00000008068E22240000000E0FF3F8F4000000040CF622BC0
310
00000000E89C21400C00000013000000F20700003C00000006000000020000000000000000408FC00000006097362EC000000080B3E356400000000000408FC0000000E0CF622BC000000080630C57400C00000013000000FA0700003C0000000600000002000000000000E0FF3F8F40000000E0CF622BC000000080630C57
310
40000000E0FF3F8F400000006097362EC000000080B3E356400C00000013000000020800003C00000006000000020000000000000000408FC0000000808B9431C000000080A07156400000000000408FC0000000809A6230C000000080CCB056400C000000130000000A0800003C0000000600000002000000000000E0FF3F
310
8F40000000809A6230C000000080CCB05640000000E0FF3F8F40000000808B9431C000000080A07156400C00000013000000120800003C00000006000000020000000000000000408FC0000000A0877E33C0000000A0BBD955400000000000408FC000000040569A32C000000080E32A56400C000000130000001A0800003C
310
0000000600000002000000000000E0FF3F8F4000000040569A32C000000080E32A5640000000E0FF3F8F40000000A0877E33C0000000A0BBD955400C00000013000000220800003C00000006000000020000000000000000408FC00000006053B634C0000000C0D72655400000000000408FC000000060243034C000000000
310
338455400C000000130000002A0800003C0000000600000002000000000000E0FF3F8F4000000060243034C00000000033845540000000E0FF3F8F400000006053B634C0000000C0D72655400C00000013000000320800003C00000006000000020000000000000000408FC0000000C0B52535C000000040B4655440000000
310
0000408FC000000000190735C0000000E09BC854400C000000130000003A0800003C0000000600000002000000000000E0FF3F8F4000000000190735C0000000E09BC85440000000E0FF3F8F40000000C0B52535C000000040B46554400C00000013000000420800003C00000006000000020000000000000000408FC00000
310
00A0BEC434C0000000A014A453400000000000408FC000000080E20F35C0000000807C0554400C000000130000004A0800003C0000000600000002000000000000E0FF3F8F4000000080E20F35C0000000807C055440000000E0FF3F8F40000000C0BEC434C0000000A014A453400C00000013000000520800003C00000006
310
000000020000000000000000408FC0000000C0579A33C000000020C5EF52400000000000408FC000000060E14934C000000060BC4853400C000000130000005A0800003C0000000600000002000000000000E0FF3F8F4000000080E14934C000000060BC485340000000E0FF3F8F40000000C0579A33C000000020C5EF5240
310
0C00000013000000620800003C00000006000000020000000000000000408FC0000000E0C6BB31C0000000209F5552400000000000408FC00000000034C332C0000000E0CE9F52400C000000130000006A0800003C0000000600000002000000000000E0FF3F8F400000000034C332C0000000E0CE9F5240000000E0FF3F8F
310
4000000000C7BB31C0000000209F5552400C00000013000000720800003C00000006000000020000000000000000408FC0000000202A442EC000000020BC684F400000000000408FC000000020309230C000000000C65850400C000000130000007A0800003C0000000600000002000000000000E0FF3F8F40000000403092
310
30C000000000C6585040000000E0FF3F8F40000000402A442EC000000020BC684F400C00000013000000820800003C00000006000000020000000000000000408FC000000040A94F2AC000000040D2BE4C400000000000408FC000000040FB152CC0000000A01D264E400C000000130000008A0800003C0000000600000002
310
000000000000E0FF3F8F4000000040FB152CC0000000A01D264E40000000E0FF3F8F4000000040A94F2AC000000040D2BE4C400C00000013000000920800003C00000006000000020000000000000000408FC0000000C0169928C000000060C1EF49400000000000408FC000000080A73229C0000000209D664B400C000000
310
130000009A0800003C0000000600000002000000000000E0FF3F8F4000000080A73229C0000000209D664B40000000E0FF3F8F40000000C0169928C000000060C1EF49400C00000013000000A20800003C00000006000000020000000000000000408FC000000080A73229C000000020641947400000000000408FC0000000
310
C0169928C0000000E03F9048400C00000013000000AA0800003C0000000600000002000000000000E0FF3F8F40000000C0169928C0000000E03F904840000000E0FF3F8F4000000080A73229C000000020641947400C00000013000000B20800003C00000006000000020000000000000000408FC000000060FB152CC00000
310
00A0E35944400000000000408FC000000040A94F2AC0000000002FC145400C00000013000000BA0800003C0000000600000002000000000000E0FF3F8F4000000040A94F2AC0000000002FC14540000000E0FF3F8F4000000060FB152CC0000000A0E35944400C00000013000000C20800003C000000060000000200000000
310
00000000408FC000000020309230C00000006075CE41400000000000408FC0000000C029442EC000000040451743400C00000013000000CA0800003C0000000600000002000000000000E0FF3F8F40000000E029442EC00000004045174340000000E0FF3F8F4000000020309230C00000006075CE41400C00000013000000
310
D20800003C00000006000000020000000000000000408FC0000000C0070018C000000000F23559400000000000408FC0000000007699E5BF000000E0455757400C00000013000000DA0800003C00000006000000020000000000000000408FC0000000800F0008C0000000E0783053400000000000408FC000000020309230
310
C000000000C65850400C00000013000000E20800003C00000006000000020000000000000000408FC0000000800F0008C0000000E0783053400000000000408FC0000000E0010030C0000000C014F651400C00000013000000EA0800003C00000006000000020000000000000000408FC0000000800F0008C0000000E07830
310
53400000000000408FC0000000202A442EC000000020BC684F400C00000013000000F20800003C00000006000000020000000000000000408FC000000000592C06C000000080381837400000000000408FC0000000A0C6BB31C0000000A085A93B400C00000013000000FA0800003C00000006000000020000000000000000
310
408FC0000000800D0008C0000000E01E3E38400000000000408FC0000000C0010030C000000040AF273D400C00000013000000020900003C00000006000000020000000000000000408FC0000000800D0008C0000000E01E3E38400000000000408FC000000020309230C00000006075CE41400C000000130000000A090000
310
3C00000006000000020000000000000000408FC0000000800F0008C0000000E0783053400000000000408FC000000040A94F2AC000000040D2BE4C400C00000013000000120900003C00000006000000020000000000000000408FC0000000800F0008C0000000E0783053400000000000408FC000000040FB152CC0000000
310
A01D264E400C000000130000001A0900003C00000006000000020000000000000000408FC0000000800F0008C0000000E0783053400000000000408FC0000000C0169928C000000060C1EF49400C00000013000000220900003C00000006000000020000000000000000408FC0000000800F0008C0000000E0783053400000
310
000000408FC000000080A73229C0000000209D664B400C000000130000002A0900003C00000006000000020000000000000000408FC0000000800D0008C0000000E01E3E38400000000000408FC0000000C029442EC000000040451743400C00000013000000320900003C00000006000000020000000000000000408FC000
310
0000800D0008C0000000E01E3E38400000000000408FC000000060FB152CC0000000A0E35944400C000000130000003A0900003C00000006000000020000000000000000408FC0000000800D0008C0000000E01E3E38400000000000408FC000000040A94F2AC0000000002FC145400C00000013000000420900003C000000
310
06000000020000000000000000408FC0000000800D0008C0000000E01E3E38400000000000408FC000000080A73229C000000020641947400C000000130000004A0900003C00000006000000020000000000000000408FC0000000800D0008C0000000E01E3E38400000000000408FC0000000C0169928C0000000E03F9048
310
400C00000013000000520900003C00000006000000020000000000000000408FC000000040A21E19C0000000009C64F63F0000000000408FC0000000006E99E5BF00000000AB8B1E400C000000130000005A0900003C00000006000000020000000000000000408FC0000000006E99E5BF00000000AB8B1E40000000000040
310
8FC000000060AA471AC000000000445001400C00000013000000620900003C00000006000000020000000000000000408FC000000060D9F01BC000000000A45707400000000000408FC0000000006E99E5BF00000000AB8B1E400C000000130000006A0900003C00000006000000020000000000000000408FC00000006003
310
0027C000000000BC9E16400000000000408FC000000000D9CCF4BF00000000020022400C00000013000000720900003C00000006000000020000000000000000408FC000000060030027C0000000005E4F20400000000000408FC000000000D9CCF4BF00000000020022400C000000130000007A0900003C00000006000000
310
020000000000000000408FC00000004049FC22C000000000E45714400000000000408FC0000000004B2EF2BF00000000FD7F20400C00000013000000820900003C00000006000000020000000000000000408FC000000000D9CCF4BF00000000020022400000000000408FC000000080D58324C0000000009E8015400C0000
310
00130000008A0900003C00000006000000020000000000000000408FC000000000912B20C00000000012B810400000000000408FC0000000004B2EF2BF00000000FD7F20400C00000013000000920900003C00000006000000020000000000000000408FC0000000004B2EF2BF00000000FD7F20400000000000408FC00000
310
00605C7A21C00000000001AF12400C000000130000009A0900003C00000006000000020000000000000000408FC0000000004B2EF2BF00000000FD7F20400000000000408FC0000000E009E81DC0000000006E920C400C00000013000000A20900003C00000006000000020000000000000000408FC0000000004E2EF2BF00
310
0000E0003057400000000000408FC000000080DAF01BC000000060438558400C00000013000000AA0900003C00000006000000020000000000000000408FC000000040AB471AC0000000807EB558400000000000408FC0000000007699E5BF000000E0455757400C00000013000000B20900003C0000000600000002000000
310
0000000000408FC0000000007699E5BF000000E0455757400000000000408FC000000040A31E19C0000000206EE658400C00000013000000BA0900003C00000006000000020000000000000000408FC0000000E05C7A21C000000080101558400000000000408FC0000000004E2EF2BF000000E0003057400C000000130000
310
00C20900003C00000006000000020000000000000000408FC0000000004E2EF2BF000000E0003057400000000000408FC000000080912B20C0000000607F3458400C00000013000000CA0900003C00000006000000020000000000000000408FC0000000E00AE81DC0000000206D5B58400000000000408FC0000000004E2E
310
F2BF000000E0003057400C00000013000000D20900003C00000006000000020000000000000000408FC000000000DDCCF4BF00000040000057400000000000408FC0000000C049FC22C00000004082FA57400C00000013000000DA0900003C00000006000000020000000000000000408FC0000000E0030027C0000000C014
310
3657400000000000408FC000000000DDCCF4BF00000040000057400C00000013000000E20900003C00000006000000020000000000000000408FC000000000D68324C0000000A0F6E757400000000000408FC000000000DDCCF4BF00000040000057400C00000013000000EA0900003C000000060000000200000000000000
310
00408FC0000000004E2EF2BF000000A0FFCF56400000000000408FC0000000E0CF622BC000000080630C57400C00000013000000F20900003C00000006000000020000000000000000408FC0000000005A2C06C000000060F27953400000000000408FC0000000E0C6BB31C0000000209F5552400C00000013000000FA0900
310
003C00000006000000020000000000000000408FC0000000005A2C06C000000060F27953400000000000408FC00000000034C332C0000000E0CE9F52400C00000013000000020A00003C00000006000000020000000000000000408FC00000008085F800C0000000803CB853400000000000408FC0000000C0579A33C00000
310
0020C5EF52400C000000130000000A0A00003C00000006000000020000000000000000408FC00000008085F800C0000000803CB853400000000000408FC000000060E14934C000000060BC4853400C00000013000000120A00003C00000006000000020000000000000000408FC0000000000000FEBE000000400040544000
310
00000000408FC0000000A0BEC434C0000000A014A453400C000000130000001A0A00003C00000006000000020000000000000000408FC0000000000000FEBE00000040004054400000000000408FC000000080E20F35C0000000807C0554400C00000013000000220A00003C00000006000000020000000000000000408FC0
310
0000006097362EC000000080B3E356400000000000408FC0000000004E2EF2BF000000A0FFCF56400C000000130000002A0A00003C00000006000000020000000000000000408FC0000000007699E5BF000000A0BAA856400000000000408FC0000000809A6230C000000080CCB056400C00000013000000320A00003C0000
310
0006000000020000000000000000408FC0000000000000FFBE000000C0559156400000000000408FC000000040569A32C000000080E32A56400C000000130000003A0A00003C00000006000000020000000000000000408FC0000000808B9431C000000080A07156400000000000408FC0000000007699E5BF000000A0BAA8
310
56400C00000013000000420A00003C00000006000000020000000000000000408FC0000000A0877E33C0000000A0BBD955400000000000408FC0000000000000FFBE000000C0559156400C000000130000004A0A00003C00000006000000020000000000000000408FC0000000000000FFBE000000C0559156400000000000
310
408FC000000060243034C000000000338455400C00000013000000520A00003C00000006000000020000000000000000408FC0000000000000FEBE00000040004054400000000000408FC00000006053B634C0000000C0D72655400C000000130000005A0A00003C00000006000000020000000000000000408FC000000000
310
0000FEBE00000040004054400000000000408FC0000000C0B52535C000000040B46554400C00000013000000620A00003C00000006000000020000000000000000408FC0000000000000FEBE00000040004054400000000000408FC000000000190735C0000000E09BC854400C000000130000006A0A00003C000000060000
310
00020000000000000000408FC000000000592C06C000000080381837400000000000408FC0000000C033C332C000000060C6803A400C00000013000000720A00003C00000006000000020000000000000000408FC00000008084F800C000000000101F36400000000000408FC000000080579A33C000000080ED4039400C00
310
0000130000007A0A00003C00000006000000020000000000000000408FC00000008084F800C000000000101F36400000000000408FC000000040E14934C0000000A010DD37400C00000013000000820A00003C00000006000000020000000000000000408FC0000000000000FABE00000040010034400000000000408FC000
310
000040BEC434C0000000C0AF6F36400C000000130000008A0A00003C00000006000000020000000000000000408FC0000000000000FABE00000040010034400000000000408FC000000080B52535C000000020316933400C00000013000000920A00003C00000006000000020000000000000000408FC0000000000000FABE
310
00000040010034400000000000408FC000000040E20F35C00000006010EA34400C000000130000009A0A00003C00000006000000020000000000000000408FC0000000000000FABE00000040010034400000000000408FC0000000E0180735C00000008092DD31400C00000013000000A20A00003C00000006000000020000
310
000000000000408FC000000040CF622BC000000000E89C21400000000000408FC0000000004B2EF2BF00000000078023400C00000013000000AA0A00003C00000006000000020000000000000000408FC0000000004B2EF2BF00000000078023400000000000408FC0000000C096362EC00000000068E222400C0000001300
310
0000B20A00003C00000006000000020000000000000000408FC0000000409A6230C000000000A07924400000000000408FC0000000006E99E5BF000000002FBA24400C00000013000000BA0A00003C00000006000000020000000000000000408FC0000000006E99E5BF000000002FBA24400000000000408FC0000000408B
310
9431C000000000007326400C00000013000000C20A00003C00000006000000020000000000000000408FC000000020569A32C000000000E8A828400000000000408FC0000000000000FBBE00000080577525400C00000013000000CA0A00003C00000006000000020000000000000000408FC0000000000000FBBE00000080
310
577525400000000000408FC000000080877E33C00000000027322B400C00000013000000D20A00003C00000006000000020000000000000000408FC000000080243034C0000000006DDE2D400000000000408FC0000000000000FBBE00000080577525400C00000013000000DA0A00003C0000000600000002000000000000
310
0000408FC0000000000000FBBE00000080577525400000000000408FC00000006053B634C000000000A36430400C00000013000000E20A00003C0000000600000002000000000000E0FF3F8F40000000C0070018C000000000F2355940000000E0FF3F8F40000000007899E5BF000000E0455757400C00000013000000EA0A
310
00003C0000000600000002000000000000E0FF3F8F40000000800F0008C0000000E078305340000000E0FF3F8F4000000000020030C0000000C014F651400C00000013000000F20A00003C0000000600000002000000000000E0FF3F8F40000000800F0008C0000000E078305340000000E0FF3F8F4000000040309230C000
310
000000C65850400C00000013000000FA0A00003C0000000600000002000000000000E0FF3F8F40000000800F0008C0000000E078305340000000E0FF3F8F40000000402A442EC000000020BC684F400C00000013000000020B00003C0000000600000002000000000000E0FF3F8F40000000800D0008C0000000E01E3E3840
310
000000E0FF3F8F40000000C0010030C000000040AF273D400C000000130000000A0B00003C0000000600000002000000000000E0FF3F8F4000000000592C06C00000008038183740000000E0FF3F8F40000000C0C6BB31C0000000A085A93B400C00000013000000120B00003C0000000600000002000000000000E0FF3F8F
310
40000000800D0008C0000000E01E3E3840000000E0FF3F8F4000000020309230C00000006075CE41400C000000130000001A0B00003C0000000600000002000000000000E0FF3F8F40000000800F0008C0000000E078305340000000E0FF3F8F4000000040FB152CC0000000A01D264E400C00000013000000220B00003C00
310
00000600000002000000000000E0FF3F8F40000000800F0008C0000000E078305340000000E0FF3F8F4000000040A94F2AC000000040D2BE4C400C000000130000002A0B00003C0000000600000002000000000000E0FF3F8F40000000800F0008C0000000E078305340000000E0FF3F8F4000000080A73229C0000000209D
310
664B400C00000013000000320B00003C0000000600000002000000000000E0FF3F8F40000000800F0008C0000000E078305340000000E0FF3F8F40000000C0169928C000000060C1EF49400C000000130000003A0B00003C0000000600000002000000000000E0FF3F8F40000000800D0008C0000000E01E3E3840000000E0
310
FF3F8F40000000E029442EC000000040451743400C00000013000000420B00003C0000000600000002000000000000E0FF3F8F40000000800D0008C0000000E01E3E3840000000E0FF3F8F4000000060FB152CC0000000A0E35944400C000000130000004A0B00003C0000000600000002000000000000E0FF3F8F40000000
310
800D0008C0000000E01E3E3840000000E0FF3F8F4000000040A94F2AC0000000002FC145400C00000013000000520B00003C0000000600000002000000000000E0FF3F8F40000000800D0008C0000000E01E3E3840000000E0FF3F8F4000000080A73229C000000020641947400C000000130000005A0B00003C0000000600
310
000002000000000000E0FF3F8F40000000800D0008C0000000E01E3E3840000000E0FF3F8F40000000C0169928C0000000E03F9048400C00000013000000620B00003C0000000600000002000000000000E0FF3F8F40000000007099E5BF00000000AB8B1E40000000E0FF3F8F4000000060A21E19C0000000009C64F63F0C
310
000000130000006A0B00003C0000000600000002000000000000E0FF3F8F4000000080AA471AC00000000044500140000000E0FF3F8F40000000007099E5BF00000000AB8B1E400C00000013000000720B00003C0000000600000002000000000000E0FF3F8F40000000007099E5BF00000000AB8B1E40000000E0FF3F8F40
310
00000080D9F01BC000000000A45707400C000000130000007A0B00003C0000000600000002000000000000E0FF3F8F4000000080030027C0000000805E4F2040000000E0FF3F8F4000000000D9CCF4BF00000080020022400C00000013000000820B00003C0000000600000002000000000000E0FF3F8F4000000080030027
310
C000000000BC9E1640000000E0FF3F8F4000000000D9CCF4BF00000080020022400C000000130000008A0B00003C0000000600000002000000000000E0FF3F8F4000000080D58324C0000000009E801540000000E0FF3F8F4000000000D9CCF4BF00000080020022400C00000013000000920B00003C000000060000000200
310
0000000000E0FF3F8F40000000004B2EF2BF00000080FD7F2040000000E0FF3F8F400000004049FC22C000000000E45714400C000000130000009A0B00003C0000000600000002000000000000E0FF3F8F40000000805C7A21C00000000001AF1240000000E0FF3F8F40000000004B2EF2BF00000080FD7F20400C00000013
310
000000A20B00003C0000000600000002000000000000E0FF3F8F40000000004B2EF2BF00000080FD7F2040000000E0FF3F8F4000000000912B20C00000000012B810400C00000013000000AA0B00003C0000000600000002000000000000E0FF3F8F40000000000AE81DC0000000006E920C40000000E0FF3F8F4000000000
310
4B2EF2BF00000080FD7F20400C00000013000000B20B00003C0000000600000002000000000000E0FF3F8F40000000007899E5BF000000E045575740000000E0FF3F8F4000000060AB471AC0000000807EB558400C00000013000000BA0B00003C0000000600000002000000000000E0FF3F8F40000000004E2EF2BF000000
310
E000305740000000E0FF3F8F40000000A0DAF01BC000000060438558400C00000013000000C20B00003C0000000600000002000000000000E0FF3F8F4000000060A31E19C0000000206EE65840000000E0FF3F8F40000000007899E5BF000000E0455757400C00000013000000CA0B00003C00000006000000020000000000
310
00E0FF3F8F40000000004E2EF2BF000000E000305740000000E0FF3F8F4000000080912B20C0000000607F3458400C00000013000000D20B00003C0000000600000002000000000000E0FF3F8F40000000004E2EF2BF000000E000305740000000E0FF3F8F40000000E05C7A21C000000080101558400C00000013000000DA
310
0B00003C0000000600000002000000000000E0FF3F8F40000000004E2EF2BF000000E000305740000000E0FF3F8F40000000000BE81DC0000000206D5B58400C00000013000000E20B00003C0000000600000002000000000000E0FF3F8F4000000000DDCCF4BF0000004000005740000000E0FF3F8F40000000C049FC22C0
310
0000004082FA57400C00000013000000EA0B00003C0000000600000002000000000000E0FF3F8F4000000000DDCCF4BF0000004000005740000000E0FF3F8F4000000000D68324C0000000A0F6E757400C00000013000000F20B00003C0000000600000002000000000000E0FF3F8F4000000000DDCCF4BF00000040000057
310
40000000E0FF3F8F4000000000040027C0000000C0143657400C00000013000000FA0B00003C0000000600000002000000000000E0FF3F8F40000000E0CF622BC000000080630C5740000000E0FF3F8F40000000004E2EF2BF000000A0FFCF56400C00000013000000020C00003C0000000600000002000000000000E0FF3F
310
8F40000000805A2C06C000000060F2795340000000E0FF3F8F4000000000C7BB31C0000000209F5552400C000000130000000A0C00003C0000000600000002000000000000E0FF3F8F40000000805A2C06C000000060F2795340000000E0FF3F8F400000000034C332C0000000E0CE9F52400C00000013000000120C00003C
310
0000000600000002000000000000E0FF3F8F400000008085F800C0000000803CB85340000000E0FF3F8F40000000C0579A33C000000020C5EF52400C000000130000001A0C00003C0000000600000002000000000000E0FF3F8F400000008085F800C0000000803CB85340000000E0FF3F8F4000000080E14934C000000060
310
BC4853400C00000013000000220C00003C0000000600000002000000000000E0FF3F8F4000000080E20F35C0000000807C055440000000E0FF3F8F40000000000000FFBE00000040004054400C000000130000002A0C00003C0000000600000002000000000000E0FF3F8F40000000000000FFBE0000004000405440000000
310
E0FF3F8F40000000C0BEC434C0000000A014A453400C00000013000000320C00003C0000000600000002000000000000E0FF3F8F40000000004E2EF2BF000000A0FFCF5640000000E0FF3F8F400000006097362EC000000080B3E356400C000000130000003A0C00003C0000000600000002000000000000E0FF3F8F400000
310
00809A6230C000000080CCB05640000000E0FF3F8F40000000007899E5BF000000A0BAA856400C00000013000000420C00003C0000000600000002000000000000E0FF3F8F40000000007899E5BF000000A0BAA85640000000E0FF3F8F40000000808B9431C000000080A07156400C000000130000004A0C00003C00000006
310
00000002000000000000E0FF3F8F4000000040569A32C000000080E32A5640000000E0FF3F8F4000000000000000BF000000C0559156400C00000013000000520C00003C0000000600000002000000000000E0FF3F8F4000000000000000BF000000C055915640000000E0FF3F8F40000000A0877E33C0000000A0BBD95540
310
0C000000130000005A0C00003C0000000600000002000000000000E0FF3F8F4000000060243034C00000000033845540000000E0FF3F8F4000000000000000BF000000C0559156400C00000013000000620C00003C0000000600000002000000000000E0FF3F8F40000000000000FFBE0000004000405440000000E0FF3F8F
310
400000006053B634C0000000C0D72655400C000000130000006A0C00003C0000000600000002000000000000E0FF3F8F40000000000000FFBE0000004000405440000000E0FF3F8F4000000000190735C0000000E09BC854400C00000013000000720C00003C0000000600000002000000000000E0FF3F8F40000000000000
310
FFBE0000004000405440000000E0FF3F8F40000000C0B52535C000000040B46554400C000000130000007A0C00003C0000000600000002000000000000E0FF3F8F4000000000592C06C00000008038183740000000E0FF3F8F40000000C033C332C000000060C6803A400C00000013000000820C00003C0000000600000002
310
000000000000E0FF3F8F4000000080579A33C000000080ED403940000000E0FF3F8F400000008084F800C000000000101F36400C000000130000008A0C00003C0000000600000002000000000000E0FF3F8F400000008084F800C000000000101F3640000000E0FF3F8F4000000040E14934C0000000A010DD37400C000000
310
13000000920C00003C0000000600000002000000000000E0FF3F8F4000000040BEC434C0000000C0AF6F3640000000E0FF3F8F40000000000000FBBE00000040010034400C000000130000009A0C00003C0000000600000002000000000000E0FF3F8F40000000000000FBBE0000004001003440000000E0FF3F8F40000000
310
40E20F35C00000006010EA34400C00000013000000A20C00003C0000000600000002000000000000E0FF3F8F40000000000000FBBE0000004001003440000000E0FF3F8F4000000080B52535C000000020316933400C00000013000000AA0C00003C0000000600000002000000000000E0FF3F8F40000000000000FBBE0000
310
004001003440000000E0FF3F8F40000000E0180735C0000000C092DD31400C00000013000000B20C00003C0000000600000002000000000000E0FF3F8F40000000004B2EF2BF0000008007802340000000E0FF3F8F4000000040CF622BC000000000E89C21400C00000013000000BA0C00003C000000060000000200000000
310
0000E0FF3F8F40000000C096362EC00000008068E22240000000E0FF3F8F40000000004B2EF2BF00000080078023400C00000013000000C20C00003C0000000600000002000000000000E0FF3F8F40000000007099E5BF000000802FBA2440000000E0FF3F8F40000000409A6230C0000000809F7924400C00000013000000
310
CA0C00003C0000000600000002000000000000E0FF3F8F40000000408B9431C00000008000732640000000E0FF3F8F40000000007099E5BF000000802FBA24400C00000013000000D20C00003C0000000600000002000000000000E0FF3F8F40000000000000FCBE0000008057752540000000E0FF3F8F4000000040569A32
310
C000000080E8A828400C00000013000000DA0C00003C0000000600000002000000000000E0FF3F8F40000000000000FCBE0000008057752540000000E0FF3F8F4000000080877E33C00000008026322B400C00000013000000E20C00003C0000000600000002000000000000E0FF3F8F40000000000000FCBE000000805775
310
2540000000E0FF3F8F4000000080243034C0000000806CDE2D400C00000013000000EA0C00003C0000000600000002000000000000E0FF3F8F40000000000000FCBE0000008057752540000000E0FF3F8F400000008053B634C000000040A3643040
100
AcDbSubDMesh
 71
     2
 72
     0
 91
        0
 92
      188
 10
-1000.0
 20
-6.000029563903808
 30
100.8428955078125
 10
-1000.0
 20
-0.0000295639038086
 30
101.0000228881836
 10
-1000.0
 20
-0.0000286102294922
 30
81.00001525878907
 10
-1000.0
 20
-2.12134838104248
 30
78.87869262695312
 10
-1000.0
 20
-2.771656036376953
 30
77.90541839599609
 10
-1000.0
 20
-3.000029563903808
 30
76.75737762451172
 10
-1000.0
 20
-3.000025749206542
 30
24.2426586151123
 10
-1000.0
 20
-2.77165412902832
 30
23.09461212158203
 10
-1000.0
 20
-2.121346473693847
 30
22.121337890625
 10
-1000.0
 20
-0.0000247955322266
 30
20.00001907348633
 10
-1000.0
 20
-6.000024795532226
 30
0.157135009765625
 10
-1000.0
 20
-6.279915809631347
 30
1.399562835693359
 10
-1000.0
 20
-6.985204219818115
 30
2.917793273925781
 10
-1000.0
 20
-8.085090637207031
 30
4.179756164550781
 10
-1000.0
 20
-9.492746353149414
 30
5.085830688476562
 10
-1000.0
 20
-11.50002574920654
 30
5.655014038085937
 10
-1000.0
 20
-11.50002574920654
 30
8.155014038085937
 10
-1000.0
 20
-13.6929874420166
 30
8.80645751953125
 10
-1000.0
 20
-16.38516616821289
 30
10.237548828125
 10
-1000.0
 20
-18.602876663208
 30
12.32989501953125
 10
-1000.0
 20
-20.18805694580078
 30
14.9344253540039
 10
-1000.0
 20
-21.02772331237793
 30
17.86551666259765
 10
-1000.0
 20
-21.06204605102539
 30
20.9143123626709
 10
-1000.0
 20
-20.28859329223633
 30
23.86353492736816
 10
-1000.0
 20
-18.76250839233398
 30
26.50302696228028
 10
-1000.0
 20
-16.00002670288086
 30
29.15501785278321
 10
-1000.0
 20
-19.00002861022949
 30
32.15502166748047
 10
-1000.0
 20
-16.57104682922363
 30
35.61295700073242
 10
-1000.0
 20
-14.04293346405029
 30
40.7022590637207
 10
-1000.0
 20
-12.59893417358398
 30
46.19836807250976
 10
-1000.0
 20
-12.29900169372558
 30
51.87308883666992
 10
-1000.0
 20
-13.15558815002441
 30
57.49079132080078
 10
-1000.0
 20
-15.13313388824463
 30
62.81824111938476
 10
-1000.0
 20
-19.00002861022949
 30
68.84501647949218
 10
-1000.0
 20
-16.00002861022949
 30
71.84501647949218
 10
-1000.0
 20
-17.7335033416748
 30
73.33783721923828
 10
-1000.0
 20
-19.60290145874023
 30
75.74640655517578
 10
-1000.0
 20
-20.76853370666504
 30
78.56375885009765
 10
-1000.0
 20
-21.14730453491211
 30
81.58912658691406
 10
-1000.0
 20
-20.71220970153809
 30
84.60691833496094
 10
-1000.0
 20
-19.4942569732666
 30
87.4020767211914
 10
-1000.0
 20
-17.58025360107422
 30
89.77542114257813
 10
-1000.0
 20
-15.10662364959717
 30
91.55783081054687
 10
-1000.0
 20
-11.50002956390381
 30
92.84501647949218
 10
-1000.0
 20
-11.50002956390381
 30
95.34501647949218
 10
-1000.0
 20
-10.25749206542968
 30
95.62442779541015
 10
-1000.0
 20
-8.738989830017089
 30
96.32913208007813
 10
-1000.0
 20
-7.476603984832763
 30
97.42853546142578
 10
-1000.0
 20
-6.569989204406738
 30
98.83584594726563
 10
-1000.0
 20
-0.0000238418579102
 30
0.0000190734863281
 10
-1000.0
 20
-0.0000295639038086
 30
93.72917938232422
 10
-1000.0
 20
-0.674983024597168
 30
93.36363983154297
 10
-1000.0
 20
-1.136304855346679
 30
92.75005340576171
 10
-1000.0
 20
-1.300015449523925
 30
92.00001525878906
 10
-1000.0
 20
-1.136304855346679
 30
91.2499771118164
 10
-1000.0
 20
-0.674983024597168
 30
90.63639068603515
 10
-1000.0
 20
-0.0000295639038086
 30
90.27085876464843
 10
-1000.0
 20
-0.000025749206543
 30
10.72918319702148
 10
-1000.0
 20
-0.6749792098999024
 30
10.36363983154297
 10
-1000.0
 20
-1.13630199432373
 30
9.750053405761718
 10
-1000.0
 20
-1.30001163482666
 30
9.000015258789062
 10
-1000.0
 20
-1.13630199432373
 30
8.249977111816406
 10
-1000.0
 20
-0.6749792098999024
 30
7.636394500732421
 10
-1000.0
 20
-0.000025749206543
 30
7.270854949951171
 10
999.9999389648436
 20
-0.000030517578125
 30
93.72917938232422
 10
999.9999389648436
 20
-6.000029563903808
 30
100.8428955078125
 10
999.9999389648436
 20
-0.000030517578125
 30
101.000015258789
 10
999.9999389648436
 20
-6.279920101165771
 30
99.60047149658203
 10
999.9999389648436
 20
-21.06204986572266
 30
80.08572387695313
 10
999.9999389648436
 20
-0.0000295639038086
 30
81.00001525878907
 10
999.9999389648436
 20
-2.12134838104248
 30
78.87869262695312
 10
999.9999389648436
 20
-21.02772521972656
 30
83.13451385498046
 10
999.9999389648436
 20
-20.18805503845215
 30
86.06561279296874
 10
999.9999389648436
 20
-18.60287857055664
 30
88.67013549804687
 10
999.9999389648436
 20
-0.000030517578125
 30
90.27085876464843
 10
999.9999389648436
 20
-2.771656990051269
 30
77.90541839599609
 10
999.9999389648436
 20
-3.000029563903808
 30
76.75737762451172
 10
999.9999389648436
 20
-16.00003051757812
 30
71.84501647949218
 10
999.9999389648436
 20
-3.000025749206542
 30
24.2426586151123
 10
999.9999389648436
 20
-20.28859710693359
 30
77.13649749755859
 10
999.9999389648436
 20
-19.60289764404297
 30
25.25362396240235
 10
999.9999389648436
 20
-2.77165412902832
 30
23.09461212158203
 10
999.9999389648436
 20
-17.73350143432617
 30
27.66219520568848
 10
999.9999389648436
 20
-16.00002670288086
 30
29.15501785278321
 10
999.9999389648436
 20
-19.00003051757812
 30
32.15502166748047
 10
999.9999389648436
 20
-15.13313198089599
 30
38.18180084228515
 10
999.9999389648436
 20
-13.15558815002441
 30
43.50924682617187
 10
999.9999389648436
 20
-12.29900169372558
 30
49.12694931030273
 10
999.9999389648436
 20
-12.59893417358398
 30
54.80167007446289
 10
999.9999389648436
 20
-14.04293251037598
 30
60.29777908325195
 10
999.9999389648436
 20
-2.121346473693847
 30
22.121337890625
 10
999.9999389648436
 20
-20.76852798461914
 30
22.43627548217773
 10
999.9999389648436
 20
-0.000025749206543
 30
20.00001907348633
 10
999.9999389648436
 20
-21.14730072021484
 30
19.41090583801269
 10
999.9999389648436
 20
-0.0000267028808594
 30
10.72918319702148
 10
999.9999389648436
 20
-0.0000247955322266
 30
0.0000190734863281
 10
999.9999389648436
 20
-6.000025272369384
 30
0.1571311950683594
 10
999.9999389648436
 20
-6.569986343383789
 30
2.164192199707031
 10
999.9999389648436
 20
-7.476600646972656
 30
3.571498870849609
 10
999.9999389648436
 20
-8.73898696899414
 30
4.670902252197265
 10
999.9999389648436
 20
-10.25748825073242
 30
5.375602722167968
 10
999.9999389648436
 20
-0.0000267028808594
 30
7.270854949951171
 10
999.9999389648436
 20
-11.50002670288086
 30
5.655014038085937
 10
999.9999389648436
 20
-11.50002670288086
 30
8.155017852783203
 10
999.9999389648436
 20
-1.13630199432373
 30
8.249980926513671
 10
999.9999389648436
 20
-15.10661888122558
 30
9.442203521728515
 10
999.9999389648436
 20
-0.6749801635742188
 30
7.636394500732421
 10
999.9999389648436
 20
-1.13630199432373
 30
9.750057220458984
 10
999.9999389648436
 20
-17.58024978637695
 30
11.22461318969726
 10
999.9999389648436
 20
-1.30001163482666
 30
9.000019073486328
 10
999.9999389648436
 20
-19.49425506591797
 30
13.59794998168945
 10
999.9999389648436
 20
-0.6749801635742188
 30
10.36364364624023
 10
999.9999389648436
 20
-20.71221160888672
 30
16.39311599731445
 10
999.9999389648436
 20
-16.57104873657226
 30
65.3870849609375
 10
999.9999389648436
 20
-19.00003051757812
 30
68.84501647949218
 10
999.9999389648436
 20
-18.76251220703125
 30
74.49700164794922
 10
999.9999389648436
 20
-16.38516998291015
 30
90.76248168945312
 10
999.9999389648436
 20
-0.6749839782714844
 30
90.63639068603515
 10
999.9999389648436
 20
-13.69299221038818
 30
92.19357299804688
 10
999.9999389648436
 20
-1.300015449523925
 30
92.00001525878906
 10
999.9999389648436
 20
-11.50003051757812
 30
92.84501647949218
 10
999.9999389648436
 20
-1.136304855346679
 30
91.2499771118164
 10
999.9999389648436
 20
-0.6749839782714844
 30
93.36363983154297
 10
999.9999389648436
 20
-11.50003051757812
 30
95.34501647949218
 10
999.9999389648436
 20
-1.136304855346679
 30
92.75005340576171
 10
999.9999389648436
 20
-9.492750167846679
 30
95.91419982910156
 10
999.9999389648436
 20
-8.085094451904296
 30
96.82027435302735
 10
999.9999389648436
 20
-6.985208988189697
 30
98.08223724365234
 10
-1000.0
 20
-9.492750167846679
 30
95.91419982910156
 10
-1000.0
 20
-8.085094451904296
 30
96.82027435302735
 10
-1000.0
 20
-6.985208511352539
 30
98.08223724365234
 10
-1000.0
 20
-6.279919624328613
 30
99.60047149658203
 10
999.9999389648436
 20
-6.569989681243896
 30
98.83584594726563
 10
999.9999389648436
 20
-10.25749206542968
 30
95.62442779541015
 10
999.9999389648436
 20
-8.738989830017089
 30
96.32913208007813
 10
999.9999389648436
 20
-7.476604461669921
 30
97.42853546142578
 10
-1000.0
 20
-6.56998586654663
 30
2.164192199707031
 10
-1000.0
 20
-7.476600170135498
 30
3.571498870849609
 10
-1000.0
 20
-8.738986015319824
 30
4.670902252197265
 10
-1000.0
 20
-10.25748825073242
 30
5.375602722167968
 10
999.9999389648436
 20
-6.279916286468505
 30
1.399562835693359
 10
999.9999389648436
 20
-6.985204696655273
 30
2.917793273925781
 10
999.9999389648436
 20
-8.085090637207031
 30
4.179756164550781
 10
999.9999389648436
 20
-9.492746353149414
 30
5.085830688476562
 10
-1000.0
 20
-15.10661888122558
 30
9.44219970703125
 10
-1000.0
 20
-17.58024978637695
 30
11.224609375
 10
-1000.0
 20
-19.49425506591797
 30
13.59795379638672
 10
-1000.0
 20
-20.71220970153809
 30
16.39311218261719
 10
-1000.0
 20
-21.14730072021484
 30
19.41090583801269
 10
-1000.0
 20
-20.76852798461914
 30
22.43627548217773
 10
-1000.0
 20
-19.60289764404297
 30
25.25362396240235
 10
-1000.0
 20
-17.73349952697754
 30
27.66219520568848
 10
999.9999389648436
 20
-20.28859329223633
 30
23.86353492736816
 10
999.9999389648436
 20
-18.76250839233398
 30
26.50302696228028
 10
999.9999389648436
 20
-21.06204605102539
 30
20.9143123626709
 10
999.9999389648436
 20
-21.02772331237793
 30
17.86552047729492
 10
999.9999389648436
 20
-13.6929874420166
 30
8.80645751953125
 10
999.9999389648436
 20
-16.38516616821289
 30
10.23754501342773
 10
999.9999389648436
 20
-18.60287857055664
 30
12.32989883422851
 10
999.9999389648436
 20
-20.18805694580078
 30
14.93442153930664
 10
-1000.0
 20
-18.76251220703125
 30
74.49700164794922
 10
-1000.0
 20
-20.28859519958496
 30
77.13649749755859
 10
-1000.0
 20
-21.06204986572266
 30
80.08572387695313
 10
-1000.0
 20
-21.02772521972656
 30
83.13451385498046
 10
-1000.0
 20
-20.18805503845215
 30
86.06561279296874
 10
-1000.0
 20
-18.60287857055664
 30
88.67013549804687
 10
-1000.0
 20
-16.38516998291015
 30
90.76248168945312
 10
-1000.0
 20
-13.69299221038818
 30
92.19357299804688
 10
999.9999389648436
 20
-20.76853561401367
 30
78.56375885009765
 10
999.9999389648436
 20
-21.14730453491211
 30
81.58912658691406
 10
999.9999389648436
 20
-20.71220970153809
 30
84.60691833496094
 10
999.9999389648436
 20
-19.4942569732666
 30
87.4020767211914
 10
999.9999389648436
 20
-19.60290145874023
 30
75.74640655517578
 10
999.9999389648436
 20
-17.73350524902344
 30
73.33783721923828
 10
999.9999389648436
 20
-17.58025360107422
 30
89.77542114257813
 10
999.9999389648436
 20
-15.10662364959717
 30
91.55783081054687
 10
-1000.0
 20
-15.13313102722168
 30
38.18180084228515
 10
-1000.0
 20
-13.15558815002441
 30
43.50924682617187
 10
-1000.0
 20
-12.29900169372558
 30
49.12694931030273
 10
-1000.0
 20
-12.59893417358398
 30
54.80167007446289
 10
-1000.0
 20
-14.04293251037598
 30
60.29777908325195
 10
-1000.0
 20
-16.57104682922363
 30
65.3870849609375
 10
999.9999389648436
 20
-16.57104682922363
 30
35.61295700073242
 10
999.9999389648436
 20
-14.04293346405029
 30
40.7022590637207
 10
999.9999389648436
 20
-12.59893417358398
 30
46.19836807250976
 10
999.9999389648436
 20
-12.29900169372558
 30
51.87308883666992
 10
999.9999389648436
 20
-13.15558815002441
 30
57.49079132080078
 10
999.9999389648436
 20
-15.13313484191894
 30
62.81824111938476
 93
     1056
 90
        4
 90
        1
 90
        0
 90
       65
 90
       66
 90
        4
 90
        0
 90
      131
 90
       67
 90
       65
 90
        4
 90
       48
 90
      130
 90
      127
 90
      132
 90
        4
 90
       47
 90
      129
 90
      126
 90
      135
 90
        4
 90
       46
 90
      128
 90
      125
 90
      134
 90
        4
 90
       45
 90
       44
 90
      123
 90
      133
 90
        4
 90
       44
 90
       43
 90
      120
 90
      123
 90
        4
 90
       43
 90
      167
 90
      118
 90
      120
 90
        4
 90
       42
 90
      166
 90
      116
 90
      175
 90
        4
 90
       41
 90
      165
 90
       73
 90
      174
 90
        4
 90
       40
 90
      164
 90
       72
 90
      171
 90
        4
 90
       39
 90
      163
 90
       71
 90
      170
 90
        4
 90
       38
 90
      162
 90
       68
 90
      169
 90
        4
 90
       37
 90
      161
 90
       79
 90
      168
 90
        4
 90
       36
 90
      160
 90
      115
 90
      172
 90
        4
 90
       35
 90
       34
 90
       77
 90
      173
 90
        4
 90
       34
 90
       33
 90
      114
 90
       77
 90
        4
 90
       33
 90
      181
 90
      113
 90
      114
 90
        4
 90
       32
 90
      180
 90
       89
 90
      187
 90
        4
 90
       31
 90
      179
 90
       88
 90
      186
 90
        4
 90
       30
 90
      178
 90
       87
 90
      185
 90
        4
 90
       29
 90
      177
 90
       86
 90
      184
 90
        4
 90
       28
 90
      176
 90
       85
 90
      183
 90
        4
 90
       27
 90
       26
 90
       84
 90
      182
 90
        4
 90
       26
 90
       25
 90
       83
 90
       84
 90
        4
 90
       25
 90
      151
 90
       82
 90
       83
 90
        4
 90
       24
 90
      150
 90
       80
 90
      153
 90
        4
 90
       23
 90
      149
 90
       91
 90
      152
 90
        4
 90
       22
 90
      148
 90
       93
 90
      154
 90
        4
 90
       21
 90
      147
 90
      112
 90
      155
 90
        4
 90
       20
 90
      146
 90
      110
 90
      159
 90
        4
 90
       19
 90
      145
 90
      108
 90
      158
 90
        4
 90
       18
 90
      144
 90
      105
 90
      157
 90
        4
 90
       17
 90
       16
 90
      103
 90
      156
 90
        4
 90
       16
 90
       15
 90
      102
 90
      103
 90
        4
 90
       15
 90
      139
 90
      100
 90
      102
 90
        4
 90
       14
 90
      138
 90
       99
 90
      143
 90
        4
 90
       13
 90
      137
 90
       98
 90
      142
 90
        4
 90
       12
 90
      136
 90
       97
 90
      141
 90
        4
 90
       11
 90
       10
 90
       96
 90
      140
 90
        4
 90
       10
 90
       49
 90
       95
 90
       96
 90
        4
 90
       49
 90
       63
 90
      101
 90
       95
 90
        4
 90
       63
 90
       62
 90
      106
 90
      101
 90
        4
 90
       62
 90
       61
 90
      104
 90
      106
 90
        4
 90
       61
 90
       60
 90
      109
 90
      104
 90
        4
 90
       60
 90
       59
 90
      107
 90
      109
 90
        4
 90
       59
 90
       58
 90
      111
 90
      107
 90
        4
 90
       58
 90
       57
 90
       94
 90
      111
 90
        4
 90
       57
 90
        9
 90
       92
 90
       94
 90
        4
 90
        9
 90
        8
 90
       90
 90
       92
 90
        4
 90
        8
 90
        7
 90
       81
 90
       90
 90
        4
 90
        7
 90
        6
 90
       78
 90
       81
 90
        4
 90
        6
 90
        5
 90
       76
 90
       78
 90
        4
 90
        5
 90
        4
 90
       75
 90
       76
 90
        4
 90
        4
 90
        3
 90
       70
 90
       75
 90
        4
 90
        3
 90
        2
 90
       69
 90
       70
 90
        4
 90
        2
 90
       56
 90
       74
 90
       69
 90
        4
 90
       56
 90
       55
 90
      117
 90
       74
 90
        4
 90
       55
 90
       54
 90
      121
 90
      117
 90
        4
 90
       54
 90
       53
 90
      119
 90
      121
 90
        4
 90
       53
 90
       52
 90
      124
 90
      119
 90
        4
 90
       52
 90
       51
 90
      122
 90
      124
 90
        4
 90
       51
 90
       50
 90
       64
 90
      122
 90
        4
 90
       50
 90
        1
 90
       66
 90
       64
 90
        4
 90
      131
 90
       48
 90
      132
 90
       67
 90
        4
 90
      130
 90
       47
 90
      135
 90
      127
 90
        4
 90
      129
 90
       46
 90
      134
 90
      126
 90
        4
 90
      128
 90
       45
 90
      133
 90
      125
 90
        4
 90
      139
 90
       14
 90
      143
 90
      100
 90
        4
 90
      138
 90
       13
 90
      142
 90
       99
 90
        4
 90
      137
 90
       12
 90
      141
 90
       98
 90
        4
 90
      136
 90
       11
 90
      140
 90
       97
 90
        4
 90
      151
 90
       24
 90
      153
 90
       82
 90
        4
 90
      150
 90
       23
 90
      152
 90
       80
 90
        4
 90
      149
 90
       22
 90
      154
 90
       91
 90
        4
 90
      148
 90
       21
 90
      155
 90
       93
 90
        4
 90
      147
 90
       20
 90
      159
 90
      112
 90
        4
 90
      146
 90
       19
 90
      158
 90
      110
 90
        4
 90
      145
 90
       18
 90
      157
 90
      108
 90
        4
 90
      144
 90
       17
 90
      156
 90
      105
 90
        4
 90
      167
 90
       42
 90
      175
 90
      118
 90
        4
 90
      166
 90
       41
 90
      174
 90
      116
 90
        4
 90
      165
 90
       40
 90
      171
 90
       73
 90
        4
 90
      164
 90
       39
 90
      170
 90
       72
 90
        4
 90
      163
 90
       38
 90
      169
 90
       71
 90
        4
 90
      162
 90
       37
 90
      168
 90
       68
 90
        4
 90
      161
 90
       36
 90
      172
 90
       79
 90
        4
 90
      160
 90
       35
 90
      173
 90
      115
 90
        4
 90
      181
 90
       32
 90
      187
 90
      113
 90
        4
 90
      180
 90
       31
 90
      186
 90
       89
 90
        4
 90
      179
 90
       30
 90
      185
 90
       88
 90
        4
 90
      178
 90
       29
 90
      184
 90
       87
 90
        4
 90
      177
 90
       28
 90
      183
 90
       86
 90
        4
 90
      176
 90
       27
 90
      182
 90
       85
 90
        4
 90
        1
 90
       50
 90
       51
 90
        0
 90
        4
 90
        5
 90
      181
 90
       33
 90
       34
 90
        3
 90
        5
 90
       32
 90
      181
 90
        4
 90
        6
 90
        7
 90
      151
 90
       25
 90
        4
 90
        6
 90
       25
 90
       26
 90
       27
 90
        3
 90
        5
 90
       31
 90
      180
 90
        3
 90
        5
 90
      180
 90
       32
 90
        3
 90
        5
 90
       30
 90
      179
 90
        3
 90
        5
 90
      179
 90
       31
 90
        3
 90
        6
 90
       27
 90
      176
 90
        3
 90
        6
 90
      176
 90
       28
 90
        3
 90
        6
 90
       28
 90
      177
 90
        3
 90
        6
 90
      177
 90
       29
 90
        3
 90
        6
 90
       29
 90
      178
 90
        4
 90
        5
 90
        6
 90
      178
 90
       30
 90
        5
 90
       62
 90
       63
 90
       49
 90
       10
 90
       11
 90
        3
 90
       62
 90
       11
 90
      136
 90
        3
 90
       62
 90
      136
 90
       12
 90
        3
 90
       60
 90
       15
 90
       16
 90
        4
 90
       60
 90
       61
 90
       14
 90
      139
 90
        3
 90
       60
 90
      139
 90
       15
 90
        3
 90
       61
 90
       13
 90
      138
 90
        3
 90
       61
 90
      138
 90
       14
 90
        4
 90
       61
 90
       62
 90
       12
 90
      137
 90
        3
 90
       61
 90
      137
 90
       13
 90
        4
 90
       51
 90
       52
 90
      130
 90
       48
 90
        3
 90
       51
 90
       48
 90
      131
 90
        3
 90
       52
 90
       46
 90
      129
 90
        3
 90
       52
 90
      129
 90
       47
 90
        4
 90
       52
 90
       53
 90
      128
 90
       46
 90
        4
 90
       53
 90
       43
 90
       44
 90
       45
 90
        4
 90
       53
 90
       54
 90
      167
 90
       43
 90
        3
 90
       51
 90
      131
 90
        0
 90
        3
 90
       53
 90
       45
 90
      128
 90
        3
 90
       52
 90
       47
 90
      130
 90
        4
 90
        4
 90
        5
 90
       34
 90
       35
 90
        3
 90
        4
 90
       35
 90
      160
 90
        4
 90
        3
 90
        4
 90
      160
 90
       36
 90
        3
 90
        3
 90
       36
 90
      161
 90
        3
 90
        2
 90
       37
 90
      162
 90
        4
 90
        2
 90
        3
 90
      161
 90
       37
 90
        3
 90
       54
 90
       42
 90
      167
 90
        4
 90
       54
 90
       55
 90
      166
 90
       42
 90
        4
 90
       55
 90
       56
 90
      165
 90
       41
 90
        3
 90
       55
 90
       41
 90
      166
 90
        3
 90
       56
 90
       40
 90
      165
 90
        3
 90
       56
 90
      164
 90
       40
 90
        4
 90
       56
 90
        2
 90
       39
 90
      164
 90
        3
 90
        2
 90
       38
 90
      163
 90
        3
 90
        2
 90
      163
 90
       39
 90
        3
 90
        2
 90
      162
 90
       38
 90
        3
 90
        7
 90
       24
 90
      151
 90
        4
 90
        7
 90
        8
 90
      150
 90
       24
 90
        3
 90
        8
 90
       23
 90
      150
 90
        4
 90
        8
 90
        9
 90
      149
 90
       23
 90
        3
 90
        9
 90
      148
 90
       22
 90
        3
 90
        9
 90
       22
 90
      149
 90
        3
 90
        9
 90
       21
 90
      148
 90
        4
 90
       59
 90
       60
 90
       16
 90
       17
 90
        3
 90
       59
 90
       17
 90
      144
 90
        4
 90
       58
 90
       59
 90
      144
 90
       18
 90
        3
 90
       58
 90
       18
 90
      145
 90
        4
 90
       57
 90
       58
 90
      145
 90
       19
 90
        3
 90
       57
 90
       19
 90
      146
 90
        3
 90
       57
 90
      146
 90
       20
 90
        4
 90
        9
 90
       57
 90
      147
 90
       21
 90
        3
 90
       57
 90
       20
 90
      147
 90
        4
 90
       66
 90
       65
 90
      122
 90
       64
 90
        4
 90
       76
 90
       77
 90
      114
 90
      113
 90
        3
 90
       76
 90
      113
 90
      187
 90
        4
 90
       78
 90
       83
 90
       82
 90
       81
 90
        4
 90
       78
 90
      182
 90
       84
 90
       83
 90
        3
 90
       76
 90
       89
 90
      186
 90
        3
 90
       76
 90
      187
 90
       89
 90
        3
 90
       76
 90
       88
 90
      185
 90
        3
 90
       76
 90
      186
 90
       88
 90
        3
 90
       78
 90
       85
 90
      182
 90
        3
 90
       78
 90
      183
 90
       85
 90
        3
 90
       78
 90
       86
 90
      183
 90
        3
 90
       78
 90
      184
 90
       86
 90
        3
 90
       78
 90
       87
 90
      184
 90
        4
 90
       76
 90
      185
 90
       87
 90
       78
 90
        5
 90
      106
 90
      140
 90
       96
 90
       95
 90
      101
 90
        3
 90
      106
 90
       97
 90
      140
 90
        3
 90
      106
 90
      141
 90
       97
 90
        3
 90
      109
 90
      103
 90
      102
 90
        4
 90
      109
 90
      100
 90
      143
 90
      104
 90
        3
 90
      109
 90
      102
 90
      100
 90
        3
 90
      104
 90
       99
 90
      142
 90
        3
 90
      104
 90
      143
 90
       99
 90
        4
 90
      104
 90
       98
 90
      141
 90
      106
 90
        3
 90
      104
 90
      142
 90
       98
 90
        4
 90
      122
 90
      132
 90
      127
 90
      124
 90
        3
 90
      122
 90
       67
 90
      132
 90
        3
 90
      124
 90
      126
 90
      134
 90
        3
 90
      124
 90
      135
 90
      126
 90
        4
 90
      124
 90
      134
 90
      125
 90
      119
 90
        4
 90
      119
 90
      133
 90
      123
 90
      120
 90
        4
 90
      119
 90
      120
 90
      118
 90
      121
 90
        3
 90
      122
 90
       65
 90
       67
 90
        3
 90
      119
 90
      125
 90
      133
 90
        3
 90
      124
 90
      127
 90
      135
 90
        4
 90
       75
 90
      173
 90
       77
 90
       76
 90
        3
 90
       75
 90
      115
 90
      173
 90
        4
 90
       70
 90
      172
 90
      115
 90
       75
 90
        3
 90
       70
 90
       79
 90
      172
 90
        3
 90
       69
 90
       68
 90
      168
 90
        4
 90
       69
 90
      168
 90
       79
 90
       70
 90
        3
 90
      121
 90
      118
 90
      175
 90
        4
 90
      121
 90
      175
 90
      116
 90
      117
 90
        4
 90
      117
 90
      174
 90
       73
 90
       74
 90
        3
 90
      117
 90
      116
 90
      174
 90
        3
 90
       74
 90
       73
 90
      171
 90
        3
 90
       74
 90
      171
 90
       72
 90
        4
 90
       74
 90
       72
 90
      170
 90
       69
 90
        3
 90
       69
 90
       71
 90
      169
 90
        3
 90
       69
 90
      170
 90
       71
 90
        3
 90
       69
 90
      169
 90
       68
 90
        3
 90
       81
 90
       82
 90
      153
 90
        4
 90
       81
 90
      153
 90
       80
 90
       90
 90
        3
 90
       90
 90
       80
 90
      152
 90
        4
 90
       90
 90
      152
 90
       91
 90
       92
 90
        3
 90
       92
 90
      154
 90
       93
 90
        3
 90
       92
 90
       91
 90
      154
 90
        3
 90
       92
 90
       93
 90
      155
 90
        4
 90
      107
 90
      156
 90
      103
 90
      109
 90
        3
 90
      107
 90
      105
 90
      156
 90
        4
 90
      111
 90
      157
 90
      105
 90
      107
 90
        3
 90
      111
 90
      108
 90
      157
 90
        4
 90
       94
 90
      158
 90
      108
 90
      111
 90
        3
 90
       94
 90
      110
 90
      158
 90
        3
 90
       94
 90
      159
 90
      110
 90
        4
 90
       92
 90
      155
 90
      112
 90
       94
 90
        3
 90
       94
 90
      112
 90
      159
 94
      414
 90
        0
 90
        1
 90
        0
 90
       65
 90
       65
 90
       66
 90
        1
 90
       66
 90
        0
 90
      131
 90
       67
 90
      131
 90
       65
 90
       67
 90
       48
 90
      130
 90
      127
 90
      130
 90
      127
 90
      132
 90
       48
 90
      132
 90
       47
 90
      129
 90
      126
 90
      129
 90
      126
 90
      135
 90
       47
 90
      135
 90
       46
 90
      128
 90
      125
 90
      128
 90
      125
 90
      134
 90
       46
 90
      134
 90
       44
 90
       45
 90
       44
 90
      123
 90
      123
 90
      133
 90
       45
 90
      133
 90
       43
 90
       44
 90
       43
 90
      120
 90
      120
 90
      123
 90
       43
 90
      167
 90
      118
 90
      167
 90
      118
 90
      120
 90
       42
 90
      166
 90
      116
 90
      166
 90
      116
 90
      175
 90
       42
 90
      175
 90
       41
 90
      165
 90
       73
 90
      165
 90
       73
 90
      174
 90
       41
 90
      174
 90
       40
 90
      164
 90
       72
 90
      164
 90
       72
 90
      171
 90
       40
 90
      171
 90
       39
 90
      163
 90
       71
 90
      163
 90
       71
 90
      170
 90
       39
 90
      170
 90
       38
 90
      162
 90
       68
 90
      162
 90
       68
 90
      169
 90
       38
 90
      169
 90
       37
 90
      161
 90
       79
 90
      161
 90
       79
 90
      168
 90
       37
 90
      168
 90
       36
 90
      160
 90
      115
 90
      160
 90
      115
 90
      172
 90
       36
 90
      172
 90
       34
 90
       35
 90
       34
 90
       77
 90
       77
 90
      173
 90
       35
 90
      173
 90
       33
 90
       34
 90
       33
 90
      114
 90
       77
 90
      114
 90
       33
 90
      181
 90
      113
 90
      181
 90
      113
 90
      114
 90
       32
 90
      180
 90
       89
 90
      180
 90
       89
 90
      187
 90
       32
 90
      187
 90
       31
 90
      179
 90
       88
 90
      179
 90
       88
 90
      186
 90
       31
 90
      186
 90
       30
 90
      178
 90
       87
 90
      178
 90
       87
 90
      185
 90
       30
 90
      185
 90
       29
 90
      177
 90
       86
 90
      177
 90
       86
 90
      184
 90
       29
 90
      184
 90
       28
 90
      176
 90
       85
 90
      176
 90
       85
 90
      183
 90
       28
 90
      183
 90
       26
 90
       27
 90
       26
 90
       84
 90
       84
 90
      182
 90
       27
 90
      182
 90
       25
 90
       26
 90
       25
 90
       83
 90
       83
 90
       84
 90
       25
 90
      151
 90
       82
 90
      151
 90
       82
 90
       83
 90
       24
 90
      150
 90
       80
 90
      150
 90
       80
 90
      153
 90
       24
 90
      153
 90
       23
 90
      149
 90
       91
 90
      149
 90
       91
 90
      152
 90
       23
 90
      152
 90
       22
 90
      148
 90
       93
 90
      148
 90
       93
 90
      154
 90
       22
 90
      154
 90
       21
 90
      147
 90
      112
 90
      147
 90
      112
 90
      155
 90
       21
 90
      155
 90
       20
 90
      146
 90
      110
 90
      146
 90
      110
 90
      159
 90
       20
 90
      159
 90
       19
 90
      145
 90
      108
 90
      145
 90
      108
 90
      158
 90
       19
 90
      158
 90
       18
 90
      144
 90
      105
 90
      144
 90
      105
 90
      157
 90
       18
 90
      157
 90
       16
 90
       17
 90
       16
 90
      103
 90
      103
 90
      156
 90
       17
 90
      156
 90
       15
 90
       16
 90
       15
 90
      102
 90
      102
 90
      103
 90
       15
 90
      139
 90
      100
 90
      139
 90
      100
 90
      102
 90
       14
 90
      138
 90
       99
 90
      138
 90
       99
 90
      143
 90
       14
 90
      143
 90
       13
 90
      137
 90
       98
 90
      137
 90
       98
 90
      142
 90
       13
 90
      142
 90
       12
 90
      136
 90
       97
 90
      136
 90
       97
 90
      141
 90
       12
 90
      141
 90
       10
 90
       11
 90
       10
 90
       96
 90
       96
 90
      140
 90
       11
 90
      140
 90
       10
 90
       49
 90
       49
 90
       95
 90
       95
 90
       96
 90
       49
 90
       63
 90
       63
 90
      101
 90
       95
 90
      101
 90
       62
 90
       63
 90
       62
 90
      106
 90
      101
 90
      106
 90
       61
 90
       62
 90
       61
 90
      104
 90
      104
 90
      106
 90
       60
 90
       61
 90
       60
 90
      109
 90
      104
 90
      109
 90
       59
 90
       60
 90
       59
 90
      107
 90
      107
 90
      109
 90
       58
 90
       59
 90
       58
 90
      111
 90
      107
 90
      111
 90
       57
 90
       58
 90
       57
 90
       94
 90
       94
 90
      111
 90
        9
 90
       57
 90
        9
 90
       92
 90
       92
 90
       94
 90
        8
 90
        9
 90
        8
 90
       90
 90
       90
 90
       92
 90
        7
 90
        8
 90
        7
 90
       81
 90
       81
 90
       90
 90
        6
 90
        7
 90
        6
 90
       78
 90
       78
 90
       81
 90
        5
 90
        6
 90
        5
 90
       76
 90
       76
 90
       78
 90
        4
 90
        5
 90
        4
 90
       75
 90
       75
 90
       76
 90
        3
 90
        4
 90
        3
 90
       70
 90
       70
 90
       75
 90
        2
 90
        3
 90
        2
 90
       69
 90
       69
 90
       70
 90
        2
 90
       56
 90
       56
 90
       74
 90
       69
 90
       74
 90
       55
 90
       56
 90
       55
 90
      117
 90
       74
 90
      117
 90
       54
 90
       55
 90
       54
 90
      121
 90
      117
 90
      121
 90
       53
 90
       54
 90
       53
 90
      119
 90
      119
 90
      121
 90
       52
 90
       53
 90
       52
 90
      124
 90
      119
 90
      124
 90
       51
 90
       52
 90
       51
 90
      122
 90
      122
 90
      124
 90
       50
 90
       51
 90
       50
 90
       64
 90
       64
 90
      122
 90
        1
 90
       50
 90
       64
 90
       66
 90
       48
 90
      131
 90
       67
 90
      132
 90
       47
 90
      130
 90
      127
 90
      135
 90
       46
 90
      129
 90
      126
 90
      134
 90
       45
 90
      128
 90
      125
 90
      133
 90
       14
 90
      139
 90
      100
 90
      143
 90
       13
 90
      138
 90
       99
 90
      142
 90
       12
 90
      137
 90
       98
 90
      141
 90
       11
 90
      136
 90
       97
 90
      140
 90
       24
 90
      151
 90
       82
 90
      153
 90
       23
 90
      150
 90
       80
 90
      152
 90
       22
 90
      149
 90
       91
 90
      154
 90
       21
 90
      148
 90
       93
 90
      155
 90
       20
 90
      147
 90
      112
 90
      159
 90
       19
 90
      146
 90
      110
 90
      158
 90
       18
 90
      145
 90
      108
 90
      157
 90
       17
 90
      144
 90
      105
 90
      156
 90
       42
 90
      167
 90
      118
 90
      175
 90
       41
 90
      166
 90
      116
 90
      174
 90
       40
 90
      165
 90
       73
 90
      171
 90
       39
 90
      164
 90
       72
 90
      170
 90
       38
 90
      163
 90
       71
 90
      169
 90
       37
 90
      162
 90
       68
 90
      168
 90
       36
 90
      161
 90
       79
 90
      172
 90
       35
 90
      160
 90
      115
 90
      173
 90
       32
 90
      181
 90
      113
 90
      187
 90
       31
 90
      180
 90
       89
 90
      186
 90
       30
 90
      179
 90
       88
 90
      185
 90
       29
 90
      178
 90
       87
 90
      184
 90
       28
 90
      177
 90
       86
 90
      183
 90
       27
 90
      176
 90
       85
 90
      182
 90
        0
 90
       51
 90
        5
 90
      181
 90
        5
 90
       34
 90
        5
 90
       32
 90
        7
 90
      151
 90
        6
 90
       25
 90
        6
 90
       27
 90
        5
 90
       31
 90
        5
 90
      180
 90
        5
 90
       30
 90
        5
 90
      179
 90
        6
 90
      176
 90
        6
 90
       28
 90
        6
 90
      177
 90
        6
 90
       29
 90
        6
 90
      178
 90
       11
 90
       62
 90
       62
 90
      136
 90
       12
 90
       62
 90
       15
 90
       60
 90
       16
 90
       60
 90
       14
 90
       61
 90
       60
 90
      139
 90
       13
 90
       61
 90
       61
 90
      138
 90
       61
 90
      137
 90
       52
 90
      130
 90
       48
 90
       51
 90
       51
 90
      131
 90
       46
 90
       52
 90
       52
 90
      129
 90
       47
 90
       52
 90
       53
 90
      128
 90
       43
 90
       53
 90
       45
 90
       53
 90
       54
 90
      167
 90
        4
 90
       35
 90
        4
 90
      160
 90
        3
 90
       36
 90
        3
 90
      161
 90
        2
 90
       37
 90
        2
 90
      162
 90
       42
 90
       54
 90
       55
 90
      166
 90
       56
 90
      165
 90
       41
 90
       55
 90
       40
 90
       56
 90
       56
 90
      164
 90
        2
 90
       39
 90
        2
 90
       38
 90
        2
 90
      163
 90
        7
 90
       24
 90
        8
 90
      150
 90
        8
 90
       23
 90
        9
 90
      149
 90
        9
 90
      148
 90
        9
 90
       22
 90
        9
 90
       21
 90
       17
 90
       59
 90
       59
 90
      144
 90
       18
 90
       58
 90
       58
 90
      145
 90
       19
 90
       57
 90
       57
 90
      146
 90
       20
 90
       57
 90
       57
 90
      147
 90
       65
 90
      122
 90
       76
 90
       77
 90
       76
 90
      113
 90
       76
 90
      187
 90
       78
 90
       83
 90
       81
 90
       82
 90
       78
 90
      182
 90
       76
 90
       89
 90
       76
 90
      186
 90
       76
 90
       88
 90
       76
 90
      185
 90
       78
 90
       85
 90
       78
 90
      183
 90
       78
 90
       86
 90
       78
 90
      184
 90
       78
 90
       87
 90
      106
 90
      140
 90
       97
 90
      106
 90
      106
 90
      141
 90
      103
 90
      109
 90
      102
 90
      109
 90
      100
 90
      109
 90
      104
 90
      143
 90
       99
 90
      104
 90
      104
 90
      142
 90
       98
 90
      104
 90
      122
 90
      132
 90
      124
 90
      127
 90
       67
 90
      122
 90
      124
 90
      126
 90
      124
 90
      134
 90
      124
 90
      135
 90
      119
 90
      125
 90
      119
 90
      133
 90
      119
 90
      120
 90
      118
 90
      121
 90
       75
 90
      173
 90
       75
 90
      115
 90
       70
 90
      172
 90
       70
 90
       79
 90
       68
 90
       69
 90
       69
 90
      168
 90
      121
 90
      175
 90
      116
 90
      117
 90
      117
 90
      174
 90
       73
 90
       74
 90
       74
 90
      171
 90
       72
 90
       74
 90
       69
 90
      170
 90
       69
 90
       71
 90
       69
 90
      169
 90
       81
 90
      153
 90
       80
 90
       90
 90
       90
 90
      152
 90
       91
 90
       92
 90
       92
 90
      154
 90
       92
 90
       93
 90
       92
 90
      155
 90
      107
 90
      156
 90
      105
 90
      107
 90
      111
 90
      157
 90
      108
 90
      111
 90
       94
 90
      158
 90
       94
 90
      110
 90
       94
 90
      159
 90
       94
 90
      112
 95
      414
140
0.0
140
0.0
140
0.0
140
0.0
140
0.0
140
0.0
140
0.0
140
0.0
140
0.0
140
0.0
140
0.0
140
0.0
140
0.0
140
0.0
140
0.0
140
0.0
140
0.0
140
0.0
140
0.0
140
0.0
140
0.0
140
0.0
140
0.0
140
0.0
140
0.0
140
0.0
140
0.0
140
0.0
140
0.0
140
0.0
140
0.0
140
0.0
140
0.0
140
0.0
140
0.0
140
0.0
140
0.0
140
0.0
140
0.0
140
0.0
140
0.0
140
0.0
140
0.0
140
0.0
140
0.0
140
0.0
140
0.0
140
0.0
140
0.0
140
0.0
140
0.0
140
0.0
140
0.0
140
0.0
140
0.0
140
0.0
140
0.0
140
0.0
140
0.0
140
0.0
140
0.0
140
0.0
140
0.0
140
0.0
140
0.0
140
0.0
140
0.0
140
0.0
140
0.0
140
0.0
140
0.0
140
0.0
140
0.0
140
0.0
140
0.0
140
0.0
140
0.0
140
0.0
140
0.0
140
0.0
140
0.0
140
0.0
140
0.0
140
0.0
140
0.0
140
0.0
140
0.0
140
0.0
140
0.0
140
0.0
140
0.0
140
0.0
140
0.0
140
0.0
140
0.0
140
0.0
140
0.0
140
0.0
140
0.0
140
0.0
140
0.0
140
0.0
140
0.0
140
0.0
140
0.0
140
0.0
140
0.0
140
0.0
140
0.0
140
0.0
140
0.0
140
0.0
140
0.0
140
0.0
140
0.0
140
0.0
140
0.0
140
0.0
140
0.0
140
0.0
140
0.0
140
0.0
140
0.0
140
0.0
140
0.0
140
0.0
140
0.0
140
0.0
140
0.0
140
0.0
140
0.0
140
0.0
140
0.0
140
0.0
140
0.0
140
0.0
140
0.0
140
0.0
140
0.0
140
0.0
140
0.0
140
0.0
140
0.0
140
0.0
140
0.0
140
0.0
140
0.0
140
0.0
140
0.0
140
0.0
140
0.0
140
0.0
140
0.0
140
0.0
140
0.0
140
0.0
140
0.0
140
0.0
140
0.0
140
0.0
140
0.0
140
0.0
140
0.0
140
0.0
140
0.0
140
0.0
140
0.0
140
0.0
140
0.0
140
0.0
140
0.0
140
0.0
140
0.0
140
0.0
140
0.0
140
0.0
140
0.0
140
0.0
140
0.0
140
0.0
140
0.0
140
0.0
140
0.0
140
0.0
140
0.0
140
0.0
140
0.0
140
0.0
140
0.0
140
0.0
140
0.0
140
0.0
140
0.0
140
0.0
140
0.0
140
0.0
140
0.0
140
0.0
140
0.0
140
0.0
140
0.0
140
0.0
140
0.0
140
0.0
140
0.0
140
0.0
140
0.0
140
0.0
140
0.0
140
0.0
140
0.0
140
0.0
140
0.0
140
0.0
140
0.0
140
0.0
140
0.0
140
0.0
140
0.0
140
0.0
140
0.0
140
0.0
140
0.0
140
0.0
140
0.0
140
0.0
140
0.0
140
0.0
140
0.0
140
0.0
140
0.0
140
0.0
140
0.0
140
0.0
140
0.0
140
0.0
140
0.0
140
0.0
140
0.0
140
0.0
140
0.0
140
0.0
140
0.0
140
0.0
140
0.0
140
0.0
140
0.0
140
0.0
140
0.0
140
0.0
140
0.0
140
0.0
140
0.0
140
0.0
140
0.0
140
0.0
140
0.0
140
0.0
140
0.0
140
0.0
140
0.0
140
0.0
140
0.0
140
0.0
140
0.0
140
0.0
140
0.0
140
0.0
140
0.0
140
0.0
140
0.0
140
0.0
140
0.0
140
0.0
140
0.0
140
0.0
140
0.0
140
0.0
140
0.0
140
0.0
140
0.0
140
0.0
140
0.0
140
0.0
140
0.0
140
0.0
140
0.0
140
0.0
140
0.0
140
0.0
140
0.0
140
0.0
140
0.0
140
0.0
140
0.0
140
0.0
140
0.0
140
0.0
140
0.0
140
0.0
140
0.0
140
0.0
140
0.0
140
0.0
140
0.0
140
0.0
140
0.0
140
0.0
140
0.0
140
0.0
140
0.0
140
0.0
140
0.0
140
0.0
140
0.0
140
0.0
140
0.0
140
0.0
140
0.0
140
0.0
140
0.0
140
0.0
140
0.0
140
0.0
140
0.0
140
0.0
140
0.0
140
0.0
140
0.0
140
0.0
140
0.0
140
0.0
140
0.0
140
0.0
140
0.0
140
0.0
140
0.0
140
0.0
140
0.0
140
0.0
140
0.0
140
0.0
140
0.0
140
0.0
140
0.0
140
0.0
140
0.0
140
0.0
140
0.0
140
0.0
140
0.0
140
0.0
140
0.0
140
0.0
140
0.0
140
0.0
140
0.0
140
0.0
140
0.0
140
0.0
140
0.0
140
0.0
140
0.0
140
0.0
140
0.0
140
0.0
140
0.0
140
0.0
140
0.0
140
0.0
140
0.0
140
0.0
140
0.0
140
0.0
140
0.0
140
0.0
140
0.0
140
0.0
140
0.0
140
0.0
140
0.0
140
0.0
140
0.0
140
0.0
140
0.0
140
0.0
140
0.0
140
0.0
140
0.0
140
0.0
140
0.0
140
0.0
140
0.0
140
0.0
140
0.0
140
0.0
140
0.0
140
0.0
140
0.0
140
0.0
140
0.0
140
0.0
140
0.0
140
0.0
140
0.0
140
0.0
140
0.0
140
0.0
140
0.0
140
0.0
140
0.0
140
0.0
140
0.0
140
0.0
 90
        0
  0
POLYLINE
  5
FA
330
1F
100
AcDbEntity
  8
OracDecor_panel_moldings
 62
   133
420
  5818337
100
AcDb2dPolyline
 66
     1
 10
0.0
 20
0.0
 30
-0.0000104349182948
 70
     1
210
-0.9999999999999769
220
0.0000001788139343
230
-0.0000001192092896
  0
VERTEX
  5
FB
330
FA
100
AcDbEntity
  8
OracDecor_panel_moldings
 62
   133
420
  5818337
100
AcDbVertex
100
AcDb2dVertex
 10
-0.0000298619252135
 20
101.000015258789
 30
-0.0000104349182948
  0
VERTEX
  5
FC
330
FA
100
AcDbEntity
  8
OracDecor_panel_moldings
 62
   133
420
  5818337
100
AcDbVertex
100
AcDb2dVertex
 10
-6.000029563903808
 20
100.8428955078125
 30
-0.0000104349182948
  0
VERTEX
  5
FD
330
FA
100
AcDbEntity
  8
OracDecor_panel_moldings
 62
   133
420
  5818337
100
AcDbVertex
100
AcDb2dVertex
 10
-6.279919624328613
 20
99.60047149658203
 30
-0.0000104349182948
  0
VERTEX
  5
FE
330
FA
100
AcDbEntity
  8
OracDecor_panel_moldings
 62
   133
420
  5818337
100
AcDbVertex
100
AcDb2dVertex
 10
-6.569989204406738
 20
98.83584594726563
 30
-0.0000104349182948
  0
VERTEX
  5
FF
330
FA
100
AcDbEntity
  8
OracDecor_panel_moldings
 62
   133
420
  5818337
100
AcDbVertex
100
AcDb2dVertex
 10
-6.985208511352539
 20
98.08223724365234
 30
-0.0000104349182948
  0
VERTEX
  5
100
330
FA
100
AcDbEntity
  8
OracDecor_panel_moldings
 62
   133
420
  5818337
100
AcDbVertex
100
AcDb2dVertex
 10
-7.476603984832763
 20
97.42853546142578
 30
-0.0000104349182948
  0
VERTEX
  5
101
330
FA
100
AcDbEntity
  8
OracDecor_panel_moldings
 62
   133
420
  5818337
100
AcDbVertex
100
AcDb2dVertex
 10
-8.085094451904296
 20
96.82027435302735
 30
-0.0000104349182948
  0
VERTEX
  5
102
330
FA
100
AcDbEntity
  8
OracDecor_panel_moldings
 62
   133
420
  5818337
100
AcDbVertex
100
AcDb2dVertex
 10
-8.738989830017089
 20
96.32913208007813
 30
-0.0000104349182948
  0
VERTEX
  5
103
330
FA
100
AcDbEntity
  8
OracDecor_panel_moldings
 62
   133
420
  5818337
100
AcDbVertex
100
AcDb2dVertex
 10
-9.492750167846679
 20
95.91419982910156
 30
-0.0000104349182948
  0
VERTEX
  5
104
330
FA
100
AcDbEntity
  8
OracDecor_panel_moldings
 62
   133
420
  5818337
100
AcDbVertex
100
AcDb2dVertex
 10
-10.25749206542968
 20
95.62442779541015
 30
-0.0000104349182948
  0
VERTEX
  5
105
330
FA
100
AcDbEntity
  8
OracDecor_panel_moldings
 62
   133
420
  5818337
100
AcDbVertex
100
AcDb2dVertex
 10
-11.50002956390381
 20
95.34501647949218
 30
-0.0000104349182948
  0
VERTEX
  5
106
330
FA
100
AcDbEntity
  8
OracDecor_panel_moldings
 62
   133
420
  5818337
100
AcDbVertex
100
AcDb2dVertex
 10
-11.50002956390381
 20
92.84501647949218
 30
-0.0000104349182948
  0
VERTEX
  5
107
330
FA
100
AcDbEntity
  8
OracDecor_panel_moldings
 62
   133
420
  5818337
100
AcDbVertex
100
AcDb2dVertex
 10
-13.69299221038818
 20
92.19357299804688
 30
-0.0000104349182948
  0
VERTEX
  5
108
330
FA
100
AcDbEntity
  8
OracDecor_panel_moldings
 62
   133
420
  5818337
100
AcDbVertex
100
AcDb2dVertex
 10
-15.10662364959717
 20
91.55783081054687
 30
-0.0000104349182948
  0
VERTEX
  5
109
330
FA
100
AcDbEntity
  8
OracDecor_panel_moldings
 62
   133
420
  5818337
100
AcDbVertex
100
AcDb2dVertex
 10
-16.38516998291015
 20
90.76248168945312
 30
-0.0000104349182948
  0
VERTEX
  5
10A
330
FA
100
AcDbEntity
  8
OracDecor_panel_moldings
 62
   133
420
  5818337
100
AcDbVertex
100
AcDb2dVertex
 10
-17.58025360107422
 20
89.77542114257813
 30
-0.0000104349182948
  0
VERTEX
  5
10B
330
FA
100
AcDbEntity
  8
OracDecor_panel_moldings
 62
   133
420
  5818337
100
AcDbVertex
100
AcDb2dVertex
 10
-18.60287857055664
 20
88.67013549804687
 30
-0.0000104349182948
  0
VERTEX
  5
10C
330
FA
100
AcDbEntity
  8
OracDecor_panel_moldings
 62
   133
420
  5818337
100
AcDbVertex
100
AcDb2dVertex
 10
-19.4942569732666
 20
87.4020767211914
 30
-0.0000104349182948
  0
VERTEX
  5
10D
330
FA
100
AcDbEntity
  8
OracDecor_panel_moldings
 62
   133
420
  5818337
100
AcDbVertex
100
AcDb2dVertex
 10
-20.18805503845215
 20
86.06561279296874
 30
-0.0000104349182948
  0
VERTEX
  5
10E
330
FA
100
AcDbEntity
  8
OracDecor_panel_moldings
 62
   133
420
  5818337
100
AcDbVertex
100
AcDb2dVertex
 10
-20.71220970153809
 20
84.60691833496094
 30
-0.0000104349182948
  0
VERTEX
  5
10F
330
FA
100
AcDbEntity
  8
OracDecor_panel_moldings
 62
   133
420
  5818337
100
AcDbVertex
100
AcDb2dVertex
 10
-21.02772521972656
 20
83.13451385498046
 30
-0.0000104349182948
  0
VERTEX
  5
110
330
FA
100
AcDbEntity
  8
OracDecor_panel_moldings
 62
   133
420
  5818337
100
AcDbVertex
100
AcDb2dVertex
 10
-21.14730453491211
 20
81.58912658691406
 30
-0.0000104349182948
  0
VERTEX
  5
111
330
FA
100
AcDbEntity
  8
OracDecor_panel_moldings
 62
   133
420
  5818337
100
AcDbVertex
100
AcDb2dVertex
 10
-21.06204986572266
 20
80.08572387695313
 30
-0.0000104349182948
  0
VERTEX
  5
112
330
FA
100
AcDbEntity
  8
OracDecor_panel_moldings
 62
   133
420
  5818337
100
AcDbVertex
100
AcDb2dVertex
 10
-20.76853370666504
 20
78.56375885009765
 30
-0.0000104349182948
  0
VERTEX
  5
113
330
FA
100
AcDbEntity
  8
OracDecor_panel_moldings
 62
   133
420
  5818337
100
AcDbVertex
100
AcDb2dVertex
 10
-20.28859519958496
 20
77.13649749755859
 30
-0.0000104349182948
  0
VERTEX
  5
114
330
FA
100
AcDbEntity
  8
OracDecor_panel_moldings
 62
   133
420
  5818337
100
AcDbVertex
100
AcDb2dVertex
 10
-19.60290145874023
 20
75.74640655517578
 30
-0.0000104349182948
  0
VERTEX
  5
115
330
FA
100
AcDbEntity
  8
OracDecor_panel_moldings
 62
   133
420
  5818337
100
AcDbVertex
100
AcDb2dVertex
 10
-18.76251220703125
 20
74.49700164794922
 30
-0.0000104349182948
  0
VERTEX
  5
116
330
FA
100
AcDbEntity
  8
OracDecor_panel_moldings
 62
   133
420
  5818337
100
AcDbVertex
100
AcDb2dVertex
 10
-17.7335033416748
 20
73.33783721923828
 30
-0.0000104349182948
  0
VERTEX
  5
117
330
FA
100
AcDbEntity
  8
OracDecor_panel_moldings
 62
   133
420
  5818337
100
AcDbVertex
100
AcDb2dVertex
 10
-16.00002861022949
 20
71.84501647949218
 30
-0.0000104349182948
  0
VERTEX
  5
118
330
FA
100
AcDbEntity
  8
OracDecor_panel_moldings
 62
   133
420
  5818337
100
AcDbVertex
100
AcDb2dVertex
 10
-19.00002861022949
 20
68.84501647949218
 30
-0.0000104349182948
  0
VERTEX
  5
119
330
FA
100
AcDbEntity
  8
OracDecor_panel_moldings
 62
   133
420
  5818337
100
AcDbVertex
100
AcDb2dVertex
 10
-16.57104682922363
 20
65.3870849609375
 30
-0.0000104349182948
  0
VERTEX
  5
11A
330
FA
100
AcDbEntity
  8
OracDecor_panel_moldings
 62
   133
420
  5818337
100
AcDbVertex
100
AcDb2dVertex
 10
-15.13313388824463
 20
62.81824111938476
 30
-0.0000104349182948
  0
VERTEX
  5
11B
330
FA
100
AcDbEntity
  8
OracDecor_panel_moldings
 62
   133
420
  5818337
100
AcDbVertex
100
AcDb2dVertex
 10
-14.04293251037598
 20
60.29777908325195
 30
-0.0000104349182948
  0
VERTEX
  5
11C
330
FA
100
AcDbEntity
  8
OracDecor_panel_moldings
 62
   133
420
  5818337
100
AcDbVertex
100
AcDb2dVertex
 10
-13.15558815002441
 20
57.49079132080078
 30
-0.0000104349182948
  0
VERTEX
  5
11D
330
FA
100
AcDbEntity
  8
OracDecor_panel_moldings
 62
   133
420
  5818337
100
AcDbVertex
100
AcDb2dVertex
 10
-12.59893417358398
 20
54.80167007446289
 30
-0.0000104349182948
  0
VERTEX
  5
11E
330
FA
100
AcDbEntity
  8
OracDecor_panel_moldings
 62
   133
420
  5818337
100
AcDbVertex
100
AcDb2dVertex
 10
-12.29900169372558
 20
51.87308883666992
 30
-0.0000104349182948
  0
VERTEX
  5
11F
330
FA
100
AcDbEntity
  8
OracDecor_panel_moldings
 62
   133
420
  5818337
100
AcDbVertex
100
AcDb2dVertex
 10
-12.29900169372558
 20
49.12694931030273
 30
-0.0000104349182948
  0
VERTEX
  5
120
330
FA
100
AcDbEntity
  8
OracDecor_panel_moldings
 62
   133
420
  5818337
100
AcDbVertex
100
AcDb2dVertex
 10
-12.59893417358398
 20
46.19836807250976
 30
-0.0000104349182948
  0
VERTEX
  5
121
330
FA
100
AcDbEntity
  8
OracDecor_panel_moldings
 62
   133
420
  5818337
100
AcDbVertex
100
AcDb2dVertex
 10
-13.15558815002441
 20
43.50924682617187
 30
-0.0000104349182948
  0
VERTEX
  5
122
330
FA
100
AcDbEntity
  8
OracDecor_panel_moldings
 62
   133
420
  5818337
100
AcDbVertex
100
AcDb2dVertex
 10
-14.04293346405029
 20
40.7022590637207
 30
-0.0000104349182948
  0
VERTEX
  5
123
330
FA
100
AcDbEntity
  8
OracDecor_panel_moldings
 62
   133
420
  5818337
100
AcDbVertex
100
AcDb2dVertex
 10
-15.13313102722168
 20
38.18180084228515
 30
-0.0000104349182948
  0
VERTEX
  5
124
330
FA
100
AcDbEntity
  8
OracDecor_panel_moldings
 62
   133
420
  5818337
100
AcDbVertex
100
AcDb2dVertex
 10
-16.57104682922363
 20
35.61295700073242
 30
-0.0000104349182948
  0
VERTEX
  5
125
330
FA
100
AcDbEntity
  8
OracDecor_panel_moldings
 62
   133
420
  5818337
100
AcDbVertex
100
AcDb2dVertex
 10
-19.00002861022949
 20
32.1550178527832
 30
-0.0000104349182948
  0
VERTEX
  5
126
330
FA
100
AcDbEntity
  8
OracDecor_panel_moldings
 62
   133
420
  5818337
100
AcDbVertex
100
AcDb2dVertex
 10
-16.00002670288086
 20
29.15501403808594
 30
-0.0000104349182948
  0
VERTEX
  5
127
330
FA
100
AcDbEntity
  8
OracDecor_panel_moldings
 62
   133
420
  5818337
100
AcDbVertex
100
AcDb2dVertex
 10
-17.73349952697754
 20
27.66219329833984
 30
-0.0000104349182948
  0
VERTEX
  5
128
330
FA
100
AcDbEntity
  8
OracDecor_panel_moldings
 62
   133
420
  5818337
100
AcDbVertex
100
AcDb2dVertex
 10
-18.76250839233398
 20
26.50302505493164
 30
-0.0000104349182948
  0
VERTEX
  5
129
330
FA
100
AcDbEntity
  8
OracDecor_panel_moldings
 62
   133
420
  5818337
100
AcDbVertex
100
AcDb2dVertex
 10
-19.60289764404297
 20
25.25362205505371
 30
-0.0000104349182948
  0
VERTEX
  5
12A
330
FA
100
AcDbEntity
  8
OracDecor_panel_moldings
 62
   133
420
  5818337
100
AcDbVertex
100
AcDb2dVertex
 10
-20.28859329223633
 20
23.86353302001953
 30
-0.0000104349182948
  0
VERTEX
  5
12B
330
FA
100
AcDbEntity
  8
OracDecor_panel_moldings
 62
   133
420
  5818337
100
AcDbVertex
100
AcDb2dVertex
 10
-20.76852798461914
 20
22.4362735748291
 30
-0.0000104349182948
  0
VERTEX
  5
12C
330
FA
100
AcDbEntity
  8
OracDecor_panel_moldings
 62
   133
420
  5818337
100
AcDbVertex
100
AcDb2dVertex
 10
-21.06204605102539
 20
20.91431045532226
 30
-0.0000104349182948
  0
VERTEX
  5
12D
330
FA
100
AcDbEntity
  8
OracDecor_panel_moldings
 62
   133
420
  5818337
100
AcDbVertex
100
AcDb2dVertex
 10
-21.14730072021484
 20
19.41090393066406
 30
-0.0000104349182948
  0
VERTEX
  5
12E
330
FA
100
AcDbEntity
  8
OracDecor_panel_moldings
 62
   133
420
  5818337
100
AcDbVertex
100
AcDb2dVertex
 10
-21.02772331237793
 20
17.86551666259765
 30
-0.0000104349182948
  0
VERTEX
  5
12F
330
FA
100
AcDbEntity
  8
OracDecor_panel_moldings
 62
   133
420
  5818337
100
AcDbVertex
100
AcDb2dVertex
 10
-20.71220970153809
 20
16.39311218261719
 30
-0.0000104349182948
  0
VERTEX
  5
130
330
FA
100
AcDbEntity
  8
OracDecor_panel_moldings
 62
   133
420
  5818337
100
AcDbVertex
100
AcDb2dVertex
 10
-20.18805694580078
 20
14.93442249298096
 30
-0.0000104349182948
  0
VERTEX
  5
131
330
FA
100
AcDbEntity
  8
OracDecor_panel_moldings
 62
   133
420
  5818337
100
AcDbVertex
100
AcDb2dVertex
 10
-19.49425506591797
 20
13.59795093536377
 30
-0.0000104349182948
  0
VERTEX
  5
132
330
FA
100
AcDbEntity
  8
OracDecor_panel_moldings
 62
   133
420
  5818337
100
AcDbVertex
100
AcDb2dVertex
 10
-18.602876663208
 20
12.32989597320556
 30
-0.0000104349182948
  0
VERTEX
  5
133
330
FA
100
AcDbEntity
  8
OracDecor_panel_moldings
 62
   133
420
  5818337
100
AcDbVertex
100
AcDb2dVertex
 10
-17.58024978637695
 20
11.22461032867431
 30
-0.0000104349182948
  0
VERTEX
  5
134
330
FA
100
AcDbEntity
  8
OracDecor_panel_moldings
 62
   133
420
  5818337
100
AcDbVertex
100
AcDb2dVertex
 10
-16.38516616821289
 20
10.23754596710205
 30
-0.0000104349182948
  0
VERTEX
  5
135
330
FA
100
AcDbEntity
  8
OracDecor_panel_moldings
 62
   133
420
  5818337
100
AcDbVertex
100
AcDb2dVertex
 10
-15.10661888122558
 20
9.442200660705566
 30
-0.0000104349182948
  0
VERTEX
  5
136
330
FA
100
AcDbEntity
  8
OracDecor_panel_moldings
 62
   133
420
  5818337
100
AcDbVertex
100
AcDb2dVertex
 10
-13.6929874420166
 20
8.806456565856933
 30
-0.0000104349182948
  0
VERTEX
  5
137
330
FA
100
AcDbEntity
  8
OracDecor_panel_moldings
 62
   133
420
  5818337
100
AcDbVertex
100
AcDb2dVertex
 10
-11.50002574920654
 20
8.155014991760253
 30
-0.0000104349182948
  0
VERTEX
  5
138
330
FA
100
AcDbEntity
  8
OracDecor_panel_moldings
 62
   133
420
  5818337
100
AcDbVertex
100
AcDb2dVertex
 10
-11.50002574920654
 20
5.655014991760253
 30
-0.0000104349182948
  0
VERTEX
  5
139
330
FA
100
AcDbEntity
  8
OracDecor_panel_moldings
 62
   133
420
  5818337
100
AcDbVertex
100
AcDb2dVertex
 10
-10.25748825073242
 20
5.375603675842285
 30
-0.0000104349182948
  0
VERTEX
  5
13A
330
FA
100
AcDbEntity
  8
OracDecor_panel_moldings
 62
   133
420
  5818337
100
AcDbVertex
100
AcDb2dVertex
 10
-9.492746353149414
 20
5.085828781127929
 30
-0.0000104349182948
  0
VERTEX
  5
13B
330
FA
100
AcDbEntity
  8
OracDecor_panel_moldings
 62
   133
420
  5818337
100
AcDbVertex
100
AcDb2dVertex
 10
-8.738986015319824
 20
4.670900344848632
 30
-0.0000104349182948
  0
VERTEX
  5
13C
330
FA
100
AcDbEntity
  8
OracDecor_panel_moldings
 62
   133
420
  5818337
100
AcDbVertex
100
AcDb2dVertex
 10
-8.085090637207031
 20
4.179756164550781
 30
-0.0000104349182948
  0
VERTEX
  5
13D
330
FA
100
AcDbEntity
  8
OracDecor_panel_moldings
 62
   133
420
  5818337
100
AcDbVertex
100
AcDb2dVertex
 10
-7.476600170135498
 20
3.571498870849609
 30
-0.0000104349182948
  0
VERTEX
  5
13E
330
FA
100
AcDbEntity
  8
OracDecor_panel_moldings
 62
   133
420
  5818337
100
AcDbVertex
100
AcDb2dVertex
 10
-6.985204219818115
 20
2.917792320251464
 30
-0.0000104349182948
  0
VERTEX
  5
13F
330
FA
100
AcDbEntity
  8
OracDecor_panel_moldings
 62
   133
420
  5818337
100
AcDbVertex
100
AcDb2dVertex
 10
-6.56998586654663
 20
2.164192199707031
 30
-0.0000104349182948
  0
VERTEX
  5
140
330
FA
100
AcDbEntity
  8
OracDecor_panel_moldings
 62
   133
420
  5818337
100
AcDbVertex
100
AcDb2dVertex
 10
-6.279915809631347
 20
1.39956247806549
 30
-0.0000104349182948
  0
VERTEX
  5
141
330
FA
100
AcDbEntity
  8
OracDecor_panel_moldings
 62
   133
420
  5818337
100
AcDbVertex
100
AcDb2dVertex
 10
-6.000024795532226
 20
0.1571327447891235
 30
-0.0000104349182948
  0
VERTEX
  5
142
330
FA
100
AcDbEntity
  8
OracDecor_panel_moldings
 62
   133
420
  5818337
100
AcDbVertex
100
AcDb2dVertex
 10
-0.0000235438346863
 20
0.0000176429730345
 30
-0.0000104349182948
  0
VERTEX
  5
143
330
FA
100
AcDbEntity
  8
OracDecor_panel_moldings
 62
   133
420
  5818337
100
AcDbVertex
100
AcDb2dVertex
 10
-0.000025749206543
 20
7.270853519439697
 30
-0.0000104349182948
  0
VERTEX
  5
144
330
FA
100
AcDbEntity
  8
OracDecor_panel_moldings
 62
   133
420
  5818337
100
AcDbVertex
100
AcDb2dVertex
 10
-0.6749792098999024
 20
7.636393070220947
 30
-0.0000104349182948
  0
VERTEX
  5
145
330
FA
100
AcDbEntity
  8
OracDecor_panel_moldings
 62
   133
420
  5818337
100
AcDbVertex
100
AcDb2dVertex
 10
-1.13630199432373
 20
8.249979019165039
 30
-0.0000104349182948
  0
VERTEX
  5
146
330
FA
100
AcDbEntity
  8
OracDecor_panel_moldings
 62
   133
420
  5818337
100
AcDbVertex
100
AcDb2dVertex
 10
-1.30001163482666
 20
9.000017166137695
 30
-0.0000104349182948
  0
VERTEX
  5
147
330
FA
100
AcDbEntity
  8
OracDecor_panel_moldings
 62
   133
420
  5818337
100
AcDbVertex
100
AcDb2dVertex
 10
-1.13630211353302
 20
9.750055313110351
 30
-0.0000104349182948
  0
VERTEX
  5
148
330
FA
100
AcDbEntity
  8
OracDecor_panel_moldings
 62
   133
420
  5818337
100
AcDbVertex
100
AcDb2dVertex
 10
-0.6749793291091919
 20
10.3636417388916
 30
-0.0000104349182948
  0
VERTEX
  5
149
330
FA
100
AcDbEntity
  8
OracDecor_panel_moldings
 62
   133
420
  5818337
100
AcDbVertex
100
AcDb2dVertex
 10
-0.0000259280204773
 20
10.72918128967285
 30
-0.0000104349182948
  0
VERTEX
  5
14A
330
FA
100
AcDbEntity
  8
OracDecor_panel_moldings
 62
   133
420
  5818337
100
AcDbVertex
100
AcDb2dVertex
 10
-0.0000243782997131
 20
20.0000171661377
 30
-0.0000104349182948
  0
VERTEX
  5
14B
330
FA
100
AcDbEntity
  8
OracDecor_panel_moldings
 62
   133
420
  5818337
100
AcDbVertex
100
AcDb2dVertex
 10
-2.121346473693847
 20
22.121337890625
 30
-0.0000104349182948
  0
VERTEX
  5
14C
330
FA
100
AcDbEntity
  8
OracDecor_panel_moldings
 62
   133
420
  5818337
100
AcDbVertex
100
AcDb2dVertex
 10
-2.771654367446899
 20
23.09461212158203
 30
-0.0000104349182948
  0
VERTEX
  5
14D
330
FA
100
AcDbEntity
  8
OracDecor_panel_moldings
 62
   133
420
  5818337
100
AcDbVertex
100
AcDb2dVertex
 10
-3.000025510787963
 20
24.2426586151123
 30
-0.0000104349182948
  0
VERTEX
  5
14E
330
FA
100
AcDbEntity
  8
OracDecor_panel_moldings
 62
   133
420
  5818337
100
AcDbVertex
100
AcDb2dVertex
 10
-3.000028848648071
 20
76.75737762451172
 30
-0.0000104349182948
  0
VERTEX
  5
14F
330
FA
100
AcDbEntity
  8
OracDecor_panel_moldings
 62
   133
420
  5818337
100
AcDbVertex
100
AcDb2dVertex
 10
-2.771655797958374
 20
77.90541839599609
 30
-0.0000104349182948
  0
VERTEX
  5
150
330
FA
100
AcDbEntity
  8
OracDecor_panel_moldings
 62
   133
420
  5818337
100
AcDbVertex
100
AcDb2dVertex
 10
-2.121347665786743
 20
78.87869262695312
 30
-0.0000104349182948
  0
VERTEX
  5
151
330
FA
100
AcDbEntity
  8
OracDecor_panel_moldings
 62
   133
420
  5818337
100
AcDbVertex
100
AcDb2dVertex
 10
-0.0000289678573608
 20
81.00001525878907
 30
-0.0000104349182948
  0
VERTEX
  5
152
330
FA
100
AcDbEntity
  8
OracDecor_panel_moldings
 62
   133
420
  5818337
100
AcDbVertex
100
AcDb2dVertex
 10
-0.0000293850880553
 20
90.27085113525391
 30
-0.0000104349182948
  0
VERTEX
  5
153
330
FA
100
AcDbEntity
  8
OracDecor_panel_moldings
 62
   133
420
  5818337
100
AcDbVertex
100
AcDb2dVertex
 10
-0.6749828457832337
 20
90.63639068603515
 30
-0.0000104349182948
  0
VERTEX
  5
154
330
FA
100
AcDbEntity
  8
OracDecor_panel_moldings
 62
   133
420
  5818337
100
AcDbVertex
100
AcDb2dVertex
 10
-1.13630473613739
 20
91.2499771118164
 30
-0.0000104349182948
  0
VERTEX
  5
155
330
FA
100
AcDbEntity
  8
OracDecor_panel_moldings
 62
   133
420
  5818337
100
AcDbVertex
100
AcDb2dVertex
 10
-1.300015330314636
 20
92.00001525878906
 30
-0.0000104349182948
  0
VERTEX
  5
156
330
FA
100
AcDbEntity
  8
OracDecor_panel_moldings
 62
   133
420
  5818337
100
AcDbVertex
100
AcDb2dVertex
 10
-1.136304855346679
 20
92.75005340576171
 30
-0.0000104349182948
  0
VERTEX
  5
157
330
FA
100
AcDbEntity
  8
OracDecor_panel_moldings
 62
   133
420
  5818337
100
AcDbVertex
100
AcDb2dVertex
 10
-0.6749829649925232
 20
93.36363983154297
 30
-0.0000104349182948
  0
VERTEX
  5
158
330
FA
100
AcDbEntity
  8
OracDecor_panel_moldings
 62
   133
420
  5818337
100
AcDbVertex
100
AcDb2dVertex
 10
-0.0000295042973448
 20
93.72917938232422
 30
-0.0000104349182948
  0
SEQEND
  5
159
330
FA
100
AcDbEntity
  8
OracDecor_panel_moldings
 62
   133
420
  5818337
  0
ENDSEC
  0
SECTION
  2
OBJECTS
  0
DICTIONARY
  5
C
330
0
100
AcDbDictionary
281
     1
  3
ACAD_COLOR
350
DC
  3
ACAD_DETAILVIEWSTYLE
350
F5
  3
ACAD_GROUP
350
D
  3
ACAD_LAYOUT
350
1A
  3
ACAD_MATERIAL
350
AA
  3
ACAD_MLEADERSTYLE
350
F1
  3
ACAD_MLINESTYLE
350
17
  3
ACAD_PLOTSETTINGS
350
19
  3
ACAD_PLOTSTYLENAME
350
E
  3
ACAD_SCALELIST
350
DF
  3
ACAD_SECTIONVIEWSTYLE
350
F3
  3
ACAD_TABLESTYLE
350
DD
  3
ACAD_VISUALSTYLE
350
C3
  3
ACDB_RECOMPOSE_DATA
350
166
  3
AcDbVariableDictionary
350
15A
  0
DICTIONARY
  5
DC
102
{ACAD_REACTORS
330
C
102
}
330
C
100
AcDbDictionary
281
     1
  0
DICTIONARY
  5
F5
102
{ACAD_REACTORS
330
C
102
}
330
C
100
AcDbDictionary
281
     1
  3
Imperial24
350
F6
  0
DICTIONARY
  5
D
102
{ACAD_REACTORS
330
C
102
}
330
C
100
AcDbDictionary
281
     1
  0
DICTIONARY
  5
1A
102
{ACAD_REACTORS
330
C
102
}
330
C
100
AcDbDictionary
281
     1
  3
Layout1
350
1E
  3
Layout2
350
26
  3
Model
350
22
  0
DICTIONARY
  5
AA
102
{ACAD_REACTORS
330
C
102
}
330
C
100
AcDbDictionary
281
     1
  3
ByBlock
350
B3
  3
ByLayer
350
AB
  3
Global
350
BB
  0
DICTIONARY
  5
F1
102
{ACAD_REACTORS
330
C
102
}
330
C
100
AcDbDictionary
281
     1
  3
Standard
350
F2
  0
DICTIONARY
  5
17
102
{ACAD_REACTORS
330
C
102
}
330
C
100
AcDbDictionary
281
     1
  3
Standard
350
18
  0
DICTIONARY
  5
19
102
{ACAD_REACTORS
330
C
102
}
330
C
100
AcDbDictionary
281
     1
  0
ACDBDICTIONARYWDFLT
  5
E
102
{ACAD_REACTORS
330
C
102
}
330
C
100
AcDbDictionary
281
     1
  3
ByLayer
350
2D
  3
Normal
350
F
100
AcDbDictionaryWithDefault
340
F
  0
DICTIONARY
  5
DF
102
{ACAD_REACTORS
330
C
102
}
330
C
100
AcDbDictionary
281
     1
  3
A0
350
E0
  3
A1
350
E1
  3
A2
350
E2
  3
A3
350
E3
  3
A4
350
E4
  3
A5
350
E5
  3
A6
350
E6
  3
A7
350
E7
  3
A8
350
E8
  3
A9
350
E9
  3
B0
350
EA
  3
B1
350
EB
  3
B2
350
EC
  3
B3
350
ED
  3
B4
350
EE
  3
B5
350
EF
  3
B6
350
F0
  0
DICTIONARY
  5
F3
102
{ACAD_REACTORS
330
C
102
}
330
C
100
AcDbDictionary
281
     1
  3
Imperial24
350
F4
  0
DICTIONARY
  5
DD
102
{ACAD_REACTORS
330
C
102
}
330
C
100
AcDbDictionary
281
     1
  3
Standard
350
DE
  0
DICTIONARY
  5
C3
102
{ACAD_REACTORS
330
C
102
}
330
C
100
AcDbDictionary
281
     1
  3
2dWireframe
350
C9
  3
Basic
350
C8
  3
Brighten
350
CF
  3
ColorChange
350
D3
  3
Conceptual
350
CC
  3
Dim
350
CE
  3
EdgeColorOff
350
DB
  3
Facepattern
350
D2
  3
Flat
350
C4
  3
FlatWithEdges
350
C5
  3
Gouraud
350
C6
  3
GouraudWithEdges
350
C7
  3
Hidden
350
CB
  3
JitterOff
350
D9
  3
Linepattern
350
D1
  3
OverhangOff
350
DA
  3
Realistic
350
CD
  3
Shaded
350
D8
  3
Shaded with edges
350
D7
  3
Shades of Gray
350
D4
  3
Sketchy
350
D5
  3
Thicken
350
D0
  3
Wireframe
350
CA
  3
X-Ray
350
D6
  0
XRECORD
  5
166
102
{ACAD_REACTORS
330
C
102
}
330
C
100
AcDbXrecord
280
     1
 90
        1
330
DE
  0
DICTIONARY
  5
15A
102
{ACAD_REACTORS
330
C
102
}
330
C
100
AcDbDictionary
281
     1
  3
CANNOSCALE
350
160
  3
CMLEADERSTYLE
350
15C
  3
CTABLESTYLE
350
15B
  3
CVIEWDETAILSTYLE
350
15D
  3
CVIEWSECTIONSTYLE
350
15E
  3
LAYEREVAL
350
162
  3
LAYERNOTIFY
350
163
  3
LIGHTINGUNITS
350
161
  3
MSLTSCALE
350
15F
  0
ACDBDETAILVIEWSTYLE
  5
F6
102
{ACAD_XDICTIONARY
360
19B
102
}
102
{ACAD_REACTORS
330
F5
102
}
330
F5
100
AcDbModelDocViewStyle
 70
     0
  3
Imperial24
290
     0
100
AcDbDetailViewStyle
 70
     0
 71
     0
 90
        3
 71
     1
340
11
 62
   256
 40
0.24
340
0
 62
   256
 40
0.24
300

 40
0.36
280
     3
 71
     2
340
16
 90
       25
 62
   256
 71
     3
340
11
 62
   256
 40
0.24
 90
        1
 40
0.75
 90
        1
300
%<\AcVar ViewType \f "%tc1">% %<\AcVar ViewDetailId>%\PSCALE %<\AcVar ViewScale \f "%sn">%
 71
     4
340
16
 90
       25
 62
   256
340
16
 90
       25
 62
   256
280
     0
  0
LAYOUT
  5
1E
102
{ACAD_REACTORS
330
1A
102
}
330
1A
100
AcDbPlotSettings
  1

  2
\\KTXNTBDC\CASF2PN1
  4

  6

 40
0.0
 41
0.0
 42
0.0
 43
0.0
 44
0.0
 45
0.0
 46
0.0
 47
0.0
 48
0.0
 49
0.0
140
0.0
141
0.0
142
1.0
143
1.0
 70
   688
 72
     0
 73
     0
 74
     5
  7

 75
    16
147
1.0
 76
     0
 77
     2
 78
   300
148
0.0
149
0.0
100
AcDbLayout
  1
Layout1
 70
     1
 71
     1
 10
0.0
 20
0.0
 11
12.0
 21
9.0
 12
0.0
 22
0.0
 32
0.0
 14
1.000000000000000E+20
 24
1.000000000000000E+20
 34
1.000000000000000E+20
 15
-1.000000000000000E+20
 25
-1.000000000000000E+20
 35
-1.000000000000000E+20
146
0.0
 13
0.0
 23
0.0
 33
0.0
 16
1.0
 26
0.0
 36
0.0
 17
0.0
 27
1.0
 37
0.0
 76
     0
330
1B
  0
LAYOUT
  5
26
102
{ACAD_REACTORS
330
1A
102
}
330
1A
100
AcDbPlotSettings
  1

  2
\\KTXNTBDC\CASF2PN1
  4

  6

 40
0.0
 41
0.0
 42
0.0
 43
0.0
 44
0.0
 45
0.0
 46
0.0
 47
0.0
 48
0.0
 49
0.0
140
0.0
141
0.0
142
1.0
143
1.0
 70
   688
 72
     0
 73
     0
 74
     5
  7

 75
    16
147
1.0
 76
     0
 77
     2
 78
   300
148
0.0
149
0.0
100
AcDbLayout
  1
Layout2
 70
     1
 71
     2
 10
0.0
 20
0.0
 11
12.0
 21
9.0
 12
0.0
 22
0.0
 32
0.0
 14
0.0
 24
0.0
 34
0.0
 15
0.0
 25
0.0
 35
0.0
146
0.0
 13
0.0
 23
0.0
 33
0.0
 16
1.0
 26
0.0
 36
0.0
 17
0.0
 27
1.0
 37
0.0
 76
     0
330
23
  0
LAYOUT
  5
22
102
{ACAD_REACTORS
330
1A
102
}
330
1A
100
AcDbPlotSettings
  1

  2
\\KTXNTBDC\CASF2PN1
  4

  6

 40
0.0
 41
0.0
 42
0.0
 43
0.0
 44
0.0
 45
0.0
 46
0.0
 47
0.0
 48
0.0
 49
0.0
140
0.0
141
0.0
142
1.0
143
1.0
 70
  1712
 72
     0
 73
     0
 74
     0
  7

 75
     0
147
1.0
 76
     0
 77
     2
 78
   300
148
0.0
149
0.0
100
AcDbLayout
  1
Model
 70
     1
 71
     0
 10
0.0
 20
0.0
 11
12.0
 21
9.0
 12
0.0
 22
0.0
 32
0.0
 14
0.0
 24
0.0
 34
0.0
 15
0.0
 25
0.0
 35
0.0
146
0.0
 13
0.0
 23
0.0
 33
0.0
 16
1.0
 26
0.0
 36
0.0
 17
0.0
 27
1.0
 37
0.0
 76
     0
330
1F
  0
MATERIAL
  5
B3
102
{ACAD_XDICTIONARY
360
B4
102
}
102
{ACAD_REACTORS
330
AA
102
}
330
AA
100
AcDbMaterial
  1
ByBlock
 72
     0
 43
0.0208333333333333
 43
0.0
 43
0.0
 43
0.0
 43
0.0
 43
0.0208333333333333
 43
0.0
 43
0.0
 43
0.0
 43
0.0
 43
1.0
 43
0.0
 43
0.0
 43
0.0
 43
0.0
 43
1.0
 77
     0
 47
0.0208333333333333
 47
0.0
 47
0.0
 47
0.0
 47
0.0
 47
0.0208333333333333
 47
0.0
 47
0.0
 47
0.0
 47
0.0
 47
1.0
 47
0.0
 47
0.0
 47
0.0
 47
0.0
 47
1.0
171
     0
 49
0.0208333333333333
 49
0.0
 49
0.0
 49
0.0
 49
0.0
 49
0.0208333333333333
 49
0.0
 49
0.0
 49
0.0
 49
0.0
 49
1.0
 49
0.0
 49
0.0
 49
0.0
 49
0.0
 49
1.0
175
     0
142
0.0208333333333333
142
0.0
142
0.0
142
0.0
142
0.0
142
0.0208333333333333
142
0.0
142
0.0
142
0.0
142
0.0
142
1.0
142
0.0
142
0.0
142
0.0
142
0.0
142
1.0
179
     0
144
0.0208333333333333
144
0.0
144
0.0
144
0.0
144
0.0
144
0.0208333333333333
144
0.0
144
0.0
144
0.0
144
0.0
144
1.0
144
0.0
144
0.0
144
0.0
144
0.0
144
1.0
147
0.0208333333333333
147
0.0
147
0.0
147
0.0
147
0.0
147
0.0208333333333333
147
0.0
147
0.0
147
0.0
147
0.0
147
1.0
147
0.0
147
0.0
147
0.0
147
0.0
147
1.0
  0
MATERIAL
  5
AB
102
{ACAD_XDICTIONARY
360
AC
102
}
102
{ACAD_REACTORS
330
AA
102
}
330
AA
100
AcDbMaterial
  1
ByLayer
 72
     0
 43
0.0208333333333333
 43
0.0
 43
0.0
 43
0.0
 43
0.0
 43
0.0208333333333333
 43
0.0
 43
0.0
 43
0.0
 43
0.0
 43
1.0
 43
0.0
 43
0.0
 43
0.0
 43
0.0
 43
1.0
 77
     0
 47
0.0208333333333333
 47
0.0
 47
0.0
 47
0.0
 47
0.0
 47
0.0208333333333333
 47
0.0
 47
0.0
 47
0.0
 47
0.0
 47
1.0
 47
0.0
 47
0.0
 47
0.0
 47
0.0
 47
1.0
171
     0
 49
0.0208333333333333
 49
0.0
 49
0.0
 49
0.0
 49
0.0
 49
0.0208333333333333
 49
0.0
 49
0.0
 49
0.0
 49
0.0
 49
1.0
 49
0.0
 49
0.0
 49
0.0
 49
0.0
 49
1.0
175
     0
142
0.0208333333333333
142
0.0
142
0.0
142
0.0
142
0.0
142
0.0208333333333333
142
0.0
142
0.0
142
0.0
142
0.0
142
1.0
142
0.0
142
0.0
142
0.0
142
0.0
142
1.0
179
     0
144
0.0208333333333333
144
0.0
144
0.0
144
0.0
144
0.0
144
0.0208333333333333
144
0.0
144
0.0
144
0.0
144
0.0
144
1.0
144
0.0
144
0.0
144
0.0
144
0.0
144
1.0
147
0.0208333333333333
147
0.0
147
0.0
147
0.0
147
0.0
147
0.0208333333333333
147
0.0
147
0.0
147
0.0
147
0.0
147
1.0
147
0.0
147
0.0
147
0.0
147
0.0
147
1.0
  0
MATERIAL
  5
BB
102
{ACAD_XDICTIONARY
360
BC
102
}
102
{ACAD_REACTORS
330
AA
102
}
330
AA
100
AcDbMaterial
  1
Global
 72
     0
 43
0.0208333333333333
 43
0.0
 43
0.0
 43
0.0
 43
0.0
 43
0.0208333333333333
 43
0.0
 43
0.0
 43
0.0
 43
0.0
 43
1.0
 43
0.0
 43
0.0
 43
0.0
 43
0.0
 43
1.0
 77
     0
 47
0.0208333333333333
 47
0.0
 47
0.0
 47
0.0
 47
0.0
 47
0.0208333333333333
 47
0.0
 47
0.0
 47
0.0
 47
0.0
 47
1.0
 47
0.0
 47
0.0
 47
0.0
 47
0.0
 47
1.0
171
     0
 49
0.0208333333333333
 49
0.0
 49
0.0
 49
0.0
 49
0.0
 49
0.0208333333333333
 49
0.0
 49
0.0
 49
0.0
 49
0.0
 49
1.0
 49
0.0
 49
0.0
 49
0.0
 49
0.0
 49
1.0
175
     0
142
0.0208333333333333
142
0.0
142
0.0
142
0.0
142
0.0
142
0.0208333333333333
142
0.0
142
0.0
142
0.0
142
0.0
142
1.0
142
0.0
142
0.0
142
0.0
142
0.0
142
1.0
179
     0
144
0.0208333333333333
144
0.0
144
0.0
144
0.0
144
0.0
144
0.0208333333333333
144
0.0
144
0.0
144
0.0
144
0.0
144
1.0
144
0.0
144
0.0
144
0.0
144
0.0
144
1.0
147
0.0208333333333333
147
0.0
147
0.0
147
0.0
147
0.0
147
0.0208333333333333
147
0.0
147
0.0
147
0.0
147
0.0
147
1.0
147
0.0
147
0.0
147
0.0
147
0.0
147
1.0
  0
MLEADERSTYLE
  5
F2
102
{ACAD_XDICTIONARY
360
197
102
}
102
{ACAD_REACTORS
330
F1
102
}
330
F1
100
AcDbMLeaderStyle
179
     2
170
     2
171
     1
172
     0
 90
        2
 40
0.0
 41
0.0
173
     1
 91
-1056964608
340
14
 92
       -2
290
     1
 42
0.09
291
     1
 43
0.36
  3
Standard
 44
0.18
300

342
11
174
     1
178
     6
175
     1
176
     0
 93
-1056964608
 45
0.18
292
     0
297
     0
 46
0.18
 94
-1056964608
 47
1.0
 49
1.0
140
1.0
293
     1
141
0.0
294
     1
177
     0
142
1.0
295
     0
296
     0
143
0.125
271
     0
272
     9
273
     9
  0
MLINESTYLE
  5
18
102
{ACAD_REACTORS
330
17
102
}
330
17
100
AcDbMlineStyle
  2
STANDARD
 70
     0
  3

 62
   256
 51
90.0
 52
90.0
 71
     2
 49
0.5
 62
   256
  6
BYLAYER
 49
-0.5
 62
   256
  6
BYLAYER
  0
ACDBPLACEHOLDER
  5
2D
102
{ACAD_REACTORS
330
E
102
}
330
E
  0
ACDBPLACEHOLDER
  5
F
102
{ACAD_REACTORS
330
E
102
}
330
E
  0
SCALE
  5
E0
102
{ACAD_REACTORS
330
DF
102
}
330
DF
100
AcDbScale
 70
     0
300
1:1
140
1.0
141
1.0
290
     1
  0
SCALE
  5
E1
102
{ACAD_REACTORS
330
DF
102
}
330
DF
100
AcDbScale
 70
     0
300
1/128" = 1'-0"
140
0.0078125
141
12.0
290
     0
  0
SCALE
  5
E2
102
{ACAD_REACTORS
330
DF
102
}
330
DF
100
AcDbScale
 70
     0
300
1/64" = 1'-0"
140
0.015625
141
12.0
290
     0
  0
SCALE
  5
E3
102
{ACAD_REACTORS
330
DF
102
}
330
DF
100
AcDbScale
 70
     0
300
1/32" = 1'-0"
140
0.03125
141
12.0
290
     0
  0
SCALE
  5
E4
102
{ACAD_REACTORS
330
DF
102
}
330
DF
100
AcDbScale
 70
     0
300
1/16" = 1'-0"
140
0.0625
141
12.0
290
     0
  0
SCALE
  5
E5
102
{ACAD_REACTORS
330
DF
102
}
330
DF
100
AcDbScale
 70
     0
300
3/32" = 1'-0"
140
0.09375
141
12.0
290
     0
  0
SCALE
  5
E6
102
{ACAD_REACTORS
330
DF
102
}
330
DF
100
AcDbScale
 70
     0
300
1/8" = 1'-0"
140
0.125
141
12.0
290
     0
  0
SCALE
  5
E7
102
{ACAD_REACTORS
330
DF
102
}
330
DF
100
AcDbScale
 70
     0
300
3/16" = 1'-0"
140
0.1875
141
12.0
290
     0
  0
SCALE
  5
E8
102
{ACAD_REACTORS
330
DF
102
}
330
DF
100
AcDbScale
 70
     0
300
1/4" = 1'-0"
140
0.25
141
12.0
290
     0
  0
SCALE
  5
E9
102
{ACAD_REACTORS
330
DF
102
}
330
DF
100
AcDbScale
 70
     0
300
3/8" = 1'-0"
140
0.375
141
12.0
290
     0
  0
SCALE
  5
EA
102
{ACAD_REACTORS
330
DF
102
}
330
DF
100
AcDbScale
 70
     0
300
1/2" = 1'-0"
140
0.5
141
12.0
290
     0
  0
SCALE
  5
EB
102
{ACAD_REACTORS
330
DF
102
}
330
DF
100
AcDbScale
 70
     0
300
3/4" = 1'-0"
140
0.75
141
12.0
290
     0
  0
SCALE
  5
EC
102
{ACAD_REACTORS
330
DF
102
}
330
DF
100
AcDbScale
 70
     0
300
1" = 1'-0"
140
1.0
141
12.0
290
     0
  0
SCALE
  5
ED
102
{ACAD_REACTORS
330
DF
102
}
330
DF
100
AcDbScale
 70
     0
300
1-1/2" = 1'-0"
140
1.5
141
12.0
290
     0
  0
SCALE
  5
EE
102
{ACAD_REACTORS
330
DF
102
}
330
DF
100
AcDbScale
 70
     0
300
3" = 1'-0"
140
3.0
141
12.0
290
     0
  0
SCALE
  5
EF
102
{ACAD_REACTORS
330
DF
102
}
330
DF
100
AcDbScale
 70
     0
300
6" = 1'-0"
140
6.0
141
12.0
290
     0
  0
SCALE
  5
F0
102
{ACAD_REACTORS
330
DF
102
}
330
DF
100
AcDbScale
 70
     0
300
1'-0" = 1'-0"
140
12.0
141
12.0
290
     0
  0
ACDBSECTIONVIEWSTYLE
  5
F4
102
{ACAD_XDICTIONARY
360
199
102
}
102
{ACAD_REACTORS
330
F3
102
}
330
F3
100
AcDbModelDocViewStyle
 70
     0
  3
Imperial24
290
     0
100
AcDbSectionViewStyle
 70
     0
 71
     0
 90
       78
 71
     1
340
11
 62
   256
 40
0.24
340
0
340
0
 62
   256
 40
0.24
300
I, O, Q, S, X, Z
 40
0.48
 90
        3
 40
0.18
 90
        1
 71
     2
340
16
 90
       25
 62
   256
340
16
 90
       50
 62
   256
 40
0.24
 40
0.0
 40
0.24
 71
     3
340
11
 62
   256
 40
0.24
 90
        1
 40
0.75
 90
        1
300
%<\AcVar ViewType \f "%tc1">% %<\AcVar ViewSectionStartId>%-%<\AcVar ViewSectionEndId>%\PSCALE %<\AcVar ViewScale \f "%sn">%
 71
     4
 62
   256
 62
   257
300
ANSI31
 40
1.0
 90
        0
290
     0
290
     0
 90
        6
 40
0.0
 40
1.570796326794896
 40
0.2617993877991494
 40
1.308996938995747
 40
-0.2617993877991494
 40
1.832595714594046
  0
TABLESTYLE
  5
DE
102
{ACAD_XDICTIONARY
360
164
102
}
102
{ACAD_REACTORS
330
DD
102
}
330
DD
100
AcDbTableStyle
280
     0
  3
Standard
 70
     0
 71
     0
 40
0.06
 41
0.06
280
     0
281
     0
  7
Standard
140
0.18
170
     2
 62
     0
 63
     7
283
     0
 90
      512
 91
        0
  1

274
    -2
284
     1
 64
     0
275
    -2
285
     1
 65
     0
276
    -2
286
     1
 66
     0
277
    -2
287
     1
 67
     0
278
    -2
288
     1
 68
     0
279
    -2
289
     1
 69
     0
  7
Standard
140
0.25
170
     5
 62
     0
 63
     7
283
     0
 90
      512
 91
        0
  1

274
    -2
284
     1
 64
     0
275
    -2
285
     1
 65
     0
276
    -2
286
     1
 66
     0
277
    -2
287
     1
 67
     0
278
    -2
288
     1
 68
     0
279
    -2
289
     1
 69
     0
  7
Standard
140
0.18
170
     5
 62
     0
 63
     7
283
     0
 90
      512
 91
        0
  1

274
    -2
284
     1
 64
     0
275
    -2
285
     1
 65
     0
276
    -2
286
     1
 66
     0
277
    -2
287
     1
 67
     0
278
    -2
288
     1
 68
     0
279
    -2
289
     1
 69
     0
  0
VISUALSTYLE
  5
C9
102
{ACAD_XDICTIONARY
360
171
102
}
102
{ACAD_REACTORS
330
C3
102
}
330
C3
100
AcDbVisualStyle
  2
2dWireframe
 70
     4
177
     2
291
     0
 71
     0
176
     1
 72
     2
176
     1
 73
     0
176
     1
 90
        0
176
     1
 40
0.6
176
     1
 41
30.0
176
     1
 63
     7
421
 16777215
176
     1
 74
     1
176
     1
 91
        4
176
     1
 64
     7
176
     1
 65
   257
176
     1
 75
     1
176
     1
175
     1
176
     1
 42
1.0
176
     1
 92
        0
176
     1
 66
   257
176
     1
 43
1.0
176
     1
 76
     1
176
     1
 77
     6
176
     1
 78
     2
176
     1
 67
     7
176
     1
 79
     5
176
     1
170
     0
176
     1
171
     0
176
     1
290
     0
176
     1
 93
        1
176
     1
 44
0.0
176
     1
173
     0
176
     1
1001
ACAD
1000
AcDbSavedByObjectVersion
1070
     0
  0
VISUALSTYLE
  5
C8
102
{ACAD_XDICTIONARY
360
16F
102
}
102
{ACAD_REACTORS
330
C3
102
}
330
C3
100
AcDbVisualStyle
  2
Basic
 70
     7
177
     2
291
     1
 71
     1
176
     1
 72
     0
176
     1
 73
     1
176
     1
 90
        0
176
     1
 40
0.6
176
     1
 41
30.0
176
     1
 63
     7
421
 16777215
176
     1
 74
     0
176
     1
 91
        4
176
     1
 64
     7
176
     1
 65
   257
176
     1
 75
     1
176
     1
175
     1
176
     1
 42
1.0
176
     1
 92
        8
176
     1
 66
     7
176
     1
 43
1.0
176
     1
 76
     1
176
     1
 77
     6
176
     1
 78
     2
176
     1
 67
     7
176
     1
 79
     5
176
     1
170
     0
176
     1
171
     0
176
     1
290
     0
176
     1
 93
        1
176
     1
 44
0.0
176
     1
173
     0
176
     1
1001
ACAD
1000
AcDbSavedByObjectVersion
1070
     0
  0
VISUALSTYLE
  5
CF
102
{ACAD_XDICTIONARY
360
17D
102
}
102
{ACAD_REACTORS
330
C3
102
}
330
C3
100
AcDbVisualStyle
  2
Brighten
 70
    12
177
     2
291
     1
 71
     2
176
     1
 72
     2
176
     1
 73
     0
176
     1
 90
        0
176
     1
 40
0.6
176
     1
 41
30.0
176
     1
 63
     7
421
 16777215
176
     1
 74
     1
176
     1
 91
        4
176
     1
 64
     7
176
     1
 65
   257
176
     1
 75
     1
176
     1
175
     1
176
     1
 42
1.0
176
     1
 92
        8
176
     1
 66
     7
176
     1
 43
1.0
176
     1
 76
     1
176
     1
 77
     6
176
     1
 78
     2
176
     1
 67
     7
176
     1
 79
     5
176
     1
170
     0
176
     1
171
     0
176
     1
290
     0
176
     1
 93
        1
176
     1
 44
50.0
176
     1
173
     0
176
     1
1001
ACAD
1000
AcDbSavedByObjectVersion
1070
     0
  0
VISUALSTYLE
  5
D3
102
{ACAD_XDICTIONARY
360
185
102
}
102
{ACAD_REACTORS
330
C3
102
}
330
C3
100
AcDbVisualStyle
  2
ColorChange
 70
    16
177
     2
291
     1
 71
     2
176
     1
 72
     2
176
     1
 73
     3
176
     1
 90
        0
176
     1
 40
0.6
176
     1
 41
30.0
176
     1
 63
     8
421
  8421504
176
     1
 74
     1
176
     1
 91
        4
176
     1
 64
     7
176
     1
 65
   257
176
     1
 75
     1
176
     1
175
     1
176
     1
 42
1.0
176
     1
 92
        8
176
     1
 66
     8
424
  8421504
176
     1
 43
1.0
176
     1
 76
     1
176
     1
 77
     6
176
     1
 78
     2
176
     1
 67
     7
176
     1
 79
     5
176
     1
170
     0
176
     1
171
     0
176
     1
290
     0
176
     1
 93
        1
176
     1
 44
0.0
176
     1
173
     0
176
     1
1001
ACAD
1000
AcDbSavedByObjectVersion
1070
     0
  0
VISUALSTYLE
  5
CC
102
{ACAD_XDICTIONARY
360
177
102
}
102
{ACAD_REACTORS
330
C3
102
}
330
C3
100
AcDbVisualStyle
  2
Conceptual
 70
     9
177
     2
291
     0
 71
     3
176
     1
 72
     2
176
     1
 73
     0
176
     1
 90
        0
176
     1
 40
0.6
176
     1
 41
30.0
176
     1
 63
     7
421
 16777215
176
     1
 74
     2
176
     1
 91
        2
176
     1
 64
     7
176
     1
 65
   257
176
     1
 75
     1
176
     1
175
     1
176
     1
 42
179.0
176
     1
 92
        8
176
     1
 66
     7
176
     1
 43
1.0
176
     1
 76
     1
176
     1
 77
     6
176
     1
 78
     2
176
     1
 67
     7
176
     1
 79
     3
176
     1
170
     0
176
     1
171
     0
176
     1
290
     0
176
     1
 93
        1
176
     1
 44
0.0
176
     1
173
     0
176
     1
1001
ACAD
1000
AcDbSavedByObjectVersion
1070
     0
  0
VISUALSTYLE
  5
CE
102
{ACAD_XDICTIONARY
360
17B
102
}
102
{ACAD_REACTORS
330
C3
102
}
330
C3
100
AcDbVisualStyle
  2
Dim
 70
    11
177
     2
291
     1
 71
     2
176
     1
 72
     2
176
     1
 73
     0
176
     1
 90
        0
176
     1
 40
0.6
176
     1
 41
30.0
176
     1
 63
     7
421
 16777215
176
     1
 74
     1
176
     1
 91
        4
176
     1
 64
     7
176
     1
 65
   257
176
     1
 75
     1
176
     1
175
     1
176
     1
 42
1.0
176
     1
 92
        8
176
     1
 66
     7
176
     1
 43
1.0
176
     1
 76
     1
176
     1
 77
     6
176
     1
 78
     2
176
     1
 67
     7
176
     1
 79
     5
176
     1
170
     0
176
     1
171
     0
176
     1
290
     0
176
     1
 93
        1
176
     1
 44
-50.0
176
     1
173
     0
176
     1
1001
ACAD
1000
AcDbSavedByObjectVersion
1070
     0
  0
VISUALSTYLE
  5
DB
102
{ACAD_XDICTIONARY
360
195
102
}
102
{ACAD_REACTORS
330
C3
102
}
330
C3
100
AcDbVisualStyle
  2
EdgeColorOff
 70
    22
177
     2
291
     1
 71
     2
176
     0
 72
     2
176
     0
 73
     0
176
     0
 90
        0
176
     0
 40
0.6
176
     0
 41
30.0
176
     0
 63
     7
421
 16777215
176
     0
 74
     1
176
     0
 91
        4
176
     0
 64
     7
176
     0
 65
   257
176
     0
 75
     1
176
     0
175
     1
176
     0
 42
1.0
176
     0
 92
        8
176
     2
 66
     7
176
     0
 43
1.0
176
     0
 76
     1
176
     0
 77
     6
176
     0
 78
     2
176
     0
 67
     7
176
     0
 79
     5
176
     0
170
     0
176
     0
171
     0
176
     0
290
     0
176
     0
 93
        1
176
     0
 44
0.0
176
     0
173
     0
176
     0
1001
ACAD
1000
AcDbSavedByObjectVersion
1070
     0
  0
VISUALSTYLE
  5
D2
102
{ACAD_XDICTIONARY
360
183
102
}
102
{ACAD_REACTORS
330
C3
102
}
330
C3
100
AcDbVisualStyle
  2
Facepattern
 70
    15
177
     2
291
     1
 71
     2
176
     1
 72
     2
176
     1
 73
     0
176
     1
 90
        0
176
     1
 40
0.6
176
     1
 41
30.0
176
     1
 63
     7
421
 16777215
176
     1
 74
     1
176
     1
 91
        4
176
     1
 64
     7
176
     1
 65
   257
176
     1
 75
     1
176
     1
175
     1
176
     1
 42
1.0
176
     1
 92
        8
176
     1
 66
     7
176
     1
 43
1.0
176
     1
 76
     1
176
     1
 77
     6
176
     1
 78
     2
176
     1
 67
     7
176
     1
 79
     5
176
     1
170
     0
176
     1
171
     0
176
     1
290
     0
176
     1
 93
        1
176
     1
 44
0.0
176
     1
173
     0
176
     1
1001
ACAD
1000
AcDbSavedByObjectVersion
1070
     0
  0
VISUALSTYLE
  5
C4
102
{ACAD_XDICTIONARY
360
167
102
}
102
{ACAD_REACTORS
330
C3
102
}
330
C3
100
AcDbVisualStyle
  2
Flat
 70
     0
177
     2
291
     1
 71
     2
176
     1
 72
     1
176
     1
 73
     1
176
     1
 90
        2
176
     1
 40
0.6
176
     1
 41
30.0
176
     1
 63
     7
421
 16777215
176
     1
 74
     0
176
     1
 91
        0
176
     1
 64
     7
176
     1
 65
   257
176
     1
 75
     1
176
     1
175
     1
176
     1
 42
1.0
176
     1
 92
        8
176
     1
 66
     7
176
     1
 43
1.0
176
     1
 76
     1
176
     1
 77
     6
176
     1
 78
     2
176
     1
 67
     7
176
     1
 79
     5
176
     1
170
     0
176
     1
171
     0
176
     1
290
     0
176
     1
 93
       13
176
     1
 44
0.0
176
     1
173
     0
176
     1
1001
ACAD
1000
AcDbSavedByObjectVersion
1070
     0
  0
VISUALSTYLE
  5
C5
102
{ACAD_XDICTIONARY
360
169
102
}
102
{ACAD_REACTORS
330
C3
102
}
330
C3
100
AcDbVisualStyle
  2
FlatWithEdges
 70
     1
177
     2
291
     1
 71
     2
176
     1
 72
     1
176
     1
 73
     1
176
     1
 90
        2
176
     1
 40
0.6
176
     1
 41
30.0
176
     1
 63
     7
421
 16777215
176
     1
 74
     1
176
     1
 91
        0
176
     1
 64
     7
176
     1
 65
   257
176
     1
 75
     1
176
     1
175
     1
176
     1
 42
1.0
176
     1
 92
        0
176
     1
 66
   257
176
     1
 43
1.0
176
     1
 76
     1
176
     1
 77
     6
176
     1
 78
     2
176
     1
 67
     7
176
     1
 79
     5
176
     1
170
     0
176
     1
171
     0
176
     1
290
     0
176
     1
 93
       13
176
     1
 44
0.0
176
     1
173
     0
176
     1
1001
ACAD
1000
AcDbSavedByObjectVersion
1070
     0
  0
VISUALSTYLE
  5
C6
102
{ACAD_XDICTIONARY
360
16B
102
}
102
{ACAD_REACTORS
330
C3
102
}
330
C3
100
AcDbVisualStyle
  2
Gouraud
 70
     2
177
     2
291
     1
 71
     2
176
     1
 72
     2
176
     1
 73
     1
176
     1
 90
        2
176
     1
 40
0.6
176
     1
 41
30.0
176
     1
 63
     7
421
 16777215
176
     1
 74
     0
176
     1
 91
        0
176
     1
 64
     7
176
     1
 65
   257
176
     1
 75
     1
176
     1
175
     1
176
     1
 42
1.0
176
     1
 92
        0
176
     1
 66
     7
176
     1
 43
1.0
176
     1
 76
     1
176
     1
 77
     6
176
     1
 78
     2
176
     1
 67
     7
176
     1
 79
     5
176
     1
170
     0
176
     1
171
     0
176
     1
290
     0
176
     1
 93
       13
176
     1
 44
0.0
176
     1
173
     0
176
     1
1001
ACAD
1000
AcDbSavedByObjectVersion
1070
     0
  0
VISUALSTYLE
  5
C7
102
{ACAD_XDICTIONARY
360
16D
102
}
102
{ACAD_REACTORS
330
C3
102
}
330
C3
100
AcDbVisualStyle
  2
GouraudWithEdges
 70
     3
177
     2
291
     1
 71
     2
176
     1
 72
     2
176
     1
 73
     1
176
     1
 90
        2
176
     1
 40
0.6
176
     1
 41
30.0
176
     1
 63
     7
421
 16777215
176
     1
 74
     1
176
     1
 91
        0
176
     1
 64
     7
176
     1
 65
   257
176
     1
 75
     1
176
     1
175
     1
176
     1
 42
1.0
176
     1
 92
        0
176
     1
 66
   257
176
     1
 43
1.0
176
     1
 76
     1
176
     1
 77
     6
176
     1
 78
     2
176
     1
 67
     7
176
     1
 79
     5
176
     1
170
     0
176
     1
171
     0
176
     1
290
     0
176
     1
 93
       13
176
     1
 44
0.0
176
     1
173
     0
176
     1
1001
ACAD
1000
AcDbSavedByObjectVersion
1070
     0
  0
VISUALSTYLE
  5
CB
102
{ACAD_XDICTIONARY
360
175
102
}
102
{ACAD_REACTORS
330
C3
102
}
330
C3
100
AcDbVisualStyle
  2
Hidden
 70
     6
177
     2
291
     0
 71
     1
176
     1
 72
     2
176
     1
 73
     2
176
     1
 90
        0
176
     1
 40
0.6
176
     1
 41
30.0
176
     1
 63
     7
421
 16777215
176
     1
 74
     2
176
     1
 91
        2
176
     1
 64
     7
176
     1
 65
   257
176
     1
 75
     2
176
     1
175
     1
176
     1
 42
40.0
176
     1
 92
        0
176
     1
 66
   257
176
     1
 43
1.0
176
     1
 76
     1
176
     1
 77
     6
176
     1
 78
     2
176
     1
 67
     7
176
     1
 79
     3
176
     1
170
     0
176
     1
171
     0
176
     1
290
     0
176
     1
 93
        1
176
     1
 44
0.0
176
     1
173
     0
176
     1
1001
ACAD
1000
AcDbSavedByObjectVersion
1070
     0
  0
VISUALSTYLE
  5
D9
102
{ACAD_XDICTIONARY
360
191
102
}
102
{ACAD_REACTORS
330
C3
102
}
330
C3
100
AcDbVisualStyle
  2
JitterOff
 70
    20
177
     2
291
     1
 71
     2
176
     0
 72
     2
176
     0
 73
     0
176
     0
 90
        0
176
     0
 40
0.6
176
     0
 41
30.0
176
     0
 63
     7
421
 16777215
176
     0
 74
     1
176
     0
 91
        4
176
     0
 64
     7
176
     0
 65
   257
176
     0
 75
     1
176
     0
175
     1
176
     0
 42
1.0
176
     0
 92
       10
176
     2
 66
     7
176
     0
 43
1.0
176
     0
 76
     1
176
     0
 77
     6
176
     0
 78
     2
176
     0
 67
     7
176
     0
 79
     5
176
     0
170
     0
176
     0
171
     0
176
     0
290
     0
176
     0
 93
        1
176
     0
 44
0.0
176
     0
173
     0
176
     0
1001
ACAD
1000
AcDbSavedByObjectVersion
1070
     0
  0
VISUALSTYLE
  5
D1
102
{ACAD_XDICTIONARY
360
181
102
}
102
{ACAD_REACTORS
330
C3
102
}
330
C3
100
AcDbVisualStyle
  2
Linepattern
 70
    14
177
     2
291
     1
 71
     2
176
     1
 72
     2
176
     1
 73
     0
176
     1
 90
        0
176
     1
 40
0.6
176
     1
 41
30.0
176
     1
 63
     7
421
 16777215
176
     1
 74
     1
176
     1
 91
        4
176
     1
 64
     7
176
     1
 65
   257
176
     1
 75
     7
176
     1
175
     7
176
     1
 42
1.0
176
     1
 92
        8
176
     1
 66
     7
176
     1
 43
1.0
176
     1
 76
     1
176
     1
 77
     6
176
     1
 78
     2
176
     1
 67
     7
176
     1
 79
     5
176
     1
170
     0
176
     1
171
     0
176
     1
290
     0
176
     1
 93
        1
176
     1
 44
0.0
176
     1
173
     0
176
     1
1001
ACAD
1000
AcDbSavedByObjectVersion
1070
     0
  0
VISUALSTYLE
  5
DA
102
{ACAD_XDICTIONARY
360
193
102
}
102
{ACAD_REACTORS
330
C3
102
}
330
C3
100
AcDbVisualStyle
  2
OverhangOff
 70
    21
177
     2
291
     1
 71
     2
176
     0
 72
     2
176
     0
 73
     0
176
     0
 90
        0
176
     0
 40
0.6
176
     0
 41
30.0
176
     0
 63
     7
421
 16777215
176
     0
 74
     1
176
     0
 91
        4
176
     0
 64
     7
176
     0
 65
   257
176
     0
 75
     1
176
     0
175
     1
176
     0
 42
1.0
176
     0
 92
        9
176
     2
 66
     7
176
     0
 43
1.0
176
     0
 76
     1
176
     0
 77
     6
176
     0
 78
     2
176
     0
 67
     7
176
     0
 79
     5
176
     0
170
     0
176
     0
171
     0
176
     0
290
     0
176
     0
 93
        1
176
     0
 44
0.0
176
     0
173
     0
176
     0
1001
ACAD
1000
AcDbSavedByObjectVersion
1070
     0
  0
VISUALSTYLE
  5
CD
102
{ACAD_XDICTIONARY
360
179
102
}
102
{ACAD_REACTORS
330
C3
102
}
330
C3
100
AcDbVisualStyle
  2
Realistic
 70
     8
177
     2
291
     0
 71
     2
176
     1
 72
     3
176
     1
 73
     0
176
     1
 90
        2
176
     1
 40
0.6
176
     1
 41
30.0
176
     1
 63
     7
421
 16777215
176
     1
 74
     0
176
     1
 91
        0
176
     1
 64
     7
176
     1
 65
   257
176
     1
 75
     1
176
     1
175
     1
176
     1
 42
1.0
176
     1
 92
        8
176
     1
 66
   257
176
     1
 43
1.0
176
     1
 76
     1
176
     1
 77
     6
176
     1
 78
     2
176
     1
 67
     7
176
     1
 79
     3
176
     1
170
     0
176
     1
171
     0
176
     1
290
     0
176
     1
 93
       13
176
     1
 44
0.0
176
     1
173
     0
176
     1
1001
ACAD
1000
AcDbSavedByObjectVersion
1070
     0
  0
VISUALSTYLE
  5
D8
102
{ACAD_XDICTIONARY
360
18F
102
}
102
{ACAD_REACTORS
330
C3
102
}
330
C3
100
AcDbVisualStyle
  2
Shaded
 70
    27
177
     2
291
     0
 71
     2
176
     1
 72
     2
176
     1
 73
     1
176
     1
 90
        2
176
     1
 40
0.6
176
     1
 41
30.0
176
     1
 63
     7
421
 16777215
176
     1
 74
     0
176
     1
 91
        4
176
     1
 64
     7
176
     1
 65
   257
176
     1
 75
     1
176
     1
175
     1
176
     1
 42
1.0
176
     1
 92
        8
176
     1
 66
   257
176
     1
 43
1.0
176
     1
 76
     1
176
     1
 77
     6
176
     1
 78
     2
176
     1
 67
     8
425
  7895160
176
     1
 79
     3
176
     1
170
     0
176
     1
171
     0
176
     1
290
     0
176
     1
 93
        5
176
     1
 44
0.0
176
     1
173
     0
176
     1
1001
ACAD
1000
AcDbSavedByObjectVersion
1070
     0
  0
VISUALSTYLE
  5
D7
102
{ACAD_XDICTIONARY
360
18D
102
}
102
{ACAD_REACTORS
330
C3
102
}
330
C3
100
AcDbVisualStyle
  2
Shaded with edges
 70
    26
177
     2
291
     0
 71
     2
176
     1
 72
     2
176
     1
 73
     1
176
     1
 90
        2
176
     1
 40
0.6
176
     1
 41
30.0
176
     1
 63
     7
421
 16777215
176
     1
 74
     1
176
     1
 91
       10
176
     1
 64
     7
176
     1
 65
   257
176
     1
 75
     2
176
     1
175
     1
176
     1
 42
1.0
176
     1
 92
        8
176
     1
 66
   257
176
     1
 43
1.0
176
     1
 76
     1
176
     1
 77
     6
176
     1
 78
     2
176
     1
 67
     7
176
     1
 79
     3
176
     1
170
     0
176
     1
171
     0
176
     1
290
     0
176
     1
 93
        5
176
     1
 44
0.0
176
     1
173
     0
176
     1
1001
ACAD
1000
AcDbSavedByObjectVersion
1070
     0
  0
VISUALSTYLE
  5
D4
102
{ACAD_XDICTIONARY
360
187
102
}
102
{ACAD_REACTORS
330
C3
102
}
330
C3
100
AcDbVisualStyle
  2
Shades of Gray
 70
    23
177
     2
291
     0
 71
     2
176
     1
 72
     2
176
     1
 73
     3
176
     1
 90
        0
176
     1
 40
0.6
176
     1
 41
30.0
176
     1
 63
     7
421
 16777215
176
     1
 74
     2
176
     1
 91
        2
176
     1
 64
     7
176
     1
 65
     7
176
     1
 75
     1
176
     1
175
     1
176
     1
 42
40.0
176
     1
 92
        8
176
     1
 66
     7
176
     1
 43
1.0
176
     1
 76
     1
176
     1
 77
     6
176
     1
 78
     2
176
     1
 67
     7
176
     1
 79
     3
176
     1
170
     0
176
     1
171
     0
176
     1
290
     0
176
     1
 93
        1
176
     1
 44
0.0
176
     1
173
     0
176
     1
1001
ACAD
1000
AcDbSavedByObjectVersion
1070
     0
  0
VISUALSTYLE
  5
D5
102
{ACAD_XDICTIONARY
360
189
102
}
102
{ACAD_REACTORS
330
C3
102
}
330
C3
100
AcDbVisualStyle
  2
Sketchy
 70
    24
177
     2
291
     0
 71
     1
176
     1
 72
     2
176
     1
 73
     2
176
     1
 90
        0
176
     1
 40
0.6
176
     1
 41
30.0
176
     1
 63
     7
421
 16777215
176
     1
 74
     2
176
     1
 91
        2
176
     1
 64
     7
176
     1
 65
     7
176
     1
 75
     1
176
     1
175
     1
176
     1
 42
40.0
176
     1
 92
       11
176
     1
 66
     7
176
     1
 43
1.0
176
     1
 76
     1
176
     1
 77
     6
176
     1
 78
     2
176
     1
 67
     7
176
     1
 79
     6
176
     1
170
     0
176
     1
171
     0
176
     1
290
     0
176
     1
 93
        1
176
     1
 44
0.0
176
     1
173
     0
176
     1
1001
ACAD
1000
AcDbSavedByObjectVersion
1070
     0
  0
VISUALSTYLE
  5
D0
102
{ACAD_XDICTIONARY
360
17F
102
}
102
{ACAD_REACTORS
330
C3
102
}
330
C3
100
AcDbVisualStyle
  2
Thicken
 70
    13
177
     2
291
     1
 71
     2
176
     1
 72
     2
176
     1
 73
     0
176
     1
 90
        0
176
     1
 40
0.6
176
     1
 41
30.0
176
     1
 63
     7
421
 16777215
176
     1
 74
     1
176
     1
 91
        4
176
     1
 64
     7
176
     1
 65
   257
176
     1
 75
     1
176
     1
175
     1
176
     1
 42
1.0
176
     1
 92
       12
176
     1
 66
     7
176
     1
 43
1.0
176
     1
 76
     1
176
     1
 77
     6
176
     1
 78
     2
176
     1
 67
     7
176
     1
 79
     5
176
     1
170
     0
176
     1
171
     0
176
     1
290
     0
176
     1
 93
        1
176
     1
 44
0.0
176
     1
173
     0
176
     1
1001
ACAD
1000
AcDbSavedByObjectVersion
1070
     0
  0
VISUALSTYLE
  5
CA
102
{ACAD_XDICTIONARY
360
173
102
}
102
{ACAD_REACTORS
330
C3
102
}
330
C3
100
AcDbVisualStyle
  2
Wireframe
 70
     5
177
     2
291
     0
 71
     0
176
     1
 72
     2
176
     1
 73
     0
176
     1
 90
        0
176
     1
 40
0.6
176
     1
 41
30.0
176
     1
 63
     7
421
 16777215
176
     1
 74
     1
176
     1
 91
        4
176
     1
 64
     7
176
     1
 65
   257
176
     1
 75
     1
176
     1
175
     1
176
     1
 42
1.0
176
     1
 92
        0
176
     1
 66
   257
176
     1
 43
1.0
176
     1
 76
     1
176
     1
 77
     6
176
     1
 78
     2
176
     1
 67
     7
176
     1
 79
     3
176
     1
170
     0
176
     1
171
     0
176
     1
290
     0
176
     1
 93
        1
176
     1
 44
0.0
176
     1
173
     0
176
     1
1001
ACAD
1000
AcDbSavedByObjectVersion
1070
     0
  0
VISUALSTYLE
  5
D6
102
{ACAD_XDICTIONARY
360
18B
102
}
102
{ACAD_REACTORS
330
C3
102
}
330
C3
100
AcDbVisualStyle
  2
X-Ray
 70
    25
177
     2
291
     0
 71
     2
176
     1
 72
     2
176
     1
 73
     1
176
     1
 90
        1
176
     1
 40
0.5
176
     1
 41
30.0
176
     1
 63
     7
421
 16777215
176
     1
 74
     1
176
     1
 91
        0
176
     1
 64
     7
176
     1
 65
   257
176
     1
 75
     1
176
     1
175
     1
176
     1
 42
1.0
176
     1
 92
        8
176
     1
 66
     7
176
     1
 43
1.0
176
     1
 76
     1
176
     1
 77
     6
176
     1
 78
     2
176
     1
 67
     7
176
     1
 79
     3
176
     1
170
     0
176
     1
171
     0
176
     1
290
     0
176
     1
 93
       13
176
     1
 44
0.0
176
     1
173
     0
176
     1
1001
ACAD
1000
AcDbSavedByObjectVersion
1070
     0
  0
DICTIONARYVAR
  5
160
102
{ACAD_REACTORS
330
15A
102
}
330
15A
100
DictionaryVariables
280
     0
  1
1:1
  0
DICTIONARYVAR
  5
15C
102
{ACAD_REACTORS
330
15A
102
}
330
15A
100
DictionaryVariables
280
     0
  1
STANDARD
  0
DICTIONARYVAR
  5
15B
102
{ACAD_REACTORS
330
15A
102
}
330
15A
100
DictionaryVariables
280
     0
  1
STANDARD
  0
DICTIONARYVAR
  5
15D
102
{ACAD_REACTORS
330
15A
102
}
330
15A
100
DictionaryVariables
280
     0
  1
Imperial24
  0
DICTIONARYVAR
  5
15E
102
{ACAD_REACTORS
330
15A
102
}
330
15A
100
DictionaryVariables
280
     0
  1
Imperial24
  0
DICTIONARYVAR
  5
162
102
{ACAD_REACTORS
330
15A
102
}
330
15A
100
DictionaryVariables
280
     0
  1
1
  0
DICTIONARYVAR
  5
163
102
{ACAD_REACTORS
330
15A
102
}
330
15A
100
DictionaryVariables
280
     0
  1
15
  0
DICTIONARYVAR
  5
161
102
{ACAD_REACTORS
330
15A
102
}
330
15A
100
DictionaryVariables
280
     0
  1
0
  0
DICTIONARYVAR
  5
15F
102
{ACAD_REACTORS
330
15A
102
}
330
15A
100
DictionaryVariables
280
     0
  1
0
  0
DICTIONARY
  5
19B
330
F6
100
AcDbDictionary
280
     1
281
     1
  3
ACAD_XREC_ROUNDTRIP
360
19C
  0
DICTIONARY
  5
B4
330
B3
100
AcDbDictionary
280
     1
281
     1
  3
BUMPTILE
360
B6
  3
DIFFUSETILE
360
B5
  3
OPACITYTILE
360
B9
  3
REFLECTIONTILE
360
B8
  3
REFRACTIONTILE
360
BA
  3
SPECULARTILE
360
B7
  0
DICTIONARY
  5
AC
330
AB
100
AcDbDictionary
280
     1
281
     1
  3
BUMPTILE
360
AE
  3
DIFFUSETILE
360
AD
  3
OPACITYTILE
360
B1
  3
REFLECTIONTILE
360
B0
  3
REFRACTIONTILE
360
B2
  3
SPECULARTILE
360
AF
  0
DICTIONARY
  5
BC
330
BB
100
AcDbDictionary
280
     1
281
     1
  3
BUMPTILE
360
BE
  3
DIFFUSETILE
360
BD
  3
OPACITYTILE
360
C1
  3
REFLECTIONTILE
360
C0
  3
REFRACTIONTILE
360
C2
  3
SPECULARTILE
360
BF
  0
DICTIONARY
  5
197
330
F2
100
AcDbDictionary
280
     1
281
     1
  3
ACAD_XREC_ROUNDTRIP
360
198
  0
DICTIONARY
  5
199
330
F4
100
AcDbDictionary
280
     1
281
     1
  3
ACAD_XREC_ROUNDTRIP
360
19A
  0
DICTIONARY
  5
164
330
DE
100
AcDbDictionary
280
     1
281
     1
  3
ACAD_ROUNDTRIP_2008_TABLESTYLE_CELLSTYLEMAP
360
165
  0
DICTIONARY
  5
171
330
C9
100
AcDbDictionary
280
     1
281
     1
  3
ACAD_XREC_ROUNDTRIP
360
172
  0
DICTIONARY
  5
16F
330
C8
100
AcDbDictionary
280
     1
281
     1
  3
ACAD_XREC_ROUNDTRIP
360
170
  0
DICTIONARY
  5
17D
330
CF
100
AcDbDictionary
280
     1
281
     1
  3
ACAD_XREC_ROUNDTRIP
360
17E
  0
DICTIONARY
  5
185
330
D3
100
AcDbDictionary
280
     1
281
     1
  3
ACAD_XREC_ROUNDTRIP
360
186
  0
DICTIONARY
  5
177
330
CC
100
AcDbDictionary
280
     1
281
     1
  3
ACAD_XREC_ROUNDTRIP
360
178
  0
DICTIONARY
  5
17B
330
CE
100
AcDbDictionary
280
     1
281
     1
  3
ACAD_XREC_ROUNDTRIP
360
17C
  0
DICTIONARY
  5
195
330
DB
100
AcDbDictionary
280
     1
281
     1
  3
ACAD_XREC_ROUNDTRIP
360
196
  0
DICTIONARY
  5
183
330
D2
100
AcDbDictionary
280
     1
281
     1
  3
ACAD_XREC_ROUNDTRIP
360
184
  0
DICTIONARY
  5
167
330
C4
100
AcDbDictionary
280
     1
281
     1
  3
ACAD_XREC_ROUNDTRIP
360
168
  0
DICTIONARY
  5
169
330
C5
100
AcDbDictionary
280
     1
281
     1
  3
ACAD_XREC_ROUNDTRIP
360
16A
  0
DICTIONARY
  5
16B
330
C6
100
AcDbDictionary
280
     1
281
     1
  3
ACAD_XREC_ROUNDTRIP
360
16C
  0
DICTIONARY
  5
16D
330
C7
100
AcDbDictionary
280
     1
281
     1
  3
ACAD_XREC_ROUNDTRIP
360
16E
  0
DICTIONARY
  5
175
330
CB
100
AcDbDictionary
280
     1
281
     1
  3
ACAD_XREC_ROUNDTRIP
360
176
  0
DICTIONARY
  5
191
330
D9
100
AcDbDictionary
280
     1
281
     1
  3
ACAD_XREC_ROUNDTRIP
360
192
  0
DICTIONARY
  5
181
330
D1
100
AcDbDictionary
280
     1
281
     1
  3
ACAD_XREC_ROUNDTRIP
360
182
  0
DICTIONARY
  5
193
330
DA
100
AcDbDictionary
280
     1
281
     1
  3
ACAD_XREC_ROUNDTRIP
360
194
  0
DICTIONARY
  5
179
330
CD
100
AcDbDictionary
280
     1
281
     1
  3
ACAD_XREC_ROUNDTRIP
360
17A
  0
DICTIONARY
  5
18F
330
D8
100
AcDbDictionary
280
     1
281
     1
  3
ACAD_XREC_ROUNDTRIP
360
190
  0
DICTIONARY
  5
18D
330
D7
100
AcDbDictionary
280
     1
281
     1
  3
ACAD_XREC_ROUNDTRIP
360
18E
  0
DICTIONARY
  5
187
330
D4
100
AcDbDictionary
280
     1
281
     1
  3
ACAD_XREC_ROUNDTRIP
360
188
  0
DICTIONARY
  5
189
330
D5
100
AcDbDictionary
280
     1
281
     1
  3
ACAD_XREC_ROUNDTRIP
360
18A
  0
DICTIONARY
  5
17F
330
D0
100
AcDbDictionary
280
     1
281
     1
  3
ACAD_XREC_ROUNDTRIP
360
180
  0
DICTIONARY
  5
173
330
CA
100
AcDbDictionary
280
     1
281
     1
  3
ACAD_XREC_ROUNDTRIP
360
174
  0
DICTIONARY
  5
18B
330
D6
100
AcDbDictionary
280
     1
281
     1
  3
ACAD_XREC_ROUNDTRIP
360
18C
  0
XRECORD
  5
19C
102
{ACAD_REACTORS
330
19B
102
}
330
19B
100
AcDbXrecord
280
     1
102
DISPLAYNAME
  1
Imperial24
102
FLAGS
 90
        0
  0
XRECORD
  5
B6
102
{ACAD_REACTORS
330
B4
102
}
330
B4
100
AcDbXrecord
280
     1
270
     1
271
     1
  0
XRECORD
  5
B5
102
{ACAD_REACTORS
330
B4
102
}
330
B4
100
AcDbXrecord
280
     1
270
     1
271
     1
  0
XRECORD
  5
B9
102
{ACAD_REACTORS
330
B4
102
}
330
B4
100
AcDbXrecord
280
     1
270
     1
271
     1
  0
XRECORD
  5
B8
102
{ACAD_REACTORS
330
B4
102
}
330
B4
100
AcDbXrecord
280
     1
270
     1
271
     1
  0
XRECORD
  5
BA
102
{ACAD_REACTORS
330
B4
102
}
330
B4
100
AcDbXrecord
280
     1
270
     1
271
     1
  0
XRECORD
  5
B7
102
{ACAD_REACTORS
330
B4
102
}
330
B4
100
AcDbXrecord
280
     1
270
     1
271
     1
  0
XRECORD
  5
AE
102
{ACAD_REACTORS
330
AC
102
}
330
AC
100
AcDbXrecord
280
     1
270
     1
271
     1
  0
XRECORD
  5
AD
102
{ACAD_REACTORS
330
AC
102
}
330
AC
100
AcDbXrecord
280
     1
270
     1
271
     1
  0
XRECORD
  5
B1
102
{ACAD_REACTORS
330
AC
102
}
330
AC
100
AcDbXrecord
280
     1
270
     1
271
     1
  0
XRECORD
  5
B0
102
{ACAD_REACTORS
330
AC
102
}
330
AC
100
AcDbXrecord
280
     1
270
     1
271
     1
  0
XRECORD
  5
B2
102
{ACAD_REACTORS
330
AC
102
}
330
AC
100
AcDbXrecord
280
     1
270
     1
271
     1
  0
XRECORD
  5
AF
102
{ACAD_REACTORS
330
AC
102
}
330
AC
100
AcDbXrecord
280
     1
270
     1
271
     1
  0
XRECORD
  5
BE
102
{ACAD_REACTORS
330
BC
102
}
330
BC
100
AcDbXrecord
280
     1
270
     1
271
     1
  0
XRECORD
  5
BD
102
{ACAD_REACTORS
330
BC
102
}
330
BC
100
AcDbXrecord
280
     1
270
     1
271
     1
  0
XRECORD
  5
C1
102
{ACAD_REACTORS
330
BC
102
}
330
BC
100
AcDbXrecord
280
     1
270
     1
271
     1
  0
XRECORD
  5
C0
102
{ACAD_REACTORS
330
BC
102
}
330
BC
100
AcDbXrecord
280
     1
270
     1
271
     1
  0
XRECORD
  5
C2
102
{ACAD_REACTORS
330
BC
102
}
330
BC
100
AcDbXrecord
280
     1
270
     1
271
     1
  0
XRECORD
  5
BF
102
{ACAD_REACTORS
330
BC
102
}
330
BC
100
AcDbXrecord
280
     1
270
     1
271
     1
  0
XRECORD
  5
198
102
{ACAD_REACTORS
330
197
102
}
330
197
100
AcDbXrecord
280
     1
102
ACAD_ROUNDTRIP_2012_MLEADER_STYLE
298
     1
  0
XRECORD
  5
19A
102
{ACAD_REACTORS
330
199
102
}
330
199
100
AcDbXrecord
280
     1
102
DISPLAYNAME
  1
Imperial24
102
FLAGS
 90
        0
  0
CELLSTYLEMAP
  5
165
102
{ACAD_REACTORS
330
164
102
}
330
164
100
AcDbCellStyleMap
 90
        3
300
CELLSTYLE
  1
TABLEFORMAT_BEGIN
 90
        5
170
     1
 91
        0
 92
    32768
 62
   257
 93
        1
300
CONTENTFORMAT
  1
CONTENTFORMAT_BEGIN
 90
        0
 91
        0
 92
      512
 93
        0
300

 40
0.0
140
1.0
 94
        5
 62
     0
340
11
144
0.25
309
CONTENTFORMAT_END
171
     0
 94
        0
309
TABLEFORMAT_END
  1
CELLSTYLE_BEGIN
 90
        1
 91
        1
300
_TITLE
309
CELLSTYLE_END
300
CELLSTYLE
  1
TABLEFORMAT_BEGIN
 90
        5
170
     1
 91
        0
 92
        0
 62
   257
 93
        1
300
CONTENTFORMAT
  1
CONTENTFORMAT_BEGIN
 90
        0
 91
        0
 92
      512
 93
        0
300

 40
0.0
140
1.0
 94
        5
 62
     0
340
11
144
0.18
309
CONTENTFORMAT_END
171
     0
 94
        0
309
TABLEFORMAT_END
  1
CELLSTYLE_BEGIN
 90
        2
 91
        1
300
_HEADER
309
CELLSTYLE_END
300
CELLSTYLE
  1
TABLEFORMAT_BEGIN
 90
        5
170
     1
 91
        0
 92
        0
 62
   257
 93
        1
300
CONTENTFORMAT
  1
CONTENTFORMAT_BEGIN
 90
        0
 91
        0
 92
      512
 93
        0
300

 40
0.0
140
1.0
 94
        2
 62
     0
340
11
144
0.18
309
CONTENTFORMAT_END
171
     0
 94
        0
309
TABLEFORMAT_END
  1
CELLSTYLE_BEGIN
 90
        3
 91
        2
300
_DATA
309
CELLSTYLE_END
  0
XRECORD
  5
172
102
{ACAD_REACTORS
330
171
102
}
330
171
100
AcDbXrecord
280
     1
102
RTVSPost2010Prop28
280
     1
102
RTVSPost2010PropOp28
 70
     1
102
RTVSPost2010Prop29
280
     1
102
RTVSPost2010PropOp29
 70
     1
102
RTVSPost2010Prop30
280
     0
102
RTVSPost2010PropOp30
 70
     1
102
RTVSPost2010Prop31
280
     0
102
RTVSPost2010PropOp31
 70
     1
102
RTVSPost2010Prop32
280
     0
102
RTVSPost2010PropOp32
 70
     1
102
RTVSPost2010Prop33
280
     0
102
RTVSPost2010PropOp33
 70
     1
102
RTVSPost2010Prop34
280
     0
102
RTVSPost2010PropOp34
 70
     1
102
RTVSPost2010Prop35
280
     0
102
RTVSPost2010PropOp35
 70
     1
102
RTVSPost2010Prop36
280
     0
102
RTVSPost2010PropOp36
 70
     1
102
RTVSPost2010Prop37
 90
       50
102
RTVSPost2010PropOp37
 70
     1
102
RTVSPost2010Prop38
140
0.0
102
RTVSPost2010PropOp38
 70
     1
102
RTVSPost2010Prop39
140
1.0
102
RTVSPost2010PropOp39
 70
     1
102
RTVSPost2010Prop40
 90
        0
102
RTVSPost2010PropOp40
 70
     1
102
RTVSPost2010Prop41ColorIndex
 90
       18
102
RTVSPost2010Prop41ColorRGB
 90
        0
102
RTVSPost2010PropOp41
 70
     1
102
RTVSPost2010Prop42
 90
       50
102
RTVSPost2010PropOp42
 70
     1
102
RTVSPost2010Prop43
 90
        3
102
RTVSPost2010PropOp43
 70
     1
102
RTVSPost2010Prop44ColorIndex
 90
        5
102
RTVSPost2010Prop44ColorRGB
 90
      255
102
RTVSPost2010PropOp44
 70
     1
102
RTVSPost2010Prop45
280
     0
102
RTVSPost2010PropOp45
 70
     1
102
RTVSPost2010Prop46
 90
       50
102
RTVSPost2010PropOp46
 70
     1
102
RTVSPost2010Prop47
 90
       50
102
RTVSPost2010PropOp47
 70
     1
102
RTVSPost2010Prop48
 90
       50
102
RTVSPost2010PropOp48
 70
     1
102
RTVSPost2010Prop49
280
     0
102
RTVSPost2010PropOp49
 70
     1
102
RTVSPost2010Prop50
 90
       50
102
RTVSPost2010PropOp50
 70
     1
102
RTVSPost2010Prop51ColorIndex
 90
      256
102
RTVSPost2010Prop51ColorRGB
 90
-16777216
102
RTVSPost2010PropOp51
 70
     0
102
RTVSPost2010Prop52
140
1.0
102
RTVSPost2010PropOp52
 70
     0
102
RTVSPost2010Prop53
 90
        2
102
RTVSPost2010PropOp53
 70
     1
102
RTVSPost2010Prop54
  1
strokes_ogs.tif
102
RTVSPost2010PropOp54
 70
     1
102
RTVSPost2010Prop55
280
     0
102
RTVSPost2010PropOp55
 70
     1
102
RTVSPost2010Prop56
140
1.0
102
RTVSPost2010PropOp56
 70
     1
102
RTVSPost2010Prop57
140
1.0
102
RTVSPost2010PropOp57
 70
     1
  0
XRECORD
  5
170
102
{ACAD_REACTORS
330
16F
102
}
330
16F
100
AcDbXrecord
280
     1
102
RTVSPost2010Prop28
280
     0
102
RTVSPost2010PropOp28
 70
     1
102
RTVSPost2010Prop29
280
     1
102
RTVSPost2010PropOp29
 70
     1
102
RTVSPost2010Prop30
280
     1
102
RTVSPost2010PropOp30
 70
     1
102
RTVSPost2010Prop31
280
     0
102
RTVSPost2010PropOp31
 70
     1
102
RTVSPost2010Prop32
280
     0
102
RTVSPost2010PropOp32
 70
     1
102
RTVSPost2010Prop33
280
     0
102
RTVSPost2010PropOp33
 70
     1
102
RTVSPost2010Prop34
280
     0
102
RTVSPost2010PropOp34
 70
     1
102
RTVSPost2010Prop35
280
     0
102
RTVSPost2010PropOp35
 70
     1
102
RTVSPost2010Prop36
280
     0
102
RTVSPost2010PropOp36
 70
     1
102
RTVSPost2010Prop37
 90
       50
102
RTVSPost2010PropOp37
 70
     1
102
RTVSPost2010Prop38
140
0.0
102
RTVSPost2010PropOp38
 70
     1
102
RTVSPost2010Prop39
140
1.0
102
RTVSPost2010PropOp39
 70
     1
102
RTVSPost2010Prop40
 90
        0
102
RTVSPost2010PropOp40
 70
     1
102
RTVSPost2010Prop41ColorIndex
 90
       18
102
RTVSPost2010Prop41ColorRGB
 90
        0
102
RTVSPost2010PropOp41
 70
     1
102
RTVSPost2010Prop42
 90
       50
102
RTVSPost2010PropOp42
 70
     1
102
RTVSPost2010Prop43
 90
        3
102
RTVSPost2010PropOp43
 70
     1
102
RTVSPost2010Prop44ColorIndex
 90
        5
102
RTVSPost2010Prop44ColorRGB
 90
      255
102
RTVSPost2010PropOp44
 70
     1
102
RTVSPost2010Prop45
280
     0
102
RTVSPost2010PropOp45
 70
     1
102
RTVSPost2010Prop46
 90
       50
102
RTVSPost2010PropOp46
 70
     1
102
RTVSPost2010Prop47
 90
       50
102
RTVSPost2010PropOp47
 70
     1
102
RTVSPost2010Prop48
 90
       50
102
RTVSPost2010PropOp48
 70
     1
102
RTVSPost2010Prop49
280
     0
102
RTVSPost2010PropOp49
 70
     1
102
RTVSPost2010Prop50
 90
       50
102
RTVSPost2010PropOp50
 70
     1
102
RTVSPost2010Prop51ColorIndex
 90
      256
102
RTVSPost2010Prop51ColorRGB
 90
-16777216
102
RTVSPost2010PropOp51
 70
     0
102
RTVSPost2010Prop52
140
1.0
102
RTVSPost2010PropOp52
 70
     0
102
RTVSPost2010Prop53
 90
        2
102
RTVSPost2010PropOp53
 70
     1
102
RTVSPost2010Prop54
  1
strokes_ogs.tif
102
RTVSPost2010PropOp54
 70
     1
102
RTVSPost2010Prop55
280
     0
102
RTVSPost2010PropOp55
 70
     1
102
RTVSPost2010Prop56
140
1.0
102
RTVSPost2010PropOp56
 70
     1
102
RTVSPost2010Prop57
140
1.0
102
RTVSPost2010PropOp57
 70
     1
  0
XRECORD
  5
17E
102
{ACAD_REACTORS
330
17D
102
}
330
17D
100
AcDbXrecord
280
     1
102
RTVSPost2010Prop28
280
     0
102
RTVSPost2010PropOp28
 70
     1
102
RTVSPost2010Prop29
280
     1
102
RTVSPost2010PropOp29
 70
     1
102
RTVSPost2010Prop30
280
     1
102
RTVSPost2010PropOp30
 70
     1
102
RTVSPost2010Prop31
280
     0
102
RTVSPost2010PropOp31
 70
     1
102
RTVSPost2010Prop32
280
     0
102
RTVSPost2010PropOp32
 70
     1
102
RTVSPost2010Prop33
280
     0
102
RTVSPost2010PropOp33
 70
     1
102
RTVSPost2010Prop34
280
     0
102
RTVSPost2010PropOp34
 70
     1
102
RTVSPost2010Prop35
280
     0
102
RTVSPost2010PropOp35
 70
     1
102
RTVSPost2010Prop36
280
     0
102
RTVSPost2010PropOp36
 70
     1
102
RTVSPost2010Prop37
 90
       50
102
RTVSPost2010PropOp37
 70
     1
102
RTVSPost2010Prop38
140
0.0
102
RTVSPost2010PropOp38
 70
     1
102
RTVSPost2010Prop39
140
1.0
102
RTVSPost2010PropOp39
 70
     1
102
RTVSPost2010Prop40
 90
        0
102
RTVSPost2010PropOp40
 70
     1
102
RTVSPost2010Prop41ColorIndex
 90
       18
102
RTVSPost2010Prop41ColorRGB
 90
        0
102
RTVSPost2010PropOp41
 70
     1
102
RTVSPost2010Prop42
 90
       50
102
RTVSPost2010PropOp42
 70
     1
102
RTVSPost2010Prop43
 90
        3
102
RTVSPost2010PropOp43
 70
     1
102
RTVSPost2010Prop44ColorIndex
 90
        5
102
RTVSPost2010Prop44ColorRGB
 90
      255
102
RTVSPost2010PropOp44
 70
     1
102
RTVSPost2010Prop45
280
     0
102
RTVSPost2010PropOp45
 70
     1
102
RTVSPost2010Prop46
 90
       50
102
RTVSPost2010PropOp46
 70
     1
102
RTVSPost2010Prop47
 90
       50
102
RTVSPost2010PropOp47
 70
     1
102
RTVSPost2010Prop48
 90
       50
102
RTVSPost2010PropOp48
 70
     1
102
RTVSPost2010Prop49
280
     0
102
RTVSPost2010PropOp49
 70
     1
102
RTVSPost2010Prop50
 90
       50
102
RTVSPost2010PropOp50
 70
     1
102
RTVSPost2010Prop51ColorIndex
 90
      256
102
RTVSPost2010Prop51ColorRGB
 90
-16777216
102
RTVSPost2010PropOp51
 70
     0
102
RTVSPost2010Prop52
140
1.0
102
RTVSPost2010PropOp52
 70
     0
102
RTVSPost2010Prop53
 90
        2
102
RTVSPost2010PropOp53
 70
     1
102
RTVSPost2010Prop54
  1
strokes_ogs.tif
102
RTVSPost2010PropOp54
 70
     1
102
RTVSPost2010Prop55
280
     0
102
RTVSPost2010PropOp55
 70
     1
102
RTVSPost2010Prop56
140
1.0
102
RTVSPost2010PropOp56
 70
     1
102
RTVSPost2010Prop57
140
1.0
102
RTVSPost2010PropOp57
 70
     1
  0
XRECORD
  5
186
102
{ACAD_REACTORS
330
185
102
}
330
185
100
AcDbXrecord
280
     1
102
RTVSPost2010Prop28
280
     0
102
RTVSPost2010PropOp28
 70
     1
102
RTVSPost2010Prop29
280
     1
102
RTVSPost2010PropOp29
 70
     1
102
RTVSPost2010Prop30
280
     1
102
RTVSPost2010PropOp30
 70
     1
102
RTVSPost2010Prop31
280
     0
102
RTVSPost2010PropOp31
 70
     1
102
RTVSPost2010Prop32
280
     0
102
RTVSPost2010PropOp32
 70
     1
102
RTVSPost2010Prop33
280
     0
102
RTVSPost2010PropOp33
 70
     1
102
RTVSPost2010Prop34
280
     0
102
RTVSPost2010PropOp34
 70
     1
102
RTVSPost2010Prop35
280
     0
102
RTVSPost2010PropOp35
 70
     1
102
RTVSPost2010Prop36
280
     0
102
RTVSPost2010PropOp36
 70
     1
102
RTVSPost2010Prop37
 90
       50
102
RTVSPost2010PropOp37
 70
     1
102
RTVSPost2010Prop38
140
0.0
102
RTVSPost2010PropOp38
 70
     1
102
RTVSPost2010Prop39
140
1.0
102
RTVSPost2010PropOp39
 70
     1
102
RTVSPost2010Prop40
 90
        0
102
RTVSPost2010PropOp40
 70
     1
102
RTVSPost2010Prop41ColorIndex
 90
       18
102
RTVSPost2010Prop41ColorRGB
 90
        0
102
RTVSPost2010PropOp41
 70
     1
102
RTVSPost2010Prop42
 90
       50
102
RTVSPost2010PropOp42
 70
     1
102
RTVSPost2010Prop43
 90
        3
102
RTVSPost2010PropOp43
 70
     1
102
RTVSPost2010Prop44ColorIndex
 90
        5
102
RTVSPost2010Prop44ColorRGB
 90
      255
102
RTVSPost2010PropOp44
 70
     1
102
RTVSPost2010Prop45
280
     0
102
RTVSPost2010PropOp45
 70
     1
102
RTVSPost2010Prop46
 90
       50
102
RTVSPost2010PropOp46
 70
     1
102
RTVSPost2010Prop47
 90
       50
102
RTVSPost2010PropOp47
 70
     1
102
RTVSPost2010Prop48
 90
       50
102
RTVSPost2010PropOp48
 70
     1
102
RTVSPost2010Prop49
280
     0
102
RTVSPost2010PropOp49
 70
     1
102
RTVSPost2010Prop50
 90
       50
102
RTVSPost2010PropOp50
 70
     1
102
RTVSPost2010Prop51ColorIndex
 90
      256
102
RTVSPost2010Prop51ColorRGB
 90
-16777216
102
RTVSPost2010PropOp51
 70
     0
102
RTVSPost2010Prop52
140
1.0
102
RTVSPost2010PropOp52
 70
     0
102
RTVSPost2010Prop53
 90
        2
102
RTVSPost2010PropOp53
 70
     1
102
RTVSPost2010Prop54
  1
strokes_ogs.tif
102
RTVSPost2010PropOp54
 70
     1
102
RTVSPost2010Prop55
280
     0
102
RTVSPost2010PropOp55
 70
     1
102
RTVSPost2010Prop56
140
1.0
102
RTVSPost2010PropOp56
 70
     1
102
RTVSPost2010Prop57
140
1.0
102
RTVSPost2010PropOp57
 70
     1
  0
XRECORD
  5
178
102
{ACAD_REACTORS
330
177
102
}
330
177
100
AcDbXrecord
280
     1
102
RTVSPost2010Prop28
280
     0
102
RTVSPost2010PropOp28
 70
     1
102
RTVSPost2010Prop29
280
     1
102
RTVSPost2010PropOp29
 70
     1
102
RTVSPost2010Prop30
280
     1
102
RTVSPost2010PropOp30
 70
     1
102
RTVSPost2010Prop31
280
     0
102
RTVSPost2010PropOp31
 70
     1
102
RTVSPost2010Prop32
280
     0
102
RTVSPost2010PropOp32
 70
     1
102
RTVSPost2010Prop33
280
     0
102
RTVSPost2010PropOp33
 70
     1
102
RTVSPost2010Prop34
280
     0
102
RTVSPost2010PropOp34
 70
     1
102
RTVSPost2010Prop35
280
     0
102
RTVSPost2010PropOp35
 70
     1
102
RTVSPost2010Prop36
280
     0
102
RTVSPost2010PropOp36
 70
     1
102
RTVSPost2010Prop37
 90
       50
102
RTVSPost2010PropOp37
 70
     1
102
RTVSPost2010Prop38
140
0.0
102
RTVSPost2010PropOp38
 70
     1
102
RTVSPost2010Prop39
140
1.0
102
RTVSPost2010PropOp39
 70
     1
102
RTVSPost2010Prop40
 90
        0
102
RTVSPost2010PropOp40
 70
     1
102
RTVSPost2010Prop41ColorIndex
 90
       18
102
RTVSPost2010Prop41ColorRGB
 90
        0
102
RTVSPost2010PropOp41
 70
     1
102
RTVSPost2010Prop42
 90
       50
102
RTVSPost2010PropOp42
 70
     1
102
RTVSPost2010Prop43
 90
        3
102
RTVSPost2010PropOp43
 70
     1
102
RTVSPost2010Prop44ColorIndex
 90
        5
102
RTVSPost2010Prop44ColorRGB
 90
      255
102
RTVSPost2010PropOp44
 70
     1
102
RTVSPost2010Prop45
280
     0
102
RTVSPost2010PropOp45
 70
     1
102
RTVSPost2010Prop46
 90
       50
102
RTVSPost2010PropOp46
 70
     1
102
RTVSPost2010Prop47
 90
       50
102
RTVSPost2010PropOp47
 70
     1
102
RTVSPost2010Prop48
 90
       50
102
RTVSPost2010PropOp48
 70
     1
102
RTVSPost2010Prop49
280
     0
102
RTVSPost2010PropOp49
 70
     1
102
RTVSPost2010Prop50
 90
       50
102
RTVSPost2010PropOp50
 70
     1
102
RTVSPost2010Prop51ColorIndex
 90
      256
102
RTVSPost2010Prop51ColorRGB
 90
-16777216
102
RTVSPost2010PropOp51
 70
     0
102
RTVSPost2010Prop52
140
1.0
102
RTVSPost2010PropOp52
 70
     0
102
RTVSPost2010Prop53
 90
        2
102
RTVSPost2010PropOp53
 70
     1
102
RTVSPost2010Prop54
  1
strokes_ogs.tif
102
RTVSPost2010PropOp54
 70
     1
102
RTVSPost2010Prop55
280
     0
102
RTVSPost2010PropOp55
 70
     1
102
RTVSPost2010Prop56
140
1.0
102
RTVSPost2010PropOp56
 70
     1
102
RTVSPost2010Prop57
140
1.0
102
RTVSPost2010PropOp57
 70
     1
  0
XRECORD
  5
17C
102
{ACAD_REACTORS
330
17B
102
}
330
17B
100
AcDbXrecord
280
     1
102
RTVSPost2010Prop28
280
     0
102
RTVSPost2010PropOp28
 70
     1
102
RTVSPost2010Prop29
280
     1
102
RTVSPost2010PropOp29
 70
     1
102
RTVSPost2010Prop30
280
     1
102
RTVSPost2010PropOp30
 70
     1
102
RTVSPost2010Prop31
280
     0
102
RTVSPost2010PropOp31
 70
     1
102
RTVSPost2010Prop32
280
     0
102
RTVSPost2010PropOp32
 70
     1
102
RTVSPost2010Prop33
280
     0
102
RTVSPost2010PropOp33
 70
     1
102
RTVSPost2010Prop34
280
     0
102
RTVSPost2010PropOp34
 70
     1
102
RTVSPost2010Prop35
280
     0
102
RTVSPost2010PropOp35
 70
     1
102
RTVSPost2010Prop36
280
     0
102
RTVSPost2010PropOp36
 70
     1
102
RTVSPost2010Prop37
 90
       50
102
RTVSPost2010PropOp37
 70
     1
102
RTVSPost2010Prop38
140
0.0
102
RTVSPost2010PropOp38
 70
     1
102
RTVSPost2010Prop39
140
1.0
102
RTVSPost2010PropOp39
 70
     1
102
RTVSPost2010Prop40
 90
        0
102
RTVSPost2010PropOp40
 70
     1
102
RTVSPost2010Prop41ColorIndex
 90
       18
102
RTVSPost2010Prop41ColorRGB
 90
        0
102
RTVSPost2010PropOp41
 70
     1
102
RTVSPost2010Prop42
 90
       50
102
RTVSPost2010PropOp42
 70
     1
102
RTVSPost2010Prop43
 90
        3
102
RTVSPost2010PropOp43
 70
     1
102
RTVSPost2010Prop44ColorIndex
 90
        5
102
RTVSPost2010Prop44ColorRGB
 90
      255
102
RTVSPost2010PropOp44
 70
     1
102
RTVSPost2010Prop45
280
     0
102
RTVSPost2010PropOp45
 70
     1
102
RTVSPost2010Prop46
 90
       50
102
RTVSPost2010PropOp46
 70
     1
102
RTVSPost2010Prop47
 90
       50
102
RTVSPost2010PropOp47
 70
     1
102
RTVSPost2010Prop48
 90
       50
102
RTVSPost2010PropOp48
 70
     1
102
RTVSPost2010Prop49
280
     0
102
RTVSPost2010PropOp49
 70
     1
102
RTVSPost2010Prop50
 90
       50
102
RTVSPost2010PropOp50
 70
     1
102
RTVSPost2010Prop51ColorIndex
 90
      256
102
RTVSPost2010Prop51ColorRGB
 90
-16777216
102
RTVSPost2010PropOp51
 70
     0
102
RTVSPost2010Prop52
140
1.0
102
RTVSPost2010PropOp52
 70
     0
102
RTVSPost2010Prop53
 90
        2
102
RTVSPost2010PropOp53
 70
     1
102
RTVSPost2010Prop54
  1
strokes_ogs.tif
102
RTVSPost2010PropOp54
 70
     1
102
RTVSPost2010Prop55
280
     0
102
RTVSPost2010PropOp55
 70
     1
102
RTVSPost2010Prop56
140
1.0
102
RTVSPost2010PropOp56
 70
     1
102
RTVSPost2010Prop57
140
1.0
102
RTVSPost2010PropOp57
 70
     1
  0
XRECORD
  5
196
102
{ACAD_REACTORS
330
195
102
}
330
195
100
AcDbXrecord
280
     1
102
RTVSPost2010Prop28
280
     0
102
RTVSPost2010PropOp28
 70
     0
102
RTVSPost2010Prop29
280
     1
102
RTVSPost2010PropOp29
 70
     0
102
RTVSPost2010Prop30
280
     1
102
RTVSPost2010PropOp30
 70
     0
102
RTVSPost2010Prop31
280
     0
102
RTVSPost2010PropOp31
 70
     0
102
RTVSPost2010Prop32
280
     0
102
RTVSPost2010PropOp32
 70
     0
102
RTVSPost2010Prop33
280
     0
102
RTVSPost2010PropOp33
 70
     0
102
RTVSPost2010Prop34
280
     0
102
RTVSPost2010PropOp34
 70
     0
102
RTVSPost2010Prop35
280
     0
102
RTVSPost2010PropOp35
 70
     0
102
RTVSPost2010Prop36
280
     0
102
RTVSPost2010PropOp36
 70
     0
102
RTVSPost2010Prop37
 90
       50
102
RTVSPost2010PropOp37
 70
     0
102
RTVSPost2010Prop38
140
0.0
102
RTVSPost2010PropOp38
 70
     0
102
RTVSPost2010Prop39
140
1.0
102
RTVSPost2010PropOp39
 70
     0
102
RTVSPost2010Prop40
 90
        0
102
RTVSPost2010PropOp40
 70
     0
102
RTVSPost2010Prop41ColorIndex
 90
       18
102
RTVSPost2010Prop41ColorRGB
 90
        0
102
RTVSPost2010PropOp41
 70
     0
102
RTVSPost2010Prop42
 90
       50
102
RTVSPost2010PropOp42
 70
     0
102
RTVSPost2010Prop43
 90
        3
102
RTVSPost2010PropOp43
 70
     0
102
RTVSPost2010Prop44ColorIndex
 90
        5
102
RTVSPost2010Prop44ColorRGB
 90
      255
102
RTVSPost2010PropOp44
 70
     0
102
RTVSPost2010Prop45
280
     0
102
RTVSPost2010PropOp45
 70
     0
102
RTVSPost2010Prop46
 90
       50
102
RTVSPost2010PropOp46
 70
     0
102
RTVSPost2010Prop47
 90
       50
102
RTVSPost2010PropOp47
 70
     0
102
RTVSPost2010Prop48
 90
       50
102
RTVSPost2010PropOp48
 70
     0
102
RTVSPost2010Prop49
280
     0
102
RTVSPost2010PropOp49
 70
     0
102
RTVSPost2010Prop50
 90
       50
102
RTVSPost2010PropOp50
 70
     0
102
RTVSPost2010Prop51ColorIndex
 90
      256
102
RTVSPost2010Prop51ColorRGB
 90
-16777216
102
RTVSPost2010PropOp51
 70
     0
102
RTVSPost2010Prop52
140
1.0
102
RTVSPost2010PropOp52
 70
     0
102
RTVSPost2010Prop53
 90
        2
102
RTVSPost2010PropOp53
 70
     0
102
RTVSPost2010Prop54
  1
strokes_ogs.tif
102
RTVSPost2010PropOp54
 70
     0
102
RTVSPost2010Prop55
280
     0
102
RTVSPost2010PropOp55
 70
     0
102
RTVSPost2010Prop56
140
1.0
102
RTVSPost2010PropOp56
 70
     0
102
RTVSPost2010Prop57
140
1.0
102
RTVSPost2010PropOp57
 70
     0
  0
XRECORD
  5
184
102
{ACAD_REACTORS
330
183
102
}
330
183
100
AcDbXrecord
280
     1
102
RTVSPost2010Prop28
280
     0
102
RTVSPost2010PropOp28
 70
     1
102
RTVSPost2010Prop29
280
     1
102
RTVSPost2010PropOp29
 70
     1
102
RTVSPost2010Prop30
280
     1
102
RTVSPost2010PropOp30
 70
     1
102
RTVSPost2010Prop31
280
     0
102
RTVSPost2010PropOp31
 70
     1
102
RTVSPost2010Prop32
280
     0
102
RTVSPost2010PropOp32
 70
     1
102
RTVSPost2010Prop33
280
     0
102
RTVSPost2010PropOp33
 70
     1
102
RTVSPost2010Prop34
280
     0
102
RTVSPost2010PropOp34
 70
     1
102
RTVSPost2010Prop35
280
     0
102
RTVSPost2010PropOp35
 70
     1
102
RTVSPost2010Prop36
280
     0
102
RTVSPost2010PropOp36
 70
     1
102
RTVSPost2010Prop37
 90
       50
102
RTVSPost2010PropOp37
 70
     1
102
RTVSPost2010Prop38
140
0.0
102
RTVSPost2010PropOp38
 70
     1
102
RTVSPost2010Prop39
140
1.0
102
RTVSPost2010PropOp39
 70
     1
102
RTVSPost2010Prop40
 90
        0
102
RTVSPost2010PropOp40
 70
     1
102
RTVSPost2010Prop41ColorIndex
 90
       18
102
RTVSPost2010Prop41ColorRGB
 90
        0
102
RTVSPost2010PropOp41
 70
     1
102
RTVSPost2010Prop42
 90
       50
102
RTVSPost2010PropOp42
 70
     1
102
RTVSPost2010Prop43
 90
        3
102
RTVSPost2010PropOp43
 70
     1
102
RTVSPost2010Prop44ColorIndex
 90
        5
102
RTVSPost2010Prop44ColorRGB
 90
      255
102
RTVSPost2010PropOp44
 70
     1
102
RTVSPost2010Prop45
280
     0
102
RTVSPost2010PropOp45
 70
     1
102
RTVSPost2010Prop46
 90
       50
102
RTVSPost2010PropOp46
 70
     1
102
RTVSPost2010Prop47
 90
       50
102
RTVSPost2010PropOp47
 70
     1
102
RTVSPost2010Prop48
 90
       50
102
RTVSPost2010PropOp48
 70
     1
102
RTVSPost2010Prop49
280
     0
102
RTVSPost2010PropOp49
 70
     1
102
RTVSPost2010Prop50
 90
       50
102
RTVSPost2010PropOp50
 70
     1
102
RTVSPost2010Prop51ColorIndex
 90
      256
102
RTVSPost2010Prop51ColorRGB
 90
-16777216
102
RTVSPost2010PropOp51
 70
     0
102
RTVSPost2010Prop52
140
1.0
102
RTVSPost2010PropOp52
 70
     0
102
RTVSPost2010Prop53
 90
        2
102
RTVSPost2010PropOp53
 70
     1
102
RTVSPost2010Prop54
  1
strokes_ogs.tif
102
RTVSPost2010PropOp54
 70
     1
102
RTVSPost2010Prop55
280
     0
102
RTVSPost2010PropOp55
 70
     1
102
RTVSPost2010Prop56
140
1.0
102
RTVSPost2010PropOp56
 70
     1
102
RTVSPost2010Prop57
140
1.0
102
RTVSPost2010PropOp57
 70
     1
  0
XRECORD
  5
168
102
{ACAD_REACTORS
330
167
102
}
330
167
100
AcDbXrecord
280
     1
102
RTVSPost2010Prop28
280
     0
102
RTVSPost2010PropOp28
 70
     1
102
RTVSPost2010Prop29
280
     1
102
RTVSPost2010PropOp29
 70
     1
102
RTVSPost2010Prop30
280
     1
102
RTVSPost2010PropOp30
 70
     1
102
RTVSPost2010Prop31
280
     0
102
RTVSPost2010PropOp31
 70
     1
102
RTVSPost2010Prop32
280
     0
102
RTVSPost2010PropOp32
 70
     1
102
RTVSPost2010Prop33
280
     0
102
RTVSPost2010PropOp33
 70
     1
102
RTVSPost2010Prop34
280
     0
102
RTVSPost2010PropOp34
 70
     1
102
RTVSPost2010Prop35
280
     0
102
RTVSPost2010PropOp35
 70
     1
102
RTVSPost2010Prop36
280
     0
102
RTVSPost2010PropOp36
 70
     1
102
RTVSPost2010Prop37
 90
       50
102
RTVSPost2010PropOp37
 70
     1
102
RTVSPost2010Prop38
140
0.0
102
RTVSPost2010PropOp38
 70
     1
102
RTVSPost2010Prop39
140
1.0
102
RTVSPost2010PropOp39
 70
     1
102
RTVSPost2010Prop40
 90
        0
102
RTVSPost2010PropOp40
 70
     1
102
RTVSPost2010Prop41ColorIndex
 90
       18
102
RTVSPost2010Prop41ColorRGB
 90
        0
102
RTVSPost2010PropOp41
 70
     1
102
RTVSPost2010Prop42
 90
       50
102
RTVSPost2010PropOp42
 70
     1
102
RTVSPost2010Prop43
 90
        3
102
RTVSPost2010PropOp43
 70
     1
102
RTVSPost2010Prop44ColorIndex
 90
        5
102
RTVSPost2010Prop44ColorRGB
 90
      255
102
RTVSPost2010PropOp44
 70
     1
102
RTVSPost2010Prop45
280
     0
102
RTVSPost2010PropOp45
 70
     1
102
RTVSPost2010Prop46
 90
       50
102
RTVSPost2010PropOp46
 70
     1
102
RTVSPost2010Prop47
 90
       50
102
RTVSPost2010PropOp47
 70
     1
102
RTVSPost2010Prop48
 90
       50
102
RTVSPost2010PropOp48
 70
     1
102
RTVSPost2010Prop49
280
     0
102
RTVSPost2010PropOp49
 70
     1
102
RTVSPost2010Prop50
 90
       50
102
RTVSPost2010PropOp50
 70
     1
102
RTVSPost2010Prop51ColorIndex
 90
      256
102
RTVSPost2010Prop51ColorRGB
 90
-16777216
102
RTVSPost2010PropOp51
 70
     0
102
RTVSPost2010Prop52
140
1.0
102
RTVSPost2010PropOp52
 70
     0
102
RTVSPost2010Prop53
 90
        2
102
RTVSPost2010PropOp53
 70
     1
102
RTVSPost2010Prop54
  1
strokes_ogs.tif
102
RTVSPost2010PropOp54
 70
     1
102
RTVSPost2010Prop55
280
     0
102
RTVSPost2010PropOp55
 70
     1
102
RTVSPost2010Prop56
140
1.0
102
RTVSPost2010PropOp56
 70
     1
102
RTVSPost2010Prop57
140
1.0
102
RTVSPost2010PropOp57
 70
     1
  0
XRECORD
  5
16A
102
{ACAD_REACTORS
330
169
102
}
330
169
100
AcDbXrecord
280
     1
102
RTVSPost2010Prop28
280
     0
102
RTVSPost2010PropOp28
 70
     1
102
RTVSPost2010Prop29
280
     1
102
RTVSPost2010PropOp29
 70
     1
102
RTVSPost2010Prop30
280
     1
102
RTVSPost2010PropOp30
 70
     1
102
RTVSPost2010Prop31
280
     0
102
RTVSPost2010PropOp31
 70
     1
102
RTVSPost2010Prop32
280
     0
102
RTVSPost2010PropOp32
 70
     1
102
RTVSPost2010Prop33
280
     0
102
RTVSPost2010PropOp33
 70
     1
102
RTVSPost2010Prop34
280
     0
102
RTVSPost2010PropOp34
 70
     1
102
RTVSPost2010Prop35
280
     0
102
RTVSPost2010PropOp35
 70
     1
102
RTVSPost2010Prop36
280
     0
102
RTVSPost2010PropOp36
 70
     1
102
RTVSPost2010Prop37
 90
       50
102
RTVSPost2010PropOp37
 70
     1
102
RTVSPost2010Prop38
140
0.0
102
RTVSPost2010PropOp38
 70
     1
102
RTVSPost2010Prop39
140
1.0
102
RTVSPost2010PropOp39
 70
     1
102
RTVSPost2010Prop40
 90
        0
102
RTVSPost2010PropOp40
 70
     1
102
RTVSPost2010Prop41ColorIndex
 90
       18
102
RTVSPost2010Prop41ColorRGB
 90
        0
102
RTVSPost2010PropOp41
 70
     1
102
RTVSPost2010Prop42
 90
       50
102
RTVSPost2010PropOp42
 70
     1
102
RTVSPost2010Prop43
 90
        3
102
RTVSPost2010PropOp43
 70
     1
102
RTVSPost2010Prop44ColorIndex
 90
        5
102
RTVSPost2010Prop44ColorRGB
 90
      255
102
RTVSPost2010PropOp44
 70
     1
102
RTVSPost2010Prop45
280
     0
102
RTVSPost2010PropOp45
 70
     1
102
RTVSPost2010Prop46
 90
       50
102
RTVSPost2010PropOp46
 70
     1
102
RTVSPost2010Prop47
 90
       50
102
RTVSPost2010PropOp47
 70
     1
102
RTVSPost2010Prop48
 90
       50
102
RTVSPost2010PropOp48
 70
     1
102
RTVSPost2010Prop49
280
     0
102
RTVSPost2010PropOp49
 70
     1
102
RTVSPost2010Prop50
 90
       50
102
RTVSPost2010PropOp50
 70
     1
102
RTVSPost2010Prop51ColorIndex
 90
      256
102
RTVSPost2010Prop51ColorRGB
 90
-16777216
102
RTVSPost2010PropOp51
 70
     0
102
RTVSPost2010Prop52
140
1.0
102
RTVSPost2010PropOp52
 70
     0
102
RTVSPost2010Prop53
 90
        2
102
RTVSPost2010PropOp53
 70
     1
102
RTVSPost2010Prop54
  1
strokes_ogs.tif
102
RTVSPost2010PropOp54
 70
     1
102
RTVSPost2010Prop55
280
     0
102
RTVSPost2010PropOp55
 70
     1
102
RTVSPost2010Prop56
140
1.0
102
RTVSPost2010PropOp56
 70
     1
102
RTVSPost2010Prop57
140
1.0
102
RTVSPost2010PropOp57
 70
     1
  0
XRECORD
  5
16C
102
{ACAD_REACTORS
330
16B
102
}
330
16B
100
AcDbXrecord
280
     1
102
RTVSPost2010Prop28
280
     0
102
RTVSPost2010PropOp28
 70
     1
102
RTVSPost2010Prop29
280
     1
102
RTVSPost2010PropOp29
 70
     1
102
RTVSPost2010Prop30
280
     1
102
RTVSPost2010PropOp30
 70
     1
102
RTVSPost2010Prop31
280
     0
102
RTVSPost2010PropOp31
 70
     1
102
RTVSPost2010Prop32
280
     0
102
RTVSPost2010PropOp32
 70
     1
102
RTVSPost2010Prop33
280
     0
102
RTVSPost2010PropOp33
 70
     1
102
RTVSPost2010Prop34
280
     0
102
RTVSPost2010PropOp34
 70
     1
102
RTVSPost2010Prop35
280
     0
102
RTVSPost2010PropOp35
 70
     1
102
RTVSPost2010Prop36
280
     0
102
RTVSPost2010PropOp36
 70
     1
102
RTVSPost2010Prop37
 90
       50
102
RTVSPost2010PropOp37
 70
     1
102
RTVSPost2010Prop38
140
0.0
102
RTVSPost2010PropOp38
 70
     1
102
RTVSPost2010Prop39
140
1.0
102
RTVSPost2010PropOp39
 70
     1
102
RTVSPost2010Prop40
 90
        0
102
RTVSPost2010PropOp40
 70
     1
102
RTVSPost2010Prop41ColorIndex
 90
       18
102
RTVSPost2010Prop41ColorRGB
 90
        0
102
RTVSPost2010PropOp41
 70
     1
102
RTVSPost2010Prop42
 90
       50
102
RTVSPost2010PropOp42
 70
     1
102
RTVSPost2010Prop43
 90
        3
102
RTVSPost2010PropOp43
 70
     1
102
RTVSPost2010Prop44ColorIndex
 90
        5
102
RTVSPost2010Prop44ColorRGB
 90
      255
102
RTVSPost2010PropOp44
 70
     1
102
RTVSPost2010Prop45
280
     0
102
RTVSPost2010PropOp45
 70
     1
102
RTVSPost2010Prop46
 90
       50
102
RTVSPost2010PropOp46
 70
     1
102
RTVSPost2010Prop47
 90
       50
102
RTVSPost2010PropOp47
 70
     1
102
RTVSPost2010Prop48
 90
       50
102
RTVSPost2010PropOp48
 70
     1
102
RTVSPost2010Prop49
280
     0
102
RTVSPost2010PropOp49
 70
     1
102
RTVSPost2010Prop50
 90
       50
102
RTVSPost2010PropOp50
 70
     1
102
RTVSPost2010Prop51ColorIndex
 90
      256
102
RTVSPost2010Prop51ColorRGB
 90
-16777216
102
RTVSPost2010PropOp51
 70
     0
102
RTVSPost2010Prop52
140
1.0
102
RTVSPost2010PropOp52
 70
     0
102
RTVSPost2010Prop53
 90
        2
102
RTVSPost2010PropOp53
 70
     1
102
RTVSPost2010Prop54
  1
strokes_ogs.tif
102
RTVSPost2010PropOp54
 70
     1
102
RTVSPost2010Prop55
280
     0
102
RTVSPost2010PropOp55
 70
     1
102
RTVSPost2010Prop56
140
1.0
102
RTVSPost2010PropOp56
 70
     1
102
RTVSPost2010Prop57
140
1.0
102
RTVSPost2010PropOp57
 70
     1
  0
XRECORD
  5
16E
102
{ACAD_REACTORS
330
16D
102
}
330
16D
100
AcDbXrecord
280
     1
102
RTVSPost2010Prop28
280
     0
102
RTVSPost2010PropOp28
 70
     1
102
RTVSPost2010Prop29
280
     1
102
RTVSPost2010PropOp29
 70
     1
102
RTVSPost2010Prop30
280
     1
102
RTVSPost2010PropOp30
 70
     1
102
RTVSPost2010Prop31
280
     0
102
RTVSPost2010PropOp31
 70
     1
102
RTVSPost2010Prop32
280
     0
102
RTVSPost2010PropOp32
 70
     1
102
RTVSPost2010Prop33
280
     0
102
RTVSPost2010PropOp33
 70
     1
102
RTVSPost2010Prop34
280
     0
102
RTVSPost2010PropOp34
 70
     1
102
RTVSPost2010Prop35
280
     0
102
RTVSPost2010PropOp35
 70
     1
102
RTVSPost2010Prop36
280
     0
102
RTVSPost2010PropOp36
 70
     1
102
RTVSPost2010Prop37
 90
       50
102
RTVSPost2010PropOp37
 70
     1
102
RTVSPost2010Prop38
140
0.0
102
RTVSPost2010PropOp38
 70
     1
102
RTVSPost2010Prop39
140
1.0
102
RTVSPost2010PropOp39
 70
     1
102
RTVSPost2010Prop40
 90
        0
102
RTVSPost2010PropOp40
 70
     1
102
RTVSPost2010Prop41ColorIndex
 90
       18
102
RTVSPost2010Prop41ColorRGB
 90
        0
102
RTVSPost2010PropOp41
 70
     1
102
RTVSPost2010Prop42
 90
       50
102
RTVSPost2010PropOp42
 70
     1
102
RTVSPost2010Prop43
 90
        3
102
RTVSPost2010PropOp43
 70
     1
102
RTVSPost2010Prop44ColorIndex
 90
        5
102
RTVSPost2010Prop44ColorRGB
 90
      255
102
RTVSPost2010PropOp44
 70
     1
102
RTVSPost2010Prop45
280
     0
102
RTVSPost2010PropOp45
 70
     1
102
RTVSPost2010Prop46
 90
       50
102
RTVSPost2010PropOp46
 70
     1
102
RTVSPost2010Prop47
 90
       50
102
RTVSPost2010PropOp47
 70
     1
102
RTVSPost2010Prop48
 90
       50
102
RTVSPost2010PropOp48
 70
     1
102
RTVSPost2010Prop49
280
     0
102
RTVSPost2010PropOp49
 70
     1
102
RTVSPost2010Prop50
 90
       50
102
RTVSPost2010PropOp50
 70
     1
102
RTVSPost2010Prop51ColorIndex
 90
      256
102
RTVSPost2010Prop51ColorRGB
 90
-16777216
102
RTVSPost2010PropOp51
 70
     0
102
RTVSPost2010Prop52
140
1.0
102
RTVSPost2010PropOp52
 70
     0
102
RTVSPost2010Prop53
 90
        2
102
RTVSPost2010PropOp53
 70
     1
102
RTVSPost2010Prop54
  1
strokes_ogs.tif
102
RTVSPost2010PropOp54
 70
     1
102
RTVSPost2010Prop55
280
     0
102
RTVSPost2010PropOp55
 70
     1
102
RTVSPost2010Prop56
140
1.0
102
RTVSPost2010PropOp56
 70
     1
102
RTVSPost2010Prop57
140
1.0
102
RTVSPost2010PropOp57
 70
     1
  0
XRECORD
  5
176
102
{ACAD_REACTORS
330
175
102
}
330
175
100
AcDbXrecord
280
     1
102
RTVSPost2010Prop28
280
     0
102
RTVSPost2010PropOp28
 70
     1
102
RTVSPost2010Prop29
280
     1
102
RTVSPost2010PropOp29
 70
     1
102
RTVSPost2010Prop30
280
     1
102
RTVSPost2010PropOp30
 70
     1
102
RTVSPost2010Prop31
280
     0
102
RTVSPost2010PropOp31
 70
     1
102
RTVSPost2010Prop32
280
     0
102
RTVSPost2010PropOp32
 70
     1
102
RTVSPost2010Prop33
280
     0
102
RTVSPost2010PropOp33
 70
     1
102
RTVSPost2010Prop34
280
     0
102
RTVSPost2010PropOp34
 70
     1
102
RTVSPost2010Prop35
280
     0
102
RTVSPost2010PropOp35
 70
     1
102
RTVSPost2010Prop36
280
     0
102
RTVSPost2010PropOp36
 70
     1
102
RTVSPost2010Prop37
 90
       50
102
RTVSPost2010PropOp37
 70
     1
102
RTVSPost2010Prop38
140
0.0
102
RTVSPost2010PropOp38
 70
     1
102
RTVSPost2010Prop39
140
1.0
102
RTVSPost2010PropOp39
 70
     1
102
RTVSPost2010Prop40
 90
        0
102
RTVSPost2010PropOp40
 70
     1
102
RTVSPost2010Prop41ColorIndex
 90
       18
102
RTVSPost2010Prop41ColorRGB
 90
        0
102
RTVSPost2010PropOp41
 70
     1
102
RTVSPost2010Prop42
 90
       50
102
RTVSPost2010PropOp42
 70
     1
102
RTVSPost2010Prop43
 90
        3
102
RTVSPost2010PropOp43
 70
     1
102
RTVSPost2010Prop44ColorIndex
 90
        5
102
RTVSPost2010Prop44ColorRGB
 90
      255
102
RTVSPost2010PropOp44
 70
     1
102
RTVSPost2010Prop45
280
     0
102
RTVSPost2010PropOp45
 70
     1
102
RTVSPost2010Prop46
 90
       50
102
RTVSPost2010PropOp46
 70
     1
102
RTVSPost2010Prop47
 90
       50
102
RTVSPost2010PropOp47
 70
     1
102
RTVSPost2010Prop48
 90
       50
102
RTVSPost2010PropOp48
 70
     1
102
RTVSPost2010Prop49
280
     0
102
RTVSPost2010PropOp49
 70
     1
102
RTVSPost2010Prop50
 90
       50
102
RTVSPost2010PropOp50
 70
     1
102
RTVSPost2010Prop51ColorIndex
 90
      256
102
RTVSPost2010Prop51ColorRGB
 90
-16777216
102
RTVSPost2010PropOp51
 70
     0
102
RTVSPost2010Prop52
140
1.0
102
RTVSPost2010PropOp52
 70
     0
102
RTVSPost2010Prop53
 90
        2
102
RTVSPost2010PropOp53
 70
     1
102
RTVSPost2010Prop54
  1
strokes_ogs.tif
102
RTVSPost2010PropOp54
 70
     1
102
RTVSPost2010Prop55
280
     0
102
RTVSPost2010PropOp55
 70
     1
102
RTVSPost2010Prop56
140
1.0
102
RTVSPost2010PropOp56
 70
     1
102
RTVSPost2010Prop57
140
1.0
102
RTVSPost2010PropOp57
 70
     1
  0
XRECORD
  5
192
102
{ACAD_REACTORS
330
191
102
}
330
191
100
AcDbXrecord
280
     1
102
RTVSPost2010Prop28
280
     0
102
RTVSPost2010PropOp28
 70
     0
102
RTVSPost2010Prop29
280
     1
102
RTVSPost2010PropOp29
 70
     0
102
RTVSPost2010Prop30
280
     1
102
RTVSPost2010PropOp30
 70
     0
102
RTVSPost2010Prop31
280
     0
102
RTVSPost2010PropOp31
 70
     0
102
RTVSPost2010Prop32
280
     0
102
RTVSPost2010PropOp32
 70
     0
102
RTVSPost2010Prop33
280
     0
102
RTVSPost2010PropOp33
 70
     0
102
RTVSPost2010Prop34
280
     0
102
RTVSPost2010PropOp34
 70
     0
102
RTVSPost2010Prop35
280
     0
102
RTVSPost2010PropOp35
 70
     0
102
RTVSPost2010Prop36
280
     0
102
RTVSPost2010PropOp36
 70
     0
102
RTVSPost2010Prop37
 90
       50
102
RTVSPost2010PropOp37
 70
     0
102
RTVSPost2010Prop38
140
0.0
102
RTVSPost2010PropOp38
 70
     0
102
RTVSPost2010Prop39
140
1.0
102
RTVSPost2010PropOp39
 70
     0
102
RTVSPost2010Prop40
 90
        0
102
RTVSPost2010PropOp40
 70
     0
102
RTVSPost2010Prop41ColorIndex
 90
       18
102
RTVSPost2010Prop41ColorRGB
 90
        0
102
RTVSPost2010PropOp41
 70
     0
102
RTVSPost2010Prop42
 90
       50
102
RTVSPost2010PropOp42
 70
     0
102
RTVSPost2010Prop43
 90
        3
102
RTVSPost2010PropOp43
 70
     0
102
RTVSPost2010Prop44ColorIndex
 90
        5
102
RTVSPost2010Prop44ColorRGB
 90
      255
102
RTVSPost2010PropOp44
 70
     0
102
RTVSPost2010Prop45
280
     0
102
RTVSPost2010PropOp45
 70
     0
102
RTVSPost2010Prop46
 90
       50
102
RTVSPost2010PropOp46
 70
     0
102
RTVSPost2010Prop47
 90
       50
102
RTVSPost2010PropOp47
 70
     0
102
RTVSPost2010Prop48
 90
       50
102
RTVSPost2010PropOp48
 70
     0
102
RTVSPost2010Prop49
280
     0
102
RTVSPost2010PropOp49
 70
     0
102
RTVSPost2010Prop50
 90
       50
102
RTVSPost2010PropOp50
 70
     0
102
RTVSPost2010Prop51ColorIndex
 90
      256
102
RTVSPost2010Prop51ColorRGB
 90
-16777216
102
RTVSPost2010PropOp51
 70
     0
102
RTVSPost2010Prop52
140
1.0
102
RTVSPost2010PropOp52
 70
     0
102
RTVSPost2010Prop53
 90
        2
102
RTVSPost2010PropOp53
 70
     0
102
RTVSPost2010Prop54
  1
strokes_ogs.tif
102
RTVSPost2010PropOp54
 70
     0
102
RTVSPost2010Prop55
280
     0
102
RTVSPost2010PropOp55
 70
     0
102
RTVSPost2010Prop56
140
1.0
102
RTVSPost2010PropOp56
 70
     0
102
RTVSPost2010Prop57
140
1.0
102
RTVSPost2010PropOp57
 70
     0
  0
XRECORD
  5
182
102
{ACAD_REACTORS
330
181
102
}
330
181
100
AcDbXrecord
280
     1
102
RTVSPost2010Prop28
280
     0
102
RTVSPost2010PropOp28
 70
     1
102
RTVSPost2010Prop29
280
     1
102
RTVSPost2010PropOp29
 70
     1
102
RTVSPost2010Prop30
280
     1
102
RTVSPost2010PropOp30
 70
     1
102
RTVSPost2010Prop31
280
     0
102
RTVSPost2010PropOp31
 70
     1
102
RTVSPost2010Prop32
280
     0
102
RTVSPost2010PropOp32
 70
     1
102
RTVSPost2010Prop33
280
     0
102
RTVSPost2010PropOp33
 70
     1
102
RTVSPost2010Prop34
280
     0
102
RTVSPost2010PropOp34
 70
     1
102
RTVSPost2010Prop35
280
     0
102
RTVSPost2010PropOp35
 70
     1
102
RTVSPost2010Prop36
280
     0
102
RTVSPost2010PropOp36
 70
     1
102
RTVSPost2010Prop37
 90
       50
102
RTVSPost2010PropOp37
 70
     1
102
RTVSPost2010Prop38
140
0.0
102
RTVSPost2010PropOp38
 70
     1
102
RTVSPost2010Prop39
140
1.0
102
RTVSPost2010PropOp39
 70
     1
102
RTVSPost2010Prop40
 90
        0
102
RTVSPost2010PropOp40
 70
     1
102
RTVSPost2010Prop41ColorIndex
 90
       18
102
RTVSPost2010Prop41ColorRGB
 90
        0
102
RTVSPost2010PropOp41
 70
     1
102
RTVSPost2010Prop42
 90
       50
102
RTVSPost2010PropOp42
 70
     1
102
RTVSPost2010Prop43
 90
        3
102
RTVSPost2010PropOp43
 70
     1
102
RTVSPost2010Prop44ColorIndex
 90
        5
102
RTVSPost2010Prop44ColorRGB
 90
      255
102
RTVSPost2010PropOp44
 70
     1
102
RTVSPost2010Prop45
280
     0
102
RTVSPost2010PropOp45
 70
     1
102
RTVSPost2010Prop46
 90
       50
102
RTVSPost2010PropOp46
 70
     1
102
RTVSPost2010Prop47
 90
       50
102
RTVSPost2010PropOp47
 70
     1
102
RTVSPost2010Prop48
 90
       50
102
RTVSPost2010PropOp48
 70
     1
102
RTVSPost2010Prop49
280
     0
102
RTVSPost2010PropOp49
 70
     1
102
RTVSPost2010Prop50
 90
       50
102
RTVSPost2010PropOp50
 70
     1
102
RTVSPost2010Prop51ColorIndex
 90
      256
102
RTVSPost2010Prop51ColorRGB
 90
-16777216
102
RTVSPost2010PropOp51
 70
     0
102
RTVSPost2010Prop52
140
1.0
102
RTVSPost2010PropOp52
 70
     0
102
RTVSPost2010Prop53
 90
        2
102
RTVSPost2010PropOp53
 70
     1
102
RTVSPost2010Prop54
  1
strokes_ogs.tif
102
RTVSPost2010PropOp54
 70
     1
102
RTVSPost2010Prop55
280
     0
102
RTVSPost2010PropOp55
 70
     1
102
RTVSPost2010Prop56
140
1.0
102
RTVSPost2010PropOp56
 70
     1
102
RTVSPost2010Prop57
140
1.0
102
RTVSPost2010PropOp57
 70
     1
  0
XRECORD
  5
194
102
{ACAD_REACTORS
330
193
102
}
330
193
100
AcDbXrecord
280
     1
102
RTVSPost2010Prop28
280
     0
102
RTVSPost2010PropOp28
 70
     0
102
RTVSPost2010Prop29
280
     1
102
RTVSPost2010PropOp29
 70
     0
102
RTVSPost2010Prop30
280
     1
102
RTVSPost2010PropOp30
 70
     0
102
RTVSPost2010Prop31
280
     0
102
RTVSPost2010PropOp31
 70
     0
102
RTVSPost2010Prop32
280
     0
102
RTVSPost2010PropOp32
 70
     0
102
RTVSPost2010Prop33
280
     0
102
RTVSPost2010PropOp33
 70
     0
102
RTVSPost2010Prop34
280
     0
102
RTVSPost2010PropOp34
 70
     0
102
RTVSPost2010Prop35
280
     0
102
RTVSPost2010PropOp35
 70
     0
102
RTVSPost2010Prop36
280
     0
102
RTVSPost2010PropOp36
 70
     0
102
RTVSPost2010Prop37
 90
       50
102
RTVSPost2010PropOp37
 70
     0
102
RTVSPost2010Prop38
140
0.0
102
RTVSPost2010PropOp38
 70
     0
102
RTVSPost2010Prop39
140
1.0
102
RTVSPost2010PropOp39
 70
     0
102
RTVSPost2010Prop40
 90
        0
102
RTVSPost2010PropOp40
 70
     0
102
RTVSPost2010Prop41ColorIndex
 90
       18
102
RTVSPost2010Prop41ColorRGB
 90
        0
102
RTVSPost2010PropOp41
 70
     0
102
RTVSPost2010Prop42
 90
       50
102
RTVSPost2010PropOp42
 70
     0
102
RTVSPost2010Prop43
 90
        3
102
RTVSPost2010PropOp43
 70
     0
102
RTVSPost2010Prop44ColorIndex
 90
        5
102
RTVSPost2010Prop44ColorRGB
 90
      255
102
RTVSPost2010PropOp44
 70
     0
102
RTVSPost2010Prop45
280
     0
102
RTVSPost2010PropOp45
 70
     0
102
RTVSPost2010Prop46
 90
       50
102
RTVSPost2010PropOp46
 70
     0
102
RTVSPost2010Prop47
 90
       50
102
RTVSPost2010PropOp47
 70
     0
102
RTVSPost2010Prop48
 90
       50
102
RTVSPost2010PropOp48
 70
     0
102
RTVSPost2010Prop49
280
     0
102
RTVSPost2010PropOp49
 70
     0
102
RTVSPost2010Prop50
 90
       50
102
RTVSPost2010PropOp50
 70
     0
102
RTVSPost2010Prop51ColorIndex
 90
      256
102
RTVSPost2010Prop51ColorRGB
 90
-16777216
102
RTVSPost2010PropOp51
 70
     0
102
RTVSPost2010Prop52
140
1.0
102
RTVSPost2010PropOp52
 70
     0
102
RTVSPost2010Prop53
 90
        2
102
RTVSPost2010PropOp53
 70
     0
102
RTVSPost2010Prop54
  1
strokes_ogs.tif
102
RTVSPost2010PropOp54
 70
     0
102
RTVSPost2010Prop55
280
     0
102
RTVSPost2010PropOp55
 70
     0
102
RTVSPost2010Prop56
140
1.0
102
RTVSPost2010PropOp56
 70
     0
102
RTVSPost2010Prop57
140
1.0
102
RTVSPost2010PropOp57
 70
     0
  0
XRECORD
  5
17A
102
{ACAD_REACTORS
330
179
102
}
330
179
100
AcDbXrecord
280
     1
102
RTVSPost2010Prop28
280
     0
102
RTVSPost2010PropOp28
 70
     1
102
RTVSPost2010Prop29
280
     1
102
RTVSPost2010PropOp29
 70
     1
102
RTVSPost2010Prop30
280
     1
102
RTVSPost2010PropOp30
 70
     1
102
RTVSPost2010Prop31
280
     0
102
RTVSPost2010PropOp31
 70
     1
102
RTVSPost2010Prop32
280
     0
102
RTVSPost2010PropOp32
 70
     1
102
RTVSPost2010Prop33
280
     0
102
RTVSPost2010PropOp33
 70
     1
102
RTVSPost2010Prop34
280
     0
102
RTVSPost2010PropOp34
 70
     1
102
RTVSPost2010Prop35
280
     0
102
RTVSPost2010PropOp35
 70
     1
102
RTVSPost2010Prop36
280
     0
102
RTVSPost2010PropOp36
 70
     1
102
RTVSPost2010Prop37
 90
       50
102
RTVSPost2010PropOp37
 70
     1
102
RTVSPost2010Prop38
140
0.0
102
RTVSPost2010PropOp38
 70
     1
102
RTVSPost2010Prop39
140
1.0
102
RTVSPost2010PropOp39
 70
     1
102
RTVSPost2010Prop40
 90
        0
102
RTVSPost2010PropOp40
 70
     1
102
RTVSPost2010Prop41ColorIndex
 90
       18
102
RTVSPost2010Prop41ColorRGB
 90
        0
102
RTVSPost2010PropOp41
 70
     1
102
RTVSPost2010Prop42
 90
       50
102
RTVSPost2010PropOp42
 70
     1
102
RTVSPost2010Prop43
 90
        3
102
RTVSPost2010PropOp43
 70
     1
102
RTVSPost2010Prop44ColorIndex
 90
        5
102
RTVSPost2010Prop44ColorRGB
 90
      255
102
RTVSPost2010PropOp44
 70
     1
102
RTVSPost2010Prop45
280
     0
102
RTVSPost2010PropOp45
 70
     1
102
RTVSPost2010Prop46
 90
       50
102
RTVSPost2010PropOp46
 70
     1
102
RTVSPost2010Prop47
 90
       50
102
RTVSPost2010PropOp47
 70
     1
102
RTVSPost2010Prop48
 90
       50
102
RTVSPost2010PropOp48
 70
     1
102
RTVSPost2010Prop49
280
     0
102
RTVSPost2010PropOp49
 70
     1
102
RTVSPost2010Prop50
 90
       50
102
RTVSPost2010PropOp50
 70
     1
102
RTVSPost2010Prop51ColorIndex
 90
      256
102
RTVSPost2010Prop51ColorRGB
 90
-16777216
102
RTVSPost2010PropOp51
 70
     0
102
RTVSPost2010Prop52
140
1.0
102
RTVSPost2010PropOp52
 70
     0
102
RTVSPost2010Prop53
 90
        2
102
RTVSPost2010PropOp53
 70
     1
102
RTVSPost2010Prop54
  1
strokes_ogs.tif
102
RTVSPost2010PropOp54
 70
     1
102
RTVSPost2010Prop55
280
     0
102
RTVSPost2010PropOp55
 70
     1
102
RTVSPost2010Prop56
140
1.0
102
RTVSPost2010PropOp56
 70
     1
102
RTVSPost2010Prop57
140
1.0
102
RTVSPost2010PropOp57
 70
     1
  0
XRECORD
  5
190
102
{ACAD_REACTORS
330
18F
102
}
330
18F
100
AcDbXrecord
280
     1
102
RTVSPost2010Prop28
280
     0
102
RTVSPost2010PropOp28
 70
     1
102
RTVSPost2010Prop29
280
     1
102
RTVSPost2010PropOp29
 70
     1
102
RTVSPost2010Prop30
280
     1
102
RTVSPost2010PropOp30
 70
     1
102
RTVSPost2010Prop31
280
     0
102
RTVSPost2010PropOp31
 70
     1
102
RTVSPost2010Prop32
280
     0
102
RTVSPost2010PropOp32
 70
     1
102
RTVSPost2010Prop33
280
     0
102
RTVSPost2010PropOp33
 70
     1
102
RTVSPost2010Prop34
280
     0
102
RTVSPost2010PropOp34
 70
     1
102
RTVSPost2010Prop35
280
     0
102
RTVSPost2010PropOp35
 70
     1
102
RTVSPost2010Prop36
280
     0
102
RTVSPost2010PropOp36
 70
     1
102
RTVSPost2010Prop37
 90
       50
102
RTVSPost2010PropOp37
 70
     1
102
RTVSPost2010Prop38
140
0.0
102
RTVSPost2010PropOp38
 70
     1
102
RTVSPost2010Prop39
140
1.0
102
RTVSPost2010PropOp39
 70
     1
102
RTVSPost2010Prop40
 90
        0
102
RTVSPost2010PropOp40
 70
     1
102
RTVSPost2010Prop41ColorIndex
 90
       18
102
RTVSPost2010Prop41ColorRGB
 90
        0
102
RTVSPost2010PropOp41
 70
     1
102
RTVSPost2010Prop42
 90
       50
102
RTVSPost2010PropOp42
 70
     1
102
RTVSPost2010Prop43
 90
        3
102
RTVSPost2010PropOp43
 70
     1
102
RTVSPost2010Prop44ColorIndex
 90
        5
102
RTVSPost2010Prop44ColorRGB
 90
      255
102
RTVSPost2010PropOp44
 70
     1
102
RTVSPost2010Prop45
280
     0
102
RTVSPost2010PropOp45
 70
     1
102
RTVSPost2010Prop46
 90
       50
102
RTVSPost2010PropOp46
 70
     1
102
RTVSPost2010Prop47
 90
       50
102
RTVSPost2010PropOp47
 70
     1
102
RTVSPost2010Prop48
 90
       50
102
RTVSPost2010PropOp48
 70
     1
102
RTVSPost2010Prop49
280
     0
102
RTVSPost2010PropOp49
 70
     1
102
RTVSPost2010Prop50
 90
       50
102
RTVSPost2010PropOp50
 70
     1
102
RTVSPost2010Prop51ColorIndex
 90
      256
102
RTVSPost2010Prop51ColorRGB
 90
-16777216
102
RTVSPost2010PropOp51
 70
     0
102
RTVSPost2010Prop52
140
1.0
102
RTVSPost2010PropOp52
 70
     0
102
RTVSPost2010Prop53
 90
        2
102
RTVSPost2010PropOp53
 70
     1
102
RTVSPost2010Prop54
  1
strokes_ogs.tif
102
RTVSPost2010PropOp54
 70
     1
102
RTVSPost2010Prop55
280
     0
102
RTVSPost2010PropOp55
 70
     1
102
RTVSPost2010Prop56
140
1.0
102
RTVSPost2010PropOp56
 70
     1
102
RTVSPost2010Prop57
140
1.0
102
RTVSPost2010PropOp57
 70
     1
  0
XRECORD
  5
18E
102
{ACAD_REACTORS
330
18D
102
}
330
18D
100
AcDbXrecord
280
     1
102
RTVSPost2010Prop28
280
     0
102
RTVSPost2010PropOp28
 70
     1
102
RTVSPost2010Prop29
280
     1
102
RTVSPost2010PropOp29
 70
     1
102
RTVSPost2010Prop30
280
     1
102
RTVSPost2010PropOp30
 70
     1
102
RTVSPost2010Prop31
280
     0
102
RTVSPost2010PropOp31
 70
     1
102
RTVSPost2010Prop32
280
     0
102
RTVSPost2010PropOp32
 70
     1
102
RTVSPost2010Prop33
280
     0
102
RTVSPost2010PropOp33
 70
     1
102
RTVSPost2010Prop34
280
     0
102
RTVSPost2010PropOp34
 70
     1
102
RTVSPost2010Prop35
280
     0
102
RTVSPost2010PropOp35
 70
     1
102
RTVSPost2010Prop36
280
     0
102
RTVSPost2010PropOp36
 70
     1
102
RTVSPost2010Prop37
 90
       50
102
RTVSPost2010PropOp37
 70
     1
102
RTVSPost2010Prop38
140
0.0
102
RTVSPost2010PropOp38
 70
     1
102
RTVSPost2010Prop39
140
1.0
102
RTVSPost2010PropOp39
 70
     1
102
RTVSPost2010Prop40
 90
        0
102
RTVSPost2010PropOp40
 70
     1
102
RTVSPost2010Prop41ColorIndex
 90
       18
102
RTVSPost2010Prop41ColorRGB
 90
        0
102
RTVSPost2010PropOp41
 70
     1
102
RTVSPost2010Prop42
 90
       50
102
RTVSPost2010PropOp42
 70
     1
102
RTVSPost2010Prop43
 90
        3
102
RTVSPost2010PropOp43
 70
     1
102
RTVSPost2010Prop44ColorIndex
 90
        5
102
RTVSPost2010Prop44ColorRGB
 90
      255
102
RTVSPost2010PropOp44
 70
     1
102
RTVSPost2010Prop45
280
     0
102
RTVSPost2010PropOp45
 70
     1
102
RTVSPost2010Prop46
 90
       50
102
RTVSPost2010PropOp46
 70
     1
102
RTVSPost2010Prop47
 90
       50
102
RTVSPost2010PropOp47
 70
     1
102
RTVSPost2010Prop48
 90
       50
102
RTVSPost2010PropOp48
 70
     1
102
RTVSPost2010Prop49
280
     0
102
RTVSPost2010PropOp49
 70
     1
102
RTVSPost2010Prop50
 90
       50
102
RTVSPost2010PropOp50
 70
     1
102
RTVSPost2010Prop51ColorIndex
 90
      256
102
RTVSPost2010Prop51ColorRGB
 90
-16777216
102
RTVSPost2010PropOp51
 70
     0
102
RTVSPost2010Prop52
140
1.0
102
RTVSPost2010PropOp52
 70
     0
102
RTVSPost2010Prop53
 90
        2
102
RTVSPost2010PropOp53
 70
     1
102
RTVSPost2010Prop54
  1
strokes_ogs.tif
102
RTVSPost2010PropOp54
 70
     1
102
RTVSPost2010Prop55
280
     0
102
RTVSPost2010PropOp55
 70
     1
102
RTVSPost2010Prop56
140
1.0
102
RTVSPost2010PropOp56
 70
     1
102
RTVSPost2010Prop57
140
1.0
102
RTVSPost2010PropOp57
 70
     1
  0
XRECORD
  5
188
102
{ACAD_REACTORS
330
187
102
}
330
187
100
AcDbXrecord
280
     1
102
RTVSPost2010Prop28
280
     0
102
RTVSPost2010PropOp28
 70
     1
102
RTVSPost2010Prop29
280
     1
102
RTVSPost2010PropOp29
 70
     1
102
RTVSPost2010Prop30
280
     1
102
RTVSPost2010PropOp30
 70
     1
102
RTVSPost2010Prop31
280
     0
102
RTVSPost2010PropOp31
 70
     1
102
RTVSPost2010Prop32
280
     0
102
RTVSPost2010PropOp32
 70
     1
102
RTVSPost2010Prop33
280
     0
102
RTVSPost2010PropOp33
 70
     1
102
RTVSPost2010Prop34
280
     0
102
RTVSPost2010PropOp34
 70
     1
102
RTVSPost2010Prop35
280
     0
102
RTVSPost2010PropOp35
 70
     1
102
RTVSPost2010Prop36
280
     0
102
RTVSPost2010PropOp36
 70
     1
102
RTVSPost2010Prop37
 90
       50
102
RTVSPost2010PropOp37
 70
     1
102
RTVSPost2010Prop38
140
0.0
102
RTVSPost2010PropOp38
 70
     1
102
RTVSPost2010Prop39
140
1.0
102
RTVSPost2010PropOp39
 70
     1
102
RTVSPost2010Prop40
 90
        0
102
RTVSPost2010PropOp40
 70
     1
102
RTVSPost2010Prop41ColorIndex
 90
       18
102
RTVSPost2010Prop41ColorRGB
 90
        0
102
RTVSPost2010PropOp41
 70
     1
102
RTVSPost2010Prop42
 90
       50
102
RTVSPost2010PropOp42
 70
     1
102
RTVSPost2010Prop43
 90
        3
102
RTVSPost2010PropOp43
 70
     1
102
RTVSPost2010Prop44ColorIndex
 90
        5
102
RTVSPost2010Prop44ColorRGB
 90
      255
102
RTVSPost2010PropOp44
 70
     1
102
RTVSPost2010Prop45
280
     0
102
RTVSPost2010PropOp45
 70
     1
102
RTVSPost2010Prop46
 90
       50
102
RTVSPost2010PropOp46
 70
     1
102
RTVSPost2010Prop47
 90
       50
102
RTVSPost2010PropOp47
 70
     1
102
RTVSPost2010Prop48
 90
       50
102
RTVSPost2010PropOp48
 70
     1
102
RTVSPost2010Prop49
280
     0
102
RTVSPost2010PropOp49
 70
     1
102
RTVSPost2010Prop50
 90
       50
102
RTVSPost2010PropOp50
 70
     1
102
RTVSPost2010Prop51ColorIndex
 90
      256
102
RTVSPost2010Prop51ColorRGB
 90
-16777216
102
RTVSPost2010PropOp51
 70
     0
102
RTVSPost2010Prop52
140
1.0
102
RTVSPost2010PropOp52
 70
     0
102
RTVSPost2010Prop53
 90
        2
102
RTVSPost2010PropOp53
 70
     1
102
RTVSPost2010Prop54
  1
strokes_ogs.tif
102
RTVSPost2010PropOp54
 70
     1
102
RTVSPost2010Prop55
280
     0
102
RTVSPost2010PropOp55
 70
     1
102
RTVSPost2010Prop56
140
1.0
102
RTVSPost2010PropOp56
 70
     1
102
RTVSPost2010Prop57
140
1.0
102
RTVSPost2010PropOp57
 70
     1
  0
XRECORD
  5
18A
102
{ACAD_REACTORS
330
189
102
}
330
189
100
AcDbXrecord
280
     1
102
RTVSPost2010Prop28
280
     0
102
RTVSPost2010PropOp28
 70
     1
102
RTVSPost2010Prop29
280
     1
102
RTVSPost2010PropOp29
 70
     1
102
RTVSPost2010Prop30
280
     1
102
RTVSPost2010PropOp30
 70
     1
102
RTVSPost2010Prop31
280
     0
102
RTVSPost2010PropOp31
 70
     1
102
RTVSPost2010Prop32
280
     0
102
RTVSPost2010PropOp32
 70
     1
102
RTVSPost2010Prop33
280
     0
102
RTVSPost2010PropOp33
 70
     1
102
RTVSPost2010Prop34
280
     0
102
RTVSPost2010PropOp34
 70
     1
102
RTVSPost2010Prop35
280
     0
102
RTVSPost2010PropOp35
 70
     1
102
RTVSPost2010Prop36
280
     0
102
RTVSPost2010PropOp36
 70
     1
102
RTVSPost2010Prop37
 90
       50
102
RTVSPost2010PropOp37
 70
     1
102
RTVSPost2010Prop38
140
0.0
102
RTVSPost2010PropOp38
 70
     1
102
RTVSPost2010Prop39
140
1.0
102
RTVSPost2010PropOp39
 70
     1
102
RTVSPost2010Prop40
 90
        0
102
RTVSPost2010PropOp40
 70
     1
102
RTVSPost2010Prop41ColorIndex
 90
       18
102
RTVSPost2010Prop41ColorRGB
 90
        0
102
RTVSPost2010PropOp41
 70
     1
102
RTVSPost2010Prop42
 90
       50
102
RTVSPost2010PropOp42
 70
     1
102
RTVSPost2010Prop43
 90
        3
102
RTVSPost2010PropOp43
 70
     1
102
RTVSPost2010Prop44ColorIndex
 90
        5
102
RTVSPost2010Prop44ColorRGB
 90
      255
102
RTVSPost2010PropOp44
 70
     1
102
RTVSPost2010Prop45
280
     0
102
RTVSPost2010PropOp45
 70
     1
102
RTVSPost2010Prop46
 90
       50
102
RTVSPost2010PropOp46
 70
     1
102
RTVSPost2010Prop47
 90
       50
102
RTVSPost2010PropOp47
 70
     1
102
RTVSPost2010Prop48
 90
       50
102
RTVSPost2010PropOp48
 70
     1
102
RTVSPost2010Prop49
280
     0
102
RTVSPost2010PropOp49
 70
     1
102
RTVSPost2010Prop50
 90
       50
102
RTVSPost2010PropOp50
 70
     1
102
RTVSPost2010Prop51ColorIndex
 90
      256
102
RTVSPost2010Prop51ColorRGB
 90
-16777216
102
RTVSPost2010PropOp51
 70
     0
102
RTVSPost2010Prop52
140
1.0
102
RTVSPost2010PropOp52
 70
     0
102
RTVSPost2010Prop53
 90
        2
102
RTVSPost2010PropOp53
 70
     1
102
RTVSPost2010Prop54
  1
strokes_ogs.tif
102
RTVSPost2010PropOp54
 70
     1
102
RTVSPost2010Prop55
280
     0
102
RTVSPost2010PropOp55
 70
     1
102
RTVSPost2010Prop56
140
1.0
102
RTVSPost2010PropOp56
 70
     1
102
RTVSPost2010Prop57
140
1.0
102
RTVSPost2010PropOp57
 70
     1
  0
XRECORD
  5
180
102
{ACAD_REACTORS
330
17F
102
}
330
17F
100
AcDbXrecord
280
     1
102
RTVSPost2010Prop28
280
     0
102
RTVSPost2010PropOp28
 70
     1
102
RTVSPost2010Prop29
280
     1
102
RTVSPost2010PropOp29
 70
     1
102
RTVSPost2010Prop30
280
     1
102
RTVSPost2010PropOp30
 70
     1
102
RTVSPost2010Prop31
280
     0
102
RTVSPost2010PropOp31
 70
     1
102
RTVSPost2010Prop32
280
     0
102
RTVSPost2010PropOp32
 70
     1
102
RTVSPost2010Prop33
280
     0
102
RTVSPost2010PropOp33
 70
     1
102
RTVSPost2010Prop34
280
     0
102
RTVSPost2010PropOp34
 70
     1
102
RTVSPost2010Prop35
280
     0
102
RTVSPost2010PropOp35
 70
     1
102
RTVSPost2010Prop36
280
     0
102
RTVSPost2010PropOp36
 70
     1
102
RTVSPost2010Prop37
 90
       50
102
RTVSPost2010PropOp37
 70
     1
102
RTVSPost2010Prop38
140
0.0
102
RTVSPost2010PropOp38
 70
     1
102
RTVSPost2010Prop39
140
1.0
102
RTVSPost2010PropOp39
 70
     1
102
RTVSPost2010Prop40
 90
        0
102
RTVSPost2010PropOp40
 70
     1
102
RTVSPost2010Prop41ColorIndex
 90
       18
102
RTVSPost2010Prop41ColorRGB
 90
        0
102
RTVSPost2010PropOp41
 70
     1
102
RTVSPost2010Prop42
 90
       50
102
RTVSPost2010PropOp42
 70
     1
102
RTVSPost2010Prop43
 90
        3
102
RTVSPost2010PropOp43
 70
     1
102
RTVSPost2010Prop44ColorIndex
 90
        5
102
RTVSPost2010Prop44ColorRGB
 90
      255
102
RTVSPost2010PropOp44
 70
     1
102
RTVSPost2010Prop45
280
     0
102
RTVSPost2010PropOp45
 70
     1
102
RTVSPost2010Prop46
 90
       50
102
RTVSPost2010PropOp46
 70
     1
102
RTVSPost2010Prop47
 90
       50
102
RTVSPost2010PropOp47
 70
     1
102
RTVSPost2010Prop48
 90
       50
102
RTVSPost2010PropOp48
 70
     1
102
RTVSPost2010Prop49
280
     0
102
RTVSPost2010PropOp49
 70
     1
102
RTVSPost2010Prop50
 90
       50
102
RTVSPost2010PropOp50
 70
     1
102
RTVSPost2010Prop51ColorIndex
 90
      256
102
RTVSPost2010Prop51ColorRGB
 90
-16777216
102
RTVSPost2010PropOp51
 70
     0
102
RTVSPost2010Prop52
140
1.0
102
RTVSPost2010PropOp52
 70
     0
102
RTVSPost2010Prop53
 90
        2
102
RTVSPost2010PropOp53
 70
     1
102
RTVSPost2010Prop54
  1
strokes_ogs.tif
102
RTVSPost2010PropOp54
 70
     1
102
RTVSPost2010Prop55
280
     0
102
RTVSPost2010PropOp55
 70
     1
102
RTVSPost2010Prop56
140
1.0
102
RTVSPost2010PropOp56
 70
     1
102
RTVSPost2010Prop57
140
1.0
102
RTVSPost2010PropOp57
 70
     1
  0
XRECORD
  5
174
102
{ACAD_REACTORS
330
173
102
}
330
173
100
AcDbXrecord
280
     1
102
RTVSPost2010Prop28
280
     0
102
RTVSPost2010PropOp28
 70
     1
102
RTVSPost2010Prop29
280
     1
102
RTVSPost2010PropOp29
 70
     1
102
RTVSPost2010Prop30
280
     1
102
RTVSPost2010PropOp30
 70
     1
102
RTVSPost2010Prop31
280
     0
102
RTVSPost2010PropOp31
 70
     1
102
RTVSPost2010Prop32
280
     0
102
RTVSPost2010PropOp32
 70
     1
102
RTVSPost2010Prop33
280
     0
102
RTVSPost2010PropOp33
 70
     1
102
RTVSPost2010Prop34
280
     0
102
RTVSPost2010PropOp34
 70
     1
102
RTVSPost2010Prop35
280
     0
102
RTVSPost2010PropOp35
 70
     1
102
RTVSPost2010Prop36
280
     0
102
RTVSPost2010PropOp36
 70
     1
102
RTVSPost2010Prop37
 90
       50
102
RTVSPost2010PropOp37
 70
     1
102
RTVSPost2010Prop38
140
0.0
102
RTVSPost2010PropOp38
 70
     1
102
RTVSPost2010Prop39
140
1.0
102
RTVSPost2010PropOp39
 70
     1
102
RTVSPost2010Prop40
 90
        0
102
RTVSPost2010PropOp40
 70
     1
102
RTVSPost2010Prop41ColorIndex
 90
       18
102
RTVSPost2010Prop41ColorRGB
 90
        0
102
RTVSPost2010PropOp41
 70
     1
102
RTVSPost2010Prop42
 90
       50
102
RTVSPost2010PropOp42
 70
     1
102
RTVSPost2010Prop43
 90
        3
102
RTVSPost2010PropOp43
 70
     1
102
RTVSPost2010Prop44ColorIndex
 90
        5
102
RTVSPost2010Prop44ColorRGB
 90
      255
102
RTVSPost2010PropOp44
 70
     1
102
RTVSPost2010Prop45
280
     0
102
RTVSPost2010PropOp45
 70
     1
102
RTVSPost2010Prop46
 90
       50
102
RTVSPost2010PropOp46
 70
     1
102
RTVSPost2010Prop47
 90
       50
102
RTVSPost2010PropOp47
 70
     1
102
RTVSPost2010Prop48
 90
       50
102
RTVSPost2010PropOp48
 70
     1
102
RTVSPost2010Prop49
280
     0
102
RTVSPost2010PropOp49
 70
     1
102
RTVSPost2010Prop50
 90
       50
102
RTVSPost2010PropOp50
 70
     1
102
RTVSPost2010Prop51ColorIndex
 90
      256
102
RTVSPost2010Prop51ColorRGB
 90
-16777216
102
RTVSPost2010PropOp51
 70
     0
102
RTVSPost2010Prop52
140
1.0
102
RTVSPost2010PropOp52
 70
     0
102
RTVSPost2010Prop53
 90
        2
102
RTVSPost2010PropOp53
 70
     1
102
RTVSPost2010Prop54
  1
strokes_ogs.tif
102
RTVSPost2010PropOp54
 70
     1
102
RTVSPost2010Prop55
280
     0
102
RTVSPost2010PropOp55
 70
     1
102
RTVSPost2010Prop56
140
1.0
102
RTVSPost2010PropOp56
 70
     1
102
RTVSPost2010Prop57
140
1.0
102
RTVSPost2010PropOp57
 70
     1
  0
XRECORD
  5
18C
102
{ACAD_REACTORS
330
18B
102
}
330
18B
100
AcDbXrecord
280
     1
102
RTVSPost2010Prop28
280
     0
102
RTVSPost2010PropOp28
 70
     1
102
RTVSPost2010Prop29
280
     1
102
RTVSPost2010PropOp29
 70
     1
102
RTVSPost2010Prop30
280
     1
102
RTVSPost2010PropOp30
 70
     1
102
RTVSPost2010Prop31
280
     0
102
RTVSPost2010PropOp31
 70
     1
102
RTVSPost2010Prop32
280
     0
102
RTVSPost2010PropOp32
 70
     1
102
RTVSPost2010Prop33
280
     0
102
RTVSPost2010PropOp33
 70
     1
102
RTVSPost2010Prop34
280
     0
102
RTVSPost2010PropOp34
 70
     1
102
RTVSPost2010Prop35
280
     0
102
RTVSPost2010PropOp35
 70
     1
102
RTVSPost2010Prop36
280
     0
102
RTVSPost2010PropOp36
 70
     1
102
RTVSPost2010Prop37
 90
       50
102
RTVSPost2010PropOp37
 70
     1
102
RTVSPost2010Prop38
140
0.0
102
RTVSPost2010PropOp38
 70
     1
102
RTVSPost2010Prop39
140
1.0
102
RTVSPost2010PropOp39
 70
     1
102
RTVSPost2010Prop40
 90
        0
102
RTVSPost2010PropOp40
 70
     1
102
RTVSPost2010Prop41ColorIndex
 90
       18
102
RTVSPost2010Prop41ColorRGB
 90
        0
102
RTVSPost2010PropOp41
 70
     1
102
RTVSPost2010Prop42
 90
       50
102
RTVSPost2010PropOp42
 70
     1
102
RTVSPost2010Prop43
 90
        3
102
RTVSPost2010PropOp43
 70
     1
102
RTVSPost2010Prop44ColorIndex
 90
        5
102
RTVSPost2010Prop44ColorRGB
 90
      255
102
RTVSPost2010PropOp44
 70
     1
102
RTVSPost2010Prop45
280
     0
102
RTVSPost2010PropOp45
 70
     1
102
RTVSPost2010Prop46
 90
       50
102
RTVSPost2010PropOp46
 70
     1
102
RTVSPost2010Prop47
 90
       50
102
RTVSPost2010PropOp47
 70
     1
102
RTVSPost2010Prop48
 90
       50
102
RTVSPost2010PropOp48
 70
     1
102
RTVSPost2010Prop49
280
     0
102
RTVSPost2010PropOp49
 70
     1
102
RTVSPost2010Prop50
 90
       50
102
RTVSPost2010PropOp50
 70
     1
102
RTVSPost2010Prop51ColorIndex
 90
      256
102
RTVSPost2010Prop51ColorRGB
 90
-16777216
102
RTVSPost2010PropOp51
 70
     0
102
RTVSPost2010Prop52
140
1.0
102
RTVSPost2010PropOp52
 70
     0
102
RTVSPost2010Prop53
 90
        2
102
RTVSPost2010PropOp53
 70
     1
102
RTVSPost2010Prop54
  1
strokes_ogs.tif
102
RTVSPost2010PropOp54
 70
     1
102
RTVSPost2010Prop55
280
     0
102
RTVSPost2010PropOp55
 70
     1
102
RTVSPost2010Prop56
140
1.0
102
RTVSPost2010PropOp56
 70
     1
102
RTVSPost2010Prop57
140
1.0
102
RTVSPost2010PropOp57
 70
     1
  0
ENDSEC
  0
EOF
