  0
SECTION
  2
HEADER
  9
$ACADVER
  1
AC1024
  9
$ACADMAINTVER
 70
   205
  9
$DWGCODEPAGE
  3
ANSI_1251
  9
$INSBASE
 10
0.0
 20
0.0
 30
0.0
  9
$EXTMIN
 10
1.000000000000000E+20
 20
1.000000000000000E+20
 30
1.000000000000000E+20
  9
$EXTMAX
 10
-1.000000000000000E+20
 20
-1.000000000000000E+20
 30
-1.000000000000000E+20
  9
$LIMMIN
 10
0.0
 20
0.0
  9
$LIMMAX
 10
12.0
 20
9.0
  9
$ORTHOMODE
 70
     0
  9
$REGENMODE
 70
     1
  9
$FILLMODE
 70
     1
  9
$QTEXTMODE
 70
     0
  9
$MIRRTEXT
 70
     1
  9
$LTSCALE
 40
1.0
  9
$ATTMODE
 70
     1
  9
$TEXTSIZE
 40
0.2
  9
$TRACEWID
 40
0.05
  9
$TEXTSTYLE
  7
Standard
  9
$CLAYER
  8
OracDecor_panel_moldings
  9
$CELTYPE
  6
ByLayer
  9
$CECOLOR
 62
   256
  9
$CELTSCALE
 40
1.0
  9
$DISPSILH
 70
     0
  9
$DIMSCALE
 40
1.0
  9
$DIMASZ
 40
0.18
  9
$DIMEXO
 40
0.0625
  9
$DIMDLI
 40
0.38
  9
$DIMRND
 40
0.0
  9
$DIMDLE
 40
0.0
  9
$DIMEXE
 40
0.18
  9
$DIMTP
 40
0.0
  9
$DIMTM
 40
0.0
  9
$DIMTXT
 40
0.18
  9
$DIMCEN
 40
0.09
  9
$DIMTSZ
 40
0.0
  9
$DIMTOL
 70
     0
  9
$DIMLIM
 70
     0
  9
$DIMTIH
 70
     1
  9
$DIMTOH
 70
     1
  9
$DIMSE1
 70
     0
  9
$DIMSE2
 70
     0
  9
$DIMTAD
 70
     0
  9
$DIMZIN
 70
     0
  9
$DIMBLK
  1

  9
$DIMASO
 70
     1
  9
$DIMSHO
 70
     1
  9
$DIMPOST
  1

  9
$DIMAPOST
  1

  9
$DIMALT
 70
     0
  9
$DIMALTD
 70
     2
  9
$DIMALTF
 40
25.4
  9
$DIMLFAC
 40
1.0
  9
$DIMTOFL
 70
     0
  9
$DIMTVP
 40
0.0
  9
$DIMTIX
 70
     0
  9
$DIMSOXD
 70
     0
  9
$DIMSAH
 70
     0
  9
$DIMBLK1
  1

  9
$DIMBLK2
  1

  9
$DIMSTYLE
  2
Standard
  9
$DIMCLRD
 70
     0
  9
$DIMCLRE
 70
     0
  9
$DIMCLRT
 70
     0
  9
$DIMTFAC
 40
1.0
  9
$DIMGAP
 40
0.09
  9
$DIMJUST
 70
     0
  9
$DIMSD1
 70
     0
  9
$DIMSD2
 70
     0
  9
$DIMTOLJ
 70
     1
  9
$DIMTZIN
 70
     0
  9
$DIMALTZ
 70
     0
  9
$DIMALTTZ
 70
     0
  9
$DIMUPT
 70
     0
  9
$DIMDEC
 70
     4
  9
$DIMTDEC
 70
     4
  9
$DIMALTU
 70
     2
  9
$DIMALTTD
 70
     2
  9
$DIMTXSTY
  7
Standard
  9
$DIMAUNIT
 70
     0
  9
$DIMADEC
 70
     0
  9
$DIMALTRND
 40
0.0
  9
$DIMAZIN
 70
     0
  9
$DIMDSEP
 70
    46
  9
$DIMATFIT
 70
     3
  9
$DIMFRAC
 70
     0
  9
$DIMLDRBLK
  1

  9
$DIMLUNIT
 70
     2
  9
$DIMLWD
 70
    -2
  9
$DIMLWE
 70
    -2
  9
$DIMTMOVE
 70
     0
  9
$DIMFXL
 40
1.0
  9
$DIMFXLON
 70
     0
  9
$DIMJOGANG
 40
0.7853981633974483
  9
$DIMTFILL
 70
     0
  9
$DIMTFILLCLR
 70
     0
  9
$DIMARCSYM
 70
     0
  9
$DIMLTYPE
  6

  9
$DIMLTEX1
  6

  9
$DIMLTEX2
  6

  9
$DIMTXTDIRECTION
 70
     0
  9
$LUNITS
 70
     2
  9
$LUPREC
 70
     4
  9
$SKETCHINC
 40
0.1
  9
$FILLETRAD
 40
0.5
  9
$AUNITS
 70
     0
  9
$AUPREC
 70
     0
  9
$MENU
  1
.
  9
$ELEVATION
 40
0.0
  9
$PELEVATION
 40
0.0
  9
$THICKNESS
 40
0.0
  9
$LIMCHECK
 70
     0
  9
$CHAMFERA
 40
0.5
  9
$CHAMFERB
 40
0.5
  9
$CHAMFERC
 40
1.0
  9
$CHAMFERD
 40
0.0
  9
$SKPOLY
 70
     0
  9
$TDCREATE
 40
2451380.930432396
  9
$TDUCREATE
 40
2451380.805432396
  9
$TDUPDATE
 40
2451380.966180555
  9
$TDUUPDATE
 40
2451380.841180556
  9
$TDINDWG
 40
0.0075638657
  9
$TDUSRTIMER
 40
0.0075548264
  9
$USRTIMER
 70
     1
  9
$ANGBASE
 50
0.0
  9
$ANGDIR
 70
     0
  9
$PDMODE
 70
     0
  9
$PDSIZE
 40
0.0
  9
$PLINEWID
 40
0.0
  9
$SPLFRAME
 70
     0
  9
$SPLINETYPE
 70
     6
  9
$SPLINESEGS
 70
     8
  9
$HANDSEED
  5
1AB
  9
$SURFTAB1
 70
     6
  9
$SURFTAB2
 70
     6
  9
$SURFTYPE
 70
     6
  9
$SURFU
 70
     6
  9
$SURFV
 70
     6
  9
$UCSBASE
  2

  9
$UCSNAME
  2

  9
$UCSORG
 10
0.0
 20
0.0
 30
0.0
  9
$UCSXDIR
 10
1.0
 20
0.0
 30
0.0
  9
$UCSYDIR
 10
0.0
 20
1.0
 30
0.0
  9
$UCSORTHOREF
  2

  9
$UCSORTHOVIEW
 70
     0
  9
$UCSORGTOP
 10
0.0
 20
0.0
 30
0.0
  9
$UCSORGBOTTOM
 10
0.0
 20
0.0
 30
0.0
  9
$UCSORGLEFT
 10
0.0
 20
0.0
 30
0.0
  9
$UCSORGRIGHT
 10
0.0
 20
0.0
 30
0.0
  9
$UCSORGFRONT
 10
0.0
 20
0.0
 30
0.0
  9
$UCSORGBACK
 10
0.0
 20
0.0
 30
0.0
  9
$PUCSBASE
  2

  9
$PUCSNAME
  2

  9
$PUCSORG
 10
0.0
 20
0.0
 30
0.0
  9
$PUCSXDIR
 10
1.0
 20
0.0
 30
0.0
  9
$PUCSYDIR
 10
0.0
 20
1.0
 30
0.0
  9
$PUCSORTHOREF
  2

  9
$PUCSORTHOVIEW
 70
     0
  9
$PUCSORGTOP
 10
0.0
 20
0.0
 30
0.0
  9
$PUCSORGBOTTOM
 10
0.0
 20
0.0
 30
0.0
  9
$PUCSORGLEFT
 10
0.0
 20
0.0
 30
0.0
  9
$PUCSORGRIGHT
 10
0.0
 20
0.0
 30
0.0
  9
$PUCSORGFRONT
 10
0.0
 20
0.0
 30
0.0
  9
$PUCSORGBACK
 10
0.0
 20
0.0
 30
0.0
  9
$USERI1
 70
     0
  9
$USERI2
 70
     0
  9
$USERI3
 70
     0
  9
$USERI4
 70
     0
  9
$USERI5
 70
     0
  9
$USERR1
 40
0.0
  9
$USERR2
 40
0.0
  9
$USERR3
 40
0.0
  9
$USERR4
 40
0.0
  9
$USERR5
 40
0.0
  9
$WORLDVIEW
 70
     1
  9
$SHADEDGE
 70
     3
  9
$SHADEDIF
 70
    70
  9
$TILEMODE
 70
     1
  9
$MAXACTVP
 70
    64
  9
$PINSBASE
 10
0.0
 20
0.0
 30
0.0
  9
$PLIMCHECK
 70
     0
  9
$PEXTMIN
 10
1.000000000000000E+20
 20
1.000000000000000E+20
 30
1.000000000000000E+20
  9
$PEXTMAX
 10
-1.000000000000000E+20
 20
-1.000000000000000E+20
 30
-1.000000000000000E+20
  9
$PLIMMIN
 10
0.0
 20
0.0
  9
$PLIMMAX
 10
12.0
 20
9.0
  9
$UNITMODE
 70
     0
  9
$VISRETAIN
 70
     1
  9
$PLINEGEN
 70
     0
  9
$PSLTSCALE
 70
     1
  9
$TREEDEPTH
 70
  3020
  9
$CMLSTYLE
  2
Standard
  9
$CMLJUST
 70
     0
  9
$CMLSCALE
 40
1.0
  9
$PROXYGRAPHICS
 70
     1
  9
$MEASUREMENT
 70
     1
  9
$CELWEIGHT
370
    -1
  9
$ENDCAPS
280
     0
  9
$JOINSTYLE
280
     0
  9
$LWDISPLAY
290
     0
  9
$INSUNITS
 70
     4
  9
$HYPERLINKBASE
  1

  9
$STYLESHEET
  1

  9
$XEDIT
290
     1
  9
$CEPSNTYPE
380
     0
  9
$PSTYLEMODE
290
     1
  9
$FINGERPRINTGUID
  2
{12F50282-3ED8-11D3-A8B7-0060B0F84BC6}
  9
$VERSIONGUID
  2
{12F50293-3ED8-11D3-A8B7-0060B0F84BC6}
  9
$EXTNAMES
290
     1
  9
$PSVPSCALE
 40
0.0
  9
$OLESTARTUP
290
     0
  9
$SORTENTS
280
   127
  9
$INDEXCTL
280
     0
  9
$HIDETEXT
280
     0
  9
$XCLIPFRAME
280
     2
  9
$HALOGAP
280
     0
  9
$OBSCOLOR
 70
   257
  9
$OBSLTYPE
280
     0
  9
$INTERSECTIONDISPLAY
280
     0
  9
$INTERSECTIONCOLOR
 70
   257
  9
$DIMASSOC
280
     1
  9
$PROJECTNAME
  1

  9
$CAMERADISPLAY
290
     0
  9
$LENSLENGTH
 40
50.0
  9
$CAMERAHEIGHT
 40
0.0
  9
$STEPSPERSEC
 40
2.0
  9
$STEPSIZE
 40
6.0
  9
$3DDWFPREC
 40
2.0
  9
$PSOLWIDTH
 40
0.25
  9
$PSOLHEIGHT
 40
4.0
  9
$LOFTANG1
 40
1.570796326794896
  9
$LOFTANG2
 40
1.570796326794896
  9
$LOFTMAG1
 40
0.0
  9
$LOFTMAG2
 40
0.0
  9
$LOFTPARAM
 70
     7
  9
$LOFTNORMALS
280
     1
  9
$LATITUDE
 40
37.795
  9
$LONGITUDE
 40
-122.394
  9
$NORTHDIRECTION
 40
0.0
  9
$TIMEZONE
 70
 -8000
  9
$LIGHTGLYPHDISPLAY
280
     1
  9
$TILEMODELIGHTSYNCH
280
     1
  9
$CMATERIAL
347
AB
  9
$SOLIDHIST
280
     0
  9
$SHOWHIST
280
     1
  9
$DWFFRAME
280
     2
  9
$DGNFRAME
280
     0
  9
$REALWORLDSCALE
290
     1
  9
$INTERFERECOLOR
 62
     1
  9
$INTERFEREOBJVS
345
CD
  9
$INTERFEREVPVS
346
CA
  9
$CSHADOW
280
     0
  9
$SHADOWPLANELOCATION
 40
0.0
  0
ENDSEC
  0
SECTION
  2
CLASSES
  0
CLASS
  1
ACDBDICTIONARYWDFLT
  2
AcDbDictionaryWithDefault
  3
ObjectDBX Classes
 90
        0
 91
        1
280
     0
281
     0
  0
CLASS
  1
ACDBPLACEHOLDER
  2
AcDbPlaceHolder
  3
ObjectDBX Classes
 90
        0
 91
        2
280
     0
281
     0
  0
CLASS
  1
LAYOUT
  2
AcDbLayout
  3
ObjectDBX Classes
 90
        0
 91
        3
280
     0
281
     0
  0
CLASS
  1
MATERIAL
  2
AcDbMaterial
  3
ObjectDBX Classes
 90
     1153
 91
        3
280
     0
281
     0
  0
CLASS
  1
VISUALSTYLE
  2
AcDbVisualStyle
  3
ObjectDBX Classes
 90
     4095
 91
       24
280
     0
281
     0
  0
CLASS
  1
TABLESTYLE
  2
AcDbTableStyle
  3
ObjectDBX Classes
 90
     4095
 91
        1
280
     0
281
     0
  0
CLASS
  1
SCALE
  2
AcDbScale
  3
ObjectDBX Classes
 90
     1153
 91
       17
280
     0
281
     0
  0
CLASS
  1
MLEADERSTYLE
  2
AcDbMLeaderStyle
  3
ACDB_MLEADERSTYLE_CLASS
 90
     4095
 91
        1
280
     0
281
     0
  0
CLASS
  1
ACDBSECTIONVIEWSTYLE
  2
AcDbSectionViewStyle
  3
ObjectDBX Classes
 90
     1025
 91
        1
280
     0
281
     0
  0
CLASS
  1
ACDBDETAILVIEWSTYLE
  2
AcDbDetailViewStyle
  3
ObjectDBX Classes
 90
     1025
 91
        1
280
     0
281
     0
  0
CLASS
  1
MESH
  2
AcDbSubDMesh
  3
ObjectDBX Classes
 90
        0
 91
        1
280
     0
281
     1
  0
CLASS
  1
DICTIONARYVAR
  2
AcDbDictionaryVar
  3
ObjectDBX Classes
 90
        0
 91
        9
280
     0
281
     0
  0
CLASS
  1
CELLSTYLEMAP
  2
AcDbCellStyleMap
  3
ObjectDBX Classes
 90
     1152
 91
        1
280
     0
281
     0
  0
ENDSEC
  0
SECTION
  2
TABLES
  0
TABLE
  2
VPORT
  5
8
330
0
100
AcDbSymbolTable
 70
     1
  0
VPORT
  5
A8
330
8
100
AcDbSymbolTableRecord
100
AcDbViewportTableRecord
  2
*Active
 70
     0
 10
0.0
 20
0.0
 11
1.0
 21
1.0
 12
0.0000296713842545
 22
33.88464736938477
 13
0.0
 23
0.0
 14
0.5
 24
0.5
 15
0.5
 25
0.5
 16
-1.0
 26
-1.0
 36
1.0
 17
0.0
 27
0.0
 37
0.0
 40
1117.012749049086
 41
1.603350201682211
 42
50.0
 43
0.0
 44
0.0
 50
0.0
 51
0.0
 71
     0
 72
   100
 73
     1
 74
     3
 75
     0
 76
     0
 77
     0
 78
     0
281
     0
 65
     1
110
0.0
120
0.0
130
0.0
111
1.0
121
0.0
131
0.0
112
0.0
122
1.0
132
0.0
 79
     0
146
0.0
348
C9
 60
     3
 61
     5
292
     1
282
     1
141
0.0
142
0.0
 63
   250
421
  3355443
  0
ENDTAB
  0
TABLE
  2
LTYPE
  5
5
330
0
100
AcDbSymbolTable
 70
     1
  0
LTYPE
  5
14
330
5
100
AcDbSymbolTableRecord
100
AcDbLinetypeTableRecord
  2
ByBlock
 70
     0
  3

 72
    65
 73
     0
 40
0.0
  0
LTYPE
  5
15
330
5
100
AcDbSymbolTableRecord
100
AcDbLinetypeTableRecord
  2
ByLayer
 70
     0
  3

 72
    65
 73
     0
 40
0.0
  0
LTYPE
  5
16
330
5
100
AcDbSymbolTableRecord
100
AcDbLinetypeTableRecord
  2
Continuous
 70
     0
  3
Solid line
 72
    65
 73
     0
 40
0.0
  0
ENDTAB
  0
TABLE
  2
LAYER
  5
2
330
0
100
AcDbSymbolTable
 70
     3
  0
LAYER
  5
10
330
2
100
AcDbSymbolTableRecord
100
AcDbLayerTableRecord
  2
0
 70
     0
 62
     7
  6
Continuous
370
    -3
390
F
347
BB
  0
LAYER
  5
2B
330
2
100
AcDbSymbolTableRecord
100
AcDbLayerTableRecord
  2
ASHADE
 70
     4
 62
     7
  6
Continuous
370
    -3
390
2D
347
BB
  0
LAYER
  5
F8
330
2
100
AcDbSymbolTableRecord
100
AcDbLayerTableRecord
  2
OracDecor_panel_moldings
 70
     0
 62
   231
420
 14981560
  6
Continuous
370
    -3
390
F
347
BB
  0
ENDTAB
  0
TABLE
  2
STYLE
  5
3
330
0
100
AcDbSymbolTable
 70
     2
  0
STYLE
  5
11
330
3
100
AcDbSymbolTableRecord
100
AcDbTextStyleTableRecord
  2
Standard
 70
     0
 40
0.0
 41
1.0
 50
0.0
 71
     0
 42
0.2
  3
txt
  4

  0
STYLE
  5
2C
330
3
100
AcDbSymbolTableRecord
100
AcDbTextStyleTableRecord
  2
ASHADE
 70
     0
 40
0.2
 41
1.0
 50
0.0
 71
     0
 42
0.2
  3
simplex
  4

  0
ENDTAB
  0
TABLE
  2
VIEW
  5
6
330
0
100
AcDbSymbolTable
 70
     0
  0
ENDTAB
  0
TABLE
  2
UCS
  5
7
330
0
100
AcDbSymbolTable
 70
     0
  0
ENDTAB
  0
TABLE
  2
APPID
  5
9
330
0
100
AcDbSymbolTable
 70
     6
  0
APPID
  5
12
330
9
100
AcDbSymbolTableRecord
100
AcDbRegAppTableRecord
  2
ACAD
 70
     0
  0
APPID
  5
8F
330
9
100
AcDbSymbolTableRecord
100
AcDbRegAppTableRecord
  2
AVE_RENDER
 70
     0
  0
APPID
  5
90
330
9
100
AcDbSymbolTableRecord
100
AcDbRegAppTableRecord
  2
AVE_ENTITY_MATERIAL
 70
     0
  0
APPID
  5
9C
330
9
100
AcDbSymbolTableRecord
100
AcDbRegAppTableRecord
  2
AVE_FINISH
 70
     0
  0
APPID
  5
9D
330
9
100
AcDbSymbolTableRecord
100
AcDbRegAppTableRecord
  2
AVE_MATERIAL
 70
     0
  0
APPID
  5
9E
330
9
100
AcDbSymbolTableRecord
100
AcDbRegAppTableRecord
  2
AVE_GLOBAL
 70
     0
  0
ENDTAB
  0
TABLE
  2
DIMSTYLE
  5
A
330
0
100
AcDbSymbolTable
 70
     1
100
AcDbDimStyleTable
 71
     0
  0
DIMSTYLE
105
27
330
A
100
AcDbSymbolTableRecord
100
AcDbDimStyleTableRecord
  2
Standard
 70
     0
340
11
  0
ENDTAB
  0
TABLE
  2
BLOCK_RECORD
  5
1
330
0
100
AcDbSymbolTable
 70
     6
  0
BLOCK_RECORD
  5
1F
330
1
100
AcDbSymbolTableRecord
100
AcDbBlockTableRecord
  2
*Model_Space
340
22
 70
     0
280
     1
281
     0
  0
BLOCK_RECORD
  5
1B
330
1
100
AcDbSymbolTableRecord
100
AcDbBlockTableRecord
  2
*Paper_Space
340
1E
 70
     0
280
     1
281
     0
  0
BLOCK_RECORD
  5
23
330
1
100
AcDbSymbolTableRecord
100
AcDbBlockTableRecord
  2
*Paper_Space0
340
26
 70
     0
280
     1
281
     0
  0
BLOCK_RECORD
  5
2E
330
1
100
AcDbSymbolTableRecord
100
AcDbBlockTableRecord
  2
direct
340
0
 70
     0
280
     1
281
     0
  0
BLOCK_RECORD
  5
42
330
1
100
AcDbSymbolTableRecord
100
AcDbBlockTableRecord
  2
overhead
340
0
 70
     0
280
     1
281
     0
  0
BLOCK_RECORD
  5
5F
330
1
100
AcDbSymbolTableRecord
100
AcDbBlockTableRecord
  2
sh_spot
340
0
 70
     0
280
     1
281
     0
  0
BLOCK_RECORD
  5
91
330
1
100
AcDbSymbolTableRecord
100
AcDbBlockTableRecord
  2
AVE_RENDER
340
0
102
{BLKREFS
331
94
331
95
331
96
331
97
331
98
331
99
331
9A
331
9B
102
}
 70
     0
280
     1
281
     0
  0
BLOCK_RECORD
  5
9F
330
1
100
AcDbSymbolTableRecord
100
AcDbBlockTableRecord
  2
AVE_GLOBAL
340
0
102
{BLKREFS
331
A2
102
}
 70
     0
280
     1
281
     0
  0
ENDTAB
  0
ENDSEC
  0
SECTION
  2
BLOCKS
  0
BLOCK
  5
20
330
1F
100
AcDbEntity
  8
0
100
AcDbBlockBegin
  2
*Model_Space
 70
     0
 10
0.0
 20
0.0
 30
0.0
  3
*Model_Space
  1

  0
ENDBLK
  5
21
330
1F
100
AcDbEntity
  8
0
100
AcDbBlockEnd
  0
BLOCK
  5
1C
330
1B
100
AcDbEntity
 67
     1
  8
0
100
AcDbBlockBegin
  2
*Paper_Space
 70
     0
 10
0.0
 20
0.0
 30
0.0
  3
*Paper_Space
  1

  0
ENDBLK
  5
1D
330
1B
100
AcDbEntity
 67
     1
  8
0
100
AcDbBlockEnd
  0
BLOCK
  5
24
330
23
100
AcDbEntity
 67
     1
  8
0
100
AcDbBlockBegin
  2
*Paper_Space0
 70
     0
 10
0.0
 20
0.0
 30
0.0
  3
*Paper_Space0
  1

  0
ENDBLK
  5
25
330
23
100
AcDbEntity
 67
     1
  8
0
100
AcDbBlockEnd
  0
BLOCK
  5
40
330
2E
100
AcDbEntity
  8
0
100
AcDbBlockBegin
  2
direct
 70
     2
 10
0.0
 20
0.0
 30
0.0
  3
direct
  1

  0
ATTDEF
  5
2F
330
2E
100
AcDbEntity
  8
ASHADE
  6
Continuous
 62
     1
100
AcDbText
 10
0.0
 20
-0.1
 30
0.0
 40
0.2
  1

  7
ASHADE
 72
     1
 11
0.0
 21
-0.1
 31
0.0
100
AcDbAttributeDefinition
280
     0
  3
Light Name
  2
SNAME
 70
     0
280
     0
  0
ARC
  5
30
330
2E
100
AcDbEntity
  8
ASHADE
  6
Continuous
 62
     7
100
AcDbCircle
 10
0.0
 20
0.0
 30
0.0
 40
0.3
100
AcDbArc
 50
205.6792886194569
 51
334.3207113805431
  0
ARC
  5
31
330
2E
100
AcDbEntity
  8
ASHADE
  6
Continuous
 62
     7
100
AcDbCircle
 10
0.0
 20
0.0
 30
0.0
 40
0.3
100
AcDbArc
 50
25.67928861945685
 51
154.3207113805431
  0
LINE
  5
32
330
2E
100
AcDbEntity
  8
ASHADE
  6
Continuous
 62
     7
100
AcDbLine
 10
-0.21
 20
0.2142428528562855
 30
0.0
 11
-0.21
 21
0.5
 31
0.0
  0
LINE
  5
33
330
2E
100
AcDbEntity
  8
ASHADE
  6
Continuous
 62
     7
100
AcDbLine
 10
-0.11
 20
0.2791057147390572
 30
0.0
 11
-0.11
 21
0.5
 31
0.0
  0
LINE
  5
34
330
2E
100
AcDbEntity
  8
ASHADE
  6
Continuous
 62
     7
100
AcDbLine
 10
0.21
 20
0.2142428528562855
 30
0.0
 11
0.21
 21
0.5
 31
0.0
  0
ATTDEF
  5
35
330
2E
100
AcDbEntity
  8
ASHADE
  6
Continuous
 62
     7
100
AcDbText
 10
0.0
 20
0.25
 30
0.0
 40
0.01
  1

100
AcDbAttributeDefinition
280
     0
  3
Look-at Y
  2
LAY
 70
     1
280
     0
  0
ATTDEF
  5
36
330
2E
100
AcDbEntity
  8
ASHADE
  6
Continuous
 62
     7
100
AcDbText
 10
0.0
 20
0.22
 30
0.0
 40
0.01
  1
1
100
AcDbAttributeDefinition
280
     0
  3
Light Intensity
  2
INTENSITY
 70
     1
280
     0
  0
ATTDEF
  5
37
330
2E
100
AcDbEntity
  8
ASHADE
  6
Continuous
 62
     7
100
AcDbText
 10
0.0
 20
0.16
 30
0.0
 40
0.01
  1
-1
100
AcDbAttributeDefinition
280
     0
  3
*not used*
  2
BEAMD
 70
     1
280
     0
  0
ATTDEF
  5
38
330
2E
100
AcDbEntity
  8
ASHADE
  6
Continuous
 62
     7
100
AcDbText
 10
0.0
 20
0.175
 30
0.0
 40
0.01
  1
-1
100
AcDbAttributeDefinition
280
     0
  3
*not used*
  2
CONED
 70
     1
280
     0
  0
ATTDEF
  5
39
330
2E
100
AcDbEntity
  8
ASHADE
  6
Continuous
 62
     7
100
AcDbText
 10
0.0
 20
0.19
 30
0.0
 40
0.01
  1
0
100
AcDbAttributeDefinition
280
     0
  3
Depth Map Size
  2
CONEA
 70
     1
280
     0
  0
ATTDEF
  5
3A
330
2E
100
AcDbEntity
  8
ASHADE
  6
Continuous
 62
     7
100
AcDbText
 10
0.0
 20
0.2050000000000001
 30
0.0
 40
0.01
  1
1,1,1
100
AcDbAttributeDefinition
280
     0
  3
Light Color (RGB)
  2
COLOR
 70
     1
280
     0
  0
ATTDEF
  5
3B
330
2E
100
AcDbEntity
  8
ASHADE
  6
Continuous
 62
     7
100
AcDbText
 10
0.0
 20
0.235
 30
0.0
 40
0.01
  1

100
AcDbAttributeDefinition
280
     0
  3
Look-at Z
  2
LAZ
 70
     1
280
     0
  0
LINE
  5
3C
330
2E
100
AcDbEntity
  8
ASHADE
  6
Continuous
 62
     7
100
AcDbLine
 10
0.0
 20
0.3
 30
0.0
 11
0.0
 21
0.5
 31
0.0
  0
LINE
  5
3D
330
2E
100
AcDbEntity
  8
ASHADE
  6
Continuous
 62
     7
100
AcDbLine
 10
0.11
 20
0.2791057147390572
 30
0.0
 11
0.11
 21
0.5
 31
0.0
  0
ATTDEF
  5
3E
330
2E
100
AcDbEntity
  8
ASHADE
  6
Continuous
 62
     7
100
AcDbText
 10
0.0
 20
0.265
 30
0.0
 40
0.01
  1

100
AcDbAttributeDefinition
280
     0
  3
Look-at X
  2
LAX
 70
     1
280
     0
  0
ATTDEF
  5
3F
330
2E
100
AcDbEntity
  8
ASHADE
  6
Continuous
 62
     7
100
AcDbText
 10
0.0
 20
0.28
 30
0.0
 40
0.01
  1

100
AcDbAttributeDefinition
280
     0
  3

  2
GNAME
 70
     1
280
     0
  0
ENDBLK
  5
41
330
2E
100
AcDbEntity
  8
0
100
AcDbBlockEnd
  0
BLOCK
  5
5D
330
42
100
AcDbEntity
  8
0
100
AcDbBlockBegin
  2
overhead
 70
     2
 10
0.0
 20
0.0
 30
0.0
  3
overhead
  1

  0
ATTDEF
  5
43
330
42
100
AcDbEntity
  8
ASHADE
  6
Continuous
 62
     1
100
AcDbText
 10
0.0
 20
-0.1
 30
0.0
 40
0.2
  1

  7
ASHADE
 72
     1
 11
0.0
 21
-0.1
 31
0.0
100
AcDbAttributeDefinition
280
     0
  3
Light Name
  2
SNAME
 70
     0
280
     0
  0
ARC
  5
44
330
42
100
AcDbEntity
  8
ASHADE
  6
Continuous
 62
     7
100
AcDbCircle
 10
0.0
 20
0.0
 30
0.0
 40
0.3
100
AcDbArc
 50
205.6792886194569
 51
334.3207113805431
  0
LINE
  5
45
330
42
100
AcDbEntity
  8
ASHADE
  6
Continuous
 62
     7
100
AcDbLine
 10
-0.2041413561583015
 20
-0.2198324514393848
 30
0.0
 11
-0.2721884748777353
 21
-0.2931099352525131
 31
0.0
  0
LINE
  5
46
330
42
100
AcDbEntity
  8
ASHADE
  6
Continuous
 62
     7
100
AcDbLine
 10
-0.1096591641591904
 20
-0.2792398032442862
 30
0.0
 11
-0.1279356915190555
 21
-0.3257797704516673
 31
0.0
  0
LINE
  5
47
330
42
100
AcDbEntity
  8
ASHADE
  6
Continuous
 62
     7
100
AcDbLine
 10
0.0
 20
-0.2999999999999999
 30
0.0
 11
0.0
 21
-0.4
 31
0.0
  0
LINE
  5
48
330
42
100
AcDbEntity
  8
ASHADE
  6
Continuous
 62
     7
100
AcDbLine
 10
0.1096591641591904
 20
-0.2792398032442862
 30
0.0
 11
0.1279356915190555
 21
-0.3257797704516673
 31
0.0
  0
LINE
  5
49
330
42
100
AcDbEntity
  8
ASHADE
  6
Continuous
 62
     7
100
AcDbLine
 10
0.2041413561583015
 20
-0.2198324514393848
 30
0.0
 11
0.2721884748777353
 21
-0.2931099352525131
 31
0.0
  0
ARC
  5
4A
330
42
100
AcDbEntity
  8
ASHADE
  6
Continuous
 62
     7
100
AcDbCircle
 10
0.0
 20
0.0
 30
0.0
 40
0.3
100
AcDbArc
 50
25.67928861945685
 51
154.3207113805431
  0
LINE
  5
4B
330
42
100
AcDbEntity
  8
ASHADE
  6
Continuous
 62
     7
100
AcDbLine
 10
-0.2703701166919155
 20
0.13
 30
0.0
 11
-0.3154318028072347
 21
0.1516666666666666
 31
0.0
  0
LINE
  5
4C
330
42
100
AcDbEntity
  8
ASHADE
  6
Continuous
 62
     7
100
AcDbLine
 10
-0.2703701166919155
 20
-0.13
 30
0.0
 11
-0.3154318028072347
 21
-0.1516666666666666
 31
0.0
  0
LINE
  5
4D
330
42
100
AcDbEntity
  8
ASHADE
  6
Continuous
 62
     7
100
AcDbLine
 10
-0.2041413561583015
 20
0.2198324514393849
 30
0.0
 11
-0.2721884748777353
 21
0.2931099352525131
 31
0.0
  0
LINE
  5
4E
330
42
100
AcDbEntity
  8
ASHADE
  6
Continuous
 62
     7
100
AcDbLine
 10
-0.1096591641591904
 20
0.2792398032442862
 30
0.0
 11
-0.1279356915190555
 21
0.3257797704516674
 31
0.0
  0
LINE
  5
4F
330
42
100
AcDbEntity
  8
ASHADE
  6
Continuous
 62
     7
100
AcDbLine
 10
0.2703701166919155
 20
-0.13
 30
0.0
 11
0.3154318028072347
 21
-0.1516666666666666
 31
0.0
  0
LINE
  5
50
330
42
100
AcDbEntity
  8
ASHADE
  6
Continuous
 62
     7
100
AcDbLine
 10
0.2703701166919155
 20
0.13
 30
0.0
 11
0.3154318028072347
 21
0.1516666666666666
 31
0.0
  0
LINE
  5
51
330
42
100
AcDbEntity
  8
ASHADE
  6
Continuous
 62
     7
100
AcDbLine
 10
0.0
 20
0.3
 30
0.0
 11
0.0
 21
0.4
 31
0.0
  0
ATTDEF
  5
52
330
42
100
AcDbEntity
  8
ASHADE
  6
Continuous
 62
     7
100
AcDbText
 10
0.0
 20
0.22
 30
0.0
 40
0.01
  1
1
100
AcDbAttributeDefinition
280
     0
  3
Light Intensity
  2
INTENSITY
 70
     1
280
     0
  0
ATTDEF
  5
53
330
42
100
AcDbEntity
  8
ASHADE
  6
Continuous
 62
     7
100
AcDbText
 10
0.0
 20
0.16
 30
0.0
 40
0.01
  1
-1
100
AcDbAttributeDefinition
280
     0
  3
*not used*
  2
BEAMD
 70
     1
280
     0
  0
ATTDEF
  5
54
330
42
100
AcDbEntity
  8
ASHADE
  6
Continuous
 62
     7
100
AcDbText
 10
0.0
 20
0.175
 30
0.0
 40
0.01
  1
-1
100
AcDbAttributeDefinition
280
     0
  3
*not used*
  2
CONED
 70
     1
280
     0
  0
ATTDEF
  5
55
330
42
100
AcDbEntity
  8
ASHADE
  6
Continuous
 62
     7
100
AcDbText
 10
0.0
 20
0.19
 30
0.0
 40
0.01
  1
0
100
AcDbAttributeDefinition
280
     0
  3
Depth Map Size
  2
CONEA
 70
     1
280
     0
  0
ATTDEF
  5
56
330
42
100
AcDbEntity
  8
ASHADE
  6
Continuous
 62
     7
100
AcDbText
 10
0.0
 20
0.2050000000000001
 30
0.0
 40
0.01
  1
1,1,1
100
AcDbAttributeDefinition
280
     0
  3
Light Color (RGB)
  2
COLOR
 70
     1
280
     0
  0
ATTDEF
  5
57
330
42
100
AcDbEntity
  8
ASHADE
  6
Continuous
 62
     7
100
AcDbText
 10
0.0
 20
0.235
 30
0.0
 40
0.01
  1

100
AcDbAttributeDefinition
280
     0
  3
Look-at Z
  2
LAZ
 70
     1
280
     0
  0
ATTDEF
  5
58
330
42
100
AcDbEntity
  8
ASHADE
  6
Continuous
 62
     7
100
AcDbText
 10
0.0
 20
0.25
 30
0.0
 40
0.01
  1

100
AcDbAttributeDefinition
280
     0
  3
Look-at Y
  2
LAY
 70
     1
280
     0
  0
ATTDEF
  5
59
330
42
100
AcDbEntity
  8
ASHADE
  6
Continuous
 62
     7
100
AcDbText
 10
0.0
 20
0.265
 30
0.0
 40
0.01
  1

100
AcDbAttributeDefinition
280
     0
  3
Look-at X
  2
LAX
 70
     1
280
     0
  0
ATTDEF
  5
5A
330
42
100
AcDbEntity
  8
ASHADE
  6
Continuous
 62
     7
100
AcDbText
 10
0.0
 20
0.28
 30
0.0
 40
0.01
  1

100
AcDbAttributeDefinition
280
     0
  3

  2
GNAME
 70
     1
280
     0
  0
LINE
  5
5B
330
42
100
AcDbEntity
  8
ASHADE
  6
Continuous
 62
     7
100
AcDbLine
 10
0.1096591641591904
 20
0.2792398032442862
 30
0.0
 11
0.1279356915190555
 21
0.3257797704516674
 31
0.0
  0
LINE
  5
5C
330
42
100
AcDbEntity
  8
ASHADE
  6
Continuous
 62
     7
100
AcDbLine
 10
0.2041413561583015
 20
0.2198324514393849
 30
0.0
 11
0.2721884748777353
 21
0.2931099352525131
 31
0.0
  0
ENDBLK
  5
5E
330
42
100
AcDbEntity
  8
0
100
AcDbBlockEnd
  0
BLOCK
  5
85
330
5F
100
AcDbEntity
  8
0
100
AcDbBlockBegin
  2
sh_spot
 70
     2
 10
0.0
 20
0.0
 30
0.0
  3
sh_spot
  1

  0
LINE
  5
60
330
5F
100
AcDbEntity
  8
ASHADE
  6
Continuous
 62
     7
100
AcDbLine
 10
0.25
 20
0.26
 30
0.0
 11
-0.25
 21
0.26
 31
0.0
  0
LINE
  5
61
330
5F
100
AcDbEntity
  8
ASHADE
  6
Continuous
 62
     7
100
AcDbLine
 10
-0.25
 20
-0.3399999999999999
 30
0.0
 11
0.25
 21
-0.3399999999999999
 31
0.0
  0
ATTDEF
  5
62
330
5F
100
AcDbEntity
  8
ASHADE
  6
Continuous
 62
     1
100
AcDbText
 10
0.0
 20
-0.1
 30
0.0
 40
0.2
  1

  7
ASHADE
 72
     1
 11
0.0
 21
-0.1
 31
0.0
100
AcDbAttributeDefinition
280
     0
  3
Light Name
  2
SNAME
 70
     0
280
     0
  0
LINE
  5
63
330
5F
100
AcDbEntity
  8
ASHADE
  6
Continuous
 62
     7
100
AcDbLine
 10
-0.25
 20
-0.13
 30
0.0
 11
-0.25
 21
-0.3399999999999999
 31
0.0
  0
LINE
  5
64
330
5F
100
AcDbEntity
  8
ASHADE
  6
Continuous
 62
     7
100
AcDbLine
 10
-0.25
 20
-0.18
 30
0.0
 11
-0.29
 21
-0.18
 31
0.0
  0
LINE
  5
65
330
5F
100
AcDbEntity
  8
ASHADE
  6
Continuous
 62
     7
100
AcDbLine
 10
-0.29
 20
-0.22
 30
0.0
 11
-0.25
 21
-0.22
 31
0.0
  0
LINE
  5
66
330
5F
100
AcDbEntity
  8
ASHADE
  6
Continuous
 62
     7
100
AcDbLine
 10
-0.29
 20
-0.18
 30
0.0
 11
-0.29
 21
-0.22
 31
0.0
  0
LINE
  5
67
330
5F
100
AcDbEntity
  8
ASHADE
  6
Continuous
 62
     7
100
AcDbLine
 10
-0.1045454545454545
 20
0.26
 30
0.0
 11
-0.15
 21
0.46
 31
0.0
  0
LINE
  5
68
330
5F
100
AcDbEntity
  8
ASHADE
  6
Continuous
 62
     7
100
AcDbLine
 10
-0.21
 20
0.26
 30
0.0
 11
-0.301304347826087
 21
0.46
 31
0.0
  0
LINE
  5
69
330
5F
100
AcDbEntity
  8
ASHADE
  6
Continuous
 62
     7
100
AcDbLine
 10
-0.25
 20
0.26
 30
0.0
 11
-0.25
 21
0.13
 31
0.0
  0
LINE
  5
6A
330
5F
100
AcDbEntity
  8
ASHADE
  6
Continuous
 62
     7
100
AcDbLine
 10
-0.25
 20
0.22
 30
0.0
 11
-0.29
 21
0.22
 31
0.0
  0
LINE
  5
6B
330
5F
100
AcDbEntity
  8
ASHADE
  6
Continuous
 62
     7
100
AcDbLine
 10
-0.29
 20
0.1799999999999999
 30
0.0
 11
-0.25
 21
0.1799999999999999
 31
0.0
  0
LINE
  5
6C
330
5F
100
AcDbEntity
  8
ASHADE
  6
Continuous
 62
     7
100
AcDbLine
 10
-0.29
 20
0.22
 30
0.0
 11
-0.29
 21
0.1799999999999999
 31
0.0
  0
ATTDEF
  5
6D
330
5F
100
AcDbEntity
  8
ASHADE
  6
Continuous
 62
     7
100
AcDbText
 10
0.0
 20
-0.24
 30
0.0
 40
0.01
  1
0
100
AcDbAttributeDefinition
280
     0
  3
Depth Map Size
  2
ZSIZE
 70
     1
280
     0
  0
ATTDEF
  5
6E
330
5F
100
AcDbEntity
  8
ASHADE
  6
Continuous
 62
     7
100
AcDbText
 10
0.0
 20
-0.3300000000000001
 30
0.0
 40
0.01
  1
0,0,0
100
AcDbAttributeDefinition
280
     0
  3
Look-from XYZ
  2
LFXYZ
 70
     1
280
     0
  0
ATTDEF
  5
6F
330
5F
100
AcDbEntity
  8
ASHADE
  6
Continuous
 62
     7
100
AcDbText
 10
0.0
 20
-0.315
 30
0.0
 40
0.01
  1
0.0
100
AcDbAttributeDefinition
280
     0
  3
Beam Distribution
  2
BEAMDI
 70
     1
280
     0
  0
ATTDEF
  5
70
330
5F
100
AcDbEntity
  8
ASHADE
  6
Continuous
 62
     7
100
AcDbText
 10
0.0
 20
-0.3
 30
0.0
 40
0.01
  1
0.0
100
AcDbAttributeDefinition
280
     0
  3
Cone Delta
  2
CONEDE
 70
     1
280
     0
  0
ATTDEF
  5
71
330
5F
100
AcDbEntity
  8
ASHADE
  6
Continuous
 62
     7
100
AcDbText
 10
0.0
 20
-0.2850000000000001
 30
0.0
 40
0.01
  1
10.0
100
AcDbAttributeDefinition
280
     0
  3
Cone Angle
  2
CONEAN
 70
     1
280
     0
  0
ATTDEF
  5
72
330
5F
100
AcDbEntity
  8
ASHADE
  6
Continuous
 62
     7
100
AcDbText
 10
0.0
 20
-0.27
 30
0.0
 40
0.01
  1
-1
100
AcDbAttributeDefinition
280
     0
  3
*not used*
  2
BIASMAX
 70
     1
280
     0
  0
ATTDEF
  5
73
330
5F
100
AcDbEntity
  8
ASHADE
  6
Continuous
 62
     7
100
AcDbText
 10
0.0
 20
-0.255
 30
0.0
 40
0.01
  1
-1
100
AcDbAttributeDefinition
280
     0
  3
*not used*
  2
BIASMIN
 70
     1
280
     0
  0
ATTDEF
  5
74
330
5F
100
AcDbEntity
  8
ASHADE
  6
Continuous
 62
     7
100
AcDbText
 10
0.0
 20
-0.225
 30
0.0
 40
0.01
  1
1,1,1
100
AcDbAttributeDefinition
280
     0
  3
Light Color (RGB)
  2
COLOR
 70
     1
280
     0
  0
ATTDEF
  5
75
330
5F
100
AcDbEntity
  8
ASHADE
  6
Continuous
 62
     7
100
AcDbText
 10
0.0
 20
-0.21
 30
0.0
 40
0.01
  1
1
100
AcDbAttributeDefinition
280
     0
  3
Light Intensity
  2
INTENSITY
 70
     1
280
     0
  0
ATTDEF
  5
76
330
5F
100
AcDbEntity
  8
ASHADE
  6
Continuous
 62
     7
100
AcDbText
 10
0.0
 20
-0.15
 30
0.0
 40
0.01
  1

100
AcDbAttributeDefinition
280
     0
  3

  2
GNAME
 70
     1
280
     0
  0
ATTDEF
  5
77
330
5F
100
AcDbEntity
  8
ASHADE
  6
Continuous
 62
     7
100
AcDbText
 10
0.0
 20
-0.195
 30
0.0
 40
0.01
  1

100
AcDbAttributeDefinition
280
     0
  3
Look-at Z
  2
LAZ
 70
     1
280
     0
  0
ATTDEF
  5
78
330
5F
100
AcDbEntity
  8
ASHADE
  6
Continuous
 62
     7
100
AcDbText
 10
0.0
 20
-0.18
 30
0.0
 40
0.01
  1

100
AcDbAttributeDefinition
280
     0
  3
Look-at Y
  2
LAY
 70
     1
280
     0
  0
ATTDEF
  5
79
330
5F
100
AcDbEntity
  8
ASHADE
  6
Continuous
 62
     7
100
AcDbText
 10
0.0
 20
-0.165
 30
0.0
 40
0.01
  1

100
AcDbAttributeDefinition
280
     0
  3
Look-at X
  2
LAX
 70
     1
280
     0
  0
LINE
  5
7A
330
5F
100
AcDbEntity
  8
ASHADE
  6
Continuous
 62
     7
100
AcDbLine
 10
0.25
 20
-0.3399999999999999
 30
0.0
 11
0.25
 21
-0.13
 31
0.0
  0
LINE
  5
7B
330
5F
100
AcDbEntity
  8
ASHADE
  6
Continuous
 62
     7
100
AcDbLine
 10
0.25
 20
-0.18
 30
0.0
 11
0.29
 21
-0.18
 31
0.0
  0
LINE
  5
7C
330
5F
100
AcDbEntity
  8
ASHADE
  6
Continuous
 62
     7
100
AcDbLine
 10
0.29
 20
-0.22
 30
0.0
 11
0.25
 21
-0.22
 31
0.0
  0
LINE
  5
7D
330
5F
100
AcDbEntity
  8
ASHADE
  6
Continuous
 62
     7
100
AcDbLine
 10
0.29
 20
-0.18
 30
0.0
 11
0.29
 21
-0.22
 31
0.0
  0
LINE
  5
7E
330
5F
100
AcDbEntity
  8
ASHADE
  6
Continuous
 62
     7
100
AcDbLine
 10
0.21
 20
0.26
 30
0.0
 11
0.301304347826087
 21
0.46
 31
0.0
  0
LINE
  5
7F
330
5F
100
AcDbEntity
  8
ASHADE
  6
Continuous
 62
     7
100
AcDbLine
 10
0.1045454545454545
 20
0.26
 30
0.0
 11
0.15
 21
0.46
 31
0.0
  0
LINE
  5
80
330
5F
100
AcDbEntity
  8
ASHADE
  6
Continuous
 62
     7
100
AcDbLine
 10
0.0
 20
0.26
 30
0.0
 11
0.0
 21
0.46
 31
0.0
  0
LINE
  5
81
330
5F
100
AcDbEntity
  8
ASHADE
  6
Continuous
 62
     7
100
AcDbLine
 10
0.25
 20
0.13
 30
0.0
 11
0.25
 21
0.26
 31
0.0
  0
LINE
  5
82
330
5F
100
AcDbEntity
  8
ASHADE
  6
Continuous
 62
     7
100
AcDbLine
 10
0.25
 20
0.22
 30
0.0
 11
0.29
 21
0.22
 31
0.0
  0
LINE
  5
83
330
5F
100
AcDbEntity
  8
ASHADE
  6
Continuous
 62
     7
100
AcDbLine
 10
0.29
 20
0.1799999999999999
 30
0.0
 11
0.25
 21
0.1799999999999999
 31
0.0
  0
LINE
  5
84
330
5F
100
AcDbEntity
  8
ASHADE
  6
Continuous
 62
     7
100
AcDbLine
 10
0.29
 20
0.22
 30
0.0
 11
0.29
 21
0.1799999999999999
 31
0.0
  0
ENDBLK
  5
86
330
5F
100
AcDbEntity
  8
0
100
AcDbBlockEnd
  0
BLOCK
  5
92
330
91
100
AcDbEntity
  8
ASHADE
100
AcDbBlockBegin
  2
AVE_RENDER
 70
     0
 10
0.0
 20
0.0
 30
0.0
  3
AVE_RENDER
  1
AVE_RENDER
  0
ENDBLK
  5
93
330
91
100
AcDbEntity
  8
0
100
AcDbBlockEnd
  0
BLOCK
  5
A0
330
9F
100
AcDbEntity
  8
ASHADE
100
AcDbBlockBegin
  2
AVE_GLOBAL
 70
     0
 10
0.0
 20
0.0
 30
0.0
  3
AVE_GLOBAL
  1
AVE_GLOBAL
  0
ENDBLK
  5
A1
330
9F
100
AcDbEntity
  8
0
100
AcDbBlockEnd
  0
ENDSEC
  0
SECTION
  2
ENTITIES
  0
INSERT
  5
94
330
1F
100
AcDbEntity
  8
ASHADE
 62
     1
100
AcDbBlockReference
  2
AVE_RENDER
 10
0.0
 20
0.0
 30
0.0
1001
AVE_RENDER
1002
{
1070
     7
1000
Pref
1070
    30
1070
    20
1070
     1
1070
     0
1000

1070
    10
1070
     1
1070
    10
1040
1.0
1070
     1
1040
0.3
1040
0.7
1040
0.0
1040
10.0
1010
-1.0
1020
-1.0
1030
-1.0
1040
0.3
1070
    49
1070
     0
1070
     0
1010
1.0
1020
1.0
1030
1.0
1040
45.0
1070
     1
1070
     0
1000
WCS
1040
0.0
1070
     0
1040
10.0
1002
}
  0
INSERT
  5
95
330
1F
100
AcDbEntity
  8
ASHADE
 62
     3
100
AcDbBlockReference
  2
AVE_RENDER
 10
0.0
 20
0.0
 30
0.0
1001
AVE_RENDER
1002
{
1070
     0
1000
Full Opt
1070
     0
1070
     1
1070
     1
1070
     1
1070
     0
1070
     0
1070
     0
1070
     1
1070
     1
1040
0.0001
1040
0.0001
1002
}
  0
INSERT
  5
96
330
1F
100
AcDbEntity
  8
ASHADE
 62
     4
100
AcDbBlockReference
  2
AVE_RENDER
 10
0.0
 20
0.0
 30
0.0
1001
AVE_RENDER
1002
{
1070
     0
1000
Quick Opt
1070
     0
1070
     1
1070
     1
1070
     1
1070
     0
1070
     0
1070
     1
1002
}
  0
INSERT
  5
97
330
1F
100
AcDbEntity
  8
ASHADE
 62
     5
100
AcDbBlockReference
  2
AVE_RENDER
 10
0.0
 20
0.0
 30
0.0
1001
AVE_RENDER
1002
{
1070
     1
1000
Scanl Opt
1070
     2
1070
     0
1070
     2
1040
2.0
1040
4.0
1070
     0
1070
     1
1070
     0
1040
0.03
1002
}
  0
INSERT
  5
98
330
1F
100
AcDbEntity
  8
ASHADE
 62
     6
100
AcDbBlockReference
  2
AVE_RENDER
 10
0.0
 20
0.0
 30
0.0
1001
AVE_RENDER
1002
{
1070
     2
1000
Raytr Opt
1070
     2
1070
     0
1070
     2
1040
2.0
1040
4.0
1070
     0
1070
     1
1070
     1
1040
0.03
1070
     3
1040
0.03
1002
}
  0
INSERT
  5
99
330
1F
100
AcDbEntity
  8
ASHADE
 62
     7
100
AcDbBlockReference
  2
AVE_RENDER
 10
0.0
 20
0.0
 30
0.0
1001
AVE_RENDER
1002
{
1070
     0
1000
RFile Opt
1070
     1
1070
   640
1070
   480
1070
 10000
1070
     1
1070
     8
1070
     8
1070
     0
1070
     0
1070
     0
1070
     0
1070
     0
1070
     0
1070
     0
1002
}
  0
INSERT
  5
9A
330
1F
100
AcDbEntity
  8
ASHADE
 62
     8
100
AcDbBlockReference
  2
AVE_RENDER
 10
0.0
 20
0.0
 30
0.0
1001
AVE_RENDER
1002
{
1070
     0
1000
Fog Opt
1070
     0
1070
     0
1040
0.0
1040
1.0
1040
0.0
1040
1.0
1010
0.5
1020
0.5
1030
0.5
1002
}
  0
INSERT
  5
9B
330
1F
100
AcDbEntity
  8
ASHADE
 62
     9
100
AcDbBlockReference
  2
AVE_RENDER
 10
0.0
 20
0.0
 30
0.0
1001
AVE_RENDER
1002
{
1070
     0
1000
BG Opt
1070
     0
1070
     1
1010
0.0
1020
0.0
1030
0.0
1010
1.0
1020
0.0
1030
0.0
1010
0.0
1020
1.0
1030
0.0
1010
0.0
1020
0.0
1030
1.0
1040
0.5
1040
0.33
1040
0.0
1000

1070
     1
1000

1070
     1
1070
     1
1040
1.0
1040
1.0
1040
0.0
1040
0.0
1070
     0
1002
}
  0
INSERT
  5
A2
330
1F
100
AcDbEntity
  8
ASHADE
 62
     1
100
AcDbBlockReference
  2
AVE_GLOBAL
 10
0.0
 20
0.0
 30
0.0
1001
AVE_MATERIAL
1002
{
1000
*GLOBAL*
1000
2
1000
Global finish.
1002
{
1002
}
1002
{
1070
    63
1002
{
1002
{
1010
-1.0
1020
-1.0
1030
-1.0
1002
}
1040
0.1000000014901161
1000

1040
0.0
1002
{
1002
}
1040
0.0
1002
{
1002
}
1040
0.0
1002
}
1002
{
1002
{
1010
-1.0
1020
-1.0
1030
-1.0
1002
}
1040
0.6999999880790711
1000

1040
0.0
1002
{
1002
}
1040
0.0
1002
{
1002
}
1040
0.0
1002
}
1002
{
1002
{
1010
-1.0
1020
-1.0
1030
-1.0
1002
}
1040
0.2000000029802322
1000

1040
0.0
1002
{
1002
}
1040
0.0
1002
{
1002
}
1040
0.0
1002
}
1002
{
1070
     0
1002
{
1070
     1
1002
{
1040
1.0
1040
1.0
1000

1040
0.0
1002
{
1002
}
1040
0.0
1002
{
1002
}
1040
0.0
1002
}
1002
}
1040
1.0
1040
0.0
1040
0.0
1002
}
1002
{
1040
1.0
1040
1.0
1000

1040
0.0
1002
{
1002
}
1040
0.0
1002
{
1002
}
1040
0.0
1002
}
1002
{
1040
0.5
1040
1.0
1000

1040
0.0
1002
{
1002
}
1040
0.0
1002
{
1002
}
1040
0.0
1002
}
1002
{
1070
     0
1040
0.0
1002
{
1002
}
1040
1.0
1002
{
1002
}
1040
0.0
1002
}
1002
{
1040
0.0
1002
{
1002
{
1010
0.0
1020
0.0
1030
0.0
1002
}
1040
1.0
1000

1040
0.0
1002
{
1002
}
1040
0.0
1002
{
1002
}
1040
0.0
1002
}
1002
}
1002
{
1002
{
1070
     1
1002
{
1040
0.0
1040
1.0
1000

1040
0.0
1002
{
1002
}
1040
0.0
1002
{
1002
}
1040
0.0
1002
}
1002
}
1040
0.0
1002
{
1002
}
1010
1.0
1020
0.0
1030
0.0
1010
0.0
1020
1.0
1030
0.0
1010
0.0
1020
0.0
1030
1.0
1070
     0
1002
}
1002
{
1002
{
1040
1.0
1040
1.0
1002
{
1070
     1
1002
{
1040
1.0
1040
1.0
1000

1040
0.0
1002
{
1002
}
1040
0.0
1002
{
1002
}
1040
0.0
1002
}
1002
}
1002
}
1070
     0
1040
0.0
1002
{
1002
}
1002
}
1002
{
1002
}
1002
}
1002
{
1071
        3
1070
     3
1070
     0
1002
{
1070
     2
1070
     0
1070
     0
1040
0.0
1002
}
1070
     0
1070
     2
1002
{
1002
}
1002
}
1002
{
1040
8030.0
1040
190.3000030517578
1040
0.3050000071525574
1040
228.0
1040
545.0
1040
14.0
1040
17.39999961853027
1040
0.4560000002384186
1002
}
1002
}
  0
MESH
  5
F9
330
1F
100
AcDbEntity
  8
OracDecor_panel_moldings
 62
   153
420
  5804257
160
             33704
310
A8830000A80300000C00000013000000020000003C0000000600000002000000000000E0FF3F8FC0000000000000073F0000000000000000000000E0FF3F8FC000000080F4FF17C000000000000000000C000000130000000A0000003C0000000600000002000000000000E0FF3F8FC0000000000000073F00000000000000
310
000000002000408F40000000000000073F00000000000000000C00000013000000120000003C00000006000000020000000000002000408F40000000000000073F00000000000000000000002000408F4000000080F4FF17C000000000000000000C000000130000001A0000003C0000000600000002000000000000E0FF3F
310
8FC000000080F4FF17C000000000000000000000002000408F4000000080F4FF17C000000000000000000C00000013000000220000003C0000000600000002000000000000E0FF3F8FC0000000000000073F0000000000000000000000E0FF3F8FC0000000000000073F0000000056151D400C000000130000002A0000003C
310
00000006000000020000000000002000408F40000000000000073F0000000056151D40000000E0FF3F8FC0000000000000073F0000000056151D400C00000013000000320000003C00000006000000020000000000002000408F40000000000000073F0000000056151D400000002000408F40000000000000073F00000000
310
000000000C000000130000003A0000003C0000000600000002000000000000E0FF3F8FC000000000B0B9DEBF00000000D8001E40000000E0FF3F8FC0000000000000073F0000000056151D400C00000013000000420000003C0000000600000002000000000000E0FF3F8FC000000000B0B9DEBF00000000D8001E40000000
310
2000408F4000000000B0B9DEBF00000000D8001E400C000000130000004A0000003C00000006000000020000000000002000408F40000000000000073F0000000056151D400000002000408F4000000000B0B9DEBF00000000D8001E400C00000013000000520000003C0000000600000002000000000000E0FF3F8FC00000
310
0000B0B9DEBF00000000D8001E40000000E0FF3F8FC0000000009676EFBF00000000DCFB1F400C000000130000005A0000003C00000006000000020000000000002000408F40000000009A76EFBF00000000DCFB1F40000000E0FF3F8FC0000000009676EFBF00000000DCFB1F400C00000013000000620000003C00000006
310
000000020000000000002000408F40000000009A76EFBF00000000DCFB1F400000002000408F4000000000B0B9DEBF00000000D8001E400C000000130000006A0000003C0000000600000002000000000000E0FF3F8FC0000000007A18F4BF000000004A4B2140000000E0FF3F8FC0000000009676EFBF00000000DCFB1F40
310
0C00000013000000720000003C00000006000000020000000000002000408F40000000007C18F4BF000000004A4B2140000000E0FF3F8FC0000000007A18F4BF000000004A4B21400C000000130000007A0000003C00000006000000020000000000002000408F40000000007C18F4BF000000004A4B21400000002000408F
310
40000000009A76EFBF00000000DCFB1F400C00000013000000820000003C0000000600000002000000000000E0FF3F8FC0000000007A18F4BF00000000B6B42240000000E0FF3F8FC0000000007A18F4BF000000004A4B21400C000000130000008A0000003C0000000600000002000000000000E0FF3F8FC0000000007A18
310
F4BF00000000B6B422400000002000408F40000000007C18F4BF00000000B6B422400C00000013000000920000003C00000006000000020000000000002000408F40000000007C18F4BF00000000B6B422400000002000408F40000000007C18F4BF000000004A4B21400C000000130000009A0000003C0000000600000002
310
000000000000E0FF3F8FC0000000007A18F4BF00000000B6B42240000000E0FF3F8FC0000000009476EFBF00000000120224400C00000013000000A20000003C00000006000000020000000000002000408F40000000009876EFBF0000000012022440000000E0FF3F8FC0000000009476EFBF00000000120224400C000000
310
13000000AA0000003C00000006000000020000000000002000408F40000000009876EFBF00000000120224400000002000408F40000000007C18F4BF00000000B6B422400C00000013000000B20000003C0000000600000002000000000000E0FF3F8FC000000000B0B9DEBF0000000094FF2440000000E0FF3F8FC0000000
310
009476EFBF00000000120224400C00000013000000BA0000003C0000000600000002000000000000E0FF3F8FC000000000B0B9DEBF0000000094FF24400000002000408F4000000000B0B9DEBF0000000094FF24400C00000013000000C20000003C00000006000000020000000000002000408F4000000000B0B9DEBF0000
310
000094FF24400000002000408F40000000009876EFBF00000000120224400C00000013000000CA0000003C0000000600000002000000000000E0FF3F8FC000000000B0B9DEBF0000000094FF2440000000E0FF3F8FC0000000000000073F00000000557525400C00000013000000D20000003C000000060000000200000000
310
00002000408F40000000000000073F0000000055752540000000E0FF3F8FC0000000000000073F00000000557525400C00000013000000DA0000003C00000006000000020000000000002000408F40000000000000073F00000000557525400000002000408F4000000000B0B9DEBF0000000094FF24400C00000013000000
310
E20000003C0000000600000002000000000000E0FF3F8FC0000000000000063F00000000A9E83140000000E0FF3F8FC0000000801A2A05C000000000C97F39400C00000013000000EA0000003C00000006000000020000000000002000408F40000000001B2A05C000000000C97F3940000000E0FF3F8FC0000000801A2A05
310
C000000000C97F39400C00000013000000F20000003C00000006000000020000000000002000408F40000000000000043F00000000A9E831400000002000408F40000000001B2A05C000000000C97F39400C00000013000000FA0000003C0000000600000002000000000000E0FF3F8FC0000000000000063F00000000A9E8
310
31400000002000408F40000000000000043F00000000A9E831400C00000013000000020100003C0000000600000002000000000000E0FF3F8FC000000040827113C0000000002F553D40000000E0FF3F8FC0000000801A2A05C000000000C97F39400C000000130000000A0100003C0000000600000002000000000000E0FF
310
3F8FC000000040827113C0000000002F553D400000002000408F4000000040827113C0000000002F553D400C00000013000000120100003C00000006000000020000000000002000408F40000000001B2A05C000000000C97F39400000002000408F4000000040827113C0000000002F553D400C000000130000001A010000
310
3C0000000600000002000000000000E0FF3F8FC000000000B4C91FC00000004002414040000000E0FF3F8FC000000040827113C0000000002F553D400C00000013000000220100003C0000000600000002000000000000E0FF3F8FC000000000B4C91FC000000040024140400000002000408F4000000000B4C91FC0000000
310
40024140400C000000130000002A0100003C00000006000000020000000000002000408F4000000000B4C91FC000000040024140400000002000408F4000000040827113C0000000002F553D400C00000013000000320100003C0000000600000002000000000000E0FF3F8FC000000040172C27C0000000C0C16541400000
310
00E0FF3F8FC000000000B4C91FC000000040024140400C000000130000003A0100003C0000000600000002000000000000E0FF3F8FC000000040172C27C0000000C0C16541400000002000408F4000000040172C27C0000000C0C16541400C00000013000000420100003C00000006000000020000000000002000408F4000
310
000040172C27C0000000C0C16541400000002000408F4000000000B4C91FC000000040024140400C000000130000004A0100003C0000000600000002000000000000E0FF3F8FC000000040172C27C0000000C0C1654140000000E0FF3F8FC00000008078AB2BC000000060D92042400C00000013000000520100003C000000
310
06000000020000000000002000408F400000004078AB2BC000000060D9204240000000E0FF3F8FC00000008078AB2BC000000060D92042400C000000130000005A0100003C00000006000000020000000000002000408F400000004078AB2BC000000060D92042400000002000408F4000000040172C27C0000000C0C16541
310
400C00000013000000620100003C0000000600000002000000000000E0FF3F8FC000000000016A2FC0000000E0052A4340000000E0FF3F8FC00000008078AB2BC000000060D92042400C000000130000006A0100003C00000006000000020000000000002000408F4000000000016A2FC0000000E0052A4340000000E0FF3F
310
8FC000000000016A2FC0000000E0052A43400C00000013000000720100003C00000006000000020000000000002000408F4000000000016A2FC0000000E0052A43400000002000408F400000004078AB2BC000000060D92042400C000000130000007A0100003C0000000600000002000000000000E0FF3F8FC0000000E05F
310
2032C0000000C03FF94340000000E0FF3F8FC000000000016A2FC0000000E0052A43400C00000013000000820100003C00000006000000020000000000002000408F40000000E05F2032C0000000C03FF94340000000E0FF3F8FC0000000E05F2032C0000000C03FF943400C000000130000008A0100003C00000006000000
310
020000000000002000408F4000000000016A2FC0000000E0052A43400000002000408F40000000E05F2032C0000000C03FF943400C00000013000000920100003C0000000600000002000000000000E0FF3F8FC00000000013BC33C000000080BAB84440000000E0FF3F8FC0000000E05F2032C0000000C03FF943400C0000
310
00130000009A0100003C0000000600000002000000000000E0FF3F8FC00000000013BC33C000000080BAB844400000002000408F400000000013BC33C000000080BAB844400C00000013000000A20100003C00000006000000020000000000002000408F40000000E05F2032C0000000C03FF943400000002000408F400000
310
000013BC33C000000080BAB844400C00000013000000AA0100003C0000000600000002000000000000E0FF3F8FC0000000E0D44F34C00000000000C04540000000E0FF3F8FC00000000013BC33C000000080BAB844400C00000013000000B20100003C0000000600000002000000000000E0FF3F8FC0000000E0D44F34C000
310
00000000C045400000002000408F40000000E0D44F34C00000000000C045400C00000013000000BA0100003C00000006000000020000000000002000408F400000000013BC33C000000080BAB844400000002000408F40000000E0D44F34C00000000000C045400C00000013000000C20100003C0000000600000002000000
310
000000E0FF3F8FC0000000E0D44F34C00000000000C04540000000E0FF3F8FC00000000013BC33C00000008045C746400C00000013000000CA0100003C00000006000000020000000000002000408F400000000013BC33C00000008045C74640000000E0FF3F8FC00000000013BC33C00000008045C746400C000000130000
310
00D20100003C00000006000000020000000000002000408F400000000013BC33C00000008045C746400000002000408F40000000E0D44F34C00000000000C045400C00000013000000DA0100003C0000000600000002000000000000E0FF3F8FC0000000C04F1F32C0000000400B874740000000E0FF3F8FC00000000013BC
310
33C00000008045C746400C00000013000000E20100003C0000000600000002000000000000E0FF3F8FC0000000C04F1F32C0000000400B8747400000002000408F40000000C04F1F32C0000000400B8747400C00000013000000EA0100003C00000006000000020000000000002000408F40000000C04F1F32C0000000400B
310
8747400000002000408F400000000013BC33C00000008045C746400C00000013000000F20100003C0000000600000002000000000000E0FF3F8FC000000040F0512FC0000000C0E55B4840000000E0FF3F8FC0000000C04F1F32C0000000400B8747400C00000013000000FA0100003C0000000600000002000000000000E0
310
FF3F8FC000000040F0512FC0000000C0E55B48400000002000408F4000000040F0512FC0000000C0E55B48400C00000013000000020200003C00000006000000020000000000002000408F4000000040F0512FC0000000C0E55B48400000002000408F40000000C04F1F32C0000000400B8747400C000000130000000A0200
310
003C0000000600000002000000000000E0FF3F8FC0000000C0129F2BC000000000B1A04940000000E0FF3F8FC000000040F0512FC0000000C0E55B48400C00000013000000120200003C0000000600000002000000000000E0FF3F8FC0000000C0129F2BC000000000B1A049400000002000408F40000000A0129F2BC00000
310
0000B1A049400C000000130000001A0200003C00000006000000020000000000002000408F40000000A0129F2BC000000000B1A049400000002000408F4000000040F0512FC0000000C0E55B48400C00000013000000220200003C0000000600000002000000000000E0FF3F8FC0000000201D312AC0000000008CC14A4000
310
0000E0FF3F8FC0000000C0129F2BC000000000B1A049400C000000130000002A0200003C0000000600000002000000000000E0FF3F8FC0000000201D312AC0000000008CC14A400000002000408F40000000001D312AC0000000008CC14A400C00000013000000320200003C00000006000000020000000000002000408F40
310
000000001D312AC0000000008CC14A400000002000408F40000000A0129F2BC000000000B1A049400C000000130000003A0200003C0000000600000002000000000000E0FF3F8FC0000000201D312AC0000000008CC14A40000000E0FF3F8FC000000080FAFF29C0000000C05E594B400C00000013000000420200003C0000
310
0006000000020000000000002000408F4000000060FAFF29C0000000C05E594B40000000E0FF3F8FC000000080FAFF29C0000000C05E594B400C000000130000004A0200003C00000006000000020000000000002000408F4000000060FAFF29C0000000C05E594B400000002000408F40000000001D312AC0000000008CC1
310
4A400C00000013000000520200003C0000000600000002000000000000E0FF3F8FC000000080FAFF29C0000000C05E594B40000000E0FF3F8FC0000000A0FAFF29C0000000E02B264D400C000000130000005A0200003C00000006000000020000000000002000408F4000000080FAFF29C0000000E02B264D40000000E0FF
310
3F8FC0000000A0FAFF29C0000000E02B264D400C00000013000000620200003C00000006000000020000000000002000408F4000000080FAFF29C0000000E02B264D400000002000408F4000000060FAFF29C0000000C05E594B400C000000130000006A0200003C0000000600000002000000000000E0FF3F8FC0000000A0
310
FAFF29C0000000E02B264D40000000E0FF3F8FC000000040A02F2AC0000000E0B1BB4D400C00000013000000720200003C00000006000000020000000000002000408F4000000000A02F2AC0000000E0B1BB4D40000000E0FF3F8FC000000040A02F2AC0000000E0B1BB4D400C000000130000007A0200003C000000060000
310
00020000000000002000408F4000000000A02F2AC0000000E0B1BB4D400000002000408F4000000080FAFF29C0000000E02B264D400C00000013000000820200003C0000000600000002000000000000E0FF3F8FC000000060BC922BC0000000409ED84E40000000E0FF3F8FC000000040A02F2AC0000000E0B1BB4D400C00
310
0000130000008A0200003C00000006000000020000000000002000408F4000000040BC922BC0000000409ED84E40000000E0FF3F8FC000000060BC922BC0000000409ED84E400C00000013000000920200003C00000006000000020000000000002000408F4000000040BC922BC0000000409ED84E400000002000408F4000
310
000000A02F2AC0000000E0B1BB4D400C000000130000009A0200003C0000000600000002000000000000E0FF3F8FC000000060BAF42EC000000000480D5040000000E0FF3F8FC000000060BC922BC0000000409ED84E400C00000013000000A20200003C00000006000000020000000000002000408F4000000060BAF42EC0
310
00000000480D5040000000E0FF3F8FC000000060BAF42EC000000000480D50400C00000013000000AA0200003C00000006000000020000000000002000408F4000000060BAF42EC000000000480D50400000002000408F4000000040BC922BC0000000409ED84E400C00000013000000B20200003C00000006000000020000
310
00000000E0FF3F8FC000000060BAF42EC000000000480D5040000000E0FF3F8FC000000080E71631C000000000E69F50400C00000013000000BA0200003C00000006000000020000000000002000408F4000000040E71631C000000000E69F5040000000E0FF3F8FC000000080E71631C000000000E69F50400C0000001300
310
0000C20200003C00000006000000020000000000002000408F4000000040E71631C000000000E69F50400000002000408F4000000060BAF42EC000000000480D50400C00000013000000CA0200003C0000000600000002000000000000E0FF3F8FC000000040C47F32C0000000C08F1E5140000000E0FF3F8FC000000080E7
310
1631C000000000E69F50400C00000013000000D20200003C0000000600000002000000000000E0FF3F8FC000000040C47F32C0000000C08F1E51400000002000408F4000000000C47F32C0000000C08F1E51400C00000013000000DA0200003C00000006000000020000000000002000408F4000000040E71631C000000000
310
E69F50400000002000408F4000000000C47F32C0000000C08F1E51400C00000013000000E20200003C0000000600000002000000000000E0FF3F8FC000000040C47F32C0000000C08F1E5140000000E0FF3F8FC0000000E0D6A832C000000000CD7951400C00000013000000EA0200003C0000000600000002000000000000
310
E0FF3F8FC0000000E0D6A832C000000000CD7951400000002000408F40000000E0D6A832C000000000CD7951400C00000013000000F20200003C00000006000000020000000000002000408F4000000000C47F32C0000000C08F1E51400000002000408F40000000E0D6A832C000000000CD7951400C00000013000000FA02
310
00003C0000000600000002000000000000E0FF3F8FC0000000E0DECD31C00000004082C35140000000E0FF3F8FC0000000E0D6A832C000000000CD7951400C00000013000000020300003C0000000600000002000000000000E0FF3F8FC0000000E0DECD31C00000004082C351400000002000408F40000000E0DECD31C000
310
00004082C351400C000000130000000A0300003C00000006000000020000000000002000408F40000000E0DECD31C00000004082C351400000002000408F40000000E0D6A832C000000000CD7951400C00000013000000120300003C0000000600000002000000000000E0FF3F8FC0000000E0DECD31C00000004082C35140
310
000000E0FF3F8FC000000000F1F130C000000080B8D851400C000000130000001A0300003C00000006000000020000000000002000408F40000000E0F0F130C000000080B8D85140000000E0FF3F8FC000000000F1F130C000000080B8D851400C00000013000000220300003C00000006000000020000000000002000408F
310
40000000E0F0F130C000000080B8D851400000002000408F40000000E0DECD31C00000004082C351400C000000130000002A0300003C0000000600000002000000000000E0FF3F8FC0000000000000053F000000C099375240000000E0FF3F8FC0000000000000053F000000C0362053400C00000013000000320300003C00
310
000006000000020000000000002000408F40000000000000053F000000C036205340000000E0FF3F8FC0000000000000053F000000C0362053400C000000130000003A0300003C00000006000000020000000000002000408F40000000000000053F000000C0362053400000002000408F40000000000000053F000000C099
310
3752400C00000013000000420300003C0000000600000002000000000000E0FF3F8FC0000000000000053F000000C0993752400000002000408F40000000000000053F000000C0993752400C000000130000004A0300003C0000000600000002000000000000E0FF3F8FC000000000409ED8BF000000C044375340000000E0
310
FF3F8FC0000000000000053F000000C0362053400C00000013000000520300003C00000006000000020000000000002000408F4000000000409ED8BF000000C044375340000000E0FF3F8FC000000000409ED8BF000000C0443753400C000000130000005A0300003C00000006000000020000000000002000408F40000000
310
00409ED8BF000000C0443753400000002000408F40000000000000053F000000C0362053400C00000013000000620300003C0000000600000002000000000000E0FF3F8FC00000000050DAE6BF00000040B85E5340000000E0FF3F8FC000000000409ED8BF000000C0443753400C000000130000006A0300003C0000000600
310
0000020000000000002000408F400000000050DAE6BF00000040B85E5340000000E0FF3F8FC00000000050DAE6BF00000040B85E53400C00000013000000720300003C00000006000000020000000000002000408F400000000050DAE6BF00000040B85E53400000002000408F4000000000409ED8BF000000C0443753400C
310
000000130000007A0300003C0000000600000002000000000000E0FF3F8FC0000000002A99E9BF0000000000805340000000E0FF3F8FC00000000050DAE6BF00000040B85E53400C00000013000000820300003C00000006000000020000000000002000408F40000000002C99E9BF0000000000805340000000E0FF3F8FC0
310
000000002A99E9BF00000000008053400C000000130000008A0300003C00000006000000020000000000002000408F40000000002C99E9BF00000000008053400000002000408F400000000050DAE6BF00000040B85E53400C00000013000000920300003C0000000600000002000000000000E0FF3F8FC00000000050DAE6
310
BF000000C047A15340000000E0FF3F8FC0000000002A99E9BF00000000008053400C000000130000009A0300003C0000000600000002000000000000E0FF3F8FC00000000050DAE6BF000000C047A153400000002000408F400000000050DAE6BF000000C047A153400C00000013000000A20300003C000000060000000200
310
00000000002000408F400000000050DAE6BF000000C047A153400000002000408F40000000002C99E9BF00000000008053400C00000013000000AA0300003C0000000600000002000000000000E0FF3F8FC000000000409ED8BF00000000BBC85340000000E0FF3F8FC00000000050DAE6BF000000C047A153400C00000013
310
000000B20300003C0000000600000002000000000000E0FF3F8FC000000000409ED8BF00000000BBC853400000002000408F4000000000409ED8BF00000000BBC853400C00000013000000BA0300003C00000006000000020000000000002000408F4000000000409ED8BF00000000BBC853400000002000408F4000000000
310
50DAE6BF000000C047A153400C00000013000000C20300003C0000000600000002000000000000E0FF3F8FC0000000000000053F00000040C9DF5340000000E0FF3F8FC000000000409ED8BF00000000BBC853400C00000013000000CA0300003C0000000600000002000000000000E0FF3F8FC0000000000000053F000000
310
40C9DF53400000002000408F40000000000000053F00000040C9DF53400C00000013000000D20300003C00000006000000020000000000002000408F40000000000000053F00000040C9DF53400000002000408F4000000000409ED8BF00000000BBC853400C00000013000000DA0300003C00000006000000020000000000
310
00E0FF3F8FC0000000000000053F0000000000C05440000000E0FF3F8FC0000000000000053F00000040C9DF53400C00000013000000E20300003C0000000600000002000000000000E0FF3F8FC0000000000000053F0000000000C054400000002000408F40000000000000053F0000000000C054400C00000013000000EA
310
0300003C00000006000000020000000000002000408F40000000000000053F0000000000C054400000002000408F40000000000000053F00000040C9DF53400C00000013000000F20300003C0000000600000002000000000000E0FF3F8FC0000000000000053F0000000000C05440000000E0FF3F8FC000000060FD7F3BC0
310
0000000000C054400C00000013000000FA0300003C00000006000000020000000000002000408F4000000060FD7F3BC00000000000C05440000000E0FF3F8FC000000060FD7F3BC00000000000C054400C00000013000000020400003C00000006000000020000000000002000408F40000000000000053F0000000000C054
310
400000002000408F4000000060FD7F3BC00000000000C054400C000000130000000A0400003C0000000600000002000000000000E0FF3F8FC000000060FD7F3BC00000000000A05340000000E0FF3F8FC0000000A0806D3DC0000000C0887F53400C00000013000000120400003C0000000600000002000000000000E0FF3F
310
8FC0000000A0806D3DC0000000C0887F53400000002000408F40000000A0806D3DC0000000C0887F53400C000000130000001A0400003C00000006000000020000000000002000408F4000000060FD7F3BC00000000000A053400000002000408F40000000A0806D3DC0000000C0887F53400C00000013000000220400003C
310
0000000600000002000000000000E0FF3F8FC000000060FD7F3BC00000000000A053400000002000408F4000000060FD7F3BC00000000000A053400C000000130000002A0400003C0000000600000002000000000000E0FF3F8FC0000000E0BCE63EC00000008095475340000000E0FF3F8FC0000000A0806D3DC0000000C0
310
887F53400C00000013000000320400003C0000000600000002000000000000E0FF3F8FC0000000E0BCE63EC000000080954753400000002000408F40000000E0BCE63EC000000080954753400C000000130000003A0400003C00000006000000020000000000002000408F40000000A0806D3DC0000000C0887F5340000000
310
2000408F40000000E0BCE63EC000000080954753400C00000013000000420400003C0000000600000002000000000000E0FF3F8FC0000000E0BCE63EC00000008095475340000000E0FF3F8FC0000000401C1D40C0000000802FF552400C000000130000004A0400003C00000006000000020000000000002000408F400000
310
00801C1D40C0000000802FF55240000000E0FF3F8FC0000000401C1D40C0000000802FF552400C00000013000000520400003C00000006000000020000000000002000408F40000000801C1D40C0000000802FF552400000002000408F40000000E0BCE63EC000000080954753400C000000130000005A0400003C00000006
310
00000002000000000000E0FF3F8FC000000080F49E40C000000000D7905240000000E0FF3F8FC0000000401C1D40C0000000802FF552400C00000013000000620400003C0000000600000002000000000000E0FF3F8FC000000080F49E40C000000000D79052400000002000408F40000000A0F49E40C000000000D7905240
310
0C000000130000006A0400003C00000006000000020000000000002000408F40000000801C1D40C0000000802FF552400000002000408F40000000A0F49E40C000000000D79052400C00000013000000720400003C0000000600000002000000000000E0FF3F8FC00000008069EB40C0000000803C275240000000E0FF3F8F
310
C000000080F49E40C000000000D79052400C000000130000007A0400003C0000000600000002000000000000E0FF3F8FC00000008069EB40C0000000803C2752400000002000408F40000000A069EB40C0000000803C2752400C00000013000000820400003C00000006000000020000000000002000408F40000000A069EB
310
40C0000000803C2752400000002000408F40000000A0F49E40C000000000D79052400C000000130000008A0400003C0000000600000002000000000000E0FF3F8FC00000008069EB40C0000000803C275240000000E0FF3F8FC0000000C0A00141C00000008002BE51400C00000013000000920400003C0000000600000002
310
0000000000002000408F4000000020A10141C00000008002BE5140000000E0FF3F8FC0000000C0A00141C00000008002BE51400C000000130000009A0400003C00000006000000020000000000002000408F40000000A069EB40C0000000803C2752400000002000408F4000000020A10141C00000008002BE51400C000000
310
13000000A20400003C0000000600000002000000000000E0FF3F8FC000000000E7DF40C0000000007D525140000000E0FF3F8FC0000000C0A00141C00000008002BE51400C00000013000000AA0400003C0000000600000002000000000000E0FF3F8FC000000000E7DF40C0000000007D5251400000002000408F40000000
310
60E7DF40C0000000007D5251400C00000013000000B20400003C00000006000000020000000000002000408F4000000020A10141C00000008002BE51400000002000408F4000000060E7DF40C0000000007D5251400C00000013000000BA0400003C0000000600000002000000000000E0FF3F8FC000000000E7DF40C00000
310
00007D525140000000E0FF3F8FC000000000EC8640C000000000D9E750400C00000013000000C20400003C00000006000000020000000000002000408F4000000040EC8640C000000000D9E75040000000E0FF3F8FC000000000EC8640C000000000D9E750400C00000013000000CA0400003C000000060000000200000000
310
00002000408F4000000040EC8640C000000000D9E750400000002000408F4000000060E7DF40C0000000007D5251400C00000013000000D20400003C0000000600000002000000000000E0FF3F8FC000000040691340C00000000028925040000000E0FF3F8FC000000000EC8640C000000000D9E750400C00000013000000
310
DA0400003C00000006000000020000000000002000408F4000000080691340C00000000028925040000000E0FF3F8FC000000040691340C000000000289250400C00000013000000E20400003C00000006000000020000000000002000408F4000000040EC8640C000000000D9E750400000002000408F4000000080691340
310
C000000000289250400C00000013000000EA0400003C0000000600000002000000000000E0FF3F8FC0000000C0D8043FC00000004009465040000000E0FF3F8FC000000040691340C000000000289250400C00000013000000F20400003C00000006000000020000000000002000408F40000000C0D8043FC0000000400946
310
5040000000E0FF3F8FC0000000C0D8043FC000000040094650400C00000013000000FA0400003C00000006000000020000000000002000408F40000000C0D8043FC000000040094650400000002000408F4000000080691340C000000000289250400C00000013000000020500003C0000000600000002000000000000E0FF
310
3F8FC0000000C057B53DC0000000C089065040000000E0FF3F8FC0000000C0D8043FC000000040094650400C000000130000000A0500003C0000000600000002000000000000E0FF3F8FC0000000C057B53DC0000000C0890650400000002000408F40000000C057B53DC0000000C0890650400C0000001300000012050000
310
3C00000006000000020000000000002000408F40000000C057B53DC0000000C0890650400000002000408F40000000C0D8043FC000000040094650400C000000130000001A0500003C0000000600000002000000000000E0FF3F8FC00000000057423CC00000006071AC4F40000000E0FF3F8FC0000000C057B53DC0000000
310
C0890650400C00000013000000220500003C0000000600000002000000000000E0FF3F8FC00000000057423CC00000006071AC4F400000002000408F400000000057423CC00000006071AC4F400C000000130000002A0500003C00000006000000020000000000002000408F400000000057423CC00000006071AC4F400000
310
002000408F40000000C057B53DC0000000C0890650400C00000013000000320500003C0000000600000002000000000000E0FF3F8FC00000000057423CC00000006071AC4F40000000E0FF3F8FC0000000C00CA63AC00000002088694F400C000000130000003A0500003C00000006000000020000000000002000408F4000
310
0000C00CA63AC00000002088694F40000000E0FF3F8FC0000000C00CA63AC00000002088694F400C00000013000000420500003C00000006000000020000000000002000408F40000000C00CA63AC00000002088694F400000002000408F400000000057423CC00000006071AC4F400C000000130000004A0500003C000000
310
0600000002000000000000E0FF3F8FC00000004016E838C0000000A049464F40000000E0FF3F8FC0000000C00CA63AC00000002088694F400C00000013000000520500003C0000000600000002000000000000E0FF3F8FC00000004016E838C0000000A049464F400000002000408F400000004016E838C0000000A049464F
310
400C000000130000005A0500003C00000006000000020000000000002000408F400000004016E838C0000000A049464F400000002000408F40000000C00CA63AC00000002088694F400C00000013000000620500003C0000000600000002000000000000E0FF3F8FC00000004016E838C0000000A049464F40000000E0FF3F
310
8FC000000040FDFF37C0000000C0FF3F4F400C000000130000006A0500003C00000006000000020000000000002000408F4000000040FDFF37C0000000C0FF3F4F40000000E0FF3F8FC000000040FDFF37C0000000C0FF3F4F400C00000013000000720500003C00000006000000020000000000002000408F4000000040FD
310
FF37C0000000C0FF3F4F400000002000408F400000004016E838C0000000A049464F400C000000130000007A0500003C0000000600000002000000000000E0FF3F8FC000000040FDFF34C00000000000404D40000000E0FF3F8FC000000040FDFF37C0000000C0FF3F4D400C00000013000000820500003C00000006000000
310
02000000000000E0FF3F8FC000000040FDFF34C00000000000404D400000002000408F4000000040FDFF34C00000000000404D400C000000130000008A0500003C00000006000000020000000000002000408F4000000040FDFF37C0000000C0FF3F4D400000002000408F4000000040FDFF34C00000000000404D400C0000
310
0013000000920500003C00000006000000020000000000002000408F4000000040FDFF37C0000000C0FF3F4D40000000E0FF3F8FC000000040FDFF37C0000000C0FF3F4D400C000000130000009A0500003C0000000600000002000000000000E0FF3F8FC000000040FDFF34C00000000000404B40000000E0FF3F8FC00000
310
00A0075C36C0000000E0FD334B400C00000013000000A20500003C00000006000000020000000000002000408F40000000A0075C36C0000000E0FD334B40000000E0FF3F8FC0000000A0075C36C0000000E0FD334B400C00000013000000AA0500003C00000006000000020000000000002000408F4000000040FDFF34C000
310
00000000404B400000002000408F40000000A0075C36C0000000E0FD334B400C00000013000000B20500003C0000000600000002000000000000E0FF3F8FC000000040FDFF34C00000000000404B400000002000408F4000000040FDFF34C00000000000404B400C00000013000000BA0500003C0000000600000002000000
310
000000E0FF3F8FC000000060D62238C0000000C04E044B40000000E0FF3F8FC0000000A0075C36C0000000E0FD334B400C00000013000000C20500003C00000006000000020000000000002000408F4000000060D62238C0000000C04E044B40000000E0FF3F8FC000000060D62238C0000000C04E044B400C000000130000
310
00CA0500003C00000006000000020000000000002000408F40000000A0075C36C0000000E0FD334B400000002000408F4000000060D62238C0000000C04E044B400C00000013000000D20500003C0000000600000002000000000000E0FF3F8FC0000000A0BBD339C0000000A0D8AF4A40000000E0FF3F8FC000000060D622
310
38C0000000C04E044B400C00000013000000DA0500003C00000006000000020000000000002000408F40000000A0BBD339C0000000A0D8AF4A40000000E0FF3F8FC0000000A0BBD339C0000000A0D8AF4A400C00000013000000E20500003C00000006000000020000000000002000408F40000000A0BBD339C0000000A0D8
310
AF4A400000002000408F4000000060D62238C0000000C04E044B400C00000013000000EA0500003C0000000600000002000000000000E0FF3F8FC000000020EA623BC0000000E0E9384A40000000E0FF3F8FC0000000A0BBD339C0000000A0D8AF4A400C00000013000000F20500003C000000060000000200000000000020
310
00408F4000000020EA623BC0000000E0E9384A40000000E0FF3F8FC000000020EA623BC0000000E0E9384A400C00000013000000FA0500003C00000006000000020000000000002000408F40000000A0BBD339C0000000A0D8AF4A400000002000408F4000000020EA623BC0000000E0E9384A400C00000013000000020600
310
003C0000000600000002000000000000E0FF3F8FC0000000A07FC53CC000000020C1A24940000000E0FF3F8FC000000020EA623BC0000000E0E9384A400C000000130000000A0600003C00000006000000020000000000002000408F40000000A07FC53CC000000020C1A24940000000E0FF3F8FC0000000A07FC53CC00000
310
0020C1A249400C00000013000000120600003C00000006000000020000000000002000408F4000000020EA623BC0000000E0E9384A400000002000408F40000000A07FC53CC000000020C1A249400C000000130000001A0600003C0000000600000002000000000000E0FF3F8FC000000060D1F13DC00000006076F1484000
310
0000E0FF3F8FC0000000A07FC53CC000000020C1A249400C00000013000000220600003C00000006000000020000000000002000408F4000000060D1F13DC00000006076F14840000000E0FF3F8FC000000060D1F13DC00000006076F148400C000000130000002A0600003C00000006000000020000000000002000408F40
310
00000060D1F13DC00000006076F148400000002000408F40000000A07FC53CC000000020C1A249400C00000013000000320600003C0000000600000002000000000000E0FF3F8FC0000000E0AEDF3EC000000040DF294840000000E0FF3F8FC000000060D1F13DC00000006076F148400C000000130000003A0600003C0000
310
000600000002000000000000E0FF3F8FC0000000E0AEDF3EC000000040DF2948400000002000408F40000000E0AEDF3EC000000040DF2948400C00000013000000420600003C00000006000000020000000000002000408F4000000060D1F13DC00000006076F148400000002000408F40000000E0AEDF3EC000000040DF29
310
48400C000000130000004A0600003C0000000600000002000000000000E0FF3F8FC0000000209B883FC0000000806C514740000000E0FF3F8FC0000000E0AEDF3EC000000040DF2948400C00000013000000520600003C0000000600000002000000000000E0FF3F8FC0000000209B883FC0000000806C5147400000002000
310
408F40000000209B883FC0000000806C5147400C000000130000005A0600003C00000006000000020000000000002000408F40000000E0AEDF3EC000000040DF2948400000002000408F40000000209B883FC0000000806C5147400C00000013000000620600003C0000000600000002000000000000E0FF3F8FC000000060
310
F9E73FC000000000056E4640000000E0FF3F8FC0000000209B883FC0000000806C5147400C000000130000006A0600003C0000000600000002000000000000E0FF3F8FC000000060F9E73FC000000000056E46400000002000408F4000000060F9E73FC000000000056E46400C00000013000000720600003C000000060000
310
00020000000000002000408F4000000060F9E73FC000000000056E46400000002000408F40000000209B883FC0000000806C5147400C000000130000007A0600003C0000000600000002000000000000E0FF3F8FC000000060F9E73FC000000000056E4640000000E0FF3F8FC0000000E02DFB3FC000000040DC8545400C00
310
000013000000820600003C00000006000000020000000000002000408F40000000E02DFB3FC000000040DC854540000000E0FF3F8FC0000000E02DFB3FC000000040DC8545400C000000130000008A0600003C00000006000000020000000000002000408F4000000060F9E73FC000000000056E46400000002000408F4000
310
0000E02DFB3FC000000040DC8545400C00000013000000920600003C0000000600000002000000000000E0FF3F8FC000000000B2C13FC0000000804A9F4440000000E0FF3F8FC0000000E02DFB3FC000000040DC8545400C000000130000009A0600003C00000006000000020000000000002000408F4000000000B2C13FC0
310
000000804A9F4440000000E0FF3F8FC000000000B2C13FC0000000804A9F44400C00000013000000A20600003C00000006000000020000000000002000408F40000000E02DFB3FC000000040DC8545400000002000408F4000000000B2C13FC0000000804A9F44400C00000013000000AA0600003C00000006000000020000
310
00000000E0FF3F8FC0000000A0183D3FC0000000C09AC04340000000E0FF3F8FC000000000B2C13FC0000000804A9F44400C00000013000000B20600003C0000000600000002000000000000E0FF3F8FC0000000A0183D3FC0000000C09AC043400000002000408F40000000A0183D3FC0000000C09AC043400C0000001300
310
0000BA0600003C00000006000000020000000000002000408F40000000A0183D3FC0000000C09AC043400000002000408F4000000000B2C13FC0000000804A9F44400C00000013000000C20600003C0000000600000002000000000000E0FF3F8FC0000000A0183D3FC0000000C09AC04340000000E0FF3F8FC00000004001
310
713EC000000080DFEF42400C00000013000000CA0600003C00000006000000020000000000002000408F400000004001713EC000000080DFEF4240000000E0FF3F8FC00000004001713EC000000080DFEF42400C00000013000000D20600003C00000006000000020000000000002000408F400000004001713EC000000080
310
DFEF42400000002000408F40000000A0183D3FC0000000C09AC043400C00000013000000DA0600003C0000000600000002000000000000E0FF3F8FC0000000A0FD623DC000000040C9324240000000E0FF3F8FC00000004001713EC000000080DFEF42400C00000013000000E20600003C0000000600000002000000000000
310
2000408F40000000A0FD623DC000000040C9324240000000E0FF3F8FC0000000A0FD623DC000000040C93242400C00000013000000EA0600003C00000006000000020000000000002000408F40000000A0FD623DC000000040C93242400000002000408F400000004001713EC000000080DFEF42400C00000013000000F206
310
00003C0000000600000002000000000000E0FF3F8FC0000000E06A1A3CC0000000C07F8E4140000000E0FF3F8FC0000000A0FD623DC000000040C93242400C00000013000000FA0600003C00000006000000020000000000002000408F40000000E06A1A3CC0000000C07F8E4140000000E0FF3F8FC0000000E06A1A3CC000
310
0000C07F8E41400C00000013000000020700003C00000006000000020000000000002000408F40000000E06A1A3CC0000000C07F8E41400000002000408F40000000A0FD623DC000000040C93242400C000000130000000A0700003C0000000600000002000000000000E0FF3F8FC0000000603EA03AC0000000007E074140
310
000000E0FF3F8FC0000000E06A1A3CC0000000C07F8E41400C00000013000000120700003C00000006000000020000000000002000408F40000000603EA03AC0000000007E074140000000E0FF3F8FC0000000603EA03AC0000000007E0741400C000000130000001A0700003C00000006000000020000000000002000408F
310
40000000603EA03AC0000000007E0741400000002000408F40000000E06A1A3CC0000000C07F8E41400C00000013000000220700003C0000000600000002000000000000E0FF3F8FC0000000A0C7FE38C00000004072A14040000000E0FF3F8FC0000000603EA03AC0000000007E0741400C000000130000002A0700003C00
310
000006000000020000000000002000408F40000000A0C7FE38C00000004072A14040000000E0FF3F8FC0000000A0C7FE38C00000004072A140400C00000013000000320700003C00000006000000020000000000002000408F40000000A0C7FE38C00000004072A140400000002000408F40000000603EA03AC0000000007E
310
0741400C000000130000003A0700003C0000000600000002000000000000E0FF3F8FC000000040684137C000000060255F4040000000E0FF3F8FC0000000A0C7FE38C00000004072A140400C00000013000000420700003C00000006000000020000000000002000408F4000000040684137C000000060255F4040000000E0
310
FF3F8FC000000040684137C000000060255F40400C000000130000004A0700003C00000006000000020000000000002000408F4000000040684137C000000060255F40400000002000408F40000000A0C7FE38C00000004072A140400C00000013000000520700003C0000000600000002000000000000E0FF3F8FC0000000
310
808CE835C000000040CF444040000000E0FF3F8FC000000040684137C000000060255F40400C000000130000005A0700003C0000000600000002000000000000E0FF3F8FC0000000808CE835C000000040CF4440400000002000408F40000000808CE835C000000040CF4440400C00000013000000620700003C0000000600
310
0000020000000000002000408F40000000808CE835C000000040CF4440400000002000408F4000000040684137C000000060255F40400C000000130000006A0700003C0000000600000002000000000000E0FF3F8FC0000000808CE835C000000040CF444040000000E0FF3F8FC000000040FDFF34C000000000004040400C
310
00000013000000720700003C00000006000000020000000000002000408F4000000040FDFF34C00000000000404040000000E0FF3F8FC000000040FDFF34C000000000004040400C000000130000007A0700003C00000006000000020000000000002000408F4000000040FDFF34C000000000004040400000002000408F40
310
000000808CE835C000000040CF4440400C00000013000000820700003C0000000600000002000000000000E0FF3F8FC000000020FDFF34C00000000000803C40000000E0FF3F8FC0000000E08FDE31C00000000058673C400C000000130000008A0700003C0000000600000002000000000000E0FF3F8FC0000000E08FDE31
310
C00000000058673C400000002000408F40000000E08FDE31C00000000058673C400C00000013000000920700003C00000006000000020000000000002000408F4000000020FDFF34C00000000000803C400000002000408F40000000E08FDE31C00000000058673C400C000000130000009A0700003C000000060000000200
310
0000000000E0FF3F8FC000000020FDFF34C00000000000803C400000002000408F4000000020FDFF34C00000000000803C400C00000013000000A20700003C0000000600000002000000000000E0FF3F8FC000000040722830C00000008084053C40000000E0FF3F8FC0000000E08FDE31C00000000058673C400C00000013
310
000000AA0700003C0000000600000002000000000000E0FF3F8FC000000040722830C00000008084053C400000002000408F4000000020722830C00000008084053C400C00000013000000B20700003C00000006000000020000000000002000408F40000000E08FDE31C00000000058673C400000002000408F4000000020
310
722830C00000008084053C400C00000013000000BA0700003C0000000600000002000000000000E0FF3F8FC000000040722830C00000008084053C40000000E0FF3F8FC0000000405E142DC0000000C097583B400C00000013000000C20700003C00000006000000020000000000002000408F40000000405E142DC0000000
310
C097583B40000000E0FF3F8FC0000000405E142DC0000000C097583B400C00000013000000CA0700003C00000006000000020000000000002000408F40000000405E142DC0000000C097583B400000002000408F4000000020722830C00000008084053C400C00000013000000D20700003C00000006000000020000000000
310
00E0FF3F8FC00000008013212AC000000080E7653A40000000E0FF3F8FC0000000405E142DC0000000C097583B400C00000013000000DA0700003C0000000600000002000000000000E0FF3F8FC00000008013212AC000000080E7653A400000002000408F400000006013212AC000000080E7653A400C00000013000000E2
310
0700003C00000006000000020000000000002000408F40000000405E142DC0000000C097583B400000002000408F400000006013212AC000000080E7653A400C00000013000000EA0700003C0000000600000002000000000000E0FF3F8FC0000000E0488E27C0000000C0EB343940000000E0FF3F8FC00000008013212AC0
310
00000080E7653A400C00000013000000F20700003C0000000600000002000000000000E0FF3F8FC0000000E0488E27C0000000C0EB3439400000002000408F40000000E0488E27C0000000C0EB3439400C00000013000000FA0700003C00000006000000020000000000002000408F40000000E0488E27C0000000C0EB3439
310
400000002000408F400000006013212AC000000080E7653A400C00000013000000020800003C0000000600000002000000000000E0FF3F8FC0000000804A7025C0000000C00BCF3740000000E0FF3F8FC0000000E0488E27C0000000C0EB3439400C000000130000000A0800003C0000000600000002000000000000E0FF3F
310
8FC0000000804A7025C0000000C00BCF37400000002000408F40000000804A7025C0000000C00BCF37400C00000013000000120800003C00000006000000020000000000002000408F40000000804A7025C0000000C00BCF37400000002000408F40000000E0488E27C0000000C0EB3439400C000000130000001A0800003C
310
0000000600000002000000000000E0FF3F8FC000000000CBD723C0000000804C3F3640000000E0FF3F8FC0000000804A7025C0000000C00BCF37400C00000013000000220800003C0000000600000002000000000000E0FF3F8FC000000000CBD723C0000000804C3F36400000002000408F4000000000CBD723C000000080
310
4C3F36400C000000130000002A0800003C00000006000000020000000000002000408F4000000000CBD723C0000000804C3F36400000002000408F40000000804A7025C0000000C00BCF37400C00000013000000320800003C0000000600000002000000000000E0FF3F8FC000000060FAFF22C00000000000003540000000
310
E0FF3F8FC000000040BB1826C0000000C028A034400C000000130000003A0800003C00000006000000020000000000002000408F4000000040BB1826C0000000C028A03440000000E0FF3F8FC000000040BB1826C0000000C028A034400C00000013000000420800003C00000006000000020000000000002000408F400000
310
0040BB1826C0000000C028A034400000002000408F4000000060FAFF22C000000000000035400C000000130000004A0800003C0000000600000002000000000000E0FF3F8FC000000060FAFF22C000000000000035400000002000408F4000000060FAFF22C000000000000035400C00000013000000520800003C00000006
310
00000002000000000000E0FF3F8FC0000000C0870E29C000000080BED43340000000E0FF3F8FC000000040BB1826C0000000C028A034400C000000130000005A0800003C0000000600000002000000000000E0FF3F8FC0000000C0870E29C000000080BED433400000002000408F40000000C0870E29C000000080BED43340
310
0C00000013000000620800003C00000006000000020000000000002000408F4000000040BB1826C0000000C028A034400000002000408F40000000C0870E29C000000080BED433400C000000130000006A0800003C0000000600000002000000000000E0FF3F8FC000000080A7C22BC000000000709A3240000000E0FF3F8F
310
C0000000C0870E29C000000080BED433400C00000013000000720800003C0000000600000002000000000000E0FF3F8FC000000080A7C22BC000000000709A32400000002000408F4000000080A7C22BC000000000709A32400C000000130000007A0800003C00000006000000020000000000002000408F4000000080A7C2
310
2BC000000000709A32400000002000408F40000000C0870E29C000000080BED433400C00000013000000820800003C0000000600000002000000000000E0FF3F8FC0000000A0ACDF2DC000000000350F3140000000E0FF3F8FC000000080A7C22BC000000000709A32400C000000130000008A0800003C0000000600000002
310
000000000000E0FF3F8FC0000000A0ACDF2DC000000000350F31400000002000408F4000000080ACDF2DC000000000350F31400C00000013000000920800003C00000006000000020000000000002000408F4000000080A7C22BC000000000709A32400000002000408F4000000080ACDF2DC000000000350F31400C000000
310
130000009A0800003C0000000600000002000000000000E0FF3F8FC0000000A0ACDF2DC000000000350F3140000000E0FF3F8FC000000000EC242FC0000000006AD12E400C00000013000000A20800003C00000006000000020000000000002000408F4000000000EC242FC0000000006AD12E40000000E0FF3F8FC0000000
310
00EC242FC0000000006AD12E400C00000013000000AA0800003C00000006000000020000000000002000408F4000000080ACDF2DC000000000350F31400000002000408F4000000000EC242FC0000000006AD12E400C00000013000000B20800003C0000000600000002000000000000E0FF3F8FC0000000809F8A2FC00000
310
000022882B40000000E0FF3F8FC000000000EC242FC0000000006AD12E400C00000013000000BA0800003C0000000600000002000000000000E0FF3F8FC0000000809F8A2FC00000000022882B400000002000408F40000000409F8A2FC00000000022882B400C00000013000000C20800003C000000060000000200000000
310
00002000408F4000000000EC242FC0000000006AD12E400000002000408F40000000409F8A2FC00000000022882B400C00000013000000CA0800003C0000000600000002000000000000E0FF3F8FC0000000803A0B2FC000000000682F2840000000E0FF3F8FC0000000809F8A2FC00000000022882B400C00000013000000
310
D20800003C0000000600000002000000000000E0FF3F8FC0000000803A0B2FC000000000682F28400000002000408F40000000403A0B2FC000000000682F28400C00000013000000DA0800003C00000006000000020000000000002000408F40000000409F8A2FC00000000022882B400000002000408F40000000403A0B2F
310
C000000000682F28400C00000013000000E20800003C0000000600000002000000000000E0FF3F8FC0000000608DB32DC00000000001F02440000000E0FF3F8FC0000000803A0B2FC000000000682F28400C00000013000000EA0800003C0000000600000002000000000000E0FF3F8FC0000000608DB32DC00000000001F0
310
24400000002000408F40000000208DB32DC00000000001F024400C00000013000000F20800003C00000006000000020000000000002000408F40000000403A0B2FC000000000682F28400000002000408F40000000208DB32DC00000000001F024400C00000013000000FA0800003C0000000600000002000000000000E0FF
310
3F8FC0000000608DB32DC00000000001F02440000000E0FF3F8FC0000000E05BED2BC000000000D84F22400C00000013000000020900003C00000006000000020000000000002000408F40000000C05BED2BC000000000D84F2240000000E0FF3F8FC0000000E05BED2BC000000000D84F22400C000000130000000A090000
310
3C00000006000000020000000000002000408F40000000208DB32DC00000000001F024400000002000408F40000000C05BED2BC000000000D84F22400C00000013000000120900003C0000000600000002000000000000E0FF3F8FC0000000601AA829C000000000F6E41F40000000E0FF3F8FC0000000E05BED2BC0000000
310
00D84F22400C000000130000001A0900003C0000000600000002000000000000E0FF3F8FC0000000601AA829C000000000F6E41F400000002000408F40000000201AA829C000000000F6E41F400C00000013000000220900003C00000006000000020000000000002000408F40000000C05BED2BC000000000D84F22400000
310
002000408F40000000201AA829C000000000F6E41F400C000000130000002A0900003C0000000600000002000000000000E0FF3F8FC0000000601AA829C000000000F6E41F40000000E0FF3F8FC000000040C20527C00000000092FA1B400C00000013000000320900003C00000006000000020000000000002000408F4000
310
000040C20527C00000000092FA1B40000000E0FF3F8FC000000040C20527C00000000092FA1B400C000000130000003A0900003C00000006000000020000000000002000408F40000000201AA829C000000000F6E41F400000002000408F4000000040C20527C00000000092FA1B400C00000013000000420900003C000000
310
0600000002000000000000E0FF3F8FC000000080C01A24C000000000840A1940000000E0FF3F8FC000000040C20527C00000000092FA1B400C000000130000004A0900003C0000000600000002000000000000E0FF3F8FC000000080C01A24C000000000840A19400000002000408F4000000080C01A24C000000000840A19
310
400C00000013000000520900003C00000006000000020000000000002000408F4000000040C20527C00000000092FA1B400000002000408F4000000080C01A24C000000000840A19400C000000130000005A0900003C0000000600000002000000000000E0FF3F8FC00000004018DB20C00000000078101740000000E0FF3F
310
8FC000000080C01A24C000000000840A19400C00000013000000620900003C0000000600000002000000000000E0FF3F8FC00000004018DB20C000000000781017400000002000408F400000004018DB20C000000000781017400C000000130000006A0900003C00000006000000020000000000002000408F4000000080C0
310
1A24C000000000840A19400000002000408F400000004018DB20C000000000781017400C00000013000000720900003C0000000600000002000000000000E0FF3F8FC00000004018DB20C00000000078101740000000E0FF3F8FC000000000D7E21AC000000000781E16400C000000130000007A0900003C00000006000000
310
020000000000002000408F4000000000D7E21AC000000000781E1640000000E0FF3F8FC000000000D7E21AC000000000781E16400C00000013000000820900003C00000006000000020000000000002000408F400000004018DB20C000000000781017400000002000408F4000000000D7E21AC000000000781E16400C0000
310
00130000008A0900003C0000000600000002000000000000E0FF3F8FC000000080F4FF17C00000000000001640000000E0FF3F8FC000000000D7E21AC000000000781E16400C00000013000000920900003C0000000600000002000000000000E0FF3F8FC000000080F4FF17C000000000000016400000002000408F400000
310
0080F4FF17C000000000000016400C000000130000009A0900003C00000006000000020000000000002000408F4000000080F4FF17C000000000000016400000002000408F4000000000D7E21AC000000000781E16400C00000013000000A20900003C0000000600000002000000000000E0FF3F8FC0000000000000063F00
310
000000A9E83140000000E0FF3F8FC0000000000000073F00000000557525400C00000013000000AA0900003C00000006000000020000000000002000408F40000000000000043F00000000A9E831400000002000408F40000000000000073F00000000557525400C00000013000000B20900003C0000000600000002000000
310
000000E0FF3F8FC0000000000000053F000000C099375240000000E0FF3F8FC000000000F1F130C000000080B8D851400C00000013000000BA0900003C00000006000000020000000000002000408F40000000E0F0F130C000000080B8D851400000002000408F40000000000000053F000000C0993752400C000000130000
310
00C20900003C0000000600000002000000000000E0FF3F8FC000000060FD7F3BC00000000000A05340000000E0FF3F8FC000000060FD7F3BC00000000000C054400C00000013000000CA0900003C00000006000000020000000000002000408F4000000060FD7F3BC00000000000C054400000002000408F4000000060FD7F
310
3BC00000000000A053400C00000013000000D20900003C0000000600000002000000000000E0FF3F8FC000000040FDFF37C0000000C0FF3F4F40000000E0FF3F8FC000000040FDFF37C0000000C0FF3F4D400C00000013000000DA0900003C00000006000000020000000000002000408F4000000040FDFF37C0000000C0FF
310
3F4D400000002000408F4000000040FDFF37C0000000C0FF3F4F400C00000013000000E20900003C0000000600000002000000000000E0FF3F8FC000000040FDFF34C00000000000404D40000000E0FF3F8FC000000040FDFF34C00000000000404B400C00000013000000EA0900003C000000060000000200000000000020
310
00408F4000000040FDFF34C00000000000404D400000002000408F4000000040FDFF34C00000000000404B400C00000013000000F20900003C0000000600000002000000000000E0FF3F8FC000000020FDFF34C00000000000803C40000000E0FF3F8FC000000040FDFF34C000000000004040400C00000013000000FA0900
310
003C00000006000000020000000000002000408F4000000020FDFF34C00000000000803C400000002000408F4000000040FDFF34C000000000004040400C00000013000000020A00003C0000000600000002000000000000E0FF3F8FC000000060FAFF22C00000000000003540000000E0FF3F8FC000000000CBD723C00000
310
00804C3F36400C000000130000000A0A00003C00000006000000020000000000002000408F4000000060FAFF22C000000000000035400000002000408F4000000000CBD723C0000000804C3F36400C00000013000000120A00003C0000000600000002000000000000E0FF3F8FC000000080F4FF17C0000000000000164000
310
0000E0FF3F8FC000000080F4FF17C000000000000000000C000000130000001A0A00003C00000006000000020000000000002000408F4000000080F4FF17C000000000000000000000002000408F4000000080F4FF17C000000000000016400C00000013000000220A00003C00000006000000020000000000002000408F40
310
00000000409ED8BF00000000BBC853400000002000408F4000000060FD7F3BC00000000000C054400C000000130000002A0A00003C00000006000000020000000000002000408F4000000060FD7F3BC00000000000C054400000002000408F400000000050DAE6BF000000C047A153400C00000013000000320A00003C0000
310
0006000000020000000000002000408F40000000002C99E9BF00000000008053400000002000408F4000000060FD7F3BC00000000000A053400C000000130000003A0A00003C00000006000000020000000000002000408F400000000050DAE6BF00000040B85E53400000002000408F40000000E0F0F130C000000080B8D8
310
51400C00000013000000420A00003C00000006000000020000000000002000408F4000000000409ED8BF000000C0443753400000002000408F40000000E0F0F130C000000080B8D851400C000000130000004A0A00003C00000006000000020000000000002000408F4000000060FD7F3BC00000000000A053400000002000
310
408F40000000E0F0F130C000000080B8D851400C00000013000000520A00003C00000006000000020000000000002000408F40000000E0DECD31C00000004082C351400000002000408F40000000A0806D3DC0000000C0887F53400C000000130000005A0A00003C00000006000000020000000000002000408F4000000040
310
E71631C000000000E69F50400000002000408F4000000040FDFF37C0000000C0FF3F4F400C00000013000000620A00003C00000006000000020000000000002000408F4000000060BAF42EC000000000480D50400000002000408F4000000040FDFF37C0000000C0FF3F4D400C000000130000006A0A00003C000000060000
310
00020000000000002000408F4000000000C47F32C0000000C08F1E51400000002000408F400000004016E838C0000000A049464F400C00000013000000720A00003C00000006000000020000000000002000408F4000000000C47F32C0000000C08F1E51400000002000408F40000000C00CA63AC00000002088694F400C00
310
0000130000007A0A00003C00000006000000020000000000002000408F4000000000C47F32C0000000C08F1E51400000002000408F400000000057423CC00000006071AC4F400C00000013000000820A00003C00000006000000020000000000002000408F4000000000C47F32C0000000C08F1E51400000002000408F4000
310
0000C057B53DC0000000C0890650400C000000130000008A0A00003C00000006000000020000000000002000408F4000000000C47F32C0000000C08F1E51400000002000408F40000000C0D8043FC000000040094650400C00000013000000920A00003C00000006000000020000000000002000408F40000000E0DECD31C0
310
0000004082C351400000002000408F40000000E0BCE63EC000000080954753400C000000130000009A0A00003C00000006000000020000000000002000408F40000000E0DECD31C00000004082C351400000002000408F40000000801C1D40C0000000802FF552400C00000013000000A20A00003C00000006000000020000
310
000000002000408F40000000E0DECD31C00000004082C351400000002000408F40000000A0F49E40C000000000D79052400C00000013000000AA0A00003C00000006000000020000000000002000408F40000000E0DECD31C00000004082C351400000002000408F40000000A069EB40C0000000803C2752400C0000001300
310
0000B20A00003C00000006000000020000000000002000408F40000000E0D6A832C000000000CD7951400000002000408F4000000020A10141C00000008002BE51400C00000013000000BA0A00003C00000006000000020000000000002000408F40000000E0D6A832C000000000CD7951400000002000408F4000000060E7
310
DF40C0000000007D5251400C00000013000000C20A00003C00000006000000020000000000002000408F40000000E0D6A832C000000000CD7951400000002000408F4000000040EC8640C000000000D9E750400C00000013000000CA0A00003C00000006000000020000000000002000408F40000000E0D6A832C000000000
310
CD7951400000002000408F4000000080691340C000000000289250400C00000013000000D20A00003C00000006000000020000000000002000408F4000000040BC922BC0000000409ED84E400000002000408F4000000040FDFF34C00000000000404D400C00000013000000DA0A00003C0000000600000002000000000000
310
2000408F4000000040FDFF34C00000000000404D400000002000408F4000000000A02F2AC0000000E0B1BB4D400C00000013000000E20A00003C00000006000000020000000000002000408F4000000040FDFF34C00000000000404D400000002000408F4000000080FAFF29C0000000E02B264D400C00000013000000EA0A
310
00003C00000006000000020000000000002000408F4000000060FAFF29C0000000C05E594B400000002000408F4000000040FDFF34C00000000000404B400C00000013000000F20A00003C00000006000000020000000000002000408F4000000040FDFF34C00000000000404B400000002000408F40000000001D312AC000
310
0000008CC14A400C00000013000000FA0A00003C00000006000000020000000000002000408F4000000040FDFF34C00000000000404B400000002000408F40000000A0129F2BC000000000B1A049400C00000013000000020B00003C00000006000000020000000000002000408F4000000040F0512FC0000000C0E55B4840
310
0000002000408F40000000A0075C36C0000000E0FD334B400C000000130000000A0B00003C00000006000000020000000000002000408F4000000000016A2FC0000000E0052A43400000002000408F4000000040FDFF34C000000000004040400C00000013000000120B00003C00000006000000020000000000002000408F
310
400000004078AB2BC000000060D92042400000002000408F4000000020FDFF34C00000000000803C400C000000130000001A0B00003C00000006000000020000000000002000408F40000000E05F2032C0000000C03FF943400000002000408F40000000808CE835C000000040CF4440400C00000013000000220B00003C00
310
000006000000020000000000002000408F40000000E05F2032C0000000C03FF943400000002000408F4000000040684137C000000060255F40400C000000130000002A0B00003C00000006000000020000000000002000408F40000000E05F2032C0000000C03FF943400000002000408F40000000A0C7FE38C00000004072
310
A140400C00000013000000320B00003C00000006000000020000000000002000408F400000000013BC33C000000080BAB844400000002000408F40000000603EA03AC0000000007E0741400C000000130000003A0B00003C00000006000000020000000000002000408F400000000013BC33C000000080BAB8444000000020
310
00408F40000000E06A1A3CC0000000C07F8E41400C00000013000000420B00003C00000006000000020000000000002000408F400000000013BC33C000000080BAB844400000002000408F40000000A0FD623DC000000040C93242400C000000130000004A0B00003C00000006000000020000000000002000408F40000000
310
40F0512FC0000000C0E55B48400000002000408F4000000060D62238C0000000C04E044B400C00000013000000520B00003C00000006000000020000000000002000408F4000000040F0512FC0000000C0E55B48400000002000408F40000000A0BBD339C0000000A0D8AF4A400C000000130000005A0B00003C0000000600
310
0000020000000000002000408F40000000C04F1F32C0000000400B8747400000002000408F4000000020EA623BC0000000E0E9384A400C00000013000000620B00003C00000006000000020000000000002000408F40000000C04F1F32C0000000400B8747400000002000408F40000000A07FC53CC000000020C1A249400C
310
000000130000006A0B00003C00000006000000020000000000002000408F40000000C04F1F32C0000000400B8747400000002000408F4000000060D1F13DC00000006076F148400C00000013000000720B00003C00000006000000020000000000002000408F400000000013BC33C00000008045C746400000002000408F40
310
000000E0AEDF3EC000000040DF2948400C000000130000007A0B00003C00000006000000020000000000002000408F400000000013BC33C00000008045C746400000002000408F40000000209B883FC0000000806C5147400C00000013000000820B00003C00000006000000020000000000002000408F400000000013BC33
310
C00000008045C746400000002000408F4000000060F9E73FC000000000056E46400C000000130000008A0B00003C00000006000000020000000000002000408F40000000E0D44F34C00000000000C045400000002000408F400000004001713EC000000080DFEF42400C00000013000000920B00003C000000060000000200
310
00000000002000408F40000000E0D44F34C00000000000C045400000002000408F40000000A0183D3FC0000000C09AC043400C000000130000009A0B00003C00000006000000020000000000002000408F40000000E0D44F34C00000000000C045400000002000408F40000000E02DFB3FC000000040DC8545400C00000013
310
000000A20B00003C00000006000000020000000000002000408F40000000E0D44F34C00000000000C045400000002000408F4000000000B2C13FC0000000804A9F44400C00000013000000AA0B00003C00000006000000020000000000002000408F4000000040172C27C0000000C0C16541400000002000408F40000000E0
310
8FDE31C00000000058673C400C00000013000000B20B00003C00000006000000020000000000002000408F40000000000000043F00000000A9E831400000002000408F4000000060FAFF22C000000000000035400C00000013000000BA0B00003C00000006000000020000000000002000408F40000000000000073F000000
310
00557525400000002000408F4000000040BB1826C0000000C028A034400C00000013000000C20B00003C00000006000000020000000000002000408F4000000040172C27C0000000C0C16541400000002000408F4000000020722830C00000008084053C400C00000013000000CA0B00003C00000006000000020000000000
310
002000408F4000000000B4C91FC000000040024140400000002000408F40000000405E142DC0000000C097583B400C00000013000000D20B00003C00000006000000020000000000002000408F40000000001B2A05C000000000C97F39400000002000408F4000000000CBD723C0000000804C3F36400C00000013000000DA
310
0B00003C00000006000000020000000000002000408F40000000001B2A05C000000000C97F39400000002000408F40000000804A7025C0000000C00BCF37400C00000013000000E20B00003C00000006000000020000000000002000408F4000000040827113C0000000002F553D400000002000408F40000000E0488E27C0
310
000000C0EB3439400C00000013000000EA0B00003C00000006000000020000000000002000408F4000000000B4C91FC000000040024140400000002000408F400000006013212AC000000080E7653A400C00000013000000F20B00003C00000006000000020000000000002000408F40000000000000073F0000000056151D
310
400000002000408F4000000080F4FF17C000000000000016400C00000013000000FA0B00003C00000006000000020000000000002000408F40000000000000073F00000000557525400000002000408F40000000C0870E29C000000080BED433400C00000013000000020C00003C0000000600000002000000000000200040
310
8F4000000000B0B9DEBF0000000094FF24400000002000408F4000000080A7C22BC000000000709A32400C000000130000000A0C00003C00000006000000020000000000002000408F4000000000B0B9DEBF0000000094FF24400000002000408F4000000080ACDF2DC000000000350F31400C00000013000000120C00003C
310
00000006000000020000000000002000408F40000000009876EFBF00000000120224400000002000408F4000000000EC242FC0000000006AD12E400C000000130000001A0C00003C00000006000000020000000000002000408F40000000009876EFBF00000000120224400000002000408F40000000409F8A2FC000000000
310
22882B400C00000013000000220C00003C00000006000000020000000000002000408F40000000007C18F4BF00000000B6B422400000002000408F40000000403A0B2FC000000000682F28400C000000130000002A0C00003C00000006000000020000000000002000408F40000000007C18F4BF00000000B6B42240000000
310
2000408F40000000208DB32DC00000000001F024400C00000013000000320C00003C00000006000000020000000000002000408F40000000007C18F4BF000000004A4B21400000002000408F40000000C05BED2BC000000000D84F22400C000000130000003A0C00003C00000006000000020000000000002000408F400000
310
00007C18F4BF000000004A4B21400000002000408F40000000201AA829C000000000F6E41F400C00000013000000420C00003C00000006000000020000000000002000408F40000000009A76EFBF00000000DCFB1F400000002000408F4000000040C20527C00000000092FA1B400C000000130000004A0C00003C00000006
310
000000020000000000002000408F40000000009A76EFBF00000000DCFB1F400000002000408F4000000080C01A24C000000000840A19400C00000013000000520C00003C00000006000000020000000000002000408F4000000000B0B9DEBF00000000D8001E400000002000408F400000004018DB20C00000000078101740
310
0C000000130000005A0C00003C00000006000000020000000000002000408F4000000000B0B9DEBF00000000D8001E400000002000408F4000000000D7E21AC000000000781E16400C00000013000000620C00003C0000000600000002000000000000E0FF3F8FC000000000409ED8BF00000000BBC85340000000E0FF3F8F
310
C000000060FD7F3BC00000000000C054400C000000130000006A0C00003C0000000600000002000000000000E0FF3F8FC00000000050DAE6BF000000C047A15340000000E0FF3F8FC000000060FD7F3BC00000000000C054400C00000013000000720C00003C0000000600000002000000000000E0FF3F8FC000000060FD7F
310
3BC00000000000A05340000000E0FF3F8FC0000000002A99E9BF00000000008053400C000000130000007A0C00003C0000000600000002000000000000E0FF3F8FC000000000F1F130C000000080B8D85140000000E0FF3F8FC000000000409ED8BF000000C0443753400C00000013000000820C00003C0000000600000002
310
000000000000E0FF3F8FC000000000F1F130C000000080B8D85140000000E0FF3F8FC00000000050DAE6BF00000040B85E53400C000000130000008A0C00003C0000000600000002000000000000E0FF3F8FC000000060FD7F3BC00000000000A05340000000E0FF3F8FC000000000F1F130C000000080B8D851400C000000
310
13000000920C00003C0000000600000002000000000000E0FF3F8FC0000000A0806D3DC0000000C0887F5340000000E0FF3F8FC0000000E0DECD31C00000004082C351400C000000130000009A0C00003C0000000600000002000000000000E0FF3F8FC000000060BAF42EC000000000480D5040000000E0FF3F8FC0000000
310
40FDFF37C0000000C0FF3F4D400C00000013000000A20C00003C0000000600000002000000000000E0FF3F8FC000000080E71631C000000000E69F5040000000E0FF3F8FC000000040FDFF37C0000000C0FF3F4F400C00000013000000AA0C00003C0000000600000002000000000000E0FF3F8FC00000004016E838C00000
310
00A049464F40000000E0FF3F8FC000000040C47F32C0000000C08F1E51400C00000013000000B20C00003C0000000600000002000000000000E0FF3F8FC000000040C47F32C0000000C08F1E5140000000E0FF3F8FC0000000C00CA63AC00000002088694F400C00000013000000BA0C00003C000000060000000200000000
310
0000E0FF3F8FC00000000057423CC00000006071AC4F40000000E0FF3F8FC000000040C47F32C0000000C08F1E51400C00000013000000C20C00003C0000000600000002000000000000E0FF3F8FC0000000C057B53DC0000000C089065040000000E0FF3F8FC000000040C47F32C0000000C08F1E51400C00000013000000
310
CA0C00003C0000000600000002000000000000E0FF3F8FC000000040C47F32C0000000C08F1E5140000000E0FF3F8FC0000000C0D8043FC000000040094650400C00000013000000D20C00003C0000000600000002000000000000E0FF3F8FC0000000E0DECD31C00000004082C35140000000E0FF3F8FC0000000401C1D40
310
C0000000802FF552400C00000013000000DA0C00003C0000000600000002000000000000E0FF3F8FC0000000E0BCE63EC00000008095475340000000E0FF3F8FC0000000E0DECD31C00000004082C351400C00000013000000E20C00003C0000000600000002000000000000E0FF3F8FC00000008069EB40C0000000803C27
310
5240000000E0FF3F8FC0000000E0DECD31C00000004082C351400C00000013000000EA0C00003C0000000600000002000000000000E0FF3F8FC000000080F49E40C000000000D7905240000000E0FF3F8FC0000000E0DECD31C00000004082C351400C00000013000000F20C00003C0000000600000002000000000000E0FF
310
3F8FC0000000E0D6A832C000000000CD795140000000E0FF3F8FC0000000C0A00141C00000008002BE51400C00000013000000FA0C00003C0000000600000002000000000000E0FF3F8FC0000000E0D6A832C000000000CD795140000000E0FF3F8FC000000000EC8640C000000000D9E750400C00000013000000020D0000
310
3C0000000600000002000000000000E0FF3F8FC000000000E7DF40C0000000007D525140000000E0FF3F8FC0000000E0D6A832C000000000CD7951400C000000130000000A0D00003C0000000600000002000000000000E0FF3F8FC0000000E0D6A832C000000000CD795140000000E0FF3F8FC000000040691340C0000000
310
00289250400C00000013000000120D00003C0000000600000002000000000000E0FF3F8FC000000040FDFF34C00000000000404D40000000E0FF3F8FC000000060BC922BC0000000409ED84E400C000000130000001A0D00003C0000000600000002000000000000E0FF3F8FC000000040FDFF34C00000000000404D400000
310
00E0FF3F8FC000000040A02F2AC0000000E0B1BB4D400C00000013000000220D00003C0000000600000002000000000000E0FF3F8FC000000040FDFF34C00000000000404D40000000E0FF3F8FC0000000A0FAFF29C0000000E02B264D400C000000130000002A0D00003C0000000600000002000000000000E0FF3F8FC000
310
000040FDFF34C00000000000404B40000000E0FF3F8FC000000080FAFF29C0000000C05E594B400C00000013000000320D00003C0000000600000002000000000000E0FF3F8FC0000000C0129F2BC000000000B1A04940000000E0FF3F8FC000000040FDFF34C00000000000404B400C000000130000003A0D00003C000000
310
0600000002000000000000E0FF3F8FC0000000201D312AC0000000008CC14A40000000E0FF3F8FC000000040FDFF34C00000000000404B400C00000013000000420D00003C0000000600000002000000000000E0FF3F8FC000000040F0512FC0000000C0E55B4840000000E0FF3F8FC0000000A0075C36C0000000E0FD334B
310
400C000000130000004A0D00003C0000000600000002000000000000E0FF3F8FC000000020FDFF34C00000000000803C40000000E0FF3F8FC00000008078AB2BC000000060D92042400C00000013000000520D00003C0000000600000002000000000000E0FF3F8FC000000040FDFF34C00000000000404040000000E0FF3F
310
8FC000000000016A2FC0000000E0052A43400C000000130000005A0D00003C0000000600000002000000000000E0FF3F8FC0000000808CE835C000000040CF444040000000E0FF3F8FC0000000E05F2032C0000000C03FF943400C00000013000000620D00003C0000000600000002000000000000E0FF3F8FC00000004068
310
4137C000000060255F4040000000E0FF3F8FC0000000E05F2032C0000000C03FF943400C000000130000006A0D00003C0000000600000002000000000000E0FF3F8FC0000000A0C7FE38C00000004072A14040000000E0FF3F8FC0000000E05F2032C0000000C03FF943400C00000013000000720D00003C00000006000000
310
02000000000000E0FF3F8FC00000000013BC33C000000080BAB84440000000E0FF3F8FC0000000603EA03AC0000000007E0741400C000000130000007A0D00003C0000000600000002000000000000E0FF3F8FC00000000013BC33C000000080BAB84440000000E0FF3F8FC0000000E06A1A3CC0000000C07F8E41400C0000
310
0013000000820D00003C0000000600000002000000000000E0FF3F8FC00000000013BC33C000000080BAB84440000000E0FF3F8FC0000000A0FD623DC000000040C93242400C000000130000008A0D00003C0000000600000002000000000000E0FF3F8FC000000040F0512FC0000000C0E55B4840000000E0FF3F8FC00000
310
00A0BBD339C0000000A0D8AF4A400C00000013000000920D00003C0000000600000002000000000000E0FF3F8FC000000040F0512FC0000000C0E55B4840000000E0FF3F8FC000000060D62238C0000000C04E044B400C000000130000009A0D00003C0000000600000002000000000000E0FF3F8FC0000000C04F1F32C000
310
0000400B874740000000E0FF3F8FC000000020EA623BC0000000E0E9384A400C00000013000000A20D00003C0000000600000002000000000000E0FF3F8FC0000000C04F1F32C0000000400B874740000000E0FF3F8FC000000060D1F13DC00000006076F148400C00000013000000AA0D00003C0000000600000002000000
310
000000E0FF3F8FC0000000C04F1F32C0000000400B874740000000E0FF3F8FC0000000A07FC53CC000000020C1A249400C00000013000000B20D00003C0000000600000002000000000000E0FF3F8FC0000000E0AEDF3EC000000040DF294840000000E0FF3F8FC00000000013BC33C00000008045C746400C000000130000
310
00BA0D00003C0000000600000002000000000000E0FF3F8FC000000060F9E73FC000000000056E4640000000E0FF3F8FC00000000013BC33C00000008045C746400C00000013000000C20D00003C0000000600000002000000000000E0FF3F8FC0000000209B883FC0000000806C514740000000E0FF3F8FC00000000013BC
310
33C00000008045C746400C00000013000000CA0D00003C0000000600000002000000000000E0FF3F8FC0000000E0D44F34C00000000000C04540000000E0FF3F8FC00000004001713EC000000080DFEF42400C00000013000000D20D00003C0000000600000002000000000000E0FF3F8FC0000000A0183D3FC0000000C09A
310
C04340000000E0FF3F8FC0000000E0D44F34C00000000000C045400C00000013000000DA0D00003C0000000600000002000000000000E0FF3F8FC0000000E0D44F34C00000000000C04540000000E0FF3F8FC0000000E02DFB3FC000000040DC8545400C00000013000000E20D00003C0000000600000002000000000000E0
310
FF3F8FC0000000E0D44F34C00000000000C04540000000E0FF3F8FC000000000B2C13FC0000000804A9F44400C00000013000000EA0D00003C0000000600000002000000000000E0FF3F8FC0000000E08FDE31C00000000058673C40000000E0FF3F8FC000000040172C27C0000000C0C16541400C00000013000000F20D00
310
003C0000000600000002000000000000E0FF3F8FC000000040BB1826C0000000C028A03440000000E0FF3F8FC0000000000000073F00000000557525400C00000013000000FA0D00003C0000000600000002000000000000E0FF3F8FC000000060FAFF22C00000000000003540000000E0FF3F8FC0000000000000063F0000
310
0000A9E831400C00000013000000020E00003C0000000600000002000000000000E0FF3F8FC000000000B4C91FC00000004002414040000000E0FF3F8FC0000000405E142DC0000000C097583B400C000000130000000A0E00003C0000000600000002000000000000E0FF3F8FC000000040722830C00000008084053C4000
310
0000E0FF3F8FC000000040172C27C0000000C0C16541400C00000013000000120E00003C0000000600000002000000000000E0FF3F8FC000000000CBD723C0000000804C3F3640000000E0FF3F8FC0000000801A2A05C000000000C97F39400C000000130000001A0E00003C0000000600000002000000000000E0FF3F8FC0
310
000000804A7025C0000000C00BCF3740000000E0FF3F8FC0000000801A2A05C000000000C97F39400C00000013000000220E00003C0000000600000002000000000000E0FF3F8FC0000000E0488E27C0000000C0EB343940000000E0FF3F8FC000000040827113C0000000002F553D400C000000130000002A0E00003C0000
310
000600000002000000000000E0FF3F8FC00000008013212AC000000080E7653A40000000E0FF3F8FC000000000B4C91FC000000040024140400C00000013000000320E00003C0000000600000002000000000000E0FF3F8FC000000080F4FF17C00000000000001640000000E0FF3F8FC0000000000000073F000000005615
310
1D400C000000130000003A0E00003C0000000600000002000000000000E0FF3F8FC000000080A7C22BC000000000709A3240000000E0FF3F8FC000000000B0B9DEBF0000000094FF24400C00000013000000420E00003C0000000600000002000000000000E0FF3F8FC0000000C0870E29C000000080BED43340000000E0FF
310
3F8FC0000000000000073F00000000557525400C000000130000004A0E00003C0000000600000002000000000000E0FF3F8FC0000000A0ACDF2DC000000000350F3140000000E0FF3F8FC000000000B0B9DEBF0000000094FF24400C00000013000000520E00003C0000000600000002000000000000E0FF3F8FC000000000
310
EC242FC0000000006AD12E40000000E0FF3F8FC0000000009476EFBF00000000120224400C000000130000005A0E00003C0000000600000002000000000000E0FF3F8FC0000000809F8A2FC00000000022882B40000000E0FF3F8FC0000000009476EFBF00000000120224400C00000013000000620E00003C000000060000
310
0002000000000000E0FF3F8FC0000000803A0B2FC000000000682F2840000000E0FF3F8FC0000000007A18F4BF00000000B6B422400C000000130000006A0E00003C0000000600000002000000000000E0FF3F8FC0000000608DB32DC00000000001F02440000000E0FF3F8FC0000000007A18F4BF00000000B6B422400C00
310
000013000000720E00003C0000000600000002000000000000E0FF3F8FC0000000E05BED2BC000000000D84F2240000000E0FF3F8FC0000000007A18F4BF000000004A4B21400C000000130000007A0E00003C0000000600000002000000000000E0FF3F8FC0000000601AA829C000000000F6E41F40000000E0FF3F8FC000
310
0000007A18F4BF000000004A4B21400C00000013000000820E00003C0000000600000002000000000000E0FF3F8FC000000040C20527C00000000092FA1B40000000E0FF3F8FC0000000009676EFBF00000000DCFB1F400C000000130000008A0E00003C0000000600000002000000000000E0FF3F8FC000000080C01A24C0
310
00000000840A1940000000E0FF3F8FC0000000009676EFBF00000000DCFB1F400C00000013000000920E00003C0000000600000002000000000000E0FF3F8FC00000004018DB20C00000000078101740000000E0FF3F8FC000000000B0B9DEBF00000000D8001E400C000000130000009A0E00003C00000006000000020000
310
00000000E0FF3F8FC000000000B0B9DEBF00000000D8001E40000000E0FF3F8FC000000000D7E21AC000000000781E1640
100
AcDbSubDMesh
 71
     2
 72
     0
 91
        0
 92
      216
 10
-999.9999389648436
 20
0.0000400543212891
 30
83.0
 10
-999.9999389648436
 20
-27.49995994567871
 30
78.5
 10
-999.9999389648436
 20
-24.90658950805664
 30
62.54912185668946
 10
-999.9999389648436
 20
-28.25914001464844
 30
63.34720993041992
 10
-999.9999389648436
 20
-29.70837020874024
 30
64.10215759277344
 10
-999.9999389648436
 20
-33.74923706054687
 30
69.28887939453125
 10
-999.9999389648436
 20
-33.83915710449219
 30
72.61306762695312
 10
-999.9999389648436
 20
-33.24183654785156
 30
74.26312255859375
 10
-999.9999389648436
 20
-30.90131950378418
 30
77.11849975585938
 10
-999.9999389648436
 20
-29.42774391174316
 30
77.99272155761719
 10
-999.9999389648436
 20
-21.90839385986328
 30
32.53757476806641
 10
-999.9999389648436
 20
-31.23865699768066
 30
39.50472259521485
 10
-999.9999389648436
 20
-31.90614891052246
 30
44.85952758789062
 10
-999.9999389648436
 20
-31.53361701965332
 30
46.63612365722656
 10
-999.9999389648436
 20
-30.87376213073731
 30
48.3271255493164
 10
-999.9999389648436
 20
-20.99995613098144
 30
28.5
 10
-999.9999389648436
 20
-9.499957084655761
 30
21.0
 10
-999.9999389648436
 20
-9.921470642089843
 30
22.24726104736328
 10
-999.9999389648436
 20
-10.71931838989258
 30
23.80877304077149
 10
-999.9999389648436
 20
-11.77789974212646
 30
25.20672225952149
 10
-999.9999389648436
 20
-13.06460189819336
 30
26.39806365966797
 10
-999.9999389648436
 20
-16.15799331665039
 30
28.02155303955078
 10
-999.9999389648436
 20
-17.86938285827637
 30
28.4036865234375
 10
-999.9999389648436
 20
-5.999956130981445
 30
5.5
 10
-999.9999389648436
 20
-8.427919387817382
 30
5.766082763671875
 10
-999.9999389648436
 20
-10.05224990844726
 30
6.260269165039062
 10
-999.9999389648436
 20
-12.82832622528076
 30
7.973594665527343
 10
-999.9999389648436
 20
-14.85068798065185
 30
10.46875762939453
 10
-999.9999389648436
 20
-15.52193069458008
 30
12.09259033203125
 10
-999.9999389648436
 20
-15.77074813842773
 30
13.76588439941406
 10
-999.9999389648436
 20
-14.93686389923096
 30
17.05940246582031
 10
-999.9999389648436
 20
-13.88018417358398
 30
18.603271484375
 10
-999.9999389648436
 20
-12.52837944030761
 30
19.8310317993164
 10
-999.9999389648436
 20
0.0000438690185547
 30
0.0
 10
-999.9999389648436
 20
0.0000419616699219
 30
17.90882873535156
 10
-999.9999389648436
 20
-11.58611488342285
 30
34.79497528076172
 10
-999.9999389648436
 20
-7.946975708007812
 30
32.50788116455078
 10
-999.9999389648436
 20
-4.860848426818847
 30
29.33274841308594
 10
-999.9999389648436
 20
-13.09592533111572
 30
53.5120849609375
 10
-999.9999389648436
 20
-13.81068992614746
 30
51.25540161132812
 10
-999.9999389648436
 20
-15.66003608703613
 30
48.71794891357422
 10
-999.9999389648436
 20
-18.49908828735351
 30
68.47752380371094
 10
-999.9999389648436
 20
0.0000400543212891
 30
72.86875915527343
 10
-999.9999389648436
 20
-17.8041820526123
 30
71.05482482910156
 10
-999.9999389648436
 20
-18.6595287322998
 30
69.90313720703125
 10
-999.9999389648436
 20
-18.12231063842773
 30
47.05503082275391
 10
-999.9999389648436
 20
-20.31184196472168
 30
43.5
 10
-999.9999389648436
 20
-19.73466491699219
 30
41.44319152832031
 10
-999.9999389648436
 20
-0.4800834655761719
 30
10.49917602539062
 10
-999.9999389648436
 20
-1.255975723266601
 30
9.352951049804687
 10
-999.9999389648436
 20
-0.4800834655761719
 30
7.500823974609375
 10
-999.9999389648436
 20
0.0000400543212891
 30
79.49665832519531
 10
-999.9999389648436
 20
-0.3846588134765625
 30
79.13641357421875
 10
-999.9999389648436
 20
-0.7141494750976563
 30
78.52000427246093
 10
-999.9999389648436
 20
-20.99995803833008
 30
58.5
 10
-999.9999389648436
 20
-20.99995803833008
 30
54.5
 10
-999.9999389648436
 20
-5.999956130981445
 30
0.0
 10
1000.000061035156
 20
0.0000400543212891
 30
83.0
 10
1000.000061035156
 20
0.0000400543212891
 30
79.49665832519531
 10
1000.000061035156
 20
-0.3846588134765625
 30
79.13641357421875
 10
1000.000061035156
 20
-27.49995994567871
 30
83.0
 10
1000.000061035156
 20
-0.7141494750976563
 30
78.52000427246093
 10
1000.000061035156
 20
-0.799947738647461
 30
78.0
 10
1000.000061035156
 20
-27.49995994567871
 30
78.5
 10
1000.000061035156
 20
-0.7141494750976563
 30
77.47999572753906
 10
1000.000061035156
 20
-0.3846588134765625
 30
76.86357116699219
 10
1000.000061035156
 20
-16.94508171081543
 30
71.38626098632812
 10
1000.000061035156
 20
0.0000400543212891
 30
76.50334167480469
 10
1000.000061035156
 20
0.0000400543212891
 30
72.86875915527343
 10
1000.000061035156
 20
-17.8041820526123
 30
71.05482482910156
 10
1000.000061035156
 20
-29.42774391174316
 30
77.99272155761719
 10
1000.000061035156
 20
-17.0894660949707
 30
66.4984130859375
 10
1000.000061035156
 20
-15.47798442840576
 30
64.20751953125
 10
1000.000061035156
 20
-23.99995803833008
 30
58.49999237060547
 10
1000.000061035156
 20
-23.99995803833008
 30
62.49999237060547
 10
1000.000061035156
 20
-18.49908447265625
 30
68.47752380371094
 10
1000.000061035156
 20
-24.90658950805664
 30
62.54912185668946
 10
1000.000061035156
 20
-26.64863204956055
 30
62.82446670532227
 10
1000.000061035156
 20
-28.25914001464844
 30
63.34720993041992
 10
1000.000061035156
 20
-29.70837020874024
 30
64.10215759277344
 10
1000.000061035156
 20
-31.0189323425293
 30
65.09431457519531
 10
1000.000061035156
 20
-32.22743225097656
 30
75.83102416992187
 10
1000.000061035156
 20
-30.90131950378418
 30
77.11849975585938
 10
1000.000061035156
 20
-33.83916091918945
 30
72.61306762695312
 10
1000.000061035156
 20
-33.24184036254883
 30
74.26312255859375
 10
1000.000061035156
 20
-18.6595287322998
 30
69.90313720703125
 10
1000.000061035156
 20
-34.01272964477539
 30
70.96890258789063
 10
1000.000061035156
 20
-33.05408477783203
 30
67.62261962890625
 10
1000.000061035156
 20
-33.74924850463867
 30
69.28887939453125
 10
1000.000061035156
 20
-32.15165710449219
 30
66.28369140625
 10
1000.000061035156
 20
-13.78659248352051
 30
61.69232940673828
 10
1000.000061035156
 20
-20.99995803833008
 30
58.5
 10
1000.000061035156
 20
-13.093017578125
 30
59.46636581420898
 10
1000.000061035156
 20
-12.99995803833008
 30
58.29821395874024
 10
1000.000061035156
 20
-12.99995708465576
 30
54.69820404052734
 10
1000.000061035156
 20
-20.99995803833008
 30
54.5
 10
1000.000061035156
 20
-13.09592437744141
 30
53.5120849609375
 10
1000.000061035156
 20
-13.81068897247314
 30
51.25540161132812
 10
1000.000061035156
 20
-15.66003608703613
 30
48.71794891357422
 10
1000.000061035156
 20
-22.3594913482666
 30
54.40618515014648
 10
1000.000061035156
 20
-15.70703887939453
 30
38.32830429077148
 10
1000.000061035156
 20
-13.83490180969238
 30
36.25663375854492
 10
1000.000061035156
 20
-20.99995613098144
 30
28.5
 10
1000.000061035156
 20
-20.99995803833008
 30
32.5
 10
1000.000061035156
 20
-18.12646293640137
 30
39.94725799560547
 10
1000.000061035156
 20
-21.90839385986328
 30
32.53757476806641
 10
1000.000061035156
 20
-23.25549697875977
 30
32.74332809448242
 10
1000.000061035156
 20
-24.9952335357666
 30
33.26129913330078
 10
1000.000061035156
 20
-19.73466491699219
 30
41.44319152832031
 10
1000.000061035156
 20
-26.62595176696778
 30
34.05853271484375
 10
1000.000061035156
 20
-28.10319328308106
 30
35.11327362060547
 10
1000.000061035156
 20
-29.38668251037598
 30
36.39676666259766
 10
1000.000061035156
 20
-25.82708168029785
 30
53.37379837036133
 10
1000.000061035156
 20
-24.13608360290528
 30
54.03365325927734
 10
1000.000061035156
 20
-18.12231063842773
 30
47.05503082275391
 10
1000.000061035156
 20
-27.38638496398926
 30
52.44463729858399
 10
1000.000061035156
 20
-29.94460105895996
 30
49.88642501831055
 10
1000.000061035156
 20
-28.7714786529541
 30
51.27151870727539
 10
1000.000061035156
 20
-19.73466491699219
 30
45.55680847167969
 10
1000.000061035156
 20
-30.87376213073731
 30
48.3271255493164
 10
1000.000061035156
 20
-31.90614891052246
 30
44.85952758789062
 10
1000.000061035156
 20
-31.53361701965332
 30
46.63612365722656
 10
1000.000061035156
 20
-20.31184196472168
 30
43.5
 10
1000.000061035156
 20
-30.44142532348633
 30
37.87400817871094
 10
1000.000061035156
 20
-31.23865699768066
 30
39.50472259521485
 10
1000.000061035156
 20
-31.98116874694824
 30
43.04578399658203
 10
1000.000061035156
 20
-31.75662231445313
 30
41.24446105957031
 10
1000.000061035156
 20
-11.58611488342285
 30
34.79497528076172
 10
1000.000061035156
 20
-17.86938285827637
 30
28.4036865234375
 10
1000.000061035156
 20
0.0000381469726563
 30
17.90882873535156
 10
1000.000061035156
 20
0.0000438690185547
 30
10.72916412353515
 10
1000.000061035156
 20
-11.04830360412597
 30
20.6256217956543
 10
1000.000061035156
 20
-9.499957084655761
 30
21.0
 10
1000.000061035156
 20
-7.946975708007812
 30
32.50788116455078
 10
1000.000061035156
 20
-14.53978157043457
 30
27.34606552124024
 10
1000.000061035156
 20
-16.15799140930176
 30
28.02155303955078
 10
1000.000061035156
 20
-2.645559310913085
 30
25.49916076660156
 10
1000.000061035156
 20
-9.921470642089843
 30
22.24726104736328
 10
1000.000061035156
 20
-10.71931838989258
 30
23.80877304077149
 10
1000.000061035156
 20
-4.860848426818847
 30
29.33274841308594
 10
1000.000061035156
 20
-11.77789974212646
 30
25.20672225952149
 10
1000.000061035156
 20
-13.06460094451904
 30
26.39806365966797
 10
1000.000061035156
 20
0.0000438690185547
 30
7.270835876464843
 10
1000.000061035156
 20
0.0000438690185547
 30
0.0
 10
1000.000061035156
 20
-5.999956130981445
 30
0.0
 10
1000.000061035156
 20
-5.999956130981445
 30
5.5
 10
1000.000061035156
 20
-0.4800834655761719
 30
10.49917602539062
 10
1000.000061035156
 20
-13.88018417358398
 30
18.603271484375
 10
1000.000061035156
 20
-12.52837944030761
 30
19.8310317993164
 10
1000.000061035156
 20
-14.93686294555664
 30
17.05940246582031
 10
1000.000061035156
 20
-0.9832267761230468
 30
10.00404357910156
 10
1000.000061035156
 20
-15.57211303710937
 30
15.40901184082031
 10
1000.000061035156
 20
-15.7707462310791
 30
13.76588439941406
 10
1000.000061035156
 20
-1.255977630615234
 30
9.352951049804687
 10
1000.000061035156
 20
-15.52192878723144
 30
12.09259033203125
 10
1000.000061035156
 20
-14.85068607330322
 30
10.46875762939453
 10
1000.000061035156
 20
-1.255977630615234
 30
8.647048950195312
 10
1000.000061035156
 20
-13.96359062194824
 30
9.15594482421875
 10
1000.000061035156
 20
-12.82832431793213
 30
7.973594665527343
 10
1000.000061035156
 20
-0.9832277297973632
 30
7.995956420898437
 10
1000.000061035156
 20
-11.51124763488769
 30
6.994697570800781
 10
1000.000061035156
 20
-10.05224990844726
 30
6.260269165039062
 10
1000.000061035156
 20
-0.4800834655761719
 30
7.500823974609375
 10
1000.000061035156
 20
-8.427919387817382
 30
5.766082763671875
 10
1000.000061035156
 20
-6.721523284912109
 30
5.529754638671875
 10
-999.9999389648436
 20
-27.49995994567871
 30
83.0
 10
-999.9999389648436
 20
-26.64863204956055
 30
62.82446670532227
 10
-999.9999389648436
 20
-31.0189323425293
 30
65.09431457519531
 10
-999.9999389648436
 20
-32.15164947509766
 30
66.28369140625
 10
-999.9999389648436
 20
-33.0540771484375
 30
67.62261962890625
 10
-999.9999389648436
 20
-34.01271820068359
 30
70.96890258789063
 10
-999.9999389648436
 20
-32.22742462158203
 30
75.83102416992187
 10
-999.9999389648436
 20
-20.99995803833008
 30
32.5
 10
-999.9999389648436
 20
-23.25549697875977
 30
32.74332809448242
 10
-999.9999389648436
 20
-24.9952335357666
 30
33.26129913330078
 10
-999.9999389648436
 20
-26.62595176696778
 30
34.05853271484375
 10
-999.9999389648436
 20
-28.10319328308106
 30
35.11327362060547
 10
-999.9999389648436
 20
-29.38668251037598
 30
36.39676666259766
 10
-999.9999389648436
 20
-30.44142532348633
 30
37.87400817871094
 10
-999.9999389648436
 20
-31.75662231445313
 30
41.24446105957031
 10
-999.9999389648436
 20
-31.98116874694824
 30
43.04578399658203
 10
-999.9999389648436
 20
-29.94460105895996
 30
49.88642501831055
 10
-999.9999389648436
 20
-28.7714786529541
 30
51.27151870727539
 10
-999.9999389648436
 20
-27.38638496398926
 30
52.44463729858399
 10
-999.9999389648436
 20
-25.82708168029785
 30
53.37379837036133
 10
-999.9999389648436
 20
-24.13608360290528
 30
54.03365325927734
 10
-999.9999389648436
 20
-22.3594913482666
 30
54.40618515014648
 10
-999.9999389648436
 20
-14.53978157043457
 30
27.34606552124024
 10
-999.9999389648436
 20
-6.721523284912109
 30
5.529754638671875
 10
-999.9999389648436
 20
-11.51124763488769
 30
6.994697570800781
 10
-999.9999389648436
 20
-13.96359157562256
 30
9.15594482421875
 10
-999.9999389648436
 20
-15.57211303710937
 30
15.40901184082031
 10
-999.9999389648436
 20
-11.04830360412597
 30
20.6256217956543
 10
-999.9999389648436
 20
-2.645558357238769
 30
25.49916076660156
 10
-999.9999389648436
 20
-18.12646293640137
 30
39.94725799560547
 10
-999.9999389648436
 20
-15.70703887939453
 30
38.32830429077148
 10
-999.9999389648436
 20
-12.99995803833008
 30
54.69820404052734
 10
-999.9999389648436
 20
-12.99995899200439
 30
58.29821395874024
 10
-999.9999389648436
 20
-15.47798442840576
 30
64.20751953125
 10
-999.9999389648436
 20
-13.78659343719482
 30
61.69232940673828
 10
-999.9999389648436
 20
-13.09301948547363
 30
59.46636581420898
 10
-999.9999389648436
 20
-16.94508361816406
 30
71.38626098632812
 10
-999.9999389648436
 20
-13.83490371704101
 30
36.25663375854492
 10
-999.9999389648436
 20
-19.73466491699219
 30
45.55680847167969
 10
-999.9999389648436
 20
-17.08946990966797
 30
66.4984130859375
 10
-999.9999389648436
 20
0.0000438690185547
 30
10.72916412353515
 10
-999.9999389648436
 20
-0.983224868774414
 30
10.00404357910156
 10
-999.9999389648436
 20
-1.255975723266601
 30
8.647048950195312
 10
-999.9999389648436
 20
-0.9832258224487304
 30
7.995956420898437
 10
-999.9999389648436
 20
0.0000438690185547
 30
7.270835876464843
 10
-999.9999389648436
 20
-0.7999467849731446
 30
78.0
 10
-999.9999389648436
 20
-0.7141494750976563
 30
77.47999572753906
 10
-999.9999389648436
 20
-0.3846588134765625
 30
76.86357116699219
 10
-999.9999389648436
 20
0.0000400543212891
 30
76.50334167480469
 10
-999.9999389648436
 20
-23.99995803833008
 30
62.49999237060547
 10
-999.9999389648436
 20
-23.99995803833008
 30
58.49999237060547
 93
     1190
 90
        4
 90
       56
 90
       33
 90
      143
 90
      144
 90
        4
 90
       33
 90
      209
 90
      142
 90
      143
 90
        4
 90
      209
 90
       50
 90
      162
 90
      142
 90
        4
 90
       50
 90
      208
 90
      159
 90
      162
 90
        4
 90
      208
 90
      207
 90
      156
 90
      159
 90
        4
 90
      207
 90
       49
 90
      153
 90
      156
 90
        4
 90
       49
 90
      206
 90
      150
 90
      153
 90
        4
 90
      206
 90
       48
 90
      146
 90
      150
 90
        4
 90
       48
 90
      205
 90
      130
 90
      146
 90
        4
 90
       34
 90
      193
 90
      136
 90
      129
 90
        4
 90
      193
 90
       37
 90
      139
 90
      136
 90
        4
 90
       37
 90
       36
 90
      133
 90
      139
 90
        4
 90
       36
 90
       35
 90
      127
 90
      133
 90
        4
 90
       35
 90
      202
 90
      101
 90
      127
 90
        4
 90
      202
 90
      195
 90
      100
 90
      101
 90
        4
 90
      195
 90
      194
 90
      104
 90
      100
 90
        4
 90
      194
 90
       47
 90
      108
 90
      104
 90
        4
 90
       47
 90
       46
 90
      122
 90
      108
 90
        4
 90
       46
 90
      203
 90
      118
 90
      122
 90
        4
 90
      203
 90
       45
 90
      114
 90
      118
 90
        4
 90
       45
 90
       40
 90
       98
 90
      114
 90
        4
 90
       40
 90
       39
 90
       97
 90
       98
 90
        4
 90
       39
 90
       38
 90
       96
 90
       97
 90
        4
 90
       38
 90
      196
 90
       94
 90
       96
 90
        4
 90
      196
 90
      197
 90
       93
 90
       94
 90
        4
 90
      197
 90
      200
 90
       92
 90
       93
 90
        4
 90
      200
 90
      199
 90
       90
 90
       92
 90
        4
 90
      199
 90
      198
 90
       72
 90
       90
 90
        4
 90
      198
 90
      204
 90
       71
 90
       72
 90
        4
 90
      204
 90
       41
 90
       75
 90
       71
 90
        4
 90
       41
 90
       44
 90
       85
 90
       75
 90
        4
 90
       44
 90
       43
 90
       69
 90
       85
 90
        4
 90
       43
 90
      201
 90
       66
 90
       69
 90
        4
 90
       42
 90
      213
 90
       67
 90
       68
 90
        4
 90
      213
 90
      212
 90
       65
 90
       67
 90
        4
 90
      212
 90
      211
 90
       64
 90
       65
 90
        4
 90
      211
 90
      210
 90
       62
 90
       64
 90
        4
 90
      210
 90
       53
 90
       61
 90
       62
 90
        4
 90
       53
 90
       52
 90
       59
 90
       61
 90
        4
 90
       52
 90
       51
 90
       58
 90
       59
 90
        4
 90
       51
 90
        0
 90
       57
 90
       58
 90
        4
 90
        0
 90
      165
 90
       60
 90
       57
 90
        4
 90
        1
 90
        9
 90
       70
 90
       63
 90
        4
 90
        9
 90
        8
 90
       82
 90
       70
 90
        4
 90
        8
 90
      171
 90
       81
 90
       82
 90
        4
 90
      171
 90
        7
 90
       84
 90
       81
 90
        4
 90
        7
 90
        6
 90
       83
 90
       84
 90
        4
 90
        6
 90
      170
 90
       86
 90
       83
 90
        4
 90
      170
 90
        5
 90
       88
 90
       86
 90
        4
 90
        5
 90
      169
 90
       87
 90
       88
 90
        4
 90
      169
 90
      168
 90
       89
 90
       87
 90
        4
 90
      168
 90
      167
 90
       80
 90
       89
 90
        4
 90
      167
 90
        4
 90
       79
 90
       80
 90
        4
 90
        4
 90
        3
 90
       78
 90
       79
 90
        4
 90
        3
 90
      166
 90
       77
 90
       78
 90
        4
 90
      166
 90
        2
 90
       76
 90
       77
 90
        4
 90
        2
 90
      214
 90
       74
 90
       76
 90
        4
 90
      215
 90
       54
 90
       91
 90
       73
 90
        4
 90
       55
 90
      186
 90
       99
 90
       95
 90
        4
 90
      186
 90
      185
 90
      113
 90
       99
 90
        4
 90
      185
 90
      184
 90
      112
 90
      113
 90
        4
 90
      184
 90
      183
 90
      115
 90
      112
 90
        4
 90
      183
 90
      182
 90
      117
 90
      115
 90
        4
 90
      182
 90
      181
 90
      116
 90
      117
 90
        4
 90
      181
 90
       14
 90
      119
 90
      116
 90
        4
 90
       14
 90
       13
 90
      121
 90
      119
 90
        4
 90
       13
 90
       12
 90
      120
 90
      121
 90
        4
 90
       12
 90
      180
 90
      125
 90
      120
 90
        4
 90
      180
 90
      179
 90
      126
 90
      125
 90
        4
 90
      179
 90
       11
 90
      124
 90
      126
 90
        4
 90
       11
 90
      178
 90
      123
 90
      124
 90
        4
 90
      178
 90
      177
 90
      111
 90
      123
 90
        4
 90
      177
 90
      176
 90
      110
 90
      111
 90
        4
 90
      176
 90
      175
 90
      109
 90
      110
 90
        4
 90
      175
 90
      174
 90
      107
 90
      109
 90
        4
 90
      174
 90
      173
 90
      106
 90
      107
 90
        4
 90
      173
 90
       10
 90
      105
 90
      106
 90
        4
 90
       10
 90
      172
 90
      103
 90
      105
 90
        4
 90
       15
 90
       22
 90
      128
 90
      102
 90
        4
 90
       22
 90
       21
 90
      135
 90
      128
 90
        4
 90
       21
 90
      187
 90
      134
 90
      135
 90
        4
 90
      187
 90
       20
 90
      141
 90
      134
 90
        4
 90
       20
 90
       19
 90
      140
 90
      141
 90
        4
 90
       19
 90
       18
 90
      138
 90
      140
 90
        4
 90
       18
 90
       17
 90
      137
 90
      138
 90
        4
 90
       16
 90
      192
 90
      131
 90
      132
 90
        4
 90
      192
 90
       32
 90
      148
 90
      131
 90
        4
 90
       32
 90
       31
 90
      147
 90
      148
 90
        4
 90
       31
 90
       30
 90
      149
 90
      147
 90
        4
 90
       30
 90
      191
 90
      151
 90
      149
 90
        4
 90
      191
 90
       29
 90
      152
 90
      151
 90
        4
 90
       29
 90
       28
 90
      154
 90
      152
 90
        4
 90
       28
 90
       27
 90
      155
 90
      154
 90
        4
 90
       27
 90
      190
 90
      157
 90
      155
 90
        4
 90
      190
 90
       26
 90
      158
 90
      157
 90
        4
 90
       26
 90
      189
 90
      160
 90
      158
 90
        4
 90
      189
 90
       25
 90
      161
 90
      160
 90
        4
 90
       25
 90
       24
 90
      163
 90
      161
 90
        4
 90
       24
 90
      188
 90
      164
 90
      163
 90
        4
 90
      188
 90
       23
 90
      145
 90
      164
 90
        4
 90
      205
 90
       34
 90
      129
 90
      130
 90
        4
 90
      201
 90
       42
 90
       68
 90
       66
 90
        4
 90
      165
 90
        1
 90
       63
 90
       60
 90
        4
 90
      214
 90
      215
 90
       73
 90
       74
 90
        4
 90
       54
 90
       55
 90
       95
 90
       91
 90
        4
 90
      172
 90
       15
 90
      102
 90
      103
 90
        4
 90
       17
 90
       16
 90
      132
 90
      137
 90
        4
 90
       23
 90
       56
 90
      144
 90
      145
 90
        4
 90
       57
 90
       60
 90
       59
 90
       58
 90
        3
 90
       59
 90
       60
 90
       61
 90
        4
 90
       61
 90
       60
 90
       63
 90
       62
 90
        3
 90
       64
 90
       66
 90
       65
 90
        4
 90
       65
 90
       66
 90
       68
 90
       67
 90
        4
 90
       62
 90
       63
 90
       66
 90
       64
 90
        4
 90
       66
 90
       63
 90
       70
 90
       69
 90
        4
 90
       71
 90
       74
 90
       73
 90
       72
 90
        4
 90
       75
 90
       76
 90
       74
 90
       71
 90
        3
 90
       75
 90
       77
 90
       76
 90
        3
 90
       75
 90
       78
 90
       77
 90
        3
 90
       75
 90
       79
 90
       78
 90
        3
 90
       75
 90
       80
 90
       79
 90
        3
 90
       69
 90
       82
 90
       81
 90
        3
 90
       69
 90
       70
 90
       82
 90
        3
 90
       69
 90
       84
 90
       83
 90
        3
 90
       69
 90
       81
 90
       84
 90
        4
 90
       69
 90
       83
 90
       86
 90
       85
 90
        3
 90
       85
 90
       88
 90
       87
 90
        3
 90
       85
 90
       86
 90
       88
 90
        4
 90
       85
 90
       89
 90
       80
 90
       75
 90
        3
 90
       85
 90
       87
 90
       89
 90
        4
 90
       72
 90
       73
 90
       91
 90
       90
 90
        3
 90
       90
 90
       91
 90
       92
 90
        3
 90
       92
 90
       91
 90
       93
 90
        4
 90
       93
 90
       91
 90
       95
 90
       94
 90
        3
 90
       96
 90
       95
 90
       97
 90
        3
 90
       94
 90
       95
 90
       96
 90
        4
 90
       97
 90
       95
 90
       99
 90
       98
 90
        4
 90
      100
 90
      103
 90
      102
 90
      101
 90
        4
 90
      104
 90
      105
 90
      103
 90
      100
 90
        3
 90
      104
 90
      106
 90
      105
 90
        3
 90
      104
 90
      107
 90
      106
 90
        4
 90
      108
 90
      109
 90
      107
 90
      104
 90
        3
 90
      108
 90
      110
 90
      109
 90
        3
 90
      108
 90
      111
 90
      110
 90
        3
 90
       98
 90
      113
 90
      112
 90
        3
 90
       98
 90
       99
 90
      113
 90
        4
 90
       98
 90
      112
 90
      115
 90
      114
 90
        3
 90
      114
 90
      117
 90
      116
 90
        3
 90
      114
 90
      115
 90
      117
 90
        4
 90
      114
 90
      116
 90
      119
 90
      118
 90
        3
 90
      118
 90
      121
 90
      120
 90
        3
 90
      118
 90
      119
 90
      121
 90
        4
 90
      122
 90
      123
 90
      111
 90
      108
 90
        3
 90
      122
 90
      124
 90
      123
 90
        4
 90
      118
 90
      120
 90
      125
 90
      122
 90
        3
 90
      122
 90
      126
 90
      124
 90
        3
 90
      122
 90
      125
 90
      126
 90
        4
 90
      101
 90
      102
 90
      128
 90
      127
 90
        4
 90
      129
 90
      132
 90
      131
 90
      130
 90
        4
 90
      127
 90
      135
 90
      134
 90
      133
 90
        3
 90
      127
 90
      128
 90
      135
 90
        4
 90
      136
 90
      137
 90
      132
 90
      129
 90
        3
 90
      136
 90
      138
 90
      137
 90
        4
 90
      139
 90
      140
 90
      138
 90
      136
 90
        4
 90
      133
 90
      141
 90
      140
 90
      139
 90
        3
 90
      133
 90
      134
 90
      141
 90
        4
 90
      142
 90
      145
 90
      144
 90
      143
 90
        4
 90
      130
 90
      148
 90
      147
 90
      146
 90
        3
 90
      130
 90
      131
 90
      148
 90
        3
 90
      146
 90
      147
 90
      149
 90
        4
 90
      146
 90
      149
 90
      151
 90
      150
 90
        3
 90
      150
 90
      151
 90
      152
 90
        4
 90
      150
 90
      152
 90
      154
 90
      153
 90
        3
 90
      153
 90
      154
 90
      155
 90
        4
 90
      153
 90
      155
 90
      157
 90
      156
 90
        3
 90
      156
 90
      157
 90
      158
 90
        4
 90
      156
 90
      158
 90
      160
 90
      159
 90
        3
 90
      159
 90
      160
 90
      161
 90
        4
 90
      159
 90
      161
 90
      163
 90
      162
 90
        3
 90
      162
 90
      163
 90
      164
 90
        4
 90
      162
 90
      164
 90
      145
 90
      142
 90
        4
 90
        0
 90
       51
 90
       52
 90
      165
 90
        3
 90
       52
 90
       53
 90
      165
 90
        4
 90
       53
 90
      210
 90
        1
 90
      165
 90
        3
 90
      211
 90
      212
 90
      201
 90
        4
 90
      212
 90
      213
 90
       42
 90
      201
 90
        4
 90
      210
 90
      211
 90
      201
 90
        1
 90
        4
 90
      201
 90
       43
 90
        9
 90
        1
 90
        4
 90
      204
 90
      198
 90
      215
 90
      214
 90
        4
 90
       41
 90
      204
 90
      214
 90
        2
 90
        3
 90
       41
 90
        2
 90
      166
 90
        3
 90
       41
 90
      166
 90
        3
 90
        3
 90
       41
 90
        3
 90
        4
 90
        3
 90
       41
 90
        4
 90
      167
 90
        3
 90
       43
 90
      171
 90
        8
 90
        3
 90
       43
 90
        8
 90
        9
 90
        3
 90
       43
 90
        6
 90
        7
 90
        3
 90
       43
 90
        7
 90
      171
 90
        4
 90
       43
 90
       44
 90
      170
 90
        6
 90
        3
 90
       44
 90
      169
 90
        5
 90
        3
 90
       44
 90
        5
 90
      170
 90
        4
 90
       44
 90
       41
 90
      167
 90
      168
 90
        3
 90
       44
 90
      168
 90
      169
 90
        4
 90
      198
 90
      199
 90
       54
 90
      215
 90
        3
 90
      199
 90
      200
 90
       54
 90
        3
 90
      200
 90
      197
 90
       54
 90
        4
 90
      197
 90
      196
 90
       55
 90
       54
 90
        3
 90
       38
 90
       39
 90
       55
 90
        3
 90
      196
 90
       38
 90
       55
 90
        4
 90
       39
 90
       40
 90
      186
 90
       55
 90
        4
 90
      195
 90
      202
 90
       15
 90
      172
 90
        4
 90
      194
 90
      195
 90
      172
 90
       10
 90
        3
 90
      194
 90
       10
 90
      173
 90
        3
 90
      194
 90
      173
 90
      174
 90
        4
 90
       47
 90
      194
 90
      174
 90
      175
 90
        3
 90
       47
 90
      175
 90
      176
 90
        3
 90
       47
 90
      176
 90
      177
 90
        3
 90
       40
 90
      184
 90
      185
 90
        3
 90
       40
 90
      185
 90
      186
 90
        4
 90
       40
 90
       45
 90
      183
 90
      184
 90
        3
 90
       45
 90
      181
 90
      182
 90
        3
 90
       45
 90
      182
 90
      183
 90
        4
 90
       45
 90
      203
 90
       14
 90
      181
 90
        3
 90
      203
 90
       12
 90
       13
 90
        3
 90
      203
 90
       13
 90
       14
 90
        4
 90
       46
 90
       47
 90
      177
 90
      178
 90
        3
 90
       46
 90
      178
 90
       11
 90
        4
 90
      203
 90
       46
 90
      180
 90
       12
 90
        3
 90
       46
 90
       11
 90
      179
 90
        3
 90
       46
 90
      179
 90
      180
 90
        4
 90
      202
 90
       35
 90
       22
 90
       15
 90
        4
 90
       34
 90
      205
 90
      192
 90
       16
 90
        4
 90
       35
 90
       36
 90
      187
 90
       21
 90
        3
 90
       35
 90
       21
 90
       22
 90
        4
 90
      193
 90
       34
 90
       16
 90
       17
 90
        3
 90
      193
 90
       17
 90
       18
 90
        4
 90
       37
 90
      193
 90
       18
 90
       19
 90
        4
 90
       36
 90
       37
 90
       19
 90
       20
 90
        3
 90
       36
 90
       20
 90
      187
 90
        4
 90
      209
 90
       33
 90
       56
 90
       23
 90
        4
 90
      205
 90
       48
 90
       31
 90
       32
 90
        3
 90
      205
 90
       32
 90
      192
 90
        3
 90
       48
 90
       30
 90
       31
 90
        4
 90
       48
 90
      206
 90
      191
 90
       30
 90
        3
 90
      206
 90
       29
 90
      191
 90
        4
 90
      206
 90
       49
 90
       28
 90
       29
 90
        3
 90
       49
 90
       27
 90
       28
 90
        4
 90
       49
 90
      207
 90
      190
 90
       27
 90
        3
 90
      207
 90
       26
 90
      190
 90
        4
 90
      207
 90
      208
 90
      189
 90
       26
 90
        3
 90
      208
 90
       25
 90
      189
 90
        4
 90
      208
 90
       50
 90
       24
 90
       25
 90
        3
 90
       50
 90
      188
 90
       24
 90
        4
 90
       50
 90
      209
 90
       23
 90
      188
 94
      468
 90
       33
 90
       56
 90
       33
 90
      143
 90
      143
 90
      144
 90
       56
 90
      144
 90
       33
 90
      209
 90
      142
 90
      209
 90
      142
 90
      143
 90
       50
 90
      209
 90
       50
 90
      162
 90
      142
 90
      162
 90
       50
 90
      208
 90
      159
 90
      208
 90
      159
 90
      162
 90
      207
 90
      208
 90
      156
 90
      207
 90
      156
 90
      159
 90
       49
 90
      207
 90
       49
 90
      153
 90
      153
 90
      156
 90
       49
 90
      206
 90
      150
 90
      206
 90
      150
 90
      153
 90
       48
 90
      206
 90
       48
 90
      146
 90
      146
 90
      150
 90
       48
 90
      205
 90
      130
 90
      205
 90
      130
 90
      146
 90
       34
 90
      193
 90
      136
 90
      193
 90
      129
 90
      136
 90
       34
 90
      129
 90
       37
 90
      193
 90
       37
 90
      139
 90
      136
 90
      139
 90
       36
 90
       37
 90
       36
 90
      133
 90
      133
 90
      139
 90
       35
 90
       36
 90
       35
 90
      127
 90
      127
 90
      133
 90
       35
 90
      202
 90
      101
 90
      202
 90
      101
 90
      127
 90
      195
 90
      202
 90
      100
 90
      195
 90
      100
 90
      101
 90
      194
 90
      195
 90
      104
 90
      194
 90
      100
 90
      104
 90
       47
 90
      194
 90
       47
 90
      108
 90
      104
 90
      108
 90
       46
 90
       47
 90
       46
 90
      122
 90
      108
 90
      122
 90
       46
 90
      203
 90
      118
 90
      203
 90
      118
 90
      122
 90
       45
 90
      203
 90
       45
 90
      114
 90
      114
 90
      118
 90
       40
 90
       45
 90
       40
 90
       98
 90
       98
 90
      114
 90
       39
 90
       40
 90
       39
 90
       97
 90
       97
 90
       98
 90
       38
 90
       39
 90
       38
 90
       96
 90
       96
 90
       97
 90
       38
 90
      196
 90
       94
 90
      196
 90
       94
 90
       96
 90
      196
 90
      197
 90
       93
 90
      197
 90
       93
 90
       94
 90
      197
 90
      200
 90
       92
 90
      200
 90
       92
 90
       93
 90
      199
 90
      200
 90
       90
 90
      199
 90
       90
 90
       92
 90
      198
 90
      199
 90
       72
 90
      198
 90
       72
 90
       90
 90
      198
 90
      204
 90
       71
 90
      204
 90
       71
 90
       72
 90
       41
 90
      204
 90
       41
 90
       75
 90
       71
 90
       75
 90
       41
 90
       44
 90
       44
 90
       85
 90
       75
 90
       85
 90
       43
 90
       44
 90
       43
 90
       69
 90
       69
 90
       85
 90
       43
 90
      201
 90
       66
 90
      201
 90
       66
 90
       69
 90
       42
 90
      213
 90
       67
 90
      213
 90
       67
 90
       68
 90
       42
 90
       68
 90
      212
 90
      213
 90
       65
 90
      212
 90
       65
 90
       67
 90
      211
 90
      212
 90
       64
 90
      211
 90
       64
 90
       65
 90
      210
 90
      211
 90
       62
 90
      210
 90
       62
 90
       64
 90
       53
 90
      210
 90
       53
 90
       61
 90
       61
 90
       62
 90
       52
 90
       53
 90
       52
 90
       59
 90
       59
 90
       61
 90
       51
 90
       52
 90
       51
 90
       58
 90
       58
 90
       59
 90
        0
 90
       51
 90
        0
 90
       57
 90
       57
 90
       58
 90
        0
 90
      165
 90
       60
 90
      165
 90
       57
 90
       60
 90
        1
 90
        9
 90
        9
 90
       70
 90
       63
 90
       70
 90
        1
 90
       63
 90
        8
 90
        9
 90
        8
 90
       82
 90
       70
 90
       82
 90
        8
 90
      171
 90
       81
 90
      171
 90
       81
 90
       82
 90
        7
 90
      171
 90
        7
 90
       84
 90
       81
 90
       84
 90
        6
 90
        7
 90
        6
 90
       83
 90
       83
 90
       84
 90
        6
 90
      170
 90
       86
 90
      170
 90
       83
 90
       86
 90
        5
 90
      170
 90
        5
 90
       88
 90
       86
 90
       88
 90
        5
 90
      169
 90
       87
 90
      169
 90
       87
 90
       88
 90
      168
 90
      169
 90
       89
 90
      168
 90
       87
 90
       89
 90
      167
 90
      168
 90
       80
 90
      167
 90
       80
 90
       89
 90
        4
 90
      167
 90
        4
 90
       79
 90
       79
 90
       80
 90
        3
 90
        4
 90
        3
 90
       78
 90
       78
 90
       79
 90
        3
 90
      166
 90
       77
 90
      166
 90
       77
 90
       78
 90
        2
 90
      166
 90
        2
 90
       76
 90
       76
 90
       77
 90
        2
 90
      214
 90
       74
 90
      214
 90
       74
 90
       76
 90
       54
 90
      215
 90
       54
 90
       91
 90
       73
 90
       91
 90
       73
 90
      215
 90
       55
 90
      186
 90
       99
 90
      186
 90
       95
 90
       99
 90
       55
 90
       95
 90
      185
 90
      186
 90
      113
 90
      185
 90
       99
 90
      113
 90
      184
 90
      185
 90
      112
 90
      184
 90
      112
 90
      113
 90
      183
 90
      184
 90
      115
 90
      183
 90
      112
 90
      115
 90
      182
 90
      183
 90
      117
 90
      182
 90
      115
 90
      117
 90
      181
 90
      182
 90
      116
 90
      181
 90
      116
 90
      117
 90
       14
 90
      181
 90
       14
 90
      119
 90
      116
 90
      119
 90
       13
 90
       14
 90
       13
 90
      121
 90
      119
 90
      121
 90
       12
 90
       13
 90
       12
 90
      120
 90
      120
 90
      121
 90
       12
 90
      180
 90
      125
 90
      180
 90
      120
 90
      125
 90
      179
 90
      180
 90
      126
 90
      179
 90
      125
 90
      126
 90
       11
 90
      179
 90
       11
 90
      124
 90
      124
 90
      126
 90
       11
 90
      178
 90
      123
 90
      178
 90
      123
 90
      124
 90
      177
 90
      178
 90
      111
 90
      177
 90
      111
 90
      123
 90
      176
 90
      177
 90
      110
 90
      176
 90
      110
 90
      111
 90
      175
 90
      176
 90
      109
 90
      175
 90
      109
 90
      110
 90
      174
 90
      175
 90
      107
 90
      174
 90
      107
 90
      109
 90
      173
 90
      174
 90
      106
 90
      173
 90
      106
 90
      107
 90
       10
 90
      173
 90
       10
 90
      105
 90
      105
 90
      106
 90
       10
 90
      172
 90
      103
 90
      172
 90
      103
 90
      105
 90
       15
 90
       22
 90
       22
 90
      128
 90
      102
 90
      128
 90
       15
 90
      102
 90
       21
 90
       22
 90
       21
 90
      135
 90
      128
 90
      135
 90
       21
 90
      187
 90
      134
 90
      187
 90
      134
 90
      135
 90
       20
 90
      187
 90
       20
 90
      141
 90
      134
 90
      141
 90
       19
 90
       20
 90
       19
 90
      140
 90
      140
 90
      141
 90
       18
 90
       19
 90
       18
 90
      138
 90
      138
 90
      140
 90
       17
 90
       18
 90
       17
 90
      137
 90
      137
 90
      138
 90
       16
 90
      192
 90
      131
 90
      192
 90
      131
 90
      132
 90
       16
 90
      132
 90
       32
 90
      192
 90
       32
 90
      148
 90
      131
 90
      148
 90
       31
 90
       32
 90
       31
 90
      147
 90
      147
 90
      148
 90
       30
 90
       31
 90
       30
 90
      149
 90
      147
 90
      149
 90
       30
 90
      191
 90
      151
 90
      191
 90
      149
 90
      151
 90
       29
 90
      191
 90
       29
 90
      152
 90
      151
 90
      152
 90
       28
 90
       29
 90
       28
 90
      154
 90
      152
 90
      154
 90
       27
 90
       28
 90
       27
 90
      155
 90
      154
 90
      155
 90
       27
 90
      190
 90
      157
 90
      190
 90
      155
 90
      157
 90
       26
 90
      190
 90
       26
 90
      158
 90
      157
 90
      158
 90
       26
 90
      189
 90
      160
 90
      189
 90
      158
 90
      160
 90
       25
 90
      189
 90
       25
 90
      161
 90
      160
 90
      161
 90
       24
 90
       25
 90
       24
 90
      163
 90
      161
 90
      163
 90
       24
 90
      188
 90
      164
 90
      188
 90
      163
 90
      164
 90
       23
 90
      188
 90
       23
 90
      145
 90
      145
 90
      164
 90
       34
 90
      205
 90
      129
 90
      130
 90
       42
 90
      201
 90
       66
 90
       68
 90
        1
 90
      165
 90
       60
 90
       63
 90
      214
 90
      215
 90
       73
 90
       74
 90
       54
 90
       55
 90
       91
 90
       95
 90
       15
 90
      172
 90
      102
 90
      103
 90
       16
 90
       17
 90
      132
 90
      137
 90
       23
 90
       56
 90
      144
 90
      145
 90
       59
 90
       60
 90
       60
 90
       61
 90
       62
 90
       63
 90
       64
 90
       66
 90
       65
 90
       66
 90
       63
 90
       66
 90
       69
 90
       70
 90
       71
 90
       74
 90
       72
 90
       73
 90
       75
 90
       76
 90
       75
 90
       77
 90
       75
 90
       78
 90
       75
 90
       79
 90
       75
 90
       80
 90
       69
 90
       82
 90
       69
 90
       81
 90
       69
 90
       84
 90
       69
 90
       83
 90
       85
 90
       86
 90
       85
 90
       88
 90
       85
 90
       87
 90
       85
 90
       89
 90
       90
 90
       91
 90
       91
 90
       92
 90
       91
 90
       93
 90
       94
 90
       95
 90
       95
 90
       96
 90
       95
 90
       97
 90
       98
 90
       99
 90
      100
 90
      103
 90
      101
 90
      102
 90
      104
 90
      105
 90
      104
 90
      106
 90
      104
 90
      107
 90
      108
 90
      109
 90
      108
 90
      110
 90
      108
 90
      111
 90
       98
 90
      113
 90
       98
 90
      112
 90
      114
 90
      115
 90
      114
 90
      117
 90
      114
 90
      116
 90
      118
 90
      119
 90
      118
 90
      121
 90
      118
 90
      120
 90
      122
 90
      123
 90
      122
 90
      124
 90
      122
 90
      125
 90
      122
 90
      126
 90
      127
 90
      128
 90
      129
 90
      132
 90
      130
 90
      131
 90
      127
 90
      135
 90
      133
 90
      134
 90
      136
 90
      137
 90
      136
 90
      138
 90
      139
 90
      140
 90
      133
 90
      141
 90
      142
 90
      145
 90
      130
 90
      148
 90
      146
 90
      147
 90
      146
 90
      149
 90
      150
 90
      151
 90
      150
 90
      152
 90
      153
 90
      154
 90
      153
 90
      155
 90
      156
 90
      157
 90
      156
 90
      158
 90
      159
 90
      160
 90
      159
 90
      161
 90
      162
 90
      163
 90
      162
 90
      164
 90
       52
 90
      165
 90
       53
 90
      165
 90
        1
 90
      210
 90
      201
 90
      212
 90
      201
 90
      211
 90
        1
 90
      201
 90
        9
 90
       43
 90
      198
 90
      215
 90
      204
 90
      214
 90
        2
 90
       41
 90
       41
 90
      166
 90
        3
 90
       41
 90
        4
 90
       41
 90
       41
 90
      167
 90
       43
 90
      171
 90
        8
 90
       43
 90
        6
 90
       43
 90
        7
 90
       43
 90
       44
 90
      170
 90
       44
 90
      169
 90
        5
 90
       44
 90
       44
 90
      168
 90
       54
 90
      199
 90
       54
 90
      200
 90
       54
 90
      197
 90
       55
 90
      196
 90
       39
 90
       55
 90
       38
 90
       55
 90
       40
 90
      186
 90
       15
 90
      202
 90
      172
 90
      195
 90
       10
 90
      194
 90
      173
 90
      194
 90
      174
 90
      194
 90
       47
 90
      175
 90
       47
 90
      176
 90
       47
 90
      177
 90
       40
 90
      184
 90
       40
 90
      185
 90
       45
 90
      183
 90
       45
 90
      181
 90
       45
 90
      182
 90
       14
 90
      203
 90
       12
 90
      203
 90
       13
 90
      203
 90
       46
 90
      178
 90
       11
 90
       46
 90
       46
 90
      180
 90
       46
 90
      179
 90
       22
 90
       35
 90
      192
 90
      205
 90
       16
 90
       34
 90
       36
 90
      187
 90
       21
 90
       35
 90
       17
 90
      193
 90
       18
 90
      193
 90
       19
 90
       37
 90
       20
 90
       36
 90
       23
 90
      209
 90
       31
 90
       48
 90
       32
 90
      205
 90
       30
 90
       48
 90
      191
 90
      206
 90
       29
 90
      206
 90
       28
 90
       49
 90
       27
 90
       49
 90
      190
 90
      207
 90
       26
 90
      207
 90
      189
 90
      208
 90
       25
 90
      208
 90
       24
 90
       50
 90
       50
 90
      188
 95
      468
140
0.0
140
0.0
140
0.0
140
0.0
140
0.0
140
0.0
140
0.0
140
0.0
140
0.0
140
0.0
140
0.0
140
0.0
140
0.0
140
0.0
140
0.0
140
0.0
140
0.0
140
0.0
140
0.0
140
0.0
140
0.0
140
0.0
140
0.0
140
0.0
140
0.0
140
0.0
140
0.0
140
0.0
140
0.0
140
0.0
140
0.0
140
0.0
140
0.0
140
0.0
140
0.0
140
0.0
140
0.0
140
0.0
140
0.0
140
0.0
140
0.0
140
0.0
140
0.0
140
0.0
140
0.0
140
0.0
140
0.0
140
0.0
140
0.0
140
0.0
140
0.0
140
0.0
140
0.0
140
0.0
140
0.0
140
0.0
140
0.0
140
0.0
140
0.0
140
0.0
140
0.0
140
0.0
140
0.0
140
0.0
140
0.0
140
0.0
140
0.0
140
0.0
140
0.0
140
0.0
140
0.0
140
0.0
140
0.0
140
0.0
140
0.0
140
0.0
140
0.0
140
0.0
140
0.0
140
0.0
140
0.0
140
0.0
140
0.0
140
0.0
140
0.0
140
0.0
140
0.0
140
0.0
140
0.0
140
0.0
140
0.0
140
0.0
140
0.0
140
0.0
140
0.0
140
0.0
140
0.0
140
0.0
140
0.0
140
0.0
140
0.0
140
0.0
140
0.0
140
0.0
140
0.0
140
0.0
140
0.0
140
0.0
140
0.0
140
0.0
140
0.0
140
0.0
140
0.0
140
0.0
140
0.0
140
0.0
140
0.0
140
0.0
140
0.0
140
0.0
140
0.0
140
0.0
140
0.0
140
0.0
140
0.0
140
0.0
140
0.0
140
0.0
140
0.0
140
0.0
140
0.0
140
0.0
140
0.0
140
0.0
140
0.0
140
0.0
140
0.0
140
0.0
140
0.0
140
0.0
140
0.0
140
0.0
140
0.0
140
0.0
140
0.0
140
0.0
140
0.0
140
0.0
140
0.0
140
0.0
140
0.0
140
0.0
140
0.0
140
0.0
140
0.0
140
0.0
140
0.0
140
0.0
140
0.0
140
0.0
140
0.0
140
0.0
140
0.0
140
0.0
140
0.0
140
0.0
140
0.0
140
0.0
140
0.0
140
0.0
140
0.0
140
0.0
140
0.0
140
0.0
140
0.0
140
0.0
140
0.0
140
0.0
140
0.0
140
0.0
140
0.0
140
0.0
140
0.0
140
0.0
140
0.0
140
0.0
140
0.0
140
0.0
140
0.0
140
0.0
140
0.0
140
0.0
140
0.0
140
0.0
140
0.0
140
0.0
140
0.0
140
0.0
140
0.0
140
0.0
140
0.0
140
0.0
140
0.0
140
0.0
140
0.0
140
0.0
140
0.0
140
0.0
140
0.0
140
0.0
140
0.0
140
0.0
140
0.0
140
0.0
140
0.0
140
0.0
140
0.0
140
0.0
140
0.0
140
0.0
140
0.0
140
0.0
140
0.0
140
0.0
140
0.0
140
0.0
140
0.0
140
0.0
140
0.0
140
0.0
140
0.0
140
0.0
140
0.0
140
0.0
140
0.0
140
0.0
140
0.0
140
0.0
140
0.0
140
0.0
140
0.0
140
0.0
140
0.0
140
0.0
140
0.0
140
0.0
140
0.0
140
0.0
140
0.0
140
0.0
140
0.0
140
0.0
140
0.0
140
0.0
140
0.0
140
0.0
140
0.0
140
0.0
140
0.0
140
0.0
140
0.0
140
0.0
140
0.0
140
0.0
140
0.0
140
0.0
140
0.0
140
0.0
140
0.0
140
0.0
140
0.0
140
0.0
140
0.0
140
0.0
140
0.0
140
0.0
140
0.0
140
0.0
140
0.0
140
0.0
140
0.0
140
0.0
140
0.0
140
0.0
140
0.0
140
0.0
140
0.0
140
0.0
140
0.0
140
0.0
140
0.0
140
0.0
140
0.0
140
0.0
140
0.0
140
0.0
140
0.0
140
0.0
140
0.0
140
0.0
140
0.0
140
0.0
140
0.0
140
0.0
140
0.0
140
0.0
140
0.0
140
0.0
140
0.0
140
0.0
140
0.0
140
0.0
140
0.0
140
0.0
140
0.0
140
0.0
140
0.0
140
0.0
140
0.0
140
0.0
140
0.0
140
0.0
140
0.0
140
0.0
140
0.0
140
0.0
140
0.0
140
0.0
140
0.0
140
0.0
140
0.0
140
0.0
140
0.0
140
0.0
140
0.0
140
0.0
140
0.0
140
0.0
140
0.0
140
0.0
140
0.0
140
0.0
140
0.0
140
0.0
140
0.0
140
0.0
140
0.0
140
0.0
140
0.0
140
0.0
140
0.0
140
0.0
140
0.0
140
0.0
140
0.0
140
0.0
140
0.0
140
0.0
140
0.0
140
0.0
140
0.0
140
0.0
140
0.0
140
0.0
140
0.0
140
0.0
140
0.0
140
0.0
140
0.0
140
0.0
140
0.0
140
0.0
140
0.0
140
0.0
140
0.0
140
0.0
140
0.0
140
0.0
140
0.0
140
0.0
140
0.0
140
0.0
140
0.0
140
0.0
140
0.0
140
0.0
140
0.0
140
0.0
140
0.0
140
0.0
140
0.0
140
0.0
140
0.0
140
0.0
140
0.0
140
0.0
140
0.0
140
0.0
140
0.0
140
0.0
140
0.0
140
0.0
140
0.0
140
0.0
140
0.0
140
0.0
140
0.0
140
0.0
140
0.0
140
0.0
140
0.0
140
0.0
140
0.0
140
0.0
140
0.0
140
0.0
140
0.0
140
0.0
140
0.0
140
0.0
140
0.0
140
0.0
140
0.0
140
0.0
140
0.0
140
0.0
140
0.0
140
0.0
140
0.0
140
0.0
140
0.0
140
0.0
140
0.0
140
0.0
140
0.0
140
0.0
140
0.0
140
0.0
140
0.0
140
0.0
140
0.0
140
0.0
140
0.0
140
0.0
140
0.0
140
0.0
140
0.0
140
0.0
140
0.0
140
0.0
140
0.0
140
0.0
140
0.0
140
0.0
140
0.0
140
0.0
140
0.0
140
0.0
140
0.0
140
0.0
140
0.0
140
0.0
140
0.0
140
0.0
140
0.0
140
0.0
140
0.0
140
0.0
 90
        0
  0
POLYLINE
  5
FA
330
1F
100
AcDbEntity
  8
OracDecor_panel_moldings
 62
    96
420
   427782
100
AcDb2dPolyline
 66
     1
 10
0.0
 20
0.0
 30
-0.0000085752308223
 70
     1
210
-0.9999999999999769
220
0.0000001788139343
230
-0.0000001192092896
  0
VERTEX
  5
FB
330
FA
100
AcDbEntity
  8
OracDecor_panel_moldings
 62
    96
420
   427782
100
AcDbVertex
100
AcDb2dVertex
 10
-0.0000038146963561
 20
83.0
 30
-0.0000085752308223
  0
VERTEX
  5
FC
330
FA
100
AcDbEntity
  8
OracDecor_panel_moldings
 62
    96
420
   427782
100
AcDbVertex
100
AcDb2dVertex
 10
-27.50000381469727
 20
83.0
 30
-0.0000085752308223
  0
VERTEX
  5
FD
330
FA
100
AcDbEntity
  8
OracDecor_panel_moldings
 62
    96
420
   427782
100
AcDbVertex
100
AcDb2dVertex
 10
-27.50000381469727
 20
78.5
 30
-0.0000085752308223
  0
VERTEX
  5
FE
330
FA
100
AcDbEntity
  8
OracDecor_panel_moldings
 62
    96
420
   427782
100
AcDbVertex
100
AcDb2dVertex
 10
-29.42778778076172
 20
77.99272155761719
 30
-0.0000085752308223
  0
VERTEX
  5
FF
330
FA
100
AcDbEntity
  8
OracDecor_panel_moldings
 62
    96
420
   427782
100
AcDbVertex
100
AcDb2dVertex
 10
-30.9013671875
 20
77.11849975585938
 30
-0.0000085752308223
  0
VERTEX
  5
100
330
FA
100
AcDbEntity
  8
OracDecor_panel_moldings
 62
    96
420
   427782
100
AcDbVertex
100
AcDb2dVertex
 10
-32.22747421264648
 20
75.83102416992187
 30
-0.0000085752308223
  0
VERTEX
  5
101
330
FA
100
AcDbEntity
  8
OracDecor_panel_moldings
 62
    96
420
   427782
100
AcDbVertex
100
AcDb2dVertex
 10
-33.24188232421875
 20
74.26312255859375
 30
-0.0000085752308223
  0
VERTEX
  5
102
330
FA
100
AcDbEntity
  8
OracDecor_panel_moldings
 62
    96
420
   427782
100
AcDbVertex
100
AcDb2dVertex
 10
-33.83920288085938
 20
72.61306762695312
 30
-0.0000085752308223
  0
VERTEX
  5
103
330
FA
100
AcDbEntity
  8
OracDecor_panel_moldings
 62
    96
420
   427782
100
AcDbVertex
100
AcDb2dVertex
 10
-34.01276779174805
 20
70.96890258789063
 30
-0.0000085752308223
  0
VERTEX
  5
104
330
FA
100
AcDbEntity
  8
OracDecor_panel_moldings
 62
    96
420
   427782
100
AcDbVertex
100
AcDb2dVertex
 10
-33.74928665161133
 20
69.28887939453125
 30
-0.0000085752308223
  0
VERTEX
  5
105
330
FA
100
AcDbEntity
  8
OracDecor_panel_moldings
 62
    96
420
   427782
100
AcDbVertex
100
AcDb2dVertex
 10
-33.05412673950196
 20
67.62261962890625
 30
-0.0000085752308223
  0
VERTEX
  5
106
330
FA
100
AcDbEntity
  8
OracDecor_panel_moldings
 62
    96
420
   427782
100
AcDbVertex
100
AcDb2dVertex
 10
-32.15169906616211
 20
66.28369140625
 30
-0.0000085752308223
  0
VERTEX
  5
107
330
FA
100
AcDbEntity
  8
OracDecor_panel_moldings
 62
    96
420
   427782
100
AcDbVertex
100
AcDb2dVertex
 10
-31.01897811889648
 20
65.09431457519531
 30
-0.0000085752308223
  0
VERTEX
  5
108
330
FA
100
AcDbEntity
  8
OracDecor_panel_moldings
 62
    96
420
   427782
100
AcDbVertex
100
AcDb2dVertex
 10
-29.70841598510742
 20
64.10215759277344
 30
-0.0000085752308223
  0
VERTEX
  5
109
330
FA
100
AcDbEntity
  8
OracDecor_panel_moldings
 62
    96
420
   427782
100
AcDbVertex
100
AcDb2dVertex
 10
-28.25918197631836
 20
63.34721374511719
 30
-0.0000085752308223
  0
VERTEX
  5
10A
330
FA
100
AcDbEntity
  8
OracDecor_panel_moldings
 62
    96
420
   427782
100
AcDbVertex
100
AcDb2dVertex
 10
-26.64867401123047
 20
62.824462890625
 30
-0.0000085752308223
  0
VERTEX
  5
10B
330
FA
100
AcDbEntity
  8
OracDecor_panel_moldings
 62
    96
420
   427782
100
AcDbVertex
100
AcDb2dVertex
 10
-24.90663146972656
 20
62.54911804199219
 30
-0.0000085752308223
  0
VERTEX
  5
10C
330
FA
100
AcDbEntity
  8
OracDecor_panel_moldings
 62
    96
420
   427782
100
AcDbVertex
100
AcDb2dVertex
 10
-24.00000381469727
 20
62.5
 30
-0.0000085752308223
  0
VERTEX
  5
10D
330
FA
100
AcDbEntity
  8
OracDecor_panel_moldings
 62
    96
420
   427782
100
AcDbVertex
100
AcDb2dVertex
 10
-24.00000381469727
 20
58.49999237060547
 30
-0.0000085752308223
  0
VERTEX
  5
10E
330
FA
100
AcDbEntity
  8
OracDecor_panel_moldings
 62
    96
420
   427782
100
AcDbVertex
100
AcDb2dVertex
 10
-21.00000381469727
 20
58.5
 30
-0.0000085752308223
  0
VERTEX
  5
10F
330
FA
100
AcDbEntity
  8
OracDecor_panel_moldings
 62
    96
420
   427782
100
AcDbVertex
100
AcDb2dVertex
 10
-21.00000381469727
 20
54.5
 30
-0.0000085752308223
  0
VERTEX
  5
110
330
FA
100
AcDbEntity
  8
OracDecor_panel_moldings
 62
    96
420
   427782
100
AcDbVertex
100
AcDb2dVertex
 10
-22.35953521728516
 20
54.40618896484375
 30
-0.0000085752308223
  0
VERTEX
  5
111
330
FA
100
AcDbEntity
  8
OracDecor_panel_moldings
 62
    96
420
   427782
100
AcDbVertex
100
AcDb2dVertex
 10
-24.13612747192383
 20
54.03365325927734
 30
-0.0000085752308223
  0
VERTEX
  5
112
330
FA
100
AcDbEntity
  8
OracDecor_panel_moldings
 62
    96
420
   427782
100
AcDbVertex
100
AcDb2dVertex
 10
-25.82712554931641
 20
53.37379455566406
 30
-0.0000085752308223
  0
VERTEX
  5
113
330
FA
100
AcDbEntity
  8
OracDecor_panel_moldings
 62
    96
420
   427782
100
AcDbVertex
100
AcDb2dVertex
 10
-27.38642883300781
 20
52.44464111328125
 30
-0.0000085752308223
  0
VERTEX
  5
114
330
FA
100
AcDbEntity
  8
OracDecor_panel_moldings
 62
    96
420
   427782
100
AcDbVertex
100
AcDb2dVertex
 10
-28.77152252197266
 20
51.27151489257812
 30
-0.0000085752308223
  0
VERTEX
  5
115
330
FA
100
AcDbEntity
  8
OracDecor_panel_moldings
 62
    96
420
   427782
100
AcDbVertex
100
AcDb2dVertex
 10
-29.94464492797852
 20
49.88642883300781
 30
-0.0000085752308223
  0
VERTEX
  5
116
330
FA
100
AcDbEntity
  8
OracDecor_panel_moldings
 62
    96
420
   427782
100
AcDbVertex
100
AcDb2dVertex
 10
-30.87380599975586
 20
48.3271255493164
 30
-0.0000085752308223
  0
VERTEX
  5
117
330
FA
100
AcDbEntity
  8
OracDecor_panel_moldings
 62
    96
420
   427782
100
AcDbVertex
100
AcDb2dVertex
 10
-31.53366088867187
 20
46.63612365722656
 30
-0.0000085752308223
  0
VERTEX
  5
118
330
FA
100
AcDbEntity
  8
OracDecor_panel_moldings
 62
    96
420
   427782
100
AcDbVertex
100
AcDb2dVertex
 10
-31.90619277954102
 20
44.85952758789062
 30
-0.0000085752308223
  0
VERTEX
  5
119
330
FA
100
AcDbEntity
  8
OracDecor_panel_moldings
 62
    96
420
   427782
100
AcDbVertex
100
AcDb2dVertex
 10
-31.9812126159668
 20
43.04578399658203
 30
-0.0000085752308223
  0
VERTEX
  5
11A
330
FA
100
AcDbEntity
  8
OracDecor_panel_moldings
 62
    96
420
   427782
100
AcDbVertex
100
AcDb2dVertex
 10
-31.75666809082031
 20
41.24446105957031
 30
-0.0000085752308223
  0
VERTEX
  5
11B
330
FA
100
AcDbEntity
  8
OracDecor_panel_moldings
 62
    96
420
   427782
100
AcDbVertex
100
AcDb2dVertex
 10
-31.23870086669922
 20
39.50472259521485
 30
-0.0000085752308223
  0
VERTEX
  5
11C
330
FA
100
AcDbEntity
  8
OracDecor_panel_moldings
 62
    96
420
   427782
100
AcDbVertex
100
AcDb2dVertex
 10
-30.44147109985352
 20
37.87400817871094
 30
-0.0000085752308223
  0
VERTEX
  5
11D
330
FA
100
AcDbEntity
  8
OracDecor_panel_moldings
 62
    96
420
   427782
100
AcDbVertex
100
AcDb2dVertex
 10
-29.38672637939453
 20
36.39676666259766
 30
-0.0000085752308223
  0
VERTEX
  5
11E
330
FA
100
AcDbEntity
  8
OracDecor_panel_moldings
 62
    96
420
   427782
100
AcDbVertex
100
AcDb2dVertex
 10
-28.10323715209961
 20
35.11327362060547
 30
-0.0000085752308223
  0
VERTEX
  5
11F
330
FA
100
AcDbEntity
  8
OracDecor_panel_moldings
 62
    96
420
   427782
100
AcDbVertex
100
AcDb2dVertex
 10
-26.62599563598633
 20
34.05853271484375
 30
-0.0000085752308223
  0
VERTEX
  5
120
330
FA
100
AcDbEntity
  8
OracDecor_panel_moldings
 62
    96
420
   427782
100
AcDbVertex
100
AcDb2dVertex
 10
-24.99527740478516
 20
33.26129913330078
 30
-0.0000085752308223
  0
VERTEX
  5
121
330
FA
100
AcDbEntity
  8
OracDecor_panel_moldings
 62
    96
420
   427782
100
AcDbVertex
100
AcDb2dVertex
 10
-23.25554275512695
 20
32.74333190917969
 30
-0.0000085752308223
  0
VERTEX
  5
122
330
FA
100
AcDbEntity
  8
OracDecor_panel_moldings
 62
    96
420
   427782
100
AcDbVertex
100
AcDb2dVertex
 10
-21.90843963623047
 20
32.53757476806641
 30
-0.0000085752308223
  0
VERTEX
  5
123
330
FA
100
AcDbEntity
  8
OracDecor_panel_moldings
 62
    96
420
   427782
100
AcDbVertex
100
AcDb2dVertex
 10
-21.00000381469727
 20
32.5
 30
-0.0000085752308223
  0
VERTEX
  5
124
330
FA
100
AcDbEntity
  8
OracDecor_panel_moldings
 62
    96
420
   427782
100
AcDbVertex
100
AcDb2dVertex
 10
-21.00000381469727
 20
28.49999809265137
 30
-0.0000085752308223
  0
VERTEX
  5
125
330
FA
100
AcDbEntity
  8
OracDecor_panel_moldings
 62
    96
420
   427782
100
AcDbVertex
100
AcDb2dVertex
 10
-17.86942672729492
 20
28.40368461608887
 30
-0.0000085752308223
  0
VERTEX
  5
126
330
FA
100
AcDbEntity
  8
OracDecor_panel_moldings
 62
    96
420
   427782
100
AcDbVertex
100
AcDb2dVertex
 10
-16.15803909301758
 20
28.02155113220215
 30
-0.0000085752308223
  0
VERTEX
  5
127
330
FA
100
AcDbEntity
  8
OracDecor_panel_moldings
 62
    96
420
   427782
100
AcDbVertex
100
AcDb2dVertex
 10
-14.53982448577881
 20
27.3460693359375
 30
-0.0000085752308223
  0
VERTEX
  5
128
330
FA
100
AcDbEntity
  8
OracDecor_panel_moldings
 62
    96
420
   427782
100
AcDbVertex
100
AcDb2dVertex
 10
-13.0646448135376
 20
26.39806365966797
 30
-0.0000085752308223
  0
VERTEX
  5
129
330
FA
100
AcDbEntity
  8
OracDecor_panel_moldings
 62
    96
420
   427782
100
AcDbVertex
100
AcDb2dVertex
 10
-11.77794361114502
 20
25.20672607421875
 30
-0.0000085752308223
  0
VERTEX
  5
12A
330
FA
100
AcDbEntity
  8
OracDecor_panel_moldings
 62
    96
420
   427782
100
AcDbVertex
100
AcDb2dVertex
 10
-10.71936321258545
 20
23.80877685546875
 30
-0.0000085752308223
  0
VERTEX
  5
12B
330
FA
100
AcDbEntity
  8
OracDecor_panel_moldings
 62
    96
420
   427782
100
AcDbVertex
100
AcDb2dVertex
 10
-9.921515464782714
 20
22.24726104736328
 30
-0.0000085752308223
  0
VERTEX
  5
12C
330
FA
100
AcDbEntity
  8
OracDecor_panel_moldings
 62
    96
420
   427782
100
AcDbVertex
100
AcDb2dVertex
 10
-9.500000953674316
 20
21.0
 30
-0.0000085752308223
  0
VERTEX
  5
12D
330
FA
100
AcDbEntity
  8
OracDecor_panel_moldings
 62
    96
420
   427782
100
AcDbVertex
100
AcDb2dVertex
 10
-11.04834651947021
 20
20.62562561035156
 30
-0.0000085752308223
  0
VERTEX
  5
12E
330
FA
100
AcDbEntity
  8
OracDecor_panel_moldings
 62
    96
420
   427782
100
AcDbVertex
100
AcDb2dVertex
 10
-12.52842235565185
 20
19.8310317993164
 30
-0.0000085752308223
  0
VERTEX
  5
12F
330
FA
100
AcDbEntity
  8
OracDecor_panel_moldings
 62
    96
420
   427782
100
AcDbVertex
100
AcDb2dVertex
 10
-13.88022899627685
 20
18.603271484375
 30
-0.0000085752308223
  0
VERTEX
  5
130
330
FA
100
AcDbEntity
  8
OracDecor_panel_moldings
 62
    96
420
   427782
100
AcDbVertex
100
AcDb2dVertex
 10
-14.93690776824951
 20
17.05940246582031
 30
-0.0000085752308223
  0
VERTEX
  5
131
330
FA
100
AcDbEntity
  8
OracDecor_panel_moldings
 62
    96
420
   427782
100
AcDbVertex
100
AcDb2dVertex
 10
-15.57215785980224
 20
15.40901088714599
 30
-0.0000085752308223
  0
VERTEX
  5
132
330
FA
100
AcDbEntity
  8
OracDecor_panel_moldings
 62
    96
420
   427782
100
AcDbVertex
100
AcDb2dVertex
 10
-15.7707929611206
 20
13.76588344573974
 30
-0.0000085752308223
  0
VERTEX
  5
133
330
FA
100
AcDbEntity
  8
OracDecor_panel_moldings
 62
    96
420
   427782
100
AcDbVertex
100
AcDb2dVertex
 10
-15.52197551727295
 20
12.09258937835693
 30
-0.0000085752308223
  0
VERTEX
  5
134
330
FA
100
AcDbEntity
  8
OracDecor_panel_moldings
 62
    96
420
   427782
100
AcDbVertex
100
AcDb2dVertex
 10
-14.85072994232178
 20
10.46875667572021
 30
-0.0000085752308223
  0
VERTEX
  5
135
330
FA
100
AcDbEntity
  8
OracDecor_panel_moldings
 62
    96
420
   427782
100
AcDbVertex
100
AcDb2dVertex
 10
-13.96363544464111
 20
9.155943870544433
 30
-0.0000085752308223
  0
VERTEX
  5
136
330
FA
100
AcDbEntity
  8
OracDecor_panel_moldings
 62
    96
420
   427782
100
AcDbVertex
100
AcDb2dVertex
 10
-12.82836818695068
 20
7.973593711853027
 30
-0.0000085752308223
  0
VERTEX
  5
137
330
FA
100
AcDbEntity
  8
OracDecor_panel_moldings
 62
    96
420
   427782
100
AcDbVertex
100
AcDb2dVertex
 10
-11.51129055023193
 20
6.994697093963623
 30
-0.0000085752308223
  0
VERTEX
  5
138
330
FA
100
AcDbEntity
  8
OracDecor_panel_moldings
 62
    96
420
   427782
100
AcDbVertex
100
AcDb2dVertex
 10
-10.05229473114013
 20
6.260268688201904
 30
-0.0000085752308223
  0
VERTEX
  5
139
330
FA
100
AcDbEntity
  8
OracDecor_panel_moldings
 62
    96
420
   427782
100
AcDbVertex
100
AcDb2dVertex
 10
-8.427962303161621
 20
5.766082286834716
 30
-0.0000085752308223
  0
VERTEX
  5
13A
330
FA
100
AcDbEntity
  8
OracDecor_panel_moldings
 62
    96
420
   427782
100
AcDbVertex
100
AcDb2dVertex
 10
-6.72156810760498
 20
5.529754161834716
 30
-0.0000085752308223
  0
VERTEX
  5
13B
330
FA
100
AcDbEntity
  8
OracDecor_panel_moldings
 62
    96
420
   427782
100
AcDbVertex
100
AcDb2dVertex
 10
-6.0
 20
5.499999523162841
 30
-0.0000085752308223
  0
VERTEX
  5
13C
330
FA
100
AcDbEntity
  8
OracDecor_panel_moldings
 62
    96
420
   427782
100
AcDbVertex
100
AcDb2dVertex
 10
-6.0
 20
-0.0000003576279255
 30
-0.0000085752308223
  0
VERTEX
  5
13D
330
FA
100
AcDbEntity
  8
OracDecor_panel_moldings
 62
    96
420
   427782
100
AcDbVertex
100
AcDb2dVertex
 10
0.0
 20
0.0
 30
-0.0000085752308223
  0
VERTEX
  5
13E
330
FA
100
AcDbEntity
  8
OracDecor_panel_moldings
 62
    96
420
   427782
100
AcDbVertex
100
AcDb2dVertex
 10
0.0000000000000775
 20
7.270835876464843
 30
-0.0000085752308223
  0
VERTEX
  5
13F
330
FA
100
AcDbEntity
  8
OracDecor_panel_moldings
 62
    96
420
   427782
100
AcDbVertex
100
AcDb2dVertex
 10
-0.4801273345947266
 20
7.500823974609375
 30
-0.0000085752308223
  0
VERTEX
  5
140
330
FA
100
AcDbEntity
  8
OracDecor_panel_moldings
 62
    96
420
   427782
100
AcDbVertex
100
AcDb2dVertex
 10
-0.9832715988159179
 20
7.995956420898437
 30
-0.0000085752308223
  0
VERTEX
  5
141
330
FA
100
AcDbEntity
  8
OracDecor_panel_moldings
 62
    96
420
   427782
100
AcDbVertex
100
AcDb2dVertex
 10
-1.256021499633789
 20
8.647048950195312
 30
-0.0000085752308223
  0
VERTEX
  5
142
330
FA
100
AcDbEntity
  8
OracDecor_panel_moldings
 62
    96
420
   427782
100
AcDbVertex
100
AcDb2dVertex
 10
-1.256021499633789
 20
9.352951049804687
 30
-0.0000085752308223
  0
VERTEX
  5
143
330
FA
100
AcDbEntity
  8
OracDecor_panel_moldings
 62
    96
420
   427782
100
AcDbVertex
100
AcDb2dVertex
 10
-0.9832706451416015
 20
10.00404357910156
 30
-0.0000085752308223
  0
VERTEX
  5
144
330
FA
100
AcDbEntity
  8
OracDecor_panel_moldings
 62
    96
420
   427782
100
AcDbVertex
100
AcDb2dVertex
 10
-0.4801273345947266
 20
10.49917602539062
 30
-0.0000085752308223
  0
VERTEX
  5
145
330
FA
100
AcDbEntity
  8
OracDecor_panel_moldings
 62
    96
420
   427782
100
AcDbVertex
100
AcDb2dVertex
 10
0.0000000000001144
 20
10.72916412353515
 30
-0.0000085752308223
  0
VERTEX
  5
146
330
FA
100
AcDbEntity
  8
OracDecor_panel_moldings
 62
    96
420
   427782
100
AcDbVertex
100
AcDb2dVertex
 10
-0.0000057220458984
 20
17.90882873535156
 30
-0.0000085752308223
  0
VERTEX
  5
147
330
FA
100
AcDbEntity
  8
OracDecor_panel_moldings
 62
    96
420
   427782
100
AcDbVertex
100
AcDb2dVertex
 10
-2.64560317993164
 20
25.49916076660156
 30
-0.0000085752308223
  0
VERTEX
  5
148
330
FA
100
AcDbEntity
  8
OracDecor_panel_moldings
 62
    96
420
   427782
100
AcDbVertex
100
AcDb2dVertex
 10
-4.860893249511718
 20
29.33274841308594
 30
-0.0000085752308223
  0
VERTEX
  5
149
330
FA
100
AcDbEntity
  8
OracDecor_panel_moldings
 62
    96
420
   427782
100
AcDbVertex
100
AcDb2dVertex
 10
-7.947020530700683
 20
32.50788116455078
 30
-0.0000085752308223
  0
VERTEX
  5
14A
330
FA
100
AcDbEntity
  8
OracDecor_panel_moldings
 62
    96
420
   427782
100
AcDbVertex
100
AcDb2dVertex
 10
-11.58615970611572
 20
34.79497528076172
 30
-0.0000085752308223
  0
VERTEX
  5
14B
330
FA
100
AcDbEntity
  8
OracDecor_panel_moldings
 62
    96
420
   427782
100
AcDbVertex
100
AcDb2dVertex
 10
-13.83494853973388
 20
36.25663757324219
 30
-0.0000085752308223
  0
VERTEX
  5
14C
330
FA
100
AcDbEntity
  8
OracDecor_panel_moldings
 62
    96
420
   427782
100
AcDbVertex
100
AcDb2dVertex
 10
-15.7070837020874
 20
38.32830810546875
 30
-0.0000085752308223
  0
VERTEX
  5
14D
330
FA
100
AcDbEntity
  8
OracDecor_panel_moldings
 62
    96
420
   427782
100
AcDbVertex
100
AcDb2dVertex
 10
-18.12650680541992
 20
39.94725799560547
 30
-0.0000085752308223
  0
VERTEX
  5
14E
330
FA
100
AcDbEntity
  8
OracDecor_panel_moldings
 62
    96
420
   427782
100
AcDbVertex
100
AcDb2dVertex
 10
-19.73471069335937
 20
41.44319152832031
 30
-0.0000085752308223
  0
VERTEX
  5
14F
330
FA
100
AcDbEntity
  8
OracDecor_panel_moldings
 62
    96
420
   427782
100
AcDbVertex
100
AcDb2dVertex
 10
-20.31188583374023
 20
43.5
 30
-0.0000085752308223
  0
VERTEX
  5
150
330
FA
100
AcDbEntity
  8
OracDecor_panel_moldings
 62
    96
420
   427782
100
AcDbVertex
100
AcDb2dVertex
 10
-19.73471069335937
 20
45.55680847167969
 30
-0.0000085752308223
  0
VERTEX
  5
151
330
FA
100
AcDbEntity
  8
OracDecor_panel_moldings
 62
    96
420
   427782
100
AcDbVertex
100
AcDb2dVertex
 10
-18.12235641479492
 20
47.05503082275391
 30
-0.0000085752308223
  0
VERTEX
  5
152
330
FA
100
AcDbEntity
  8
OracDecor_panel_moldings
 62
    96
420
   427782
100
AcDbVertex
100
AcDb2dVertex
 10
-15.66007900238037
 20
48.71794891357422
 30
-0.0000085752308223
  0
VERTEX
  5
153
330
FA
100
AcDbEntity
  8
OracDecor_panel_moldings
 62
    96
420
   427782
100
AcDbVertex
100
AcDb2dVertex
 10
-13.8107328414917
 20
51.25540161132812
 30
-0.0000085752308223
  0
VERTEX
  5
154
330
FA
100
AcDbEntity
  8
OracDecor_panel_moldings
 62
    96
420
   427782
100
AcDbVertex
100
AcDb2dVertex
 10
-13.09596920013428
 20
53.5120849609375
 30
-0.0000085752308223
  0
VERTEX
  5
155
330
FA
100
AcDbEntity
  8
OracDecor_panel_moldings
 62
    96
420
   427782
100
AcDbVertex
100
AcDb2dVertex
 10
-13.00000286102295
 20
54.69821166992187
 30
-0.0000085752308223
  0
VERTEX
  5
156
330
FA
100
AcDbEntity
  8
OracDecor_panel_moldings
 62
    96
420
   427782
100
AcDbVertex
100
AcDb2dVertex
 10
-13.00000286102295
 20
58.2982177734375
 30
-0.0000085752308223
  0
VERTEX
  5
157
330
FA
100
AcDbEntity
  8
OracDecor_panel_moldings
 62
    96
420
   427782
100
AcDbVertex
100
AcDb2dVertex
 10
-13.09306240081787
 20
59.46636962890625
 30
-0.0000085752308223
  0
VERTEX
  5
158
330
FA
100
AcDbEntity
  8
OracDecor_panel_moldings
 62
    96
420
   427782
100
AcDbVertex
100
AcDb2dVertex
 10
-13.78663730621338
 20
61.69232177734375
 30
-0.0000085752308223
  0
VERTEX
  5
159
330
FA
100
AcDbEntity
  8
OracDecor_panel_moldings
 62
    96
420
   427782
100
AcDbVertex
100
AcDb2dVertex
 10
-15.47802829742431
 20
64.20751953125
 30
-0.0000085752308223
  0
VERTEX
  5
15A
330
FA
100
AcDbEntity
  8
OracDecor_panel_moldings
 62
    96
420
   427782
100
AcDbVertex
100
AcDb2dVertex
 10
-17.08951568603515
 20
66.49842834472656
 30
-0.0000085752308223
  0
VERTEX
  5
15B
330
FA
100
AcDbEntity
  8
OracDecor_panel_moldings
 62
    96
420
   427782
100
AcDbVertex
100
AcDb2dVertex
 10
-18.4991340637207
 20
68.47752380371094
 30
-0.0000085752308223
  0
VERTEX
  5
15C
330
FA
100
AcDbEntity
  8
OracDecor_panel_moldings
 62
    96
420
   427782
100
AcDbVertex
100
AcDb2dVertex
 10
-18.65957260131836
 20
69.90313720703125
 30
-0.0000085752308223
  0
VERTEX
  5
15D
330
FA
100
AcDbEntity
  8
OracDecor_panel_moldings
 62
    96
420
   427782
100
AcDbVertex
100
AcDb2dVertex
 10
-17.80422592163086
 20
71.05484008789062
 30
-0.0000085752308223
  0
VERTEX
  5
15E
330
FA
100
AcDbEntity
  8
OracDecor_panel_moldings
 62
    96
420
   427782
100
AcDbVertex
100
AcDb2dVertex
 10
-16.94512939453125
 20
71.38626098632812
 30
-0.0000085752308223
  0
VERTEX
  5
15F
330
FA
100
AcDbEntity
  8
OracDecor_panel_moldings
 62
    96
420
   427782
100
AcDbVertex
100
AcDb2dVertex
 10
-0.0000038146965835
 20
72.8687744140625
 30
-0.0000085752308223
  0
VERTEX
  5
160
330
FA
100
AcDbEntity
  8
OracDecor_panel_moldings
 62
    96
420
   427782
100
AcDbVertex
100
AcDb2dVertex
 10
-0.0000038146963561
 20
76.50334167480469
 30
-0.0000085752308223
  0
VERTEX
  5
161
330
FA
100
AcDbEntity
  8
OracDecor_panel_moldings
 62
    96
420
   427782
100
AcDbVertex
100
AcDb2dVertex
 10
-0.3847026824951172
 20
76.86358642578125
 30
-0.0000085752308223
  0
VERTEX
  5
162
330
FA
100
AcDbEntity
  8
OracDecor_panel_moldings
 62
    96
420
   427782
100
AcDbVertex
100
AcDb2dVertex
 10
-0.714193344116211
 20
77.47999572753906
 30
-0.0000085752308223
  0
VERTEX
  5
163
330
FA
100
AcDbEntity
  8
OracDecor_panel_moldings
 62
    96
420
   427782
100
AcDbVertex
100
AcDb2dVertex
 10
-0.7999916076660157
 20
78.0
 30
-0.0000085752308223
  0
VERTEX
  5
164
330
FA
100
AcDbEntity
  8
OracDecor_panel_moldings
 62
    96
420
   427782
100
AcDbVertex
100
AcDb2dVertex
 10
-0.714193344116211
 20
78.52000427246093
 30
-0.0000085752308223
  0
VERTEX
  5
165
330
FA
100
AcDbEntity
  8
OracDecor_panel_moldings
 62
    96
420
   427782
100
AcDbVertex
100
AcDb2dVertex
 10
-0.3847026824951172
 20
79.13641357421875
 30
-0.0000085752308223
  0
VERTEX
  5
166
330
FA
100
AcDbEntity
  8
OracDecor_panel_moldings
 62
    96
420
   427782
100
AcDbVertex
100
AcDb2dVertex
 10
-0.0000038146963561
 20
79.49665832519531
 30
-0.0000085752308223
  0
SEQEND
  5
167
330
FA
100
AcDbEntity
  8
OracDecor_panel_moldings
 62
    96
420
   427782
  0
ENDSEC
  0
SECTION
  2
OBJECTS
  0
DICTIONARY
  5
C
330
0
100
AcDbDictionary
281
     1
  3
ACAD_COLOR
350
DC
  3
ACAD_DETAILVIEWSTYLE
350
F5
  3
ACAD_GROUP
350
D
  3
ACAD_LAYOUT
350
1A
  3
ACAD_MATERIAL
350
AA
  3
ACAD_MLEADERSTYLE
350
F1
  3
ACAD_MLINESTYLE
350
17
  3
ACAD_PLOTSETTINGS
350
19
  3
ACAD_PLOTSTYLENAME
350
E
  3
ACAD_SCALELIST
350
DF
  3
ACAD_SECTIONVIEWSTYLE
350
F3
  3
ACAD_TABLESTYLE
350
DD
  3
ACAD_VISUALSTYLE
350
C3
  3
ACDB_RECOMPOSE_DATA
350
174
  3
AcDbVariableDictionary
350
168
  0
DICTIONARY
  5
DC
102
{ACAD_REACTORS
330
C
102
}
330
C
100
AcDbDictionary
281
     1
  0
DICTIONARY
  5
F5
102
{ACAD_REACTORS
330
C
102
}
330
C
100
AcDbDictionary
281
     1
  3
Imperial24
350
F6
  0
DICTIONARY
  5
D
102
{ACAD_REACTORS
330
C
102
}
330
C
100
AcDbDictionary
281
     1
  0
DICTIONARY
  5
1A
102
{ACAD_REACTORS
330
C
102
}
330
C
100
AcDbDictionary
281
     1
  3
Layout1
350
1E
  3
Layout2
350
26
  3
Model
350
22
  0
DICTIONARY
  5
AA
102
{ACAD_REACTORS
330
C
102
}
330
C
100
AcDbDictionary
281
     1
  3
ByBlock
350
B3
  3
ByLayer
350
AB
  3
Global
350
BB
  0
DICTIONARY
  5
F1
102
{ACAD_REACTORS
330
C
102
}
330
C
100
AcDbDictionary
281
     1
  3
Standard
350
F2
  0
DICTIONARY
  5
17
102
{ACAD_REACTORS
330
C
102
}
330
C
100
AcDbDictionary
281
     1
  3
Standard
350
18
  0
DICTIONARY
  5
19
102
{ACAD_REACTORS
330
C
102
}
330
C
100
AcDbDictionary
281
     1
  0
ACDBDICTIONARYWDFLT
  5
E
102
{ACAD_REACTORS
330
C
102
}
330
C
100
AcDbDictionary
281
     1
  3
ByLayer
350
2D
  3
Normal
350
F
100
AcDbDictionaryWithDefault
340
F
  0
DICTIONARY
  5
DF
102
{ACAD_REACTORS
330
C
102
}
330
C
100
AcDbDictionary
281
     1
  3
A0
350
E0
  3
A1
350
E1
  3
A2
350
E2
  3
A3
350
E3
  3
A4
350
E4
  3
A5
350
E5
  3
A6
350
E6
  3
A7
350
E7
  3
A8
350
E8
  3
A9
350
E9
  3
B0
350
EA
  3
B1
350
EB
  3
B2
350
EC
  3
B3
350
ED
  3
B4
350
EE
  3
B5
350
EF
  3
B6
350
F0
  0
DICTIONARY
  5
F3
102
{ACAD_REACTORS
330
C
102
}
330
C
100
AcDbDictionary
281
     1
  3
Imperial24
350
F4
  0
DICTIONARY
  5
DD
102
{ACAD_REACTORS
330
C
102
}
330
C
100
AcDbDictionary
281
     1
  3
Standard
350
DE
  0
DICTIONARY
  5
C3
102
{ACAD_REACTORS
330
C
102
}
330
C
100
AcDbDictionary
281
     1
  3
2dWireframe
350
C9
  3
Basic
350
C8
  3
Brighten
350
CF
  3
ColorChange
350
D3
  3
Conceptual
350
CC
  3
Dim
350
CE
  3
EdgeColorOff
350
DB
  3
Facepattern
350
D2
  3
Flat
350
C4
  3
FlatWithEdges
350
C5
  3
Gouraud
350
C6
  3
GouraudWithEdges
350
C7
  3
Hidden
350
CB
  3
JitterOff
350
D9
  3
Linepattern
350
D1
  3
OverhangOff
350
DA
  3
Realistic
350
CD
  3
Shaded
350
D8
  3
Shaded with edges
350
D7
  3
Shades of Gray
350
D4
  3
Sketchy
350
D5
  3
Thicken
350
D0
  3
Wireframe
350
CA
  3
X-Ray
350
D6
  0
XRECORD
  5
174
102
{ACAD_REACTORS
330
C
102
}
330
C
100
AcDbXrecord
280
     1
 90
        1
330
DE
  0
DICTIONARY
  5
168
102
{ACAD_REACTORS
330
C
102
}
330
C
100
AcDbDictionary
281
     1
  3
CANNOSCALE
350
16E
  3
CMLEADERSTYLE
350
16A
  3
CTABLESTYLE
350
169
  3
CVIEWDETAILSTYLE
350
16B
  3
CVIEWSECTIONSTYLE
350
16C
  3
LAYEREVAL
350
170
  3
LAYERNOTIFY
350
171
  3
LIGHTINGUNITS
350
16F
  3
MSLTSCALE
350
16D
  0
ACDBDETAILVIEWSTYLE
  5
F6
102
{ACAD_XDICTIONARY
360
1A9
102
}
102
{ACAD_REACTORS
330
F5
102
}
330
F5
100
AcDbModelDocViewStyle
 70
     0
  3
Imperial24
290
     0
100
AcDbDetailViewStyle
 70
     0
 71
     0
 90
        3
 71
     1
340
11
 62
   256
 40
0.24
340
0
 62
   256
 40
0.24
300

 40
0.36
280
     3
 71
     2
340
16
 90
       25
 62
   256
 71
     3
340
11
 62
   256
 40
0.24
 90
        1
 40
0.75
 90
        1
300
%<\AcVar ViewType \f "%tc1">% %<\AcVar ViewDetailId>%\PSCALE %<\AcVar ViewScale \f "%sn">%
 71
     4
340
16
 90
       25
 62
   256
340
16
 90
       25
 62
   256
280
     0
  0
LAYOUT
  5
1E
102
{ACAD_REACTORS
330
1A
102
}
330
1A
100
AcDbPlotSettings
  1

  2
\\KTXNTBDC\CASF2PN1
  4

  6

 40
0.0
 41
0.0
 42
0.0
 43
0.0
 44
0.0
 45
0.0
 46
0.0
 47
0.0
 48
0.0
 49
0.0
140
0.0
141
0.0
142
1.0
143
1.0
 70
   688
 72
     0
 73
     0
 74
     5
  7

 75
    16
147
1.0
 76
     0
 77
     2
 78
   300
148
0.0
149
0.0
100
AcDbLayout
  1
Layout1
 70
     1
 71
     1
 10
0.0
 20
0.0
 11
12.0
 21
9.0
 12
0.0
 22
0.0
 32
0.0
 14
1.000000000000000E+20
 24
1.000000000000000E+20
 34
1.000000000000000E+20
 15
-1.000000000000000E+20
 25
-1.000000000000000E+20
 35
-1.000000000000000E+20
146
0.0
 13
0.0
 23
0.0
 33
0.0
 16
1.0
 26
0.0
 36
0.0
 17
0.0
 27
1.0
 37
0.0
 76
     0
330
1B
  0
LAYOUT
  5
26
102
{ACAD_REACTORS
330
1A
102
}
330
1A
100
AcDbPlotSettings
  1

  2
\\KTXNTBDC\CASF2PN1
  4

  6

 40
0.0
 41
0.0
 42
0.0
 43
0.0
 44
0.0
 45
0.0
 46
0.0
 47
0.0
 48
0.0
 49
0.0
140
0.0
141
0.0
142
1.0
143
1.0
 70
   688
 72
     0
 73
     0
 74
     5
  7

 75
    16
147
1.0
 76
     0
 77
     2
 78
   300
148
0.0
149
0.0
100
AcDbLayout
  1
Layout2
 70
     1
 71
     2
 10
0.0
 20
0.0
 11
12.0
 21
9.0
 12
0.0
 22
0.0
 32
0.0
 14
0.0
 24
0.0
 34
0.0
 15
0.0
 25
0.0
 35
0.0
146
0.0
 13
0.0
 23
0.0
 33
0.0
 16
1.0
 26
0.0
 36
0.0
 17
0.0
 27
1.0
 37
0.0
 76
     0
330
23
  0
LAYOUT
  5
22
102
{ACAD_REACTORS
330
1A
102
}
330
1A
100
AcDbPlotSettings
  1

  2
\\KTXNTBDC\CASF2PN1
  4

  6

 40
0.0
 41
0.0
 42
0.0
 43
0.0
 44
0.0
 45
0.0
 46
0.0
 47
0.0
 48
0.0
 49
0.0
140
0.0
141
0.0
142
1.0
143
1.0
 70
  1712
 72
     0
 73
     0
 74
     0
  7

 75
     0
147
1.0
 76
     0
 77
     2
 78
   300
148
0.0
149
0.0
100
AcDbLayout
  1
Model
 70
     1
 71
     0
 10
0.0
 20
0.0
 11
12.0
 21
9.0
 12
0.0
 22
0.0
 32
0.0
 14
0.0
 24
0.0
 34
0.0
 15
0.0
 25
0.0
 35
0.0
146
0.0
 13
0.0
 23
0.0
 33
0.0
 16
1.0
 26
0.0
 36
0.0
 17
0.0
 27
1.0
 37
0.0
 76
     0
330
1F
  0
MATERIAL
  5
B3
102
{ACAD_XDICTIONARY
360
B4
102
}
102
{ACAD_REACTORS
330
AA
102
}
330
AA
100
AcDbMaterial
  1
ByBlock
 72
     0
 43
0.0208333333333333
 43
0.0
 43
0.0
 43
0.0
 43
0.0
 43
0.0208333333333333
 43
0.0
 43
0.0
 43
0.0
 43
0.0
 43
1.0
 43
0.0
 43
0.0
 43
0.0
 43
0.0
 43
1.0
 77
     0
 47
0.0208333333333333
 47
0.0
 47
0.0
 47
0.0
 47
0.0
 47
0.0208333333333333
 47
0.0
 47
0.0
 47
0.0
 47
0.0
 47
1.0
 47
0.0
 47
0.0
 47
0.0
 47
0.0
 47
1.0
171
     0
 49
0.0208333333333333
 49
0.0
 49
0.0
 49
0.0
 49
0.0
 49
0.0208333333333333
 49
0.0
 49
0.0
 49
0.0
 49
0.0
 49
1.0
 49
0.0
 49
0.0
 49
0.0
 49
0.0
 49
1.0
175
     0
142
0.0208333333333333
142
0.0
142
0.0
142
0.0
142
0.0
142
0.0208333333333333
142
0.0
142
0.0
142
0.0
142
0.0
142
1.0
142
0.0
142
0.0
142
0.0
142
0.0
142
1.0
179
     0
144
0.0208333333333333
144
0.0
144
0.0
144
0.0
144
0.0
144
0.0208333333333333
144
0.0
144
0.0
144
0.0
144
0.0
144
1.0
144
0.0
144
0.0
144
0.0
144
0.0
144
1.0
147
0.0208333333333333
147
0.0
147
0.0
147
0.0
147
0.0
147
0.0208333333333333
147
0.0
147
0.0
147
0.0
147
0.0
147
1.0
147
0.0
147
0.0
147
0.0
147
0.0
147
1.0
  0
MATERIAL
  5
AB
102
{ACAD_XDICTIONARY
360
AC
102
}
102
{ACAD_REACTORS
330
AA
102
}
330
AA
100
AcDbMaterial
  1
ByLayer
 72
     0
 43
0.0208333333333333
 43
0.0
 43
0.0
 43
0.0
 43
0.0
 43
0.0208333333333333
 43
0.0
 43
0.0
 43
0.0
 43
0.0
 43
1.0
 43
0.0
 43
0.0
 43
0.0
 43
0.0
 43
1.0
 77
     0
 47
0.0208333333333333
 47
0.0
 47
0.0
 47
0.0
 47
0.0
 47
0.0208333333333333
 47
0.0
 47
0.0
 47
0.0
 47
0.0
 47
1.0
 47
0.0
 47
0.0
 47
0.0
 47
0.0
 47
1.0
171
     0
 49
0.0208333333333333
 49
0.0
 49
0.0
 49
0.0
 49
0.0
 49
0.0208333333333333
 49
0.0
 49
0.0
 49
0.0
 49
0.0
 49
1.0
 49
0.0
 49
0.0
 49
0.0
 49
0.0
 49
1.0
175
     0
142
0.0208333333333333
142
0.0
142
0.0
142
0.0
142
0.0
142
0.0208333333333333
142
0.0
142
0.0
142
0.0
142
0.0
142
1.0
142
0.0
142
0.0
142
0.0
142
0.0
142
1.0
179
     0
144
0.0208333333333333
144
0.0
144
0.0
144
0.0
144
0.0
144
0.0208333333333333
144
0.0
144
0.0
144
0.0
144
0.0
144
1.0
144
0.0
144
0.0
144
0.0
144
0.0
144
1.0
147
0.0208333333333333
147
0.0
147
0.0
147
0.0
147
0.0
147
0.0208333333333333
147
0.0
147
0.0
147
0.0
147
0.0
147
1.0
147
0.0
147
0.0
147
0.0
147
0.0
147
1.0
  0
MATERIAL
  5
BB
102
{ACAD_XDICTIONARY
360
BC
102
}
102
{ACAD_REACTORS
330
AA
102
}
330
AA
100
AcDbMaterial
  1
Global
 72
     0
 43
0.0208333333333333
 43
0.0
 43
0.0
 43
0.0
 43
0.0
 43
0.0208333333333333
 43
0.0
 43
0.0
 43
0.0
 43
0.0
 43
1.0
 43
0.0
 43
0.0
 43
0.0
 43
0.0
 43
1.0
 77
     0
 47
0.0208333333333333
 47
0.0
 47
0.0
 47
0.0
 47
0.0
 47
0.0208333333333333
 47
0.0
 47
0.0
 47
0.0
 47
0.0
 47
1.0
 47
0.0
 47
0.0
 47
0.0
 47
0.0
 47
1.0
171
     0
 49
0.0208333333333333
 49
0.0
 49
0.0
 49
0.0
 49
0.0
 49
0.0208333333333333
 49
0.0
 49
0.0
 49
0.0
 49
0.0
 49
1.0
 49
0.0
 49
0.0
 49
0.0
 49
0.0
 49
1.0
175
     0
142
0.0208333333333333
142
0.0
142
0.0
142
0.0
142
0.0
142
0.0208333333333333
142
0.0
142
0.0
142
0.0
142
0.0
142
1.0
142
0.0
142
0.0
142
0.0
142
0.0
142
1.0
179
     0
144
0.0208333333333333
144
0.0
144
0.0
144
0.0
144
0.0
144
0.0208333333333333
144
0.0
144
0.0
144
0.0
144
0.0
144
1.0
144
0.0
144
0.0
144
0.0
144
0.0
144
1.0
147
0.0208333333333333
147
0.0
147
0.0
147
0.0
147
0.0
147
0.0208333333333333
147
0.0
147
0.0
147
0.0
147
0.0
147
1.0
147
0.0
147
0.0
147
0.0
147
0.0
147
1.0
  0
MLEADERSTYLE
  5
F2
102
{ACAD_XDICTIONARY
360
1A5
102
}
102
{ACAD_REACTORS
330
F1
102
}
330
F1
100
AcDbMLeaderStyle
179
     2
170
     2
171
     1
172
     0
 90
        2
 40
0.0
 41
0.0
173
     1
 91
-1056964608
340
14
 92
       -2
290
     1
 42
0.09
291
     1
 43
0.36
  3
Standard
 44
0.18
300

342
11
174
     1
178
     6
175
     1
176
     0
 93
-1056964608
 45
0.18
292
     0
297
     0
 46
0.18
 94
-1056964608
 47
1.0
 49
1.0
140
1.0
293
     1
141
0.0
294
     1
177
     0
142
1.0
295
     0
296
     0
143
0.125
271
     0
272
     9
273
     9
  0
MLINESTYLE
  5
18
102
{ACAD_REACTORS
330
17
102
}
330
17
100
AcDbMlineStyle
  2
STANDARD
 70
     0
  3

 62
   256
 51
90.0
 52
90.0
 71
     2
 49
0.5
 62
   256
  6
BYLAYER
 49
-0.5
 62
   256
  6
BYLAYER
  0
ACDBPLACEHOLDER
  5
2D
102
{ACAD_REACTORS
330
E
102
}
330
E
  0
ACDBPLACEHOLDER
  5
F
102
{ACAD_REACTORS
330
E
102
}
330
E
  0
SCALE
  5
E0
102
{ACAD_REACTORS
330
DF
102
}
330
DF
100
AcDbScale
 70
     0
300
1:1
140
1.0
141
1.0
290
     1
  0
SCALE
  5
E1
102
{ACAD_REACTORS
330
DF
102
}
330
DF
100
AcDbScale
 70
     0
300
1/128" = 1'-0"
140
0.0078125
141
12.0
290
     0
  0
SCALE
  5
E2
102
{ACAD_REACTORS
330
DF
102
}
330
DF
100
AcDbScale
 70
     0
300
1/64" = 1'-0"
140
0.015625
141
12.0
290
     0
  0
SCALE
  5
E3
102
{ACAD_REACTORS
330
DF
102
}
330
DF
100
AcDbScale
 70
     0
300
1/32" = 1'-0"
140
0.03125
141
12.0
290
     0
  0
SCALE
  5
E4
102
{ACAD_REACTORS
330
DF
102
}
330
DF
100
AcDbScale
 70
     0
300
1/16" = 1'-0"
140
0.0625
141
12.0
290
     0
  0
SCALE
  5
E5
102
{ACAD_REACTORS
330
DF
102
}
330
DF
100
AcDbScale
 70
     0
300
3/32" = 1'-0"
140
0.09375
141
12.0
290
     0
  0
SCALE
  5
E6
102
{ACAD_REACTORS
330
DF
102
}
330
DF
100
AcDbScale
 70
     0
300
1/8" = 1'-0"
140
0.125
141
12.0
290
     0
  0
SCALE
  5
E7
102
{ACAD_REACTORS
330
DF
102
}
330
DF
100
AcDbScale
 70
     0
300
3/16" = 1'-0"
140
0.1875
141
12.0
290
     0
  0
SCALE
  5
E8
102
{ACAD_REACTORS
330
DF
102
}
330
DF
100
AcDbScale
 70
     0
300
1/4" = 1'-0"
140
0.25
141
12.0
290
     0
  0
SCALE
  5
E9
102
{ACAD_REACTORS
330
DF
102
}
330
DF
100
AcDbScale
 70
     0
300
3/8" = 1'-0"
140
0.375
141
12.0
290
     0
  0
SCALE
  5
EA
102
{ACAD_REACTORS
330
DF
102
}
330
DF
100
AcDbScale
 70
     0
300
1/2" = 1'-0"
140
0.5
141
12.0
290
     0
  0
SCALE
  5
EB
102
{ACAD_REACTORS
330
DF
102
}
330
DF
100
AcDbScale
 70
     0
300
3/4" = 1'-0"
140
0.75
141
12.0
290
     0
  0
SCALE
  5
EC
102
{ACAD_REACTORS
330
DF
102
}
330
DF
100
AcDbScale
 70
     0
300
1" = 1'-0"
140
1.0
141
12.0
290
     0
  0
SCALE
  5
ED
102
{ACAD_REACTORS
330
DF
102
}
330
DF
100
AcDbScale
 70
     0
300
1-1/2" = 1'-0"
140
1.5
141
12.0
290
     0
  0
SCALE
  5
EE
102
{ACAD_REACTORS
330
DF
102
}
330
DF
100
AcDbScale
 70
     0
300
3" = 1'-0"
140
3.0
141
12.0
290
     0
  0
SCALE
  5
EF
102
{ACAD_REACTORS
330
DF
102
}
330
DF
100
AcDbScale
 70
     0
300
6" = 1'-0"
140
6.0
141
12.0
290
     0
  0
SCALE
  5
F0
102
{ACAD_REACTORS
330
DF
102
}
330
DF
100
AcDbScale
 70
     0
300
1'-0" = 1'-0"
140
12.0
141
12.0
290
     0
  0
ACDBSECTIONVIEWSTYLE
  5
F4
102
{ACAD_XDICTIONARY
360
1A7
102
}
102
{ACAD_REACTORS
330
F3
102
}
330
F3
100
AcDbModelDocViewStyle
 70
     0
  3
Imperial24
290
     0
100
AcDbSectionViewStyle
 70
     0
 71
     0
 90
       78
 71
     1
340
11
 62
   256
 40
0.24
340
0
340
0
 62
   256
 40
0.24
300
I, O, Q, S, X, Z
 40
0.48
 90
        3
 40
0.18
 90
        1
 71
     2
340
16
 90
       25
 62
   256
340
16
 90
       50
 62
   256
 40
0.24
 40
0.0
 40
0.24
 71
     3
340
11
 62
   256
 40
0.24
 90
        1
 40
0.75
 90
        1
300
%<\AcVar ViewType \f "%tc1">% %<\AcVar ViewSectionStartId>%-%<\AcVar ViewSectionEndId>%\PSCALE %<\AcVar ViewScale \f "%sn">%
 71
     4
 62
   256
 62
   257
300
ANSI31
 40
1.0
 90
        0
290
     0
290
     0
 90
        6
 40
0.0
 40
1.570796326794896
 40
0.2617993877991494
 40
1.308996938995747
 40
-0.2617993877991494
 40
1.832595714594046
  0
TABLESTYLE
  5
DE
102
{ACAD_XDICTIONARY
360
172
102
}
102
{ACAD_REACTORS
330
DD
102
}
330
DD
100
AcDbTableStyle
280
     0
  3
Standard
 70
     0
 71
     0
 40
0.06
 41
0.06
280
     0
281
     0
  7
Standard
140
0.18
170
     2
 62
     0
 63
     7
283
     0
 90
      512
 91
        0
  1

274
    -2
284
     1
 64
     0
275
    -2
285
     1
 65
     0
276
    -2
286
     1
 66
     0
277
    -2
287
     1
 67
     0
278
    -2
288
     1
 68
     0
279
    -2
289
     1
 69
     0
  7
Standard
140
0.25
170
     5
 62
     0
 63
     7
283
     0
 90
      512
 91
        0
  1

274
    -2
284
     1
 64
     0
275
    -2
285
     1
 65
     0
276
    -2
286
     1
 66
     0
277
    -2
287
     1
 67
     0
278
    -2
288
     1
 68
     0
279
    -2
289
     1
 69
     0
  7
Standard
140
0.18
170
     5
 62
     0
 63
     7
283
     0
 90
      512
 91
        0
  1

274
    -2
284
     1
 64
     0
275
    -2
285
     1
 65
     0
276
    -2
286
     1
 66
     0
277
    -2
287
     1
 67
     0
278
    -2
288
     1
 68
     0
279
    -2
289
     1
 69
     0
  0
VISUALSTYLE
  5
C9
102
{ACAD_XDICTIONARY
360
17F
102
}
102
{ACAD_REACTORS
330
C3
102
}
330
C3
100
AcDbVisualStyle
  2
2dWireframe
 70
     4
177
     2
291
     0
 71
     0
176
     1
 72
     2
176
     1
 73
     0
176
     1
 90
        0
176
     1
 40
0.6
176
     1
 41
30.0
176
     1
 63
     7
421
 16777215
176
     1
 74
     1
176
     1
 91
        4
176
     1
 64
     7
176
     1
 65
   257
176
     1
 75
     1
176
     1
175
     1
176
     1
 42
1.0
176
     1
 92
        0
176
     1
 66
   257
176
     1
 43
1.0
176
     1
 76
     1
176
     1
 77
     6
176
     1
 78
     2
176
     1
 67
     7
176
     1
 79
     5
176
     1
170
     0
176
     1
171
     0
176
     1
290
     0
176
     1
 93
        1
176
     1
 44
0.0
176
     1
173
     0
176
     1
1001
ACAD
1000
AcDbSavedByObjectVersion
1070
     0
  0
VISUALSTYLE
  5
C8
102
{ACAD_XDICTIONARY
360
17D
102
}
102
{ACAD_REACTORS
330
C3
102
}
330
C3
100
AcDbVisualStyle
  2
Basic
 70
     7
177
     2
291
     1
 71
     1
176
     1
 72
     0
176
     1
 73
     1
176
     1
 90
        0
176
     1
 40
0.6
176
     1
 41
30.0
176
     1
 63
     7
421
 16777215
176
     1
 74
     0
176
     1
 91
        4
176
     1
 64
     7
176
     1
 65
   257
176
     1
 75
     1
176
     1
175
     1
176
     1
 42
1.0
176
     1
 92
        8
176
     1
 66
     7
176
     1
 43
1.0
176
     1
 76
     1
176
     1
 77
     6
176
     1
 78
     2
176
     1
 67
     7
176
     1
 79
     5
176
     1
170
     0
176
     1
171
     0
176
     1
290
     0
176
     1
 93
        1
176
     1
 44
0.0
176
     1
173
     0
176
     1
1001
ACAD
1000
AcDbSavedByObjectVersion
1070
     0
  0
VISUALSTYLE
  5
CF
102
{ACAD_XDICTIONARY
360
18B
102
}
102
{ACAD_REACTORS
330
C3
102
}
330
C3
100
AcDbVisualStyle
  2
Brighten
 70
    12
177
     2
291
     1
 71
     2
176
     1
 72
     2
176
     1
 73
     0
176
     1
 90
        0
176
     1
 40
0.6
176
     1
 41
30.0
176
     1
 63
     7
421
 16777215
176
     1
 74
     1
176
     1
 91
        4
176
     1
 64
     7
176
     1
 65
   257
176
     1
 75
     1
176
     1
175
     1
176
     1
 42
1.0
176
     1
 92
        8
176
     1
 66
     7
176
     1
 43
1.0
176
     1
 76
     1
176
     1
 77
     6
176
     1
 78
     2
176
     1
 67
     7
176
     1
 79
     5
176
     1
170
     0
176
     1
171
     0
176
     1
290
     0
176
     1
 93
        1
176
     1
 44
50.0
176
     1
173
     0
176
     1
1001
ACAD
1000
AcDbSavedByObjectVersion
1070
     0
  0
VISUALSTYLE
  5
D3
102
{ACAD_XDICTIONARY
360
193
102
}
102
{ACAD_REACTORS
330
C3
102
}
330
C3
100
AcDbVisualStyle
  2
ColorChange
 70
    16
177
     2
291
     1
 71
     2
176
     1
 72
     2
176
     1
 73
     3
176
     1
 90
        0
176
     1
 40
0.6
176
     1
 41
30.0
176
     1
 63
     8
421
  8421504
176
     1
 74
     1
176
     1
 91
        4
176
     1
 64
     7
176
     1
 65
   257
176
     1
 75
     1
176
     1
175
     1
176
     1
 42
1.0
176
     1
 92
        8
176
     1
 66
     8
424
  8421504
176
     1
 43
1.0
176
     1
 76
     1
176
     1
 77
     6
176
     1
 78
     2
176
     1
 67
     7
176
     1
 79
     5
176
     1
170
     0
176
     1
171
     0
176
     1
290
     0
176
     1
 93
        1
176
     1
 44
0.0
176
     1
173
     0
176
     1
1001
ACAD
1000
AcDbSavedByObjectVersion
1070
     0
  0
VISUALSTYLE
  5
CC
102
{ACAD_XDICTIONARY
360
185
102
}
102
{ACAD_REACTORS
330
C3
102
}
330
C3
100
AcDbVisualStyle
  2
Conceptual
 70
     9
177
     2
291
     0
 71
     3
176
     1
 72
     2
176
     1
 73
     0
176
     1
 90
        0
176
     1
 40
0.6
176
     1
 41
30.0
176
     1
 63
     7
421
 16777215
176
     1
 74
     2
176
     1
 91
        2
176
     1
 64
     7
176
     1
 65
   257
176
     1
 75
     1
176
     1
175
     1
176
     1
 42
179.0
176
     1
 92
        8
176
     1
 66
     7
176
     1
 43
1.0
176
     1
 76
     1
176
     1
 77
     6
176
     1
 78
     2
176
     1
 67
     7
176
     1
 79
     3
176
     1
170
     0
176
     1
171
     0
176
     1
290
     0
176
     1
 93
        1
176
     1
 44
0.0
176
     1
173
     0
176
     1
1001
ACAD
1000
AcDbSavedByObjectVersion
1070
     0
  0
VISUALSTYLE
  5
CE
102
{ACAD_XDICTIONARY
360
189
102
}
102
{ACAD_REACTORS
330
C3
102
}
330
C3
100
AcDbVisualStyle
  2
Dim
 70
    11
177
     2
291
     1
 71
     2
176
     1
 72
     2
176
     1
 73
     0
176
     1
 90
        0
176
     1
 40
0.6
176
     1
 41
30.0
176
     1
 63
     7
421
 16777215
176
     1
 74
     1
176
     1
 91
        4
176
     1
 64
     7
176
     1
 65
   257
176
     1
 75
     1
176
     1
175
     1
176
     1
 42
1.0
176
     1
 92
        8
176
     1
 66
     7
176
     1
 43
1.0
176
     1
 76
     1
176
     1
 77
     6
176
     1
 78
     2
176
     1
 67
     7
176
     1
 79
     5
176
     1
170
     0
176
     1
171
     0
176
     1
290
     0
176
     1
 93
        1
176
     1
 44
-50.0
176
     1
173
     0
176
     1
1001
ACAD
1000
AcDbSavedByObjectVersion
1070
     0
  0
VISUALSTYLE
  5
DB
102
{ACAD_XDICTIONARY
360
1A3
102
}
102
{ACAD_REACTORS
330
C3
102
}
330
C3
100
AcDbVisualStyle
  2
EdgeColorOff
 70
    22
177
     2
291
     1
 71
     2
176
     0
 72
     2
176
     0
 73
     0
176
     0
 90
        0
176
     0
 40
0.6
176
     0
 41
30.0
176
     0
 63
     7
421
 16777215
176
     0
 74
     1
176
     0
 91
        4
176
     0
 64
     7
176
     0
 65
   257
176
     0
 75
     1
176
     0
175
     1
176
     0
 42
1.0
176
     0
 92
        8
176
     2
 66
     7
176
     0
 43
1.0
176
     0
 76
     1
176
     0
 77
     6
176
     0
 78
     2
176
     0
 67
     7
176
     0
 79
     5
176
     0
170
     0
176
     0
171
     0
176
     0
290
     0
176
     0
 93
        1
176
     0
 44
0.0
176
     0
173
     0
176
     0
1001
ACAD
1000
AcDbSavedByObjectVersion
1070
     0
  0
VISUALSTYLE
  5
D2
102
{ACAD_XDICTIONARY
360
191
102
}
102
{ACAD_REACTORS
330
C3
102
}
330
C3
100
AcDbVisualStyle
  2
Facepattern
 70
    15
177
     2
291
     1
 71
     2
176
     1
 72
     2
176
     1
 73
     0
176
     1
 90
        0
176
     1
 40
0.6
176
     1
 41
30.0
176
     1
 63
     7
421
 16777215
176
     1
 74
     1
176
     1
 91
        4
176
     1
 64
     7
176
     1
 65
   257
176
     1
 75
     1
176
     1
175
     1
176
     1
 42
1.0
176
     1
 92
        8
176
     1
 66
     7
176
     1
 43
1.0
176
     1
 76
     1
176
     1
 77
     6
176
     1
 78
     2
176
     1
 67
     7
176
     1
 79
     5
176
     1
170
     0
176
     1
171
     0
176
     1
290
     0
176
     1
 93
        1
176
     1
 44
0.0
176
     1
173
     0
176
     1
1001
ACAD
1000
AcDbSavedByObjectVersion
1070
     0
  0
VISUALSTYLE
  5
C4
102
{ACAD_XDICTIONARY
360
175
102
}
102
{ACAD_REACTORS
330
C3
102
}
330
C3
100
AcDbVisualStyle
  2
Flat
 70
     0
177
     2
291
     1
 71
     2
176
     1
 72
     1
176
     1
 73
     1
176
     1
 90
        2
176
     1
 40
0.6
176
     1
 41
30.0
176
     1
 63
     7
421
 16777215
176
     1
 74
     0
176
     1
 91
        0
176
     1
 64
     7
176
     1
 65
   257
176
     1
 75
     1
176
     1
175
     1
176
     1
 42
1.0
176
     1
 92
        8
176
     1
 66
     7
176
     1
 43
1.0
176
     1
 76
     1
176
     1
 77
     6
176
     1
 78
     2
176
     1
 67
     7
176
     1
 79
     5
176
     1
170
     0
176
     1
171
     0
176
     1
290
     0
176
     1
 93
       13
176
     1
 44
0.0
176
     1
173
     0
176
     1
1001
ACAD
1000
AcDbSavedByObjectVersion
1070
     0
  0
VISUALSTYLE
  5
C5
102
{ACAD_XDICTIONARY
360
177
102
}
102
{ACAD_REACTORS
330
C3
102
}
330
C3
100
AcDbVisualStyle
  2
FlatWithEdges
 70
     1
177
     2
291
     1
 71
     2
176
     1
 72
     1
176
     1
 73
     1
176
     1
 90
        2
176
     1
 40
0.6
176
     1
 41
30.0
176
     1
 63
     7
421
 16777215
176
     1
 74
     1
176
     1
 91
        0
176
     1
 64
     7
176
     1
 65
   257
176
     1
 75
     1
176
     1
175
     1
176
     1
 42
1.0
176
     1
 92
        0
176
     1
 66
   257
176
     1
 43
1.0
176
     1
 76
     1
176
     1
 77
     6
176
     1
 78
     2
176
     1
 67
     7
176
     1
 79
     5
176
     1
170
     0
176
     1
171
     0
176
     1
290
     0
176
     1
 93
       13
176
     1
 44
0.0
176
     1
173
     0
176
     1
1001
ACAD
1000
AcDbSavedByObjectVersion
1070
     0
  0
VISUALSTYLE
  5
C6
102
{ACAD_XDICTIONARY
360
179
102
}
102
{ACAD_REACTORS
330
C3
102
}
330
C3
100
AcDbVisualStyle
  2
Gouraud
 70
     2
177
     2
291
     1
 71
     2
176
     1
 72
     2
176
     1
 73
     1
176
     1
 90
        2
176
     1
 40
0.6
176
     1
 41
30.0
176
     1
 63
     7
421
 16777215
176
     1
 74
     0
176
     1
 91
        0
176
     1
 64
     7
176
     1
 65
   257
176
     1
 75
     1
176
     1
175
     1
176
     1
 42
1.0
176
     1
 92
        0
176
     1
 66
     7
176
     1
 43
1.0
176
     1
 76
     1
176
     1
 77
     6
176
     1
 78
     2
176
     1
 67
     7
176
     1
 79
     5
176
     1
170
     0
176
     1
171
     0
176
     1
290
     0
176
     1
 93
       13
176
     1
 44
0.0
176
     1
173
     0
176
     1
1001
ACAD
1000
AcDbSavedByObjectVersion
1070
     0
  0
VISUALSTYLE
  5
C7
102
{ACAD_XDICTIONARY
360
17B
102
}
102
{ACAD_REACTORS
330
C3
102
}
330
C3
100
AcDbVisualStyle
  2
GouraudWithEdges
 70
     3
177
     2
291
     1
 71
     2
176
     1
 72
     2
176
     1
 73
     1
176
     1
 90
        2
176
     1
 40
0.6
176
     1
 41
30.0
176
     1
 63
     7
421
 16777215
176
     1
 74
     1
176
     1
 91
        0
176
     1
 64
     7
176
     1
 65
   257
176
     1
 75
     1
176
     1
175
     1
176
     1
 42
1.0
176
     1
 92
        0
176
     1
 66
   257
176
     1
 43
1.0
176
     1
 76
     1
176
     1
 77
     6
176
     1
 78
     2
176
     1
 67
     7
176
     1
 79
     5
176
     1
170
     0
176
     1
171
     0
176
     1
290
     0
176
     1
 93
       13
176
     1
 44
0.0
176
     1
173
     0
176
     1
1001
ACAD
1000
AcDbSavedByObjectVersion
1070
     0
  0
VISUALSTYLE
  5
CB
102
{ACAD_XDICTIONARY
360
183
102
}
102
{ACAD_REACTORS
330
C3
102
}
330
C3
100
AcDbVisualStyle
  2
Hidden
 70
     6
177
     2
291
     0
 71
     1
176
     1
 72
     2
176
     1
 73
     2
176
     1
 90
        0
176
     1
 40
0.6
176
     1
 41
30.0
176
     1
 63
     7
421
 16777215
176
     1
 74
     2
176
     1
 91
        2
176
     1
 64
     7
176
     1
 65
   257
176
     1
 75
     2
176
     1
175
     1
176
     1
 42
40.0
176
     1
 92
        0
176
     1
 66
   257
176
     1
 43
1.0
176
     1
 76
     1
176
     1
 77
     6
176
     1
 78
     2
176
     1
 67
     7
176
     1
 79
     3
176
     1
170
     0
176
     1
171
     0
176
     1
290
     0
176
     1
 93
        1
176
     1
 44
0.0
176
     1
173
     0
176
     1
1001
ACAD
1000
AcDbSavedByObjectVersion
1070
     0
  0
VISUALSTYLE
  5
D9
102
{ACAD_XDICTIONARY
360
19F
102
}
102
{ACAD_REACTORS
330
C3
102
}
330
C3
100
AcDbVisualStyle
  2
JitterOff
 70
    20
177
     2
291
     1
 71
     2
176
     0
 72
     2
176
     0
 73
     0
176
     0
 90
        0
176
     0
 40
0.6
176
     0
 41
30.0
176
     0
 63
     7
421
 16777215
176
     0
 74
     1
176
     0
 91
        4
176
     0
 64
     7
176
     0
 65
   257
176
     0
 75
     1
176
     0
175
     1
176
     0
 42
1.0
176
     0
 92
       10
176
     2
 66
     7
176
     0
 43
1.0
176
     0
 76
     1
176
     0
 77
     6
176
     0
 78
     2
176
     0
 67
     7
176
     0
 79
     5
176
     0
170
     0
176
     0
171
     0
176
     0
290
     0
176
     0
 93
        1
176
     0
 44
0.0
176
     0
173
     0
176
     0
1001
ACAD
1000
AcDbSavedByObjectVersion
1070
     0
  0
VISUALSTYLE
  5
D1
102
{ACAD_XDICTIONARY
360
18F
102
}
102
{ACAD_REACTORS
330
C3
102
}
330
C3
100
AcDbVisualStyle
  2
Linepattern
 70
    14
177
     2
291
     1
 71
     2
176
     1
 72
     2
176
     1
 73
     0
176
     1
 90
        0
176
     1
 40
0.6
176
     1
 41
30.0
176
     1
 63
     7
421
 16777215
176
     1
 74
     1
176
     1
 91
        4
176
     1
 64
     7
176
     1
 65
   257
176
     1
 75
     7
176
     1
175
     7
176
     1
 42
1.0
176
     1
 92
        8
176
     1
 66
     7
176
     1
 43
1.0
176
     1
 76
     1
176
     1
 77
     6
176
     1
 78
     2
176
     1
 67
     7
176
     1
 79
     5
176
     1
170
     0
176
     1
171
     0
176
     1
290
     0
176
     1
 93
        1
176
     1
 44
0.0
176
     1
173
     0
176
     1
1001
ACAD
1000
AcDbSavedByObjectVersion
1070
     0
  0
VISUALSTYLE
  5
DA
102
{ACAD_XDICTIONARY
360
1A1
102
}
102
{ACAD_REACTORS
330
C3
102
}
330
C3
100
AcDbVisualStyle
  2
OverhangOff
 70
    21
177
     2
291
     1
 71
     2
176
     0
 72
     2
176
     0
 73
     0
176
     0
 90
        0
176
     0
 40
0.6
176
     0
 41
30.0
176
     0
 63
     7
421
 16777215
176
     0
 74
     1
176
     0
 91
        4
176
     0
 64
     7
176
     0
 65
   257
176
     0
 75
     1
176
     0
175
     1
176
     0
 42
1.0
176
     0
 92
        9
176
     2
 66
     7
176
     0
 43
1.0
176
     0
 76
     1
176
     0
 77
     6
176
     0
 78
     2
176
     0
 67
     7
176
     0
 79
     5
176
     0
170
     0
176
     0
171
     0
176
     0
290
     0
176
     0
 93
        1
176
     0
 44
0.0
176
     0
173
     0
176
     0
1001
ACAD
1000
AcDbSavedByObjectVersion
1070
     0
  0
VISUALSTYLE
  5
CD
102
{ACAD_XDICTIONARY
360
187
102
}
102
{ACAD_REACTORS
330
C3
102
}
330
C3
100
AcDbVisualStyle
  2
Realistic
 70
     8
177
     2
291
     0
 71
     2
176
     1
 72
     3
176
     1
 73
     0
176
     1
 90
        2
176
     1
 40
0.6
176
     1
 41
30.0
176
     1
 63
     7
421
 16777215
176
     1
 74
     0
176
     1
 91
        0
176
     1
 64
     7
176
     1
 65
   257
176
     1
 75
     1
176
     1
175
     1
176
     1
 42
1.0
176
     1
 92
        8
176
     1
 66
   257
176
     1
 43
1.0
176
     1
 76
     1
176
     1
 77
     6
176
     1
 78
     2
176
     1
 67
     7
176
     1
 79
     3
176
     1
170
     0
176
     1
171
     0
176
     1
290
     0
176
     1
 93
       13
176
     1
 44
0.0
176
     1
173
     0
176
     1
1001
ACAD
1000
AcDbSavedByObjectVersion
1070
     0
  0
VISUALSTYLE
  5
D8
102
{ACAD_XDICTIONARY
360
19D
102
}
102
{ACAD_REACTORS
330
C3
102
}
330
C3
100
AcDbVisualStyle
  2
Shaded
 70
    27
177
     2
291
     0
 71
     2
176
     1
 72
     2
176
     1
 73
     1
176
     1
 90
        2
176
     1
 40
0.6
176
     1
 41
30.0
176
     1
 63
     7
421
 16777215
176
     1
 74
     0
176
     1
 91
        4
176
     1
 64
     7
176
     1
 65
   257
176
     1
 75
     1
176
     1
175
     1
176
     1
 42
1.0
176
     1
 92
        8
176
     1
 66
   257
176
     1
 43
1.0
176
     1
 76
     1
176
     1
 77
     6
176
     1
 78
     2
176
     1
 67
     8
425
  7895160
176
     1
 79
     3
176
     1
170
     0
176
     1
171
     0
176
     1
290
     0
176
     1
 93
        5
176
     1
 44
0.0
176
     1
173
     0
176
     1
1001
ACAD
1000
AcDbSavedByObjectVersion
1070
     0
  0
VISUALSTYLE
  5
D7
102
{ACAD_XDICTIONARY
360
19B
102
}
102
{ACAD_REACTORS
330
C3
102
}
330
C3
100
AcDbVisualStyle
  2
Shaded with edges
 70
    26
177
     2
291
     0
 71
     2
176
     1
 72
     2
176
     1
 73
     1
176
     1
 90
        2
176
     1
 40
0.6
176
     1
 41
30.0
176
     1
 63
     7
421
 16777215
176
     1
 74
     1
176
     1
 91
       10
176
     1
 64
     7
176
     1
 65
   257
176
     1
 75
     2
176
     1
175
     1
176
     1
 42
1.0
176
     1
 92
        8
176
     1
 66
   257
176
     1
 43
1.0
176
     1
 76
     1
176
     1
 77
     6
176
     1
 78
     2
176
     1
 67
     7
176
     1
 79
     3
176
     1
170
     0
176
     1
171
     0
176
     1
290
     0
176
     1
 93
        5
176
     1
 44
0.0
176
     1
173
     0
176
     1
1001
ACAD
1000
AcDbSavedByObjectVersion
1070
     0
  0
VISUALSTYLE
  5
D4
102
{ACAD_XDICTIONARY
360
195
102
}
102
{ACAD_REACTORS
330
C3
102
}
330
C3
100
AcDbVisualStyle
  2
Shades of Gray
 70
    23
177
     2
291
     0
 71
     2
176
     1
 72
     2
176
     1
 73
     3
176
     1
 90
        0
176
     1
 40
0.6
176
     1
 41
30.0
176
     1
 63
     7
421
 16777215
176
     1
 74
     2
176
     1
 91
        2
176
     1
 64
     7
176
     1
 65
     7
176
     1
 75
     1
176
     1
175
     1
176
     1
 42
40.0
176
     1
 92
        8
176
     1
 66
     7
176
     1
 43
1.0
176
     1
 76
     1
176
     1
 77
     6
176
     1
 78
     2
176
     1
 67
     7
176
     1
 79
     3
176
     1
170
     0
176
     1
171
     0
176
     1
290
     0
176
     1
 93
        1
176
     1
 44
0.0
176
     1
173
     0
176
     1
1001
ACAD
1000
AcDbSavedByObjectVersion
1070
     0
  0
VISUALSTYLE
  5
D5
102
{ACAD_XDICTIONARY
360
197
102
}
102
{ACAD_REACTORS
330
C3
102
}
330
C3
100
AcDbVisualStyle
  2
Sketchy
 70
    24
177
     2
291
     0
 71
     1
176
     1
 72
     2
176
     1
 73
     2
176
     1
 90
        0
176
     1
 40
0.6
176
     1
 41
30.0
176
     1
 63
     7
421
 16777215
176
     1
 74
     2
176
     1
 91
        2
176
     1
 64
     7
176
     1
 65
     7
176
     1
 75
     1
176
     1
175
     1
176
     1
 42
40.0
176
     1
 92
       11
176
     1
 66
     7
176
     1
 43
1.0
176
     1
 76
     1
176
     1
 77
     6
176
     1
 78
     2
176
     1
 67
     7
176
     1
 79
     6
176
     1
170
     0
176
     1
171
     0
176
     1
290
     0
176
     1
 93
        1
176
     1
 44
0.0
176
     1
173
     0
176
     1
1001
ACAD
1000
AcDbSavedByObjectVersion
1070
     0
  0
VISUALSTYLE
  5
D0
102
{ACAD_XDICTIONARY
360
18D
102
}
102
{ACAD_REACTORS
330
C3
102
}
330
C3
100
AcDbVisualStyle
  2
Thicken
 70
    13
177
     2
291
     1
 71
     2
176
     1
 72
     2
176
     1
 73
     0
176
     1
 90
        0
176
     1
 40
0.6
176
     1
 41
30.0
176
     1
 63
     7
421
 16777215
176
     1
 74
     1
176
     1
 91
        4
176
     1
 64
     7
176
     1
 65
   257
176
     1
 75
     1
176
     1
175
     1
176
     1
 42
1.0
176
     1
 92
       12
176
     1
 66
     7
176
     1
 43
1.0
176
     1
 76
     1
176
     1
 77
     6
176
     1
 78
     2
176
     1
 67
     7
176
     1
 79
     5
176
     1
170
     0
176
     1
171
     0
176
     1
290
     0
176
     1
 93
        1
176
     1
 44
0.0
176
     1
173
     0
176
     1
1001
ACAD
1000
AcDbSavedByObjectVersion
1070
     0
  0
VISUALSTYLE
  5
CA
102
{ACAD_XDICTIONARY
360
181
102
}
102
{ACAD_REACTORS
330
C3
102
}
330
C3
100
AcDbVisualStyle
  2
Wireframe
 70
     5
177
     2
291
     0
 71
     0
176
     1
 72
     2
176
     1
 73
     0
176
     1
 90
        0
176
     1
 40
0.6
176
     1
 41
30.0
176
     1
 63
     7
421
 16777215
176
     1
 74
     1
176
     1
 91
        4
176
     1
 64
     7
176
     1
 65
   257
176
     1
 75
     1
176
     1
175
     1
176
     1
 42
1.0
176
     1
 92
        0
176
     1
 66
   257
176
     1
 43
1.0
176
     1
 76
     1
176
     1
 77
     6
176
     1
 78
     2
176
     1
 67
     7
176
     1
 79
     3
176
     1
170
     0
176
     1
171
     0
176
     1
290
     0
176
     1
 93
        1
176
     1
 44
0.0
176
     1
173
     0
176
     1
1001
ACAD
1000
AcDbSavedByObjectVersion
1070
     0
  0
VISUALSTYLE
  5
D6
102
{ACAD_XDICTIONARY
360
199
102
}
102
{ACAD_REACTORS
330
C3
102
}
330
C3
100
AcDbVisualStyle
  2
X-Ray
 70
    25
177
     2
291
     0
 71
     2
176
     1
 72
     2
176
     1
 73
     1
176
     1
 90
        1
176
     1
 40
0.5
176
     1
 41
30.0
176
     1
 63
     7
421
 16777215
176
     1
 74
     1
176
     1
 91
        0
176
     1
 64
     7
176
     1
 65
   257
176
     1
 75
     1
176
     1
175
     1
176
     1
 42
1.0
176
     1
 92
        8
176
     1
 66
     7
176
     1
 43
1.0
176
     1
 76
     1
176
     1
 77
     6
176
     1
 78
     2
176
     1
 67
     7
176
     1
 79
     3
176
     1
170
     0
176
     1
171
     0
176
     1
290
     0
176
     1
 93
       13
176
     1
 44
0.0
176
     1
173
     0
176
     1
1001
ACAD
1000
AcDbSavedByObjectVersion
1070
     0
  0
DICTIONARYVAR
  5
16E
102
{ACAD_REACTORS
330
168
102
}
330
168
100
DictionaryVariables
280
     0
  1
1:1
  0
DICTIONARYVAR
  5
16A
102
{ACAD_REACTORS
330
168
102
}
330
168
100
DictionaryVariables
280
     0
  1
STANDARD
  0
DICTIONARYVAR
  5
169
102
{ACAD_REACTORS
330
168
102
}
330
168
100
DictionaryVariables
280
     0
  1
STANDARD
  0
DICTIONARYVAR
  5
16B
102
{ACAD_REACTORS
330
168
102
}
330
168
100
DictionaryVariables
280
     0
  1
Imperial24
  0
DICTIONARYVAR
  5
16C
102
{ACAD_REACTORS
330
168
102
}
330
168
100
DictionaryVariables
280
     0
  1
Imperial24
  0
DICTIONARYVAR
  5
170
102
{ACAD_REACTORS
330
168
102
}
330
168
100
DictionaryVariables
280
     0
  1
1
  0
DICTIONARYVAR
  5
171
102
{ACAD_REACTORS
330
168
102
}
330
168
100
DictionaryVariables
280
     0
  1
15
  0
DICTIONARYVAR
  5
16F
102
{ACAD_REACTORS
330
168
102
}
330
168
100
DictionaryVariables
280
     0
  1
0
  0
DICTIONARYVAR
  5
16D
102
{ACAD_REACTORS
330
168
102
}
330
168
100
DictionaryVariables
280
     0
  1
0
  0
DICTIONARY
  5
1A9
330
F6
100
AcDbDictionary
280
     1
281
     1
  3
ACAD_XREC_ROUNDTRIP
360
1AA
  0
DICTIONARY
  5
B4
330
B3
100
AcDbDictionary
280
     1
281
     1
  3
BUMPTILE
360
B6
  3
DIFFUSETILE
360
B5
  3
OPACITYTILE
360
B9
  3
REFLECTIONTILE
360
B8
  3
REFRACTIONTILE
360
BA
  3
SPECULARTILE
360
B7
  0
DICTIONARY
  5
AC
330
AB
100
AcDbDictionary
280
     1
281
     1
  3
BUMPTILE
360
AE
  3
DIFFUSETILE
360
AD
  3
OPACITYTILE
360
B1
  3
REFLECTIONTILE
360
B0
  3
REFRACTIONTILE
360
B2
  3
SPECULARTILE
360
AF
  0
DICTIONARY
  5
BC
330
BB
100
AcDbDictionary
280
     1
281
     1
  3
BUMPTILE
360
BE
  3
DIFFUSETILE
360
BD
  3
OPACITYTILE
360
C1
  3
REFLECTIONTILE
360
C0
  3
REFRACTIONTILE
360
C2
  3
SPECULARTILE
360
BF
  0
DICTIONARY
  5
1A5
330
F2
100
AcDbDictionary
280
     1
281
     1
  3
ACAD_XREC_ROUNDTRIP
360
1A6
  0
DICTIONARY
  5
1A7
330
F4
100
AcDbDictionary
280
     1
281
     1
  3
ACAD_XREC_ROUNDTRIP
360
1A8
  0
DICTIONARY
  5
172
330
DE
100
AcDbDictionary
280
     1
281
     1
  3
ACAD_ROUNDTRIP_2008_TABLESTYLE_CELLSTYLEMAP
360
173
  0
DICTIONARY
  5
17F
330
C9
100
AcDbDictionary
280
     1
281
     1
  3
ACAD_XREC_ROUNDTRIP
360
180
  0
DICTIONARY
  5
17D
330
C8
100
AcDbDictionary
280
     1
281
     1
  3
ACAD_XREC_ROUNDTRIP
360
17E
  0
DICTIONARY
  5
18B
330
CF
100
AcDbDictionary
280
     1
281
     1
  3
ACAD_XREC_ROUNDTRIP
360
18C
  0
DICTIONARY
  5
193
330
D3
100
AcDbDictionary
280
     1
281
     1
  3
ACAD_XREC_ROUNDTRIP
360
194
  0
DICTIONARY
  5
185
330
CC
100
AcDbDictionary
280
     1
281
     1
  3
ACAD_XREC_ROUNDTRIP
360
186
  0
DICTIONARY
  5
189
330
CE
100
AcDbDictionary
280
     1
281
     1
  3
ACAD_XREC_ROUNDTRIP
360
18A
  0
DICTIONARY
  5
1A3
330
DB
100
AcDbDictionary
280
     1
281
     1
  3
ACAD_XREC_ROUNDTRIP
360
1A4
  0
DICTIONARY
  5
191
330
D2
100
AcDbDictionary
280
     1
281
     1
  3
ACAD_XREC_ROUNDTRIP
360
192
  0
DICTIONARY
  5
175
330
C4
100
AcDbDictionary
280
     1
281
     1
  3
ACAD_XREC_ROUNDTRIP
360
176
  0
DICTIONARY
  5
177
330
C5
100
AcDbDictionary
280
     1
281
     1
  3
ACAD_XREC_ROUNDTRIP
360
178
  0
DICTIONARY
  5
179
330
C6
100
AcDbDictionary
280
     1
281
     1
  3
ACAD_XREC_ROUNDTRIP
360
17A
  0
DICTIONARY
  5
17B
330
C7
100
AcDbDictionary
280
     1
281
     1
  3
ACAD_XREC_ROUNDTRIP
360
17C
  0
DICTIONARY
  5
183
330
CB
100
AcDbDictionary
280
     1
281
     1
  3
ACAD_XREC_ROUNDTRIP
360
184
  0
DICTIONARY
  5
19F
330
D9
100
AcDbDictionary
280
     1
281
     1
  3
ACAD_XREC_ROUNDTRIP
360
1A0
  0
DICTIONARY
  5
18F
330
D1
100
AcDbDictionary
280
     1
281
     1
  3
ACAD_XREC_ROUNDTRIP
360
190
  0
DICTIONARY
  5
1A1
330
DA
100
AcDbDictionary
280
     1
281
     1
  3
ACAD_XREC_ROUNDTRIP
360
1A2
  0
DICTIONARY
  5
187
330
CD
100
AcDbDictionary
280
     1
281
     1
  3
ACAD_XREC_ROUNDTRIP
360
188
  0
DICTIONARY
  5
19D
330
D8
100
AcDbDictionary
280
     1
281
     1
  3
ACAD_XREC_ROUNDTRIP
360
19E
  0
DICTIONARY
  5
19B
330
D7
100
AcDbDictionary
280
     1
281
     1
  3
ACAD_XREC_ROUNDTRIP
360
19C
  0
DICTIONARY
  5
195
330
D4
100
AcDbDictionary
280
     1
281
     1
  3
ACAD_XREC_ROUNDTRIP
360
196
  0
DICTIONARY
  5
197
330
D5
100
AcDbDictionary
280
     1
281
     1
  3
ACAD_XREC_ROUNDTRIP
360
198
  0
DICTIONARY
  5
18D
330
D0
100
AcDbDictionary
280
     1
281
     1
  3
ACAD_XREC_ROUNDTRIP
360
18E
  0
DICTIONARY
  5
181
330
CA
100
AcDbDictionary
280
     1
281
     1
  3
ACAD_XREC_ROUNDTRIP
360
182
  0
DICTIONARY
  5
199
330
D6
100
AcDbDictionary
280
     1
281
     1
  3
ACAD_XREC_ROUNDTRIP
360
19A
  0
XRECORD
  5
1AA
102
{ACAD_REACTORS
330
1A9
102
}
330
1A9
100
AcDbXrecord
280
     1
102
DISPLAYNAME
  1
Imperial24
102
FLAGS
 90
        0
  0
XRECORD
  5
B6
102
{ACAD_REACTORS
330
B4
102
}
330
B4
100
AcDbXrecord
280
     1
270
     1
271
     1
  0
XRECORD
  5
B5
102
{ACAD_REACTORS
330
B4
102
}
330
B4
100
AcDbXrecord
280
     1
270
     1
271
     1
  0
XRECORD
  5
B9
102
{ACAD_REACTORS
330
B4
102
}
330
B4
100
AcDbXrecord
280
     1
270
     1
271
     1
  0
XRECORD
  5
B8
102
{ACAD_REACTORS
330
B4
102
}
330
B4
100
AcDbXrecord
280
     1
270
     1
271
     1
  0
XRECORD
  5
BA
102
{ACAD_REACTORS
330
B4
102
}
330
B4
100
AcDbXrecord
280
     1
270
     1
271
     1
  0
XRECORD
  5
B7
102
{ACAD_REACTORS
330
B4
102
}
330
B4
100
AcDbXrecord
280
     1
270
     1
271
     1
  0
XRECORD
  5
AE
102
{ACAD_REACTORS
330
AC
102
}
330
AC
100
AcDbXrecord
280
     1
270
     1
271
     1
  0
XRECORD
  5
AD
102
{ACAD_REACTORS
330
AC
102
}
330
AC
100
AcDbXrecord
280
     1
270
     1
271
     1
  0
XRECORD
  5
B1
102
{ACAD_REACTORS
330
AC
102
}
330
AC
100
AcDbXrecord
280
     1
270
     1
271
     1
  0
XRECORD
  5
B0
102
{ACAD_REACTORS
330
AC
102
}
330
AC
100
AcDbXrecord
280
     1
270
     1
271
     1
  0
XRECORD
  5
B2
102
{ACAD_REACTORS
330
AC
102
}
330
AC
100
AcDbXrecord
280
     1
270
     1
271
     1
  0
XRECORD
  5
AF
102
{ACAD_REACTORS
330
AC
102
}
330
AC
100
AcDbXrecord
280
     1
270
     1
271
     1
  0
XRECORD
  5
BE
102
{ACAD_REACTORS
330
BC
102
}
330
BC
100
AcDbXrecord
280
     1
270
     1
271
     1
  0
XRECORD
  5
BD
102
{ACAD_REACTORS
330
BC
102
}
330
BC
100
AcDbXrecord
280
     1
270
     1
271
     1
  0
XRECORD
  5
C1
102
{ACAD_REACTORS
330
BC
102
}
330
BC
100
AcDbXrecord
280
     1
270
     1
271
     1
  0
XRECORD
  5
C0
102
{ACAD_REACTORS
330
BC
102
}
330
BC
100
AcDbXrecord
280
     1
270
     1
271
     1
  0
XRECORD
  5
C2
102
{ACAD_REACTORS
330
BC
102
}
330
BC
100
AcDbXrecord
280
     1
270
     1
271
     1
  0
XRECORD
  5
BF
102
{ACAD_REACTORS
330
BC
102
}
330
BC
100
AcDbXrecord
280
     1
270
     1
271
     1
  0
XRECORD
  5
1A6
102
{ACAD_REACTORS
330
1A5
102
}
330
1A5
100
AcDbXrecord
280
     1
102
ACAD_ROUNDTRIP_2012_MLEADER_STYLE
298
     1
  0
XRECORD
  5
1A8
102
{ACAD_REACTORS
330
1A7
102
}
330
1A7
100
AcDbXrecord
280
     1
102
DISPLAYNAME
  1
Imperial24
102
FLAGS
 90
        0
  0
CELLSTYLEMAP
  5
173
102
{ACAD_REACTORS
330
172
102
}
330
172
100
AcDbCellStyleMap
 90
        3
300
CELLSTYLE
  1
TABLEFORMAT_BEGIN
 90
        5
170
     1
 91
        0
 92
    32768
 62
   257
 93
        1
300
CONTENTFORMAT
  1
CONTENTFORMAT_BEGIN
 90
        0
 91
        0
 92
      512
 93
        0
300

 40
0.0
140
1.0
 94
        5
 62
     0
340
11
144
0.25
309
CONTENTFORMAT_END
171
     0
 94
        0
309
TABLEFORMAT_END
  1
CELLSTYLE_BEGIN
 90
        1
 91
        1
300
_TITLE
309
CELLSTYLE_END
300
CELLSTYLE
  1
TABLEFORMAT_BEGIN
 90
        5
170
     1
 91
        0
 92
        0
 62
   257
 93
        1
300
CONTENTFORMAT
  1
CONTENTFORMAT_BEGIN
 90
        0
 91
        0
 92
      512
 93
        0
300

 40
0.0
140
1.0
 94
        5
 62
     0
340
11
144
0.18
309
CONTENTFORMAT_END
171
     0
 94
        0
309
TABLEFORMAT_END
  1
CELLSTYLE_BEGIN
 90
        2
 91
        1
300
_HEADER
309
CELLSTYLE_END
300
CELLSTYLE
  1
TABLEFORMAT_BEGIN
 90
        5
170
     1
 91
        0
 92
        0
 62
   257
 93
        1
300
CONTENTFORMAT
  1
CONTENTFORMAT_BEGIN
 90
        0
 91
        0
 92
      512
 93
        0
300

 40
0.0
140
1.0
 94
        2
 62
     0
340
11
144
0.18
309
CONTENTFORMAT_END
171
     0
 94
        0
309
TABLEFORMAT_END
  1
CELLSTYLE_BEGIN
 90
        3
 91
        2
300
_DATA
309
CELLSTYLE_END
  0
XRECORD
  5
180
102
{ACAD_REACTORS
330
17F
102
}
330
17F
100
AcDbXrecord
280
     1
102
RTVSPost2010Prop28
280
     1
102
RTVSPost2010PropOp28
 70
     1
102
RTVSPost2010Prop29
280
     1
102
RTVSPost2010PropOp29
 70
     1
102
RTVSPost2010Prop30
280
     0
102
RTVSPost2010PropOp30
 70
     1
102
RTVSPost2010Prop31
280
     0
102
RTVSPost2010PropOp31
 70
     1
102
RTVSPost2010Prop32
280
     0
102
RTVSPost2010PropOp32
 70
     1
102
RTVSPost2010Prop33
280
     0
102
RTVSPost2010PropOp33
 70
     1
102
RTVSPost2010Prop34
280
     0
102
RTVSPost2010PropOp34
 70
     1
102
RTVSPost2010Prop35
280
     0
102
RTVSPost2010PropOp35
 70
     1
102
RTVSPost2010Prop36
280
     0
102
RTVSPost2010PropOp36
 70
     1
102
RTVSPost2010Prop37
 90
       50
102
RTVSPost2010PropOp37
 70
     1
102
RTVSPost2010Prop38
140
0.0
102
RTVSPost2010PropOp38
 70
     1
102
RTVSPost2010Prop39
140
1.0
102
RTVSPost2010PropOp39
 70
     1
102
RTVSPost2010Prop40
 90
        0
102
RTVSPost2010PropOp40
 70
     1
102
RTVSPost2010Prop41ColorIndex
 90
       18
102
RTVSPost2010Prop41ColorRGB
 90
        0
102
RTVSPost2010PropOp41
 70
     1
102
RTVSPost2010Prop42
 90
       50
102
RTVSPost2010PropOp42
 70
     1
102
RTVSPost2010Prop43
 90
        3
102
RTVSPost2010PropOp43
 70
     1
102
RTVSPost2010Prop44ColorIndex
 90
        5
102
RTVSPost2010Prop44ColorRGB
 90
      255
102
RTVSPost2010PropOp44
 70
     1
102
RTVSPost2010Prop45
280
     0
102
RTVSPost2010PropOp45
 70
     1
102
RTVSPost2010Prop46
 90
       50
102
RTVSPost2010PropOp46
 70
     1
102
RTVSPost2010Prop47
 90
       50
102
RTVSPost2010PropOp47
 70
     1
102
RTVSPost2010Prop48
 90
       50
102
RTVSPost2010PropOp48
 70
     1
102
RTVSPost2010Prop49
280
     0
102
RTVSPost2010PropOp49
 70
     1
102
RTVSPost2010Prop50
 90
       50
102
RTVSPost2010PropOp50
 70
     1
102
RTVSPost2010Prop51ColorIndex
 90
      256
102
RTVSPost2010Prop51ColorRGB
 90
-16777216
102
RTVSPost2010PropOp51
 70
     0
102
RTVSPost2010Prop52
140
1.0
102
RTVSPost2010PropOp52
 70
     0
102
RTVSPost2010Prop53
 90
        2
102
RTVSPost2010PropOp53
 70
     1
102
RTVSPost2010Prop54
  1
strokes_ogs.tif
102
RTVSPost2010PropOp54
 70
     1
102
RTVSPost2010Prop55
280
     0
102
RTVSPost2010PropOp55
 70
     1
102
RTVSPost2010Prop56
140
1.0
102
RTVSPost2010PropOp56
 70
     1
102
RTVSPost2010Prop57
140
1.0
102
RTVSPost2010PropOp57
 70
     1
  0
XRECORD
  5
17E
102
{ACAD_REACTORS
330
17D
102
}
330
17D
100
AcDbXrecord
280
     1
102
RTVSPost2010Prop28
280
     0
102
RTVSPost2010PropOp28
 70
     1
102
RTVSPost2010Prop29
280
     1
102
RTVSPost2010PropOp29
 70
     1
102
RTVSPost2010Prop30
280
     1
102
RTVSPost2010PropOp30
 70
     1
102
RTVSPost2010Prop31
280
     0
102
RTVSPost2010PropOp31
 70
     1
102
RTVSPost2010Prop32
280
     0
102
RTVSPost2010PropOp32
 70
     1
102
RTVSPost2010Prop33
280
     0
102
RTVSPost2010PropOp33
 70
     1
102
RTVSPost2010Prop34
280
     0
102
RTVSPost2010PropOp34
 70
     1
102
RTVSPost2010Prop35
280
     0
102
RTVSPost2010PropOp35
 70
     1
102
RTVSPost2010Prop36
280
     0
102
RTVSPost2010PropOp36
 70
     1
102
RTVSPost2010Prop37
 90
       50
102
RTVSPost2010PropOp37
 70
     1
102
RTVSPost2010Prop38
140
0.0
102
RTVSPost2010PropOp38
 70
     1
102
RTVSPost2010Prop39
140
1.0
102
RTVSPost2010PropOp39
 70
     1
102
RTVSPost2010Prop40
 90
        0
102
RTVSPost2010PropOp40
 70
     1
102
RTVSPost2010Prop41ColorIndex
 90
       18
102
RTVSPost2010Prop41ColorRGB
 90
        0
102
RTVSPost2010PropOp41
 70
     1
102
RTVSPost2010Prop42
 90
       50
102
RTVSPost2010PropOp42
 70
     1
102
RTVSPost2010Prop43
 90
        3
102
RTVSPost2010PropOp43
 70
     1
102
RTVSPost2010Prop44ColorIndex
 90
        5
102
RTVSPost2010Prop44ColorRGB
 90
      255
102
RTVSPost2010PropOp44
 70
     1
102
RTVSPost2010Prop45
280
     0
102
RTVSPost2010PropOp45
 70
     1
102
RTVSPost2010Prop46
 90
       50
102
RTVSPost2010PropOp46
 70
     1
102
RTVSPost2010Prop47
 90
       50
102
RTVSPost2010PropOp47
 70
     1
102
RTVSPost2010Prop48
 90
       50
102
RTVSPost2010PropOp48
 70
     1
102
RTVSPost2010Prop49
280
     0
102
RTVSPost2010PropOp49
 70
     1
102
RTVSPost2010Prop50
 90
       50
102
RTVSPost2010PropOp50
 70
     1
102
RTVSPost2010Prop51ColorIndex
 90
      256
102
RTVSPost2010Prop51ColorRGB
 90
-16777216
102
RTVSPost2010PropOp51
 70
     0
102
RTVSPost2010Prop52
140
1.0
102
RTVSPost2010PropOp52
 70
     0
102
RTVSPost2010Prop53
 90
        2
102
RTVSPost2010PropOp53
 70
     1
102
RTVSPost2010Prop54
  1
strokes_ogs.tif
102
RTVSPost2010PropOp54
 70
     1
102
RTVSPost2010Prop55
280
     0
102
RTVSPost2010PropOp55
 70
     1
102
RTVSPost2010Prop56
140
1.0
102
RTVSPost2010PropOp56
 70
     1
102
RTVSPost2010Prop57
140
1.0
102
RTVSPost2010PropOp57
 70
     1
  0
XRECORD
  5
18C
102
{ACAD_REACTORS
330
18B
102
}
330
18B
100
AcDbXrecord
280
     1
102
RTVSPost2010Prop28
280
     0
102
RTVSPost2010PropOp28
 70
     1
102
RTVSPost2010Prop29
280
     1
102
RTVSPost2010PropOp29
 70
     1
102
RTVSPost2010Prop30
280
     1
102
RTVSPost2010PropOp30
 70
     1
102
RTVSPost2010Prop31
280
     0
102
RTVSPost2010PropOp31
 70
     1
102
RTVSPost2010Prop32
280
     0
102
RTVSPost2010PropOp32
 70
     1
102
RTVSPost2010Prop33
280
     0
102
RTVSPost2010PropOp33
 70
     1
102
RTVSPost2010Prop34
280
     0
102
RTVSPost2010PropOp34
 70
     1
102
RTVSPost2010Prop35
280
     0
102
RTVSPost2010PropOp35
 70
     1
102
RTVSPost2010Prop36
280
     0
102
RTVSPost2010PropOp36
 70
     1
102
RTVSPost2010Prop37
 90
       50
102
RTVSPost2010PropOp37
 70
     1
102
RTVSPost2010Prop38
140
0.0
102
RTVSPost2010PropOp38
 70
     1
102
RTVSPost2010Prop39
140
1.0
102
RTVSPost2010PropOp39
 70
     1
102
RTVSPost2010Prop40
 90
        0
102
RTVSPost2010PropOp40
 70
     1
102
RTVSPost2010Prop41ColorIndex
 90
       18
102
RTVSPost2010Prop41ColorRGB
 90
        0
102
RTVSPost2010PropOp41
 70
     1
102
RTVSPost2010Prop42
 90
       50
102
RTVSPost2010PropOp42
 70
     1
102
RTVSPost2010Prop43
 90
        3
102
RTVSPost2010PropOp43
 70
     1
102
RTVSPost2010Prop44ColorIndex
 90
        5
102
RTVSPost2010Prop44ColorRGB
 90
      255
102
RTVSPost2010PropOp44
 70
     1
102
RTVSPost2010Prop45
280
     0
102
RTVSPost2010PropOp45
 70
     1
102
RTVSPost2010Prop46
 90
       50
102
RTVSPost2010PropOp46
 70
     1
102
RTVSPost2010Prop47
 90
       50
102
RTVSPost2010PropOp47
 70
     1
102
RTVSPost2010Prop48
 90
       50
102
RTVSPost2010PropOp48
 70
     1
102
RTVSPost2010Prop49
280
     0
102
RTVSPost2010PropOp49
 70
     1
102
RTVSPost2010Prop50
 90
       50
102
RTVSPost2010PropOp50
 70
     1
102
RTVSPost2010Prop51ColorIndex
 90
      256
102
RTVSPost2010Prop51ColorRGB
 90
-16777216
102
RTVSPost2010PropOp51
 70
     0
102
RTVSPost2010Prop52
140
1.0
102
RTVSPost2010PropOp52
 70
     0
102
RTVSPost2010Prop53
 90
        2
102
RTVSPost2010PropOp53
 70
     1
102
RTVSPost2010Prop54
  1
strokes_ogs.tif
102
RTVSPost2010PropOp54
 70
     1
102
RTVSPost2010Prop55
280
     0
102
RTVSPost2010PropOp55
 70
     1
102
RTVSPost2010Prop56
140
1.0
102
RTVSPost2010PropOp56
 70
     1
102
RTVSPost2010Prop57
140
1.0
102
RTVSPost2010PropOp57
 70
     1
  0
XRECORD
  5
194
102
{ACAD_REACTORS
330
193
102
}
330
193
100
AcDbXrecord
280
     1
102
RTVSPost2010Prop28
280
     0
102
RTVSPost2010PropOp28
 70
     1
102
RTVSPost2010Prop29
280
     1
102
RTVSPost2010PropOp29
 70
     1
102
RTVSPost2010Prop30
280
     1
102
RTVSPost2010PropOp30
 70
     1
102
RTVSPost2010Prop31
280
     0
102
RTVSPost2010PropOp31
 70
     1
102
RTVSPost2010Prop32
280
     0
102
RTVSPost2010PropOp32
 70
     1
102
RTVSPost2010Prop33
280
     0
102
RTVSPost2010PropOp33
 70
     1
102
RTVSPost2010Prop34
280
     0
102
RTVSPost2010PropOp34
 70
     1
102
RTVSPost2010Prop35
280
     0
102
RTVSPost2010PropOp35
 70
     1
102
RTVSPost2010Prop36
280
     0
102
RTVSPost2010PropOp36
 70
     1
102
RTVSPost2010Prop37
 90
       50
102
RTVSPost2010PropOp37
 70
     1
102
RTVSPost2010Prop38
140
0.0
102
RTVSPost2010PropOp38
 70
     1
102
RTVSPost2010Prop39
140
1.0
102
RTVSPost2010PropOp39
 70
     1
102
RTVSPost2010Prop40
 90
        0
102
RTVSPost2010PropOp40
 70
     1
102
RTVSPost2010Prop41ColorIndex
 90
       18
102
RTVSPost2010Prop41ColorRGB
 90
        0
102
RTVSPost2010PropOp41
 70
     1
102
RTVSPost2010Prop42
 90
       50
102
RTVSPost2010PropOp42
 70
     1
102
RTVSPost2010Prop43
 90
        3
102
RTVSPost2010PropOp43
 70
     1
102
RTVSPost2010Prop44ColorIndex
 90
        5
102
RTVSPost2010Prop44ColorRGB
 90
      255
102
RTVSPost2010PropOp44
 70
     1
102
RTVSPost2010Prop45
280
     0
102
RTVSPost2010PropOp45
 70
     1
102
RTVSPost2010Prop46
 90
       50
102
RTVSPost2010PropOp46
 70
     1
102
RTVSPost2010Prop47
 90
       50
102
RTVSPost2010PropOp47
 70
     1
102
RTVSPost2010Prop48
 90
       50
102
RTVSPost2010PropOp48
 70
     1
102
RTVSPost2010Prop49
280
     0
102
RTVSPost2010PropOp49
 70
     1
102
RTVSPost2010Prop50
 90
       50
102
RTVSPost2010PropOp50
 70
     1
102
RTVSPost2010Prop51ColorIndex
 90
      256
102
RTVSPost2010Prop51ColorRGB
 90
-16777216
102
RTVSPost2010PropOp51
 70
     0
102
RTVSPost2010Prop52
140
1.0
102
RTVSPost2010PropOp52
 70
     0
102
RTVSPost2010Prop53
 90
        2
102
RTVSPost2010PropOp53
 70
     1
102
RTVSPost2010Prop54
  1
strokes_ogs.tif
102
RTVSPost2010PropOp54
 70
     1
102
RTVSPost2010Prop55
280
     0
102
RTVSPost2010PropOp55
 70
     1
102
RTVSPost2010Prop56
140
1.0
102
RTVSPost2010PropOp56
 70
     1
102
RTVSPost2010Prop57
140
1.0
102
RTVSPost2010PropOp57
 70
     1
  0
XRECORD
  5
186
102
{ACAD_REACTORS
330
185
102
}
330
185
100
AcDbXrecord
280
     1
102
RTVSPost2010Prop28
280
     0
102
RTVSPost2010PropOp28
 70
     1
102
RTVSPost2010Prop29
280
     1
102
RTVSPost2010PropOp29
 70
     1
102
RTVSPost2010Prop30
280
     1
102
RTVSPost2010PropOp30
 70
     1
102
RTVSPost2010Prop31
280
     0
102
RTVSPost2010PropOp31
 70
     1
102
RTVSPost2010Prop32
280
     0
102
RTVSPost2010PropOp32
 70
     1
102
RTVSPost2010Prop33
280
     0
102
RTVSPost2010PropOp33
 70
     1
102
RTVSPost2010Prop34
280
     0
102
RTVSPost2010PropOp34
 70
     1
102
RTVSPost2010Prop35
280
     0
102
RTVSPost2010PropOp35
 70
     1
102
RTVSPost2010Prop36
280
     0
102
RTVSPost2010PropOp36
 70
     1
102
RTVSPost2010Prop37
 90
       50
102
RTVSPost2010PropOp37
 70
     1
102
RTVSPost2010Prop38
140
0.0
102
RTVSPost2010PropOp38
 70
     1
102
RTVSPost2010Prop39
140
1.0
102
RTVSPost2010PropOp39
 70
     1
102
RTVSPost2010Prop40
 90
        0
102
RTVSPost2010PropOp40
 70
     1
102
RTVSPost2010Prop41ColorIndex
 90
       18
102
RTVSPost2010Prop41ColorRGB
 90
        0
102
RTVSPost2010PropOp41
 70
     1
102
RTVSPost2010Prop42
 90
       50
102
RTVSPost2010PropOp42
 70
     1
102
RTVSPost2010Prop43
 90
        3
102
RTVSPost2010PropOp43
 70
     1
102
RTVSPost2010Prop44ColorIndex
 90
        5
102
RTVSPost2010Prop44ColorRGB
 90
      255
102
RTVSPost2010PropOp44
 70
     1
102
RTVSPost2010Prop45
280
     0
102
RTVSPost2010PropOp45
 70
     1
102
RTVSPost2010Prop46
 90
       50
102
RTVSPost2010PropOp46
 70
     1
102
RTVSPost2010Prop47
 90
       50
102
RTVSPost2010PropOp47
 70
     1
102
RTVSPost2010Prop48
 90
       50
102
RTVSPost2010PropOp48
 70
     1
102
RTVSPost2010Prop49
280
     0
102
RTVSPost2010PropOp49
 70
     1
102
RTVSPost2010Prop50
 90
       50
102
RTVSPost2010PropOp50
 70
     1
102
RTVSPost2010Prop51ColorIndex
 90
      256
102
RTVSPost2010Prop51ColorRGB
 90
-16777216
102
RTVSPost2010PropOp51
 70
     0
102
RTVSPost2010Prop52
140
1.0
102
RTVSPost2010PropOp52
 70
     0
102
RTVSPost2010Prop53
 90
        2
102
RTVSPost2010PropOp53
 70
     1
102
RTVSPost2010Prop54
  1
strokes_ogs.tif
102
RTVSPost2010PropOp54
 70
     1
102
RTVSPost2010Prop55
280
     0
102
RTVSPost2010PropOp55
 70
     1
102
RTVSPost2010Prop56
140
1.0
102
RTVSPost2010PropOp56
 70
     1
102
RTVSPost2010Prop57
140
1.0
102
RTVSPost2010PropOp57
 70
     1
  0
XRECORD
  5
18A
102
{ACAD_REACTORS
330
189
102
}
330
189
100
AcDbXrecord
280
     1
102
RTVSPost2010Prop28
280
     0
102
RTVSPost2010PropOp28
 70
     1
102
RTVSPost2010Prop29
280
     1
102
RTVSPost2010PropOp29
 70
     1
102
RTVSPost2010Prop30
280
     1
102
RTVSPost2010PropOp30
 70
     1
102
RTVSPost2010Prop31
280
     0
102
RTVSPost2010PropOp31
 70
     1
102
RTVSPost2010Prop32
280
     0
102
RTVSPost2010PropOp32
 70
     1
102
RTVSPost2010Prop33
280
     0
102
RTVSPost2010PropOp33
 70
     1
102
RTVSPost2010Prop34
280
     0
102
RTVSPost2010PropOp34
 70
     1
102
RTVSPost2010Prop35
280
     0
102
RTVSPost2010PropOp35
 70
     1
102
RTVSPost2010Prop36
280
     0
102
RTVSPost2010PropOp36
 70
     1
102
RTVSPost2010Prop37
 90
       50
102
RTVSPost2010PropOp37
 70
     1
102
RTVSPost2010Prop38
140
0.0
102
RTVSPost2010PropOp38
 70
     1
102
RTVSPost2010Prop39
140
1.0
102
RTVSPost2010PropOp39
 70
     1
102
RTVSPost2010Prop40
 90
        0
102
RTVSPost2010PropOp40
 70
     1
102
RTVSPost2010Prop41ColorIndex
 90
       18
102
RTVSPost2010Prop41ColorRGB
 90
        0
102
RTVSPost2010PropOp41
 70
     1
102
RTVSPost2010Prop42
 90
       50
102
RTVSPost2010PropOp42
 70
     1
102
RTVSPost2010Prop43
 90
        3
102
RTVSPost2010PropOp43
 70
     1
102
RTVSPost2010Prop44ColorIndex
 90
        5
102
RTVSPost2010Prop44ColorRGB
 90
      255
102
RTVSPost2010PropOp44
 70
     1
102
RTVSPost2010Prop45
280
     0
102
RTVSPost2010PropOp45
 70
     1
102
RTVSPost2010Prop46
 90
       50
102
RTVSPost2010PropOp46
 70
     1
102
RTVSPost2010Prop47
 90
       50
102
RTVSPost2010PropOp47
 70
     1
102
RTVSPost2010Prop48
 90
       50
102
RTVSPost2010PropOp48
 70
     1
102
RTVSPost2010Prop49
280
     0
102
RTVSPost2010PropOp49
 70
     1
102
RTVSPost2010Prop50
 90
       50
102
RTVSPost2010PropOp50
 70
     1
102
RTVSPost2010Prop51ColorIndex
 90
      256
102
RTVSPost2010Prop51ColorRGB
 90
-16777216
102
RTVSPost2010PropOp51
 70
     0
102
RTVSPost2010Prop52
140
1.0
102
RTVSPost2010PropOp52
 70
     0
102
RTVSPost2010Prop53
 90
        2
102
RTVSPost2010PropOp53
 70
     1
102
RTVSPost2010Prop54
  1
strokes_ogs.tif
102
RTVSPost2010PropOp54
 70
     1
102
RTVSPost2010Prop55
280
     0
102
RTVSPost2010PropOp55
 70
     1
102
RTVSPost2010Prop56
140
1.0
102
RTVSPost2010PropOp56
 70
     1
102
RTVSPost2010Prop57
140
1.0
102
RTVSPost2010PropOp57
 70
     1
  0
XRECORD
  5
1A4
102
{ACAD_REACTORS
330
1A3
102
}
330
1A3
100
AcDbXrecord
280
     1
102
RTVSPost2010Prop28
280
     0
102
RTVSPost2010PropOp28
 70
     0
102
RTVSPost2010Prop29
280
     1
102
RTVSPost2010PropOp29
 70
     0
102
RTVSPost2010Prop30
280
     1
102
RTVSPost2010PropOp30
 70
     0
102
RTVSPost2010Prop31
280
     0
102
RTVSPost2010PropOp31
 70
     0
102
RTVSPost2010Prop32
280
     0
102
RTVSPost2010PropOp32
 70
     0
102
RTVSPost2010Prop33
280
     0
102
RTVSPost2010PropOp33
 70
     0
102
RTVSPost2010Prop34
280
     0
102
RTVSPost2010PropOp34
 70
     0
102
RTVSPost2010Prop35
280
     0
102
RTVSPost2010PropOp35
 70
     0
102
RTVSPost2010Prop36
280
     0
102
RTVSPost2010PropOp36
 70
     0
102
RTVSPost2010Prop37
 90
       50
102
RTVSPost2010PropOp37
 70
     0
102
RTVSPost2010Prop38
140
0.0
102
RTVSPost2010PropOp38
 70
     0
102
RTVSPost2010Prop39
140
1.0
102
RTVSPost2010PropOp39
 70
     0
102
RTVSPost2010Prop40
 90
        0
102
RTVSPost2010PropOp40
 70
     0
102
RTVSPost2010Prop41ColorIndex
 90
       18
102
RTVSPost2010Prop41ColorRGB
 90
        0
102
RTVSPost2010PropOp41
 70
     0
102
RTVSPost2010Prop42
 90
       50
102
RTVSPost2010PropOp42
 70
     0
102
RTVSPost2010Prop43
 90
        3
102
RTVSPost2010PropOp43
 70
     0
102
RTVSPost2010Prop44ColorIndex
 90
        5
102
RTVSPost2010Prop44ColorRGB
 90
      255
102
RTVSPost2010PropOp44
 70
     0
102
RTVSPost2010Prop45
280
     0
102
RTVSPost2010PropOp45
 70
     0
102
RTVSPost2010Prop46
 90
       50
102
RTVSPost2010PropOp46
 70
     0
102
RTVSPost2010Prop47
 90
       50
102
RTVSPost2010PropOp47
 70
     0
102
RTVSPost2010Prop48
 90
       50
102
RTVSPost2010PropOp48
 70
     0
102
RTVSPost2010Prop49
280
     0
102
RTVSPost2010PropOp49
 70
     0
102
RTVSPost2010Prop50
 90
       50
102
RTVSPost2010PropOp50
 70
     0
102
RTVSPost2010Prop51ColorIndex
 90
      256
102
RTVSPost2010Prop51ColorRGB
 90
-16777216
102
RTVSPost2010PropOp51
 70
     0
102
RTVSPost2010Prop52
140
1.0
102
RTVSPost2010PropOp52
 70
     0
102
RTVSPost2010Prop53
 90
        2
102
RTVSPost2010PropOp53
 70
     0
102
RTVSPost2010Prop54
  1
strokes_ogs.tif
102
RTVSPost2010PropOp54
 70
     0
102
RTVSPost2010Prop55
280
     0
102
RTVSPost2010PropOp55
 70
     0
102
RTVSPost2010Prop56
140
1.0
102
RTVSPost2010PropOp56
 70
     0
102
RTVSPost2010Prop57
140
1.0
102
RTVSPost2010PropOp57
 70
     0
  0
XRECORD
  5
192
102
{ACAD_REACTORS
330
191
102
}
330
191
100
AcDbXrecord
280
     1
102
RTVSPost2010Prop28
280
     0
102
RTVSPost2010PropOp28
 70
     1
102
RTVSPost2010Prop29
280
     1
102
RTVSPost2010PropOp29
 70
     1
102
RTVSPost2010Prop30
280
     1
102
RTVSPost2010PropOp30
 70
     1
102
RTVSPost2010Prop31
280
     0
102
RTVSPost2010PropOp31
 70
     1
102
RTVSPost2010Prop32
280
     0
102
RTVSPost2010PropOp32
 70
     1
102
RTVSPost2010Prop33
280
     0
102
RTVSPost2010PropOp33
 70
     1
102
RTVSPost2010Prop34
280
     0
102
RTVSPost2010PropOp34
 70
     1
102
RTVSPost2010Prop35
280
     0
102
RTVSPost2010PropOp35
 70
     1
102
RTVSPost2010Prop36
280
     0
102
RTVSPost2010PropOp36
 70
     1
102
RTVSPost2010Prop37
 90
       50
102
RTVSPost2010PropOp37
 70
     1
102
RTVSPost2010Prop38
140
0.0
102
RTVSPost2010PropOp38
 70
     1
102
RTVSPost2010Prop39
140
1.0
102
RTVSPost2010PropOp39
 70
     1
102
RTVSPost2010Prop40
 90
        0
102
RTVSPost2010PropOp40
 70
     1
102
RTVSPost2010Prop41ColorIndex
 90
       18
102
RTVSPost2010Prop41ColorRGB
 90
        0
102
RTVSPost2010PropOp41
 70
     1
102
RTVSPost2010Prop42
 90
       50
102
RTVSPost2010PropOp42
 70
     1
102
RTVSPost2010Prop43
 90
        3
102
RTVSPost2010PropOp43
 70
     1
102
RTVSPost2010Prop44ColorIndex
 90
        5
102
RTVSPost2010Prop44ColorRGB
 90
      255
102
RTVSPost2010PropOp44
 70
     1
102
RTVSPost2010Prop45
280
     0
102
RTVSPost2010PropOp45
 70
     1
102
RTVSPost2010Prop46
 90
       50
102
RTVSPost2010PropOp46
 70
     1
102
RTVSPost2010Prop47
 90
       50
102
RTVSPost2010PropOp47
 70
     1
102
RTVSPost2010Prop48
 90
       50
102
RTVSPost2010PropOp48
 70
     1
102
RTVSPost2010Prop49
280
     0
102
RTVSPost2010PropOp49
 70
     1
102
RTVSPost2010Prop50
 90
       50
102
RTVSPost2010PropOp50
 70
     1
102
RTVSPost2010Prop51ColorIndex
 90
      256
102
RTVSPost2010Prop51ColorRGB
 90
-16777216
102
RTVSPost2010PropOp51
 70
     0
102
RTVSPost2010Prop52
140
1.0
102
RTVSPost2010PropOp52
 70
     0
102
RTVSPost2010Prop53
 90
        2
102
RTVSPost2010PropOp53
 70
     1
102
RTVSPost2010Prop54
  1
strokes_ogs.tif
102
RTVSPost2010PropOp54
 70
     1
102
RTVSPost2010Prop55
280
     0
102
RTVSPost2010PropOp55
 70
     1
102
RTVSPost2010Prop56
140
1.0
102
RTVSPost2010PropOp56
 70
     1
102
RTVSPost2010Prop57
140
1.0
102
RTVSPost2010PropOp57
 70
     1
  0
XRECORD
  5
176
102
{ACAD_REACTORS
330
175
102
}
330
175
100
AcDbXrecord
280
     1
102
RTVSPost2010Prop28
280
     0
102
RTVSPost2010PropOp28
 70
     1
102
RTVSPost2010Prop29
280
     1
102
RTVSPost2010PropOp29
 70
     1
102
RTVSPost2010Prop30
280
     1
102
RTVSPost2010PropOp30
 70
     1
102
RTVSPost2010Prop31
280
     0
102
RTVSPost2010PropOp31
 70
     1
102
RTVSPost2010Prop32
280
     0
102
RTVSPost2010PropOp32
 70
     1
102
RTVSPost2010Prop33
280
     0
102
RTVSPost2010PropOp33
 70
     1
102
RTVSPost2010Prop34
280
     0
102
RTVSPost2010PropOp34
 70
     1
102
RTVSPost2010Prop35
280
     0
102
RTVSPost2010PropOp35
 70
     1
102
RTVSPost2010Prop36
280
     0
102
RTVSPost2010PropOp36
 70
     1
102
RTVSPost2010Prop37
 90
       50
102
RTVSPost2010PropOp37
 70
     1
102
RTVSPost2010Prop38
140
0.0
102
RTVSPost2010PropOp38
 70
     1
102
RTVSPost2010Prop39
140
1.0
102
RTVSPost2010PropOp39
 70
     1
102
RTVSPost2010Prop40
 90
        0
102
RTVSPost2010PropOp40
 70
     1
102
RTVSPost2010Prop41ColorIndex
 90
       18
102
RTVSPost2010Prop41ColorRGB
 90
        0
102
RTVSPost2010PropOp41
 70
     1
102
RTVSPost2010Prop42
 90
       50
102
RTVSPost2010PropOp42
 70
     1
102
RTVSPost2010Prop43
 90
        3
102
RTVSPost2010PropOp43
 70
     1
102
RTVSPost2010Prop44ColorIndex
 90
        5
102
RTVSPost2010Prop44ColorRGB
 90
      255
102
RTVSPost2010PropOp44
 70
     1
102
RTVSPost2010Prop45
280
     0
102
RTVSPost2010PropOp45
 70
     1
102
RTVSPost2010Prop46
 90
       50
102
RTVSPost2010PropOp46
 70
     1
102
RTVSPost2010Prop47
 90
       50
102
RTVSPost2010PropOp47
 70
     1
102
RTVSPost2010Prop48
 90
       50
102
RTVSPost2010PropOp48
 70
     1
102
RTVSPost2010Prop49
280
     0
102
RTVSPost2010PropOp49
 70
     1
102
RTVSPost2010Prop50
 90
       50
102
RTVSPost2010PropOp50
 70
     1
102
RTVSPost2010Prop51ColorIndex
 90
      256
102
RTVSPost2010Prop51ColorRGB
 90
-16777216
102
RTVSPost2010PropOp51
 70
     0
102
RTVSPost2010Prop52
140
1.0
102
RTVSPost2010PropOp52
 70
     0
102
RTVSPost2010Prop53
 90
        2
102
RTVSPost2010PropOp53
 70
     1
102
RTVSPost2010Prop54
  1
strokes_ogs.tif
102
RTVSPost2010PropOp54
 70
     1
102
RTVSPost2010Prop55
280
     0
102
RTVSPost2010PropOp55
 70
     1
102
RTVSPost2010Prop56
140
1.0
102
RTVSPost2010PropOp56
 70
     1
102
RTVSPost2010Prop57
140
1.0
102
RTVSPost2010PropOp57
 70
     1
  0
XRECORD
  5
178
102
{ACAD_REACTORS
330
177
102
}
330
177
100
AcDbXrecord
280
     1
102
RTVSPost2010Prop28
280
     0
102
RTVSPost2010PropOp28
 70
     1
102
RTVSPost2010Prop29
280
     1
102
RTVSPost2010PropOp29
 70
     1
102
RTVSPost2010Prop30
280
     1
102
RTVSPost2010PropOp30
 70
     1
102
RTVSPost2010Prop31
280
     0
102
RTVSPost2010PropOp31
 70
     1
102
RTVSPost2010Prop32
280
     0
102
RTVSPost2010PropOp32
 70
     1
102
RTVSPost2010Prop33
280
     0
102
RTVSPost2010PropOp33
 70
     1
102
RTVSPost2010Prop34
280
     0
102
RTVSPost2010PropOp34
 70
     1
102
RTVSPost2010Prop35
280
     0
102
RTVSPost2010PropOp35
 70
     1
102
RTVSPost2010Prop36
280
     0
102
RTVSPost2010PropOp36
 70
     1
102
RTVSPost2010Prop37
 90
       50
102
RTVSPost2010PropOp37
 70
     1
102
RTVSPost2010Prop38
140
0.0
102
RTVSPost2010PropOp38
 70
     1
102
RTVSPost2010Prop39
140
1.0
102
RTVSPost2010PropOp39
 70
     1
102
RTVSPost2010Prop40
 90
        0
102
RTVSPost2010PropOp40
 70
     1
102
RTVSPost2010Prop41ColorIndex
 90
       18
102
RTVSPost2010Prop41ColorRGB
 90
        0
102
RTVSPost2010PropOp41
 70
     1
102
RTVSPost2010Prop42
 90
       50
102
RTVSPost2010PropOp42
 70
     1
102
RTVSPost2010Prop43
 90
        3
102
RTVSPost2010PropOp43
 70
     1
102
RTVSPost2010Prop44ColorIndex
 90
        5
102
RTVSPost2010Prop44ColorRGB
 90
      255
102
RTVSPost2010PropOp44
 70
     1
102
RTVSPost2010Prop45
280
     0
102
RTVSPost2010PropOp45
 70
     1
102
RTVSPost2010Prop46
 90
       50
102
RTVSPost2010PropOp46
 70
     1
102
RTVSPost2010Prop47
 90
       50
102
RTVSPost2010PropOp47
 70
     1
102
RTVSPost2010Prop48
 90
       50
102
RTVSPost2010PropOp48
 70
     1
102
RTVSPost2010Prop49
280
     0
102
RTVSPost2010PropOp49
 70
     1
102
RTVSPost2010Prop50
 90
       50
102
RTVSPost2010PropOp50
 70
     1
102
RTVSPost2010Prop51ColorIndex
 90
      256
102
RTVSPost2010Prop51ColorRGB
 90
-16777216
102
RTVSPost2010PropOp51
 70
     0
102
RTVSPost2010Prop52
140
1.0
102
RTVSPost2010PropOp52
 70
     0
102
RTVSPost2010Prop53
 90
        2
102
RTVSPost2010PropOp53
 70
     1
102
RTVSPost2010Prop54
  1
strokes_ogs.tif
102
RTVSPost2010PropOp54
 70
     1
102
RTVSPost2010Prop55
280
     0
102
RTVSPost2010PropOp55
 70
     1
102
RTVSPost2010Prop56
140
1.0
102
RTVSPost2010PropOp56
 70
     1
102
RTVSPost2010Prop57
140
1.0
102
RTVSPost2010PropOp57
 70
     1
  0
XRECORD
  5
17A
102
{ACAD_REACTORS
330
179
102
}
330
179
100
AcDbXrecord
280
     1
102
RTVSPost2010Prop28
280
     0
102
RTVSPost2010PropOp28
 70
     1
102
RTVSPost2010Prop29
280
     1
102
RTVSPost2010PropOp29
 70
     1
102
RTVSPost2010Prop30
280
     1
102
RTVSPost2010PropOp30
 70
     1
102
RTVSPost2010Prop31
280
     0
102
RTVSPost2010PropOp31
 70
     1
102
RTVSPost2010Prop32
280
     0
102
RTVSPost2010PropOp32
 70
     1
102
RTVSPost2010Prop33
280
     0
102
RTVSPost2010PropOp33
 70
     1
102
RTVSPost2010Prop34
280
     0
102
RTVSPost2010PropOp34
 70
     1
102
RTVSPost2010Prop35
280
     0
102
RTVSPost2010PropOp35
 70
     1
102
RTVSPost2010Prop36
280
     0
102
RTVSPost2010PropOp36
 70
     1
102
RTVSPost2010Prop37
 90
       50
102
RTVSPost2010PropOp37
 70
     1
102
RTVSPost2010Prop38
140
0.0
102
RTVSPost2010PropOp38
 70
     1
102
RTVSPost2010Prop39
140
1.0
102
RTVSPost2010PropOp39
 70
     1
102
RTVSPost2010Prop40
 90
        0
102
RTVSPost2010PropOp40
 70
     1
102
RTVSPost2010Prop41ColorIndex
 90
       18
102
RTVSPost2010Prop41ColorRGB
 90
        0
102
RTVSPost2010PropOp41
 70
     1
102
RTVSPost2010Prop42
 90
       50
102
RTVSPost2010PropOp42
 70
     1
102
RTVSPost2010Prop43
 90
        3
102
RTVSPost2010PropOp43
 70
     1
102
RTVSPost2010Prop44ColorIndex
 90
        5
102
RTVSPost2010Prop44ColorRGB
 90
      255
102
RTVSPost2010PropOp44
 70
     1
102
RTVSPost2010Prop45
280
     0
102
RTVSPost2010PropOp45
 70
     1
102
RTVSPost2010Prop46
 90
       50
102
RTVSPost2010PropOp46
 70
     1
102
RTVSPost2010Prop47
 90
       50
102
RTVSPost2010PropOp47
 70
     1
102
RTVSPost2010Prop48
 90
       50
102
RTVSPost2010PropOp48
 70
     1
102
RTVSPost2010Prop49
280
     0
102
RTVSPost2010PropOp49
 70
     1
102
RTVSPost2010Prop50
 90
       50
102
RTVSPost2010PropOp50
 70
     1
102
RTVSPost2010Prop51ColorIndex
 90
      256
102
RTVSPost2010Prop51ColorRGB
 90
-16777216
102
RTVSPost2010PropOp51
 70
     0
102
RTVSPost2010Prop52
140
1.0
102
RTVSPost2010PropOp52
 70
     0
102
RTVSPost2010Prop53
 90
        2
102
RTVSPost2010PropOp53
 70
     1
102
RTVSPost2010Prop54
  1
strokes_ogs.tif
102
RTVSPost2010PropOp54
 70
     1
102
RTVSPost2010Prop55
280
     0
102
RTVSPost2010PropOp55
 70
     1
102
RTVSPost2010Prop56
140
1.0
102
RTVSPost2010PropOp56
 70
     1
102
RTVSPost2010Prop57
140
1.0
102
RTVSPost2010PropOp57
 70
     1
  0
XRECORD
  5
17C
102
{ACAD_REACTORS
330
17B
102
}
330
17B
100
AcDbXrecord
280
     1
102
RTVSPost2010Prop28
280
     0
102
RTVSPost2010PropOp28
 70
     1
102
RTVSPost2010Prop29
280
     1
102
RTVSPost2010PropOp29
 70
     1
102
RTVSPost2010Prop30
280
     1
102
RTVSPost2010PropOp30
 70
     1
102
RTVSPost2010Prop31
280
     0
102
RTVSPost2010PropOp31
 70
     1
102
RTVSPost2010Prop32
280
     0
102
RTVSPost2010PropOp32
 70
     1
102
RTVSPost2010Prop33
280
     0
102
RTVSPost2010PropOp33
 70
     1
102
RTVSPost2010Prop34
280
     0
102
RTVSPost2010PropOp34
 70
     1
102
RTVSPost2010Prop35
280
     0
102
RTVSPost2010PropOp35
 70
     1
102
RTVSPost2010Prop36
280
     0
102
RTVSPost2010PropOp36
 70
     1
102
RTVSPost2010Prop37
 90
       50
102
RTVSPost2010PropOp37
 70
     1
102
RTVSPost2010Prop38
140
0.0
102
RTVSPost2010PropOp38
 70
     1
102
RTVSPost2010Prop39
140
1.0
102
RTVSPost2010PropOp39
 70
     1
102
RTVSPost2010Prop40
 90
        0
102
RTVSPost2010PropOp40
 70
     1
102
RTVSPost2010Prop41ColorIndex
 90
       18
102
RTVSPost2010Prop41ColorRGB
 90
        0
102
RTVSPost2010PropOp41
 70
     1
102
RTVSPost2010Prop42
 90
       50
102
RTVSPost2010PropOp42
 70
     1
102
RTVSPost2010Prop43
 90
        3
102
RTVSPost2010PropOp43
 70
     1
102
RTVSPost2010Prop44ColorIndex
 90
        5
102
RTVSPost2010Prop44ColorRGB
 90
      255
102
RTVSPost2010PropOp44
 70
     1
102
RTVSPost2010Prop45
280
     0
102
RTVSPost2010PropOp45
 70
     1
102
RTVSPost2010Prop46
 90
       50
102
RTVSPost2010PropOp46
 70
     1
102
RTVSPost2010Prop47
 90
       50
102
RTVSPost2010PropOp47
 70
     1
102
RTVSPost2010Prop48
 90
       50
102
RTVSPost2010PropOp48
 70
     1
102
RTVSPost2010Prop49
280
     0
102
RTVSPost2010PropOp49
 70
     1
102
RTVSPost2010Prop50
 90
       50
102
RTVSPost2010PropOp50
 70
     1
102
RTVSPost2010Prop51ColorIndex
 90
      256
102
RTVSPost2010Prop51ColorRGB
 90
-16777216
102
RTVSPost2010PropOp51
 70
     0
102
RTVSPost2010Prop52
140
1.0
102
RTVSPost2010PropOp52
 70
     0
102
RTVSPost2010Prop53
 90
        2
102
RTVSPost2010PropOp53
 70
     1
102
RTVSPost2010Prop54
  1
strokes_ogs.tif
102
RTVSPost2010PropOp54
 70
     1
102
RTVSPost2010Prop55
280
     0
102
RTVSPost2010PropOp55
 70
     1
102
RTVSPost2010Prop56
140
1.0
102
RTVSPost2010PropOp56
 70
     1
102
RTVSPost2010Prop57
140
1.0
102
RTVSPost2010PropOp57
 70
     1
  0
XRECORD
  5
184
102
{ACAD_REACTORS
330
183
102
}
330
183
100
AcDbXrecord
280
     1
102
RTVSPost2010Prop28
280
     0
102
RTVSPost2010PropOp28
 70
     1
102
RTVSPost2010Prop29
280
     1
102
RTVSPost2010PropOp29
 70
     1
102
RTVSPost2010Prop30
280
     1
102
RTVSPost2010PropOp30
 70
     1
102
RTVSPost2010Prop31
280
     0
102
RTVSPost2010PropOp31
 70
     1
102
RTVSPost2010Prop32
280
     0
102
RTVSPost2010PropOp32
 70
     1
102
RTVSPost2010Prop33
280
     0
102
RTVSPost2010PropOp33
 70
     1
102
RTVSPost2010Prop34
280
     0
102
RTVSPost2010PropOp34
 70
     1
102
RTVSPost2010Prop35
280
     0
102
RTVSPost2010PropOp35
 70
     1
102
RTVSPost2010Prop36
280
     0
102
RTVSPost2010PropOp36
 70
     1
102
RTVSPost2010Prop37
 90
       50
102
RTVSPost2010PropOp37
 70
     1
102
RTVSPost2010Prop38
140
0.0
102
RTVSPost2010PropOp38
 70
     1
102
RTVSPost2010Prop39
140
1.0
102
RTVSPost2010PropOp39
 70
     1
102
RTVSPost2010Prop40
 90
        0
102
RTVSPost2010PropOp40
 70
     1
102
RTVSPost2010Prop41ColorIndex
 90
       18
102
RTVSPost2010Prop41ColorRGB
 90
        0
102
RTVSPost2010PropOp41
 70
     1
102
RTVSPost2010Prop42
 90
       50
102
RTVSPost2010PropOp42
 70
     1
102
RTVSPost2010Prop43
 90
        3
102
RTVSPost2010PropOp43
 70
     1
102
RTVSPost2010Prop44ColorIndex
 90
        5
102
RTVSPost2010Prop44ColorRGB
 90
      255
102
RTVSPost2010PropOp44
 70
     1
102
RTVSPost2010Prop45
280
     0
102
RTVSPost2010PropOp45
 70
     1
102
RTVSPost2010Prop46
 90
       50
102
RTVSPost2010PropOp46
 70
     1
102
RTVSPost2010Prop47
 90
       50
102
RTVSPost2010PropOp47
 70
     1
102
RTVSPost2010Prop48
 90
       50
102
RTVSPost2010PropOp48
 70
     1
102
RTVSPost2010Prop49
280
     0
102
RTVSPost2010PropOp49
 70
     1
102
RTVSPost2010Prop50
 90
       50
102
RTVSPost2010PropOp50
 70
     1
102
RTVSPost2010Prop51ColorIndex
 90
      256
102
RTVSPost2010Prop51ColorRGB
 90
-16777216
102
RTVSPost2010PropOp51
 70
     0
102
RTVSPost2010Prop52
140
1.0
102
RTVSPost2010PropOp52
 70
     0
102
RTVSPost2010Prop53
 90
        2
102
RTVSPost2010PropOp53
 70
     1
102
RTVSPost2010Prop54
  1
strokes_ogs.tif
102
RTVSPost2010PropOp54
 70
     1
102
RTVSPost2010Prop55
280
     0
102
RTVSPost2010PropOp55
 70
     1
102
RTVSPost2010Prop56
140
1.0
102
RTVSPost2010PropOp56
 70
     1
102
RTVSPost2010Prop57
140
1.0
102
RTVSPost2010PropOp57
 70
     1
  0
XRECORD
  5
1A0
102
{ACAD_REACTORS
330
19F
102
}
330
19F
100
AcDbXrecord
280
     1
102
RTVSPost2010Prop28
280
     0
102
RTVSPost2010PropOp28
 70
     0
102
RTVSPost2010Prop29
280
     1
102
RTVSPost2010PropOp29
 70
     0
102
RTVSPost2010Prop30
280
     1
102
RTVSPost2010PropOp30
 70
     0
102
RTVSPost2010Prop31
280
     0
102
RTVSPost2010PropOp31
 70
     0
102
RTVSPost2010Prop32
280
     0
102
RTVSPost2010PropOp32
 70
     0
102
RTVSPost2010Prop33
280
     0
102
RTVSPost2010PropOp33
 70
     0
102
RTVSPost2010Prop34
280
     0
102
RTVSPost2010PropOp34
 70
     0
102
RTVSPost2010Prop35
280
     0
102
RTVSPost2010PropOp35
 70
     0
102
RTVSPost2010Prop36
280
     0
102
RTVSPost2010PropOp36
 70
     0
102
RTVSPost2010Prop37
 90
       50
102
RTVSPost2010PropOp37
 70
     0
102
RTVSPost2010Prop38
140
0.0
102
RTVSPost2010PropOp38
 70
     0
102
RTVSPost2010Prop39
140
1.0
102
RTVSPost2010PropOp39
 70
     0
102
RTVSPost2010Prop40
 90
        0
102
RTVSPost2010PropOp40
 70
     0
102
RTVSPost2010Prop41ColorIndex
 90
       18
102
RTVSPost2010Prop41ColorRGB
 90
        0
102
RTVSPost2010PropOp41
 70
     0
102
RTVSPost2010Prop42
 90
       50
102
RTVSPost2010PropOp42
 70
     0
102
RTVSPost2010Prop43
 90
        3
102
RTVSPost2010PropOp43
 70
     0
102
RTVSPost2010Prop44ColorIndex
 90
        5
102
RTVSPost2010Prop44ColorRGB
 90
      255
102
RTVSPost2010PropOp44
 70
     0
102
RTVSPost2010Prop45
280
     0
102
RTVSPost2010PropOp45
 70
     0
102
RTVSPost2010Prop46
 90
       50
102
RTVSPost2010PropOp46
 70
     0
102
RTVSPost2010Prop47
 90
       50
102
RTVSPost2010PropOp47
 70
     0
102
RTVSPost2010Prop48
 90
       50
102
RTVSPost2010PropOp48
 70
     0
102
RTVSPost2010Prop49
280
     0
102
RTVSPost2010PropOp49
 70
     0
102
RTVSPost2010Prop50
 90
       50
102
RTVSPost2010PropOp50
 70
     0
102
RTVSPost2010Prop51ColorIndex
 90
      256
102
RTVSPost2010Prop51ColorRGB
 90
-16777216
102
RTVSPost2010PropOp51
 70
     0
102
RTVSPost2010Prop52
140
1.0
102
RTVSPost2010PropOp52
 70
     0
102
RTVSPost2010Prop53
 90
        2
102
RTVSPost2010PropOp53
 70
     0
102
RTVSPost2010Prop54
  1
strokes_ogs.tif
102
RTVSPost2010PropOp54
 70
     0
102
RTVSPost2010Prop55
280
     0
102
RTVSPost2010PropOp55
 70
     0
102
RTVSPost2010Prop56
140
1.0
102
RTVSPost2010PropOp56
 70
     0
102
RTVSPost2010Prop57
140
1.0
102
RTVSPost2010PropOp57
 70
     0
  0
XRECORD
  5
190
102
{ACAD_REACTORS
330
18F
102
}
330
18F
100
AcDbXrecord
280
     1
102
RTVSPost2010Prop28
280
     0
102
RTVSPost2010PropOp28
 70
     1
102
RTVSPost2010Prop29
280
     1
102
RTVSPost2010PropOp29
 70
     1
102
RTVSPost2010Prop30
280
     1
102
RTVSPost2010PropOp30
 70
     1
102
RTVSPost2010Prop31
280
     0
102
RTVSPost2010PropOp31
 70
     1
102
RTVSPost2010Prop32
280
     0
102
RTVSPost2010PropOp32
 70
     1
102
RTVSPost2010Prop33
280
     0
102
RTVSPost2010PropOp33
 70
     1
102
RTVSPost2010Prop34
280
     0
102
RTVSPost2010PropOp34
 70
     1
102
RTVSPost2010Prop35
280
     0
102
RTVSPost2010PropOp35
 70
     1
102
RTVSPost2010Prop36
280
     0
102
RTVSPost2010PropOp36
 70
     1
102
RTVSPost2010Prop37
 90
       50
102
RTVSPost2010PropOp37
 70
     1
102
RTVSPost2010Prop38
140
0.0
102
RTVSPost2010PropOp38
 70
     1
102
RTVSPost2010Prop39
140
1.0
102
RTVSPost2010PropOp39
 70
     1
102
RTVSPost2010Prop40
 90
        0
102
RTVSPost2010PropOp40
 70
     1
102
RTVSPost2010Prop41ColorIndex
 90
       18
102
RTVSPost2010Prop41ColorRGB
 90
        0
102
RTVSPost2010PropOp41
 70
     1
102
RTVSPost2010Prop42
 90
       50
102
RTVSPost2010PropOp42
 70
     1
102
RTVSPost2010Prop43
 90
        3
102
RTVSPost2010PropOp43
 70
     1
102
RTVSPost2010Prop44ColorIndex
 90
        5
102
RTVSPost2010Prop44ColorRGB
 90
      255
102
RTVSPost2010PropOp44
 70
     1
102
RTVSPost2010Prop45
280
     0
102
RTVSPost2010PropOp45
 70
     1
102
RTVSPost2010Prop46
 90
       50
102
RTVSPost2010PropOp46
 70
     1
102
RTVSPost2010Prop47
 90
       50
102
RTVSPost2010PropOp47
 70
     1
102
RTVSPost2010Prop48
 90
       50
102
RTVSPost2010PropOp48
 70
     1
102
RTVSPost2010Prop49
280
     0
102
RTVSPost2010PropOp49
 70
     1
102
RTVSPost2010Prop50
 90
       50
102
RTVSPost2010PropOp50
 70
     1
102
RTVSPost2010Prop51ColorIndex
 90
      256
102
RTVSPost2010Prop51ColorRGB
 90
-16777216
102
RTVSPost2010PropOp51
 70
     0
102
RTVSPost2010Prop52
140
1.0
102
RTVSPost2010PropOp52
 70
     0
102
RTVSPost2010Prop53
 90
        2
102
RTVSPost2010PropOp53
 70
     1
102
RTVSPost2010Prop54
  1
strokes_ogs.tif
102
RTVSPost2010PropOp54
 70
     1
102
RTVSPost2010Prop55
280
     0
102
RTVSPost2010PropOp55
 70
     1
102
RTVSPost2010Prop56
140
1.0
102
RTVSPost2010PropOp56
 70
     1
102
RTVSPost2010Prop57
140
1.0
102
RTVSPost2010PropOp57
 70
     1
  0
XRECORD
  5
1A2
102
{ACAD_REACTORS
330
1A1
102
}
330
1A1
100
AcDbXrecord
280
     1
102
RTVSPost2010Prop28
280
     0
102
RTVSPost2010PropOp28
 70
     0
102
RTVSPost2010Prop29
280
     1
102
RTVSPost2010PropOp29
 70
     0
102
RTVSPost2010Prop30
280
     1
102
RTVSPost2010PropOp30
 70
     0
102
RTVSPost2010Prop31
280
     0
102
RTVSPost2010PropOp31
 70
     0
102
RTVSPost2010Prop32
280
     0
102
RTVSPost2010PropOp32
 70
     0
102
RTVSPost2010Prop33
280
     0
102
RTVSPost2010PropOp33
 70
     0
102
RTVSPost2010Prop34
280
     0
102
RTVSPost2010PropOp34
 70
     0
102
RTVSPost2010Prop35
280
     0
102
RTVSPost2010PropOp35
 70
     0
102
RTVSPost2010Prop36
280
     0
102
RTVSPost2010PropOp36
 70
     0
102
RTVSPost2010Prop37
 90
       50
102
RTVSPost2010PropOp37
 70
     0
102
RTVSPost2010Prop38
140
0.0
102
RTVSPost2010PropOp38
 70
     0
102
RTVSPost2010Prop39
140
1.0
102
RTVSPost2010PropOp39
 70
     0
102
RTVSPost2010Prop40
 90
        0
102
RTVSPost2010PropOp40
 70
     0
102
RTVSPost2010Prop41ColorIndex
 90
       18
102
RTVSPost2010Prop41ColorRGB
 90
        0
102
RTVSPost2010PropOp41
 70
     0
102
RTVSPost2010Prop42
 90
       50
102
RTVSPost2010PropOp42
 70
     0
102
RTVSPost2010Prop43
 90
        3
102
RTVSPost2010PropOp43
 70
     0
102
RTVSPost2010Prop44ColorIndex
 90
        5
102
RTVSPost2010Prop44ColorRGB
 90
      255
102
RTVSPost2010PropOp44
 70
     0
102
RTVSPost2010Prop45
280
     0
102
RTVSPost2010PropOp45
 70
     0
102
RTVSPost2010Prop46
 90
       50
102
RTVSPost2010PropOp46
 70
     0
102
RTVSPost2010Prop47
 90
       50
102
RTVSPost2010PropOp47
 70
     0
102
RTVSPost2010Prop48
 90
       50
102
RTVSPost2010PropOp48
 70
     0
102
RTVSPost2010Prop49
280
     0
102
RTVSPost2010PropOp49
 70
     0
102
RTVSPost2010Prop50
 90
       50
102
RTVSPost2010PropOp50
 70
     0
102
RTVSPost2010Prop51ColorIndex
 90
      256
102
RTVSPost2010Prop51ColorRGB
 90
-16777216
102
RTVSPost2010PropOp51
 70
     0
102
RTVSPost2010Prop52
140
1.0
102
RTVSPost2010PropOp52
 70
     0
102
RTVSPost2010Prop53
 90
        2
102
RTVSPost2010PropOp53
 70
     0
102
RTVSPost2010Prop54
  1
strokes_ogs.tif
102
RTVSPost2010PropOp54
 70
     0
102
RTVSPost2010Prop55
280
     0
102
RTVSPost2010PropOp55
 70
     0
102
RTVSPost2010Prop56
140
1.0
102
RTVSPost2010PropOp56
 70
     0
102
RTVSPost2010Prop57
140
1.0
102
RTVSPost2010PropOp57
 70
     0
  0
XRECORD
  5
188
102
{ACAD_REACTORS
330
187
102
}
330
187
100
AcDbXrecord
280
     1
102
RTVSPost2010Prop28
280
     0
102
RTVSPost2010PropOp28
 70
     1
102
RTVSPost2010Prop29
280
     1
102
RTVSPost2010PropOp29
 70
     1
102
RTVSPost2010Prop30
280
     1
102
RTVSPost2010PropOp30
 70
     1
102
RTVSPost2010Prop31
280
     0
102
RTVSPost2010PropOp31
 70
     1
102
RTVSPost2010Prop32
280
     0
102
RTVSPost2010PropOp32
 70
     1
102
RTVSPost2010Prop33
280
     0
102
RTVSPost2010PropOp33
 70
     1
102
RTVSPost2010Prop34
280
     0
102
RTVSPost2010PropOp34
 70
     1
102
RTVSPost2010Prop35
280
     0
102
RTVSPost2010PropOp35
 70
     1
102
RTVSPost2010Prop36
280
     0
102
RTVSPost2010PropOp36
 70
     1
102
RTVSPost2010Prop37
 90
       50
102
RTVSPost2010PropOp37
 70
     1
102
RTVSPost2010Prop38
140
0.0
102
RTVSPost2010PropOp38
 70
     1
102
RTVSPost2010Prop39
140
1.0
102
RTVSPost2010PropOp39
 70
     1
102
RTVSPost2010Prop40
 90
        0
102
RTVSPost2010PropOp40
 70
     1
102
RTVSPost2010Prop41ColorIndex
 90
       18
102
RTVSPost2010Prop41ColorRGB
 90
        0
102
RTVSPost2010PropOp41
 70
     1
102
RTVSPost2010Prop42
 90
       50
102
RTVSPost2010PropOp42
 70
     1
102
RTVSPost2010Prop43
 90
        3
102
RTVSPost2010PropOp43
 70
     1
102
RTVSPost2010Prop44ColorIndex
 90
        5
102
RTVSPost2010Prop44ColorRGB
 90
      255
102
RTVSPost2010PropOp44
 70
     1
102
RTVSPost2010Prop45
280
     0
102
RTVSPost2010PropOp45
 70
     1
102
RTVSPost2010Prop46
 90
       50
102
RTVSPost2010PropOp46
 70
     1
102
RTVSPost2010Prop47
 90
       50
102
RTVSPost2010PropOp47
 70
     1
102
RTVSPost2010Prop48
 90
       50
102
RTVSPost2010PropOp48
 70
     1
102
RTVSPost2010Prop49
280
     0
102
RTVSPost2010PropOp49
 70
     1
102
RTVSPost2010Prop50
 90
       50
102
RTVSPost2010PropOp50
 70
     1
102
RTVSPost2010Prop51ColorIndex
 90
      256
102
RTVSPost2010Prop51ColorRGB
 90
-16777216
102
RTVSPost2010PropOp51
 70
     0
102
RTVSPost2010Prop52
140
1.0
102
RTVSPost2010PropOp52
 70
     0
102
RTVSPost2010Prop53
 90
        2
102
RTVSPost2010PropOp53
 70
     1
102
RTVSPost2010Prop54
  1
strokes_ogs.tif
102
RTVSPost2010PropOp54
 70
     1
102
RTVSPost2010Prop55
280
     0
102
RTVSPost2010PropOp55
 70
     1
102
RTVSPost2010Prop56
140
1.0
102
RTVSPost2010PropOp56
 70
     1
102
RTVSPost2010Prop57
140
1.0
102
RTVSPost2010PropOp57
 70
     1
  0
XRECORD
  5
19E
102
{ACAD_REACTORS
330
19D
102
}
330
19D
100
AcDbXrecord
280
     1
102
RTVSPost2010Prop28
280
     0
102
RTVSPost2010PropOp28
 70
     1
102
RTVSPost2010Prop29
280
     1
102
RTVSPost2010PropOp29
 70
     1
102
RTVSPost2010Prop30
280
     1
102
RTVSPost2010PropOp30
 70
     1
102
RTVSPost2010Prop31
280
     0
102
RTVSPost2010PropOp31
 70
     1
102
RTVSPost2010Prop32
280
     0
102
RTVSPost2010PropOp32
 70
     1
102
RTVSPost2010Prop33
280
     0
102
RTVSPost2010PropOp33
 70
     1
102
RTVSPost2010Prop34
280
     0
102
RTVSPost2010PropOp34
 70
     1
102
RTVSPost2010Prop35
280
     0
102
RTVSPost2010PropOp35
 70
     1
102
RTVSPost2010Prop36
280
     0
102
RTVSPost2010PropOp36
 70
     1
102
RTVSPost2010Prop37
 90
       50
102
RTVSPost2010PropOp37
 70
     1
102
RTVSPost2010Prop38
140
0.0
102
RTVSPost2010PropOp38
 70
     1
102
RTVSPost2010Prop39
140
1.0
102
RTVSPost2010PropOp39
 70
     1
102
RTVSPost2010Prop40
 90
        0
102
RTVSPost2010PropOp40
 70
     1
102
RTVSPost2010Prop41ColorIndex
 90
       18
102
RTVSPost2010Prop41ColorRGB
 90
        0
102
RTVSPost2010PropOp41
 70
     1
102
RTVSPost2010Prop42
 90
       50
102
RTVSPost2010PropOp42
 70
     1
102
RTVSPost2010Prop43
 90
        3
102
RTVSPost2010PropOp43
 70
     1
102
RTVSPost2010Prop44ColorIndex
 90
        5
102
RTVSPost2010Prop44ColorRGB
 90
      255
102
RTVSPost2010PropOp44
 70
     1
102
RTVSPost2010Prop45
280
     0
102
RTVSPost2010PropOp45
 70
     1
102
RTVSPost2010Prop46
 90
       50
102
RTVSPost2010PropOp46
 70
     1
102
RTVSPost2010Prop47
 90
       50
102
RTVSPost2010PropOp47
 70
     1
102
RTVSPost2010Prop48
 90
       50
102
RTVSPost2010PropOp48
 70
     1
102
RTVSPost2010Prop49
280
     0
102
RTVSPost2010PropOp49
 70
     1
102
RTVSPost2010Prop50
 90
       50
102
RTVSPost2010PropOp50
 70
     1
102
RTVSPost2010Prop51ColorIndex
 90
      256
102
RTVSPost2010Prop51ColorRGB
 90
-16777216
102
RTVSPost2010PropOp51
 70
     0
102
RTVSPost2010Prop52
140
1.0
102
RTVSPost2010PropOp52
 70
     0
102
RTVSPost2010Prop53
 90
        2
102
RTVSPost2010PropOp53
 70
     1
102
RTVSPost2010Prop54
  1
strokes_ogs.tif
102
RTVSPost2010PropOp54
 70
     1
102
RTVSPost2010Prop55
280
     0
102
RTVSPost2010PropOp55
 70
     1
102
RTVSPost2010Prop56
140
1.0
102
RTVSPost2010PropOp56
 70
     1
102
RTVSPost2010Prop57
140
1.0
102
RTVSPost2010PropOp57
 70
     1
  0
XRECORD
  5
19C
102
{ACAD_REACTORS
330
19B
102
}
330
19B
100
AcDbXrecord
280
     1
102
RTVSPost2010Prop28
280
     0
102
RTVSPost2010PropOp28
 70
     1
102
RTVSPost2010Prop29
280
     1
102
RTVSPost2010PropOp29
 70
     1
102
RTVSPost2010Prop30
280
     1
102
RTVSPost2010PropOp30
 70
     1
102
RTVSPost2010Prop31
280
     0
102
RTVSPost2010PropOp31
 70
     1
102
RTVSPost2010Prop32
280
     0
102
RTVSPost2010PropOp32
 70
     1
102
RTVSPost2010Prop33
280
     0
102
RTVSPost2010PropOp33
 70
     1
102
RTVSPost2010Prop34
280
     0
102
RTVSPost2010PropOp34
 70
     1
102
RTVSPost2010Prop35
280
     0
102
RTVSPost2010PropOp35
 70
     1
102
RTVSPost2010Prop36
280
     0
102
RTVSPost2010PropOp36
 70
     1
102
RTVSPost2010Prop37
 90
       50
102
RTVSPost2010PropOp37
 70
     1
102
RTVSPost2010Prop38
140
0.0
102
RTVSPost2010PropOp38
 70
     1
102
RTVSPost2010Prop39
140
1.0
102
RTVSPost2010PropOp39
 70
     1
102
RTVSPost2010Prop40
 90
        0
102
RTVSPost2010PropOp40
 70
     1
102
RTVSPost2010Prop41ColorIndex
 90
       18
102
RTVSPost2010Prop41ColorRGB
 90
        0
102
RTVSPost2010PropOp41
 70
     1
102
RTVSPost2010Prop42
 90
       50
102
RTVSPost2010PropOp42
 70
     1
102
RTVSPost2010Prop43
 90
        3
102
RTVSPost2010PropOp43
 70
     1
102
RTVSPost2010Prop44ColorIndex
 90
        5
102
RTVSPost2010Prop44ColorRGB
 90
      255
102
RTVSPost2010PropOp44
 70
     1
102
RTVSPost2010Prop45
280
     0
102
RTVSPost2010PropOp45
 70
     1
102
RTVSPost2010Prop46
 90
       50
102
RTVSPost2010PropOp46
 70
     1
102
RTVSPost2010Prop47
 90
       50
102
RTVSPost2010PropOp47
 70
     1
102
RTVSPost2010Prop48
 90
       50
102
RTVSPost2010PropOp48
 70
     1
102
RTVSPost2010Prop49
280
     0
102
RTVSPost2010PropOp49
 70
     1
102
RTVSPost2010Prop50
 90
       50
102
RTVSPost2010PropOp50
 70
     1
102
RTVSPost2010Prop51ColorIndex
 90
      256
102
RTVSPost2010Prop51ColorRGB
 90
-16777216
102
RTVSPost2010PropOp51
 70
     0
102
RTVSPost2010Prop52
140
1.0
102
RTVSPost2010PropOp52
 70
     0
102
RTVSPost2010Prop53
 90
        2
102
RTVSPost2010PropOp53
 70
     1
102
RTVSPost2010Prop54
  1
strokes_ogs.tif
102
RTVSPost2010PropOp54
 70
     1
102
RTVSPost2010Prop55
280
     0
102
RTVSPost2010PropOp55
 70
     1
102
RTVSPost2010Prop56
140
1.0
102
RTVSPost2010PropOp56
 70
     1
102
RTVSPost2010Prop57
140
1.0
102
RTVSPost2010PropOp57
 70
     1
  0
XRECORD
  5
196
102
{ACAD_REACTORS
330
195
102
}
330
195
100
AcDbXrecord
280
     1
102
RTVSPost2010Prop28
280
     0
102
RTVSPost2010PropOp28
 70
     1
102
RTVSPost2010Prop29
280
     1
102
RTVSPost2010PropOp29
 70
     1
102
RTVSPost2010Prop30
280
     1
102
RTVSPost2010PropOp30
 70
     1
102
RTVSPost2010Prop31
280
     0
102
RTVSPost2010PropOp31
 70
     1
102
RTVSPost2010Prop32
280
     0
102
RTVSPost2010PropOp32
 70
     1
102
RTVSPost2010Prop33
280
     0
102
RTVSPost2010PropOp33
 70
     1
102
RTVSPost2010Prop34
280
     0
102
RTVSPost2010PropOp34
 70
     1
102
RTVSPost2010Prop35
280
     0
102
RTVSPost2010PropOp35
 70
     1
102
RTVSPost2010Prop36
280
     0
102
RTVSPost2010PropOp36
 70
     1
102
RTVSPost2010Prop37
 90
       50
102
RTVSPost2010PropOp37
 70
     1
102
RTVSPost2010Prop38
140
0.0
102
RTVSPost2010PropOp38
 70
     1
102
RTVSPost2010Prop39
140
1.0
102
RTVSPost2010PropOp39
 70
     1
102
RTVSPost2010Prop40
 90
        0
102
RTVSPost2010PropOp40
 70
     1
102
RTVSPost2010Prop41ColorIndex
 90
       18
102
RTVSPost2010Prop41ColorRGB
 90
        0
102
RTVSPost2010PropOp41
 70
     1
102
RTVSPost2010Prop42
 90
       50
102
RTVSPost2010PropOp42
 70
     1
102
RTVSPost2010Prop43
 90
        3
102
RTVSPost2010PropOp43
 70
     1
102
RTVSPost2010Prop44ColorIndex
 90
        5
102
RTVSPost2010Prop44ColorRGB
 90
      255
102
RTVSPost2010PropOp44
 70
     1
102
RTVSPost2010Prop45
280
     0
102
RTVSPost2010PropOp45
 70
     1
102
RTVSPost2010Prop46
 90
       50
102
RTVSPost2010PropOp46
 70
     1
102
RTVSPost2010Prop47
 90
       50
102
RTVSPost2010PropOp47
 70
     1
102
RTVSPost2010Prop48
 90
       50
102
RTVSPost2010PropOp48
 70
     1
102
RTVSPost2010Prop49
280
     0
102
RTVSPost2010PropOp49
 70
     1
102
RTVSPost2010Prop50
 90
       50
102
RTVSPost2010PropOp50
 70
     1
102
RTVSPost2010Prop51ColorIndex
 90
      256
102
RTVSPost2010Prop51ColorRGB
 90
-16777216
102
RTVSPost2010PropOp51
 70
     0
102
RTVSPost2010Prop52
140
1.0
102
RTVSPost2010PropOp52
 70
     0
102
RTVSPost2010Prop53
 90
        2
102
RTVSPost2010PropOp53
 70
     1
102
RTVSPost2010Prop54
  1
strokes_ogs.tif
102
RTVSPost2010PropOp54
 70
     1
102
RTVSPost2010Prop55
280
     0
102
RTVSPost2010PropOp55
 70
     1
102
RTVSPost2010Prop56
140
1.0
102
RTVSPost2010PropOp56
 70
     1
102
RTVSPost2010Prop57
140
1.0
102
RTVSPost2010PropOp57
 70
     1
  0
XRECORD
  5
198
102
{ACAD_REACTORS
330
197
102
}
330
197
100
AcDbXrecord
280
     1
102
RTVSPost2010Prop28
280
     0
102
RTVSPost2010PropOp28
 70
     1
102
RTVSPost2010Prop29
280
     1
102
RTVSPost2010PropOp29
 70
     1
102
RTVSPost2010Prop30
280
     1
102
RTVSPost2010PropOp30
 70
     1
102
RTVSPost2010Prop31
280
     0
102
RTVSPost2010PropOp31
 70
     1
102
RTVSPost2010Prop32
280
     0
102
RTVSPost2010PropOp32
 70
     1
102
RTVSPost2010Prop33
280
     0
102
RTVSPost2010PropOp33
 70
     1
102
RTVSPost2010Prop34
280
     0
102
RTVSPost2010PropOp34
 70
     1
102
RTVSPost2010Prop35
280
     0
102
RTVSPost2010PropOp35
 70
     1
102
RTVSPost2010Prop36
280
     0
102
RTVSPost2010PropOp36
 70
     1
102
RTVSPost2010Prop37
 90
       50
102
RTVSPost2010PropOp37
 70
     1
102
RTVSPost2010Prop38
140
0.0
102
RTVSPost2010PropOp38
 70
     1
102
RTVSPost2010Prop39
140
1.0
102
RTVSPost2010PropOp39
 70
     1
102
RTVSPost2010Prop40
 90
        0
102
RTVSPost2010PropOp40
 70
     1
102
RTVSPost2010Prop41ColorIndex
 90
       18
102
RTVSPost2010Prop41ColorRGB
 90
        0
102
RTVSPost2010PropOp41
 70
     1
102
RTVSPost2010Prop42
 90
       50
102
RTVSPost2010PropOp42
 70
     1
102
RTVSPost2010Prop43
 90
        3
102
RTVSPost2010PropOp43
 70
     1
102
RTVSPost2010Prop44ColorIndex
 90
        5
102
RTVSPost2010Prop44ColorRGB
 90
      255
102
RTVSPost2010PropOp44
 70
     1
102
RTVSPost2010Prop45
280
     0
102
RTVSPost2010PropOp45
 70
     1
102
RTVSPost2010Prop46
 90
       50
102
RTVSPost2010PropOp46
 70
     1
102
RTVSPost2010Prop47
 90
       50
102
RTVSPost2010PropOp47
 70
     1
102
RTVSPost2010Prop48
 90
       50
102
RTVSPost2010PropOp48
 70
     1
102
RTVSPost2010Prop49
280
     0
102
RTVSPost2010PropOp49
 70
     1
102
RTVSPost2010Prop50
 90
       50
102
RTVSPost2010PropOp50
 70
     1
102
RTVSPost2010Prop51ColorIndex
 90
      256
102
RTVSPost2010Prop51ColorRGB
 90
-16777216
102
RTVSPost2010PropOp51
 70
     0
102
RTVSPost2010Prop52
140
1.0
102
RTVSPost2010PropOp52
 70
     0
102
RTVSPost2010Prop53
 90
        2
102
RTVSPost2010PropOp53
 70
     1
102
RTVSPost2010Prop54
  1
strokes_ogs.tif
102
RTVSPost2010PropOp54
 70
     1
102
RTVSPost2010Prop55
280
     0
102
RTVSPost2010PropOp55
 70
     1
102
RTVSPost2010Prop56
140
1.0
102
RTVSPost2010PropOp56
 70
     1
102
RTVSPost2010Prop57
140
1.0
102
RTVSPost2010PropOp57
 70
     1
  0
XRECORD
  5
18E
102
{ACAD_REACTORS
330
18D
102
}
330
18D
100
AcDbXrecord
280
     1
102
RTVSPost2010Prop28
280
     0
102
RTVSPost2010PropOp28
 70
     1
102
RTVSPost2010Prop29
280
     1
102
RTVSPost2010PropOp29
 70
     1
102
RTVSPost2010Prop30
280
     1
102
RTVSPost2010PropOp30
 70
     1
102
RTVSPost2010Prop31
280
     0
102
RTVSPost2010PropOp31
 70
     1
102
RTVSPost2010Prop32
280
     0
102
RTVSPost2010PropOp32
 70
     1
102
RTVSPost2010Prop33
280
     0
102
RTVSPost2010PropOp33
 70
     1
102
RTVSPost2010Prop34
280
     0
102
RTVSPost2010PropOp34
 70
     1
102
RTVSPost2010Prop35
280
     0
102
RTVSPost2010PropOp35
 70
     1
102
RTVSPost2010Prop36
280
     0
102
RTVSPost2010PropOp36
 70
     1
102
RTVSPost2010Prop37
 90
       50
102
RTVSPost2010PropOp37
 70
     1
102
RTVSPost2010Prop38
140
0.0
102
RTVSPost2010PropOp38
 70
     1
102
RTVSPost2010Prop39
140
1.0
102
RTVSPost2010PropOp39
 70
     1
102
RTVSPost2010Prop40
 90
        0
102
RTVSPost2010PropOp40
 70
     1
102
RTVSPost2010Prop41ColorIndex
 90
       18
102
RTVSPost2010Prop41ColorRGB
 90
        0
102
RTVSPost2010PropOp41
 70
     1
102
RTVSPost2010Prop42
 90
       50
102
RTVSPost2010PropOp42
 70
     1
102
RTVSPost2010Prop43
 90
        3
102
RTVSPost2010PropOp43
 70
     1
102
RTVSPost2010Prop44ColorIndex
 90
        5
102
RTVSPost2010Prop44ColorRGB
 90
      255
102
RTVSPost2010PropOp44
 70
     1
102
RTVSPost2010Prop45
280
     0
102
RTVSPost2010PropOp45
 70
     1
102
RTVSPost2010Prop46
 90
       50
102
RTVSPost2010PropOp46
 70
     1
102
RTVSPost2010Prop47
 90
       50
102
RTVSPost2010PropOp47
 70
     1
102
RTVSPost2010Prop48
 90
       50
102
RTVSPost2010PropOp48
 70
     1
102
RTVSPost2010Prop49
280
     0
102
RTVSPost2010PropOp49
 70
     1
102
RTVSPost2010Prop50
 90
       50
102
RTVSPost2010PropOp50
 70
     1
102
RTVSPost2010Prop51ColorIndex
 90
      256
102
RTVSPost2010Prop51ColorRGB
 90
-16777216
102
RTVSPost2010PropOp51
 70
     0
102
RTVSPost2010Prop52
140
1.0
102
RTVSPost2010PropOp52
 70
     0
102
RTVSPost2010Prop53
 90
        2
102
RTVSPost2010PropOp53
 70
     1
102
RTVSPost2010Prop54
  1
strokes_ogs.tif
102
RTVSPost2010PropOp54
 70
     1
102
RTVSPost2010Prop55
280
     0
102
RTVSPost2010PropOp55
 70
     1
102
RTVSPost2010Prop56
140
1.0
102
RTVSPost2010PropOp56
 70
     1
102
RTVSPost2010Prop57
140
1.0
102
RTVSPost2010PropOp57
 70
     1
  0
XRECORD
  5
182
102
{ACAD_REACTORS
330
181
102
}
330
181
100
AcDbXrecord
280
     1
102
RTVSPost2010Prop28
280
     0
102
RTVSPost2010PropOp28
 70
     1
102
RTVSPost2010Prop29
280
     1
102
RTVSPost2010PropOp29
 70
     1
102
RTVSPost2010Prop30
280
     1
102
RTVSPost2010PropOp30
 70
     1
102
RTVSPost2010Prop31
280
     0
102
RTVSPost2010PropOp31
 70
     1
102
RTVSPost2010Prop32
280
     0
102
RTVSPost2010PropOp32
 70
     1
102
RTVSPost2010Prop33
280
     0
102
RTVSPost2010PropOp33
 70
     1
102
RTVSPost2010Prop34
280
     0
102
RTVSPost2010PropOp34
 70
     1
102
RTVSPost2010Prop35
280
     0
102
RTVSPost2010PropOp35
 70
     1
102
RTVSPost2010Prop36
280
     0
102
RTVSPost2010PropOp36
 70
     1
102
RTVSPost2010Prop37
 90
       50
102
RTVSPost2010PropOp37
 70
     1
102
RTVSPost2010Prop38
140
0.0
102
RTVSPost2010PropOp38
 70
     1
102
RTVSPost2010Prop39
140
1.0
102
RTVSPost2010PropOp39
 70
     1
102
RTVSPost2010Prop40
 90
        0
102
RTVSPost2010PropOp40
 70
     1
102
RTVSPost2010Prop41ColorIndex
 90
       18
102
RTVSPost2010Prop41ColorRGB
 90
        0
102
RTVSPost2010PropOp41
 70
     1
102
RTVSPost2010Prop42
 90
       50
102
RTVSPost2010PropOp42
 70
     1
102
RTVSPost2010Prop43
 90
        3
102
RTVSPost2010PropOp43
 70
     1
102
RTVSPost2010Prop44ColorIndex
 90
        5
102
RTVSPost2010Prop44ColorRGB
 90
      255
102
RTVSPost2010PropOp44
 70
     1
102
RTVSPost2010Prop45
280
     0
102
RTVSPost2010PropOp45
 70
     1
102
RTVSPost2010Prop46
 90
       50
102
RTVSPost2010PropOp46
 70
     1
102
RTVSPost2010Prop47
 90
       50
102
RTVSPost2010PropOp47
 70
     1
102
RTVSPost2010Prop48
 90
       50
102
RTVSPost2010PropOp48
 70
     1
102
RTVSPost2010Prop49
280
     0
102
RTVSPost2010PropOp49
 70
     1
102
RTVSPost2010Prop50
 90
       50
102
RTVSPost2010PropOp50
 70
     1
102
RTVSPost2010Prop51ColorIndex
 90
      256
102
RTVSPost2010Prop51ColorRGB
 90
-16777216
102
RTVSPost2010PropOp51
 70
     0
102
RTVSPost2010Prop52
140
1.0
102
RTVSPost2010PropOp52
 70
     0
102
RTVSPost2010Prop53
 90
        2
102
RTVSPost2010PropOp53
 70
     1
102
RTVSPost2010Prop54
  1
strokes_ogs.tif
102
RTVSPost2010PropOp54
 70
     1
102
RTVSPost2010Prop55
280
     0
102
RTVSPost2010PropOp55
 70
     1
102
RTVSPost2010Prop56
140
1.0
102
RTVSPost2010PropOp56
 70
     1
102
RTVSPost2010Prop57
140
1.0
102
RTVSPost2010PropOp57
 70
     1
  0
XRECORD
  5
19A
102
{ACAD_REACTORS
330
199
102
}
330
199
100
AcDbXrecord
280
     1
102
RTVSPost2010Prop28
280
     0
102
RTVSPost2010PropOp28
 70
     1
102
RTVSPost2010Prop29
280
     1
102
RTVSPost2010PropOp29
 70
     1
102
RTVSPost2010Prop30
280
     1
102
RTVSPost2010PropOp30
 70
     1
102
RTVSPost2010Prop31
280
     0
102
RTVSPost2010PropOp31
 70
     1
102
RTVSPost2010Prop32
280
     0
102
RTVSPost2010PropOp32
 70
     1
102
RTVSPost2010Prop33
280
     0
102
RTVSPost2010PropOp33
 70
     1
102
RTVSPost2010Prop34
280
     0
102
RTVSPost2010PropOp34
 70
     1
102
RTVSPost2010Prop35
280
     0
102
RTVSPost2010PropOp35
 70
     1
102
RTVSPost2010Prop36
280
     0
102
RTVSPost2010PropOp36
 70
     1
102
RTVSPost2010Prop37
 90
       50
102
RTVSPost2010PropOp37
 70
     1
102
RTVSPost2010Prop38
140
0.0
102
RTVSPost2010PropOp38
 70
     1
102
RTVSPost2010Prop39
140
1.0
102
RTVSPost2010PropOp39
 70
     1
102
RTVSPost2010Prop40
 90
        0
102
RTVSPost2010PropOp40
 70
     1
102
RTVSPost2010Prop41ColorIndex
 90
       18
102
RTVSPost2010Prop41ColorRGB
 90
        0
102
RTVSPost2010PropOp41
 70
     1
102
RTVSPost2010Prop42
 90
       50
102
RTVSPost2010PropOp42
 70
     1
102
RTVSPost2010Prop43
 90
        3
102
RTVSPost2010PropOp43
 70
     1
102
RTVSPost2010Prop44ColorIndex
 90
        5
102
RTVSPost2010Prop44ColorRGB
 90
      255
102
RTVSPost2010PropOp44
 70
     1
102
RTVSPost2010Prop45
280
     0
102
RTVSPost2010PropOp45
 70
     1
102
RTVSPost2010Prop46
 90
       50
102
RTVSPost2010PropOp46
 70
     1
102
RTVSPost2010Prop47
 90
       50
102
RTVSPost2010PropOp47
 70
     1
102
RTVSPost2010Prop48
 90
       50
102
RTVSPost2010PropOp48
 70
     1
102
RTVSPost2010Prop49
280
     0
102
RTVSPost2010PropOp49
 70
     1
102
RTVSPost2010Prop50
 90
       50
102
RTVSPost2010PropOp50
 70
     1
102
RTVSPost2010Prop51ColorIndex
 90
      256
102
RTVSPost2010Prop51ColorRGB
 90
-16777216
102
RTVSPost2010PropOp51
 70
     0
102
RTVSPost2010Prop52
140
1.0
102
RTVSPost2010PropOp52
 70
     0
102
RTVSPost2010Prop53
 90
        2
102
RTVSPost2010PropOp53
 70
     1
102
RTVSPost2010Prop54
  1
strokes_ogs.tif
102
RTVSPost2010PropOp54
 70
     1
102
RTVSPost2010Prop55
280
     0
102
RTVSPost2010PropOp55
 70
     1
102
RTVSPost2010Prop56
140
1.0
102
RTVSPost2010PropOp56
 70
     1
102
RTVSPost2010Prop57
140
1.0
102
RTVSPost2010PropOp57
 70
     1
  0
ENDSEC
  0
EOF
