  0
SECTION
  2
HEADER
  9
$ACADVER
  1
AC1024
  9
$ACADMAINTVER
 70
   205
  9
$DWGCODEPAGE
  3
ANSI_1251
  9
$INSBASE
 10
0.0
 20
0.0
 30
0.0
  9
$EXTMIN
 10
1.000000000000000E+20
 20
1.000000000000000E+20
 30
1.000000000000000E+20
  9
$EXTMAX
 10
-1.000000000000000E+20
 20
-1.000000000000000E+20
 30
-1.000000000000000E+20
  9
$LIMMIN
 10
0.0
 20
0.0
  9
$LIMMAX
 10
12.0
 20
9.0
  9
$ORTHOMODE
 70
     0
  9
$REGENMODE
 70
     1
  9
$FILLMODE
 70
     1
  9
$QTEXTMODE
 70
     0
  9
$MIRRTEXT
 70
     1
  9
$LTSCALE
 40
1.0
  9
$ATTMODE
 70
     1
  9
$TEXTSIZE
 40
0.2
  9
$TRACEWID
 40
0.05
  9
$TEXTSTYLE
  7
Standard
  9
$CLAYER
  8
OracDecor_panel_moldings
  9
$CELTYPE
  6
ByLayer
  9
$CECOLOR
 62
   256
  9
$CELTSCALE
 40
1.0
  9
$DISPSILH
 70
     0
  9
$DIMSCALE
 40
1.0
  9
$DIMASZ
 40
0.18
  9
$DIMEXO
 40
0.0625
  9
$DIMDLI
 40
0.38
  9
$DIMRND
 40
0.0
  9
$DIMDLE
 40
0.0
  9
$DIMEXE
 40
0.18
  9
$DIMTP
 40
0.0
  9
$DIMTM
 40
0.0
  9
$DIMTXT
 40
0.18
  9
$DIMCEN
 40
0.09
  9
$DIMTSZ
 40
0.0
  9
$DIMTOL
 70
     0
  9
$DIMLIM
 70
     0
  9
$DIMTIH
 70
     1
  9
$DIMTOH
 70
     1
  9
$DIMSE1
 70
     0
  9
$DIMSE2
 70
     0
  9
$DIMTAD
 70
     0
  9
$DIMZIN
 70
     0
  9
$DIMBLK
  1

  9
$DIMASO
 70
     1
  9
$DIMSHO
 70
     1
  9
$DIMPOST
  1

  9
$DIMAPOST
  1

  9
$DIMALT
 70
     0
  9
$DIMALTD
 70
     2
  9
$DIMALTF
 40
25.4
  9
$DIMLFAC
 40
1.0
  9
$DIMTOFL
 70
     0
  9
$DIMTVP
 40
0.0
  9
$DIMTIX
 70
     0
  9
$DIMSOXD
 70
     0
  9
$DIMSAH
 70
     0
  9
$DIMBLK1
  1

  9
$DIMBLK2
  1

  9
$DIMSTYLE
  2
Standard
  9
$DIMCLRD
 70
     0
  9
$DIMCLRE
 70
     0
  9
$DIMCLRT
 70
     0
  9
$DIMTFAC
 40
1.0
  9
$DIMGAP
 40
0.09
  9
$DIMJUST
 70
     0
  9
$DIMSD1
 70
     0
  9
$DIMSD2
 70
     0
  9
$DIMTOLJ
 70
     1
  9
$DIMTZIN
 70
     0
  9
$DIMALTZ
 70
     0
  9
$DIMALTTZ
 70
     0
  9
$DIMUPT
 70
     0
  9
$DIMDEC
 70
     4
  9
$DIMTDEC
 70
     4
  9
$DIMALTU
 70
     2
  9
$DIMALTTD
 70
     2
  9
$DIMTXSTY
  7
Standard
  9
$DIMAUNIT
 70
     0
  9
$DIMADEC
 70
     0
  9
$DIMALTRND
 40
0.0
  9
$DIMAZIN
 70
     0
  9
$DIMDSEP
 70
    46
  9
$DIMATFIT
 70
     3
  9
$DIMFRAC
 70
     0
  9
$DIMLDRBLK
  1

  9
$DIMLUNIT
 70
     2
  9
$DIMLWD
 70
    -2
  9
$DIMLWE
 70
    -2
  9
$DIMTMOVE
 70
     0
  9
$DIMFXL
 40
1.0
  9
$DIMFXLON
 70
     0
  9
$DIMJOGANG
 40
0.7853981633974483
  9
$DIMTFILL
 70
     0
  9
$DIMTFILLCLR
 70
     0
  9
$DIMARCSYM
 70
     0
  9
$DIMLTYPE
  6

  9
$DIMLTEX1
  6

  9
$DIMLTEX2
  6

  9
$DIMTXTDIRECTION
 70
     0
  9
$LUNITS
 70
     2
  9
$LUPREC
 70
     4
  9
$SKETCHINC
 40
0.1
  9
$FILLETRAD
 40
0.5
  9
$AUNITS
 70
     0
  9
$AUPREC
 70
     0
  9
$MENU
  1
.
  9
$ELEVATION
 40
0.0
  9
$PELEVATION
 40
0.0
  9
$THICKNESS
 40
0.0
  9
$LIMCHECK
 70
     0
  9
$CHAMFERA
 40
0.5
  9
$CHAMFERB
 40
0.5
  9
$CHAMFERC
 40
1.0
  9
$CHAMFERD
 40
0.0
  9
$SKPOLY
 70
     0
  9
$TDCREATE
 40
2451380.930432396
  9
$TDUCREATE
 40
2451380.805432396
  9
$TDUPDATE
 40
2451380.966180555
  9
$TDUUPDATE
 40
2451380.841180556
  9
$TDINDWG
 40
0.0075613773
  9
$TDUSRTIMER
 40
0.0075523380
  9
$USRTIMER
 70
     1
  9
$ANGBASE
 50
0.0
  9
$ANGDIR
 70
     0
  9
$PDMODE
 70
     0
  9
$PDSIZE
 40
0.0
  9
$PLINEWID
 40
0.0
  9
$SPLFRAME
 70
     0
  9
$SPLINETYPE
 70
     6
  9
$SPLINESEGS
 70
     8
  9
$HANDSEED
  5
1B2
  9
$SURFTAB1
 70
     6
  9
$SURFTAB2
 70
     6
  9
$SURFTYPE
 70
     6
  9
$SURFU
 70
     6
  9
$SURFV
 70
     6
  9
$UCSBASE
  2

  9
$UCSNAME
  2

  9
$UCSORG
 10
0.0
 20
0.0
 30
0.0
  9
$UCSXDIR
 10
1.0
 20
0.0
 30
0.0
  9
$UCSYDIR
 10
0.0
 20
1.0
 30
0.0
  9
$UCSORTHOREF
  2

  9
$UCSORTHOVIEW
 70
     0
  9
$UCSORGTOP
 10
0.0
 20
0.0
 30
0.0
  9
$UCSORGBOTTOM
 10
0.0
 20
0.0
 30
0.0
  9
$UCSORGLEFT
 10
0.0
 20
0.0
 30
0.0
  9
$UCSORGRIGHT
 10
0.0
 20
0.0
 30
0.0
  9
$UCSORGFRONT
 10
0.0
 20
0.0
 30
0.0
  9
$UCSORGBACK
 10
0.0
 20
0.0
 30
0.0
  9
$PUCSBASE
  2

  9
$PUCSNAME
  2

  9
$PUCSORG
 10
0.0
 20
0.0
 30
0.0
  9
$PUCSXDIR
 10
1.0
 20
0.0
 30
0.0
  9
$PUCSYDIR
 10
0.0
 20
1.0
 30
0.0
  9
$PUCSORTHOREF
  2

  9
$PUCSORTHOVIEW
 70
     0
  9
$PUCSORGTOP
 10
0.0
 20
0.0
 30
0.0
  9
$PUCSORGBOTTOM
 10
0.0
 20
0.0
 30
0.0
  9
$PUCSORGLEFT
 10
0.0
 20
0.0
 30
0.0
  9
$PUCSORGRIGHT
 10
0.0
 20
0.0
 30
0.0
  9
$PUCSORGFRONT
 10
0.0
 20
0.0
 30
0.0
  9
$PUCSORGBACK
 10
0.0
 20
0.0
 30
0.0
  9
$USERI1
 70
     0
  9
$USERI2
 70
     0
  9
$USERI3
 70
     0
  9
$USERI4
 70
     0
  9
$USERI5
 70
     0
  9
$USERR1
 40
0.0
  9
$USERR2
 40
0.0
  9
$USERR3
 40
0.0
  9
$USERR4
 40
0.0
  9
$USERR5
 40
0.0
  9
$WORLDVIEW
 70
     1
  9
$SHADEDGE
 70
     3
  9
$SHADEDIF
 70
    70
  9
$TILEMODE
 70
     1
  9
$MAXACTVP
 70
    64
  9
$PINSBASE
 10
0.0
 20
0.0
 30
0.0
  9
$PLIMCHECK
 70
     0
  9
$PEXTMIN
 10
1.000000000000000E+20
 20
1.000000000000000E+20
 30
1.000000000000000E+20
  9
$PEXTMAX
 10
-1.000000000000000E+20
 20
-1.000000000000000E+20
 30
-1.000000000000000E+20
  9
$PLIMMIN
 10
0.0
 20
0.0
  9
$PLIMMAX
 10
12.0
 20
9.0
  9
$UNITMODE
 70
     0
  9
$VISRETAIN
 70
     1
  9
$PLINEGEN
 70
     0
  9
$PSLTSCALE
 70
     1
  9
$TREEDEPTH
 70
  3020
  9
$CMLSTYLE
  2
Standard
  9
$CMLJUST
 70
     0
  9
$CMLSCALE
 40
1.0
  9
$PROXYGRAPHICS
 70
     1
  9
$MEASUREMENT
 70
     1
  9
$CELWEIGHT
370
    -1
  9
$ENDCAPS
280
     0
  9
$JOINSTYLE
280
     0
  9
$LWDISPLAY
290
     0
  9
$INSUNITS
 70
     4
  9
$HYPERLINKBASE
  1

  9
$STYLESHEET
  1

  9
$XEDIT
290
     1
  9
$CEPSNTYPE
380
     0
  9
$PSTYLEMODE
290
     1
  9
$FINGERPRINTGUID
  2
{12F50282-3ED8-11D3-A8B7-0060B0F84BC6}
  9
$VERSIONGUID
  2
{12F50293-3ED8-11D3-A8B7-0060B0F84BC6}
  9
$EXTNAMES
290
     1
  9
$PSVPSCALE
 40
0.0
  9
$OLESTARTUP
290
     0
  9
$SORTENTS
280
   127
  9
$INDEXCTL
280
     0
  9
$HIDETEXT
280
     0
  9
$XCLIPFRAME
280
     2
  9
$HALOGAP
280
     0
  9
$OBSCOLOR
 70
   257
  9
$OBSLTYPE
280
     0
  9
$INTERSECTIONDISPLAY
280
     0
  9
$INTERSECTIONCOLOR
 70
   257
  9
$DIMASSOC
280
     1
  9
$PROJECTNAME
  1

  9
$CAMERADISPLAY
290
     0
  9
$LENSLENGTH
 40
50.0
  9
$CAMERAHEIGHT
 40
0.0
  9
$STEPSPERSEC
 40
2.0
  9
$STEPSIZE
 40
6.0
  9
$3DDWFPREC
 40
2.0
  9
$PSOLWIDTH
 40
0.25
  9
$PSOLHEIGHT
 40
4.0
  9
$LOFTANG1
 40
1.570796326794896
  9
$LOFTANG2
 40
1.570796326794896
  9
$LOFTMAG1
 40
0.0
  9
$LOFTMAG2
 40
0.0
  9
$LOFTPARAM
 70
     7
  9
$LOFTNORMALS
280
     1
  9
$LATITUDE
 40
37.795
  9
$LONGITUDE
 40
-122.394
  9
$NORTHDIRECTION
 40
0.0
  9
$TIMEZONE
 70
 -8000
  9
$LIGHTGLYPHDISPLAY
280
     1
  9
$TILEMODELIGHTSYNCH
280
     1
  9
$CMATERIAL
347
AB
  9
$SOLIDHIST
280
     0
  9
$SHOWHIST
280
     1
  9
$DWFFRAME
280
     2
  9
$DGNFRAME
280
     0
  9
$REALWORLDSCALE
290
     1
  9
$INTERFERECOLOR
 62
     1
  9
$INTERFEREOBJVS
345
CD
  9
$INTERFEREVPVS
346
CA
  9
$CSHADOW
280
     0
  9
$SHADOWPLANELOCATION
 40
0.0
  0
ENDSEC
  0
SECTION
  2
CLASSES
  0
CLASS
  1
ACDBDICTIONARYWDFLT
  2
AcDbDictionaryWithDefault
  3
ObjectDBX Classes
 90
        0
 91
        1
280
     0
281
     0
  0
CLASS
  1
ACDBPLACEHOLDER
  2
AcDbPlaceHolder
  3
ObjectDBX Classes
 90
        0
 91
        2
280
     0
281
     0
  0
CLASS
  1
LAYOUT
  2
AcDbLayout
  3
ObjectDBX Classes
 90
        0
 91
        3
280
     0
281
     0
  0
CLASS
  1
MATERIAL
  2
AcDbMaterial
  3
ObjectDBX Classes
 90
     1153
 91
        3
280
     0
281
     0
  0
CLASS
  1
VISUALSTYLE
  2
AcDbVisualStyle
  3
ObjectDBX Classes
 90
     4095
 91
       24
280
     0
281
     0
  0
CLASS
  1
TABLESTYLE
  2
AcDbTableStyle
  3
ObjectDBX Classes
 90
     4095
 91
        1
280
     0
281
     0
  0
CLASS
  1
SCALE
  2
AcDbScale
  3
ObjectDBX Classes
 90
     1153
 91
       17
280
     0
281
     0
  0
CLASS
  1
MLEADERSTYLE
  2
AcDbMLeaderStyle
  3
ACDB_MLEADERSTYLE_CLASS
 90
     4095
 91
        1
280
     0
281
     0
  0
CLASS
  1
ACDBSECTIONVIEWSTYLE
  2
AcDbSectionViewStyle
  3
ObjectDBX Classes
 90
     1025
 91
        1
280
     0
281
     0
  0
CLASS
  1
ACDBDETAILVIEWSTYLE
  2
AcDbDetailViewStyle
  3
ObjectDBX Classes
 90
     1025
 91
        1
280
     0
281
     0
  0
CLASS
  1
MESH
  2
AcDbSubDMesh
  3
ObjectDBX Classes
 90
        0
 91
        1
280
     0
281
     1
  0
CLASS
  1
DICTIONARYVAR
  2
AcDbDictionaryVar
  3
ObjectDBX Classes
 90
        0
 91
        9
280
     0
281
     0
  0
CLASS
  1
CELLSTYLEMAP
  2
AcDbCellStyleMap
  3
ObjectDBX Classes
 90
     1152
 91
        1
280
     0
281
     0
  0
ENDSEC
  0
SECTION
  2
TABLES
  0
TABLE
  2
VPORT
  5
8
330
0
100
AcDbSymbolTable
 70
     1
  0
VPORT
  5
A8
330
8
100
AcDbSymbolTableRecord
100
AcDbViewportTableRecord
  2
*Active
 70
     0
 10
0.0
 20
0.0
 11
1.0
 21
1.0
 12
-0.0001078959394363
 22
151.8678741455078
 13
0.0
 23
0.0
 14
0.5
 24
0.5
 15
0.5
 25
0.5
 16
-1.0
 26
-1.0
 36
1.0
 17
0.0
 27
0.0
 37
0.0
 40
1447.998252840761
 41
1.28707727912483
 42
50.0
 43
0.0
 44
0.0
 50
0.0
 51
0.0
 71
     0
 72
   100
 73
     1
 74
     3
 75
     0
 76
     0
 77
     0
 78
     0
281
     0
 65
     1
110
0.0
120
0.0
130
0.0
111
1.0
121
0.0
131
0.0
112
0.0
122
1.0
132
0.0
 79
     0
146
0.0
348
C9
 60
     3
 61
     5
292
     1
282
     1
141
0.0
142
0.0
 63
   250
421
  3355443
  0
ENDTAB
  0
TABLE
  2
LTYPE
  5
5
330
0
100
AcDbSymbolTable
 70
     1
  0
LTYPE
  5
14
330
5
100
AcDbSymbolTableRecord
100
AcDbLinetypeTableRecord
  2
ByBlock
 70
     0
  3

 72
    65
 73
     0
 40
0.0
  0
LTYPE
  5
15
330
5
100
AcDbSymbolTableRecord
100
AcDbLinetypeTableRecord
  2
ByLayer
 70
     0
  3

 72
    65
 73
     0
 40
0.0
  0
LTYPE
  5
16
330
5
100
AcDbSymbolTableRecord
100
AcDbLinetypeTableRecord
  2
Continuous
 70
     0
  3
Solid line
 72
    65
 73
     0
 40
0.0
  0
ENDTAB
  0
TABLE
  2
LAYER
  5
2
330
0
100
AcDbSymbolTable
 70
     3
  0
LAYER
  5
10
330
2
100
AcDbSymbolTableRecord
100
AcDbLayerTableRecord
  2
0
 70
     0
 62
     7
  6
Continuous
370
    -3
390
F
347
BB
  0
LAYER
  5
2B
330
2
100
AcDbSymbolTableRecord
100
AcDbLayerTableRecord
  2
ASHADE
 70
     4
 62
     7
  6
Continuous
370
    -3
390
2D
347
BB
  0
LAYER
  5
F8
330
2
100
AcDbSymbolTableRecord
100
AcDbLayerTableRecord
  2
OracDecor_panel_moldings
 70
     0
 62
    21
420
 14915993
  6
Continuous
370
    -3
390
F
347
BB
  0
ENDTAB
  0
TABLE
  2
STYLE
  5
3
330
0
100
AcDbSymbolTable
 70
     2
  0
STYLE
  5
11
330
3
100
AcDbSymbolTableRecord
100
AcDbTextStyleTableRecord
  2
Standard
 70
     0
 40
0.0
 41
1.0
 50
0.0
 71
     0
 42
0.2
  3
txt
  4

  0
STYLE
  5
2C
330
3
100
AcDbSymbolTableRecord
100
AcDbTextStyleTableRecord
  2
ASHADE
 70
     0
 40
0.2
 41
1.0
 50
0.0
 71
     0
 42
0.2
  3
simplex
  4

  0
ENDTAB
  0
TABLE
  2
VIEW
  5
6
330
0
100
AcDbSymbolTable
 70
     0
  0
ENDTAB
  0
TABLE
  2
UCS
  5
7
330
0
100
AcDbSymbolTable
 70
     0
  0
ENDTAB
  0
TABLE
  2
APPID
  5
9
330
0
100
AcDbSymbolTable
 70
     6
  0
APPID
  5
12
330
9
100
AcDbSymbolTableRecord
100
AcDbRegAppTableRecord
  2
ACAD
 70
     0
  0
APPID
  5
8F
330
9
100
AcDbSymbolTableRecord
100
AcDbRegAppTableRecord
  2
AVE_RENDER
 70
     0
  0
APPID
  5
90
330
9
100
AcDbSymbolTableRecord
100
AcDbRegAppTableRecord
  2
AVE_ENTITY_MATERIAL
 70
     0
  0
APPID
  5
9C
330
9
100
AcDbSymbolTableRecord
100
AcDbRegAppTableRecord
  2
AVE_FINISH
 70
     0
  0
APPID
  5
9D
330
9
100
AcDbSymbolTableRecord
100
AcDbRegAppTableRecord
  2
AVE_MATERIAL
 70
     0
  0
APPID
  5
9E
330
9
100
AcDbSymbolTableRecord
100
AcDbRegAppTableRecord
  2
AVE_GLOBAL
 70
     0
  0
ENDTAB
  0
TABLE
  2
DIMSTYLE
  5
A
330
0
100
AcDbSymbolTable
 70
     1
100
AcDbDimStyleTable
 71
     0
  0
DIMSTYLE
105
27
330
A
100
AcDbSymbolTableRecord
100
AcDbDimStyleTableRecord
  2
Standard
 70
     0
340
11
  0
ENDTAB
  0
TABLE
  2
BLOCK_RECORD
  5
1
330
0
100
AcDbSymbolTable
 70
     6
  0
BLOCK_RECORD
  5
1F
330
1
100
AcDbSymbolTableRecord
100
AcDbBlockTableRecord
  2
*Model_Space
340
22
 70
     0
280
     1
281
     0
  0
BLOCK_RECORD
  5
1B
330
1
100
AcDbSymbolTableRecord
100
AcDbBlockTableRecord
  2
*Paper_Space
340
1E
 70
     0
280
     1
281
     0
  0
BLOCK_RECORD
  5
23
330
1
100
AcDbSymbolTableRecord
100
AcDbBlockTableRecord
  2
*Paper_Space0
340
26
 70
     0
280
     1
281
     0
  0
BLOCK_RECORD
  5
2E
330
1
100
AcDbSymbolTableRecord
100
AcDbBlockTableRecord
  2
direct
340
0
 70
     0
280
     1
281
     0
  0
BLOCK_RECORD
  5
42
330
1
100
AcDbSymbolTableRecord
100
AcDbBlockTableRecord
  2
overhead
340
0
 70
     0
280
     1
281
     0
  0
BLOCK_RECORD
  5
5F
330
1
100
AcDbSymbolTableRecord
100
AcDbBlockTableRecord
  2
sh_spot
340
0
 70
     0
280
     1
281
     0
  0
BLOCK_RECORD
  5
91
330
1
100
AcDbSymbolTableRecord
100
AcDbBlockTableRecord
  2
AVE_RENDER
340
0
102
{BLKREFS
331
94
331
95
331
96
331
97
331
98
331
99
331
9A
331
9B
102
}
 70
     0
280
     1
281
     0
  0
BLOCK_RECORD
  5
9F
330
1
100
AcDbSymbolTableRecord
100
AcDbBlockTableRecord
  2
AVE_GLOBAL
340
0
102
{BLKREFS
331
A2
102
}
 70
     0
280
     1
281
     0
  0
ENDTAB
  0
ENDSEC
  0
SECTION
  2
BLOCKS
  0
BLOCK
  5
20
330
1F
100
AcDbEntity
  8
0
100
AcDbBlockBegin
  2
*Model_Space
 70
     0
 10
0.0
 20
0.0
 30
0.0
  3
*Model_Space
  1

  0
ENDBLK
  5
21
330
1F
100
AcDbEntity
  8
0
100
AcDbBlockEnd
  0
BLOCK
  5
1C
330
1B
100
AcDbEntity
 67
     1
  8
0
100
AcDbBlockBegin
  2
*Paper_Space
 70
     0
 10
0.0
 20
0.0
 30
0.0
  3
*Paper_Space
  1

  0
ENDBLK
  5
1D
330
1B
100
AcDbEntity
 67
     1
  8
0
100
AcDbBlockEnd
  0
BLOCK
  5
24
330
23
100
AcDbEntity
 67
     1
  8
0
100
AcDbBlockBegin
  2
*Paper_Space0
 70
     0
 10
0.0
 20
0.0
 30
0.0
  3
*Paper_Space0
  1

  0
ENDBLK
  5
25
330
23
100
AcDbEntity
 67
     1
  8
0
100
AcDbBlockEnd
  0
BLOCK
  5
40
330
2E
100
AcDbEntity
  8
0
100
AcDbBlockBegin
  2
direct
 70
     2
 10
0.0
 20
0.0
 30
0.0
  3
direct
  1

  0
ATTDEF
  5
2F
330
2E
100
AcDbEntity
  8
ASHADE
  6
Continuous
 62
     1
100
AcDbText
 10
0.0
 20
-0.1
 30
0.0
 40
0.2
  1

  7
ASHADE
 72
     1
 11
0.0
 21
-0.1
 31
0.0
100
AcDbAttributeDefinition
280
     0
  3
Light Name
  2
SNAME
 70
     0
280
     0
  0
ARC
  5
30
330
2E
100
AcDbEntity
  8
ASHADE
  6
Continuous
 62
     7
100
AcDbCircle
 10
0.0
 20
0.0
 30
0.0
 40
0.3
100
AcDbArc
 50
205.6792886194569
 51
334.3207113805431
  0
ARC
  5
31
330
2E
100
AcDbEntity
  8
ASHADE
  6
Continuous
 62
     7
100
AcDbCircle
 10
0.0
 20
0.0
 30
0.0
 40
0.3
100
AcDbArc
 50
25.67928861945685
 51
154.3207113805431
  0
LINE
  5
32
330
2E
100
AcDbEntity
  8
ASHADE
  6
Continuous
 62
     7
100
AcDbLine
 10
-0.21
 20
0.2142428528562855
 30
0.0
 11
-0.21
 21
0.5
 31
0.0
  0
LINE
  5
33
330
2E
100
AcDbEntity
  8
ASHADE
  6
Continuous
 62
     7
100
AcDbLine
 10
-0.11
 20
0.2791057147390572
 30
0.0
 11
-0.11
 21
0.5
 31
0.0
  0
LINE
  5
34
330
2E
100
AcDbEntity
  8
ASHADE
  6
Continuous
 62
     7
100
AcDbLine
 10
0.21
 20
0.2142428528562855
 30
0.0
 11
0.21
 21
0.5
 31
0.0
  0
ATTDEF
  5
35
330
2E
100
AcDbEntity
  8
ASHADE
  6
Continuous
 62
     7
100
AcDbText
 10
0.0
 20
0.25
 30
0.0
 40
0.01
  1

100
AcDbAttributeDefinition
280
     0
  3
Look-at Y
  2
LAY
 70
     1
280
     0
  0
ATTDEF
  5
36
330
2E
100
AcDbEntity
  8
ASHADE
  6
Continuous
 62
     7
100
AcDbText
 10
0.0
 20
0.22
 30
0.0
 40
0.01
  1
1
100
AcDbAttributeDefinition
280
     0
  3
Light Intensity
  2
INTENSITY
 70
     1
280
     0
  0
ATTDEF
  5
37
330
2E
100
AcDbEntity
  8
ASHADE
  6
Continuous
 62
     7
100
AcDbText
 10
0.0
 20
0.16
 30
0.0
 40
0.01
  1
-1
100
AcDbAttributeDefinition
280
     0
  3
*not used*
  2
BEAMD
 70
     1
280
     0
  0
ATTDEF
  5
38
330
2E
100
AcDbEntity
  8
ASHADE
  6
Continuous
 62
     7
100
AcDbText
 10
0.0
 20
0.175
 30
0.0
 40
0.01
  1
-1
100
AcDbAttributeDefinition
280
     0
  3
*not used*
  2
CONED
 70
     1
280
     0
  0
ATTDEF
  5
39
330
2E
100
AcDbEntity
  8
ASHADE
  6
Continuous
 62
     7
100
AcDbText
 10
0.0
 20
0.19
 30
0.0
 40
0.01
  1
0
100
AcDbAttributeDefinition
280
     0
  3
Depth Map Size
  2
CONEA
 70
     1
280
     0
  0
ATTDEF
  5
3A
330
2E
100
AcDbEntity
  8
ASHADE
  6
Continuous
 62
     7
100
AcDbText
 10
0.0
 20
0.2050000000000001
 30
0.0
 40
0.01
  1
1,1,1
100
AcDbAttributeDefinition
280
     0
  3
Light Color (RGB)
  2
COLOR
 70
     1
280
     0
  0
ATTDEF
  5
3B
330
2E
100
AcDbEntity
  8
ASHADE
  6
Continuous
 62
     7
100
AcDbText
 10
0.0
 20
0.235
 30
0.0
 40
0.01
  1

100
AcDbAttributeDefinition
280
     0
  3
Look-at Z
  2
LAZ
 70
     1
280
     0
  0
LINE
  5
3C
330
2E
100
AcDbEntity
  8
ASHADE
  6
Continuous
 62
     7
100
AcDbLine
 10
0.0
 20
0.3
 30
0.0
 11
0.0
 21
0.5
 31
0.0
  0
LINE
  5
3D
330
2E
100
AcDbEntity
  8
ASHADE
  6
Continuous
 62
     7
100
AcDbLine
 10
0.11
 20
0.2791057147390572
 30
0.0
 11
0.11
 21
0.5
 31
0.0
  0
ATTDEF
  5
3E
330
2E
100
AcDbEntity
  8
ASHADE
  6
Continuous
 62
     7
100
AcDbText
 10
0.0
 20
0.265
 30
0.0
 40
0.01
  1

100
AcDbAttributeDefinition
280
     0
  3
Look-at X
  2
LAX
 70
     1
280
     0
  0
ATTDEF
  5
3F
330
2E
100
AcDbEntity
  8
ASHADE
  6
Continuous
 62
     7
100
AcDbText
 10
0.0
 20
0.28
 30
0.0
 40
0.01
  1

100
AcDbAttributeDefinition
280
     0
  3

  2
GNAME
 70
     1
280
     0
  0
ENDBLK
  5
41
330
2E
100
AcDbEntity
  8
0
100
AcDbBlockEnd
  0
BLOCK
  5
5D
330
42
100
AcDbEntity
  8
0
100
AcDbBlockBegin
  2
overhead
 70
     2
 10
0.0
 20
0.0
 30
0.0
  3
overhead
  1

  0
ATTDEF
  5
43
330
42
100
AcDbEntity
  8
ASHADE
  6
Continuous
 62
     1
100
AcDbText
 10
0.0
 20
-0.1
 30
0.0
 40
0.2
  1

  7
ASHADE
 72
     1
 11
0.0
 21
-0.1
 31
0.0
100
AcDbAttributeDefinition
280
     0
  3
Light Name
  2
SNAME
 70
     0
280
     0
  0
ARC
  5
44
330
42
100
AcDbEntity
  8
ASHADE
  6
Continuous
 62
     7
100
AcDbCircle
 10
0.0
 20
0.0
 30
0.0
 40
0.3
100
AcDbArc
 50
205.6792886194569
 51
334.3207113805431
  0
LINE
  5
45
330
42
100
AcDbEntity
  8
ASHADE
  6
Continuous
 62
     7
100
AcDbLine
 10
-0.2041413561583015
 20
-0.2198324514393848
 30
0.0
 11
-0.2721884748777353
 21
-0.2931099352525131
 31
0.0
  0
LINE
  5
46
330
42
100
AcDbEntity
  8
ASHADE
  6
Continuous
 62
     7
100
AcDbLine
 10
-0.1096591641591904
 20
-0.2792398032442862
 30
0.0
 11
-0.1279356915190555
 21
-0.3257797704516673
 31
0.0
  0
LINE
  5
47
330
42
100
AcDbEntity
  8
ASHADE
  6
Continuous
 62
     7
100
AcDbLine
 10
0.0
 20
-0.2999999999999999
 30
0.0
 11
0.0
 21
-0.4
 31
0.0
  0
LINE
  5
48
330
42
100
AcDbEntity
  8
ASHADE
  6
Continuous
 62
     7
100
AcDbLine
 10
0.1096591641591904
 20
-0.2792398032442862
 30
0.0
 11
0.1279356915190555
 21
-0.3257797704516673
 31
0.0
  0
LINE
  5
49
330
42
100
AcDbEntity
  8
ASHADE
  6
Continuous
 62
     7
100
AcDbLine
 10
0.2041413561583015
 20
-0.2198324514393848
 30
0.0
 11
0.2721884748777353
 21
-0.2931099352525131
 31
0.0
  0
ARC
  5
4A
330
42
100
AcDbEntity
  8
ASHADE
  6
Continuous
 62
     7
100
AcDbCircle
 10
0.0
 20
0.0
 30
0.0
 40
0.3
100
AcDbArc
 50
25.67928861945685
 51
154.3207113805431
  0
LINE
  5
4B
330
42
100
AcDbEntity
  8
ASHADE
  6
Continuous
 62
     7
100
AcDbLine
 10
-0.2703701166919155
 20
0.13
 30
0.0
 11
-0.3154318028072347
 21
0.1516666666666666
 31
0.0
  0
LINE
  5
4C
330
42
100
AcDbEntity
  8
ASHADE
  6
Continuous
 62
     7
100
AcDbLine
 10
-0.2703701166919155
 20
-0.13
 30
0.0
 11
-0.3154318028072347
 21
-0.1516666666666666
 31
0.0
  0
LINE
  5
4D
330
42
100
AcDbEntity
  8
ASHADE
  6
Continuous
 62
     7
100
AcDbLine
 10
-0.2041413561583015
 20
0.2198324514393849
 30
0.0
 11
-0.2721884748777353
 21
0.2931099352525131
 31
0.0
  0
LINE
  5
4E
330
42
100
AcDbEntity
  8
ASHADE
  6
Continuous
 62
     7
100
AcDbLine
 10
-0.1096591641591904
 20
0.2792398032442862
 30
0.0
 11
-0.1279356915190555
 21
0.3257797704516674
 31
0.0
  0
LINE
  5
4F
330
42
100
AcDbEntity
  8
ASHADE
  6
Continuous
 62
     7
100
AcDbLine
 10
0.2703701166919155
 20
-0.13
 30
0.0
 11
0.3154318028072347
 21
-0.1516666666666666
 31
0.0
  0
LINE
  5
50
330
42
100
AcDbEntity
  8
ASHADE
  6
Continuous
 62
     7
100
AcDbLine
 10
0.2703701166919155
 20
0.13
 30
0.0
 11
0.3154318028072347
 21
0.1516666666666666
 31
0.0
  0
LINE
  5
51
330
42
100
AcDbEntity
  8
ASHADE
  6
Continuous
 62
     7
100
AcDbLine
 10
0.0
 20
0.3
 30
0.0
 11
0.0
 21
0.4
 31
0.0
  0
ATTDEF
  5
52
330
42
100
AcDbEntity
  8
ASHADE
  6
Continuous
 62
     7
100
AcDbText
 10
0.0
 20
0.22
 30
0.0
 40
0.01
  1
1
100
AcDbAttributeDefinition
280
     0
  3
Light Intensity
  2
INTENSITY
 70
     1
280
     0
  0
ATTDEF
  5
53
330
42
100
AcDbEntity
  8
ASHADE
  6
Continuous
 62
     7
100
AcDbText
 10
0.0
 20
0.16
 30
0.0
 40
0.01
  1
-1
100
AcDbAttributeDefinition
280
     0
  3
*not used*
  2
BEAMD
 70
     1
280
     0
  0
ATTDEF
  5
54
330
42
100
AcDbEntity
  8
ASHADE
  6
Continuous
 62
     7
100
AcDbText
 10
0.0
 20
0.175
 30
0.0
 40
0.01
  1
-1
100
AcDbAttributeDefinition
280
     0
  3
*not used*
  2
CONED
 70
     1
280
     0
  0
ATTDEF
  5
55
330
42
100
AcDbEntity
  8
ASHADE
  6
Continuous
 62
     7
100
AcDbText
 10
0.0
 20
0.19
 30
0.0
 40
0.01
  1
0
100
AcDbAttributeDefinition
280
     0
  3
Depth Map Size
  2
CONEA
 70
     1
280
     0
  0
ATTDEF
  5
56
330
42
100
AcDbEntity
  8
ASHADE
  6
Continuous
 62
     7
100
AcDbText
 10
0.0
 20
0.2050000000000001
 30
0.0
 40
0.01
  1
1,1,1
100
AcDbAttributeDefinition
280
     0
  3
Light Color (RGB)
  2
COLOR
 70
     1
280
     0
  0
ATTDEF
  5
57
330
42
100
AcDbEntity
  8
ASHADE
  6
Continuous
 62
     7
100
AcDbText
 10
0.0
 20
0.235
 30
0.0
 40
0.01
  1

100
AcDbAttributeDefinition
280
     0
  3
Look-at Z
  2
LAZ
 70
     1
280
     0
  0
ATTDEF
  5
58
330
42
100
AcDbEntity
  8
ASHADE
  6
Continuous
 62
     7
100
AcDbText
 10
0.0
 20
0.25
 30
0.0
 40
0.01
  1

100
AcDbAttributeDefinition
280
     0
  3
Look-at Y
  2
LAY
 70
     1
280
     0
  0
ATTDEF
  5
59
330
42
100
AcDbEntity
  8
ASHADE
  6
Continuous
 62
     7
100
AcDbText
 10
0.0
 20
0.265
 30
0.0
 40
0.01
  1

100
AcDbAttributeDefinition
280
     0
  3
Look-at X
  2
LAX
 70
     1
280
     0
  0
ATTDEF
  5
5A
330
42
100
AcDbEntity
  8
ASHADE
  6
Continuous
 62
     7
100
AcDbText
 10
0.0
 20
0.28
 30
0.0
 40
0.01
  1

100
AcDbAttributeDefinition
280
     0
  3

  2
GNAME
 70
     1
280
     0
  0
LINE
  5
5B
330
42
100
AcDbEntity
  8
ASHADE
  6
Continuous
 62
     7
100
AcDbLine
 10
0.1096591641591904
 20
0.2792398032442862
 30
0.0
 11
0.1279356915190555
 21
0.3257797704516674
 31
0.0
  0
LINE
  5
5C
330
42
100
AcDbEntity
  8
ASHADE
  6
Continuous
 62
     7
100
AcDbLine
 10
0.2041413561583015
 20
0.2198324514393849
 30
0.0
 11
0.2721884748777353
 21
0.2931099352525131
 31
0.0
  0
ENDBLK
  5
5E
330
42
100
AcDbEntity
  8
0
100
AcDbBlockEnd
  0
BLOCK
  5
85
330
5F
100
AcDbEntity
  8
0
100
AcDbBlockBegin
  2
sh_spot
 70
     2
 10
0.0
 20
0.0
 30
0.0
  3
sh_spot
  1

  0
LINE
  5
60
330
5F
100
AcDbEntity
  8
ASHADE
  6
Continuous
 62
     7
100
AcDbLine
 10
0.25
 20
0.26
 30
0.0
 11
-0.25
 21
0.26
 31
0.0
  0
LINE
  5
61
330
5F
100
AcDbEntity
  8
ASHADE
  6
Continuous
 62
     7
100
AcDbLine
 10
-0.25
 20
-0.3399999999999999
 30
0.0
 11
0.25
 21
-0.3399999999999999
 31
0.0
  0
ATTDEF
  5
62
330
5F
100
AcDbEntity
  8
ASHADE
  6
Continuous
 62
     1
100
AcDbText
 10
0.0
 20
-0.1
 30
0.0
 40
0.2
  1

  7
ASHADE
 72
     1
 11
0.0
 21
-0.1
 31
0.0
100
AcDbAttributeDefinition
280
     0
  3
Light Name
  2
SNAME
 70
     0
280
     0
  0
LINE
  5
63
330
5F
100
AcDbEntity
  8
ASHADE
  6
Continuous
 62
     7
100
AcDbLine
 10
-0.25
 20
-0.13
 30
0.0
 11
-0.25
 21
-0.3399999999999999
 31
0.0
  0
LINE
  5
64
330
5F
100
AcDbEntity
  8
ASHADE
  6
Continuous
 62
     7
100
AcDbLine
 10
-0.25
 20
-0.18
 30
0.0
 11
-0.29
 21
-0.18
 31
0.0
  0
LINE
  5
65
330
5F
100
AcDbEntity
  8
ASHADE
  6
Continuous
 62
     7
100
AcDbLine
 10
-0.29
 20
-0.22
 30
0.0
 11
-0.25
 21
-0.22
 31
0.0
  0
LINE
  5
66
330
5F
100
AcDbEntity
  8
ASHADE
  6
Continuous
 62
     7
100
AcDbLine
 10
-0.29
 20
-0.18
 30
0.0
 11
-0.29
 21
-0.22
 31
0.0
  0
LINE
  5
67
330
5F
100
AcDbEntity
  8
ASHADE
  6
Continuous
 62
     7
100
AcDbLine
 10
-0.1045454545454545
 20
0.26
 30
0.0
 11
-0.15
 21
0.46
 31
0.0
  0
LINE
  5
68
330
5F
100
AcDbEntity
  8
ASHADE
  6
Continuous
 62
     7
100
AcDbLine
 10
-0.21
 20
0.26
 30
0.0
 11
-0.301304347826087
 21
0.46
 31
0.0
  0
LINE
  5
69
330
5F
100
AcDbEntity
  8
ASHADE
  6
Continuous
 62
     7
100
AcDbLine
 10
-0.25
 20
0.26
 30
0.0
 11
-0.25
 21
0.13
 31
0.0
  0
LINE
  5
6A
330
5F
100
AcDbEntity
  8
ASHADE
  6
Continuous
 62
     7
100
AcDbLine
 10
-0.25
 20
0.22
 30
0.0
 11
-0.29
 21
0.22
 31
0.0
  0
LINE
  5
6B
330
5F
100
AcDbEntity
  8
ASHADE
  6
Continuous
 62
     7
100
AcDbLine
 10
-0.29
 20
0.1799999999999999
 30
0.0
 11
-0.25
 21
0.1799999999999999
 31
0.0
  0
LINE
  5
6C
330
5F
100
AcDbEntity
  8
ASHADE
  6
Continuous
 62
     7
100
AcDbLine
 10
-0.29
 20
0.22
 30
0.0
 11
-0.29
 21
0.1799999999999999
 31
0.0
  0
ATTDEF
  5
6D
330
5F
100
AcDbEntity
  8
ASHADE
  6
Continuous
 62
     7
100
AcDbText
 10
0.0
 20
-0.24
 30
0.0
 40
0.01
  1
0
100
AcDbAttributeDefinition
280
     0
  3
Depth Map Size
  2
ZSIZE
 70
     1
280
     0
  0
ATTDEF
  5
6E
330
5F
100
AcDbEntity
  8
ASHADE
  6
Continuous
 62
     7
100
AcDbText
 10
0.0
 20
-0.3300000000000001
 30
0.0
 40
0.01
  1
0,0,0
100
AcDbAttributeDefinition
280
     0
  3
Look-from XYZ
  2
LFXYZ
 70
     1
280
     0
  0
ATTDEF
  5
6F
330
5F
100
AcDbEntity
  8
ASHADE
  6
Continuous
 62
     7
100
AcDbText
 10
0.0
 20
-0.315
 30
0.0
 40
0.01
  1
0.0
100
AcDbAttributeDefinition
280
     0
  3
Beam Distribution
  2
BEAMDI
 70
     1
280
     0
  0
ATTDEF
  5
70
330
5F
100
AcDbEntity
  8
ASHADE
  6
Continuous
 62
     7
100
AcDbText
 10
0.0
 20
-0.3
 30
0.0
 40
0.01
  1
0.0
100
AcDbAttributeDefinition
280
     0
  3
Cone Delta
  2
CONEDE
 70
     1
280
     0
  0
ATTDEF
  5
71
330
5F
100
AcDbEntity
  8
ASHADE
  6
Continuous
 62
     7
100
AcDbText
 10
0.0
 20
-0.2850000000000001
 30
0.0
 40
0.01
  1
10.0
100
AcDbAttributeDefinition
280
     0
  3
Cone Angle
  2
CONEAN
 70
     1
280
     0
  0
ATTDEF
  5
72
330
5F
100
AcDbEntity
  8
ASHADE
  6
Continuous
 62
     7
100
AcDbText
 10
0.0
 20
-0.27
 30
0.0
 40
0.01
  1
-1
100
AcDbAttributeDefinition
280
     0
  3
*not used*
  2
BIASMAX
 70
     1
280
     0
  0
ATTDEF
  5
73
330
5F
100
AcDbEntity
  8
ASHADE
  6
Continuous
 62
     7
100
AcDbText
 10
0.0
 20
-0.255
 30
0.0
 40
0.01
  1
-1
100
AcDbAttributeDefinition
280
     0
  3
*not used*
  2
BIASMIN
 70
     1
280
     0
  0
ATTDEF
  5
74
330
5F
100
AcDbEntity
  8
ASHADE
  6
Continuous
 62
     7
100
AcDbText
 10
0.0
 20
-0.225
 30
0.0
 40
0.01
  1
1,1,1
100
AcDbAttributeDefinition
280
     0
  3
Light Color (RGB)
  2
COLOR
 70
     1
280
     0
  0
ATTDEF
  5
75
330
5F
100
AcDbEntity
  8
ASHADE
  6
Continuous
 62
     7
100
AcDbText
 10
0.0
 20
-0.21
 30
0.0
 40
0.01
  1
1
100
AcDbAttributeDefinition
280
     0
  3
Light Intensity
  2
INTENSITY
 70
     1
280
     0
  0
ATTDEF
  5
76
330
5F
100
AcDbEntity
  8
ASHADE
  6
Continuous
 62
     7
100
AcDbText
 10
0.0
 20
-0.15
 30
0.0
 40
0.01
  1

100
AcDbAttributeDefinition
280
     0
  3

  2
GNAME
 70
     1
280
     0
  0
ATTDEF
  5
77
330
5F
100
AcDbEntity
  8
ASHADE
  6
Continuous
 62
     7
100
AcDbText
 10
0.0
 20
-0.195
 30
0.0
 40
0.01
  1

100
AcDbAttributeDefinition
280
     0
  3
Look-at Z
  2
LAZ
 70
     1
280
     0
  0
ATTDEF
  5
78
330
5F
100
AcDbEntity
  8
ASHADE
  6
Continuous
 62
     7
100
AcDbText
 10
0.0
 20
-0.18
 30
0.0
 40
0.01
  1

100
AcDbAttributeDefinition
280
     0
  3
Look-at Y
  2
LAY
 70
     1
280
     0
  0
ATTDEF
  5
79
330
5F
100
AcDbEntity
  8
ASHADE
  6
Continuous
 62
     7
100
AcDbText
 10
0.0
 20
-0.165
 30
0.0
 40
0.01
  1

100
AcDbAttributeDefinition
280
     0
  3
Look-at X
  2
LAX
 70
     1
280
     0
  0
LINE
  5
7A
330
5F
100
AcDbEntity
  8
ASHADE
  6
Continuous
 62
     7
100
AcDbLine
 10
0.25
 20
-0.3399999999999999
 30
0.0
 11
0.25
 21
-0.13
 31
0.0
  0
LINE
  5
7B
330
5F
100
AcDbEntity
  8
ASHADE
  6
Continuous
 62
     7
100
AcDbLine
 10
0.25
 20
-0.18
 30
0.0
 11
0.29
 21
-0.18
 31
0.0
  0
LINE
  5
7C
330
5F
100
AcDbEntity
  8
ASHADE
  6
Continuous
 62
     7
100
AcDbLine
 10
0.29
 20
-0.22
 30
0.0
 11
0.25
 21
-0.22
 31
0.0
  0
LINE
  5
7D
330
5F
100
AcDbEntity
  8
ASHADE
  6
Continuous
 62
     7
100
AcDbLine
 10
0.29
 20
-0.18
 30
0.0
 11
0.29
 21
-0.22
 31
0.0
  0
LINE
  5
7E
330
5F
100
AcDbEntity
  8
ASHADE
  6
Continuous
 62
     7
100
AcDbLine
 10
0.21
 20
0.26
 30
0.0
 11
0.301304347826087
 21
0.46
 31
0.0
  0
LINE
  5
7F
330
5F
100
AcDbEntity
  8
ASHADE
  6
Continuous
 62
     7
100
AcDbLine
 10
0.1045454545454545
 20
0.26
 30
0.0
 11
0.15
 21
0.46
 31
0.0
  0
LINE
  5
80
330
5F
100
AcDbEntity
  8
ASHADE
  6
Continuous
 62
     7
100
AcDbLine
 10
0.0
 20
0.26
 30
0.0
 11
0.0
 21
0.46
 31
0.0
  0
LINE
  5
81
330
5F
100
AcDbEntity
  8
ASHADE
  6
Continuous
 62
     7
100
AcDbLine
 10
0.25
 20
0.13
 30
0.0
 11
0.25
 21
0.26
 31
0.0
  0
LINE
  5
82
330
5F
100
AcDbEntity
  8
ASHADE
  6
Continuous
 62
     7
100
AcDbLine
 10
0.25
 20
0.22
 30
0.0
 11
0.29
 21
0.22
 31
0.0
  0
LINE
  5
83
330
5F
100
AcDbEntity
  8
ASHADE
  6
Continuous
 62
     7
100
AcDbLine
 10
0.29
 20
0.1799999999999999
 30
0.0
 11
0.25
 21
0.1799999999999999
 31
0.0
  0
LINE
  5
84
330
5F
100
AcDbEntity
  8
ASHADE
  6
Continuous
 62
     7
100
AcDbLine
 10
0.29
 20
0.22
 30
0.0
 11
0.29
 21
0.1799999999999999
 31
0.0
  0
ENDBLK
  5
86
330
5F
100
AcDbEntity
  8
0
100
AcDbBlockEnd
  0
BLOCK
  5
92
330
91
100
AcDbEntity
  8
ASHADE
100
AcDbBlockBegin
  2
AVE_RENDER
 70
     0
 10
0.0
 20
0.0
 30
0.0
  3
AVE_RENDER
  1
AVE_RENDER
  0
ENDBLK
  5
93
330
91
100
AcDbEntity
  8
0
100
AcDbBlockEnd
  0
BLOCK
  5
A0
330
9F
100
AcDbEntity
  8
ASHADE
100
AcDbBlockBegin
  2
AVE_GLOBAL
 70
     0
 10
0.0
 20
0.0
 30
0.0
  3
AVE_GLOBAL
  1
AVE_GLOBAL
  0
ENDBLK
  5
A1
330
9F
100
AcDbEntity
  8
0
100
AcDbBlockEnd
  0
ENDSEC
  0
SECTION
  2
ENTITIES
  0
INSERT
  5
94
330
1F
100
AcDbEntity
  8
ASHADE
 62
     1
100
AcDbBlockReference
  2
AVE_RENDER
 10
0.0
 20
0.0
 30
0.0
1001
AVE_RENDER
1002
{
1070
     7
1000
Pref
1070
    30
1070
    20
1070
     1
1070
     0
1000

1070
    10
1070
     1
1070
    10
1040
1.0
1070
     1
1040
0.3
1040
0.7
1040
0.0
1040
10.0
1010
-1.0
1020
-1.0
1030
-1.0
1040
0.3
1070
    49
1070
     0
1070
     0
1010
1.0
1020
1.0
1030
1.0
1040
45.0
1070
     1
1070
     0
1000
WCS
1040
0.0
1070
     0
1040
10.0
1002
}
  0
INSERT
  5
95
330
1F
100
AcDbEntity
  8
ASHADE
 62
     3
100
AcDbBlockReference
  2
AVE_RENDER
 10
0.0
 20
0.0
 30
0.0
1001
AVE_RENDER
1002
{
1070
     0
1000
Full Opt
1070
     0
1070
     1
1070
     1
1070
     1
1070
     0
1070
     0
1070
     0
1070
     1
1070
     1
1040
0.0001
1040
0.0001
1002
}
  0
INSERT
  5
96
330
1F
100
AcDbEntity
  8
ASHADE
 62
     4
100
AcDbBlockReference
  2
AVE_RENDER
 10
0.0
 20
0.0
 30
0.0
1001
AVE_RENDER
1002
{
1070
     0
1000
Quick Opt
1070
     0
1070
     1
1070
     1
1070
     1
1070
     0
1070
     0
1070
     1
1002
}
  0
INSERT
  5
97
330
1F
100
AcDbEntity
  8
ASHADE
 62
     5
100
AcDbBlockReference
  2
AVE_RENDER
 10
0.0
 20
0.0
 30
0.0
1001
AVE_RENDER
1002
{
1070
     1
1000
Scanl Opt
1070
     2
1070
     0
1070
     2
1040
2.0
1040
4.0
1070
     0
1070
     1
1070
     0
1040
0.03
1002
}
  0
INSERT
  5
98
330
1F
100
AcDbEntity
  8
ASHADE
 62
     6
100
AcDbBlockReference
  2
AVE_RENDER
 10
0.0
 20
0.0
 30
0.0
1001
AVE_RENDER
1002
{
1070
     2
1000
Raytr Opt
1070
     2
1070
     0
1070
     2
1040
2.0
1040
4.0
1070
     0
1070
     1
1070
     1
1040
0.03
1070
     3
1040
0.03
1002
}
  0
INSERT
  5
99
330
1F
100
AcDbEntity
  8
ASHADE
 62
     7
100
AcDbBlockReference
  2
AVE_RENDER
 10
0.0
 20
0.0
 30
0.0
1001
AVE_RENDER
1002
{
1070
     0
1000
RFile Opt
1070
     1
1070
   640
1070
   480
1070
 10000
1070
     1
1070
     8
1070
     8
1070
     0
1070
     0
1070
     0
1070
     0
1070
     0
1070
     0
1070
     0
1002
}
  0
INSERT
  5
9A
330
1F
100
AcDbEntity
  8
ASHADE
 62
     8
100
AcDbBlockReference
  2
AVE_RENDER
 10
0.0
 20
0.0
 30
0.0
1001
AVE_RENDER
1002
{
1070
     0
1000
Fog Opt
1070
     0
1070
     0
1040
0.0
1040
1.0
1040
0.0
1040
1.0
1010
0.5
1020
0.5
1030
0.5
1002
}
  0
INSERT
  5
9B
330
1F
100
AcDbEntity
  8
ASHADE
 62
     9
100
AcDbBlockReference
  2
AVE_RENDER
 10
0.0
 20
0.0
 30
0.0
1001
AVE_RENDER
1002
{
1070
     0
1000
BG Opt
1070
     0
1070
     1
1010
0.0
1020
0.0
1030
0.0
1010
1.0
1020
0.0
1030
0.0
1010
0.0
1020
1.0
1030
0.0
1010
0.0
1020
0.0
1030
1.0
1040
0.5
1040
0.33
1040
0.0
1000

1070
     1
1000

1070
     1
1070
     1
1040
1.0
1040
1.0
1040
0.0
1040
0.0
1070
     0
1002
}
  0
INSERT
  5
A2
330
1F
100
AcDbEntity
  8
ASHADE
 62
     1
100
AcDbBlockReference
  2
AVE_GLOBAL
 10
0.0
 20
0.0
 30
0.0
1001
AVE_MATERIAL
1002
{
1000
*GLOBAL*
1000
2
1000
Global finish.
1002
{
1002
}
1002
{
1070
    63
1002
{
1002
{
1010
-1.0
1020
-1.0
1030
-1.0
1002
}
1040
0.1000000014901161
1000

1040
0.0
1002
{
1002
}
1040
0.0
1002
{
1002
}
1040
0.0
1002
}
1002
{
1002
{
1010
-1.0
1020
-1.0
1030
-1.0
1002
}
1040
0.6999999880790711
1000

1040
0.0
1002
{
1002
}
1040
0.0
1002
{
1002
}
1040
0.0
1002
}
1002
{
1002
{
1010
-1.0
1020
-1.0
1030
-1.0
1002
}
1040
0.2000000029802322
1000

1040
0.0
1002
{
1002
}
1040
0.0
1002
{
1002
}
1040
0.0
1002
}
1002
{
1070
     0
1002
{
1070
     1
1002
{
1040
1.0
1040
1.0
1000

1040
0.0
1002
{
1002
}
1040
0.0
1002
{
1002
}
1040
0.0
1002
}
1002
}
1040
1.0
1040
0.0
1040
0.0
1002
}
1002
{
1040
1.0
1040
1.0
1000

1040
0.0
1002
{
1002
}
1040
0.0
1002
{
1002
}
1040
0.0
1002
}
1002
{
1040
0.5
1040
1.0
1000

1040
0.0
1002
{
1002
}
1040
0.0
1002
{
1002
}
1040
0.0
1002
}
1002
{
1070
     0
1040
0.0
1002
{
1002
}
1040
1.0
1002
{
1002
}
1040
0.0
1002
}
1002
{
1040
0.0
1002
{
1002
{
1010
0.0
1020
0.0
1030
0.0
1002
}
1040
1.0
1000

1040
0.0
1002
{
1002
}
1040
0.0
1002
{
1002
}
1040
0.0
1002
}
1002
}
1002
{
1002
{
1070
     1
1002
{
1040
0.0
1040
1.0
1000

1040
0.0
1002
{
1002
}
1040
0.0
1002
{
1002
}
1040
0.0
1002
}
1002
}
1040
0.0
1002
{
1002
}
1010
1.0
1020
0.0
1030
0.0
1010
0.0
1020
1.0
1030
0.0
1010
0.0
1020
0.0
1030
1.0
1070
     0
1002
}
1002
{
1002
{
1040
1.0
1040
1.0
1002
{
1070
     1
1002
{
1040
1.0
1040
1.0
1000

1040
0.0
1002
{
1002
}
1040
0.0
1002
{
1002
}
1040
0.0
1002
}
1002
}
1002
}
1070
     0
1040
0.0
1002
{
1002
}
1002
}
1002
{
1002
}
1002
}
1002
{
1071
        3
1070
     3
1070
     0
1002
{
1070
     2
1070
     0
1070
     0
1040
0.0
1002
}
1070
     0
1070
     2
1002
{
1002
}
1002
}
1002
{
1040
8030.0
1040
190.3000030517578
1040
0.3050000071525574
1040
228.0
1040
545.0
1040
14.0
1040
17.39999961853027
1040
0.4560000002384186
1002
}
1002
}
  0
MESH
  5
F9
330
1F
100
AcDbEntity
  8
OracDecor_panel_moldings
 62
    81
420
 10085529
160
             41552
310
50A20000820400000C00000013000000020000003C0000000600000002000000000000E02C9B8EC0000000004094A1BF0000000086E66140000000A0EE948EC0000000004094A1BF000000E053F261400C000000130000000A0000003C0000000600000002000000000000E02C9B8EC0000000004094A1BF0000000086E661
310
40000000E0FF3F8FC0000000008094A1BF00000080AEEB62400C00000013000000120000003C0000000600000002000000000000E0FF3F8FC0000000008094A1BF00000080AEEB6240000000A0EE948EC0000000004094A1BF000000E053F261400C000000130000001A0000003C000000060000000200000000000040F09F
310
8EC0000000004094A1BF00000020CBCA6140000000E02C9B8EC0000000004094A1BF0000000086E661400C00000013000000220000003C000000060000000200000000000040F09F8EC0000000004094A1BF00000020CBCA6140000000E0FF3F8FC0000000008094A1BF00000080AEEB62400C000000130000002A0000003C
310
000000060000000200000000000040F09F8EC0000000004094A1BF00000080D68C6140000000E02C9B8EC0000000004094A1BF00000040477761400C00000013000000320000003C0000000600000002000000000000E0FF3F8FC0000000000094A1BF0000008099705F40000000E02C9B8EC0000000004094A1BF00000040
310
477761400C000000130000003A0000003C0000000600000002000000000000E0FF3F8FC0000000000094A1BF0000008099705F4000000040F09F8EC0000000004094A1BF00000080D68C61400C00000013000000420000003C000000060000000200000000000060E9948EC0000000006ED0F6BF000000A0DA7D6140000000
310
A03C9A8EC0000000009A66F4BF000000401C8561400C000000130000004A0000003C000000060000000200000000000060E9948EC0000000006ED0F6BF000000A0DA7D6140000000A0EE948EC0000000004094A1BF000000C07D6B61400C00000013000000520000003C0000000600000002000000000000A0EE948EC00000
310
00004094A1BF000000C07D6B6140000000E02C9B8EC0000000004094A1BF00000040477761400C000000130000005A0000003C0000000600000002000000000000A03C9A8EC0000000009A66F4BF000000401C856140000000E02C9B8EC0000000004094A1BF00000040477761400C00000013000000620000003C00000006
310
0000000200000000000060E9948EC0000000002BD001C0000000209C9C6140000000A03C9A8EC000000000CA29FFBF00000080659E61400C000000130000006A0000003C000000060000000200000000000060E9948EC0000000006ED0F6BF000000A0DA7D614000000060E9948EC0000000002BD001C0000000209C9C6140
310
0C00000013000000720000003C0000000600000002000000000000A03C9A8EC0000000009A66F4BF000000401C856140000000A03C9A8EC000000000CA29FFBF00000080659E61400C000000130000007A0000003C0000000600000002000000000000A03C9A8EC000000000CA29FFBF00000080659E6140000000A03C9A8E
310
C000000000CA29FFBF0000008067BF61400C00000013000000820000003C000000060000000200000000000060E9948EC00000000081A901C00000008035C26140000000A03C9A8EC000000000CA29FFBF0000008067BF61400C000000130000008A0000003C000000060000000200000000000060E9948EC0000000002BD0
310
01C0000000209C9C614000000060E9948EC00000000081A901C00000008035C261400C00000013000000920000003C0000000600000002000000000000A03C9A8EC0000000009A66F4BF00000000B1D86140000000A03C9A8EC000000000CA29FFBF0000008067BF61400C000000130000009A0000003C0000000600000002
310
00000000000060E9948EC000000000E25CF6BF00000080B8E06140000000A03C9A8EC0000000009A66F4BF00000000B1D861400C00000013000000A20000003C000000060000000200000000000060E9948EC00000000081A901C00000008035C2614000000060E9948EC000000000E25CF6BF00000080B8E061400C000000
310
13000000AA0000003C0000000600000002000000000000A03C9A8EC0000000009A66F4BF00000000B1D86140000000E02C9B8EC0000000004094A1BF0000000086E661400C00000013000000B20000003C000000060000000200000000000060E9948EC000000000E25CF6BF00000080B8E06140000000A0EE948EC0000000
310
004094A1BF000000E053F261400C00000013000000BA0000003C0000000600000002000000000000A03C9A8EC0000000009A66F4BF00000000B1D8614000000000139E8EC0000000002C5AEEBF00000060DAC661400C00000013000000C20000003C000000060000000200000000000000139E8EC0000000002C5AEEBF0000
310
0060DAC6614000000040F09F8EC0000000004094A1BF00000020CBCA61400C00000013000000CA0000003C0000000600000002000000000000601EA18EC0000000004094A1BF000000802CAC614000000040F09F8EC0000000004094A1BF00000020CBCA61400C00000013000000D20000003C000000060000000200000000
310
000000139E8EC0000000002C5AEEBF00000060DAC66140000000601EA18EC0000000004094A1BF000000802CAC61400C00000013000000DA0000003C000000060000000200000000000000139E8EC0000000002C5AEEBF000000C0F296614000000040F09F8EC0000000004094A1BF00000080D68C61400C00000013000000
310
E20000003C0000000600000002000000000000A03C9A8EC0000000009A66F4BF000000401C85614000000000139E8EC0000000002C5AEEBF000000C0F29661400C00000013000000EA0000003C000000060000000200000000000000139E8EC0000000002C5AEEBF000000C0F296614000000000139E8EC0000000003E58F5
310
BF0000000071A561400C00000013000000F20000003C0000000600000002000000000000A03C9A8EC000000000CA29FFBF00000080659E614000000000139E8EC0000000003E58F5BF0000000071A561400C00000013000000FA0000003C000000060000000200000000000000139E8EC0000000003E58F5BF0000000071A5
310
614000000000139E8EC0000000003E58F5BF000000205CB861400C00000013000000020100003C0000000600000002000000000000A03C9A8EC000000000CA29FFBF0000008067BF614000000000139E8EC0000000003E58F5BF000000205CB861400C000000130000000A0100003C00000006000000020000000000000013
310
9E8EC0000000002C5AEEBF00000060DAC6614000000000139E8EC0000000003E58F5BF000000205CB861400C00000013000000120100003C0000000600000002000000000000601EA18EC0000000004094A1BF000000802CAC614000000000139E8EC0000000002C5AEEBF000000C0F29661400C000000130000001A010000
310
3C0000000600000002000000000000601EA18EC0000000004094A1BF000000802CAC614000000040F09F8EC0000000004094A1BF00000080D68C61400C00000013000000220100003C0000000600000002000000000000601EA18EC0000000004094A1BF000000802CAC614000000000139E8EC0000000003E58F5BF000000
310
0071A561400C000000130000002A0100003C0000000600000002000000000000601EA18EC0000000004094A1BF000000802CAC614000000000139E8EC0000000003E58F5BF000000205CB861400C00000013000000320100003C000000060000000200000000000060E9948EC000000000E25CF6BF00000080B8E061400000
310
0060E9948E4000000000E25CF6BF00000080B8E061400C000000130000003A0100003C000000060000000200000000000060E9948E400000000081A901C00000008035C2614000000060E9948E4000000000E25CF6BF00000080B8E061400C00000013000000420100003C000000060000000200000000000060E9948EC000
310
00000081A901C00000008035C2614000000060E9948E400000000081A901C00000008035C261400C000000130000004A0100003C0000000600000002000000000000E0FF3F8FC0000000000094A1BF0000008099705F40000000A0EE948EC0000000004094A1BF000000C07D6B61400C00000013000000520100003C000000
310
0600000002000000000000E0FF3F8FC0000000000094A1BF0000008099705F40000000601EA18EC0000000004094A1BF000000802CAC61400C000000130000005A0100003C0000000600000002000000000000601EA18EC0000000004094A1BF000000802CAC6140000000E0FF3F8FC0000000008094A1BF00000080AEEB62
310
400C00000013000000620100003C0000000600000002000000000000E0FF3F8FC0000000000094A1BF0000008099705F40000000E0FF3F8FC0000000008094A1BF00000080AEEB62400C000000130000006A0100003C0000000600000002000000000000E0FF3F8FC0000000A07BE433C000000080E31A7740000000E0FF3F
310
8FC000000000E68002C000000080A35876400C00000013000000720100003C0000000600000002000000000000E0FF3F8FC000000000E68002C000000080A3587640000000E0FF3F8FC00000000050CFFFBF000000A0284776400C000000130000007A0100003C0000000600000002000000000000E0FF3F8FC0000000807A
310
E433C000000080E41B7540000000E0FF3F8FC00000000050CFFFBF000000A0284776400C00000013000000820100003C0000000600000002000000000000E0FF3F8FC0000000A07BE433C000000080E31A7740000000E0FF3F8FC0000000807AE433C000000080E41B75400C000000130000008A0100003C00000006000000
310
02000000000000E0FF3F8FC0000000A05AA832C00000004073387740000000E0FF3F8FC0000000C04AE331C0000000E00E3B77400C00000013000000920100003C0000000600000002000000000000E0FF3F8FC000000000D01DF9BF00000020CF6D7640000000E0FF3F8FC0000000C04AE331C0000000E00E3B77400C0000
310
00130000009A0100003C0000000600000002000000000000E0FF3F8FC000000000D01DF9BF00000020CF6D7640000000E0FF3F8FC0000000A05AA832C000000040733877400C00000013000000A20100003C0000000600000002000000000000E0FF3F8FC0000000000000083F00000060FB3F7740000000E0FF3F8FC00000
310
00C04AE331C0000000E00E3B77400C00000013000000AA0100003C0000000600000002000000000000E0FF3F8FC0000000000000083F00000060FB3F7740000000E0FF3F8FC0000000000000083F00000020397976400C00000013000000B20100003C0000000600000002000000000000E0FF3F8FC0000000000000083F00
310
00002039797640000000E0FF3F8FC000000000D01DF9BF00000020CF6D76400C00000013000000BA0100003C0000000600000002000000000000E0FF3F8FC000000020B64E33C0000000A070317740000000E0FF3F8FC0000000A05AA832C000000040733877400C00000013000000C20100003C0000000600000002000000
310
000000E0FF3F8FC000000000D01DF9BF00000020CF6D7640000000E0FF3F8FC000000020B64E33C0000000A0703177400C00000013000000CA0100003C0000000600000002000000000000E0FF3F8FC0000000A07BE433C000000080E31A7740000000E0FF3F8FC0000000A097BD33C000000040122777400C000000130000
310
00D20100003C0000000600000002000000000000E0FF3F8FC000000000E68002C000000080A3587640000000E0FF3F8FC0000000A097BD33C000000040122777400C00000013000000DA0100003C0000000600000002000000000000E0FF3F8FC0000000A097BD33C00000004012277740000000E0FF3F8FC000000020B64E
310
33C0000000A0703177400C00000013000000E20100003C0000000600000002000000000000E0FF3F8FC000000000D01DF9BF00000020CF6D7640000000E0FF3F8FC000000000E68002C000000080A35876400C00000013000000EA0100003C0000000600000002000000000000E0FF3F8FC000000080D23B22C00000000029
310
FD7440000000E0FF3F8FC00000000012A121C0000000A0790675400C00000013000000F20100003C0000000600000002000000000000E0FF3F8FC0000000807AE433C000000080E41B7540000000E0FF3F8FC000000080D23B22C00000000029FD74400C00000013000000FA0100003C0000000600000002000000000000E0
310
FF3F8FC0000000807AE433C000000080E41B7540000000E0FF3F8FC00000000012A121C0000000A0790675400C00000013000000020200003C0000000600000002000000000000E0FF3F8FC0000000807AE433C000000080E41B7540000000E0FF3F8FC00000000068AD20C000000000C50D75400C000000130000000A0200
310
003C0000000600000002000000000000E0FF3F8FC00000000068AD20C000000000C50D7540000000E0FF3F8FC00000000012A121C0000000A0790675400C00000013000000120200003C0000000600000002000000000000E0FF3F8FC000000080586D22C000000060CEF27440000000E0FF3F8FC000000080D23B22C00000
310
000029FD74400C000000130000001A0200003C0000000600000002000000000000E0FF3F8FC0000000807AE433C000000080E41B7540000000E0FF3F8FC000000080586D22C000000060CEF274400C00000013000000220200003C0000000600000002000000000000E0FF3F8FC000000080099A24C0000000203158734000
310
0000E0FF3F8FC000000080586D22C000000060CEF274400C000000130000002A0200003C0000000600000002000000000000E0FF3F8FC000000080099A24C00000002031587340000000E0FF3F8FC000000060734234C0000000A0505274400C00000013000000320200003C0000000600000002000000000000E0FF3F8FC0
310
000000807AE433C000000080E41B7540000000E0FF3F8FC000000060734234C0000000A0505274400C000000130000003A0200003C0000000600000002000000000000E0FF3F8FC00000000050CFFFBF000000A028477640000000E0FF3F8FC000000000B071F5BF00000060C93D76400C00000013000000420200003C0000
310
000600000002000000000000E0FF3F8FC0000000807AE433C000000080E41B7540000000E0FF3F8FC000000000B071F5BF00000060C93D76400C000000130000004A0200003C0000000600000002000000000000E0FF3F8FC000000000B071F5BF00000060C93D7640000000E0FF3F8FC0000000000000083F000000C0BC35
310
76400C00000013000000520200003C0000000600000002000000000000E0FF3F8FC0000000807AE433C000000080E41B7540000000E0FF3F8FC0000000000000083F000000C0BC3576400C000000130000005A0200003C0000000600000002000000000000E0FF3F8FC00000000000000C3F000000203E697540000000E0FF
310
3F8FC0000000000000083F000000C0BC3576400C00000013000000620200003C0000000600000002000000000000E0FF3F8FC00000000068AD20C000000000C50D7540000000E0FF3F8FC00000000000000C3F000000203E6975400C000000130000006A0200003C0000000600000002000000000000E0FF3F8FC000000000
310
D7803EC0000000001C2F2940000000E0FF3F8FC0000000005C1701C000000000482E1B400C00000013000000720200003C0000000600000002000000000000E0FF3F8FC0000000005C1701C000000000482E1B40000000E0FF3F8FC000000000A43702C00000000038A916400C000000130000007A0200003C000000060000
310
0002000000000000E0FF3F8FC00000000089B73EC00000000040E9E03F000000E0FF3F8FC000000000A43702C00000000038A916400C00000013000000820200003C0000000600000002000000000000E0FF3F8FC00000000089B73EC00000000040E9E03F000000E0FF3F8FC000000000D7803EC0000000001C2F29400C00
310
0000130000008A0200003C0000000600000002000000000000E0FF3F8FC000000000D7803EC0000000001C2F2940000000E0FF3F8FC0000000000000023F00000000742228400C00000013000000920200003C0000000600000002000000000000E0FF3F8FC0000000000000023F0000000074222840000000E0FF3F8FC000
310
0000000000023F00000000844420400C000000130000009A0200003C0000000600000002000000000000E0FF3F8FC0000000000000023F0000000084442040000000E0FF3F8FC0000000000068F6BF0000000038591E400C00000013000000A20200003C0000000600000002000000000000E0FF3F8FC000000000D7803EC0
310
000000001C2F2940000000E0FF3F8FC0000000000068F6BF0000000038591E400C00000013000000AA0200003C0000000600000002000000000000E0FF3F8FC0000000000068F6BF0000000038591E40000000E0FF3F8FC0000000005C1701C000000000482E1B400C00000013000000B20200003C00000006000000020000
310
00000000E0FF3F8FC000000000A43702C00000000038A91640000000E0FF3F8FC00000000018C6F9BF00000000689012400C00000013000000BA0200003C0000000600000002000000000000E0FF3F8FC00000000089B73EC00000000040E9E03F000000E0FF3F8FC00000000018C6F9BF00000000689012400C0000001300
310
0000C20200003C0000000600000002000000000000E0FF3F8FC00000000018C6F9BF0000000068901240000000E0FF3F8FC0000000000000023F00000000D0530F400C00000013000000CA0200003C0000000600000002000000000000E0FF3F8FC0000000000000FC3E000000000000003F000000E0FF3F8FC00000000000
310
00023F00000000D0530F400C00000013000000D20200003C0000000600000002000000000000E0FF3F8FC00000000089B73EC00000000040E9E03F000000E0FF3F8FC0000000000000FC3E000000000000003F0C00000013000000DA0200003C0000000600000002000000000000E0FF3F8FC0000000801C3941C000000000
310
80D4E93F000000E0FF3F8FC00000000089B73EC00000000040E9E03F0C00000013000000E20200003C0000000600000002000000000000E0FF3F8FC0000000801C3941C00000000080D4E93F000000E0FF3F8FC000000000D7803EC0000000001C2F29400C00000013000000EA0200003C0000000600000002000000000000
310
E0FF3F8FC000000000D7803EC0000000001C2F2940000000E0FF3F8FC000000000998941C0000000007C602A400C00000013000000F20200003C0000000600000002000000000000E0FF3F8FC0000000C03DAB43C00000000080ECFB3F000000E0FF3F8FC0000000801C3941C00000000080D4E93F0C00000013000000FA02
310
00003C0000000600000002000000000000E0FF3F8FC0000000C03DAB43C00000000080ECFB3F000000E0FF3F8FC000000000998941C0000000007C602A400C00000013000000020300003C0000000600000002000000000000E0FF3F8FC0000000804E0646C00000000050C40A40000000E0FF3F8FC0000000C03DAB43C000
310
00000080ECFB3F0C000000130000000A0300003C0000000600000002000000000000E0FF3F8FC0000000804E0646C00000000050C40A40000000E0FF3F8FC000000000998941C0000000007C602A400C00000013000000120300003C0000000600000002000000000000E0FF3F8FC000000000998941C0000000007C602A40
310
000000E0FF3F8FC0000000C0B3F944C0000000008C7A2F400C000000130000001A0300003C0000000600000002000000000000E0FF3F8FC000000040883E48C000000000B84F1640000000E0FF3F8FC0000000804E0646C00000000050C40A400C00000013000000220300003C0000000600000002000000000000E0FF3F8F
310
C000000040883E48C000000000B84F1640000000E0FF3F8FC0000000C0B3F944C0000000008C7A2F400C000000130000002A0300003C0000000600000002000000000000E0FF3F8FC0000000A0D3484AC00000000094CB2040000000E0FF3F8FC000000040883E48C000000000B84F16400C00000013000000320300003C00
310
00000600000002000000000000E0FF3F8FC0000000A0D3484AC00000000094CB2040000000E0FF3F8FC0000000C0B3F944C0000000008C7A2F400C000000130000003A0300003C0000000600000002000000000000E0FF3F8FC0000000C0B3F944C0000000008C7A2F40000000E0FF3F8FC0000000C0FBDD47C00000000060
310
3434400C00000013000000420300003C0000000600000002000000000000E0FF3F8FC000000020FF1A4CC00000000008802740000000E0FF3F8FC0000000A0D3484AC00000000094CB20400C000000130000004A0300003C0000000600000002000000000000E0FF3F8FC000000020FF1A4CC00000000008802740000000E0
310
FF3F8FC0000000C0FBDD47C000000000603434400C00000013000000520300003C0000000600000002000000000000E0FF3F8FC000000040F5AB4DC000000000BC232F40000000E0FF3F8FC000000020FF1A4CC000000000088027400C000000130000005A0300003C0000000600000002000000000000E0FF3F8FC0000000
310
40F5AB4DC000000000BC232F40000000E0FF3F8FC0000000C0FBDD47C000000000603434400C00000013000000620300003C0000000600000002000000000000E0FF3F8FC0000000C0FBDD47C00000000060343440000000E0FF3F8FC0000000C055F249C000000000602C3A400C000000130000006A0300003C0000000600
310
000002000000000000E0FF3F8FC000000000E9F34EC00000000056C83340000000E0FF3F8FC000000040F5AB4DC000000000BC232F400C00000013000000720300003C0000000600000002000000000000E0FF3F8FC000000000E9F34EC00000000056C83340000000E0FF3F8FC0000000C055F249C000000000602C3A400C
310
000000130000007A0300003C0000000600000002000000000000E0FF3F8FC0000000A072EC4FC000000000624E3840000000E0FF3F8FC000000000E9F34EC00000000056C833400C00000013000000820300003C0000000600000002000000000000E0FF3F8FC0000000A072EC4FC000000000624E3840000000E0FF3F8FC0
310
000000C055F249C000000000602C3A400C000000130000008A0300003C0000000600000002000000000000E0FF3F8FC0000000805B4850C000000000540D3D40000000E0FF3F8FC0000000A072EC4FC000000000624E38400C00000013000000920300003C0000000600000002000000000000E0FF3F8FC0000000805B4850
310
C000000000540D3D40000000E0FF3F8FC0000000C055F249C000000000602C3A400C000000130000009A0300003C0000000600000002000000000000E0FF3F8FC0000000C055F249C000000000602C3A40000000E0FF3F8FC000000040D0054BC000000000648C40400C00000013000000A20300003C000000060000000200
310
0000000000E0FF3F8FC000000040C16E50C000000000CBF64040000000E0FF3F8FC0000000805B4850C000000000540D3D400C00000013000000AA0300003C0000000600000002000000000000E0FF3F8FC000000040C16E50C000000000CBF64040000000E0FF3F8FC000000040D0054BC000000000648C40400C00000013
310
000000B20300003C0000000600000002000000000000E0FF3F8FC000000080AA6850C0000000005D6B4340000000E0FF3F8FC000000040C16E50C000000000CBF640400C00000013000000BA0300003C0000000600000002000000000000E0FF3F8FC000000080AA6850C0000000005D6B4340000000E0FF3F8FC000000040
310
D0054BC000000000648C40400C00000013000000C20300003C0000000600000002000000000000E0FF3F8FC000000040D0054BC000000000648C4040000000E0FF3F8FC0000000600BFF4AC000000000312B44400C00000013000000CA0300003C0000000600000002000000000000E0FF3F8FC0000000C0363650C0000000
310
001ED84540000000E0FF3F8FC000000080AA6850C0000000005D6B43400C00000013000000D20300003C0000000600000002000000000000E0FF3F8FC0000000C0363650C0000000001ED84540000000E0FF3F8FC0000000600BFF4AC000000000312B44400C00000013000000DA0300003C00000006000000020000000000
310
00E0FF3F8FC000000040C1B04FC00000000004314840000000E0FF3F8FC0000000C0363650C0000000001ED845400C00000013000000E20300003C0000000600000002000000000000E0FF3F8FC000000040C1B04FC00000000004314840000000E0FF3F8FC0000000600BFF4AC000000000312B44400C00000013000000EA
310
0300003C0000000600000002000000000000E0FF3F8FC0000000600BFF4AC000000000312B4440000000E0FF3F8FC000000060A8DE49C0000000005D9D47400C00000013000000F20300003C0000000600000002000000000000E0FF3F8FC000000080F9A14EC000000000446A4A40000000E0FF3F8FC000000040C1B04FC0
310
00000000043148400C00000013000000FA0300003C0000000600000002000000000000E0FF3F8FC000000080F9A14EC000000000446A4A40000000E0FF3F8FC000000060A8DE49C0000000005D9D47400C00000013000000020400003C0000000600000002000000000000E0FF3F8FC0000000605E454DC000000000C9784C
310
40000000E0FF3F8FC000000080F9A14EC000000000446A4A400C000000130000000A0400003C0000000600000002000000000000E0FF3F8FC0000000605E454DC000000000C9784C40000000E0FF3F8FC000000060A8DE49C0000000005D9D47400C00000013000000120400003C0000000600000002000000000000E0FF3F
310
8FC000000040BEA14BC0000000004C524E40000000E0FF3F8FC0000000A0EC7947C00000000073C84A400C000000130000001A0400003C0000000600000002000000000000E0FF3F8FC0000000004CBF49C0000000008EED4F40000000E0FF3F8FC000000040BEA14BC0000000004C524E400C00000013000000220400003C
310
0000000600000002000000000000E0FF3F8FC0000000004CBF49C0000000008EED4F40000000E0FF3F8FC0000000A0EC7947C00000000073C84A400C000000130000002A0400003C0000000600000002000000000000E0FF3F8FC000000060A8DE49C0000000005D9D4740000000E0FF3F8FC0000000A0EC7947C000000000
310
73C84A400C00000013000000320400003C0000000600000002000000000000E0FF3F8FC000000040BEA14BC0000000004C524E40000000E0FF3F8FC0000000605E454DC000000000C9784C400C000000130000003A0400003C0000000600000002000000000000E0FF3F8FC0000000A0EC7947C00000000073C84A40000000
310
E0FF3F8FC00000006056963FC000000080589050400C00000013000000420400003C0000000600000002000000000000E0FF3F8FC0000000207CBE43C000000080C05A5240000000E0FF3F8FC0000000004CBF49C0000000008EED4F400C000000130000004A0400003C0000000600000002000000000000E0FF3F8FC00000
310
00207CBE43C000000080C05A5240000000E0FF3F8FC00000006056963FC000000080589050400C00000013000000520400003C0000000600000002000000000000E0FF3F8FC00000006056963FC00000008058905040000000E0FF3F8FC0000000C03DD434C0000000807D8653400C000000130000005A0400003C00000006
310
00000002000000000000E0FF3F8FC000000060CFEE3DC00000008076F05440000000E0FF3F8FC0000000207CBE43C000000080C05A52400C00000013000000620400003C0000000600000002000000000000E0FF3F8FC000000060CFEE3DC00000008076F05440000000E0FF3F8FC0000000C03DD434C0000000807D865340
310
0C000000130000006A0400003C0000000600000002000000000000E0FF3F8FC0000000C03DD434C0000000807D865340000000E0FF3F8FC000000000880A28C000000080E4DA56400C00000013000000720400003C0000000600000002000000000000E0FF3F8FC000000020ED0A36C00000008067D85740000000E0FF3F8F
310
C000000060CFEE3DC00000008076F054400C000000130000007A0400003C0000000600000002000000000000E0FF3F8FC000000020ED0A36C00000008067D85740000000E0FF3F8FC000000000880A28C000000080E4DA56400C00000013000000820400003C0000000600000002000000000000E0FF3F8FC000000000880A
310
28C000000080E4DA5640000000E0FF3F8FC000000000EC7615C000000040C4795A400C000000130000008A0400003C0000000600000002000000000000E0FF3F8FC0000000005FFC2FC0000000800A025B40000000E0FF3F8FC000000020ED0A36C00000008067D857400C00000013000000920400003C0000000600000002
310
000000000000E0FF3F8FC0000000005FFC2FC0000000800A025B40000000E0FF3F8FC000000000EC7615C000000040C4795A400C000000130000009A0400003C0000000600000002000000000000E0FF3F8FC0000000005052F0BF000000C09E4D5E40000000E0FF3F8FC0000000000094A1BF0000008099705F400C000000
310
13000000A20400003C0000000600000002000000000000E0FF3F8FC000000000F8D527C000000040695B5E40000000E0FF3F8FC0000000005052F0BF000000C09E4D5E400C00000013000000AA0400003C0000000600000002000000000000E0FF3F8FC000000000F8D527C000000040695B5E40000000E0FF3F8FC0000000
310
000094A1BF0000008099705F400C00000013000000B20400003C0000000600000002000000000000E0FF3F8FC000000000EC7615C000000040C4795A40000000E0FF3F8FC0000000005052F0BF000000C09E4D5E400C00000013000000BA0400003C0000000600000002000000000000E0FF3F8FC000000000F8D527C00000
310
0040695B5E40000000E0FF3F8FC0000000005FFC2FC0000000800A025B400C00000013000000C20400003C0000000600000002000000000000A0EE948EC0000000004094A1BF000000E053F26140000000A0EE948E40000000004094A1BF000000E053F261400C00000013000000CA0400003C000000060000000200000000
310
0000A0EE948E40000000004094A1BF000000E053F2614000000060E9948E4000000000E25CF6BF00000080B8E061400C00000013000000D20400003C000000060000000200000000000040FF3F8F40000000C04AE331C0000000E00E3B774000000040FF3F8F40000000000000083F00000060FB3F77400C00000013000000
310
DA0400003C0000000600000002000000000000E0FF3F8FC0000000000000083F00000060FB3F774000000040FF3F8F40000000000000083F00000060FB3F77400C00000013000000E20400003C0000000600000002000000000000E0FF3F8FC0000000C04AE331C0000000E00E3B774000000040FF3F8F40000000C04AE331
310
C0000000E00E3B77400C00000013000000EA0400003C000000060000000200000000000040FF3F8F40000000000000083F00000060FB3F774000000040FF3F8F40000000000000083F00000020397976400C00000013000000F20400003C0000000600000002000000000000E0FF3F8FC0000000000000083F000000203979
310
764000000040FF3F8F40000000000000083F00000020397976400C00000013000000FA0400003C000000060000000200000000000040FF3F8F4000000000D01DF9BF00000020CF6D764000000040FF3F8F40000000000000083F00000020397976400C00000013000000020500003C0000000600000002000000000000E0FF
310
3F8FC000000000D01DF9BF00000020CF6D764000000040FF3F8F4000000000D01DF9BF00000020CF6D76400C000000130000000A0500003C000000060000000200000000000040FF3F8F4000000000E68002C000000080A358764000000040FF3F8F4000000000D01DF9BF00000020CF6D76400C0000001300000012050000
310
3C0000000600000002000000000000E0FF3F8FC000000000E68002C000000080A358764000000040FF3F8F4000000000E68002C000000080A35876400C000000130000001A0500003C000000060000000200000000000040FF3F8F4000000000E68002C000000080A358764000000040FF3F8F400000000050CFFFBF000000
310
A0284776400C00000013000000220500003C0000000600000002000000000000E0FF3F8FC00000000050CFFFBF000000A02847764000000040FF3F8F400000000050CFFFBF000000A0284776400C000000130000002A0500003C000000060000000200000000000040FF3F8F400000000050CFFFBF000000A0284776400000
310
0040FF3F8F4000000000B071F5BF00000060C93D76400C00000013000000320500003C0000000600000002000000000000E0FF3F8FC000000000B071F5BF00000060C93D764000000040FF3F8F4000000000B071F5BF00000060C93D76400C000000130000003A0500003C000000060000000200000000000040FF3F8F4000
310
000000B071F5BF00000060C93D764000000040FF3F8F40000000000000083F000000C0BC3576400C00000013000000420500003C0000000600000002000000000000E0FF3F8FC0000000000000083F000000C0BC35764000000040FF3F8F40000000000000083F000000C0BC3576400C000000130000004A0500003C000000
310
060000000200000000000040FF3F8F40000000000000083F000000C0BC35764000000040FF3F8F400000000000000C3F000000203E6975400C00000013000000520500003C0000000600000002000000000000E0FF3F8FC00000000000000C3F000000203E69754000000040FF3F8F400000000000000C3F000000203E6975
310
400C000000130000005A0500003C000000060000000200000000000040FF3F8F400000000068AD20C000000000C50D754000000040FF3F8F400000000000000C3F000000203E6975400C00000013000000620500003C0000000600000002000000000000E0FF3F8FC00000000068AD20C000000000C50D754000000040FF3F
310
8F400000000068AD20C000000000C50D75400C000000130000006A0500003C000000060000000200000000000040FF3F8F400000000012A121C0000000A07906754000000040FF3F8F400000000068AD20C000000000C50D75400C00000013000000720500003C0000000600000002000000000000E0FF3F8FC00000000012
310
A121C0000000A07906754000000040FF3F8F400000000012A121C0000000A0790675400C000000130000007A0500003C000000060000000200000000000040FF3F8F400000000012A121C0000000A07906754000000040FF3F8F4000000080D23B22C00000000029FD74400C00000013000000820500003C00000006000000
310
02000000000000E0FF3F8FC000000080D23B22C00000000029FD744000000040FF3F8F4000000080D23B22C00000000029FD74400C000000130000008A0500003C000000060000000200000000000040FF3F8F4000000080D23B22C00000000029FD744000000040FF3F8F4000000080586D22C000000060CEF274400C0000
310
0013000000920500003C0000000600000002000000000000E0FF3F8FC000000080586D22C000000060CEF2744000000040FF3F8F4000000080586D22C000000060CEF274400C000000130000009A0500003C000000060000000200000000000040FF3F8F4000000080586D22C000000060CEF2744000000040FF3F8F400000
310
0080099A24C000000020315873400C00000013000000A20500003C0000000600000002000000000000E0FF3F8FC000000080099A24C0000000203158734000000040FF3F8F4000000080099A24C000000020315873400C00000013000000AA0500003C000000060000000200000000000040FF3F8F4000000080099A24C000
310
0000203158734000000040FF3F8F400000008044E02CC0000000406EC271400C00000013000000B20500003C0000000600000002000000000000E0FF3F8FC00000008044E02CC0000000406EC2714000000040FF3F8F400000008044E02CC0000000406EC271400C00000013000000BA0500003C0000000600000002000000
310
000000E0FF3F8FC00000008044E02CC0000000406EC27140000000E0FF3F8FC000000080099A24C000000020315873400C00000013000000C20500003C000000060000000200000000000040FF3F8F400000008044E02CC0000000406EC2714000000040FF3F8F40000000605F9135C000000040233770400C000000130000
310
00CA0500003C0000000600000002000000000000E0FF3F8FC0000000605F9135C0000000402337704000000040FF3F8F40000000605F9135C000000040233770400C00000013000000D20500003C0000000600000002000000000000E0FF3F8FC0000000605F9135C00000004023377040000000E0FF3F8FC00000008044E0
310
2CC0000000406EC271400C00000013000000DA0500003C000000060000000200000000000040FF3F8F400000006076973FC00000000090776D4000000040FF3F8F40000000605F9135C000000040233770400C00000013000000E20500003C0000000600000002000000000000E0FF3F8FC00000006076973FC00000000090
310
776D4000000040FF3F8F400000006076973FC00000000090776D400C00000013000000EA0500003C0000000600000002000000000000E0FF3F8FC00000006076973FC00000000090776D40000000E0FF3F8FC0000000605F9135C000000040233770400C00000013000000F20500003C000000060000000200000000000040
310
FF3F8F4000000020762F46C00000006038AB6A4000000040FF3F8F400000006076973FC00000000090776D400C00000013000000FA0500003C0000000600000002000000000000E0FF3F8FC000000020762F46C00000006038AB6A4000000040FF3F8F4000000020762F46C00000006038AB6A400C00000013000000020600
310
003C0000000600000002000000000000E0FF3F8FC000000020762F46C00000006038AB6A40000000E0FF3F8FC00000006076973FC00000000090776D400C000000130000000A0600003C000000060000000200000000000040FF3F8F40000000803DDD4DC0000000C02813684000000040FF3F8F4000000020762F46C00000
310
006038AB6A400C00000013000000120600003C0000000600000002000000000000E0FF3F8FC0000000803DDD4DC0000000C02813684000000040FF3F8F40000000803DDD4DC0000000C0281368400C000000130000001A0600003C0000000600000002000000000000E0FF3F8FC0000000803DDD4DC0000000C02813684000
310
0000E0FF3F8FC000000020762F46C00000006038AB6A400C00000013000000220600003C000000060000000200000000000040FF3F8F40000000803DDD4DC0000000C02813684000000040FF3F8F40000000C087614FC000000040437F67400C000000130000002A0600003C0000000600000002000000000000E0FF3F8FC0
310
000000C087614FC000000040437F674000000040FF3F8F40000000C087614FC000000040437F67400C00000013000000320600003C0000000600000002000000000000E0FF3F8FC0000000803DDD4DC0000000C028136840000000E0FF3F8FC0000000C087614FC000000040437F67400C000000130000003A0600003C0000
310
00060000000200000000000040FF3F8F40000000C087614FC000000040437F674000000040FF3F8F40000000007E2950C0000000A075D966400C00000013000000420600003C0000000600000002000000000000E0FF3F8FC0000000007E2950C0000000A075D9664000000040FF3F8F40000000007E2950C0000000A075D9
310
66400C000000130000004A0600003C0000000600000002000000000000E0FF3F8FC0000000007E2950C0000000A075D96640000000E0FF3F8FC0000000C087614FC000000040437F67400C00000013000000520600003C000000060000000200000000000040FF3F8F40000000007E2950C0000000A075D9664000000040FF
310
3F8F40000000E0725250C000000060792A66400C000000130000005A0600003C0000000600000002000000000000E0FF3F8FC0000000E0725250C000000060792A664000000040FF3F8F40000000E0725250C000000060792A66400C00000013000000620600003C0000000600000002000000000000E0FF3F8FC0000000E0
310
725250C000000060792A6640000000E0FF3F8FC0000000007E2950C0000000A075D966400C000000130000006A0600003C000000060000000200000000000040FF3F8F40000000E0725250C000000060792A664000000040FF3F8F40000000C0BE2A50C0000000608F9165400C00000013000000720600003C000000060000
310
0002000000000000E0FF3F8FC0000000C0BE2A50C0000000608F91654000000040FF3F8F40000000C0BE2A50C0000000608F9165400C000000130000007A0600003C0000000600000002000000000000E0FF3F8FC0000000E0725250C000000060792A6640000000E0FF3F8FC0000000C0BE2A50C0000000608F9165400C00
310
000013000000820600003C000000060000000200000000000040FF3F8F40000000C0BE2A50C0000000608F91654000000040FF3F8F400000006015844FC0000000804A0065400C000000130000008A0600003C0000000600000002000000000000E0FF3F8FC00000006015844FC0000000804A00654000000040FF3F8F4000
310
00006015844FC0000000804A0065400C00000013000000920600003C0000000600000002000000000000E0FF3F8FC00000006015844FC0000000804A006540000000E0FF3F8FC0000000C0BE2A50C0000000608F9165400C000000130000009A0600003C000000060000000200000000000040FF3F8F40000000003C3A4EC0
310
000000C04B7D644000000040FF3F8F400000006015844FC0000000804A0065400C00000013000000A20600003C0000000600000002000000000000E0FF3F8FC0000000003C3A4EC0000000C04B7D644000000040FF3F8F40000000003C3A4EC0000000C04B7D64400C00000013000000AA0600003C00000006000000020000
310
00000000E0FF3F8FC0000000003C3A4EC0000000C04B7D6440000000E0FF3F8FC00000006015844FC0000000804A0065400C00000013000000B20600003C000000060000000200000000000040FF3F8F4000000080FE864CC0000000408D0E644000000040FF3F8F40000000003C3A4EC0000000C04B7D64400C0000001300
310
0000BA0600003C0000000600000002000000000000E0FF3F8FC000000080FE864CC0000000408D0E644000000040FF3F8F4000000080FE864CC0000000408D0E64400C00000013000000C20600003C0000000600000002000000000000E0FF3F8FC000000080FE864CC0000000408D0E6440000000E0FF3F8FC0000000003C
310
3A4EC0000000C04B7D64400C00000013000000CA0600003C000000060000000200000000000040FF3F8F4000000000397E4AC0000000E01CB9634000000040FF3F8F4000000080FE864CC0000000408D0E64400C00000013000000D20600003C0000000600000002000000000000E0FF3F8FC000000000397E4AC0000000E0
310
1CB9634000000040FF3F8F4000000000397E4AC0000000E01CB963400C00000013000000DA0600003C0000000600000002000000000000E0FF3F8FC000000000397E4AC0000000E01CB96340000000E0FF3F8FC000000080FE864CC0000000408D0E64400C00000013000000E20600003C0000000600000002000000000000
310
40FF3F8F4000000000B03748C0000000A0E080634000000040FF3F8F4000000000397E4AC0000000E01CB963400C00000013000000EA0600003C0000000600000002000000000000E0FF3F8FC000000000B03748C0000000A0E080634000000040FF3F8F4000000000B03748C0000000A0E08063400C00000013000000F206
310
00003C0000000600000002000000000000E0FF3F8FC000000000B03748C0000000A0E0806340000000E0FF3F8FC000000000397E4AC0000000E01CB963400C00000013000000FA0600003C000000060000000200000000000040FF3F8F4000000060F8CD45C0000000A06968634000000040FF3F8F4000000000B03748C000
310
0000A0E08063400C00000013000000020700003C0000000600000002000000000000E0FF3F8FC000000060F8CD45C0000000A06968634000000040FF3F8F4000000060F8CD45C0000000A0696863400C000000130000000A0700003C0000000600000002000000000000E0FF3F8FC000000060F8CD45C0000000A069686340
310
000000E0FF3F8FC000000000B03748C0000000A0E08063400C00000013000000120700003C000000060000000200000000000040FF3F8F4000000060F8CD45C0000000A06968634000000040FF3F8F400000000043BB2CC000000060133863400C000000130000001A0700003C0000000600000002000000000000E0FF3F8F
310
C00000000043BB2CC0000000601338634000000040FF3F8F400000000043BB2CC000000060133863400C00000013000000220700003C0000000600000002000000000000E0FF3F8FC000000060F8CD45C0000000A069686340000000E0FF3F8FC00000000043BB2CC000000060133863400C000000130000002A0700003C00
310
0000060000000200000000000040FF3F8F400000000043BB2CC0000000601338634000000040FF3F8F40000000009CF22AC000000000BD3563400C00000013000000320700003C0000000600000002000000000000E0FF3F8FC0000000009CF22AC000000000BD35634000000040FF3F8F40000000009CF22AC000000000BD
310
3563400C000000130000003A0700003C0000000600000002000000000000E0FF3F8FC00000000043BB2CC00000006013386340000000E0FF3F8FC0000000009CF22AC000000000BD3563400C00000013000000420700003C000000060000000200000000000040FF3F8F40000000009CF22AC000000000BD35634000000040
310
FF3F8F4000000000202D29C000000020B03163400C000000130000004A0700003C0000000600000002000000000000E0FF3F8FC000000000202D29C000000020B031634000000040FF3F8F4000000000202D29C000000020B03163400C00000013000000520700003C0000000600000002000000000000E0FF3F8FC0000000
310
00202D29C000000020B0316340000000E0FF3F8FC0000000009CF22AC000000000BD3563400C000000130000005A0700003C000000060000000200000000000040FF3F8F40000000008094A1BF00000080AEEB624000000040FF3F8F4000000000202D29C000000020B03163400C00000013000000620700003C0000000600
310
000002000000000000E0FF3F8FC0000000008094A1BF00000080AEEB624000000040FF3F8F40000000008094A1BF00000080AEEB62400C000000130000006A0700003C0000000600000002000000000000E0FF3F8FC000000000202D29C000000020B0316340000000E0FF3F8FC0000000008094A1BF00000080AEEB62400C
310
00000013000000720700003C000000060000000200000000000040FF3F8F40000000000094A1BF0000008099705F4000000040FF3F8F40000000005052F0BF000000C09E4D5E400C000000130000007A0700003C0000000600000002000000000000E0FF3F8FC0000000005052F0BF000000C09E4D5E4000000040FF3F8F40
310
000000005052F0BF000000C09E4D5E400C00000013000000820700003C0000000600000002000000000000E0FF3F8FC0000000000094A1BF0000008099705F4000000040FF3F8F40000000000094A1BF0000008099705F400C000000130000008A0700003C000000060000000200000000000040FF3F8F4000000000EC7615
310
C000000040C4795A4000000040FF3F8F40000000005052F0BF000000C09E4D5E400C00000013000000920700003C0000000600000002000000000000E0FF3F8FC000000000EC7615C000000040C4795A4000000040FF3F8F4000000000EC7615C000000040C4795A400C000000130000009A0700003C000000060000000200
310
000000000040FF3F8F4000000000880A28C000000080E4DA564000000040FF3F8F4000000000EC7615C000000040C4795A400C00000013000000A20700003C0000000600000002000000000000E0FF3F8FC000000000880A28C000000080E4DA564000000040FF3F8F4000000000880A28C000000080E4DA56400C00000013
310
000000AA0700003C000000060000000200000000000040FF3F8F40000000C03DD434C0000000807D86534000000040FF3F8F4000000000880A28C000000080E4DA56400C00000013000000B20700003C0000000600000002000000000000E0FF3F8FC0000000C03DD434C0000000807D86534000000040FF3F8F40000000C0
310
3DD434C0000000807D8653400C00000013000000BA0700003C000000060000000200000000000040FF3F8F400000006056963FC0000000805890504000000040FF3F8F40000000C03DD434C0000000807D8653400C00000013000000C20700003C0000000600000002000000000000E0FF3F8FC00000006056963FC0000000
310
805890504000000040FF3F8F400000006056963FC000000080589050400C00000013000000CA0700003C000000060000000200000000000040FF3F8F40000000A0EC7947C00000000073C84A4000000040FF3F8F400000006056963FC000000080589050400C00000013000000D20700003C00000006000000020000000000
310
00E0FF3F8FC0000000A0EC7947C00000000073C84A4000000040FF3F8F40000000A0EC7947C00000000073C84A400C00000013000000DA0700003C000000060000000200000000000040FF3F8F4000000060A8DE49C0000000005D9D474000000040FF3F8F40000000A0EC7947C00000000073C84A400C00000013000000E2
310
0700003C0000000600000002000000000000E0FF3F8FC000000060A8DE49C0000000005D9D474000000040FF3F8F4000000060A8DE49C0000000005D9D47400C00000013000000EA0700003C000000060000000200000000000040FF3F8F40000000600BFF4AC000000000312B444000000040FF3F8F4000000060A8DE49C0
310
000000005D9D47400C00000013000000F20700003C0000000600000002000000000000E0FF3F8FC0000000600BFF4AC000000000312B444000000040FF3F8F40000000600BFF4AC000000000312B44400C00000013000000FA0700003C000000060000000200000000000040FF3F8F4000000040D0054BC000000000648C40
310
4000000040FF3F8F40000000600BFF4AC000000000312B44400C00000013000000020800003C0000000600000002000000000000E0FF3F8FC000000040D0054BC000000000648C404000000040FF3F8F4000000040D0054BC000000000648C40400C000000130000000A0800003C000000060000000200000000000040FF3F
310
8F40000000C055F249C000000000602C3A4000000040FF3F8F4000000040D0054BC000000000648C40400C00000013000000120800003C0000000600000002000000000000E0FF3F8FC0000000C055F249C000000000602C3A4000000040FF3F8F40000000C055F249C000000000602C3A400C000000130000001A0800003C
310
000000060000000200000000000040FF3F8F40000000C0FBDD47C0000000006034344000000040FF3F8F40000000C055F249C000000000602C3A400C00000013000000220800003C0000000600000002000000000000E0FF3F8FC0000000C0FBDD47C0000000006034344000000040FF3F8F40000000C0FBDD47C000000000
310
603434400C000000130000002A0800003C000000060000000200000000000040FF3F8F40000000C0B3F944C0000000008C7A2F4000000040FF3F8F40000000C0FBDD47C000000000603434400C00000013000000320800003C0000000600000002000000000000E0FF3F8FC0000000C0B3F944C0000000008C7A2F40000000
310
40FF3F8F40000000C0B3F944C0000000008C7A2F400C000000130000003A0800003C000000060000000200000000000040FF3F8F4000000000998941C0000000007C602A4000000040FF3F8F40000000C0B3F944C0000000008C7A2F400C00000013000000420800003C0000000600000002000000000000E0FF3F8FC00000
310
0000998941C0000000007C602A4000000040FF3F8F4000000000998941C0000000007C602A400C000000130000004A0800003C000000060000000200000000000040FF3F8F4000000000D7803EC0000000001C2F294000000040FF3F8F4000000000998941C0000000007C602A400C00000013000000520800003C00000006
310
00000002000000000000E0FF3F8FC000000000D7803EC0000000001C2F294000000040FF3F8F4000000000D7803EC0000000001C2F29400C000000130000005A0800003C000000060000000200000000000040FF3F8F4000000000D7803EC0000000001C2F294000000040FF3F8F40000000000000023F0000000074222840
310
0C00000013000000620800003C0000000600000002000000000000E0FF3F8FC0000000000000023F000000007422284000000040FF3F8F40000000000000023F00000000742228400C000000130000006A0800003C000000060000000200000000000040FF3F8F40000000000000023F000000007422284000000040FF3F8F
310
40000000000000023F00000000844420400C00000013000000720800003C0000000600000002000000000000E0FF3F8FC0000000000000023F000000008444204000000040FF3F8F40000000000000023F00000000844420400C000000130000007A0800003C000000060000000200000000000040FF3F8F40000000000000
310
023F000000008444204000000040FF3F8F40000000000068F6BF0000000038591E400C00000013000000820800003C0000000600000002000000000000E0FF3F8FC0000000000068F6BF0000000038591E4000000040FF3F8F40000000000068F6BF0000000038591E400C000000130000008A0800003C0000000600000002
310
00000000000040FF3F8F40000000005C1701C000000000482E1B4000000040FF3F8F40000000000068F6BF0000000038591E400C00000013000000920800003C0000000600000002000000000000E0FF3F8FC0000000005C1701C000000000482E1B4000000040FF3F8F40000000005C1701C000000000482E1B400C000000
310
130000009A0800003C000000060000000200000000000040FF3F8F40000000005C1701C000000000482E1B4000000040FF3F8F4000000000A43702C00000000038A916400C00000013000000A20800003C0000000600000002000000000000E0FF3F8FC000000000A43702C00000000038A9164000000040FF3F8F40000000
310
00A43702C00000000038A916400C00000013000000AA0800003C000000060000000200000000000040FF3F8F4000000000A43702C00000000038A9164000000040FF3F8F400000000018C6F9BF00000000689012400C00000013000000B20800003C0000000600000002000000000000E0FF3F8FC00000000018C6F9BF0000
310
00006890124000000040FF3F8F400000000018C6F9BF00000000689012400C00000013000000BA0800003C000000060000000200000000000040FF3F8F400000000018C6F9BF000000006890124000000040FF3F8F40000000000000023F00000000D0530F400C00000013000000C20800003C000000060000000200000000
310
0000E0FF3F8FC0000000000000023F00000000D0530F4000000040FF3F8F40000000000000023F00000000D0530F400C00000013000000CA0800003C000000060000000200000000000040FF3F8F40000000000000023F00000000D0530F4000000040FF3F8F40000000000000FC3E000000000000003F0C00000013000000
310
D20800003C0000000600000002000000000000E0FF3F8FC0000000000000FC3E000000000000003F00000040FF3F8F40000000000000FC3E000000000000003F0C00000013000000DA0800003C000000060000000200000000000040FF3F8F400000000089B73EC00000000040E9E03F00000040FF3F8F40000000000000FC
310
3E000000000000003F0C00000013000000E20800003C0000000600000002000000000000E0FF3F8FC00000000089B73EC00000000040E9E03F00000040FF3F8F400000000089B73EC00000000040E9E03F0C00000013000000EA0800003C000000060000000200000000000040FF3F8F400000000089B73EC00000000040E9
310
E03F00000040FF3F8F40000000801C3941C00000000080D4E93F0C00000013000000F20800003C0000000600000002000000000000E0FF3F8FC0000000801C3941C00000000080D4E93F00000040FF3F8F40000000801C3941C00000000080D4E93F0C00000013000000FA0800003C000000060000000200000000000040FF
310
3F8F40000000801C3941C00000000080D4E93F00000040FF3F8F40000000C03DAB43C00000000080ECFB3F0C00000013000000020900003C0000000600000002000000000000E0FF3F8FC0000000C03DAB43C00000000080ECFB3F00000040FF3F8F40000000C03DAB43C00000000080ECFB3F0C000000130000000A090000
310
3C000000060000000200000000000040FF3F8F40000000C03DAB43C00000000080ECFB3F00000040FF3F8F40000000804E0646C00000000050C40A400C00000013000000120900003C0000000600000002000000000000E0FF3F8FC0000000804E0646C00000000050C40A4000000040FF3F8F40000000804E0646C0000000
310
0050C40A400C000000130000001A0900003C000000060000000200000000000040FF3F8F40000000804E0646C00000000050C40A4000000040FF3F8F4000000040883E48C000000000B84F16400C00000013000000220900003C0000000600000002000000000000E0FF3F8FC000000040883E48C000000000B84F16400000
310
0040FF3F8F4000000040883E48C000000000B84F16400C000000130000002A0900003C000000060000000200000000000040FF3F8F4000000040883E48C000000000B84F164000000040FF3F8F40000000A0D3484AC00000000094CB20400C00000013000000320900003C0000000600000002000000000000E0FF3F8FC000
310
0000A0D3484AC00000000094CB204000000040FF3F8F40000000A0D3484AC00000000094CB20400C000000130000003A0900003C000000060000000200000000000040FF3F8F40000000A0D3484AC00000000094CB204000000040FF3F8F4000000020FF1A4CC000000000088027400C00000013000000420900003C000000
310
0600000002000000000000E0FF3F8FC000000020FF1A4CC0000000000880274000000040FF3F8F4000000020FF1A4CC000000000088027400C000000130000004A0900003C000000060000000200000000000040FF3F8F4000000020FF1A4CC0000000000880274000000040FF3F8F4000000040F5AB4DC000000000BC232F
310
400C00000013000000520900003C0000000600000002000000000000E0FF3F8FC000000040F5AB4DC000000000BC232F4000000040FF3F8F4000000040F5AB4DC000000000BC232F400C000000130000005A0900003C000000060000000200000000000040FF3F8F4000000040F5AB4DC000000000BC232F4000000040FF3F
310
8F4000000000E9F34EC00000000056C833400C00000013000000620900003C0000000600000002000000000000E0FF3F8FC000000000E9F34EC00000000056C8334000000040FF3F8F4000000000E9F34EC00000000056C833400C000000130000006A0900003C000000060000000200000000000040FF3F8F4000000000E9
310
F34EC00000000056C8334000000040FF3F8F40000000A072EC4FC000000000624E38400C00000013000000720900003C0000000600000002000000000000E0FF3F8FC0000000A072EC4FC000000000624E384000000040FF3F8F40000000A072EC4FC000000000624E38400C000000130000007A0900003C00000006000000
310
0200000000000040FF3F8F40000000A072EC4FC000000000624E384000000040FF3F8F40000000805B4850C000000000540D3D400C00000013000000820900003C0000000600000002000000000000E0FF3F8FC0000000805B4850C000000000540D3D4000000040FF3F8F40000000805B4850C000000000540D3D400C0000
310
00130000008A0900003C000000060000000200000000000040FF3F8F40000000805B4850C000000000540D3D4000000040FF3F8F4000000040C16E50C000000000CBF640400C00000013000000920900003C0000000600000002000000000000E0FF3F8FC000000040C16E50C000000000CBF6404000000040FF3F8F400000
310
0040C16E50C000000000CBF640400C000000130000009A0900003C000000060000000200000000000040FF3F8F4000000040C16E50C000000000CBF6404000000040FF3F8F4000000080AA6850C0000000005D6B43400C00000013000000A20900003C0000000600000002000000000000E0FF3F8FC000000080AA6850C000
310
0000005D6B434000000040FF3F8F4000000080AA6850C0000000005D6B43400C00000013000000AA0900003C000000060000000200000000000040FF3F8F4000000080AA6850C0000000005D6B434000000040FF3F8F40000000C0363650C0000000001ED845400C00000013000000B20900003C0000000600000002000000
310
000000E0FF3F8FC0000000C0363650C0000000001ED8454000000040FF3F8F40000000C0363650C0000000001ED845400C00000013000000BA0900003C000000060000000200000000000040FF3F8F40000000C0363650C0000000001ED8454000000040FF3F8F4000000040C1B04FC000000000043148400C000000130000
310
00C20900003C0000000600000002000000000000E0FF3F8FC000000040C1B04FC0000000000431484000000040FF3F8F4000000040C1B04FC000000000043148400C00000013000000CA0900003C000000060000000200000000000040FF3F8F4000000040C1B04FC0000000000431484000000040FF3F8F4000000080F9A1
310
4EC000000000446A4A400C00000013000000D20900003C0000000600000002000000000000E0FF3F8FC000000080F9A14EC000000000446A4A4000000040FF3F8F4000000080F9A14EC000000000446A4A400C00000013000000DA0900003C000000060000000200000000000040FF3F8F4000000080F9A14EC00000000044
310
6A4A4000000040FF3F8F40000000605E454DC000000000C9784C400C00000013000000E20900003C0000000600000002000000000000E0FF3F8FC0000000605E454DC000000000C9784C4000000040FF3F8F40000000605E454DC000000000C9784C400C00000013000000EA0900003C000000060000000200000000000040
310
FF3F8F40000000605E454DC000000000C9784C4000000040FF3F8F4000000040BEA14BC0000000004C524E400C00000013000000F20900003C0000000600000002000000000000E0FF3F8FC000000040BEA14BC0000000004C524E4000000040FF3F8F4000000040BEA14BC0000000004C524E400C00000013000000FA0900
310
003C000000060000000200000000000040FF3F8F4000000040BEA14BC0000000004C524E4000000040FF3F8F40000000004CBF49C0000000008EED4F400C00000013000000020A00003C0000000600000002000000000000E0FF3F8FC0000000004CBF49C0000000008EED4F4000000040FF3F8F40000000004CBF49C00000
310
00008EED4F400C000000130000000A0A00003C000000060000000200000000000040FF3F8F40000000004CBF49C0000000008EED4F4000000040FF3F8F40000000207CBE43C000000080C05A52400C00000013000000120A00003C0000000600000002000000000000E0FF3F8FC0000000207CBE43C000000080C05A524000
310
000040FF3F8F40000000207CBE43C000000080C05A52400C000000130000001A0A00003C000000060000000200000000000040FF3F8F40000000207CBE43C000000080C05A524000000040FF3F8F4000000060CFEE3DC00000008076F054400C00000013000000220A00003C0000000600000002000000000000E0FF3F8FC0
310
00000060CFEE3DC00000008076F0544000000040FF3F8F4000000060CFEE3DC00000008076F054400C000000130000002A0A00003C000000060000000200000000000040FF3F8F4000000060CFEE3DC00000008076F0544000000040FF3F8F4000000020ED0A36C00000008067D857400C00000013000000320A00003C0000
310
000600000002000000000000E0FF3F8FC000000020ED0A36C00000008067D8574000000040FF3F8F4000000020ED0A36C00000008067D857400C000000130000003A0A00003C000000060000000200000000000040FF3F8F4000000020ED0A36C00000008067D8574000000040FF3F8F40000000005FFC2FC0000000800A02
310
5B400C00000013000000420A00003C0000000600000002000000000000E0FF3F8FC0000000005FFC2FC0000000800A025B4000000040FF3F8F40000000005FFC2FC0000000800A025B400C000000130000004A0A00003C000000060000000200000000000040FF3F8F40000000005FFC2FC0000000800A025B4000000040FF
310
3F8F4000000000F8D527C000000040695B5E400C00000013000000520A00003C0000000600000002000000000000E0FF3F8FC000000000F8D527C000000040695B5E4000000040FF3F8F4000000000F8D527C000000040695B5E400C000000130000005A0A00003C000000060000000200000000000040FF3F8F4000000000
310
F8D527C000000040695B5E4000000040FF3F8F4000000000FDD023C000000000BBE860400C00000013000000620A00003C0000000600000002000000000000E0FF3F8FC000000000FDD023C000000000BBE8604000000040FF3F8F4000000000FDD023C000000000BBE860400C000000130000006A0A00003C000000060000
310
0002000000000000E0FF3F8FC000000000FDD023C000000000BBE86040000000E0FF3F8FC000000000F8D527C000000040695B5E400C00000013000000720A00003C000000060000000200000000000040FF3F8F4000000000FDD023C000000000BBE8604000000040FF3F8F40000000007E3024C000000000C22661400C00
310
0000130000007A0A00003C0000000600000002000000000000E0FF3F8FC0000000007E3024C000000000C226614000000040FF3F8F40000000007E3024C000000000C22661400C00000013000000820A00003C0000000600000002000000000000E0FF3F8FC000000000FDD023C000000000BBE86040000000E0FF3F8FC000
310
0000007E3024C000000000C22661400C000000130000008A0A00003C000000060000000200000000000040FF3F8F40000000007E3024C000000000C226614000000040FF3F8F4000000000C9CB25C000000060AF5F61400C00000013000000920A00003C0000000600000002000000000000E0FF3F8FC000000000C9CB25C0
310
00000060AF5F614000000040FF3F8F4000000000C9CB25C000000060AF5F61400C000000130000009A0A00003C0000000600000002000000000000E0FF3F8FC000000000C9CB25C000000060AF5F6140000000E0FF3F8FC0000000007E3024C000000000C22661400C00000013000000A20A00003C00000006000000020000
310
0000000040FF3F8F4000000000C9CB25C000000060AF5F614000000040FF3F8F4000000000EA7728C000000000928D61400C00000013000000AA0A00003C0000000600000002000000000000E0FF3F8FC000000000EA7728C000000000928D614000000040FF3F8F4000000000EA7728C000000000928D61400C0000001300
310
0000B20A00003C0000000600000002000000000000E0FF3F8FC000000000EA7728C000000000928D6140000000E0FF3F8FC000000000C9CB25C000000060AF5F61400C00000013000000BA0A00003C000000060000000200000000000040FF3F8F4000000000CFED2BC000000080A5AB614000000040FF3F8F4000000000EA
310
7728C000000000928D61400C00000013000000C20A00003C0000000600000002000000000000E0FF3F8FC000000000CFED2BC000000080A5AB614000000040FF3F8F4000000000CFED2BC000000080A5AB61400C00000013000000CA0A00003C0000000600000002000000000000E0FF3F8FC000000000CFED2BC000000080
310
A5AB6140000000E0FF3F8FC000000000EA7728C000000000928D61400C00000013000000D20A00003C000000060000000200000000000040FF3F8F4000000080FDD02FC0000000E0C5B6614000000040FF3F8F4000000000CFED2BC000000080A5AB61400C00000013000000DA0A00003C0000000600000002000000000000
310
E0FF3F8FC000000080FDD02FC0000000E0C5B6614000000040FF3F8F4000000080FDD02FC0000000E0C5B661400C00000013000000E20A00003C0000000600000002000000000000E0FF3F8FC000000080FDD02FC0000000E0C5B66140000000E0FF3F8FC000000000CFED2BC000000080A5AB61400C00000013000000EA0A
310
00003C000000060000000200000000000040FF3F8F4000000080FDD02FC0000000E0C5B6614000000040FF3F8F4000000060887544C0000000C08AC461400C00000013000000F20A00003C0000000600000002000000000000E0FF3F8FC000000060887544C0000000C08AC4614000000040FF3F8F4000000060887544C000
310
0000C08AC461400C00000013000000FA0A00003C0000000600000002000000000000E0FF3F8FC000000060887544C0000000C08AC46140000000E0FF3F8FC000000080FDD02FC0000000E0C5B661400C00000013000000020B00003C000000060000000200000000000040FF3F8F4000000060887544C0000000C08AC46140
310
00000040FF3F8F4000000060B7E547C0000000E07DDD61400C000000130000000A0B00003C0000000600000002000000000000E0FF3F8FC000000060B7E547C0000000E07DDD614000000040FF3F8F4000000060B7E547C0000000E07DDD61400C00000013000000120B00003C0000000600000002000000000000E0FF3F8F
310
C000000060B7E547C0000000E07DDD6140000000E0FF3F8FC000000060887544C0000000C08AC461400C000000130000001A0B00003C000000060000000200000000000040FF3F8F4000000060B7E547C0000000E07DDD614000000040FF3F8F40000000C0D2314BC0000000E0D11F62400C00000013000000220B00003C00
310
00000600000002000000000000E0FF3F8FC0000000C0D2314BC0000000E0D11F624000000040FF3F8F40000000C0D2314BC0000000E0D11F62400C000000130000002A0B00003C0000000600000002000000000000E0FF3F8FC0000000C0D2314BC0000000E0D11F6240000000E0FF3F8FC000000060B7E547C0000000E07D
310
DD61400C00000013000000320B00003C000000060000000200000000000040FF3F8F40000000C0D2314BC0000000E0D11F624000000040FF3F8F40000000C0203A4EC000000080088962400C000000130000003A0B00003C0000000600000002000000000000E0FF3F8FC0000000C0203A4EC0000000800889624000000040
310
FF3F8F40000000C0203A4EC000000080088962400C00000013000000420B00003C0000000600000002000000000000E0FF3F8FC0000000C0203A4EC00000008008896240000000E0FF3F8FC0000000C0D2314BC0000000E0D11F62400C000000130000004A0B00003C000000060000000200000000000040FF3F8F40000000
310
C0203A4EC0000000800889624000000040FF3F8F40000000A0BA7050C0000000802D1563400C00000013000000520B00003C0000000600000002000000000000E0FF3F8FC0000000A0BA7050C0000000802D15634000000040FF3F8F40000000A0BA7050C0000000802D1563400C000000130000005A0B00003C0000000600
310
000002000000000000E0FF3F8FC0000000A0BA7050C0000000802D156340000000E0FF3F8FC0000000C0203A4EC000000080088962400C00000013000000620B00003C000000060000000200000000000040FF3F8F40000000A0BA7050C0000000802D15634000000040FF3F8F4000000000238751C000000060FCBE63400C
310
000000130000006A0B00003C0000000600000002000000000000E0FF3F8FC000000000238751C000000060FCBE634000000040FF3F8F4000000000238751C000000060FCBE63400C00000013000000720B00003C0000000600000002000000000000E0FF3F8FC000000000238751C000000060FCBE6340000000E0FF3F8FC0
310
000000A0BA7050C0000000802D1563400C000000130000007A0B00003C000000060000000200000000000040FF3F8F4000000000238751C000000060FCBE634000000040FF3F8F40000000A0D45552C0000000A0138064400C00000013000000820B00003C0000000600000002000000000000E0FF3F8FC0000000A0D45552
310
C0000000A01380644000000040FF3F8F40000000A0D45552C0000000A0138064400C000000130000008A0B00003C0000000600000002000000000000E0FF3F8FC0000000A0D45552C0000000A013806440000000E0FF3F8FC000000000238751C000000060FCBE63400C00000013000000920B00003C000000060000000200
310
000000000040FF3F8F40000000A0D45552C0000000A01380644000000040FF3F8F40000000A009D552C000000040315165400C000000130000009A0B00003C0000000600000002000000000000E0FF3F8FC0000000A009D552C0000000403151654000000040FF3F8F40000000A009D552C000000040315165400C00000013
310
000000A20B00003C0000000600000002000000000000E0FF3F8FC0000000A009D552C00000004031516540000000E0FF3F8FC0000000A0D45552C0000000A0138064400C00000013000000AA0B00003C000000060000000200000000000040FF3F8F40000000E0F9FF52C000000060792A664000000040FF3F8F40000000A0
310
09D552C000000040315165400C00000013000000B20B00003C0000000600000002000000000000E0FF3F8FC0000000E0F9FF52C000000060792A664000000040FF3F8F40000000E0F9FF52C000000060792A66400C00000013000000BA0B00003C0000000600000002000000000000E0FF3F8FC0000000E0F9FF52C0000000
310
60792A6640000000E0FF3F8FC0000000A009D552C000000040315165400C00000013000000C20B00003C000000060000000200000000000040FF3F8F4000000000BFDE52C00000006022E8664000000040FF3F8F40000000E0F9FF52C000000060792A66400C00000013000000CA0B00003C00000006000000020000000000
310
00E0FF3F8FC000000000BFDE52C00000006022E8664000000040FF3F8F4000000000BFDE52C00000006022E866400C00000013000000D20B00003C0000000600000002000000000000E0FF3F8FC000000000BFDE52C00000006022E86640000000E0FF3F8FC0000000E0F9FF52C000000060792A66400C00000013000000DA
310
0B00003C000000060000000200000000000040FF3F8F40000000000B7C52C0000000E02BA0674000000040FF3F8F4000000000BFDE52C00000006022E866400C00000013000000E20B00003C0000000600000002000000000000E0FF3F8FC0000000000B7C52C0000000E02BA0674000000040FF3F8F40000000000B7C52C0
310
000000E02BA067400C00000013000000EA0B00003C0000000600000002000000000000E0FF3F8FC0000000000B7C52C0000000E02BA06740000000E0FF3F8FC000000000BFDE52C00000006022E866400C00000013000000F20B00003C000000060000000200000000000040FF3F8F4000000040CADA51C000000000264D68
310
4000000040FF3F8F40000000000B7C52C0000000E02BA067400C00000013000000FA0B00003C0000000600000002000000000000E0FF3F8FC000000040CADA51C000000000264D684000000040FF3F8F4000000040CADA51C000000000264D68400C00000013000000020C00003C0000000600000002000000000000E0FF3F
310
8FC000000040CADA51C000000000264D6840000000E0FF3F8FC0000000000B7C52C0000000E02BA067400C000000130000000A0C00003C000000060000000200000000000040FF3F8F4000000040CADA51C000000000264D684000000040FF3F8F4000000080BFFF50C000000060F3E968400C00000013000000120C00003C
310
0000000600000002000000000000E0FF3F8FC000000080BFFF50C000000060F3E9684000000040FF3F8F4000000080BFFF50C000000060F3E968400C000000130000001A0C00003C0000000600000002000000000000E0FF3F8FC000000080BFFF50C000000060F3E96840000000E0FF3F8FC000000040CADA51C000000000
310
264D68400C00000013000000220C00003C000000060000000200000000000040FF3F8F4000000080BFFF50C000000060F3E9684000000040FF3F8F400000004072BB4CC0000000E0F9AF6A400C000000130000002A0C00003C0000000600000002000000000000E0FF3F8FC00000004072BB4CC0000000E0F9AF6A40000000
310
40FF3F8F400000004072BB4CC0000000E0F9AF6A400C00000013000000320C00003C0000000600000002000000000000E0FF3F8FC000000080BFFF50C000000060F3E96840000000E0FF3F8FC00000004072BB4CC0000000E0F9AF6A400C000000130000003A0C00003C000000060000000200000000000040FF3F8F400000
310
00605C4749C000000020C0006C4000000040FF3F8F40000000200F7346C000000000CC3A6D400C00000013000000420C00003C0000000600000002000000000000E0FF3F8FC0000000200F7346C000000000CC3A6D4000000040FF3F8F40000000200F7346C000000000CC3A6D400C000000130000004A0C00003C00000006
310
00000002000000000000E0FF3F8FC0000000605C4749C000000020C0006C40000000E0FF3F8FC0000000200F7346C000000000CC3A6D400C00000013000000520C00003C0000000600000002000000000000E0FF3F8FC0000000605C4749C000000020C0006C4000000040FF3F8F40000000605C4749C000000020C0006C40
310
0C000000130000005A0C00003C000000060000000200000000000040FF3F8F40000000205FA043C0000000C0D3A26E4000000040FF3F8F40000000E0BD6341C000000040C2EE6F400C00000013000000620C00003C0000000600000002000000000000E0FF3F8FC0000000E0BD6341C000000040C2EE6F4000000040FF3F8F
310
40000000E0BD6341C000000040C2EE6F400C000000130000006A0C00003C0000000600000002000000000000E0FF3F8FC0000000205FA043C0000000C0D3A26E40000000E0FF3F8FC0000000E0BD6341C000000040C2EE6F400C00000013000000720C00003C0000000600000002000000000000E0FF3F8FC0000000205FA0
310
43C0000000C0D3A26E4000000040FF3F8F40000000205FA043C0000000C0D3A26E400C000000130000007A0C00003C000000060000000200000000000040FF3F8F40000000E0223D3BC0000000406361714000000040FF3F8F400000004024793EC000000040A3B470400C00000013000000820C00003C0000000600000002
310
000000000000E0FF3F8FC0000000E0223D3BC0000000406361714000000040FF3F8F40000000E0223D3BC000000040636171400C000000130000008A0C00003C0000000600000002000000000000E0FF3F8FC00000004024793EC000000040A3B47040000000E0FF3F8FC0000000E0223D3BC000000040636171400C000000
310
13000000920C00003C0000000600000002000000000000E0FF3F8FC00000004024793EC000000040A3B4704000000040FF3F8F400000004024793EC000000040A3B470400C000000130000009A0C00003C000000060000000200000000000040FF3F8F4000000080996036C000000020ABD6724000000040FF3F8F40000000
310
80665538C0000000A05B2572400C00000013000000A20C00003C0000000600000002000000000000E0FF3F8FC000000080996036C000000020ABD6724000000040FF3F8F4000000080996036C000000020ABD672400C00000013000000AA0C00003C0000000600000002000000000000E0FF3F8FC000000080665538C00000
310
00A05B257240000000E0FF3F8FC000000080996036C000000020ABD672400C00000013000000B20C00003C0000000600000002000000000000E0FF3F8FC000000080665538C0000000A05B25724000000040FF3F8F4000000080665538C0000000A05B2572400C00000013000000BA0C00003C000000060000000200000000
310
000040FF3F8F4000000060734234C0000000A05052744000000040FF3F8F40000000600DEA34C0000000C0B59E73400C00000013000000C20C00003C0000000600000002000000000000E0FF3F8FC000000060734234C0000000A05052744000000040FF3F8F4000000060734234C0000000A0505274400C00000013000000
310
CA0C00003C0000000600000002000000000000E0FF3F8FC0000000600DEA34C0000000C0B59E7340000000E0FF3F8FC000000060734234C0000000A0505274400C00000013000000D20C00003C0000000600000002000000000000E0FF3F8FC0000000600DEA34C0000000C0B59E734000000040FF3F8F40000000600DEA34
310
C0000000C0B59E73400C00000013000000DA0C00003C000000060000000200000000000040FF3F8F40000000A07BE433C000000080E31A774000000040FF3F8F40000000807AE433C000000080E41B75400C00000013000000E20C00003C0000000600000002000000000000E0FF3F8FC0000000A07BE433C000000080E31A
310
774000000040FF3F8F40000000A07BE433C000000080E31A77400C00000013000000EA0C00003C0000000600000002000000000000E0FF3F8FC0000000807AE433C000000080E41B754000000040FF3F8F40000000807AE433C000000080E41B75400C00000013000000F20C00003C000000060000000200000000000040FF
310
3F8F40000000A07BE433C000000080E31A774000000040FF3F8F40000000A097BD33C000000040122777400C00000013000000FA0C00003C0000000600000002000000000000E0FF3F8FC0000000A097BD33C0000000401227774000000040FF3F8F40000000A097BD33C000000040122777400C00000013000000020D0000
310
3C000000060000000200000000000040FF3F8F4000000020B64E33C0000000A07031774000000040FF3F8F40000000A097BD33C000000040122777400C000000130000000A0D00003C0000000600000002000000000000E0FF3F8FC000000020B64E33C0000000A07031774000000040FF3F8F4000000020B64E33C0000000
310
A0703177400C00000013000000120D00003C000000060000000200000000000040FF3F8F40000000A05AA832C0000000407338774000000040FF3F8F4000000020B64E33C0000000A0703177400C000000130000001A0D00003C0000000600000002000000000000E0FF3F8FC0000000A05AA832C000000040733877400000
310
0040FF3F8F40000000A05AA832C000000040733877400C00000013000000220D00003C000000060000000200000000000040FF3F8F40000000A05AA832C0000000407338774000000040FF3F8F40000000C04AE331C0000000E00E3B77400C000000130000002A0D00003C000000060000000200000000000040FF3F8F4000
310
00004072BB4CC0000000E0F9AF6A4000000040FF3F8F40000000605C4749C000000020C0006C400C00000013000000320D00003C0000000600000002000000000000E0FF3F8FC0000000605C4749C000000020C0006C40000000E0FF3F8FC00000004072BB4CC0000000E0F9AF6A400C000000130000003A0D00003C000000
310
060000000200000000000040FF3F8F40000000200F7346C000000000CC3A6D4000000040FF3F8F40000000205FA043C0000000C0D3A26E400C00000013000000420D00003C0000000600000002000000000000E0FF3F8FC0000000205FA043C0000000C0D3A26E40000000E0FF3F8FC0000000200F7346C000000000CC3A6D
310
400C000000130000004A0D00003C000000060000000200000000000040FF3F8F40000000E0BD6341C000000040C2EE6F4000000040FF3F8F400000004024793EC000000040A3B470400C00000013000000520D00003C0000000600000002000000000000E0FF3F8FC00000004024793EC000000040A3B47040000000E0FF3F
310
8FC0000000E0BD6341C000000040C2EE6F400C000000130000005A0D00003C000000060000000200000000000040FF3F8F40000000E0223D3BC0000000406361714000000040FF3F8F4000000080665538C0000000A05B2572400C00000013000000620D00003C0000000600000002000000000000E0FF3F8FC00000008066
310
5538C0000000A05B257240000000E0FF3F8FC0000000E0223D3BC000000040636171400C000000130000006A0D00003C000000060000000200000000000040FF3F8F4000000080996036C000000020ABD6724000000040FF3F8F40000000600DEA34C0000000C0B59E73400C00000013000000720D00003C00000006000000
310
02000000000000E0FF3F8FC0000000600DEA34C0000000C0B59E7340000000E0FF3F8FC000000080996036C000000020ABD672400C000000130000007A0D00003C000000060000000200000000000040FF3F8F40000000807AE433C000000080E41B754000000040FF3F8F4000000060734234C0000000A0505274400C0000
310
0013000000820D00003C0000000600000002000000000000A0EE948E40000000004094A1BF000000E053F2614000000040FF3F8F40000000008094A1BF00000080AEEB62400C000000130000008A0D00003C0000000600000002000000000000E02C9B8E40000000004094A1BF0000000086E6614000000040FF3F8F400000
310
00008094A1BF00000080AEEB62400C00000013000000920D00003C0000000600000002000000000000A0EE948E40000000004094A1BF000000E053F26140000000E02C9B8E40000000004094A1BF0000000086E661400C000000130000009A0D00003C000000060000000200000000000040F09F8E40000000004094A1BF00
310
000020CBCA614000000040FF3F8F40000000008094A1BF00000080AEEB62400C00000013000000A20D00003C0000000600000002000000000000E02C9B8E40000000004094A1BF0000000086E6614000000040F09F8E40000000004094A1BF00000020CBCA61400C00000013000000AA0D00003C0000000600000002000000
310
00000040F09F8E40000000004094A1BF00000080D68C614000000040FF3F8F40000000000094A1BF0000008099705F400C00000013000000B20D00003C0000000600000002000000000000E02C9B8E40000000004094A1BF000000404777614000000040FF3F8F40000000000094A1BF0000008099705F400C000000130000
310
00BA0D00003C000000060000000200000000000040F09F8E40000000004094A1BF00000080D68C6140000000E02C9B8E40000000004094A1BF00000040477761400C00000013000000C20D00003C0000000600000002000000000000E02C9B8E40000000004094A1BF0000004047776140000000A03C9A8E40000000009A66
310
F4BF000000401C8561400C00000013000000CA0D00003C0000000600000002000000000000E02C9B8E40000000004094A1BF0000004047776140000000A0EE948E40000000004094A1BF000000C07D6B61400C00000013000000D20D00003C000000060000000200000000000060E9948E40000000006ED0F6BF000000A0DA
310
7D6140000000A0EE948E40000000004094A1BF000000C07D6B61400C00000013000000DA0D00003C0000000600000002000000000000A03C9A8E40000000009A66F4BF000000401C85614000000060E9948E40000000006ED0F6BF000000A0DA7D61400C00000013000000E20D00003C0000000600000002000000000000A0
310
3C9A8E40000000009A66F4BF000000401C856140000000A03C9A8E4000000000CA29FFBF00000080659E61400C00000013000000EA0D00003C000000060000000200000000000060E9948E40000000006ED0F6BF000000A0DA7D614000000060E9948E40000000002BD001C0000000209C9C61400C00000013000000F20D00
310
003C0000000600000002000000000000A03C9A8E4000000000CA29FFBF00000080659E614000000060E9948E40000000002BD001C0000000209C9C61400C00000013000000FA0D00003C000000060000000200000000000060E9948E40000000002BD001C0000000209C9C614000000060E9948E400000000081A901C00000
310
008035C261400C00000013000000020E00003C0000000600000002000000000000A03C9A8E4000000000CA29FFBF0000008067BF614000000060E9948E400000000081A901C00000008035C261400C000000130000000A0E00003C0000000600000002000000000000A03C9A8E4000000000CA29FFBF00000080659E614000
310
0000A03C9A8E4000000000CA29FFBF0000008067BF61400C00000013000000120E00003C0000000600000002000000000000A03C9A8E40000000009A66F4BF00000000B1D8614000000060E9948E4000000000E25CF6BF00000080B8E061400C000000130000001A0E00003C0000000600000002000000000000A03C9A8E40
310
00000000CA29FFBF0000008067BF6140000000A03C9A8E40000000009A66F4BF00000000B1D861400C00000013000000220E00003C0000000600000002000000000000E02C9B8E40000000004094A1BF0000000086E66140000000A03C9A8E40000000009A66F4BF00000000B1D861400C000000130000002A0E00003C0000
310
00060000000200000000000040F09F8E40000000004094A1BF00000020CBCA614000000000139E8E40000000002C5AEEBF00000060DAC661400C00000013000000320E00003C0000000600000002000000000000A03C9A8E40000000009A66F4BF00000000B1D8614000000000139E8E40000000002C5AEEBF00000060DAC6
310
61400C000000130000003A0E00003C000000060000000200000000000000139E8E40000000002C5AEEBF00000060DAC66140000000601EA18E40000000004094A1BF000000802CAC61400C00000013000000420E00003C000000060000000200000000000040F09F8E40000000004094A1BF00000020CBCA6140000000601E
310
A18E40000000004094A1BF000000802CAC61400C000000130000004A0E00003C0000000600000002000000000000A03C9A8E40000000009A66F4BF000000401C85614000000000139E8E40000000002C5AEEBF000000C0F29661400C00000013000000520E00003C000000060000000200000000000040F09F8E4000000000
310
4094A1BF00000080D68C614000000000139E8E40000000002C5AEEBF000000C0F29661400C000000130000005A0E00003C0000000600000002000000000000A03C9A8E4000000000CA29FFBF00000080659E614000000000139E8E40000000003E58F5BF0000000071A561400C00000013000000620E00003C000000060000
310
000200000000000000139E8E40000000002C5AEEBF000000C0F296614000000000139E8E40000000003E58F5BF0000000071A561400C000000130000006A0E00003C0000000600000002000000000000A03C9A8E4000000000CA29FFBF0000008067BF614000000000139E8E40000000003E58F5BF000000205CB861400C00
310
000013000000720E00003C000000060000000200000000000000139E8E40000000003E58F5BF0000000071A5614000000000139E8E40000000003E58F5BF000000205CB861400C000000130000007A0E00003C000000060000000200000000000000139E8E40000000002C5AEEBF00000060DAC6614000000000139E8E4000
310
0000003E58F5BF000000205CB861400C00000013000000820E00003C000000060000000200000000000040F09F8E40000000004094A1BF00000080D68C6140000000601EA18E40000000004094A1BF000000802CAC61400C000000130000008A0E00003C0000000600000002000000000000601EA18E40000000004094A1BF
310
000000802CAC614000000000139E8E40000000002C5AEEBF000000C0F29661400C00000013000000920E00003C0000000600000002000000000000601EA18E40000000004094A1BF000000802CAC614000000000139E8E40000000003E58F5BF0000000071A561400C000000130000009A0E00003C00000006000000020000
310
00000000601EA18E40000000004094A1BF000000802CAC614000000000139E8E40000000003E58F5BF000000205CB861400C00000013000000A20E00003C0000000600000002000000000000A0EE948E40000000004094A1BF000000C07D6B614000000040FF3F8F40000000000094A1BF0000008099705F400C0000001300
310
0000AA0E00003C0000000600000002000000000000A0EE948EC0000000004094A1BF000000C07D6B6140000000A0EE948E40000000004094A1BF000000C07D6B61400C00000013000000B20E00003C000000060000000200000000000060E9948EC0000000002BD001C0000000209C9C614000000060E9948E40000000002B
310
D001C0000000209C9C61400C00000013000000BA0E00003C000000060000000200000000000060E9948EC0000000006ED0F6BF000000A0DA7D614000000060E9948E40000000006ED0F6BF000000A0DA7D61400C00000013000000C20E00003C0000000600000002000000000000601EA18E40000000004094A1BF00000080
310
2CAC614000000040FF3F8F40000000000094A1BF0000008099705F400C00000013000000CA0E00003C0000000600000002000000000000601EA18E40000000004094A1BF000000802CAC614000000040FF3F8F40000000008094A1BF00000080AEEB62400C00000013000000D20E00003C0000000600000002000000000000
310
40FF3F8F40000000000094A1BF0000008099705F4000000040FF3F8F40000000008094A1BF00000080AEEB62400C00000013000000DA0E00003C0000000600000002000000000000E0FF3F8FC000000000FDD023C000000000BBE86040000000E0FF3F8FC0000000008094A1BF00000080AEEB62400C00000013000000E20E
310
00003C0000000600000002000000000000E0FF3F8FC0000000007E3024C000000000C2266140000000E0FF3F8FC0000000008094A1BF00000080AEEB62400C00000013000000EA0E00003C0000000600000002000000000000E0FF3F8FC000000000C9CB25C000000060AF5F6140000000E0FF3F8FC0000000008094A1BF00
310
000080AEEB62400C00000013000000F20E00003C0000000600000002000000000000E0FF3F8FC000000080FDD02FC0000000E0C5B66140000000E0FF3F8FC00000000043BB2CC000000060133863400C00000013000000FA0E00003C0000000600000002000000000000E0FF3F8FC000000060887544C0000000C08AC46140
310
000000E0FF3F8FC000000060F8CD45C0000000A0696863400C00000013000000020F00003C0000000600000002000000000000E0FF3F8FC000000000CFED2BC000000080A5AB6140000000E0FF3F8FC0000000009CF22AC000000000BD3563400C000000130000000A0F00003C0000000600000002000000000000E0FF3F8F
310
C000000000CFED2BC000000080A5AB6140000000E0FF3F8FC000000000202D29C000000020B03163400C00000013000000120F00003C0000000600000002000000000000E0FF3F8FC000000000EA7728C000000000928D6140000000E0FF3F8FC0000000008094A1BF00000080AEEB62400C000000130000001A0F00003C00
310
00000600000002000000000000E0FF3F8FC000000060B7E547C0000000E07DDD6140000000E0FF3F8FC000000000B03748C0000000A0E08063400C00000013000000220F00003C0000000600000002000000000000E0FF3F8FC000000040CADA51C000000000264D6840000000E0FF3F8FC0000000C087614FC00000004043
310
7F67400C000000130000002A0F00003C0000000600000002000000000000E0FF3F8FC000000080BFFF50C000000060F3E96840000000E0FF3F8FC0000000803DDD4DC0000000C0281368400C00000013000000320F00003C0000000600000002000000000000E0FF3F8FC0000000000B7C52C0000000E02BA06740000000E0
310
FF3F8FC0000000007E2950C0000000A075D966400C000000130000003A0F00003C0000000600000002000000000000E0FF3F8FC000000000BFDE52C00000006022E86640000000E0FF3F8FC0000000E0725250C000000060792A66400C00000013000000420F00003C0000000600000002000000000000E0FF3F8FC0000000
310
E0F9FF52C000000060792A6640000000E0FF3F8FC0000000C0BE2A50C0000000608F9165400C000000130000004A0F00003C0000000600000002000000000000E0FF3F8FC0000000C0D2314BC0000000E0D11F6240000000E0FF3F8FC000000000397E4AC0000000E01CB963400C00000013000000520F00003C0000000600
310
000002000000000000E0FF3F8FC0000000C0203A4EC00000008008896240000000E0FF3F8FC000000080FE864CC0000000408D0E64400C000000130000005A0F00003C0000000600000002000000000000E0FF3F8FC0000000A0BA7050C0000000802D156340000000E0FF3F8FC0000000003C3A4EC0000000C04B7D64400C
310
00000013000000620F00003C0000000600000002000000000000E0FF3F8FC000000000238751C000000060FCBE6340000000E0FF3F8FC00000006015844FC0000000804A0065400C000000130000006A0F00003C0000000600000002000000000000E0FF3F8FC0000000A0D45552C0000000A013806440000000E0FF3F8FC0
310
0000006015844FC0000000804A0065400C00000013000000720F00003C0000000600000002000000000000E0FF3F8FC0000000A009D552C00000004031516540000000E0FF3F8FC0000000C0BE2A50C0000000608F9165400C000000130000007A0F00003C0000000600000002000000000000E0FF3F8FC00000008044E02C
310
C0000000406EC27140000000E0FF3F8FC000000080996036C000000020ABD672400C00000013000000820F00003C0000000600000002000000000000E0FF3F8FC0000000600DEA34C0000000C0B59E7340000000E0FF3F8FC000000080099A24C000000020315873400C000000130000008A0F00003C000000060000000200
310
0000000000E0FF3F8FC000000020762F46C00000006038AB6A40000000E0FF3F8FC00000004072BB4CC0000000E0F9AF6A400C00000013000000920F00003C0000000600000002000000000000E0FF3F8FC0000000605C4749C000000020C0006C40000000E0FF3F8FC000000020762F46C00000006038AB6A400C00000013
310
0000009A0F00003C0000000600000002000000000000E0FF3F8FC00000006076973FC00000000090776D40000000E0FF3F8FC0000000200F7346C000000000CC3A6D400C00000013000000A20F00003C0000000600000002000000000000E0FF3F8FC0000000205FA043C0000000C0D3A26E40000000E0FF3F8FC000000060
310
76973FC00000000090776D400C00000013000000AA0F00003C0000000600000002000000000000E0FF3F8FC0000000605F9135C00000004023377040000000E0FF3F8FC0000000E0223D3BC000000040636171400C00000013000000B20F00003C0000000600000002000000000000E0FF3F8FC000000080665538C0000000
310
A05B257240000000E0FF3F8FC00000008044E02CC0000000406EC271400C00000013000000BA0F00003C0000000600000002000000000000E0FF3F8FC0000000605F9135C00000004023377040000000E0FF3F8FC0000000E0BD6341C000000040C2EE6F400C00000013000000C20F00003C00000006000000020000000000
310
00E0FF3F8FC00000004024793EC000000040A3B47040000000E0FF3F8FC0000000605F9135C000000040233770400C00000013000000CA0F00003C000000060000000200000000000040FF3F8F400000000050CFFFBF000000A02847764000000040FF3F8F40000000807AE433C000000080E41B75400C00000013000000D2
310
0F00003C000000060000000200000000000040FF3F8F40000000A07BE433C000000080E31A774000000040FF3F8F4000000000E68002C000000080A35876400C00000013000000DA0F00003C000000060000000200000000000040FF3F8F40000000A05AA832C0000000407338774000000040FF3F8F4000000000D01DF9BF
310
00000020CF6D76400C00000013000000E20F00003C000000060000000200000000000040FF3F8F40000000C04AE331C0000000E00E3B774000000040FF3F8F4000000000D01DF9BF00000020CF6D76400C00000013000000EA0F00003C000000060000000200000000000040FF3F8F4000000000D01DF9BF00000020CF6D76
310
4000000040FF3F8F4000000020B64E33C0000000A0703177400C00000013000000F20F00003C000000060000000200000000000040FF3F8F4000000000E68002C000000080A358764000000040FF3F8F40000000A097BD33C000000040122777400C00000013000000FA0F00003C000000060000000200000000000040FF3F
310
8F40000000807AE433C000000080E41B754000000040FF3F8F400000000012A121C0000000A0790675400C00000013000000021000003C000000060000000200000000000040FF3F8F40000000807AE433C000000080E41B754000000040FF3F8F4000000080D23B22C00000000029FD74400C000000130000000A1000003C
310
000000060000000200000000000040FF3F8F40000000807AE433C000000080E41B754000000040FF3F8F400000000068AD20C000000000C50D75400C00000013000000121000003C000000060000000200000000000040FF3F8F40000000807AE433C000000080E41B754000000040FF3F8F4000000080586D22C000000060
310
CEF274400C000000130000001A1000003C000000060000000200000000000040FF3F8F4000000080099A24C0000000203158734000000040FF3F8F4000000060734234C0000000A0505274400C00000013000000221000003C000000060000000200000000000040FF3F8F40000000807AE433C000000080E41B7540000000
310
40FF3F8F4000000000B071F5BF00000060C93D76400C000000130000002A1000003C000000060000000200000000000040FF3F8F40000000807AE433C000000080E41B754000000040FF3F8F40000000000000083F000000C0BC3576400C00000013000000321000003C000000060000000200000000000040FF3F8F400000
310
0000D7803EC0000000001C2F294000000040FF3F8F400000000089B73EC00000000040E9E03F0C000000130000003A1000003C000000060000000200000000000040FF3F8F4000000000A43702C00000000038A9164000000040FF3F8F400000000089B73EC00000000040E9E03F0C00000013000000421000003C00000006
310
0000000200000000000040FF3F8F4000000000D7803EC0000000001C2F294000000040FF3F8F40000000005C1701C000000000482E1B400C000000130000004A1000003C000000060000000200000000000040FF3F8F4000000000D7803EC0000000001C2F294000000040FF3F8F40000000000068F6BF0000000038591E40
310
0C00000013000000521000003C000000060000000200000000000040FF3F8F400000000089B73EC00000000040E9E03F00000040FF3F8F400000000018C6F9BF00000000689012400C000000130000005A1000003C000000060000000200000000000040FF3F8F4000000000D7803EC0000000001C2F294000000040FF3F8F
310
40000000801C3941C00000000080D4E93F0C00000013000000621000003C000000060000000200000000000040FF3F8F4000000000998941C0000000007C602A4000000040FF3F8F40000000C03DAB43C00000000080ECFB3F0C000000130000006A1000003C000000060000000200000000000040FF3F8F40000000009989
310
41C0000000007C602A4000000040FF3F8F40000000804E0646C00000000050C40A400C00000013000000721000003C000000060000000200000000000040FF3F8F40000000C0B3F944C0000000008C7A2F4000000040FF3F8F4000000040883E48C000000000B84F16400C000000130000007A1000003C0000000600000002
310
00000000000040FF3F8F40000000C0B3F944C0000000008C7A2F4000000040FF3F8F40000000A0D3484AC00000000094CB20400C00000013000000821000003C000000060000000200000000000040FF3F8F40000000C0FBDD47C0000000006034344000000040FF3F8F4000000020FF1A4CC000000000088027400C000000
310
130000008A1000003C000000060000000200000000000040FF3F8F40000000C0FBDD47C0000000006034344000000040FF3F8F4000000040F5AB4DC000000000BC232F400C00000013000000921000003C000000060000000200000000000040FF3F8F40000000C055F249C000000000602C3A4000000040FF3F8F40000000
310
00E9F34EC00000000056C833400C000000130000009A1000003C000000060000000200000000000040FF3F8F40000000C055F249C000000000602C3A4000000040FF3F8F40000000A072EC4FC000000000624E38400C00000013000000A21000003C000000060000000200000000000040FF3F8F40000000C055F249C00000
310
0000602C3A4000000040FF3F8F40000000805B4850C000000000540D3D400C00000013000000AA1000003C000000060000000200000000000040FF3F8F4000000040D0054BC000000000648C404000000040FF3F8F4000000040C16E50C000000000CBF640400C00000013000000B21000003C000000060000000200000000
310
000040FF3F8F4000000040D0054BC000000000648C404000000040FF3F8F4000000080AA6850C0000000005D6B43400C00000013000000BA1000003C000000060000000200000000000040FF3F8F40000000600BFF4AC000000000312B444000000040FF3F8F40000000C0363650C0000000001ED845400C00000013000000
310
C21000003C000000060000000200000000000040FF3F8F40000000600BFF4AC000000000312B444000000040FF3F8F4000000040C1B04FC000000000043148400C00000013000000CA1000003C000000060000000200000000000040FF3F8F4000000060A8DE49C0000000005D9D474000000040FF3F8F4000000080F9A14E
310
C000000000446A4A400C00000013000000D21000003C000000060000000200000000000040FF3F8F4000000060A8DE49C0000000005D9D474000000040FF3F8F40000000605E454DC000000000C9784C400C00000013000000DA1000003C000000060000000200000000000040FF3F8F40000000A0EC7947C00000000073C8
310
4A4000000040FF3F8F40000000004CBF49C0000000008EED4F400C00000013000000E21000003C000000060000000200000000000040FF3F8F40000000A0EC7947C00000000073C84A4000000040FF3F8F4000000040BEA14BC0000000004C524E400C00000013000000EA1000003C000000060000000200000000000040FF
310
3F8F400000006056963FC0000000805890504000000040FF3F8F40000000207CBE43C000000080C05A52400C00000013000000F21000003C000000060000000200000000000040FF3F8F40000000C03DD434C0000000807D86534000000040FF3F8F4000000060CFEE3DC00000008076F054400C00000013000000FA100000
310
3C000000060000000200000000000040FF3F8F4000000000880A28C000000080E4DA564000000040FF3F8F4000000020ED0A36C00000008067D857400C00000013000000021100003C000000060000000200000000000040FF3F8F4000000000EC7615C000000040C4795A4000000040FF3F8F40000000005FFC2FC0000000
310
800A025B400C000000130000000A1100003C000000060000000200000000000040FF3F8F40000000000094A1BF0000008099705F4000000040FF3F8F4000000000F8D527C000000040695B5E400C00000013000000121100003C000000060000000200000000000040FF3F8F40000000005052F0BF000000C09E4D5E400000
310
0040FF3F8F4000000000F8D527C000000040695B5E400C000000130000001A1100003C000000060000000200000000000040FF3F8F40000000008094A1BF00000080AEEB624000000040FF3F8F4000000000FDD023C000000000BBE860400C00000013000000221100003C000000060000000200000000000040FF3F8F4000
310
0000008094A1BF00000080AEEB624000000040FF3F8F40000000007E3024C000000000C22661400C000000130000002A1100003C000000060000000200000000000040FF3F8F40000000008094A1BF00000080AEEB624000000040FF3F8F4000000000C9CB25C000000060AF5F61400C00000013000000321100003C000000
310
060000000200000000000040FF3F8F4000000060F8CD45C0000000A06968634000000040FF3F8F4000000060887544C0000000C08AC461400C000000130000003A1100003C000000060000000200000000000040FF3F8F400000000043BB2CC0000000601338634000000040FF3F8F4000000080FDD02FC0000000E0C5B661
310
400C00000013000000421100003C000000060000000200000000000040FF3F8F40000000009CF22AC000000000BD35634000000040FF3F8F4000000000CFED2BC000000080A5AB61400C000000130000004A1100003C000000060000000200000000000040FF3F8F4000000000CFED2BC000000080A5AB614000000040FF3F
310
8F4000000000202D29C000000020B03163400C00000013000000521100003C000000060000000200000000000040FF3F8F40000000008094A1BF00000080AEEB624000000040FF3F8F4000000000EA7728C000000000928D61400C000000130000005A1100003C000000060000000200000000000040FF3F8F4000000000B0
310
3748C0000000A0E080634000000040FF3F8F4000000060B7E547C0000000E07DDD61400C00000013000000621100003C000000060000000200000000000040FF3F8F40000000803DDD4DC0000000C02813684000000040FF3F8F4000000080BFFF50C000000060F3E968400C000000130000006A1100003C00000006000000
310
0200000000000040FF3F8F40000000C087614FC000000040437F674000000040FF3F8F4000000040CADA51C000000000264D68400C00000013000000721100003C000000060000000200000000000040FF3F8F40000000007E2950C0000000A075D9664000000040FF3F8F40000000000B7C52C0000000E02BA067400C0000
310
00130000007A1100003C000000060000000200000000000040FF3F8F40000000E0725250C000000060792A664000000040FF3F8F4000000000BFDE52C00000006022E866400C00000013000000821100003C000000060000000200000000000040FF3F8F40000000C0BE2A50C0000000608F91654000000040FF3F8F400000
310
00E0F9FF52C000000060792A66400C000000130000008A1100003C000000060000000200000000000040FF3F8F4000000000397E4AC0000000E01CB9634000000040FF3F8F40000000C0D2314BC0000000E0D11F62400C00000013000000921100003C000000060000000200000000000040FF3F8F4000000080FE864CC000
310
0000408D0E644000000040FF3F8F40000000C0203A4EC000000080088962400C000000130000009A1100003C000000060000000200000000000040FF3F8F40000000003C3A4EC0000000C04B7D644000000040FF3F8F40000000A0BA7050C0000000802D1563400C00000013000000A21100003C0000000600000002000000
310
00000040FF3F8F400000006015844FC0000000804A00654000000040FF3F8F4000000000238751C000000060FCBE63400C00000013000000AA1100003C000000060000000200000000000040FF3F8F400000006015844FC0000000804A00654000000040FF3F8F40000000A0D45552C0000000A0138064400C000000130000
310
00B21100003C000000060000000200000000000040FF3F8F40000000C0BE2A50C0000000608F91654000000040FF3F8F40000000A009D552C000000040315165400C00000013000000BA1100003C000000060000000200000000000040FF3F8F4000000080099A24C0000000203158734000000040FF3F8F40000000600DEA
310
34C0000000C0B59E73400C00000013000000C21100003C000000060000000200000000000040FF3F8F400000008044E02CC0000000406EC2714000000040FF3F8F4000000080996036C000000020ABD672400C00000013000000CA1100003C000000060000000200000000000040FF3F8F4000000020762F46C00000006038
310
AB6A4000000040FF3F8F400000004072BB4CC0000000E0F9AF6A400C00000013000000D21100003C000000060000000200000000000040FF3F8F4000000020762F46C00000006038AB6A4000000040FF3F8F40000000605C4749C000000020C0006C400C00000013000000DA1100003C000000060000000200000000000040
310
FF3F8F400000006076973FC00000000090776D4000000040FF3F8F40000000200F7346C000000000CC3A6D400C00000013000000E21100003C000000060000000200000000000040FF3F8F400000006076973FC00000000090776D4000000040FF3F8F40000000205FA043C0000000C0D3A26E400C00000013000000EA1100
310
003C000000060000000200000000000040FF3F8F400000008044E02CC0000000406EC2714000000040FF3F8F4000000080665538C0000000A05B2572400C00000013000000F21100003C000000060000000200000000000040FF3F8F40000000605F9135C0000000402337704000000040FF3F8F40000000E0223D3BC00000
310
0040636171400C00000013000000FA1100003C000000060000000200000000000040FF3F8F40000000605F9135C0000000402337704000000040FF3F8F400000004024793EC000000040A3B470400C00000013000000021200003C000000060000000200000000000040FF3F8F40000000605F9135C0000000402337704000
310
000040FF3F8F40000000E0BD6341C000000040C2EE6F40
100
AcDbSubDMesh
 71
     2
 72
     0
 91
        0
 92
      268
 10
-999.9999389648436
 20
-19.89251136779785
 30
369.6805419921875
 10
-999.9999389648436
 20
-19.89249420166015
 30
337.7432861328125
 10
-999.9999389648436
 20
-20.91426658630371
 30
313.9193725585938
 10
-999.9999389648436
 20
-24.33359527587891
 30
290.3348693847656
 10
-999.9999389648436
 20
-30.47320938110352
 30
267.2898559570313
 10
-999.9999389648436
 20
-39.25290298461914
 30
245.0883483886719
 10
-999.9999389648436
 20
-50.5575065612793
 30
224.0234527587891
 10
-999.9999389648436
 20
-67.99606323242187
 30
199.3109588623047
 10
-999.9999389648436
 20
-71.41859436035156
 30
194.410888671875
 10
-999.9999389648436
 20
-73.93817138671875
 30
189.0053558349609
 10
-999.9999389648436
 20
-75.48040771484375
 30
183.2541961669922
 10
-999.9999389648436
 20
-75.99962615966797
 30
177.3273162841797
 10
-999.9999389648436
 20
-9.908180236816406
 30
135.2728271484375
 10
-999.9999389648436
 20
-11.91790771484375
 30
121.4282989501953
 10
-999.9999389648436
 20
-15.99291229248047
 30
108.0318908691406
 10
-999.9999389648436
 20
-22.04268074035645
 30
95.38131713867187
 10
-999.9999389648436
 20
-29.93285179138183
 30
83.75723266601562
 10
-999.9999389648436
 20
-39.48816299438476
 30
73.41799926757812
 10
-999.9999389648436
 20
-75.3287124633789
 30
170.5372619628906
 10
-999.9999389648436
 20
-73.34110260009765
 30
164.0023956298828
 10
-999.9999389648436
 20
-70.11151123046875
 30
157.9683074951172
 10
-999.9999389648436
 20
-65.76139068603516
 30
152.6618041992187
 10
-999.9999389648436
 20
-60.45412445068359
 30
148.2822875976562
 10
-999.9999389648436
 20
-54.38924407958984
 30
144.9943695068359
 10
-999.9999389648436
 20
-47.79465866088867
 30
142.9216156005859
 10
-999.9999389648436
 20
-40.91822433471679
 30
142.1419372558593
 10
-999.9999389648436
 20
-15.90818405151367
 30
141.7116546630859
 10
-999.9999389648436
 20
-51.4945068359375
 30
63.85589599609375
 10
-999.9999389648436
 20
-55.26361846923828
 30
60.6429443359375
 10
-999.9999389648436
 20
-58.54194259643555
 30
56.94363403320313
 10
-999.9999389648436
 20
-61.26542663574219
 30
52.8302001953125
 10
-999.9999389648436
 20
-63.38089752197266
 30
48.3829345703125
 10
-999.9999389648436
 20
-64.84709167480469
 30
43.68841552734375
 10
-999.9999389648436
 20
-65.63540649414062
 30
38.83877563476563
 10
-999.9999389648436
 20
-65.73054504394531
 30
33.92807006835937
 10
-999.9999389648436
 20
-65.13058471679688
 30
29.05206298828125
 10
-999.9999389648436
 20
-63.84724807739257
 30
24.30618286132812
 10
-999.9999389648436
 20
-61.90554809570312
 30
19.78256225585937
 10
-999.9999389648436
 20
-59.34342193603516
 30
15.56979370117187
 10
-999.9999389648436
 20
-56.21091079711914
 30
11.75006103515625
 10
-999.9999389648436
 20
-52.56895828247071
 30
8.397613525390625
 10
-999.9999389648436
 20
-48.48853302001953
 30
5.577850341796875
 10
-999.9999389648436
 20
-44.04927062988281
 30
3.345855712890625
 10
-999.9999389648436
 20
-39.33782196044922
 30
1.7452392578125
 10
-999.9999389648436
 20
-34.44618225097656
 30
0.80718994140625
 10
-999.9999389648436
 20
-30.71693420410156
 30
0.528472900390625
 10
-999.9999389648436
 20
0.0000267028808594
 30
0.000030517578125
 10
-999.9999389648436
 20
-13.96446990966797
 30
141.3639526367187
 10
-999.9999389648436
 20
-12.23420715332031
 30
140.424072265625
 10
-999.9999389648436
 20
-10.89801788330078
 30
138.9901580810547
 10
-999.9999389648436
 20
-10.09471130371093
 30
137.211181640625
 10
-999.9999389648436
 20
-30.50328063964844
 30
12.59201049804687
 10
-999.9999389648436
 20
-35.07498168945313
 30
13.18844604492187
 10
-999.9999389648436
 20
-41.95079803466796
 30
15.73934936523437
 10
-999.9999389648436
 20
-47.73424530029297
 30
20.20458984375
 10
-999.9999389648436
 20
-51.89324188232422
 30
26.17333984375
 10
-999.9999389648436
 20
-54.04541778564453
 30
33.0968017578125
 10
-999.9999389648436
 20
-53.99253463745117
 30
40.33743286132812
 10
-999.9999389648436
 20
-51.73951339721679
 30
47.22940063476563
 10
-999.9999389648436
 20
-46.95253372192382
 30
53.56600952148437
 10
-999.9999389648436
 20
0.0000343322753906
 30
12.06729125976562
 10
-999.9999389648436
 20
-8.33868408203125
 30
336.860595703125
 10
-999.9999389648436
 20
0.0000534057617188
 30
342.5776672363281
 10
-999.9999389648436
 20
-59.72843933105469
 30
192.5987243652343
 10
-999.9999389648436
 20
-44.37079238891601
 30
213.3506317138672
 10
-999.9999389648436
 20
-31.59165000915527
 30
235.736328125
 10
-999.9999389648436
 20
-21.56786155700684
 30
259.4461059570313
 10
-999.9999389648436
 20
-14.43802261352539
 30
284.1519165039063
 10
-999.9999389648436
 20
-10.30085372924804
 30
309.5119934082031
 10
-999.9999389648436
 20
-9.213565826416015
 30
335.1753845214844
 10
-999.9999389648436
 20
-65.28826141357422
 30
177.3273162841797
 10
-999.9999389648436
 20
-64.6483154296875
 30
182.7956085205078
 10
-999.9999389648436
 20
-62.76195526123046
 30
187.9769592285156
 10
-999.9999389648436
 20
-43.60914230346679
 30
155.2628936767578
 10
-999.9999389648436
 20
-48.43505859375
 30
156.0274200439453
 10
-999.9999389648436
 20
-52.98611450195313
 30
157.7847747802734
 10
-999.9999389648436
 20
-57.05464172363281
 30
160.4547424316406
 10
-999.9999389648436
 20
-60.4549560546875
 30
163.9154968261719
 10
-999.9999389648436
 20
-63.03190231323242
 30
168.0090942382812
 10
-999.9999389648436
 20
-64.66789245605468
 30
172.5487518310547
 10
-999.9999389648436
 20
-31.58725547790528
 30
66.25540161132812
 10
-999.9999389648436
 20
-20.82906723022461
 30
78.10140991210937
 10
-999.9999389648436
 20
-12.02056884765625
 30
91.42019653320312
 10
-999.9999389648436
 20
-5.366134643554687
 30
105.902603149414
 10
-999.9999389648436
 20
-1.020095825195312
 30
121.2128143310547
 10
-999.9999389648436
 20
-9.116840362548828
 30
335.822509765625
 10
-999.9999389648436
 20
-8.814590454101562
 30
336.4046936035156
 10
-999.9999389648436
 20
0.0000457763671875
 30
371.9988708496094
 10
-999.9999389648436
 20
0.0000457763671875
 30
359.5764465332031
 10
-999.9999389648436
 20
-1.569778442382812
 30
358.8630676269531
 10
-999.9999389648436
 20
-2.312938690185546
 30
357.5399169921875
 10
-999.9999389648436
 20
-1.988113403320312
 30
356.4474182128906
 10
-999.9999389648436
 20
-1.340255737304687
 30
355.8616638183594
 10
-999.9999389648436
 20
0.0000457763671875
 30
355.3585815429688
 10
-999.9999389648436
 20
0.0000343322753906
 30
8.133819580078125
 10
-999.9999389648436
 20
-1.400390625
 30
7.587127685546875
 10
-999.9999389648436
 20
-2.136405944824218
 30
6.795196533203125
 10
-999.9999389648436
 20
-2.277168273925781
 30
5.665252685546875
 10
-999.9999389648436
 20
-1.610862731933593
 30
4.641021728515625
 10
-999.9999389648436
 20
0.0000343322753906
 30
3.915924072265625
 10
-999.9999389648436
 20
-19.7405948638916
 30
370.4419555664062
 10
-999.9999389648436
 20
-19.30746650695801
 30
371.0899963378906
 10
-999.9999389648436
 20
-18.65763282775879
 30
371.5281372070312
 10
-999.9999389648436
 20
-17.88785934448242
 30
371.6911315917969
 10
-999.9999389648436
 20
-12.588134765625
 30
153.552749633789
 10
-999.9999389648436
 20
-14.36574554443359
 30
153.7523651123047
 10
-999.9999389648436
 20
-13.47384643554687
 30
153.6793212890625
 10
-999.9999389648436
 20
-0.034332275390625
 30
125.7593688964844
 10
-999.9999389648436
 20
-20.25957298278809
 30
325.1446838378906
 10
-999.9999389648436
 20
-22.37734222412109
 30
301.4167785644531
 10
-999.9999389648436
 20
-27.23881340026856
 30
278.0867309570313
 10
-999.9999389648436
 20
-34.77923202514649
 30
255.4612121582031
 10
-999.9999389648436
 20
-44.89889907836913
 30
233.83740234375
 10
-999.9999389648436
 20
-57.46442413330078
 30
213.4992523193359
 10
-978.6139526367188
 20
-1.425886154174804
 30
139.9329376220703
 10
-978.6139526367188
 20
-2.22664451599121
 30
140.894058227539
 10
-978.6139526367188
 20
-2.207765579223632
 30
142.0690307617187
 10
-978.6139526367188
 20
-1.397676467895507
 30
143.0225219726562
 10
-979.2796020507813
 20
-1.275049209594726
 30
142.7716064453125
 10
-979.75927734375
 20
-0.9485073089599609
 30
142.2141571044922
 10
-980.1398315429688
 20
-0.0343341827392578
 30
141.3804321289062
 10
-979.9923095703125
 20
-0.0343341827392578
 30
142.3372955322265
 10
-979.3969116210938
 20
-0.0343341827392578
 30
143.203857421875
 10
-979.2796020507813
 20
-1.275049209594726
 30
140.1596984863281
 10
-979.2796020507813
 20
-1.947702407836914
 30
140.9498901367187
 10
-979.2796020507813
 20
-1.947702407836914
 30
141.9813842773437
 10
-979.75927734375
 20
-0.9485073089599609
 30
140.7171325683593
 10
-979.75927734375
 20
-1.334043502807617
 30
141.1700439453125
 10
-979.75927734375
 20
-1.334043502807617
 30
141.761245727539
 10
-979.9923095703125
 20
-0.0343341827392578
 30
140.4011840820312
 10
-999.9999389648436
 20
-0.0343360900878906
 30
151.3650512695312
 10
-978.6165161132812
 20
-0.0343341827392578
 30
143.5727386474609
 10
-978.6165161132812
 20
-0.0343341827392578
 30
139.3591003417969
 10
-979.3969116210938
 20
-0.0343341827392578
 30
139.7274475097656
 10
978.6165161132812
 20
-0.0343341827392578
 30
143.5727386474609
 10
979.3969116210938
 20
-0.0343341827392578
 30
143.203857421875
 10
979.9923095703125
 20
-0.0343341827392578
 30
142.3372955322265
 10
979.9923095703125
 20
-0.0343341827392578
 30
140.4011840820312
 10
979.3969116210938
 20
-0.0343341827392578
 30
139.7274475097656
 10
979.2796020507813
 20
-1.275049209594726
 30
140.1596984863281
 10
978.6139526367188
 20
-1.425886154174804
 30
139.9329376220703
 10
978.6165161132812
 20
-0.0343341827392578
 30
139.3591003417969
 10
979.2796020507813
 20
-1.947702407836914
 30
140.9498901367187
 10
978.6139526367188
 20
-2.22664451599121
 30
140.894058227539
 10
979.2796020507813
 20
-1.947702407836914
 30
141.9813842773437
 10
978.6139526367188
 20
-2.207765579223632
 30
142.0690307617187
 10
979.2796020507813
 20
-1.275049209594726
 30
142.7716064453125
 10
978.6139526367188
 20
-1.397676467895507
 30
143.0225219726562
 10
979.75927734375
 20
-0.9485073089599609
 30
142.2141571044922
 10
980.1398315429688
 20
-0.0343341827392578
 30
141.3804321289062
 10
979.75927734375
 20
-0.9485073089599609
 30
140.7171325683593
 10
979.75927734375
 20
-1.334043502807617
 30
141.1700439453125
 10
979.75927734375
 20
-1.334043502807617
 30
141.761245727539
 10
999.9996337890625
 20
-19.89251136779785
 30
369.6805419921875
 10
999.9996337890625
 20
-2.312938690185546
 30
357.5399169921875
 10
999.9996337890625
 20
-1.988113403320312
 30
356.4474182128906
 10
999.9996337890625
 20
-19.89249420166015
 30
337.7432861328125
 10
999.9996337890625
 20
-18.65763282775879
 30
371.5281372070312
 10
999.9996337890625
 20
-17.88785934448242
 30
371.6911315917969
 10
999.9996337890625
 20
-1.569778442382812
 30
358.8630676269531
 10
999.9996337890625
 20
0.0000457763671875
 30
371.9988708496094
 10
999.9996337890625
 20
0.0000457763671875
 30
359.5764465332031
 10
999.9996337890625
 20
-19.30746650695801
 30
371.0899963378906
 10
999.9996337890625
 20
-19.7405948638916
 30
370.4419555664062
 10
999.9996337890625
 20
-8.814590454101562
 30
336.4046936035156
 10
999.9996337890625
 20
-9.116840362548828
 30
335.822509765625
 10
999.9996337890625
 20
-8.33868408203125
 30
336.860595703125
 10
999.9996337890625
 20
-9.213565826416015
 30
335.1753845214844
 10
999.9996337890625
 20
-10.30085372924804
 30
309.5119934082031
 10
999.9996337890625
 20
-20.25957298278809
 30
325.1446838378906
 10
999.9996337890625
 20
-1.340255737304687
 30
355.8616638183594
 10
999.9996337890625
 20
0.0000457763671875
 30
355.3585815429688
 10
999.9996337890625
 20
0.0000534057617188
 30
342.5776672363281
 10
999.9996337890625
 20
-30.50328063964844
 30
12.59201049804687
 10
999.9996337890625
 20
-2.136405944824218
 30
6.795196533203125
 10
999.9996337890625
 20
-2.277168273925781
 30
5.665252685546875
 10
999.9996337890625
 20
-30.71693420410156
 30
0.528472900390625
 10
999.9996337890625
 20
0.0000343322753906
 30
12.06729125976562
 10
999.9996337890625
 20
0.0000343322753906
 30
8.133819580078125
 10
999.9996337890625
 20
-1.400390625
 30
7.587127685546875
 10
999.9996337890625
 20
-1.610862731933593
 30
4.641021728515625
 10
999.9996337890625
 20
0.0000343322753906
 30
3.915924072265625
 10
999.9996337890625
 20
0.0000267028808594
 30
0.000030517578125
 10
999.9996337890625
 20
-34.44618225097656
 30
0.80718994140625
 10
999.9996337890625
 20
-35.07498168945313
 30
13.18844604492187
 10
999.9996337890625
 20
-39.33782196044922
 30
1.7452392578125
 10
999.9996337890625
 20
-44.04927062988281
 30
3.345855712890625
 10
999.9996337890625
 20
-41.95079803466796
 30
15.73934936523437
 10
999.9996337890625
 20
-48.48853302001953
 30
5.577850341796875
 10
999.9996337890625
 20
-52.56895828247071
 30
8.397613525390625
 10
999.9996337890625
 20
-47.73424530029297
 30
20.20458984375
 10
999.9996337890625
 20
-56.21091079711914
 30
11.75006103515625
 10
999.9996337890625
 20
-59.34342193603516
 30
15.56979370117187
 10
999.9996337890625
 20
-51.89324188232422
 30
26.17333984375
 10
999.9996337890625
 20
-61.90554809570312
 30
19.78256225585937
 10
999.9996337890625
 20
-63.84724807739257
 30
24.30618286132812
 10
999.9996337890625
 20
-65.13058471679688
 30
29.05206298828125
 10
999.9996337890625
 20
-54.04541778564453
 30
33.0968017578125
 10
999.9996337890625
 20
-65.73054504394531
 30
33.92807006835937
 10
999.9996337890625
 20
-65.63540649414062
 30
38.83877563476563
 10
999.9996337890625
 20
-53.99253463745117
 30
40.33743286132812
 10
999.9996337890625
 20
-64.84709167480469
 30
43.68841552734375
 10
999.9996337890625
 20
-63.38089752197266
 30
48.3829345703125
 10
999.9996337890625
 20
-51.73951339721679
 30
47.22940063476563
 10
999.9996337890625
 20
-61.26542663574219
 30
52.8302001953125
 10
999.9996337890625
 20
-58.54194259643555
 30
56.94363403320313
 10
999.9996337890625
 20
-46.95253372192382
 30
53.56600952148437
 10
999.9996337890625
 20
-55.26361846923828
 30
60.6429443359375
 10
999.9996337890625
 20
-51.4945068359375
 30
63.85589599609375
 10
999.9996337890625
 20
-31.58725547790528
 30
66.25540161132812
 10
999.9996337890625
 20
-39.48816299438476
 30
73.41799926757812
 10
999.9996337890625
 20
-20.82906723022461
 30
78.10140991210937
 10
999.9996337890625
 20
-29.93285179138183
 30
83.75723266601562
 10
999.9996337890625
 20
-12.02056884765625
 30
91.42019653320312
 10
999.9996337890625
 20
-22.04268074035645
 30
95.38131713867187
 10
999.9996337890625
 20
-5.366134643554687
 30
105.902603149414
 10
999.9996337890625
 20
-15.99291229248047
 30
108.0318908691406
 10
999.9996337890625
 20
-0.034332275390625
 30
125.7593688964844
 10
999.9996337890625
 20
-1.020095825195312
 30
121.2128143310547
 10
999.9996337890625
 20
-11.91790771484375
 30
121.4282989501953
 10
999.9996337890625
 20
-0.0343360900878906
 30
151.3650512695312
 10
999.9996337890625
 20
-9.908180236816406
 30
135.2728271484375
 10
999.9996337890625
 20
-10.09471130371093
 30
137.211181640625
 10
999.9996337890625
 20
-10.89801788330078
 30
138.9901580810547
 10
999.9996337890625
 20
-43.60914230346679
 30
155.2628936767578
 10
999.9996337890625
 20
-14.36574554443359
 30
153.7523651123047
 10
999.9996337890625
 20
-15.90818405151367
 30
141.7116546630859
 10
999.9996337890625
 20
-40.91822433471679
 30
142.1419372558593
 10
999.9996337890625
 20
-13.47384643554687
 30
153.6793212890625
 10
999.9996337890625
 20
-13.96446990966797
 30
141.3639526367187
 10
999.9996337890625
 20
-12.588134765625
 30
153.552749633789
 10
999.9996337890625
 20
-12.23420715332031
 30
140.424072265625
 10
999.9996337890625
 20
-48.43505859375
 30
156.0274200439453
 10
999.9996337890625
 20
-47.79465866088867
 30
142.9216156005859
 10
999.9996337890625
 20
-59.72843933105469
 30
192.5987243652343
 10
999.9996337890625
 20
-62.76195526123046
 30
187.9769592285156
 10
999.9996337890625
 20
-71.41859436035156
 30
194.410888671875
 10
999.9996337890625
 20
-67.99606323242187
 30
199.3109588623047
 10
999.9996337890625
 20
-64.6483154296875
 30
182.7956085205078
 10
999.9996337890625
 20
-73.93817138671875
 30
189.0053558349609
 10
999.9996337890625
 20
-65.28826141357422
 30
177.3273162841797
 10
999.9996337890625
 20
-75.48040771484375
 30
183.2541961669922
 10
999.9996337890625
 20
-64.66789245605468
 30
172.5487518310547
 10
999.9996337890625
 20
-75.99962615966797
 30
177.3273162841797
 10
999.9996337890625
 20
-52.98611450195313
 30
157.7847747802734
 10
999.9996337890625
 20
-54.38924407958984
 30
144.9943695068359
 10
999.9996337890625
 20
-57.05464172363281
 30
160.4547424316406
 10
999.9996337890625
 20
-60.45412445068359
 30
148.2822875976562
 10
999.9996337890625
 20
-60.4549560546875
 30
163.9154968261719
 10
999.9996337890625
 20
-65.76139068603516
 30
152.6618041992187
 10
999.9996337890625
 20
-63.03190231323242
 30
168.0090942382812
 10
999.9996337890625
 20
-70.11151123046875
 30
157.9683074951172
 10
999.9996337890625
 20
-73.34110260009765
 30
164.0023956298828
 10
999.9996337890625
 20
-75.3287124633789
 30
170.5372619628906
 10
999.9996337890625
 20
-14.43802261352539
 30
284.1519165039063
 10
999.9996337890625
 20
-22.37734222412109
 30
301.4167785644531
 10
999.9996337890625
 20
-20.91426658630371
 30
313.9193725585938
 10
999.9996337890625
 20
-44.37079238891601
 30
213.3506317138672
 10
999.9996337890625
 20
-57.46442413330078
 30
213.4992523193359
 10
999.9996337890625
 20
-50.5575065612793
 30
224.0234527587891
 10
999.9996337890625
 20
-31.59165000915527
 30
235.736328125
 10
999.9996337890625
 20
-44.89889907836913
 30
233.83740234375
 10
999.9996337890625
 20
-39.25290298461914
 30
245.0883483886719
 10
999.9996337890625
 20
-21.56786155700684
 30
259.4461059570313
 10
999.9996337890625
 20
-27.23881340026856
 30
278.0867309570313
 10
999.9996337890625
 20
-24.33359527587891
 30
290.3348693847656
 10
999.9996337890625
 20
-34.77923202514649
 30
255.4612121582031
 10
999.9996337890625
 20
-30.47320938110352
 30
267.2898559570313
 93
     1465
 90
        3
 90
      131
 90
      122
 90
      130
 90
        3
 90
      122
 90
      121
 90
      130
 90
        3
 90
      129
 90
      133
 90
      107
 90
        4
 90
      123
 90
      114
 90
      132
 90
      133
 90
        4
 90
      124
 90
      115
 90
      114
 90
      123
 90
        4
 90
      124
 90
      125
 90
      116
 90
      115
 90
        4
 90
      125
 90
      118
 90
      117
 90
      116
 90
        4
 90
      118
 90
      122
 90
      131
 90
      117
 90
        4
 90
      121
 90
      122
 90
      118
 90
      119
 90
        3
 90
      120
 90
      121
 90
      119
 90
        4
 90
      133
 90
      129
 90
      126
 90
      123
 90
        4
 90
      126
 90
      127
 90
      124
 90
      123
 90
        4
 90
      127
 90
      128
 90
      125
 90
      124
 90
        4
 90
      128
 90
      119
 90
      118
 90
      125
 90
        3
 90
      120
 90
      126
 90
      129
 90
        3
 90
      120
 90
      127
 90
      126
 90
        3
 90
      127
 90
      120
 90
      128
 90
        3
 90
      128
 90
      120
 90
      119
 90
        4
 90
      116
 90
      117
 90
      147
 90
      145
 90
        3
 90
      107
 90
      133
 90
      132
 90
        3
 90
      129
 90
      107
 90
      120
 90
        3
 90
      120
 90
      130
 90
      121
 90
        3
 90
      120
 90
      107
 90
      130
 90
        4
 90
        0
 90
       90
 90
       91
 90
        1
 90
        3
 90
      102
 90
      103
 90
       89
 90
        4
 90
      103
 90
       87
 90
       88
 90
       89
 90
        3
 90
      101
 90
      102
 90
       89
 90
        3
 90
        0
 90
      100
 90
       90
 90
        4
 90
      100
 90
      101
 90
       89
 90
       90
 90
        3
 90
       86
 90
       85
 90
        1
 90
        3
 90
        1
 90
       61
 90
       86
 90
        3
 90
       85
 90
       69
 90
        1
 90
        4
 90
       69
 90
       68
 90
      108
 90
        1
 90
        3
 90
       91
 90
       92
 90
        1
 90
        3
 90
       92
 90
       93
 90
        1
 90
        4
 90
       93
 90
       62
 90
       61
 90
        1
 90
        4
 90
       51
 90
       96
 90
       97
 90
       45
 90
        4
 90
       51
 90
       60
 90
       94
 90
       95
 90
        3
 90
       51
 90
       95
 90
       96
 90
        3
 90
       97
 90
       98
 90
       45
 90
        4
 90
       98
 90
       99
 90
       46
 90
       45
 90
        3
 90
       51
 90
       45
 90
       44
 90
        4
 90
       52
 90
       51
 90
       44
 90
       43
 90
        3
 90
       52
 90
       43
 90
       42
 90
        4
 90
       53
 90
       52
 90
       42
 90
       41
 90
        3
 90
       53
 90
       41
 90
       40
 90
        4
 90
       54
 90
       53
 90
       40
 90
       39
 90
        3
 90
       54
 90
       39
 90
       38
 90
        4
 90
       55
 90
       54
 90
       38
 90
       37
 90
        3
 90
       55
 90
       37
 90
       36
 90
        3
 90
       55
 90
       36
 90
       35
 90
        4
 90
       56
 90
       55
 90
       35
 90
       34
 90
        3
 90
       56
 90
       34
 90
       33
 90
        4
 90
       57
 90
       56
 90
       33
 90
       32
 90
        3
 90
       57
 90
       32
 90
       31
 90
        4
 90
       58
 90
       57
 90
       31
 90
       30
 90
        3
 90
       58
 90
       30
 90
       29
 90
        3
 90
       59
 90
       28
 90
       27
 90
        4
 90
       59
 90
       58
 90
       29
 90
       28
 90
        4
 90
       80
 90
       59
 90
       27
 90
       17
 90
        4
 90
       81
 90
       80
 90
       17
 90
       16
 90
        4
 90
       82
 90
       81
 90
       16
 90
       15
 90
        4
 90
       83
 90
       82
 90
       15
 90
       14
 90
        3
 90
      107
 90
       84
 90
       13
 90
        4
 90
       84
 90
       83
 90
       14
 90
       13
 90
        4
 90
      117
 90
      131
 90
      134
 90
      147
 90
        4
 90
      158
 90
      160
 90
       87
 90
      103
 90
        4
 90
      160
 90
      161
 90
       88
 90
       87
 90
        4
 90
      161
 90
      159
 90
       89
 90
       88
 90
        4
 90
      159
 90
      154
 90
       90
 90
       89
 90
        4
 90
      154
 90
      155
 90
       91
 90
       90
 90
        4
 90
      155
 90
      170
 90
       92
 90
       91
 90
        4
 90
      170
 90
      171
 90
       93
 90
       92
 90
        4
 90
      171
 90
      172
 90
       62
 90
       93
 90
        4
 90
      172
 90
      166
 90
       61
 90
       62
 90
        4
 90
      166
 90
      164
 90
       86
 90
       61
 90
        4
 90
      164
 90
      165
 90
       85
 90
       86
 90
        4
 90
      165
 90
      167
 90
       69
 90
       85
 90
        4
 90
      167
 90
      168
 90
       68
 90
       69
 90
        4
 90
      168
 90
      254
 90
       67
 90
       68
 90
        4
 90
      254
 90
      263
 90
       66
 90
       67
 90
        4
 90
      263
 90
      260
 90
       65
 90
       66
 90
        4
 90
      260
 90
      257
 90
       64
 90
       65
 90
        4
 90
      257
 90
      234
 90
       63
 90
       64
 90
        4
 90
      234
 90
      235
 90
       72
 90
       63
 90
        4
 90
      235
 90
      238
 90
       71
 90
       72
 90
        4
 90
      238
 90
      240
 90
       70
 90
       71
 90
        4
 90
      240
 90
      242
 90
       79
 90
       70
 90
        4
 90
      242
 90
      250
 90
       78
 90
       79
 90
        4
 90
      250
 90
      248
 90
       77
 90
       78
 90
        4
 90
      248
 90
      246
 90
       76
 90
       77
 90
        4
 90
      246
 90
      244
 90
       75
 90
       76
 90
        4
 90
      244
 90
      232
 90
       74
 90
       75
 90
        4
 90
      232
 90
      224
 90
       73
 90
       74
 90
        4
 90
      224
 90
      225
 90
      105
 90
       73
 90
        4
 90
      225
 90
      228
 90
      106
 90
      105
 90
        4
 90
      228
 90
      230
 90
      104
 90
      106
 90
        4
 90
      230
 90
      220
 90
      130
 90
      104
 90
        4
 90
      217
 90
      218
 90
       84
 90
      107
 90
        4
 90
      218
 90
      215
 90
       83
 90
       84
 90
        4
 90
      215
 90
      213
 90
       82
 90
       83
 90
        4
 90
      213
 90
      211
 90
       81
 90
       82
 90
        4
 90
      211
 90
      209
 90
       80
 90
       81
 90
        4
 90
      209
 90
      206
 90
       59
 90
       80
 90
        4
 90
      206
 90
      203
 90
       58
 90
       59
 90
        4
 90
      203
 90
      200
 90
       57
 90
       58
 90
        4
 90
      200
 90
      197
 90
       56
 90
       57
 90
        4
 90
      197
 90
      193
 90
       55
 90
       56
 90
        4
 90
      193
 90
      190
 90
       54
 90
       55
 90
        4
 90
      190
 90
      187
 90
       53
 90
       54
 90
        4
 90
      187
 90
      184
 90
       52
 90
       53
 90
        4
 90
      184
 90
      173
 90
       51
 90
       52
 90
        4
 90
      173
 90
      177
 90
       60
 90
       51
 90
        4
 90
      177
 90
      178
 90
       94
 90
       60
 90
        4
 90
      178
 90
      179
 90
       95
 90
       94
 90
        4
 90
      179
 90
      174
 90
       96
 90
       95
 90
        4
 90
      174
 90
      175
 90
       97
 90
       96
 90
        4
 90
      175
 90
      180
 90
       98
 90
       97
 90
        4
 90
      180
 90
      181
 90
       99
 90
       98
 90
        4
 90
      181
 90
      182
 90
       46
 90
       99
 90
        4
 90
      182
 90
      176
 90
       45
 90
       46
 90
        4
 90
      176
 90
      183
 90
       44
 90
       45
 90
        4
 90
      183
 90
      185
 90
       43
 90
       44
 90
        4
 90
      185
 90
      186
 90
       42
 90
       43
 90
        4
 90
      186
 90
      188
 90
       41
 90
       42
 90
        4
 90
      188
 90
      189
 90
       40
 90
       41
 90
        4
 90
      189
 90
      191
 90
       39
 90
       40
 90
        4
 90
      191
 90
      192
 90
       38
 90
       39
 90
        4
 90
      192
 90
      194
 90
       37
 90
       38
 90
        4
 90
      194
 90
      195
 90
       36
 90
       37
 90
        4
 90
      195
 90
      196
 90
       35
 90
       36
 90
        4
 90
      196
 90
      198
 90
       34
 90
       35
 90
        4
 90
      198
 90
      199
 90
       33
 90
       34
 90
        4
 90
      199
 90
      201
 90
       32
 90
       33
 90
        4
 90
      201
 90
      202
 90
       31
 90
       32
 90
        4
 90
      202
 90
      204
 90
       30
 90
       31
 90
        4
 90
      204
 90
      205
 90
       29
 90
       30
 90
        4
 90
      205
 90
      207
 90
       28
 90
       29
 90
        4
 90
      207
 90
      208
 90
       27
 90
       28
 90
        4
 90
      208
 90
      210
 90
       17
 90
       27
 90
        4
 90
      210
 90
      212
 90
       16
 90
       17
 90
        4
 90
      212
 90
      214
 90
       15
 90
       16
 90
        4
 90
      214
 90
      216
 90
       14
 90
       15
 90
        4
 90
      216
 90
      219
 90
       13
 90
       14
 90
        4
 90
      219
 90
      221
 90
       12
 90
       13
 90
        4
 90
      221
 90
      222
 90
       50
 90
       12
 90
        4
 90
      222
 90
      223
 90
       49
 90
       50
 90
        4
 90
      223
 90
      231
 90
       48
 90
       49
 90
        4
 90
      231
 90
      229
 90
       47
 90
       48
 90
        4
 90
      229
 90
      226
 90
       26
 90
       47
 90
        4
 90
      226
 90
      227
 90
       25
 90
       26
 90
        4
 90
      227
 90
      233
 90
       24
 90
       25
 90
        4
 90
      233
 90
      245
 90
       23
 90
       24
 90
        4
 90
      245
 90
      247
 90
       22
 90
       23
 90
        4
 90
      247
 90
      249
 90
       21
 90
       22
 90
        4
 90
      249
 90
      251
 90
       20
 90
       21
 90
        4
 90
      251
 90
      252
 90
       19
 90
       20
 90
        4
 90
      252
 90
      253
 90
       18
 90
       19
 90
        4
 90
      253
 90
      243
 90
       11
 90
       18
 90
        4
 90
      243
 90
      241
 90
       10
 90
       11
 90
        4
 90
      241
 90
      239
 90
        9
 90
       10
 90
        4
 90
      239
 90
      236
 90
        8
 90
        9
 90
        4
 90
      236
 90
      237
 90
        7
 90
        8
 90
        4
 90
      237
 90
      258
 90
      113
 90
        7
 90
        4
 90
      259
 90
      261
 90
      112
 90
        6
 90
        4
 90
      262
 90
      266
 90
      111
 90
        5
 90
        4
 90
      267
 90
      264
 90
      110
 90
        4
 90
        4
 90
      265
 90
      255
 90
      109
 90
        3
 90
        4
 90
      256
 90
      169
 90
      108
 90
        2
 90
        4
 90
      156
 90
      153
 90
        0
 90
        1
 90
        4
 90
      153
 90
      163
 90
      100
 90
        0
 90
        4
 90
      163
 90
      162
 90
      101
 90
      100
 90
        4
 90
      162
 90
      157
 90
      102
 90
      101
 90
        4
 90
      157
 90
      158
 90
      103
 90
      102
 90
        4
 90
      258
 90
      259
 90
        6
 90
      113
 90
        4
 90
      261
 90
      262
 90
        5
 90
      112
 90
        4
 90
      266
 90
      267
 90
        4
 90
      111
 90
        4
 90
      264
 90
      265
 90
        3
 90
      110
 90
        4
 90
      255
 90
      256
 90
        2
 90
      109
 90
        4
 90
      169
 90
      156
 90
        1
 90
      108
 90
        3
 90
      134
 90
      220
 90
      135
 90
        3
 90
      135
 90
      220
 90
      136
 90
        3
 90
      137
 90
      217
 90
      138
 90
        4
 90
      139
 90
      138
 90
      141
 90
      140
 90
        4
 90
      142
 90
      139
 90
      140
 90
      143
 90
        4
 90
      142
 90
      143
 90
      145
 90
      144
 90
        4
 90
      144
 90
      145
 90
      147
 90
      146
 90
        4
 90
      146
 90
      147
 90
      134
 90
      135
 90
        4
 90
      136
 90
      148
 90
      146
 90
      135
 90
        3
 90
      149
 90
      148
 90
      136
 90
        4
 90
      138
 90
      139
 90
      150
 90
      137
 90
        4
 90
      150
 90
      139
 90
      142
 90
      151
 90
        4
 90
      151
 90
      142
 90
      144
 90
      152
 90
        4
 90
      152
 90
      144
 90
      146
 90
      148
 90
        3
 90
      149
 90
      137
 90
      150
 90
        3
 90
      149
 90
      150
 90
      151
 90
        3
 90
      151
 90
      152
 90
      149
 90
        3
 90
      152
 90
      148
 90
      149
 90
        4
 90
      141
 90
      217
 90
      107
 90
      132
 90
        4
 90
      220
 90
      134
 90
      131
 90
      130
 90
        4
 90
      143
 90
      115
 90
      116
 90
      145
 90
        4
 90
      140
 90
      114
 90
      115
 90
      143
 90
        3
 90
      217
 90
      141
 90
      138
 90
        3
 90
      137
 90
      149
 90
      217
 90
        3
 90
      149
 90
      136
 90
      220
 90
        3
 90
      149
 90
      220
 90
      217
 90
        4
 90
      132
 90
      114
 90
      140
 90
      141
 90
        4
 90
      130
 90
      107
 90
       13
 90
       12
 90
        3
 90
      130
 90
       12
 90
       50
 90
        3
 90
      130
 90
       50
 90
       49
 90
        4
 90
       73
 90
      105
 90
       26
 90
       25
 90
        4
 90
      105
 90
      106
 90
       47
 90
       26
 90
        3
 90
      106
 90
      104
 90
       47
 90
        4
 90
      104
 90
      130
 90
       48
 90
       47
 90
        3
 90
      130
 90
       49
 90
       48
 90
        4
 90
       74
 90
       73
 90
       25
 90
       24
 90
        4
 90
       63
 90
       72
 90
        8
 90
        7
 90
        4
 90
       72
 90
       71
 90
        9
 90
        8
 90
        4
 90
       71
 90
       70
 90
       10
 90
        9
 90
        4
 90
       70
 90
       79
 90
       11
 90
       10
 90
        4
 90
       75
 90
       74
 90
       24
 90
       23
 90
        4
 90
       76
 90
       75
 90
       23
 90
       22
 90
        4
 90
       77
 90
       76
 90
       22
 90
       21
 90
        4
 90
       78
 90
       77
 90
       21
 90
       20
 90
        3
 90
       78
 90
       20
 90
       19
 90
        3
 90
       79
 90
       18
 90
       11
 90
        4
 90
       79
 90
       78
 90
       19
 90
       18
 90
        4
 90
       68
 90
       67
 90
      109
 90
        2
 90
        3
 90
       68
 90
        2
 90
      108
 90
        4
 90
       64
 90
       63
 90
        7
 90
      113
 90
        3
 90
       64
 90
      113
 90
        6
 90
        4
 90
       65
 90
       64
 90
        6
 90
      112
 90
        3
 90
       65
 90
      112
 90
        5
 90
        4
 90
       67
 90
       66
 90
      110
 90
        3
 90
        3
 90
       67
 90
        3
 90
      109
 90
        3
 90
       66
 90
      111
 90
        4
 90
        3
 90
       66
 90
        4
 90
      110
 90
        4
 90
       66
 90
       65
 90
        5
 90
      111
 90
        4
 90
      153
 90
      156
 90
      155
 90
      154
 90
        3
 90
      157
 90
      159
 90
      158
 90
        4
 90
      158
 90
      159
 90
      161
 90
      160
 90
        3
 90
      162
 90
      159
 90
      157
 90
        3
 90
      153
 90
      154
 90
      163
 90
        4
 90
      163
 90
      154
 90
      159
 90
      162
 90
        3
 90
      164
 90
      156
 90
      165
 90
        3
 90
      156
 90
      164
 90
      166
 90
        3
 90
      165
 90
      156
 90
      167
 90
        4
 90
      167
 90
      156
 90
      169
 90
      168
 90
        3
 90
      155
 90
      156
 90
      170
 90
        3
 90
      170
 90
      156
 90
      171
 90
        4
 90
      171
 90
      156
 90
      166
 90
      172
 90
        4
 90
      173
 90
      176
 90
      175
 90
      174
 90
        4
 90
      173
 90
      179
 90
      178
 90
      177
 90
        3
 90
      173
 90
      174
 90
      179
 90
        3
 90
      175
 90
      176
 90
      180
 90
        4
 90
      180
 90
      176
 90
      182
 90
      181
 90
        3
 90
      173
 90
      183
 90
      176
 90
        4
 90
      184
 90
      185
 90
      183
 90
      173
 90
        3
 90
      184
 90
      186
 90
      185
 90
        4
 90
      187
 90
      188
 90
      186
 90
      184
 90
        3
 90
      187
 90
      189
 90
      188
 90
        4
 90
      190
 90
      191
 90
      189
 90
      187
 90
        3
 90
      190
 90
      192
 90
      191
 90
        4
 90
      193
 90
      194
 90
      192
 90
      190
 90
        3
 90
      193
 90
      195
 90
      194
 90
        3
 90
      193
 90
      196
 90
      195
 90
        4
 90
      197
 90
      198
 90
      196
 90
      193
 90
        3
 90
      197
 90
      199
 90
      198
 90
        4
 90
      200
 90
      201
 90
      199
 90
      197
 90
        3
 90
      200
 90
      202
 90
      201
 90
        4
 90
      203
 90
      204
 90
      202
 90
      200
 90
        3
 90
      203
 90
      205
 90
      204
 90
        3
 90
      206
 90
      208
 90
      207
 90
        4
 90
      206
 90
      207
 90
      205
 90
      203
 90
        4
 90
      209
 90
      210
 90
      208
 90
      206
 90
        4
 90
      211
 90
      212
 90
      210
 90
      209
 90
        4
 90
      213
 90
      214
 90
      212
 90
      211
 90
        4
 90
      215
 90
      216
 90
      214
 90
      213
 90
        3
 90
      217
 90
      219
 90
      218
 90
        4
 90
      218
 90
      219
 90
      216
 90
      215
 90
        4
 90
      220
 90
      221
 90
      219
 90
      217
 90
        3
 90
      220
 90
      222
 90
      221
 90
        3
 90
      220
 90
      223
 90
      222
 90
        4
 90
      224
 90
      227
 90
      226
 90
      225
 90
        4
 90
      225
 90
      226
 90
      229
 90
      228
 90
        3
 90
      228
 90
      229
 90
      230
 90
        4
 90
      230
 90
      229
 90
      231
 90
      220
 90
        3
 90
      220
 90
      231
 90
      223
 90
        4
 90
      232
 90
      233
 90
      227
 90
      224
 90
        4
 90
      234
 90
      237
 90
      236
 90
      235
 90
        4
 90
      235
 90
      236
 90
      239
 90
      238
 90
        4
 90
      238
 90
      239
 90
      241
 90
      240
 90
        4
 90
      240
 90
      241
 90
      243
 90
      242
 90
        4
 90
      244
 90
      245
 90
      233
 90
      232
 90
        4
 90
      246
 90
      247
 90
      245
 90
      244
 90
        4
 90
      248
 90
      249
 90
      247
 90
      246
 90
        4
 90
      250
 90
      251
 90
      249
 90
      248
 90
        3
 90
      250
 90
      252
 90
      251
 90
        3
 90
      242
 90
      243
 90
      253
 90
        4
 90
      242
 90
      253
 90
      252
 90
      250
 90
        4
 90
      168
 90
      256
 90
      255
 90
      254
 90
        3
 90
      168
 90
      169
 90
      256
 90
        4
 90
      257
 90
      258
 90
      237
 90
      234
 90
        3
 90
      257
 90
      259
 90
      258
 90
        4
 90
      260
 90
      261
 90
      259
 90
      257
 90
        3
 90
      260
 90
      262
 90
      261
 90
        4
 90
      254
 90
      265
 90
      264
 90
      263
 90
        3
 90
      254
 90
      255
 90
      265
 90
        3
 90
      263
 90
      267
 90
      266
 90
        3
 90
      263
 90
      264
 90
      267
 90
        4
 90
      263
 90
      266
 90
      262
 90
      260
 94
      577
 90
      122
 90
      131
 90
      122
 90
      130
 90
      130
 90
      131
 90
      121
 90
      122
 90
      121
 90
      130
 90
      129
 90
      133
 90
      107
 90
      133
 90
      107
 90
      129
 90
      114
 90
      123
 90
      114
 90
      132
 90
      132
 90
      133
 90
      123
 90
      133
 90
      115
 90
      124
 90
      114
 90
      115
 90
      123
 90
      124
 90
      124
 90
      125
 90
      116
 90
      125
 90
      115
 90
      116
 90
      118
 90
      125
 90
      117
 90
      118
 90
      116
 90
      117
 90
      118
 90
      122
 90
      117
 90
      131
 90
      118
 90
      119
 90
      119
 90
      121
 90
      120
 90
      121
 90
      119
 90
      120
 90
      126
 90
      129
 90
      123
 90
      126
 90
      126
 90
      127
 90
      124
 90
      127
 90
      127
 90
      128
 90
      125
 90
      128
 90
      119
 90
      128
 90
      120
 90
      126
 90
      120
 90
      129
 90
      120
 90
      127
 90
      120
 90
      128
 90
      117
 90
      147
 90
      145
 90
      147
 90
      116
 90
      145
 90
      107
 90
      132
 90
      107
 90
      120
 90
      120
 90
      130
 90
      107
 90
      130
 90
        0
 90
       90
 90
       90
 90
       91
 90
        1
 90
       91
 90
        0
 90
        1
 90
      102
 90
      103
 90
       89
 90
      103
 90
       89
 90
      102
 90
       87
 90
      103
 90
       87
 90
       88
 90
       88
 90
       89
 90
      101
 90
      102
 90
       89
 90
      101
 90
        0
 90
      100
 90
       90
 90
      100
 90
      100
 90
      101
 90
       89
 90
       90
 90
       85
 90
       86
 90
        1
 90
       85
 90
        1
 90
       86
 90
        1
 90
       61
 90
       61
 90
       86
 90
       69
 90
       85
 90
        1
 90
       69
 90
       68
 90
       69
 90
       68
 90
      108
 90
        1
 90
      108
 90
       91
 90
       92
 90
        1
 90
       92
 90
       92
 90
       93
 90
        1
 90
       93
 90
       62
 90
       93
 90
       61
 90
       62
 90
       51
 90
       96
 90
       96
 90
       97
 90
       45
 90
       97
 90
       45
 90
       51
 90
       51
 90
       60
 90
       60
 90
       94
 90
       94
 90
       95
 90
       51
 90
       95
 90
       95
 90
       96
 90
       97
 90
       98
 90
       45
 90
       98
 90
       98
 90
       99
 90
       46
 90
       99
 90
       45
 90
       46
 90
       44
 90
       45
 90
       44
 90
       51
 90
       51
 90
       52
 90
       43
 90
       44
 90
       43
 90
       52
 90
       42
 90
       43
 90
       42
 90
       52
 90
       52
 90
       53
 90
       41
 90
       42
 90
       41
 90
       53
 90
       40
 90
       41
 90
       40
 90
       53
 90
       53
 90
       54
 90
       39
 90
       40
 90
       39
 90
       54
 90
       38
 90
       39
 90
       38
 90
       54
 90
       54
 90
       55
 90
       37
 90
       38
 90
       37
 90
       55
 90
       36
 90
       37
 90
       36
 90
       55
 90
       35
 90
       36
 90
       35
 90
       55
 90
       55
 90
       56
 90
       34
 90
       35
 90
       34
 90
       56
 90
       33
 90
       34
 90
       33
 90
       56
 90
       56
 90
       57
 90
       32
 90
       33
 90
       32
 90
       57
 90
       31
 90
       32
 90
       31
 90
       57
 90
       57
 90
       58
 90
       30
 90
       31
 90
       30
 90
       58
 90
       29
 90
       30
 90
       29
 90
       58
 90
       28
 90
       59
 90
       27
 90
       28
 90
       27
 90
       59
 90
       58
 90
       59
 90
       28
 90
       29
 90
       59
 90
       80
 90
       17
 90
       27
 90
       17
 90
       80
 90
       80
 90
       81
 90
       16
 90
       17
 90
       16
 90
       81
 90
       81
 90
       82
 90
       15
 90
       16
 90
       15
 90
       82
 90
       82
 90
       83
 90
       14
 90
       15
 90
       14
 90
       83
 90
       84
 90
      107
 90
       13
 90
       84
 90
       13
 90
      107
 90
       83
 90
       84
 90
       13
 90
       14
 90
      131
 90
      134
 90
      134
 90
      147
 90
      158
 90
      160
 90
       87
 90
      160
 90
      103
 90
      158
 90
      160
 90
      161
 90
       88
 90
      161
 90
      159
 90
      161
 90
       89
 90
      159
 90
      154
 90
      159
 90
       90
 90
      154
 90
      154
 90
      155
 90
       91
 90
      155
 90
      155
 90
      170
 90
       92
 90
      170
 90
      170
 90
      171
 90
       93
 90
      171
 90
      171
 90
      172
 90
       62
 90
      172
 90
      166
 90
      172
 90
       61
 90
      166
 90
      164
 90
      166
 90
       86
 90
      164
 90
      164
 90
      165
 90
       85
 90
      165
 90
      165
 90
      167
 90
       69
 90
      167
 90
      167
 90
      168
 90
       68
 90
      168
 90
      168
 90
      254
 90
       67
 90
      254
 90
       67
 90
       68
 90
      254
 90
      263
 90
       66
 90
      263
 90
       66
 90
       67
 90
      260
 90
      263
 90
       65
 90
      260
 90
       65
 90
       66
 90
      257
 90
      260
 90
       64
 90
      257
 90
       64
 90
       65
 90
      234
 90
      257
 90
       63
 90
      234
 90
       63
 90
       64
 90
      234
 90
      235
 90
       72
 90
      235
 90
       63
 90
       72
 90
      235
 90
      238
 90
       71
 90
      238
 90
       71
 90
       72
 90
      238
 90
      240
 90
       70
 90
      240
 90
       70
 90
       71
 90
      240
 90
      242
 90
       79
 90
      242
 90
       70
 90
       79
 90
      242
 90
      250
 90
       78
 90
      250
 90
       78
 90
       79
 90
      248
 90
      250
 90
       77
 90
      248
 90
       77
 90
       78
 90
      246
 90
      248
 90
       76
 90
      246
 90
       76
 90
       77
 90
      244
 90
      246
 90
       75
 90
      244
 90
       75
 90
       76
 90
      232
 90
      244
 90
       74
 90
      232
 90
       74
 90
       75
 90
      224
 90
      232
 90
       73
 90
      224
 90
       73
 90
       74
 90
      224
 90
      225
 90
      105
 90
      225
 90
       73
 90
      105
 90
      225
 90
      228
 90
      106
 90
      228
 90
      105
 90
      106
 90
      228
 90
      230
 90
      104
 90
      230
 90
      104
 90
      106
 90
      220
 90
      230
 90
      130
 90
      220
 90
      104
 90
      130
 90
      217
 90
      218
 90
       84
 90
      218
 90
      107
 90
      217
 90
      215
 90
      218
 90
       83
 90
      215
 90
      213
 90
      215
 90
       82
 90
      213
 90
      211
 90
      213
 90
       81
 90
      211
 90
      209
 90
      211
 90
       80
 90
      209
 90
      206
 90
      209
 90
       59
 90
      206
 90
      203
 90
      206
 90
       58
 90
      203
 90
      200
 90
      203
 90
       57
 90
      200
 90
      197
 90
      200
 90
       56
 90
      197
 90
      193
 90
      197
 90
       55
 90
      193
 90
      190
 90
      193
 90
       54
 90
      190
 90
      187
 90
      190
 90
       53
 90
      187
 90
      184
 90
      187
 90
       52
 90
      184
 90
      173
 90
      184
 90
       51
 90
      173
 90
      173
 90
      177
 90
       60
 90
      177
 90
      177
 90
      178
 90
       94
 90
      178
 90
      178
 90
      179
 90
       95
 90
      179
 90
      174
 90
      179
 90
       96
 90
      174
 90
      174
 90
      175
 90
       97
 90
      175
 90
      175
 90
      180
 90
       98
 90
      180
 90
      180
 90
      181
 90
       99
 90
      181
 90
      181
 90
      182
 90
       46
 90
      182
 90
      176
 90
      182
 90
       45
 90
      176
 90
      176
 90
      183
 90
       44
 90
      183
 90
      183
 90
      185
 90
       43
 90
      185
 90
      185
 90
      186
 90
       42
 90
      186
 90
      186
 90
      188
 90
       41
 90
      188
 90
      188
 90
      189
 90
       40
 90
      189
 90
      189
 90
      191
 90
       39
 90
      191
 90
      191
 90
      192
 90
       38
 90
      192
 90
      192
 90
      194
 90
       37
 90
      194
 90
      194
 90
      195
 90
       36
 90
      195
 90
      195
 90
      196
 90
       35
 90
      196
 90
      196
 90
      198
 90
       34
 90
      198
 90
      198
 90
      199
 90
       33
 90
      199
 90
      199
 90
      201
 90
       32
 90
      201
 90
      201
 90
      202
 90
       31
 90
      202
 90
      202
 90
      204
 90
       30
 90
      204
 90
      204
 90
      205
 90
       29
 90
      205
 90
      205
 90
      207
 90
       28
 90
      207
 90
      207
 90
      208
 90
       27
 90
      208
 90
      208
 90
      210
 90
       17
 90
      210
 90
      210
 90
      212
 90
       16
 90
      212
 90
      212
 90
      214
 90
       15
 90
      214
 90
      214
 90
      216
 90
       14
 90
      216
 90
      216
 90
      219
 90
       13
 90
      219
 90
      219
 90
      221
 90
       12
 90
      221
 90
       12
 90
       13
 90
      221
 90
      222
 90
       50
 90
      222
 90
       12
 90
       50
 90
      222
 90
      223
 90
       49
 90
      223
 90
       49
 90
       50
 90
      223
 90
      231
 90
       48
 90
      231
 90
       48
 90
       49
 90
      229
 90
      231
 90
       47
 90
      229
 90
       47
 90
       48
 90
      226
 90
      229
 90
       26
 90
      226
 90
       26
 90
       47
 90
      226
 90
      227
 90
       25
 90
      227
 90
       25
 90
       26
 90
      227
 90
      233
 90
       24
 90
      233
 90
       24
 90
       25
 90
      233
 90
      245
 90
       23
 90
      245
 90
       23
 90
       24
 90
      245
 90
      247
 90
       22
 90
      247
 90
       22
 90
       23
 90
      247
 90
      249
 90
       21
 90
      249
 90
       21
 90
       22
 90
      249
 90
      251
 90
       20
 90
      251
 90
       20
 90
       21
 90
      251
 90
      252
 90
       19
 90
      252
 90
       19
 90
       20
 90
      252
 90
      253
 90
       18
 90
      253
 90
       18
 90
       19
 90
      243
 90
      253
 90
       11
 90
      243
 90
       11
 90
       18
 90
      241
 90
      243
 90
       10
 90
      241
 90
       10
 90
       11
 90
      239
 90
      241
 90
        9
 90
      239
 90
        9
 90
       10
 90
      236
 90
      239
 90
        8
 90
      236
 90
        8
 90
        9
 90
      236
 90
      237
 90
        7
 90
      237
 90
        7
 90
        8
 90
      237
 90
      258
 90
      113
 90
      258
 90
        7
 90
      113
 90
      259
 90
      261
 90
      112
 90
      261
 90
        6
 90
      112
 90
        6
 90
      259
 90
      262
 90
      266
 90
      111
 90
      266
 90
        5
 90
      111
 90
        5
 90
      262
 90
      264
 90
      267
 90
      110
 90
      264
 90
        4
 90
      110
 90
        4
 90
      267
 90
      255
 90
      265
 90
      109
 90
      255
 90
        3
 90
      109
 90
        3
 90
      265
 90
      169
 90
      256
 90
      108
 90
      169
 90
        2
 90
      108
 90
        2
 90
      256
 90
      153
 90
      156
 90
        0
 90
      153
 90
        1
 90
      156
 90
      153
 90
      163
 90
      100
 90
      163
 90
      162
 90
      163
 90
      101
 90
      162
 90
      157
 90
      162
 90
      102
 90
      157
 90
      157
 90
      158
 90
      258
 90
      259
 90
        6
 90
      113
 90
      261
 90
      262
 90
        5
 90
      112
 90
      266
 90
      267
 90
        4
 90
      111
 90
      264
 90
      265
 90
        3
 90
      110
 90
      255
 90
      256
 90
        2
 90
      109
 90
      156
 90
      169
 90
      134
 90
      220
 90
      135
 90
      220
 90
      134
 90
      135
 90
      136
 90
      220
 90
      135
 90
      136
 90
      137
 90
      217
 90
      138
 90
      217
 90
      137
 90
      138
 90
      138
 90
      139
 90
      138
 90
      141
 90
      140
 90
      141
 90
      139
 90
      140
 90
      139
 90
      142
 90
      140
 90
      143
 90
      142
 90
      143
 90
      143
 90
      145
 90
      144
 90
      145
 90
      142
 90
      144
 90
      146
 90
      147
 90
      144
 90
      146
 90
      135
 90
      146
 90
      136
 90
      148
 90
      146
 90
      148
 90
      148
 90
      149
 90
      136
 90
      149
 90
      139
 90
      150
 90
      137
 90
      150
 90
      142
 90
      151
 90
      150
 90
      151
 90
      144
 90
      152
 90
      151
 90
      152
 90
      148
 90
      152
 90
      137
 90
      149
 90
      149
 90
      150
 90
      149
 90
      151
 90
      149
 90
      152
 90
      141
 90
      217
 90
      132
 90
      141
 90
      115
 90
      143
 90
      114
 90
      140
 90
      149
 90
      217
 90
      149
 90
      220
 90
      217
 90
      220
 90
       12
 90
      130
 90
       50
 90
      130
 90
       49
 90
      130
 90
       26
 90
      105
 90
       25
 90
       73
 90
       47
 90
      106
 90
       47
 90
      104
 90
       48
 90
      130
 90
       24
 90
       74
 90
        8
 90
       72
 90
        7
 90
       63
 90
        9
 90
       71
 90
       10
 90
       70
 90
       11
 90
       79
 90
       23
 90
       75
 90
       22
 90
       76
 90
       21
 90
       77
 90
       20
 90
       78
 90
       19
 90
       78
 90
       18
 90
       79
 90
       67
 90
      109
 90
        2
 90
       68
 90
       64
 90
      113
 90
        6
 90
       64
 90
       65
 90
      112
 90
        5
 90
       65
 90
       66
 90
      110
 90
        3
 90
       67
 90
       66
 90
      111
 90
        4
 90
       66
 90
      155
 90
      156
 90
      153
 90
      154
 90
      157
 90
      159
 90
      158
 90
      159
 90
      159
 90
      162
 90
      154
 90
      163
 90
      156
 90
      164
 90
      156
 90
      165
 90
      156
 90
      166
 90
      156
 90
      167
 90
      168
 90
      169
 90
      156
 90
      170
 90
      156
 90
      171
 90
      173
 90
      176
 90
      175
 90
      176
 90
      173
 90
      174
 90
      173
 90
      179
 90
      176
 90
      180
 90
      173
 90
      183
 90
      184
 90
      185
 90
      184
 90
      186
 90
      187
 90
      188
 90
      187
 90
      189
 90
      190
 90
      191
 90
      190
 90
      192
 90
      193
 90
      194
 90
      193
 90
      195
 90
      193
 90
      196
 90
      197
 90
      198
 90
      197
 90
      199
 90
      200
 90
      201
 90
      200
 90
      202
 90
      203
 90
      204
 90
      203
 90
      205
 90
      206
 90
      208
 90
      206
 90
      207
 90
      209
 90
      210
 90
      211
 90
      212
 90
      213
 90
      214
 90
      215
 90
      216
 90
      217
 90
      219
 90
      218
 90
      219
 90
      220
 90
      221
 90
      220
 90
      222
 90
      220
 90
      223
 90
      224
 90
      227
 90
      225
 90
      226
 90
      228
 90
      229
 90
      229
 90
      230
 90
      220
 90
      231
 90
      232
 90
      233
 90
      234
 90
      237
 90
      235
 90
      236
 90
      238
 90
      239
 90
      240
 90
      241
 90
      242
 90
      243
 90
      244
 90
      245
 90
      246
 90
      247
 90
      248
 90
      249
 90
      250
 90
      251
 90
      250
 90
      252
 90
      242
 90
      253
 90
      168
 90
      256
 90
      254
 90
      255
 90
      257
 90
      258
 90
      257
 90
      259
 90
      260
 90
      261
 90
      260
 90
      262
 90
      254
 90
      265
 90
      263
 90
      264
 90
      263
 90
      267
 90
      263
 90
      266
 95
      577
140
0.0
140
0.0
140
0.0
140
0.0
140
0.0
140
0.0
140
0.0
140
0.0
140
0.0
140
0.0
140
0.0
140
0.0
140
0.0
140
0.0
140
0.0
140
0.0
140
0.0
140
0.0
140
0.0
140
0.0
140
0.0
140
0.0
140
0.0
140
0.0
140
0.0
140
0.0
140
0.0
140
0.0
140
0.0
140
0.0
140
0.0
140
0.0
140
0.0
140
0.0
140
0.0
140
0.0
140
0.0
140
0.0
140
0.0
140
0.0
140
0.0
140
0.0
140
0.0
140
0.0
140
0.0
140
0.0
140
0.0
140
0.0
140
0.0
140
0.0
140
0.0
140
0.0
140
0.0
140
0.0
140
0.0
140
0.0
140
0.0
140
0.0
140
0.0
140
0.0
140
0.0
140
0.0
140
0.0
140
0.0
140
0.0
140
0.0
140
0.0
140
0.0
140
0.0
140
0.0
140
0.0
140
0.0
140
0.0
140
0.0
140
0.0
140
0.0
140
0.0
140
0.0
140
0.0
140
0.0
140
0.0
140
0.0
140
0.0
140
0.0
140
0.0
140
0.0
140
0.0
140
0.0
140
0.0
140
0.0
140
0.0
140
0.0
140
0.0
140
0.0
140
0.0
140
0.0
140
0.0
140
0.0
140
0.0
140
0.0
140
0.0
140
0.0
140
0.0
140
0.0
140
0.0
140
0.0
140
0.0
140
0.0
140
0.0
140
0.0
140
0.0
140
0.0
140
0.0
140
0.0
140
0.0
140
0.0
140
0.0
140
0.0
140
0.0
140
0.0
140
0.0
140
0.0
140
0.0
140
0.0
140
0.0
140
0.0
140
0.0
140
0.0
140
0.0
140
0.0
140
0.0
140
0.0
140
0.0
140
0.0
140
0.0
140
0.0
140
0.0
140
0.0
140
0.0
140
0.0
140
0.0
140
0.0
140
0.0
140
0.0
140
0.0
140
0.0
140
0.0
140
0.0
140
0.0
140
0.0
140
0.0
140
0.0
140
0.0
140
0.0
140
0.0
140
0.0
140
0.0
140
0.0
140
0.0
140
0.0
140
0.0
140
0.0
140
0.0
140
0.0
140
0.0
140
0.0
140
0.0
140
0.0
140
0.0
140
0.0
140
0.0
140
0.0
140
0.0
140
0.0
140
0.0
140
0.0
140
0.0
140
0.0
140
0.0
140
0.0
140
0.0
140
0.0
140
0.0
140
0.0
140
0.0
140
0.0
140
0.0
140
0.0
140
0.0
140
0.0
140
0.0
140
0.0
140
0.0
140
0.0
140
0.0
140
0.0
140
0.0
140
0.0
140
0.0
140
0.0
140
0.0
140
0.0
140
0.0
140
0.0
140
0.0
140
0.0
140
0.0
140
0.0
140
0.0
140
0.0
140
0.0
140
0.0
140
0.0
140
0.0
140
0.0
140
0.0
140
0.0
140
0.0
140
0.0
140
0.0
140
0.0
140
0.0
140
0.0
140
0.0
140
0.0
140
0.0
140
0.0
140
0.0
140
0.0
140
0.0
140
0.0
140
0.0
140
0.0
140
0.0
140
0.0
140
0.0
140
0.0
140
0.0
140
0.0
140
0.0
140
0.0
140
0.0
140
0.0
140
0.0
140
0.0
140
0.0
140
0.0
140
0.0
140
0.0
140
0.0
140
0.0
140
0.0
140
0.0
140
0.0
140
0.0
140
0.0
140
0.0
140
0.0
140
0.0
140
0.0
140
0.0
140
0.0
140
0.0
140
0.0
140
0.0
140
0.0
140
0.0
140
0.0
140
0.0
140
0.0
140
0.0
140
0.0
140
0.0
140
0.0
140
0.0
140
0.0
140
0.0
140
0.0
140
0.0
140
0.0
140
0.0
140
0.0
140
0.0
140
0.0
140
0.0
140
0.0
140
0.0
140
0.0
140
0.0
140
0.0
140
0.0
140
0.0
140
0.0
140
0.0
140
0.0
140
0.0
140
0.0
140
0.0
140
0.0
140
0.0
140
0.0
140
0.0
140
0.0
140
0.0
140
0.0
140
0.0
140
0.0
140
0.0
140
0.0
140
0.0
140
0.0
140
0.0
140
0.0
140
0.0
140
0.0
140
0.0
140
0.0
140
0.0
140
0.0
140
0.0
140
0.0
140
0.0
140
0.0
140
0.0
140
0.0
140
0.0
140
0.0
140
0.0
140
0.0
140
0.0
140
0.0
140
0.0
140
0.0
140
0.0
140
0.0
140
0.0
140
0.0
140
0.0
140
0.0
140
0.0
140
0.0
140
0.0
140
0.0
140
0.0
140
0.0
140
0.0
140
0.0
140
0.0
140
0.0
140
0.0
140
0.0
140
0.0
140
0.0
140
0.0
140
0.0
140
0.0
140
0.0
140
0.0
140
0.0
140
0.0
140
0.0
140
0.0
140
0.0
140
0.0
140
0.0
140
0.0
140
0.0
140
0.0
140
0.0
140
0.0
140
0.0
140
0.0
140
0.0
140
0.0
140
0.0
140
0.0
140
0.0
140
0.0
140
0.0
140
0.0
140
0.0
140
0.0
140
0.0
140
0.0
140
0.0
140
0.0
140
0.0
140
0.0
140
0.0
140
0.0
140
0.0
140
0.0
140
0.0
140
0.0
140
0.0
140
0.0
140
0.0
140
0.0
140
0.0
140
0.0
140
0.0
140
0.0
140
0.0
140
0.0
140
0.0
140
0.0
140
0.0
140
0.0
140
0.0
140
0.0
140
0.0
140
0.0
140
0.0
140
0.0
140
0.0
140
0.0
140
0.0
140
0.0
140
0.0
140
0.0
140
0.0
140
0.0
140
0.0
140
0.0
140
0.0
140
0.0
140
0.0
140
0.0
140
0.0
140
0.0
140
0.0
140
0.0
140
0.0
140
0.0
140
0.0
140
0.0
140
0.0
140
0.0
140
0.0
140
0.0
140
0.0
140
0.0
140
0.0
140
0.0
140
0.0
140
0.0
140
0.0
140
0.0
140
0.0
140
0.0
140
0.0
140
0.0
140
0.0
140
0.0
140
0.0
140
0.0
140
0.0
140
0.0
140
0.0
140
0.0
140
0.0
140
0.0
140
0.0
140
0.0
140
0.0
140
0.0
140
0.0
140
0.0
140
0.0
140
0.0
140
0.0
140
0.0
140
0.0
140
0.0
140
0.0
140
0.0
140
0.0
140
0.0
140
0.0
140
0.0
140
0.0
140
0.0
140
0.0
140
0.0
140
0.0
140
0.0
140
0.0
140
0.0
140
0.0
140
0.0
140
0.0
140
0.0
140
0.0
140
0.0
140
0.0
140
0.0
140
0.0
140
0.0
140
0.0
140
0.0
140
0.0
140
0.0
140
0.0
140
0.0
140
0.0
140
0.0
140
0.0
140
0.0
140
0.0
140
0.0
140
0.0
140
0.0
140
0.0
140
0.0
140
0.0
140
0.0
140
0.0
140
0.0
140
0.0
140
0.0
140
0.0
140
0.0
140
0.0
140
0.0
140
0.0
140
0.0
140
0.0
140
0.0
140
0.0
140
0.0
140
0.0
140
0.0
140
0.0
140
0.0
140
0.0
140
0.0
140
0.0
140
0.0
140
0.0
140
0.0
140
0.0
140
0.0
140
0.0
140
0.0
140
0.0
140
0.0
140
0.0
140
0.0
140
0.0
140
0.0
140
0.0
140
0.0
140
0.0
140
0.0
140
0.0
140
0.0
140
0.0
140
0.0
140
0.0
140
0.0
140
0.0
140
0.0
140
0.0
140
0.0
140
0.0
140
0.0
140
0.0
140
0.0
140
0.0
140
0.0
140
0.0
140
0.0
140
0.0
140
0.0
140
0.0
140
0.0
140
0.0
 90
        0
  0
POLYLINE
  5
FA
330
1F
100
AcDbEntity
  8
OracDecor_panel_moldings
 62
    73
420
  9429335
100
AcDb3dPolyline
 66
     1
 10
0.0
 20
0.0
 30
0.0
 70
     9
  0
VERTEX
  5
FB
330
FA
100
AcDbEntity
  8
OracDecor_panel_moldings
 62
    73
420
  9429335
100
AcDbVertex
100
AcDb3dPolylineVertex
 10
0.0000152587890625
 20
19.89251136779785
 30
369.6805419921875
 70
    32
  0
VERTEX
  5
FC
330
FA
100
AcDbEntity
  8
OracDecor_panel_moldings
 62
    73
420
  9429335
100
AcDbVertex
100
AcDb3dPolylineVertex
 10
0.0000152587890625
 20
19.89249420166015
 30
337.7432861328125
 70
    32
  0
VERTEX
  5
FD
330
FA
100
AcDbEntity
  8
OracDecor_panel_moldings
 62
    73
420
  9429335
100
AcDbVertex
100
AcDb3dPolylineVertex
 10
0.0000152587890625
 20
20.25957298278809
 30
325.1446838378906
 70
    32
  0
VERTEX
  5
FE
330
FA
100
AcDbEntity
  8
OracDecor_panel_moldings
 62
    73
420
  9429335
100
AcDbVertex
100
AcDb3dPolylineVertex
 10
0.0000152587890625
 20
20.91426658630371
 30
313.9193725585938
 70
    32
  0
VERTEX
  5
FF
330
FA
100
AcDbEntity
  8
OracDecor_panel_moldings
 62
    73
420
  9429335
100
AcDbVertex
100
AcDb3dPolylineVertex
 10
0.0000152587890625
 20
22.37734222412109
 30
301.4167785644531
 70
    32
  0
VERTEX
  5
100
330
FA
100
AcDbEntity
  8
OracDecor_panel_moldings
 62
    73
420
  9429335
100
AcDbVertex
100
AcDb3dPolylineVertex
 10
0.0000152587890625
 20
24.33359527587891
 30
290.3348693847656
 70
    32
  0
VERTEX
  5
101
330
FA
100
AcDbEntity
  8
OracDecor_panel_moldings
 62
    73
420
  9429335
100
AcDbVertex
100
AcDb3dPolylineVertex
 10
0.0000152587890625
 20
27.23881340026856
 30
278.0867309570313
 70
    32
  0
VERTEX
  5
102
330
FA
100
AcDbEntity
  8
OracDecor_panel_moldings
 62
    73
420
  9429335
100
AcDbVertex
100
AcDb3dPolylineVertex
 10
0.0000152587890625
 20
30.47320938110352
 30
267.2898559570313
 70
    32
  0
VERTEX
  5
103
330
FA
100
AcDbEntity
  8
OracDecor_panel_moldings
 62
    73
420
  9429335
100
AcDbVertex
100
AcDb3dPolylineVertex
 10
0.0000152587890625
 20
34.77923202514649
 30
255.4612121582031
 70
    32
  0
VERTEX
  5
104
330
FA
100
AcDbEntity
  8
OracDecor_panel_moldings
 62
    73
420
  9429335
100
AcDbVertex
100
AcDb3dPolylineVertex
 10
0.0000152587890625
 20
39.25290298461914
 30
245.0883483886719
 70
    32
  0
VERTEX
  5
105
330
FA
100
AcDbEntity
  8
OracDecor_panel_moldings
 62
    73
420
  9429335
100
AcDbVertex
100
AcDb3dPolylineVertex
 10
0.0
 20
44.89889907836913
 30
233.83740234375
 70
    32
  0
VERTEX
  5
106
330
FA
100
AcDbEntity
  8
OracDecor_panel_moldings
 62
    73
420
  9429335
100
AcDbVertex
100
AcDb3dPolylineVertex
 10
0.0
 20
50.5575065612793
 30
224.0234527587891
 70
    32
  0
VERTEX
  5
107
330
FA
100
AcDbEntity
  8
OracDecor_panel_moldings
 62
    73
420
  9429335
100
AcDbVertex
100
AcDb3dPolylineVertex
 10
0.0
 20
57.46442413330078
 30
213.4992523193359
 70
    32
  0
VERTEX
  5
108
330
FA
100
AcDbEntity
  8
OracDecor_panel_moldings
 62
    73
420
  9429335
100
AcDbVertex
100
AcDb3dPolylineVertex
 10
0.0
 20
67.99606323242187
 30
199.3109588623047
 70
    32
  0
VERTEX
  5
109
330
FA
100
AcDbEntity
  8
OracDecor_panel_moldings
 62
    73
420
  9429335
100
AcDbVertex
100
AcDb3dPolylineVertex
 10
0.0
 20
71.41859436035156
 30
194.410888671875
 70
    32
  0
VERTEX
  5
10A
330
FA
100
AcDbEntity
  8
OracDecor_panel_moldings
 62
    73
420
  9429335
100
AcDbVertex
100
AcDb3dPolylineVertex
 10
0.0
 20
73.93817138671875
 30
189.0053558349609
 70
    32
  0
VERTEX
  5
10B
330
FA
100
AcDbEntity
  8
OracDecor_panel_moldings
 62
    73
420
  9429335
100
AcDbVertex
100
AcDb3dPolylineVertex
 10
0.0
 20
75.48040771484375
 30
183.2541961669922
 70
    32
  0
VERTEX
  5
10C
330
FA
100
AcDbEntity
  8
OracDecor_panel_moldings
 62
    73
420
  9429335
100
AcDbVertex
100
AcDb3dPolylineVertex
 10
0.0
 20
75.99962615966797
 30
177.3273162841797
 70
    32
  0
VERTEX
  5
10D
330
FA
100
AcDbEntity
  8
OracDecor_panel_moldings
 62
    73
420
  9429335
100
AcDbVertex
100
AcDb3dPolylineVertex
 10
0.0
 20
75.3287124633789
 30
170.5372619628906
 70
    32
  0
VERTEX
  5
10E
330
FA
100
AcDbEntity
  8
OracDecor_panel_moldings
 62
    73
420
  9429335
100
AcDbVertex
100
AcDb3dPolylineVertex
 10
0.0
 20
73.34110260009765
 30
164.0023956298828
 70
    32
  0
VERTEX
  5
10F
330
FA
100
AcDbEntity
  8
OracDecor_panel_moldings
 62
    73
420
  9429335
100
AcDbVertex
100
AcDb3dPolylineVertex
 10
0.0
 20
70.11151123046875
 30
157.9683074951172
 70
    32
  0
VERTEX
  5
110
330
FA
100
AcDbEntity
  8
OracDecor_panel_moldings
 62
    73
420
  9429335
100
AcDbVertex
100
AcDb3dPolylineVertex
 10
0.0
 20
65.76139068603516
 30
152.6618041992187
 70
    32
  0
VERTEX
  5
111
330
FA
100
AcDbEntity
  8
OracDecor_panel_moldings
 62
    73
420
  9429335
100
AcDbVertex
100
AcDb3dPolylineVertex
 10
0.0
 20
60.45412445068359
 30
148.2822875976562
 70
    32
  0
VERTEX
  5
112
330
FA
100
AcDbEntity
  8
OracDecor_panel_moldings
 62
    73
420
  9429335
100
AcDbVertex
100
AcDb3dPolylineVertex
 10
0.0
 20
54.38924407958984
 30
144.9943695068359
 70
    32
  0
VERTEX
  5
113
330
FA
100
AcDbEntity
  8
OracDecor_panel_moldings
 62
    73
420
  9429335
100
AcDbVertex
100
AcDb3dPolylineVertex
 10
0.0
 20
47.79465866088867
 30
142.9216156005859
 70
    32
  0
VERTEX
  5
114
330
FA
100
AcDbEntity
  8
OracDecor_panel_moldings
 62
    73
420
  9429335
100
AcDbVertex
100
AcDb3dPolylineVertex
 10
0.0
 20
40.91822433471679
 30
142.1419372558593
 70
    32
  0
VERTEX
  5
115
330
FA
100
AcDbEntity
  8
OracDecor_panel_moldings
 62
    73
420
  9429335
100
AcDbVertex
100
AcDb3dPolylineVertex
 10
0.0
 20
15.90818405151367
 30
141.7116546630859
 70
    32
  0
VERTEX
  5
116
330
FA
100
AcDbEntity
  8
OracDecor_panel_moldings
 62
    73
420
  9429335
100
AcDbVertex
100
AcDb3dPolylineVertex
 10
0.0
 20
13.96446990966797
 30
141.3639526367187
 70
    32
  0
VERTEX
  5
117
330
FA
100
AcDbEntity
  8
OracDecor_panel_moldings
 62
    73
420
  9429335
100
AcDbVertex
100
AcDb3dPolylineVertex
 10
0.0
 20
12.23420715332031
 30
140.424072265625
 70
    32
  0
VERTEX
  5
118
330
FA
100
AcDbEntity
  8
OracDecor_panel_moldings
 62
    73
420
  9429335
100
AcDbVertex
100
AcDb3dPolylineVertex
 10
0.0
 20
10.89801788330078
 30
138.9901580810547
 70
    32
  0
VERTEX
  5
119
330
FA
100
AcDbEntity
  8
OracDecor_panel_moldings
 62
    73
420
  9429335
100
AcDbVertex
100
AcDb3dPolylineVertex
 10
0.0
 20
10.09471130371093
 30
137.211181640625
 70
    32
  0
VERTEX
  5
11A
330
FA
100
AcDbEntity
  8
OracDecor_panel_moldings
 62
    73
420
  9429335
100
AcDbVertex
100
AcDb3dPolylineVertex
 10
0.0
 20
9.908180236816406
 30
135.2728271484375
 70
    32
  0
VERTEX
  5
11B
330
FA
100
AcDbEntity
  8
OracDecor_panel_moldings
 62
    73
420
  9429335
100
AcDbVertex
100
AcDb3dPolylineVertex
 10
0.0
 20
11.91790771484375
 30
121.4282989501953
 70
    32
  0
VERTEX
  5
11C
330
FA
100
AcDbEntity
  8
OracDecor_panel_moldings
 62
    73
420
  9429335
100
AcDbVertex
100
AcDb3dPolylineVertex
 10
0.0
 20
15.99291229248047
 30
108.0318908691406
 70
    32
  0
VERTEX
  5
11D
330
FA
100
AcDbEntity
  8
OracDecor_panel_moldings
 62
    73
420
  9429335
100
AcDbVertex
100
AcDb3dPolylineVertex
 10
0.0
 20
22.04268074035645
 30
95.38131713867187
 70
    32
  0
VERTEX
  5
11E
330
FA
100
AcDbEntity
  8
OracDecor_panel_moldings
 62
    73
420
  9429335
100
AcDbVertex
100
AcDb3dPolylineVertex
 10
0.0
 20
29.93285179138183
 30
83.75723266601562
 70
    32
  0
VERTEX
  5
11F
330
FA
100
AcDbEntity
  8
OracDecor_panel_moldings
 62
    73
420
  9429335
100
AcDbVertex
100
AcDb3dPolylineVertex
 10
0.0
 20
39.48816299438476
 30
73.41799926757812
 70
    32
  0
VERTEX
  5
120
330
FA
100
AcDbEntity
  8
OracDecor_panel_moldings
 62
    73
420
  9429335
100
AcDbVertex
100
AcDb3dPolylineVertex
 10
0.0
 20
51.4945068359375
 30
63.85589599609375
 70
    32
  0
VERTEX
  5
121
330
FA
100
AcDbEntity
  8
OracDecor_panel_moldings
 62
    73
420
  9429335
100
AcDbVertex
100
AcDb3dPolylineVertex
 10
0.0
 20
55.26361846923828
 30
60.6429443359375
 70
    32
  0
VERTEX
  5
122
330
FA
100
AcDbEntity
  8
OracDecor_panel_moldings
 62
    73
420
  9429335
100
AcDbVertex
100
AcDb3dPolylineVertex
 10
0.0
 20
58.54194259643555
 30
56.94363403320313
 70
    32
  0
VERTEX
  5
123
330
FA
100
AcDbEntity
  8
OracDecor_panel_moldings
 62
    73
420
  9429335
100
AcDbVertex
100
AcDb3dPolylineVertex
 10
0.0
 20
61.26542663574219
 30
52.8302001953125
 70
    32
  0
VERTEX
  5
124
330
FA
100
AcDbEntity
  8
OracDecor_panel_moldings
 62
    73
420
  9429335
100
AcDbVertex
100
AcDb3dPolylineVertex
 10
0.0
 20
63.38089752197266
 30
48.3829345703125
 70
    32
  0
VERTEX
  5
125
330
FA
100
AcDbEntity
  8
OracDecor_panel_moldings
 62
    73
420
  9429335
100
AcDbVertex
100
AcDb3dPolylineVertex
 10
0.0
 20
64.84709167480469
 30
43.68841552734375
 70
    32
  0
VERTEX
  5
126
330
FA
100
AcDbEntity
  8
OracDecor_panel_moldings
 62
    73
420
  9429335
100
AcDbVertex
100
AcDb3dPolylineVertex
 10
0.0
 20
65.63540649414062
 30
38.83877563476563
 70
    32
  0
VERTEX
  5
127
330
FA
100
AcDbEntity
  8
OracDecor_panel_moldings
 62
    73
420
  9429335
100
AcDbVertex
100
AcDb3dPolylineVertex
 10
0.0
 20
65.73054504394531
 30
33.92807006835937
 70
    32
  0
VERTEX
  5
128
330
FA
100
AcDbEntity
  8
OracDecor_panel_moldings
 62
    73
420
  9429335
100
AcDbVertex
100
AcDb3dPolylineVertex
 10
0.0
 20
65.13058471679688
 30
29.05206298828125
 70
    32
  0
VERTEX
  5
129
330
FA
100
AcDbEntity
  8
OracDecor_panel_moldings
 62
    73
420
  9429335
100
AcDbVertex
100
AcDb3dPolylineVertex
 10
0.0
 20
63.84724807739257
 30
24.30618286132812
 70
    32
  0
VERTEX
  5
12A
330
FA
100
AcDbEntity
  8
OracDecor_panel_moldings
 62
    73
420
  9429335
100
AcDbVertex
100
AcDb3dPolylineVertex
 10
0.0
 20
61.90554809570312
 30
19.78256225585937
 70
    32
  0
VERTEX
  5
12B
330
FA
100
AcDbEntity
  8
OracDecor_panel_moldings
 62
    73
420
  9429335
100
AcDbVertex
100
AcDb3dPolylineVertex
 10
0.0
 20
59.34342193603516
 30
15.56979370117187
 70
    32
  0
VERTEX
  5
12C
330
FA
100
AcDbEntity
  8
OracDecor_panel_moldings
 62
    73
420
  9429335
100
AcDbVertex
100
AcDb3dPolylineVertex
 10
0.0
 20
56.21091079711914
 30
11.75006103515625
 70
    32
  0
VERTEX
  5
12D
330
FA
100
AcDbEntity
  8
OracDecor_panel_moldings
 62
    73
420
  9429335
100
AcDbVertex
100
AcDb3dPolylineVertex
 10
0.0
 20
52.56895828247071
 30
8.397613525390625
 70
    32
  0
VERTEX
  5
12E
330
FA
100
AcDbEntity
  8
OracDecor_panel_moldings
 62
    73
420
  9429335
100
AcDbVertex
100
AcDb3dPolylineVertex
 10
0.0
 20
48.48853302001953
 30
5.577850341796875
 70
    32
  0
VERTEX
  5
12F
330
FA
100
AcDbEntity
  8
OracDecor_panel_moldings
 62
    73
420
  9429335
100
AcDbVertex
100
AcDb3dPolylineVertex
 10
0.0
 20
44.04927062988281
 30
3.345855712890625
 70
    32
  0
VERTEX
  5
130
330
FA
100
AcDbEntity
  8
OracDecor_panel_moldings
 62
    73
420
  9429335
100
AcDbVertex
100
AcDb3dPolylineVertex
 10
0.0
 20
39.33782196044922
 30
1.7452392578125
 70
    32
  0
VERTEX
  5
131
330
FA
100
AcDbEntity
  8
OracDecor_panel_moldings
 62
    73
420
  9429335
100
AcDbVertex
100
AcDb3dPolylineVertex
 10
0.0
 20
34.44618225097656
 30
0.80718994140625
 70
    32
  0
VERTEX
  5
132
330
FA
100
AcDbEntity
  8
OracDecor_panel_moldings
 62
    73
420
  9429335
100
AcDbVertex
100
AcDb3dPolylineVertex
 10
0.0
 20
30.71693420410156
 30
0.528472900390625
 70
    32
  0
VERTEX
  5
133
330
FA
100
AcDbEntity
  8
OracDecor_panel_moldings
 62
    73
420
  9429335
100
AcDbVertex
100
AcDb3dPolylineVertex
 10
0.0
 20
-0.0000267028808594
 30
0.000030517578125
 70
    32
  0
VERTEX
  5
134
330
FA
100
AcDbEntity
  8
OracDecor_panel_moldings
 62
    73
420
  9429335
100
AcDbVertex
100
AcDb3dPolylineVertex
 10
0.0
 20
-0.0000343322753906
 30
3.915924072265625
 70
    32
  0
VERTEX
  5
135
330
FA
100
AcDbEntity
  8
OracDecor_panel_moldings
 62
    73
420
  9429335
100
AcDbVertex
100
AcDb3dPolylineVertex
 10
0.0
 20
1.610862731933593
 30
4.641021728515625
 70
    32
  0
VERTEX
  5
136
330
FA
100
AcDbEntity
  8
OracDecor_panel_moldings
 62
    73
420
  9429335
100
AcDbVertex
100
AcDb3dPolylineVertex
 10
0.0
 20
2.277168273925781
 30
5.665252685546875
 70
    32
  0
VERTEX
  5
137
330
FA
100
AcDbEntity
  8
OracDecor_panel_moldings
 62
    73
420
  9429335
100
AcDbVertex
100
AcDb3dPolylineVertex
 10
0.0
 20
2.136405944824218
 30
6.795196533203125
 70
    32
  0
VERTEX
  5
138
330
FA
100
AcDbEntity
  8
OracDecor_panel_moldings
 62
    73
420
  9429335
100
AcDbVertex
100
AcDb3dPolylineVertex
 10
0.0
 20
1.400390625
 30
7.587127685546875
 70
    32
  0
VERTEX
  5
139
330
FA
100
AcDbEntity
  8
OracDecor_panel_moldings
 62
    73
420
  9429335
100
AcDbVertex
100
AcDb3dPolylineVertex
 10
0.0
 20
-0.0000343322753906
 30
8.133819580078125
 70
    32
  0
VERTEX
  5
13A
330
FA
100
AcDbEntity
  8
OracDecor_panel_moldings
 62
    73
420
  9429335
100
AcDbVertex
100
AcDb3dPolylineVertex
 10
0.0
 20
-0.0000343322753906
 30
12.06729125976562
 70
    32
  0
VERTEX
  5
13B
330
FA
100
AcDbEntity
  8
OracDecor_panel_moldings
 62
    73
420
  9429335
100
AcDbVertex
100
AcDb3dPolylineVertex
 10
0.0
 20
30.50328063964844
 30
12.59201049804687
 70
    32
  0
VERTEX
  5
13C
330
FA
100
AcDbEntity
  8
OracDecor_panel_moldings
 62
    73
420
  9429335
100
AcDbVertex
100
AcDb3dPolylineVertex
 10
0.0
 20
35.07498168945313
 30
13.18844604492187
 70
    32
  0
VERTEX
  5
13D
330
FA
100
AcDbEntity
  8
OracDecor_panel_moldings
 62
    73
420
  9429335
100
AcDbVertex
100
AcDb3dPolylineVertex
 10
0.0
 20
41.95079803466796
 30
15.73934936523437
 70
    32
  0
VERTEX
  5
13E
330
FA
100
AcDbEntity
  8
OracDecor_panel_moldings
 62
    73
420
  9429335
100
AcDbVertex
100
AcDb3dPolylineVertex
 10
0.0
 20
47.73424530029297
 30
20.20458984375
 70
    32
  0
VERTEX
  5
13F
330
FA
100
AcDbEntity
  8
OracDecor_panel_moldings
 62
    73
420
  9429335
100
AcDbVertex
100
AcDb3dPolylineVertex
 10
0.0
 20
51.89324188232422
 30
26.17333984375
 70
    32
  0
VERTEX
  5
140
330
FA
100
AcDbEntity
  8
OracDecor_panel_moldings
 62
    73
420
  9429335
100
AcDbVertex
100
AcDb3dPolylineVertex
 10
0.0
 20
54.04541778564453
 30
33.0968017578125
 70
    32
  0
VERTEX
  5
141
330
FA
100
AcDbEntity
  8
OracDecor_panel_moldings
 62
    73
420
  9429335
100
AcDbVertex
100
AcDb3dPolylineVertex
 10
0.0
 20
53.99253463745117
 30
40.33743286132812
 70
    32
  0
VERTEX
  5
142
330
FA
100
AcDbEntity
  8
OracDecor_panel_moldings
 62
    73
420
  9429335
100
AcDbVertex
100
AcDb3dPolylineVertex
 10
0.0
 20
51.73951339721679
 30
47.22940063476563
 70
    32
  0
VERTEX
  5
143
330
FA
100
AcDbEntity
  8
OracDecor_panel_moldings
 62
    73
420
  9429335
100
AcDbVertex
100
AcDb3dPolylineVertex
 10
0.0
 20
46.95253372192382
 30
53.56600952148437
 70
    32
  0
VERTEX
  5
144
330
FA
100
AcDbEntity
  8
OracDecor_panel_moldings
 62
    73
420
  9429335
100
AcDbVertex
100
AcDb3dPolylineVertex
 10
0.0
 20
31.58725547790528
 30
66.25540161132812
 70
    32
  0
VERTEX
  5
145
330
FA
100
AcDbEntity
  8
OracDecor_panel_moldings
 62
    73
420
  9429335
100
AcDbVertex
100
AcDb3dPolylineVertex
 10
0.0
 20
20.82906723022461
 30
78.10140991210937
 70
    32
  0
VERTEX
  5
146
330
FA
100
AcDbEntity
  8
OracDecor_panel_moldings
 62
    73
420
  9429335
100
AcDbVertex
100
AcDb3dPolylineVertex
 10
0.0
 20
12.02056884765625
 30
91.42019653320312
 70
    32
  0
VERTEX
  5
147
330
FA
100
AcDbEntity
  8
OracDecor_panel_moldings
 62
    73
420
  9429335
100
AcDbVertex
100
AcDb3dPolylineVertex
 10
0.0
 20
5.366134643554687
 30
105.902603149414
 70
    32
  0
VERTEX
  5
148
330
FA
100
AcDbEntity
  8
OracDecor_panel_moldings
 62
    73
420
  9429335
100
AcDbVertex
100
AcDb3dPolylineVertex
 10
0.0
 20
1.020095825195312
 30
121.2128143310547
 70
    32
  0
VERTEX
  5
149
330
FA
100
AcDbEntity
  8
OracDecor_panel_moldings
 62
    73
420
  9429335
100
AcDbVertex
100
AcDb3dPolylineVertex
 10
0.0
 20
0.034332275390625
 30
125.7593688964844
 70
    32
  0
VERTEX
  5
14A
330
FA
100
AcDbEntity
  8
OracDecor_panel_moldings
 62
    73
420
  9429335
100
AcDbVertex
100
AcDb3dPolylineVertex
 10
0.0
 20
0.0343360900878906
 30
151.3650512695312
 70
    32
  0
VERTEX
  5
14B
330
FA
100
AcDbEntity
  8
OracDecor_panel_moldings
 62
    73
420
  9429335
100
AcDbVertex
100
AcDb3dPolylineVertex
 10
0.0
 20
12.588134765625
 30
153.552749633789
 70
    32
  0
VERTEX
  5
14C
330
FA
100
AcDbEntity
  8
OracDecor_panel_moldings
 62
    73
420
  9429335
100
AcDbVertex
100
AcDb3dPolylineVertex
 10
0.0
 20
13.47384643554687
 30
153.6793212890625
 70
    32
  0
VERTEX
  5
14D
330
FA
100
AcDbEntity
  8
OracDecor_panel_moldings
 62
    73
420
  9429335
100
AcDbVertex
100
AcDb3dPolylineVertex
 10
0.0
 20
14.36574554443359
 30
153.7523651123047
 70
    32
  0
VERTEX
  5
14E
330
FA
100
AcDbEntity
  8
OracDecor_panel_moldings
 62
    73
420
  9429335
100
AcDbVertex
100
AcDb3dPolylineVertex
 10
0.0
 20
43.60914230346679
 30
155.2628936767578
 70
    32
  0
VERTEX
  5
14F
330
FA
100
AcDbEntity
  8
OracDecor_panel_moldings
 62
    73
420
  9429335
100
AcDbVertex
100
AcDb3dPolylineVertex
 10
0.0
 20
48.43505859375
 30
156.0274200439453
 70
    32
  0
VERTEX
  5
150
330
FA
100
AcDbEntity
  8
OracDecor_panel_moldings
 62
    73
420
  9429335
100
AcDbVertex
100
AcDb3dPolylineVertex
 10
0.0
 20
52.98611450195313
 30
157.7847747802734
 70
    32
  0
VERTEX
  5
151
330
FA
100
AcDbEntity
  8
OracDecor_panel_moldings
 62
    73
420
  9429335
100
AcDbVertex
100
AcDb3dPolylineVertex
 10
0.0
 20
57.05464172363281
 30
160.4547424316406
 70
    32
  0
VERTEX
  5
152
330
FA
100
AcDbEntity
  8
OracDecor_panel_moldings
 62
    73
420
  9429335
100
AcDbVertex
100
AcDb3dPolylineVertex
 10
0.0
 20
60.4549560546875
 30
163.9154968261719
 70
    32
  0
VERTEX
  5
153
330
FA
100
AcDbEntity
  8
OracDecor_panel_moldings
 62
    73
420
  9429335
100
AcDbVertex
100
AcDb3dPolylineVertex
 10
0.0
 20
63.03190231323242
 30
168.0090942382812
 70
    32
  0
VERTEX
  5
154
330
FA
100
AcDbEntity
  8
OracDecor_panel_moldings
 62
    73
420
  9429335
100
AcDbVertex
100
AcDb3dPolylineVertex
 10
0.0
 20
64.66789245605468
 30
172.5487518310547
 70
    32
  0
VERTEX
  5
155
330
FA
100
AcDbEntity
  8
OracDecor_panel_moldings
 62
    73
420
  9429335
100
AcDbVertex
100
AcDb3dPolylineVertex
 10
0.0
 20
65.28826141357422
 30
177.3273162841797
 70
    32
  0
VERTEX
  5
156
330
FA
100
AcDbEntity
  8
OracDecor_panel_moldings
 62
    73
420
  9429335
100
AcDbVertex
100
AcDb3dPolylineVertex
 10
0.0
 20
64.6483154296875
 30
182.7956085205078
 70
    32
  0
VERTEX
  5
157
330
FA
100
AcDbEntity
  8
OracDecor_panel_moldings
 62
    73
420
  9429335
100
AcDbVertex
100
AcDb3dPolylineVertex
 10
0.0
 20
62.76195526123046
 30
187.9769592285156
 70
    32
  0
VERTEX
  5
158
330
FA
100
AcDbEntity
  8
OracDecor_panel_moldings
 62
    73
420
  9429335
100
AcDbVertex
100
AcDb3dPolylineVertex
 10
0.0
 20
59.72843933105469
 30
192.5987243652343
 70
    32
  0
VERTEX
  5
159
330
FA
100
AcDbEntity
  8
OracDecor_panel_moldings
 62
    73
420
  9429335
100
AcDbVertex
100
AcDb3dPolylineVertex
 10
0.0
 20
44.37079238891601
 30
213.3506317138672
 70
    32
  0
VERTEX
  5
15A
330
FA
100
AcDbEntity
  8
OracDecor_panel_moldings
 62
    73
420
  9429335
100
AcDbVertex
100
AcDb3dPolylineVertex
 10
0.0
 20
31.59165000915527
 30
235.736328125
 70
    32
  0
VERTEX
  5
15B
330
FA
100
AcDbEntity
  8
OracDecor_panel_moldings
 62
    73
420
  9429335
100
AcDbVertex
100
AcDb3dPolylineVertex
 10
0.0000152587890625
 20
21.56786155700684
 30
259.4461059570313
 70
    32
  0
VERTEX
  5
15C
330
FA
100
AcDbEntity
  8
OracDecor_panel_moldings
 62
    73
420
  9429335
100
AcDbVertex
100
AcDb3dPolylineVertex
 10
0.0000152587890625
 20
14.43802261352539
 30
284.1519165039063
 70
    32
  0
VERTEX
  5
15D
330
FA
100
AcDbEntity
  8
OracDecor_panel_moldings
 62
    73
420
  9429335
100
AcDbVertex
100
AcDb3dPolylineVertex
 10
0.0000152587890625
 20
10.30085372924804
 30
309.5119934082031
 70
    32
  0
VERTEX
  5
15E
330
FA
100
AcDbEntity
  8
OracDecor_panel_moldings
 62
    73
420
  9429335
100
AcDbVertex
100
AcDb3dPolylineVertex
 10
0.0000152587890625
 20
9.213565826416015
 30
335.1753845214844
 70
    32
  0
VERTEX
  5
15F
330
FA
100
AcDbEntity
  8
OracDecor_panel_moldings
 62
    73
420
  9429335
100
AcDbVertex
100
AcDb3dPolylineVertex
 10
0.0000152587890625
 20
9.116840362548828
 30
335.822509765625
 70
    32
  0
VERTEX
  5
160
330
FA
100
AcDbEntity
  8
OracDecor_panel_moldings
 62
    73
420
  9429335
100
AcDbVertex
100
AcDb3dPolylineVertex
 10
0.0000152587890625
 20
8.814590454101562
 30
336.4046936035156
 70
    32
  0
VERTEX
  5
161
330
FA
100
AcDbEntity
  8
OracDecor_panel_moldings
 62
    73
420
  9429335
100
AcDbVertex
100
AcDb3dPolylineVertex
 10
0.0000152587890625
 20
8.33868408203125
 30
336.860595703125
 70
    32
  0
VERTEX
  5
162
330
FA
100
AcDbEntity
  8
OracDecor_panel_moldings
 62
    73
420
  9429335
100
AcDbVertex
100
AcDb3dPolylineVertex
 10
0.0000152587890625
 20
-0.0000534057617188
 30
342.5776672363281
 70
    32
  0
VERTEX
  5
163
330
FA
100
AcDbEntity
  8
OracDecor_panel_moldings
 62
    73
420
  9429335
100
AcDbVertex
100
AcDb3dPolylineVertex
 10
0.0000152587890625
 20
-0.0000457763671875
 30
355.3585815429688
 70
    32
  0
VERTEX
  5
164
330
FA
100
AcDbEntity
  8
OracDecor_panel_moldings
 62
    73
420
  9429335
100
AcDbVertex
100
AcDb3dPolylineVertex
 10
0.0000152587890625
 20
1.340255737304687
 30
355.8616638183594
 70
    32
  0
VERTEX
  5
165
330
FA
100
AcDbEntity
  8
OracDecor_panel_moldings
 62
    73
420
  9429335
100
AcDbVertex
100
AcDb3dPolylineVertex
 10
0.0000152587890625
 20
1.988113403320312
 30
356.4474182128906
 70
    32
  0
VERTEX
  5
166
330
FA
100
AcDbEntity
  8
OracDecor_panel_moldings
 62
    73
420
  9429335
100
AcDbVertex
100
AcDb3dPolylineVertex
 10
0.0000152587890625
 20
2.312938690185546
 30
357.5399169921875
 70
    32
  0
VERTEX
  5
167
330
FA
100
AcDbEntity
  8
OracDecor_panel_moldings
 62
    73
420
  9429335
100
AcDbVertex
100
AcDb3dPolylineVertex
 10
0.0000152587890625
 20
1.569778442382812
 30
358.8630676269531
 70
    32
  0
VERTEX
  5
168
330
FA
100
AcDbEntity
  8
OracDecor_panel_moldings
 62
    73
420
  9429335
100
AcDbVertex
100
AcDb3dPolylineVertex
 10
0.0000152587890625
 20
-0.0000457763671875
 30
359.5764465332031
 70
    32
  0
VERTEX
  5
169
330
FA
100
AcDbEntity
  8
OracDecor_panel_moldings
 62
    73
420
  9429335
100
AcDbVertex
100
AcDb3dPolylineVertex
 10
0.0000152587890625
 20
-0.0000457763671875
 30
371.9988708496094
 70
    32
  0
VERTEX
  5
16A
330
FA
100
AcDbEntity
  8
OracDecor_panel_moldings
 62
    73
420
  9429335
100
AcDbVertex
100
AcDb3dPolylineVertex
 10
0.0000152587890625
 20
17.88785934448242
 30
371.6911315917969
 70
    32
  0
VERTEX
  5
16B
330
FA
100
AcDbEntity
  8
OracDecor_panel_moldings
 62
    73
420
  9429335
100
AcDbVertex
100
AcDb3dPolylineVertex
 10
0.0000152587890625
 20
18.65763282775879
 30
371.5281372070312
 70
    32
  0
VERTEX
  5
16C
330
FA
100
AcDbEntity
  8
OracDecor_panel_moldings
 62
    73
420
  9429335
100
AcDbVertex
100
AcDb3dPolylineVertex
 10
0.0000152587890625
 20
19.30746650695801
 30
371.0899963378906
 70
    32
  0
VERTEX
  5
16D
330
FA
100
AcDbEntity
  8
OracDecor_panel_moldings
 62
    73
420
  9429335
100
AcDbVertex
100
AcDb3dPolylineVertex
 10
0.0000152587890625
 20
19.7405948638916
 30
370.4419555664062
 70
    32
  0
SEQEND
  5
16E
330
FA
100
AcDbEntity
  8
OracDecor_panel_moldings
 62
    73
420
  9429335
  0
ENDSEC
  0
SECTION
  2
OBJECTS
  0
DICTIONARY
  5
C
330
0
100
AcDbDictionary
281
     1
  3
ACAD_COLOR
350
DC
  3
ACAD_DETAILVIEWSTYLE
350
F5
  3
ACAD_GROUP
350
D
  3
ACAD_LAYOUT
350
1A
  3
ACAD_MATERIAL
350
AA
  3
ACAD_MLEADERSTYLE
350
F1
  3
ACAD_MLINESTYLE
350
17
  3
ACAD_PLOTSETTINGS
350
19
  3
ACAD_PLOTSTYLENAME
350
E
  3
ACAD_SCALELIST
350
DF
  3
ACAD_SECTIONVIEWSTYLE
350
F3
  3
ACAD_TABLESTYLE
350
DD
  3
ACAD_VISUALSTYLE
350
C3
  3
ACDB_RECOMPOSE_DATA
350
17B
  3
AcDbVariableDictionary
350
16F
  0
DICTIONARY
  5
DC
102
{ACAD_REACTORS
330
C
102
}
330
C
100
AcDbDictionary
281
     1
  0
DICTIONARY
  5
F5
102
{ACAD_REACTORS
330
C
102
}
330
C
100
AcDbDictionary
281
     1
  3
Imperial24
350
F6
  0
DICTIONARY
  5
D
102
{ACAD_REACTORS
330
C
102
}
330
C
100
AcDbDictionary
281
     1
  0
DICTIONARY
  5
1A
102
{ACAD_REACTORS
330
C
102
}
330
C
100
AcDbDictionary
281
     1
  3
Layout1
350
1E
  3
Layout2
350
26
  3
Model
350
22
  0
DICTIONARY
  5
AA
102
{ACAD_REACTORS
330
C
102
}
330
C
100
AcDbDictionary
281
     1
  3
ByBlock
350
B3
  3
ByLayer
350
AB
  3
Global
350
BB
  0
DICTIONARY
  5
F1
102
{ACAD_REACTORS
330
C
102
}
330
C
100
AcDbDictionary
281
     1
  3
Standard
350
F2
  0
DICTIONARY
  5
17
102
{ACAD_REACTORS
330
C
102
}
330
C
100
AcDbDictionary
281
     1
  3
Standard
350
18
  0
DICTIONARY
  5
19
102
{ACAD_REACTORS
330
C
102
}
330
C
100
AcDbDictionary
281
     1
  0
ACDBDICTIONARYWDFLT
  5
E
102
{ACAD_REACTORS
330
C
102
}
330
C
100
AcDbDictionary
281
     1
  3
ByLayer
350
2D
  3
Normal
350
F
100
AcDbDictionaryWithDefault
340
F
  0
DICTIONARY
  5
DF
102
{ACAD_REACTORS
330
C
102
}
330
C
100
AcDbDictionary
281
     1
  3
A0
350
E0
  3
A1
350
E1
  3
A2
350
E2
  3
A3
350
E3
  3
A4
350
E4
  3
A5
350
E5
  3
A6
350
E6
  3
A7
350
E7
  3
A8
350
E8
  3
A9
350
E9
  3
B0
350
EA
  3
B1
350
EB
  3
B2
350
EC
  3
B3
350
ED
  3
B4
350
EE
  3
B5
350
EF
  3
B6
350
F0
  0
DICTIONARY
  5
F3
102
{ACAD_REACTORS
330
C
102
}
330
C
100
AcDbDictionary
281
     1
  3
Imperial24
350
F4
  0
DICTIONARY
  5
DD
102
{ACAD_REACTORS
330
C
102
}
330
C
100
AcDbDictionary
281
     1
  3
Standard
350
DE
  0
DICTIONARY
  5
C3
102
{ACAD_REACTORS
330
C
102
}
330
C
100
AcDbDictionary
281
     1
  3
2dWireframe
350
C9
  3
Basic
350
C8
  3
Brighten
350
CF
  3
ColorChange
350
D3
  3
Conceptual
350
CC
  3
Dim
350
CE
  3
EdgeColorOff
350
DB
  3
Facepattern
350
D2
  3
Flat
350
C4
  3
FlatWithEdges
350
C5
  3
Gouraud
350
C6
  3
GouraudWithEdges
350
C7
  3
Hidden
350
CB
  3
JitterOff
350
D9
  3
Linepattern
350
D1
  3
OverhangOff
350
DA
  3
Realistic
350
CD
  3
Shaded
350
D8
  3
Shaded with edges
350
D7
  3
Shades of Gray
350
D4
  3
Sketchy
350
D5
  3
Thicken
350
D0
  3
Wireframe
350
CA
  3
X-Ray
350
D6
  0
XRECORD
  5
17B
102
{ACAD_REACTORS
330
C
102
}
330
C
100
AcDbXrecord
280
     1
 90
        1
330
DE
  0
DICTIONARY
  5
16F
102
{ACAD_REACTORS
330
C
102
}
330
C
100
AcDbDictionary
281
     1
  3
CANNOSCALE
350
175
  3
CMLEADERSTYLE
350
171
  3
CTABLESTYLE
350
170
  3
CVIEWDETAILSTYLE
350
172
  3
CVIEWSECTIONSTYLE
350
173
  3
LAYEREVAL
350
177
  3
LAYERNOTIFY
350
178
  3
LIGHTINGUNITS
350
176
  3
MSLTSCALE
350
174
  0
ACDBDETAILVIEWSTYLE
  5
F6
102
{ACAD_XDICTIONARY
360
1B0
102
}
102
{ACAD_REACTORS
330
F5
102
}
330
F5
100
AcDbModelDocViewStyle
 70
     0
  3
Imperial24
290
     0
100
AcDbDetailViewStyle
 70
     0
 71
     0
 90
        3
 71
     1
340
11
 62
   256
 40
0.24
340
0
 62
   256
 40
0.24
300

 40
0.36
280
     3
 71
     2
340
16
 90
       25
 62
   256
 71
     3
340
11
 62
   256
 40
0.24
 90
        1
 40
0.75
 90
        1
300
%<\AcVar ViewType \f "%tc1">% %<\AcVar ViewDetailId>%\PSCALE %<\AcVar ViewScale \f "%sn">%
 71
     4
340
16
 90
       25
 62
   256
340
16
 90
       25
 62
   256
280
     0
  0
LAYOUT
  5
1E
102
{ACAD_REACTORS
330
1A
102
}
330
1A
100
AcDbPlotSettings
  1

  2
\\KTXNTBDC\CASF2PN1
  4

  6

 40
0.0
 41
0.0
 42
0.0
 43
0.0
 44
0.0
 45
0.0
 46
0.0
 47
0.0
 48
0.0
 49
0.0
140
0.0
141
0.0
142
1.0
143
1.0
 70
   688
 72
     0
 73
     0
 74
     5
  7

 75
    16
147
1.0
 76
     0
 77
     2
 78
   300
148
0.0
149
0.0
100
AcDbLayout
  1
Layout1
 70
     1
 71
     1
 10
0.0
 20
0.0
 11
12.0
 21
9.0
 12
0.0
 22
0.0
 32
0.0
 14
1.000000000000000E+20
 24
1.000000000000000E+20
 34
1.000000000000000E+20
 15
-1.000000000000000E+20
 25
-1.000000000000000E+20
 35
-1.000000000000000E+20
146
0.0
 13
0.0
 23
0.0
 33
0.0
 16
1.0
 26
0.0
 36
0.0
 17
0.0
 27
1.0
 37
0.0
 76
     0
330
1B
  0
LAYOUT
  5
26
102
{ACAD_REACTORS
330
1A
102
}
330
1A
100
AcDbPlotSettings
  1

  2
\\KTXNTBDC\CASF2PN1
  4

  6

 40
0.0
 41
0.0
 42
0.0
 43
0.0
 44
0.0
 45
0.0
 46
0.0
 47
0.0
 48
0.0
 49
0.0
140
0.0
141
0.0
142
1.0
143
1.0
 70
   688
 72
     0
 73
     0
 74
     5
  7

 75
    16
147
1.0
 76
     0
 77
     2
 78
   300
148
0.0
149
0.0
100
AcDbLayout
  1
Layout2
 70
     1
 71
     2
 10
0.0
 20
0.0
 11
12.0
 21
9.0
 12
0.0
 22
0.0
 32
0.0
 14
0.0
 24
0.0
 34
0.0
 15
0.0
 25
0.0
 35
0.0
146
0.0
 13
0.0
 23
0.0
 33
0.0
 16
1.0
 26
0.0
 36
0.0
 17
0.0
 27
1.0
 37
0.0
 76
     0
330
23
  0
LAYOUT
  5
22
102
{ACAD_REACTORS
330
1A
102
}
330
1A
100
AcDbPlotSettings
  1

  2
\\KTXNTBDC\CASF2PN1
  4

  6

 40
0.0
 41
0.0
 42
0.0
 43
0.0
 44
0.0
 45
0.0
 46
0.0
 47
0.0
 48
0.0
 49
0.0
140
0.0
141
0.0
142
1.0
143
1.0
 70
  1712
 72
     0
 73
     0
 74
     0
  7

 75
     0
147
1.0
 76
     0
 77
     2
 78
   300
148
0.0
149
0.0
100
AcDbLayout
  1
Model
 70
     1
 71
     0
 10
0.0
 20
0.0
 11
12.0
 21
9.0
 12
0.0
 22
0.0
 32
0.0
 14
0.0
 24
0.0
 34
0.0
 15
0.0
 25
0.0
 35
0.0
146
0.0
 13
0.0
 23
0.0
 33
0.0
 16
1.0
 26
0.0
 36
0.0
 17
0.0
 27
1.0
 37
0.0
 76
     0
330
1F
  0
MATERIAL
  5
B3
102
{ACAD_XDICTIONARY
360
B4
102
}
102
{ACAD_REACTORS
330
AA
102
}
330
AA
100
AcDbMaterial
  1
ByBlock
 72
     0
 43
0.0208333333333333
 43
0.0
 43
0.0
 43
0.0
 43
0.0
 43
0.0208333333333333
 43
0.0
 43
0.0
 43
0.0
 43
0.0
 43
1.0
 43
0.0
 43
0.0
 43
0.0
 43
0.0
 43
1.0
 77
     0
 47
0.0208333333333333
 47
0.0
 47
0.0
 47
0.0
 47
0.0
 47
0.0208333333333333
 47
0.0
 47
0.0
 47
0.0
 47
0.0
 47
1.0
 47
0.0
 47
0.0
 47
0.0
 47
0.0
 47
1.0
171
     0
 49
0.0208333333333333
 49
0.0
 49
0.0
 49
0.0
 49
0.0
 49
0.0208333333333333
 49
0.0
 49
0.0
 49
0.0
 49
0.0
 49
1.0
 49
0.0
 49
0.0
 49
0.0
 49
0.0
 49
1.0
175
     0
142
0.0208333333333333
142
0.0
142
0.0
142
0.0
142
0.0
142
0.0208333333333333
142
0.0
142
0.0
142
0.0
142
0.0
142
1.0
142
0.0
142
0.0
142
0.0
142
0.0
142
1.0
179
     0
144
0.0208333333333333
144
0.0
144
0.0
144
0.0
144
0.0
144
0.0208333333333333
144
0.0
144
0.0
144
0.0
144
0.0
144
1.0
144
0.0
144
0.0
144
0.0
144
0.0
144
1.0
147
0.0208333333333333
147
0.0
147
0.0
147
0.0
147
0.0
147
0.0208333333333333
147
0.0
147
0.0
147
0.0
147
0.0
147
1.0
147
0.0
147
0.0
147
0.0
147
0.0
147
1.0
  0
MATERIAL
  5
AB
102
{ACAD_XDICTIONARY
360
AC
102
}
102
{ACAD_REACTORS
330
AA
102
}
330
AA
100
AcDbMaterial
  1
ByLayer
 72
     0
 43
0.0208333333333333
 43
0.0
 43
0.0
 43
0.0
 43
0.0
 43
0.0208333333333333
 43
0.0
 43
0.0
 43
0.0
 43
0.0
 43
1.0
 43
0.0
 43
0.0
 43
0.0
 43
0.0
 43
1.0
 77
     0
 47
0.0208333333333333
 47
0.0
 47
0.0
 47
0.0
 47
0.0
 47
0.0208333333333333
 47
0.0
 47
0.0
 47
0.0
 47
0.0
 47
1.0
 47
0.0
 47
0.0
 47
0.0
 47
0.0
 47
1.0
171
     0
 49
0.0208333333333333
 49
0.0
 49
0.0
 49
0.0
 49
0.0
 49
0.0208333333333333
 49
0.0
 49
0.0
 49
0.0
 49
0.0
 49
1.0
 49
0.0
 49
0.0
 49
0.0
 49
0.0
 49
1.0
175
     0
142
0.0208333333333333
142
0.0
142
0.0
142
0.0
142
0.0
142
0.0208333333333333
142
0.0
142
0.0
142
0.0
142
0.0
142
1.0
142
0.0
142
0.0
142
0.0
142
0.0
142
1.0
179
     0
144
0.0208333333333333
144
0.0
144
0.0
144
0.0
144
0.0
144
0.0208333333333333
144
0.0
144
0.0
144
0.0
144
0.0
144
1.0
144
0.0
144
0.0
144
0.0
144
0.0
144
1.0
147
0.0208333333333333
147
0.0
147
0.0
147
0.0
147
0.0
147
0.0208333333333333
147
0.0
147
0.0
147
0.0
147
0.0
147
1.0
147
0.0
147
0.0
147
0.0
147
0.0
147
1.0
  0
MATERIAL
  5
BB
102
{ACAD_XDICTIONARY
360
BC
102
}
102
{ACAD_REACTORS
330
AA
102
}
330
AA
100
AcDbMaterial
  1
Global
 72
     0
 43
0.0208333333333333
 43
0.0
 43
0.0
 43
0.0
 43
0.0
 43
0.0208333333333333
 43
0.0
 43
0.0
 43
0.0
 43
0.0
 43
1.0
 43
0.0
 43
0.0
 43
0.0
 43
0.0
 43
1.0
 77
     0
 47
0.0208333333333333
 47
0.0
 47
0.0
 47
0.0
 47
0.0
 47
0.0208333333333333
 47
0.0
 47
0.0
 47
0.0
 47
0.0
 47
1.0
 47
0.0
 47
0.0
 47
0.0
 47
0.0
 47
1.0
171
     0
 49
0.0208333333333333
 49
0.0
 49
0.0
 49
0.0
 49
0.0
 49
0.0208333333333333
 49
0.0
 49
0.0
 49
0.0
 49
0.0
 49
1.0
 49
0.0
 49
0.0
 49
0.0
 49
0.0
 49
1.0
175
     0
142
0.0208333333333333
142
0.0
142
0.0
142
0.0
142
0.0
142
0.0208333333333333
142
0.0
142
0.0
142
0.0
142
0.0
142
1.0
142
0.0
142
0.0
142
0.0
142
0.0
142
1.0
179
     0
144
0.0208333333333333
144
0.0
144
0.0
144
0.0
144
0.0
144
0.0208333333333333
144
0.0
144
0.0
144
0.0
144
0.0
144
1.0
144
0.0
144
0.0
144
0.0
144
0.0
144
1.0
147
0.0208333333333333
147
0.0
147
0.0
147
0.0
147
0.0
147
0.0208333333333333
147
0.0
147
0.0
147
0.0
147
0.0
147
1.0
147
0.0
147
0.0
147
0.0
147
0.0
147
1.0
  0
MLEADERSTYLE
  5
F2
102
{ACAD_XDICTIONARY
360
1AC
102
}
102
{ACAD_REACTORS
330
F1
102
}
330
F1
100
AcDbMLeaderStyle
179
     2
170
     2
171
     1
172
     0
 90
        2
 40
0.0
 41
0.0
173
     1
 91
-1056964608
340
14
 92
       -2
290
     1
 42
0.09
291
     1
 43
0.36
  3
Standard
 44
0.18
300

342
11
174
     1
178
     6
175
     1
176
     0
 93
-1056964608
 45
0.18
292
     0
297
     0
 46
0.18
 94
-1056964608
 47
1.0
 49
1.0
140
1.0
293
     1
141
0.0
294
     1
177
     0
142
1.0
295
     0
296
     0
143
0.125
271
     0
272
     9
273
     9
  0
MLINESTYLE
  5
18
102
{ACAD_REACTORS
330
17
102
}
330
17
100
AcDbMlineStyle
  2
STANDARD
 70
     0
  3

 62
   256
 51
90.0
 52
90.0
 71
     2
 49
0.5
 62
   256
  6
BYLAYER
 49
-0.5
 62
   256
  6
BYLAYER
  0
ACDBPLACEHOLDER
  5
2D
102
{ACAD_REACTORS
330
E
102
}
330
E
  0
ACDBPLACEHOLDER
  5
F
102
{ACAD_REACTORS
330
E
102
}
330
E
  0
SCALE
  5
E0
102
{ACAD_REACTORS
330
DF
102
}
330
DF
100
AcDbScale
 70
     0
300
1:1
140
1.0
141
1.0
290
     1
  0
SCALE
  5
E1
102
{ACAD_REACTORS
330
DF
102
}
330
DF
100
AcDbScale
 70
     0
300
1/128" = 1'-0"
140
0.0078125
141
12.0
290
     0
  0
SCALE
  5
E2
102
{ACAD_REACTORS
330
DF
102
}
330
DF
100
AcDbScale
 70
     0
300
1/64" = 1'-0"
140
0.015625
141
12.0
290
     0
  0
SCALE
  5
E3
102
{ACAD_REACTORS
330
DF
102
}
330
DF
100
AcDbScale
 70
     0
300
1/32" = 1'-0"
140
0.03125
141
12.0
290
     0
  0
SCALE
  5
E4
102
{ACAD_REACTORS
330
DF
102
}
330
DF
100
AcDbScale
 70
     0
300
1/16" = 1'-0"
140
0.0625
141
12.0
290
     0
  0
SCALE
  5
E5
102
{ACAD_REACTORS
330
DF
102
}
330
DF
100
AcDbScale
 70
     0
300
3/32" = 1'-0"
140
0.09375
141
12.0
290
     0
  0
SCALE
  5
E6
102
{ACAD_REACTORS
330
DF
102
}
330
DF
100
AcDbScale
 70
     0
300
1/8" = 1'-0"
140
0.125
141
12.0
290
     0
  0
SCALE
  5
E7
102
{ACAD_REACTORS
330
DF
102
}
330
DF
100
AcDbScale
 70
     0
300
3/16" = 1'-0"
140
0.1875
141
12.0
290
     0
  0
SCALE
  5
E8
102
{ACAD_REACTORS
330
DF
102
}
330
DF
100
AcDbScale
 70
     0
300
1/4" = 1'-0"
140
0.25
141
12.0
290
     0
  0
SCALE
  5
E9
102
{ACAD_REACTORS
330
DF
102
}
330
DF
100
AcDbScale
 70
     0
300
3/8" = 1'-0"
140
0.375
141
12.0
290
     0
  0
SCALE
  5
EA
102
{ACAD_REACTORS
330
DF
102
}
330
DF
100
AcDbScale
 70
     0
300
1/2" = 1'-0"
140
0.5
141
12.0
290
     0
  0
SCALE
  5
EB
102
{ACAD_REACTORS
330
DF
102
}
330
DF
100
AcDbScale
 70
     0
300
3/4" = 1'-0"
140
0.75
141
12.0
290
     0
  0
SCALE
  5
EC
102
{ACAD_REACTORS
330
DF
102
}
330
DF
100
AcDbScale
 70
     0
300
1" = 1'-0"
140
1.0
141
12.0
290
     0
  0
SCALE
  5
ED
102
{ACAD_REACTORS
330
DF
102
}
330
DF
100
AcDbScale
 70
     0
300
1-1/2" = 1'-0"
140
1.5
141
12.0
290
     0
  0
SCALE
  5
EE
102
{ACAD_REACTORS
330
DF
102
}
330
DF
100
AcDbScale
 70
     0
300
3" = 1'-0"
140
3.0
141
12.0
290
     0
  0
SCALE
  5
EF
102
{ACAD_REACTORS
330
DF
102
}
330
DF
100
AcDbScale
 70
     0
300
6" = 1'-0"
140
6.0
141
12.0
290
     0
  0
SCALE
  5
F0
102
{ACAD_REACTORS
330
DF
102
}
330
DF
100
AcDbScale
 70
     0
300
1'-0" = 1'-0"
140
12.0
141
12.0
290
     0
  0
ACDBSECTIONVIEWSTYLE
  5
F4
102
{ACAD_XDICTIONARY
360
1AE
102
}
102
{ACAD_REACTORS
330
F3
102
}
330
F3
100
AcDbModelDocViewStyle
 70
     0
  3
Imperial24
290
     0
100
AcDbSectionViewStyle
 70
     0
 71
     0
 90
       78
 71
     1
340
11
 62
   256
 40
0.24
340
0
340
0
 62
   256
 40
0.24
300
I, O, Q, S, X, Z
 40
0.48
 90
        3
 40
0.18
 90
        1
 71
     2
340
16
 90
       25
 62
   256
340
16
 90
       50
 62
   256
 40
0.24
 40
0.0
 40
0.24
 71
     3
340
11
 62
   256
 40
0.24
 90
        1
 40
0.75
 90
        1
300
%<\AcVar ViewType \f "%tc1">% %<\AcVar ViewSectionStartId>%-%<\AcVar ViewSectionEndId>%\PSCALE %<\AcVar ViewScale \f "%sn">%
 71
     4
 62
   256
 62
   257
300
ANSI31
 40
1.0
 90
        0
290
     0
290
     0
 90
        6
 40
0.0
 40
1.570796326794896
 40
0.2617993877991494
 40
1.308996938995747
 40
-0.2617993877991494
 40
1.832595714594046
  0
TABLESTYLE
  5
DE
102
{ACAD_XDICTIONARY
360
179
102
}
102
{ACAD_REACTORS
330
DD
102
}
330
DD
100
AcDbTableStyle
280
     0
  3
Standard
 70
     0
 71
     0
 40
0.06
 41
0.06
280
     0
281
     0
  7
Standard
140
0.18
170
     2
 62
     0
 63
     7
283
     0
 90
      512
 91
        0
  1

274
    -2
284
     1
 64
     0
275
    -2
285
     1
 65
     0
276
    -2
286
     1
 66
     0
277
    -2
287
     1
 67
     0
278
    -2
288
     1
 68
     0
279
    -2
289
     1
 69
     0
  7
Standard
140
0.25
170
     5
 62
     0
 63
     7
283
     0
 90
      512
 91
        0
  1

274
    -2
284
     1
 64
     0
275
    -2
285
     1
 65
     0
276
    -2
286
     1
 66
     0
277
    -2
287
     1
 67
     0
278
    -2
288
     1
 68
     0
279
    -2
289
     1
 69
     0
  7
Standard
140
0.18
170
     5
 62
     0
 63
     7
283
     0
 90
      512
 91
        0
  1

274
    -2
284
     1
 64
     0
275
    -2
285
     1
 65
     0
276
    -2
286
     1
 66
     0
277
    -2
287
     1
 67
     0
278
    -2
288
     1
 68
     0
279
    -2
289
     1
 69
     0
  0
VISUALSTYLE
  5
C9
102
{ACAD_XDICTIONARY
360
186
102
}
102
{ACAD_REACTORS
330
C3
102
}
330
C3
100
AcDbVisualStyle
  2
2dWireframe
 70
     4
177
     2
291
     0
 71
     0
176
     1
 72
     2
176
     1
 73
     0
176
     1
 90
        0
176
     1
 40
0.6
176
     1
 41
30.0
176
     1
 63
     7
421
 16777215
176
     1
 74
     1
176
     1
 91
        4
176
     1
 64
     7
176
     1
 65
   257
176
     1
 75
     1
176
     1
175
     1
176
     1
 42
1.0
176
     1
 92
        0
176
     1
 66
   257
176
     1
 43
1.0
176
     1
 76
     1
176
     1
 77
     6
176
     1
 78
     2
176
     1
 67
     7
176
     1
 79
     5
176
     1
170
     0
176
     1
171
     0
176
     1
290
     0
176
     1
 93
        1
176
     1
 44
0.0
176
     1
173
     0
176
     1
1001
ACAD
1000
AcDbSavedByObjectVersion
1070
     0
  0
VISUALSTYLE
  5
C8
102
{ACAD_XDICTIONARY
360
184
102
}
102
{ACAD_REACTORS
330
C3
102
}
330
C3
100
AcDbVisualStyle
  2
Basic
 70
     7
177
     2
291
     1
 71
     1
176
     1
 72
     0
176
     1
 73
     1
176
     1
 90
        0
176
     1
 40
0.6
176
     1
 41
30.0
176
     1
 63
     7
421
 16777215
176
     1
 74
     0
176
     1
 91
        4
176
     1
 64
     7
176
     1
 65
   257
176
     1
 75
     1
176
     1
175
     1
176
     1
 42
1.0
176
     1
 92
        8
176
     1
 66
     7
176
     1
 43
1.0
176
     1
 76
     1
176
     1
 77
     6
176
     1
 78
     2
176
     1
 67
     7
176
     1
 79
     5
176
     1
170
     0
176
     1
171
     0
176
     1
290
     0
176
     1
 93
        1
176
     1
 44
0.0
176
     1
173
     0
176
     1
1001
ACAD
1000
AcDbSavedByObjectVersion
1070
     0
  0
VISUALSTYLE
  5
CF
102
{ACAD_XDICTIONARY
360
192
102
}
102
{ACAD_REACTORS
330
C3
102
}
330
C3
100
AcDbVisualStyle
  2
Brighten
 70
    12
177
     2
291
     1
 71
     2
176
     1
 72
     2
176
     1
 73
     0
176
     1
 90
        0
176
     1
 40
0.6
176
     1
 41
30.0
176
     1
 63
     7
421
 16777215
176
     1
 74
     1
176
     1
 91
        4
176
     1
 64
     7
176
     1
 65
   257
176
     1
 75
     1
176
     1
175
     1
176
     1
 42
1.0
176
     1
 92
        8
176
     1
 66
     7
176
     1
 43
1.0
176
     1
 76
     1
176
     1
 77
     6
176
     1
 78
     2
176
     1
 67
     7
176
     1
 79
     5
176
     1
170
     0
176
     1
171
     0
176
     1
290
     0
176
     1
 93
        1
176
     1
 44
50.0
176
     1
173
     0
176
     1
1001
ACAD
1000
AcDbSavedByObjectVersion
1070
     0
  0
VISUALSTYLE
  5
D3
102
{ACAD_XDICTIONARY
360
19A
102
}
102
{ACAD_REACTORS
330
C3
102
}
330
C3
100
AcDbVisualStyle
  2
ColorChange
 70
    16
177
     2
291
     1
 71
     2
176
     1
 72
     2
176
     1
 73
     3
176
     1
 90
        0
176
     1
 40
0.6
176
     1
 41
30.0
176
     1
 63
     8
421
  8421504
176
     1
 74
     1
176
     1
 91
        4
176
     1
 64
     7
176
     1
 65
   257
176
     1
 75
     1
176
     1
175
     1
176
     1
 42
1.0
176
     1
 92
        8
176
     1
 66
     8
424
  8421504
176
     1
 43
1.0
176
     1
 76
     1
176
     1
 77
     6
176
     1
 78
     2
176
     1
 67
     7
176
     1
 79
     5
176
     1
170
     0
176
     1
171
     0
176
     1
290
     0
176
     1
 93
        1
176
     1
 44
0.0
176
     1
173
     0
176
     1
1001
ACAD
1000
AcDbSavedByObjectVersion
1070
     0
  0
VISUALSTYLE
  5
CC
102
{ACAD_XDICTIONARY
360
18C
102
}
102
{ACAD_REACTORS
330
C3
102
}
330
C3
100
AcDbVisualStyle
  2
Conceptual
 70
     9
177
     2
291
     0
 71
     3
176
     1
 72
     2
176
     1
 73
     0
176
     1
 90
        0
176
     1
 40
0.6
176
     1
 41
30.0
176
     1
 63
     7
421
 16777215
176
     1
 74
     2
176
     1
 91
        2
176
     1
 64
     7
176
     1
 65
   257
176
     1
 75
     1
176
     1
175
     1
176
     1
 42
179.0
176
     1
 92
        8
176
     1
 66
     7
176
     1
 43
1.0
176
     1
 76
     1
176
     1
 77
     6
176
     1
 78
     2
176
     1
 67
     7
176
     1
 79
     3
176
     1
170
     0
176
     1
171
     0
176
     1
290
     0
176
     1
 93
        1
176
     1
 44
0.0
176
     1
173
     0
176
     1
1001
ACAD
1000
AcDbSavedByObjectVersion
1070
     0
  0
VISUALSTYLE
  5
CE
102
{ACAD_XDICTIONARY
360
190
102
}
102
{ACAD_REACTORS
330
C3
102
}
330
C3
100
AcDbVisualStyle
  2
Dim
 70
    11
177
     2
291
     1
 71
     2
176
     1
 72
     2
176
     1
 73
     0
176
     1
 90
        0
176
     1
 40
0.6
176
     1
 41
30.0
176
     1
 63
     7
421
 16777215
176
     1
 74
     1
176
     1
 91
        4
176
     1
 64
     7
176
     1
 65
   257
176
     1
 75
     1
176
     1
175
     1
176
     1
 42
1.0
176
     1
 92
        8
176
     1
 66
     7
176
     1
 43
1.0
176
     1
 76
     1
176
     1
 77
     6
176
     1
 78
     2
176
     1
 67
     7
176
     1
 79
     5
176
     1
170
     0
176
     1
171
     0
176
     1
290
     0
176
     1
 93
        1
176
     1
 44
-50.0
176
     1
173
     0
176
     1
1001
ACAD
1000
AcDbSavedByObjectVersion
1070
     0
  0
VISUALSTYLE
  5
DB
102
{ACAD_XDICTIONARY
360
1AA
102
}
102
{ACAD_REACTORS
330
C3
102
}
330
C3
100
AcDbVisualStyle
  2
EdgeColorOff
 70
    22
177
     2
291
     1
 71
     2
176
     0
 72
     2
176
     0
 73
     0
176
     0
 90
        0
176
     0
 40
0.6
176
     0
 41
30.0
176
     0
 63
     7
421
 16777215
176
     0
 74
     1
176
     0
 91
        4
176
     0
 64
     7
176
     0
 65
   257
176
     0
 75
     1
176
     0
175
     1
176
     0
 42
1.0
176
     0
 92
        8
176
     2
 66
     7
176
     0
 43
1.0
176
     0
 76
     1
176
     0
 77
     6
176
     0
 78
     2
176
     0
 67
     7
176
     0
 79
     5
176
     0
170
     0
176
     0
171
     0
176
     0
290
     0
176
     0
 93
        1
176
     0
 44
0.0
176
     0
173
     0
176
     0
1001
ACAD
1000
AcDbSavedByObjectVersion
1070
     0
  0
VISUALSTYLE
  5
D2
102
{ACAD_XDICTIONARY
360
198
102
}
102
{ACAD_REACTORS
330
C3
102
}
330
C3
100
AcDbVisualStyle
  2
Facepattern
 70
    15
177
     2
291
     1
 71
     2
176
     1
 72
     2
176
     1
 73
     0
176
     1
 90
        0
176
     1
 40
0.6
176
     1
 41
30.0
176
     1
 63
     7
421
 16777215
176
     1
 74
     1
176
     1
 91
        4
176
     1
 64
     7
176
     1
 65
   257
176
     1
 75
     1
176
     1
175
     1
176
     1
 42
1.0
176
     1
 92
        8
176
     1
 66
     7
176
     1
 43
1.0
176
     1
 76
     1
176
     1
 77
     6
176
     1
 78
     2
176
     1
 67
     7
176
     1
 79
     5
176
     1
170
     0
176
     1
171
     0
176
     1
290
     0
176
     1
 93
        1
176
     1
 44
0.0
176
     1
173
     0
176
     1
1001
ACAD
1000
AcDbSavedByObjectVersion
1070
     0
  0
VISUALSTYLE
  5
C4
102
{ACAD_XDICTIONARY
360
17C
102
}
102
{ACAD_REACTORS
330
C3
102
}
330
C3
100
AcDbVisualStyle
  2
Flat
 70
     0
177
     2
291
     1
 71
     2
176
     1
 72
     1
176
     1
 73
     1
176
     1
 90
        2
176
     1
 40
0.6
176
     1
 41
30.0
176
     1
 63
     7
421
 16777215
176
     1
 74
     0
176
     1
 91
        0
176
     1
 64
     7
176
     1
 65
   257
176
     1
 75
     1
176
     1
175
     1
176
     1
 42
1.0
176
     1
 92
        8
176
     1
 66
     7
176
     1
 43
1.0
176
     1
 76
     1
176
     1
 77
     6
176
     1
 78
     2
176
     1
 67
     7
176
     1
 79
     5
176
     1
170
     0
176
     1
171
     0
176
     1
290
     0
176
     1
 93
       13
176
     1
 44
0.0
176
     1
173
     0
176
     1
1001
ACAD
1000
AcDbSavedByObjectVersion
1070
     0
  0
VISUALSTYLE
  5
C5
102
{ACAD_XDICTIONARY
360
17E
102
}
102
{ACAD_REACTORS
330
C3
102
}
330
C3
100
AcDbVisualStyle
  2
FlatWithEdges
 70
     1
177
     2
291
     1
 71
     2
176
     1
 72
     1
176
     1
 73
     1
176
     1
 90
        2
176
     1
 40
0.6
176
     1
 41
30.0
176
     1
 63
     7
421
 16777215
176
     1
 74
     1
176
     1
 91
        0
176
     1
 64
     7
176
     1
 65
   257
176
     1
 75
     1
176
     1
175
     1
176
     1
 42
1.0
176
     1
 92
        0
176
     1
 66
   257
176
     1
 43
1.0
176
     1
 76
     1
176
     1
 77
     6
176
     1
 78
     2
176
     1
 67
     7
176
     1
 79
     5
176
     1
170
     0
176
     1
171
     0
176
     1
290
     0
176
     1
 93
       13
176
     1
 44
0.0
176
     1
173
     0
176
     1
1001
ACAD
1000
AcDbSavedByObjectVersion
1070
     0
  0
VISUALSTYLE
  5
C6
102
{ACAD_XDICTIONARY
360
180
102
}
102
{ACAD_REACTORS
330
C3
102
}
330
C3
100
AcDbVisualStyle
  2
Gouraud
 70
     2
177
     2
291
     1
 71
     2
176
     1
 72
     2
176
     1
 73
     1
176
     1
 90
        2
176
     1
 40
0.6
176
     1
 41
30.0
176
     1
 63
     7
421
 16777215
176
     1
 74
     0
176
     1
 91
        0
176
     1
 64
     7
176
     1
 65
   257
176
     1
 75
     1
176
     1
175
     1
176
     1
 42
1.0
176
     1
 92
        0
176
     1
 66
     7
176
     1
 43
1.0
176
     1
 76
     1
176
     1
 77
     6
176
     1
 78
     2
176
     1
 67
     7
176
     1
 79
     5
176
     1
170
     0
176
     1
171
     0
176
     1
290
     0
176
     1
 93
       13
176
     1
 44
0.0
176
     1
173
     0
176
     1
1001
ACAD
1000
AcDbSavedByObjectVersion
1070
     0
  0
VISUALSTYLE
  5
C7
102
{ACAD_XDICTIONARY
360
182
102
}
102
{ACAD_REACTORS
330
C3
102
}
330
C3
100
AcDbVisualStyle
  2
GouraudWithEdges
 70
     3
177
     2
291
     1
 71
     2
176
     1
 72
     2
176
     1
 73
     1
176
     1
 90
        2
176
     1
 40
0.6
176
     1
 41
30.0
176
     1
 63
     7
421
 16777215
176
     1
 74
     1
176
     1
 91
        0
176
     1
 64
     7
176
     1
 65
   257
176
     1
 75
     1
176
     1
175
     1
176
     1
 42
1.0
176
     1
 92
        0
176
     1
 66
   257
176
     1
 43
1.0
176
     1
 76
     1
176
     1
 77
     6
176
     1
 78
     2
176
     1
 67
     7
176
     1
 79
     5
176
     1
170
     0
176
     1
171
     0
176
     1
290
     0
176
     1
 93
       13
176
     1
 44
0.0
176
     1
173
     0
176
     1
1001
ACAD
1000
AcDbSavedByObjectVersion
1070
     0
  0
VISUALSTYLE
  5
CB
102
{ACAD_XDICTIONARY
360
18A
102
}
102
{ACAD_REACTORS
330
C3
102
}
330
C3
100
AcDbVisualStyle
  2
Hidden
 70
     6
177
     2
291
     0
 71
     1
176
     1
 72
     2
176
     1
 73
     2
176
     1
 90
        0
176
     1
 40
0.6
176
     1
 41
30.0
176
     1
 63
     7
421
 16777215
176
     1
 74
     2
176
     1
 91
        2
176
     1
 64
     7
176
     1
 65
   257
176
     1
 75
     2
176
     1
175
     1
176
     1
 42
40.0
176
     1
 92
        0
176
     1
 66
   257
176
     1
 43
1.0
176
     1
 76
     1
176
     1
 77
     6
176
     1
 78
     2
176
     1
 67
     7
176
     1
 79
     3
176
     1
170
     0
176
     1
171
     0
176
     1
290
     0
176
     1
 93
        1
176
     1
 44
0.0
176
     1
173
     0
176
     1
1001
ACAD
1000
AcDbSavedByObjectVersion
1070
     0
  0
VISUALSTYLE
  5
D9
102
{ACAD_XDICTIONARY
360
1A6
102
}
102
{ACAD_REACTORS
330
C3
102
}
330
C3
100
AcDbVisualStyle
  2
JitterOff
 70
    20
177
     2
291
     1
 71
     2
176
     0
 72
     2
176
     0
 73
     0
176
     0
 90
        0
176
     0
 40
0.6
176
     0
 41
30.0
176
     0
 63
     7
421
 16777215
176
     0
 74
     1
176
     0
 91
        4
176
     0
 64
     7
176
     0
 65
   257
176
     0
 75
     1
176
     0
175
     1
176
     0
 42
1.0
176
     0
 92
       10
176
     2
 66
     7
176
     0
 43
1.0
176
     0
 76
     1
176
     0
 77
     6
176
     0
 78
     2
176
     0
 67
     7
176
     0
 79
     5
176
     0
170
     0
176
     0
171
     0
176
     0
290
     0
176
     0
 93
        1
176
     0
 44
0.0
176
     0
173
     0
176
     0
1001
ACAD
1000
AcDbSavedByObjectVersion
1070
     0
  0
VISUALSTYLE
  5
D1
102
{ACAD_XDICTIONARY
360
196
102
}
102
{ACAD_REACTORS
330
C3
102
}
330
C3
100
AcDbVisualStyle
  2
Linepattern
 70
    14
177
     2
291
     1
 71
     2
176
     1
 72
     2
176
     1
 73
     0
176
     1
 90
        0
176
     1
 40
0.6
176
     1
 41
30.0
176
     1
 63
     7
421
 16777215
176
     1
 74
     1
176
     1
 91
        4
176
     1
 64
     7
176
     1
 65
   257
176
     1
 75
     7
176
     1
175
     7
176
     1
 42
1.0
176
     1
 92
        8
176
     1
 66
     7
176
     1
 43
1.0
176
     1
 76
     1
176
     1
 77
     6
176
     1
 78
     2
176
     1
 67
     7
176
     1
 79
     5
176
     1
170
     0
176
     1
171
     0
176
     1
290
     0
176
     1
 93
        1
176
     1
 44
0.0
176
     1
173
     0
176
     1
1001
ACAD
1000
AcDbSavedByObjectVersion
1070
     0
  0
VISUALSTYLE
  5
DA
102
{ACAD_XDICTIONARY
360
1A8
102
}
102
{ACAD_REACTORS
330
C3
102
}
330
C3
100
AcDbVisualStyle
  2
OverhangOff
 70
    21
177
     2
291
     1
 71
     2
176
     0
 72
     2
176
     0
 73
     0
176
     0
 90
        0
176
     0
 40
0.6
176
     0
 41
30.0
176
     0
 63
     7
421
 16777215
176
     0
 74
     1
176
     0
 91
        4
176
     0
 64
     7
176
     0
 65
   257
176
     0
 75
     1
176
     0
175
     1
176
     0
 42
1.0
176
     0
 92
        9
176
     2
 66
     7
176
     0
 43
1.0
176
     0
 76
     1
176
     0
 77
     6
176
     0
 78
     2
176
     0
 67
     7
176
     0
 79
     5
176
     0
170
     0
176
     0
171
     0
176
     0
290
     0
176
     0
 93
        1
176
     0
 44
0.0
176
     0
173
     0
176
     0
1001
ACAD
1000
AcDbSavedByObjectVersion
1070
     0
  0
VISUALSTYLE
  5
CD
102
{ACAD_XDICTIONARY
360
18E
102
}
102
{ACAD_REACTORS
330
C3
102
}
330
C3
100
AcDbVisualStyle
  2
Realistic
 70
     8
177
     2
291
     0
 71
     2
176
     1
 72
     3
176
     1
 73
     0
176
     1
 90
        2
176
     1
 40
0.6
176
     1
 41
30.0
176
     1
 63
     7
421
 16777215
176
     1
 74
     0
176
     1
 91
        0
176
     1
 64
     7
176
     1
 65
   257
176
     1
 75
     1
176
     1
175
     1
176
     1
 42
1.0
176
     1
 92
        8
176
     1
 66
   257
176
     1
 43
1.0
176
     1
 76
     1
176
     1
 77
     6
176
     1
 78
     2
176
     1
 67
     7
176
     1
 79
     3
176
     1
170
     0
176
     1
171
     0
176
     1
290
     0
176
     1
 93
       13
176
     1
 44
0.0
176
     1
173
     0
176
     1
1001
ACAD
1000
AcDbSavedByObjectVersion
1070
     0
  0
VISUALSTYLE
  5
D8
102
{ACAD_XDICTIONARY
360
1A4
102
}
102
{ACAD_REACTORS
330
C3
102
}
330
C3
100
AcDbVisualStyle
  2
Shaded
 70
    27
177
     2
291
     0
 71
     2
176
     1
 72
     2
176
     1
 73
     1
176
     1
 90
        2
176
     1
 40
0.6
176
     1
 41
30.0
176
     1
 63
     7
421
 16777215
176
     1
 74
     0
176
     1
 91
        4
176
     1
 64
     7
176
     1
 65
   257
176
     1
 75
     1
176
     1
175
     1
176
     1
 42
1.0
176
     1
 92
        8
176
     1
 66
   257
176
     1
 43
1.0
176
     1
 76
     1
176
     1
 77
     6
176
     1
 78
     2
176
     1
 67
     8
425
  7895160
176
     1
 79
     3
176
     1
170
     0
176
     1
171
     0
176
     1
290
     0
176
     1
 93
        5
176
     1
 44
0.0
176
     1
173
     0
176
     1
1001
ACAD
1000
AcDbSavedByObjectVersion
1070
     0
  0
VISUALSTYLE
  5
D7
102
{ACAD_XDICTIONARY
360
1A2
102
}
102
{ACAD_REACTORS
330
C3
102
}
330
C3
100
AcDbVisualStyle
  2
Shaded with edges
 70
    26
177
     2
291
     0
 71
     2
176
     1
 72
     2
176
     1
 73
     1
176
     1
 90
        2
176
     1
 40
0.6
176
     1
 41
30.0
176
     1
 63
     7
421
 16777215
176
     1
 74
     1
176
     1
 91
       10
176
     1
 64
     7
176
     1
 65
   257
176
     1
 75
     2
176
     1
175
     1
176
     1
 42
1.0
176
     1
 92
        8
176
     1
 66
   257
176
     1
 43
1.0
176
     1
 76
     1
176
     1
 77
     6
176
     1
 78
     2
176
     1
 67
     7
176
     1
 79
     3
176
     1
170
     0
176
     1
171
     0
176
     1
290
     0
176
     1
 93
        5
176
     1
 44
0.0
176
     1
173
     0
176
     1
1001
ACAD
1000
AcDbSavedByObjectVersion
1070
     0
  0
VISUALSTYLE
  5
D4
102
{ACAD_XDICTIONARY
360
19C
102
}
102
{ACAD_REACTORS
330
C3
102
}
330
C3
100
AcDbVisualStyle
  2
Shades of Gray
 70
    23
177
     2
291
     0
 71
     2
176
     1
 72
     2
176
     1
 73
     3
176
     1
 90
        0
176
     1
 40
0.6
176
     1
 41
30.0
176
     1
 63
     7
421
 16777215
176
     1
 74
     2
176
     1
 91
        2
176
     1
 64
     7
176
     1
 65
     7
176
     1
 75
     1
176
     1
175
     1
176
     1
 42
40.0
176
     1
 92
        8
176
     1
 66
     7
176
     1
 43
1.0
176
     1
 76
     1
176
     1
 77
     6
176
     1
 78
     2
176
     1
 67
     7
176
     1
 79
     3
176
     1
170
     0
176
     1
171
     0
176
     1
290
     0
176
     1
 93
        1
176
     1
 44
0.0
176
     1
173
     0
176
     1
1001
ACAD
1000
AcDbSavedByObjectVersion
1070
     0
  0
VISUALSTYLE
  5
D5
102
{ACAD_XDICTIONARY
360
19E
102
}
102
{ACAD_REACTORS
330
C3
102
}
330
C3
100
AcDbVisualStyle
  2
Sketchy
 70
    24
177
     2
291
     0
 71
     1
176
     1
 72
     2
176
     1
 73
     2
176
     1
 90
        0
176
     1
 40
0.6
176
     1
 41
30.0
176
     1
 63
     7
421
 16777215
176
     1
 74
     2
176
     1
 91
        2
176
     1
 64
     7
176
     1
 65
     7
176
     1
 75
     1
176
     1
175
     1
176
     1
 42
40.0
176
     1
 92
       11
176
     1
 66
     7
176
     1
 43
1.0
176
     1
 76
     1
176
     1
 77
     6
176
     1
 78
     2
176
     1
 67
     7
176
     1
 79
     6
176
     1
170
     0
176
     1
171
     0
176
     1
290
     0
176
     1
 93
        1
176
     1
 44
0.0
176
     1
173
     0
176
     1
1001
ACAD
1000
AcDbSavedByObjectVersion
1070
     0
  0
VISUALSTYLE
  5
D0
102
{ACAD_XDICTIONARY
360
194
102
}
102
{ACAD_REACTORS
330
C3
102
}
330
C3
100
AcDbVisualStyle
  2
Thicken
 70
    13
177
     2
291
     1
 71
     2
176
     1
 72
     2
176
     1
 73
     0
176
     1
 90
        0
176
     1
 40
0.6
176
     1
 41
30.0
176
     1
 63
     7
421
 16777215
176
     1
 74
     1
176
     1
 91
        4
176
     1
 64
     7
176
     1
 65
   257
176
     1
 75
     1
176
     1
175
     1
176
     1
 42
1.0
176
     1
 92
       12
176
     1
 66
     7
176
     1
 43
1.0
176
     1
 76
     1
176
     1
 77
     6
176
     1
 78
     2
176
     1
 67
     7
176
     1
 79
     5
176
     1
170
     0
176
     1
171
     0
176
     1
290
     0
176
     1
 93
        1
176
     1
 44
0.0
176
     1
173
     0
176
     1
1001
ACAD
1000
AcDbSavedByObjectVersion
1070
     0
  0
VISUALSTYLE
  5
CA
102
{ACAD_XDICTIONARY
360
188
102
}
102
{ACAD_REACTORS
330
C3
102
}
330
C3
100
AcDbVisualStyle
  2
Wireframe
 70
     5
177
     2
291
     0
 71
     0
176
     1
 72
     2
176
     1
 73
     0
176
     1
 90
        0
176
     1
 40
0.6
176
     1
 41
30.0
176
     1
 63
     7
421
 16777215
176
     1
 74
     1
176
     1
 91
        4
176
     1
 64
     7
176
     1
 65
   257
176
     1
 75
     1
176
     1
175
     1
176
     1
 42
1.0
176
     1
 92
        0
176
     1
 66
   257
176
     1
 43
1.0
176
     1
 76
     1
176
     1
 77
     6
176
     1
 78
     2
176
     1
 67
     7
176
     1
 79
     3
176
     1
170
     0
176
     1
171
     0
176
     1
290
     0
176
     1
 93
        1
176
     1
 44
0.0
176
     1
173
     0
176
     1
1001
ACAD
1000
AcDbSavedByObjectVersion
1070
     0
  0
VISUALSTYLE
  5
D6
102
{ACAD_XDICTIONARY
360
1A0
102
}
102
{ACAD_REACTORS
330
C3
102
}
330
C3
100
AcDbVisualStyle
  2
X-Ray
 70
    25
177
     2
291
     0
 71
     2
176
     1
 72
     2
176
     1
 73
     1
176
     1
 90
        1
176
     1
 40
0.5
176
     1
 41
30.0
176
     1
 63
     7
421
 16777215
176
     1
 74
     1
176
     1
 91
        0
176
     1
 64
     7
176
     1
 65
   257
176
     1
 75
     1
176
     1
175
     1
176
     1
 42
1.0
176
     1
 92
        8
176
     1
 66
     7
176
     1
 43
1.0
176
     1
 76
     1
176
     1
 77
     6
176
     1
 78
     2
176
     1
 67
     7
176
     1
 79
     3
176
     1
170
     0
176
     1
171
     0
176
     1
290
     0
176
     1
 93
       13
176
     1
 44
0.0
176
     1
173
     0
176
     1
1001
ACAD
1000
AcDbSavedByObjectVersion
1070
     0
  0
DICTIONARYVAR
  5
175
102
{ACAD_REACTORS
330
16F
102
}
330
16F
100
DictionaryVariables
280
     0
  1
1:1
  0
DICTIONARYVAR
  5
171
102
{ACAD_REACTORS
330
16F
102
}
330
16F
100
DictionaryVariables
280
     0
  1
STANDARD
  0
DICTIONARYVAR
  5
170
102
{ACAD_REACTORS
330
16F
102
}
330
16F
100
DictionaryVariables
280
     0
  1
STANDARD
  0
DICTIONARYVAR
  5
172
102
{ACAD_REACTORS
330
16F
102
}
330
16F
100
DictionaryVariables
280
     0
  1
Imperial24
  0
DICTIONARYVAR
  5
173
102
{ACAD_REACTORS
330
16F
102
}
330
16F
100
DictionaryVariables
280
     0
  1
Imperial24
  0
DICTIONARYVAR
  5
177
102
{ACAD_REACTORS
330
16F
102
}
330
16F
100
DictionaryVariables
280
     0
  1
1
  0
DICTIONARYVAR
  5
178
102
{ACAD_REACTORS
330
16F
102
}
330
16F
100
DictionaryVariables
280
     0
  1
15
  0
DICTIONARYVAR
  5
176
102
{ACAD_REACTORS
330
16F
102
}
330
16F
100
DictionaryVariables
280
     0
  1
0
  0
DICTIONARYVAR
  5
174
102
{ACAD_REACTORS
330
16F
102
}
330
16F
100
DictionaryVariables
280
     0
  1
0
  0
DICTIONARY
  5
1B0
330
F6
100
AcDbDictionary
280
     1
281
     1
  3
ACAD_XREC_ROUNDTRIP
360
1B1
  0
DICTIONARY
  5
B4
330
B3
100
AcDbDictionary
280
     1
281
     1
  3
BUMPTILE
360
B6
  3
DIFFUSETILE
360
B5
  3
OPACITYTILE
360
B9
  3
REFLECTIONTILE
360
B8
  3
REFRACTIONTILE
360
BA
  3
SPECULARTILE
360
B7
  0
DICTIONARY
  5
AC
330
AB
100
AcDbDictionary
280
     1
281
     1
  3
BUMPTILE
360
AE
  3
DIFFUSETILE
360
AD
  3
OPACITYTILE
360
B1
  3
REFLECTIONTILE
360
B0
  3
REFRACTIONTILE
360
B2
  3
SPECULARTILE
360
AF
  0
DICTIONARY
  5
BC
330
BB
100
AcDbDictionary
280
     1
281
     1
  3
BUMPTILE
360
BE
  3
DIFFUSETILE
360
BD
  3
OPACITYTILE
360
C1
  3
REFLECTIONTILE
360
C0
  3
REFRACTIONTILE
360
C2
  3
SPECULARTILE
360
BF
  0
DICTIONARY
  5
1AC
330
F2
100
AcDbDictionary
280
     1
281
     1
  3
ACAD_XREC_ROUNDTRIP
360
1AD
  0
DICTIONARY
  5
1AE
330
F4
100
AcDbDictionary
280
     1
281
     1
  3
ACAD_XREC_ROUNDTRIP
360
1AF
  0
DICTIONARY
  5
179
330
DE
100
AcDbDictionary
280
     1
281
     1
  3
ACAD_ROUNDTRIP_2008_TABLESTYLE_CELLSTYLEMAP
360
17A
  0
DICTIONARY
  5
186
330
C9
100
AcDbDictionary
280
     1
281
     1
  3
ACAD_XREC_ROUNDTRIP
360
187
  0
DICTIONARY
  5
184
330
C8
100
AcDbDictionary
280
     1
281
     1
  3
ACAD_XREC_ROUNDTRIP
360
185
  0
DICTIONARY
  5
192
330
CF
100
AcDbDictionary
280
     1
281
     1
  3
ACAD_XREC_ROUNDTRIP
360
193
  0
DICTIONARY
  5
19A
330
D3
100
AcDbDictionary
280
     1
281
     1
  3
ACAD_XREC_ROUNDTRIP
360
19B
  0
DICTIONARY
  5
18C
330
CC
100
AcDbDictionary
280
     1
281
     1
  3
ACAD_XREC_ROUNDTRIP
360
18D
  0
DICTIONARY
  5
190
330
CE
100
AcDbDictionary
280
     1
281
     1
  3
ACAD_XREC_ROUNDTRIP
360
191
  0
DICTIONARY
  5
1AA
330
DB
100
AcDbDictionary
280
     1
281
     1
  3
ACAD_XREC_ROUNDTRIP
360
1AB
  0
DICTIONARY
  5
198
330
D2
100
AcDbDictionary
280
     1
281
     1
  3
ACAD_XREC_ROUNDTRIP
360
199
  0
DICTIONARY
  5
17C
330
C4
100
AcDbDictionary
280
     1
281
     1
  3
ACAD_XREC_ROUNDTRIP
360
17D
  0
DICTIONARY
  5
17E
330
C5
100
AcDbDictionary
280
     1
281
     1
  3
ACAD_XREC_ROUNDTRIP
360
17F
  0
DICTIONARY
  5
180
330
C6
100
AcDbDictionary
280
     1
281
     1
  3
ACAD_XREC_ROUNDTRIP
360
181
  0
DICTIONARY
  5
182
330
C7
100
AcDbDictionary
280
     1
281
     1
  3
ACAD_XREC_ROUNDTRIP
360
183
  0
DICTIONARY
  5
18A
330
CB
100
AcDbDictionary
280
     1
281
     1
  3
ACAD_XREC_ROUNDTRIP
360
18B
  0
DICTIONARY
  5
1A6
330
D9
100
AcDbDictionary
280
     1
281
     1
  3
ACAD_XREC_ROUNDTRIP
360
1A7
  0
DICTIONARY
  5
196
330
D1
100
AcDbDictionary
280
     1
281
     1
  3
ACAD_XREC_ROUNDTRIP
360
197
  0
DICTIONARY
  5
1A8
330
DA
100
AcDbDictionary
280
     1
281
     1
  3
ACAD_XREC_ROUNDTRIP
360
1A9
  0
DICTIONARY
  5
18E
330
CD
100
AcDbDictionary
280
     1
281
     1
  3
ACAD_XREC_ROUNDTRIP
360
18F
  0
DICTIONARY
  5
1A4
330
D8
100
AcDbDictionary
280
     1
281
     1
  3
ACAD_XREC_ROUNDTRIP
360
1A5
  0
DICTIONARY
  5
1A2
330
D7
100
AcDbDictionary
280
     1
281
     1
  3
ACAD_XREC_ROUNDTRIP
360
1A3
  0
DICTIONARY
  5
19C
330
D4
100
AcDbDictionary
280
     1
281
     1
  3
ACAD_XREC_ROUNDTRIP
360
19D
  0
DICTIONARY
  5
19E
330
D5
100
AcDbDictionary
280
     1
281
     1
  3
ACAD_XREC_ROUNDTRIP
360
19F
  0
DICTIONARY
  5
194
330
D0
100
AcDbDictionary
280
     1
281
     1
  3
ACAD_XREC_ROUNDTRIP
360
195
  0
DICTIONARY
  5
188
330
CA
100
AcDbDictionary
280
     1
281
     1
  3
ACAD_XREC_ROUNDTRIP
360
189
  0
DICTIONARY
  5
1A0
330
D6
100
AcDbDictionary
280
     1
281
     1
  3
ACAD_XREC_ROUNDTRIP
360
1A1
  0
XRECORD
  5
1B1
102
{ACAD_REACTORS
330
1B0
102
}
330
1B0
100
AcDbXrecord
280
     1
102
DISPLAYNAME
  1
Imperial24
102
FLAGS
 90
        0
  0
XRECORD
  5
B6
102
{ACAD_REACTORS
330
B4
102
}
330
B4
100
AcDbXrecord
280
     1
270
     1
271
     1
  0
XRECORD
  5
B5
102
{ACAD_REACTORS
330
B4
102
}
330
B4
100
AcDbXrecord
280
     1
270
     1
271
     1
  0
XRECORD
  5
B9
102
{ACAD_REACTORS
330
B4
102
}
330
B4
100
AcDbXrecord
280
     1
270
     1
271
     1
  0
XRECORD
  5
B8
102
{ACAD_REACTORS
330
B4
102
}
330
B4
100
AcDbXrecord
280
     1
270
     1
271
     1
  0
XRECORD
  5
BA
102
{ACAD_REACTORS
330
B4
102
}
330
B4
100
AcDbXrecord
280
     1
270
     1
271
     1
  0
XRECORD
  5
B7
102
{ACAD_REACTORS
330
B4
102
}
330
B4
100
AcDbXrecord
280
     1
270
     1
271
     1
  0
XRECORD
  5
AE
102
{ACAD_REACTORS
330
AC
102
}
330
AC
100
AcDbXrecord
280
     1
270
     1
271
     1
  0
XRECORD
  5
AD
102
{ACAD_REACTORS
330
AC
102
}
330
AC
100
AcDbXrecord
280
     1
270
     1
271
     1
  0
XRECORD
  5
B1
102
{ACAD_REACTORS
330
AC
102
}
330
AC
100
AcDbXrecord
280
     1
270
     1
271
     1
  0
XRECORD
  5
B0
102
{ACAD_REACTORS
330
AC
102
}
330
AC
100
AcDbXrecord
280
     1
270
     1
271
     1
  0
XRECORD
  5
B2
102
{ACAD_REACTORS
330
AC
102
}
330
AC
100
AcDbXrecord
280
     1
270
     1
271
     1
  0
XRECORD
  5
AF
102
{ACAD_REACTORS
330
AC
102
}
330
AC
100
AcDbXrecord
280
     1
270
     1
271
     1
  0
XRECORD
  5
BE
102
{ACAD_REACTORS
330
BC
102
}
330
BC
100
AcDbXrecord
280
     1
270
     1
271
     1
  0
XRECORD
  5
BD
102
{ACAD_REACTORS
330
BC
102
}
330
BC
100
AcDbXrecord
280
     1
270
     1
271
     1
  0
XRECORD
  5
C1
102
{ACAD_REACTORS
330
BC
102
}
330
BC
100
AcDbXrecord
280
     1
270
     1
271
     1
  0
XRECORD
  5
C0
102
{ACAD_REACTORS
330
BC
102
}
330
BC
100
AcDbXrecord
280
     1
270
     1
271
     1
  0
XRECORD
  5
C2
102
{ACAD_REACTORS
330
BC
102
}
330
BC
100
AcDbXrecord
280
     1
270
     1
271
     1
  0
XRECORD
  5
BF
102
{ACAD_REACTORS
330
BC
102
}
330
BC
100
AcDbXrecord
280
     1
270
     1
271
     1
  0
XRECORD
  5
1AD
102
{ACAD_REACTORS
330
1AC
102
}
330
1AC
100
AcDbXrecord
280
     1
102
ACAD_ROUNDTRIP_2012_MLEADER_STYLE
298
     1
  0
XRECORD
  5
1AF
102
{ACAD_REACTORS
330
1AE
102
}
330
1AE
100
AcDbXrecord
280
     1
102
DISPLAYNAME
  1
Imperial24
102
FLAGS
 90
        0
  0
CELLSTYLEMAP
  5
17A
102
{ACAD_REACTORS
330
179
102
}
330
179
100
AcDbCellStyleMap
 90
        3
300
CELLSTYLE
  1
TABLEFORMAT_BEGIN
 90
        5
170
     1
 91
        0
 92
    32768
 62
   257
 93
        1
300
CONTENTFORMAT
  1
CONTENTFORMAT_BEGIN
 90
        0
 91
        0
 92
      512
 93
        0
300

 40
0.0
140
1.0
 94
        5
 62
     0
340
11
144
0.25
309
CONTENTFORMAT_END
171
     0
 94
        0
309
TABLEFORMAT_END
  1
CELLSTYLE_BEGIN
 90
        1
 91
        1
300
_TITLE
309
CELLSTYLE_END
300
CELLSTYLE
  1
TABLEFORMAT_BEGIN
 90
        5
170
     1
 91
        0
 92
        0
 62
   257
 93
        1
300
CONTENTFORMAT
  1
CONTENTFORMAT_BEGIN
 90
        0
 91
        0
 92
      512
 93
        0
300

 40
0.0
140
1.0
 94
        5
 62
     0
340
11
144
0.18
309
CONTENTFORMAT_END
171
     0
 94
        0
309
TABLEFORMAT_END
  1
CELLSTYLE_BEGIN
 90
        2
 91
        1
300
_HEADER
309
CELLSTYLE_END
300
CELLSTYLE
  1
TABLEFORMAT_BEGIN
 90
        5
170
     1
 91
        0
 92
        0
 62
   257
 93
        1
300
CONTENTFORMAT
  1
CONTENTFORMAT_BEGIN
 90
        0
 91
        0
 92
      512
 93
        0
300

 40
0.0
140
1.0
 94
        2
 62
     0
340
11
144
0.18
309
CONTENTFORMAT_END
171
     0
 94
        0
309
TABLEFORMAT_END
  1
CELLSTYLE_BEGIN
 90
        3
 91
        2
300
_DATA
309
CELLSTYLE_END
  0
XRECORD
  5
187
102
{ACAD_REACTORS
330
186
102
}
330
186
100
AcDbXrecord
280
     1
102
RTVSPost2010Prop28
280
     1
102
RTVSPost2010PropOp28
 70
     1
102
RTVSPost2010Prop29
280
     1
102
RTVSPost2010PropOp29
 70
     1
102
RTVSPost2010Prop30
280
     0
102
RTVSPost2010PropOp30
 70
     1
102
RTVSPost2010Prop31
280
     0
102
RTVSPost2010PropOp31
 70
     1
102
RTVSPost2010Prop32
280
     0
102
RTVSPost2010PropOp32
 70
     1
102
RTVSPost2010Prop33
280
     0
102
RTVSPost2010PropOp33
 70
     1
102
RTVSPost2010Prop34
280
     0
102
RTVSPost2010PropOp34
 70
     1
102
RTVSPost2010Prop35
280
     0
102
RTVSPost2010PropOp35
 70
     1
102
RTVSPost2010Prop36
280
     0
102
RTVSPost2010PropOp36
 70
     1
102
RTVSPost2010Prop37
 90
       50
102
RTVSPost2010PropOp37
 70
     1
102
RTVSPost2010Prop38
140
0.0
102
RTVSPost2010PropOp38
 70
     1
102
RTVSPost2010Prop39
140
1.0
102
RTVSPost2010PropOp39
 70
     1
102
RTVSPost2010Prop40
 90
        0
102
RTVSPost2010PropOp40
 70
     1
102
RTVSPost2010Prop41ColorIndex
 90
       18
102
RTVSPost2010Prop41ColorRGB
 90
        0
102
RTVSPost2010PropOp41
 70
     1
102
RTVSPost2010Prop42
 90
       50
102
RTVSPost2010PropOp42
 70
     1
102
RTVSPost2010Prop43
 90
        3
102
RTVSPost2010PropOp43
 70
     1
102
RTVSPost2010Prop44ColorIndex
 90
        5
102
RTVSPost2010Prop44ColorRGB
 90
      255
102
RTVSPost2010PropOp44
 70
     1
102
RTVSPost2010Prop45
280
     0
102
RTVSPost2010PropOp45
 70
     1
102
RTVSPost2010Prop46
 90
       50
102
RTVSPost2010PropOp46
 70
     1
102
RTVSPost2010Prop47
 90
       50
102
RTVSPost2010PropOp47
 70
     1
102
RTVSPost2010Prop48
 90
       50
102
RTVSPost2010PropOp48
 70
     1
102
RTVSPost2010Prop49
280
     0
102
RTVSPost2010PropOp49
 70
     1
102
RTVSPost2010Prop50
 90
       50
102
RTVSPost2010PropOp50
 70
     1
102
RTVSPost2010Prop51ColorIndex
 90
      256
102
RTVSPost2010Prop51ColorRGB
 90
-16777216
102
RTVSPost2010PropOp51
 70
     0
102
RTVSPost2010Prop52
140
1.0
102
RTVSPost2010PropOp52
 70
     0
102
RTVSPost2010Prop53
 90
        2
102
RTVSPost2010PropOp53
 70
     1
102
RTVSPost2010Prop54
  1
strokes_ogs.tif
102
RTVSPost2010PropOp54
 70
     1
102
RTVSPost2010Prop55
280
     0
102
RTVSPost2010PropOp55
 70
     1
102
RTVSPost2010Prop56
140
1.0
102
RTVSPost2010PropOp56
 70
     1
102
RTVSPost2010Prop57
140
1.0
102
RTVSPost2010PropOp57
 70
     1
  0
XRECORD
  5
185
102
{ACAD_REACTORS
330
184
102
}
330
184
100
AcDbXrecord
280
     1
102
RTVSPost2010Prop28
280
     0
102
RTVSPost2010PropOp28
 70
     1
102
RTVSPost2010Prop29
280
     1
102
RTVSPost2010PropOp29
 70
     1
102
RTVSPost2010Prop30
280
     1
102
RTVSPost2010PropOp30
 70
     1
102
RTVSPost2010Prop31
280
     0
102
RTVSPost2010PropOp31
 70
     1
102
RTVSPost2010Prop32
280
     0
102
RTVSPost2010PropOp32
 70
     1
102
RTVSPost2010Prop33
280
     0
102
RTVSPost2010PropOp33
 70
     1
102
RTVSPost2010Prop34
280
     0
102
RTVSPost2010PropOp34
 70
     1
102
RTVSPost2010Prop35
280
     0
102
RTVSPost2010PropOp35
 70
     1
102
RTVSPost2010Prop36
280
     0
102
RTVSPost2010PropOp36
 70
     1
102
RTVSPost2010Prop37
 90
       50
102
RTVSPost2010PropOp37
 70
     1
102
RTVSPost2010Prop38
140
0.0
102
RTVSPost2010PropOp38
 70
     1
102
RTVSPost2010Prop39
140
1.0
102
RTVSPost2010PropOp39
 70
     1
102
RTVSPost2010Prop40
 90
        0
102
RTVSPost2010PropOp40
 70
     1
102
RTVSPost2010Prop41ColorIndex
 90
       18
102
RTVSPost2010Prop41ColorRGB
 90
        0
102
RTVSPost2010PropOp41
 70
     1
102
RTVSPost2010Prop42
 90
       50
102
RTVSPost2010PropOp42
 70
     1
102
RTVSPost2010Prop43
 90
        3
102
RTVSPost2010PropOp43
 70
     1
102
RTVSPost2010Prop44ColorIndex
 90
        5
102
RTVSPost2010Prop44ColorRGB
 90
      255
102
RTVSPost2010PropOp44
 70
     1
102
RTVSPost2010Prop45
280
     0
102
RTVSPost2010PropOp45
 70
     1
102
RTVSPost2010Prop46
 90
       50
102
RTVSPost2010PropOp46
 70
     1
102
RTVSPost2010Prop47
 90
       50
102
RTVSPost2010PropOp47
 70
     1
102
RTVSPost2010Prop48
 90
       50
102
RTVSPost2010PropOp48
 70
     1
102
RTVSPost2010Prop49
280
     0
102
RTVSPost2010PropOp49
 70
     1
102
RTVSPost2010Prop50
 90
       50
102
RTVSPost2010PropOp50
 70
     1
102
RTVSPost2010Prop51ColorIndex
 90
      256
102
RTVSPost2010Prop51ColorRGB
 90
-16777216
102
RTVSPost2010PropOp51
 70
     0
102
RTVSPost2010Prop52
140
1.0
102
RTVSPost2010PropOp52
 70
     0
102
RTVSPost2010Prop53
 90
        2
102
RTVSPost2010PropOp53
 70
     1
102
RTVSPost2010Prop54
  1
strokes_ogs.tif
102
RTVSPost2010PropOp54
 70
     1
102
RTVSPost2010Prop55
280
     0
102
RTVSPost2010PropOp55
 70
     1
102
RTVSPost2010Prop56
140
1.0
102
RTVSPost2010PropOp56
 70
     1
102
RTVSPost2010Prop57
140
1.0
102
RTVSPost2010PropOp57
 70
     1
  0
XRECORD
  5
193
102
{ACAD_REACTORS
330
192
102
}
330
192
100
AcDbXrecord
280
     1
102
RTVSPost2010Prop28
280
     0
102
RTVSPost2010PropOp28
 70
     1
102
RTVSPost2010Prop29
280
     1
102
RTVSPost2010PropOp29
 70
     1
102
RTVSPost2010Prop30
280
     1
102
RTVSPost2010PropOp30
 70
     1
102
RTVSPost2010Prop31
280
     0
102
RTVSPost2010PropOp31
 70
     1
102
RTVSPost2010Prop32
280
     0
102
RTVSPost2010PropOp32
 70
     1
102
RTVSPost2010Prop33
280
     0
102
RTVSPost2010PropOp33
 70
     1
102
RTVSPost2010Prop34
280
     0
102
RTVSPost2010PropOp34
 70
     1
102
RTVSPost2010Prop35
280
     0
102
RTVSPost2010PropOp35
 70
     1
102
RTVSPost2010Prop36
280
     0
102
RTVSPost2010PropOp36
 70
     1
102
RTVSPost2010Prop37
 90
       50
102
RTVSPost2010PropOp37
 70
     1
102
RTVSPost2010Prop38
140
0.0
102
RTVSPost2010PropOp38
 70
     1
102
RTVSPost2010Prop39
140
1.0
102
RTVSPost2010PropOp39
 70
     1
102
RTVSPost2010Prop40
 90
        0
102
RTVSPost2010PropOp40
 70
     1
102
RTVSPost2010Prop41ColorIndex
 90
       18
102
RTVSPost2010Prop41ColorRGB
 90
        0
102
RTVSPost2010PropOp41
 70
     1
102
RTVSPost2010Prop42
 90
       50
102
RTVSPost2010PropOp42
 70
     1
102
RTVSPost2010Prop43
 90
        3
102
RTVSPost2010PropOp43
 70
     1
102
RTVSPost2010Prop44ColorIndex
 90
        5
102
RTVSPost2010Prop44ColorRGB
 90
      255
102
RTVSPost2010PropOp44
 70
     1
102
RTVSPost2010Prop45
280
     0
102
RTVSPost2010PropOp45
 70
     1
102
RTVSPost2010Prop46
 90
       50
102
RTVSPost2010PropOp46
 70
     1
102
RTVSPost2010Prop47
 90
       50
102
RTVSPost2010PropOp47
 70
     1
102
RTVSPost2010Prop48
 90
       50
102
RTVSPost2010PropOp48
 70
     1
102
RTVSPost2010Prop49
280
     0
102
RTVSPost2010PropOp49
 70
     1
102
RTVSPost2010Prop50
 90
       50
102
RTVSPost2010PropOp50
 70
     1
102
RTVSPost2010Prop51ColorIndex
 90
      256
102
RTVSPost2010Prop51ColorRGB
 90
-16777216
102
RTVSPost2010PropOp51
 70
     0
102
RTVSPost2010Prop52
140
1.0
102
RTVSPost2010PropOp52
 70
     0
102
RTVSPost2010Prop53
 90
        2
102
RTVSPost2010PropOp53
 70
     1
102
RTVSPost2010Prop54
  1
strokes_ogs.tif
102
RTVSPost2010PropOp54
 70
     1
102
RTVSPost2010Prop55
280
     0
102
RTVSPost2010PropOp55
 70
     1
102
RTVSPost2010Prop56
140
1.0
102
RTVSPost2010PropOp56
 70
     1
102
RTVSPost2010Prop57
140
1.0
102
RTVSPost2010PropOp57
 70
     1
  0
XRECORD
  5
19B
102
{ACAD_REACTORS
330
19A
102
}
330
19A
100
AcDbXrecord
280
     1
102
RTVSPost2010Prop28
280
     0
102
RTVSPost2010PropOp28
 70
     1
102
RTVSPost2010Prop29
280
     1
102
RTVSPost2010PropOp29
 70
     1
102
RTVSPost2010Prop30
280
     1
102
RTVSPost2010PropOp30
 70
     1
102
RTVSPost2010Prop31
280
     0
102
RTVSPost2010PropOp31
 70
     1
102
RTVSPost2010Prop32
280
     0
102
RTVSPost2010PropOp32
 70
     1
102
RTVSPost2010Prop33
280
     0
102
RTVSPost2010PropOp33
 70
     1
102
RTVSPost2010Prop34
280
     0
102
RTVSPost2010PropOp34
 70
     1
102
RTVSPost2010Prop35
280
     0
102
RTVSPost2010PropOp35
 70
     1
102
RTVSPost2010Prop36
280
     0
102
RTVSPost2010PropOp36
 70
     1
102
RTVSPost2010Prop37
 90
       50
102
RTVSPost2010PropOp37
 70
     1
102
RTVSPost2010Prop38
140
0.0
102
RTVSPost2010PropOp38
 70
     1
102
RTVSPost2010Prop39
140
1.0
102
RTVSPost2010PropOp39
 70
     1
102
RTVSPost2010Prop40
 90
        0
102
RTVSPost2010PropOp40
 70
     1
102
RTVSPost2010Prop41ColorIndex
 90
       18
102
RTVSPost2010Prop41ColorRGB
 90
        0
102
RTVSPost2010PropOp41
 70
     1
102
RTVSPost2010Prop42
 90
       50
102
RTVSPost2010PropOp42
 70
     1
102
RTVSPost2010Prop43
 90
        3
102
RTVSPost2010PropOp43
 70
     1
102
RTVSPost2010Prop44ColorIndex
 90
        5
102
RTVSPost2010Prop44ColorRGB
 90
      255
102
RTVSPost2010PropOp44
 70
     1
102
RTVSPost2010Prop45
280
     0
102
RTVSPost2010PropOp45
 70
     1
102
RTVSPost2010Prop46
 90
       50
102
RTVSPost2010PropOp46
 70
     1
102
RTVSPost2010Prop47
 90
       50
102
RTVSPost2010PropOp47
 70
     1
102
RTVSPost2010Prop48
 90
       50
102
RTVSPost2010PropOp48
 70
     1
102
RTVSPost2010Prop49
280
     0
102
RTVSPost2010PropOp49
 70
     1
102
RTVSPost2010Prop50
 90
       50
102
RTVSPost2010PropOp50
 70
     1
102
RTVSPost2010Prop51ColorIndex
 90
      256
102
RTVSPost2010Prop51ColorRGB
 90
-16777216
102
RTVSPost2010PropOp51
 70
     0
102
RTVSPost2010Prop52
140
1.0
102
RTVSPost2010PropOp52
 70
     0
102
RTVSPost2010Prop53
 90
        2
102
RTVSPost2010PropOp53
 70
     1
102
RTVSPost2010Prop54
  1
strokes_ogs.tif
102
RTVSPost2010PropOp54
 70
     1
102
RTVSPost2010Prop55
280
     0
102
RTVSPost2010PropOp55
 70
     1
102
RTVSPost2010Prop56
140
1.0
102
RTVSPost2010PropOp56
 70
     1
102
RTVSPost2010Prop57
140
1.0
102
RTVSPost2010PropOp57
 70
     1
  0
XRECORD
  5
18D
102
{ACAD_REACTORS
330
18C
102
}
330
18C
100
AcDbXrecord
280
     1
102
RTVSPost2010Prop28
280
     0
102
RTVSPost2010PropOp28
 70
     1
102
RTVSPost2010Prop29
280
     1
102
RTVSPost2010PropOp29
 70
     1
102
RTVSPost2010Prop30
280
     1
102
RTVSPost2010PropOp30
 70
     1
102
RTVSPost2010Prop31
280
     0
102
RTVSPost2010PropOp31
 70
     1
102
RTVSPost2010Prop32
280
     0
102
RTVSPost2010PropOp32
 70
     1
102
RTVSPost2010Prop33
280
     0
102
RTVSPost2010PropOp33
 70
     1
102
RTVSPost2010Prop34
280
     0
102
RTVSPost2010PropOp34
 70
     1
102
RTVSPost2010Prop35
280
     0
102
RTVSPost2010PropOp35
 70
     1
102
RTVSPost2010Prop36
280
     0
102
RTVSPost2010PropOp36
 70
     1
102
RTVSPost2010Prop37
 90
       50
102
RTVSPost2010PropOp37
 70
     1
102
RTVSPost2010Prop38
140
0.0
102
RTVSPost2010PropOp38
 70
     1
102
RTVSPost2010Prop39
140
1.0
102
RTVSPost2010PropOp39
 70
     1
102
RTVSPost2010Prop40
 90
        0
102
RTVSPost2010PropOp40
 70
     1
102
RTVSPost2010Prop41ColorIndex
 90
       18
102
RTVSPost2010Prop41ColorRGB
 90
        0
102
RTVSPost2010PropOp41
 70
     1
102
RTVSPost2010Prop42
 90
       50
102
RTVSPost2010PropOp42
 70
     1
102
RTVSPost2010Prop43
 90
        3
102
RTVSPost2010PropOp43
 70
     1
102
RTVSPost2010Prop44ColorIndex
 90
        5
102
RTVSPost2010Prop44ColorRGB
 90
      255
102
RTVSPost2010PropOp44
 70
     1
102
RTVSPost2010Prop45
280
     0
102
RTVSPost2010PropOp45
 70
     1
102
RTVSPost2010Prop46
 90
       50
102
RTVSPost2010PropOp46
 70
     1
102
RTVSPost2010Prop47
 90
       50
102
RTVSPost2010PropOp47
 70
     1
102
RTVSPost2010Prop48
 90
       50
102
RTVSPost2010PropOp48
 70
     1
102
RTVSPost2010Prop49
280
     0
102
RTVSPost2010PropOp49
 70
     1
102
RTVSPost2010Prop50
 90
       50
102
RTVSPost2010PropOp50
 70
     1
102
RTVSPost2010Prop51ColorIndex
 90
      256
102
RTVSPost2010Prop51ColorRGB
 90
-16777216
102
RTVSPost2010PropOp51
 70
     0
102
RTVSPost2010Prop52
140
1.0
102
RTVSPost2010PropOp52
 70
     0
102
RTVSPost2010Prop53
 90
        2
102
RTVSPost2010PropOp53
 70
     1
102
RTVSPost2010Prop54
  1
strokes_ogs.tif
102
RTVSPost2010PropOp54
 70
     1
102
RTVSPost2010Prop55
280
     0
102
RTVSPost2010PropOp55
 70
     1
102
RTVSPost2010Prop56
140
1.0
102
RTVSPost2010PropOp56
 70
     1
102
RTVSPost2010Prop57
140
1.0
102
RTVSPost2010PropOp57
 70
     1
  0
XRECORD
  5
191
102
{ACAD_REACTORS
330
190
102
}
330
190
100
AcDbXrecord
280
     1
102
RTVSPost2010Prop28
280
     0
102
RTVSPost2010PropOp28
 70
     1
102
RTVSPost2010Prop29
280
     1
102
RTVSPost2010PropOp29
 70
     1
102
RTVSPost2010Prop30
280
     1
102
RTVSPost2010PropOp30
 70
     1
102
RTVSPost2010Prop31
280
     0
102
RTVSPost2010PropOp31
 70
     1
102
RTVSPost2010Prop32
280
     0
102
RTVSPost2010PropOp32
 70
     1
102
RTVSPost2010Prop33
280
     0
102
RTVSPost2010PropOp33
 70
     1
102
RTVSPost2010Prop34
280
     0
102
RTVSPost2010PropOp34
 70
     1
102
RTVSPost2010Prop35
280
     0
102
RTVSPost2010PropOp35
 70
     1
102
RTVSPost2010Prop36
280
     0
102
RTVSPost2010PropOp36
 70
     1
102
RTVSPost2010Prop37
 90
       50
102
RTVSPost2010PropOp37
 70
     1
102
RTVSPost2010Prop38
140
0.0
102
RTVSPost2010PropOp38
 70
     1
102
RTVSPost2010Prop39
140
1.0
102
RTVSPost2010PropOp39
 70
     1
102
RTVSPost2010Prop40
 90
        0
102
RTVSPost2010PropOp40
 70
     1
102
RTVSPost2010Prop41ColorIndex
 90
       18
102
RTVSPost2010Prop41ColorRGB
 90
        0
102
RTVSPost2010PropOp41
 70
     1
102
RTVSPost2010Prop42
 90
       50
102
RTVSPost2010PropOp42
 70
     1
102
RTVSPost2010Prop43
 90
        3
102
RTVSPost2010PropOp43
 70
     1
102
RTVSPost2010Prop44ColorIndex
 90
        5
102
RTVSPost2010Prop44ColorRGB
 90
      255
102
RTVSPost2010PropOp44
 70
     1
102
RTVSPost2010Prop45
280
     0
102
RTVSPost2010PropOp45
 70
     1
102
RTVSPost2010Prop46
 90
       50
102
RTVSPost2010PropOp46
 70
     1
102
RTVSPost2010Prop47
 90
       50
102
RTVSPost2010PropOp47
 70
     1
102
RTVSPost2010Prop48
 90
       50
102
RTVSPost2010PropOp48
 70
     1
102
RTVSPost2010Prop49
280
     0
102
RTVSPost2010PropOp49
 70
     1
102
RTVSPost2010Prop50
 90
       50
102
RTVSPost2010PropOp50
 70
     1
102
RTVSPost2010Prop51ColorIndex
 90
      256
102
RTVSPost2010Prop51ColorRGB
 90
-16777216
102
RTVSPost2010PropOp51
 70
     0
102
RTVSPost2010Prop52
140
1.0
102
RTVSPost2010PropOp52
 70
     0
102
RTVSPost2010Prop53
 90
        2
102
RTVSPost2010PropOp53
 70
     1
102
RTVSPost2010Prop54
  1
strokes_ogs.tif
102
RTVSPost2010PropOp54
 70
     1
102
RTVSPost2010Prop55
280
     0
102
RTVSPost2010PropOp55
 70
     1
102
RTVSPost2010Prop56
140
1.0
102
RTVSPost2010PropOp56
 70
     1
102
RTVSPost2010Prop57
140
1.0
102
RTVSPost2010PropOp57
 70
     1
  0
XRECORD
  5
1AB
102
{ACAD_REACTORS
330
1AA
102
}
330
1AA
100
AcDbXrecord
280
     1
102
RTVSPost2010Prop28
280
     0
102
RTVSPost2010PropOp28
 70
     0
102
RTVSPost2010Prop29
280
     1
102
RTVSPost2010PropOp29
 70
     0
102
RTVSPost2010Prop30
280
     1
102
RTVSPost2010PropOp30
 70
     0
102
RTVSPost2010Prop31
280
     0
102
RTVSPost2010PropOp31
 70
     0
102
RTVSPost2010Prop32
280
     0
102
RTVSPost2010PropOp32
 70
     0
102
RTVSPost2010Prop33
280
     0
102
RTVSPost2010PropOp33
 70
     0
102
RTVSPost2010Prop34
280
     0
102
RTVSPost2010PropOp34
 70
     0
102
RTVSPost2010Prop35
280
     0
102
RTVSPost2010PropOp35
 70
     0
102
RTVSPost2010Prop36
280
     0
102
RTVSPost2010PropOp36
 70
     0
102
RTVSPost2010Prop37
 90
       50
102
RTVSPost2010PropOp37
 70
     0
102
RTVSPost2010Prop38
140
0.0
102
RTVSPost2010PropOp38
 70
     0
102
RTVSPost2010Prop39
140
1.0
102
RTVSPost2010PropOp39
 70
     0
102
RTVSPost2010Prop40
 90
        0
102
RTVSPost2010PropOp40
 70
     0
102
RTVSPost2010Prop41ColorIndex
 90
       18
102
RTVSPost2010Prop41ColorRGB
 90
        0
102
RTVSPost2010PropOp41
 70
     0
102
RTVSPost2010Prop42
 90
       50
102
RTVSPost2010PropOp42
 70
     0
102
RTVSPost2010Prop43
 90
        3
102
RTVSPost2010PropOp43
 70
     0
102
RTVSPost2010Prop44ColorIndex
 90
        5
102
RTVSPost2010Prop44ColorRGB
 90
      255
102
RTVSPost2010PropOp44
 70
     0
102
RTVSPost2010Prop45
280
     0
102
RTVSPost2010PropOp45
 70
     0
102
RTVSPost2010Prop46
 90
       50
102
RTVSPost2010PropOp46
 70
     0
102
RTVSPost2010Prop47
 90
       50
102
RTVSPost2010PropOp47
 70
     0
102
RTVSPost2010Prop48
 90
       50
102
RTVSPost2010PropOp48
 70
     0
102
RTVSPost2010Prop49
280
     0
102
RTVSPost2010PropOp49
 70
     0
102
RTVSPost2010Prop50
 90
       50
102
RTVSPost2010PropOp50
 70
     0
102
RTVSPost2010Prop51ColorIndex
 90
      256
102
RTVSPost2010Prop51ColorRGB
 90
-16777216
102
RTVSPost2010PropOp51
 70
     0
102
RTVSPost2010Prop52
140
1.0
102
RTVSPost2010PropOp52
 70
     0
102
RTVSPost2010Prop53
 90
        2
102
RTVSPost2010PropOp53
 70
     0
102
RTVSPost2010Prop54
  1
strokes_ogs.tif
102
RTVSPost2010PropOp54
 70
     0
102
RTVSPost2010Prop55
280
     0
102
RTVSPost2010PropOp55
 70
     0
102
RTVSPost2010Prop56
140
1.0
102
RTVSPost2010PropOp56
 70
     0
102
RTVSPost2010Prop57
140
1.0
102
RTVSPost2010PropOp57
 70
     0
  0
XRECORD
  5
199
102
{ACAD_REACTORS
330
198
102
}
330
198
100
AcDbXrecord
280
     1
102
RTVSPost2010Prop28
280
     0
102
RTVSPost2010PropOp28
 70
     1
102
RTVSPost2010Prop29
280
     1
102
RTVSPost2010PropOp29
 70
     1
102
RTVSPost2010Prop30
280
     1
102
RTVSPost2010PropOp30
 70
     1
102
RTVSPost2010Prop31
280
     0
102
RTVSPost2010PropOp31
 70
     1
102
RTVSPost2010Prop32
280
     0
102
RTVSPost2010PropOp32
 70
     1
102
RTVSPost2010Prop33
280
     0
102
RTVSPost2010PropOp33
 70
     1
102
RTVSPost2010Prop34
280
     0
102
RTVSPost2010PropOp34
 70
     1
102
RTVSPost2010Prop35
280
     0
102
RTVSPost2010PropOp35
 70
     1
102
RTVSPost2010Prop36
280
     0
102
RTVSPost2010PropOp36
 70
     1
102
RTVSPost2010Prop37
 90
       50
102
RTVSPost2010PropOp37
 70
     1
102
RTVSPost2010Prop38
140
0.0
102
RTVSPost2010PropOp38
 70
     1
102
RTVSPost2010Prop39
140
1.0
102
RTVSPost2010PropOp39
 70
     1
102
RTVSPost2010Prop40
 90
        0
102
RTVSPost2010PropOp40
 70
     1
102
RTVSPost2010Prop41ColorIndex
 90
       18
102
RTVSPost2010Prop41ColorRGB
 90
        0
102
RTVSPost2010PropOp41
 70
     1
102
RTVSPost2010Prop42
 90
       50
102
RTVSPost2010PropOp42
 70
     1
102
RTVSPost2010Prop43
 90
        3
102
RTVSPost2010PropOp43
 70
     1
102
RTVSPost2010Prop44ColorIndex
 90
        5
102
RTVSPost2010Prop44ColorRGB
 90
      255
102
RTVSPost2010PropOp44
 70
     1
102
RTVSPost2010Prop45
280
     0
102
RTVSPost2010PropOp45
 70
     1
102
RTVSPost2010Prop46
 90
       50
102
RTVSPost2010PropOp46
 70
     1
102
RTVSPost2010Prop47
 90
       50
102
RTVSPost2010PropOp47
 70
     1
102
RTVSPost2010Prop48
 90
       50
102
RTVSPost2010PropOp48
 70
     1
102
RTVSPost2010Prop49
280
     0
102
RTVSPost2010PropOp49
 70
     1
102
RTVSPost2010Prop50
 90
       50
102
RTVSPost2010PropOp50
 70
     1
102
RTVSPost2010Prop51ColorIndex
 90
      256
102
RTVSPost2010Prop51ColorRGB
 90
-16777216
102
RTVSPost2010PropOp51
 70
     0
102
RTVSPost2010Prop52
140
1.0
102
RTVSPost2010PropOp52
 70
     0
102
RTVSPost2010Prop53
 90
        2
102
RTVSPost2010PropOp53
 70
     1
102
RTVSPost2010Prop54
  1
strokes_ogs.tif
102
RTVSPost2010PropOp54
 70
     1
102
RTVSPost2010Prop55
280
     0
102
RTVSPost2010PropOp55
 70
     1
102
RTVSPost2010Prop56
140
1.0
102
RTVSPost2010PropOp56
 70
     1
102
RTVSPost2010Prop57
140
1.0
102
RTVSPost2010PropOp57
 70
     1
  0
XRECORD
  5
17D
102
{ACAD_REACTORS
330
17C
102
}
330
17C
100
AcDbXrecord
280
     1
102
RTVSPost2010Prop28
280
     0
102
RTVSPost2010PropOp28
 70
     1
102
RTVSPost2010Prop29
280
     1
102
RTVSPost2010PropOp29
 70
     1
102
RTVSPost2010Prop30
280
     1
102
RTVSPost2010PropOp30
 70
     1
102
RTVSPost2010Prop31
280
     0
102
RTVSPost2010PropOp31
 70
     1
102
RTVSPost2010Prop32
280
     0
102
RTVSPost2010PropOp32
 70
     1
102
RTVSPost2010Prop33
280
     0
102
RTVSPost2010PropOp33
 70
     1
102
RTVSPost2010Prop34
280
     0
102
RTVSPost2010PropOp34
 70
     1
102
RTVSPost2010Prop35
280
     0
102
RTVSPost2010PropOp35
 70
     1
102
RTVSPost2010Prop36
280
     0
102
RTVSPost2010PropOp36
 70
     1
102
RTVSPost2010Prop37
 90
       50
102
RTVSPost2010PropOp37
 70
     1
102
RTVSPost2010Prop38
140
0.0
102
RTVSPost2010PropOp38
 70
     1
102
RTVSPost2010Prop39
140
1.0
102
RTVSPost2010PropOp39
 70
     1
102
RTVSPost2010Prop40
 90
        0
102
RTVSPost2010PropOp40
 70
     1
102
RTVSPost2010Prop41ColorIndex
 90
       18
102
RTVSPost2010Prop41ColorRGB
 90
        0
102
RTVSPost2010PropOp41
 70
     1
102
RTVSPost2010Prop42
 90
       50
102
RTVSPost2010PropOp42
 70
     1
102
RTVSPost2010Prop43
 90
        3
102
RTVSPost2010PropOp43
 70
     1
102
RTVSPost2010Prop44ColorIndex
 90
        5
102
RTVSPost2010Prop44ColorRGB
 90
      255
102
RTVSPost2010PropOp44
 70
     1
102
RTVSPost2010Prop45
280
     0
102
RTVSPost2010PropOp45
 70
     1
102
RTVSPost2010Prop46
 90
       50
102
RTVSPost2010PropOp46
 70
     1
102
RTVSPost2010Prop47
 90
       50
102
RTVSPost2010PropOp47
 70
     1
102
RTVSPost2010Prop48
 90
       50
102
RTVSPost2010PropOp48
 70
     1
102
RTVSPost2010Prop49
280
     0
102
RTVSPost2010PropOp49
 70
     1
102
RTVSPost2010Prop50
 90
       50
102
RTVSPost2010PropOp50
 70
     1
102
RTVSPost2010Prop51ColorIndex
 90
      256
102
RTVSPost2010Prop51ColorRGB
 90
-16777216
102
RTVSPost2010PropOp51
 70
     0
102
RTVSPost2010Prop52
140
1.0
102
RTVSPost2010PropOp52
 70
     0
102
RTVSPost2010Prop53
 90
        2
102
RTVSPost2010PropOp53
 70
     1
102
RTVSPost2010Prop54
  1
strokes_ogs.tif
102
RTVSPost2010PropOp54
 70
     1
102
RTVSPost2010Prop55
280
     0
102
RTVSPost2010PropOp55
 70
     1
102
RTVSPost2010Prop56
140
1.0
102
RTVSPost2010PropOp56
 70
     1
102
RTVSPost2010Prop57
140
1.0
102
RTVSPost2010PropOp57
 70
     1
  0
XRECORD
  5
17F
102
{ACAD_REACTORS
330
17E
102
}
330
17E
100
AcDbXrecord
280
     1
102
RTVSPost2010Prop28
280
     0
102
RTVSPost2010PropOp28
 70
     1
102
RTVSPost2010Prop29
280
     1
102
RTVSPost2010PropOp29
 70
     1
102
RTVSPost2010Prop30
280
     1
102
RTVSPost2010PropOp30
 70
     1
102
RTVSPost2010Prop31
280
     0
102
RTVSPost2010PropOp31
 70
     1
102
RTVSPost2010Prop32
280
     0
102
RTVSPost2010PropOp32
 70
     1
102
RTVSPost2010Prop33
280
     0
102
RTVSPost2010PropOp33
 70
     1
102
RTVSPost2010Prop34
280
     0
102
RTVSPost2010PropOp34
 70
     1
102
RTVSPost2010Prop35
280
     0
102
RTVSPost2010PropOp35
 70
     1
102
RTVSPost2010Prop36
280
     0
102
RTVSPost2010PropOp36
 70
     1
102
RTVSPost2010Prop37
 90
       50
102
RTVSPost2010PropOp37
 70
     1
102
RTVSPost2010Prop38
140
0.0
102
RTVSPost2010PropOp38
 70
     1
102
RTVSPost2010Prop39
140
1.0
102
RTVSPost2010PropOp39
 70
     1
102
RTVSPost2010Prop40
 90
        0
102
RTVSPost2010PropOp40
 70
     1
102
RTVSPost2010Prop41ColorIndex
 90
       18
102
RTVSPost2010Prop41ColorRGB
 90
        0
102
RTVSPost2010PropOp41
 70
     1
102
RTVSPost2010Prop42
 90
       50
102
RTVSPost2010PropOp42
 70
     1
102
RTVSPost2010Prop43
 90
        3
102
RTVSPost2010PropOp43
 70
     1
102
RTVSPost2010Prop44ColorIndex
 90
        5
102
RTVSPost2010Prop44ColorRGB
 90
      255
102
RTVSPost2010PropOp44
 70
     1
102
RTVSPost2010Prop45
280
     0
102
RTVSPost2010PropOp45
 70
     1
102
RTVSPost2010Prop46
 90
       50
102
RTVSPost2010PropOp46
 70
     1
102
RTVSPost2010Prop47
 90
       50
102
RTVSPost2010PropOp47
 70
     1
102
RTVSPost2010Prop48
 90
       50
102
RTVSPost2010PropOp48
 70
     1
102
RTVSPost2010Prop49
280
     0
102
RTVSPost2010PropOp49
 70
     1
102
RTVSPost2010Prop50
 90
       50
102
RTVSPost2010PropOp50
 70
     1
102
RTVSPost2010Prop51ColorIndex
 90
      256
102
RTVSPost2010Prop51ColorRGB
 90
-16777216
102
RTVSPost2010PropOp51
 70
     0
102
RTVSPost2010Prop52
140
1.0
102
RTVSPost2010PropOp52
 70
     0
102
RTVSPost2010Prop53
 90
        2
102
RTVSPost2010PropOp53
 70
     1
102
RTVSPost2010Prop54
  1
strokes_ogs.tif
102
RTVSPost2010PropOp54
 70
     1
102
RTVSPost2010Prop55
280
     0
102
RTVSPost2010PropOp55
 70
     1
102
RTVSPost2010Prop56
140
1.0
102
RTVSPost2010PropOp56
 70
     1
102
RTVSPost2010Prop57
140
1.0
102
RTVSPost2010PropOp57
 70
     1
  0
XRECORD
  5
181
102
{ACAD_REACTORS
330
180
102
}
330
180
100
AcDbXrecord
280
     1
102
RTVSPost2010Prop28
280
     0
102
RTVSPost2010PropOp28
 70
     1
102
RTVSPost2010Prop29
280
     1
102
RTVSPost2010PropOp29
 70
     1
102
RTVSPost2010Prop30
280
     1
102
RTVSPost2010PropOp30
 70
     1
102
RTVSPost2010Prop31
280
     0
102
RTVSPost2010PropOp31
 70
     1
102
RTVSPost2010Prop32
280
     0
102
RTVSPost2010PropOp32
 70
     1
102
RTVSPost2010Prop33
280
     0
102
RTVSPost2010PropOp33
 70
     1
102
RTVSPost2010Prop34
280
     0
102
RTVSPost2010PropOp34
 70
     1
102
RTVSPost2010Prop35
280
     0
102
RTVSPost2010PropOp35
 70
     1
102
RTVSPost2010Prop36
280
     0
102
RTVSPost2010PropOp36
 70
     1
102
RTVSPost2010Prop37
 90
       50
102
RTVSPost2010PropOp37
 70
     1
102
RTVSPost2010Prop38
140
0.0
102
RTVSPost2010PropOp38
 70
     1
102
RTVSPost2010Prop39
140
1.0
102
RTVSPost2010PropOp39
 70
     1
102
RTVSPost2010Prop40
 90
        0
102
RTVSPost2010PropOp40
 70
     1
102
RTVSPost2010Prop41ColorIndex
 90
       18
102
RTVSPost2010Prop41ColorRGB
 90
        0
102
RTVSPost2010PropOp41
 70
     1
102
RTVSPost2010Prop42
 90
       50
102
RTVSPost2010PropOp42
 70
     1
102
RTVSPost2010Prop43
 90
        3
102
RTVSPost2010PropOp43
 70
     1
102
RTVSPost2010Prop44ColorIndex
 90
        5
102
RTVSPost2010Prop44ColorRGB
 90
      255
102
RTVSPost2010PropOp44
 70
     1
102
RTVSPost2010Prop45
280
     0
102
RTVSPost2010PropOp45
 70
     1
102
RTVSPost2010Prop46
 90
       50
102
RTVSPost2010PropOp46
 70
     1
102
RTVSPost2010Prop47
 90
       50
102
RTVSPost2010PropOp47
 70
     1
102
RTVSPost2010Prop48
 90
       50
102
RTVSPost2010PropOp48
 70
     1
102
RTVSPost2010Prop49
280
     0
102
RTVSPost2010PropOp49
 70
     1
102
RTVSPost2010Prop50
 90
       50
102
RTVSPost2010PropOp50
 70
     1
102
RTVSPost2010Prop51ColorIndex
 90
      256
102
RTVSPost2010Prop51ColorRGB
 90
-16777216
102
RTVSPost2010PropOp51
 70
     0
102
RTVSPost2010Prop52
140
1.0
102
RTVSPost2010PropOp52
 70
     0
102
RTVSPost2010Prop53
 90
        2
102
RTVSPost2010PropOp53
 70
     1
102
RTVSPost2010Prop54
  1
strokes_ogs.tif
102
RTVSPost2010PropOp54
 70
     1
102
RTVSPost2010Prop55
280
     0
102
RTVSPost2010PropOp55
 70
     1
102
RTVSPost2010Prop56
140
1.0
102
RTVSPost2010PropOp56
 70
     1
102
RTVSPost2010Prop57
140
1.0
102
RTVSPost2010PropOp57
 70
     1
  0
XRECORD
  5
183
102
{ACAD_REACTORS
330
182
102
}
330
182
100
AcDbXrecord
280
     1
102
RTVSPost2010Prop28
280
     0
102
RTVSPost2010PropOp28
 70
     1
102
RTVSPost2010Prop29
280
     1
102
RTVSPost2010PropOp29
 70
     1
102
RTVSPost2010Prop30
280
     1
102
RTVSPost2010PropOp30
 70
     1
102
RTVSPost2010Prop31
280
     0
102
RTVSPost2010PropOp31
 70
     1
102
RTVSPost2010Prop32
280
     0
102
RTVSPost2010PropOp32
 70
     1
102
RTVSPost2010Prop33
280
     0
102
RTVSPost2010PropOp33
 70
     1
102
RTVSPost2010Prop34
280
     0
102
RTVSPost2010PropOp34
 70
     1
102
RTVSPost2010Prop35
280
     0
102
RTVSPost2010PropOp35
 70
     1
102
RTVSPost2010Prop36
280
     0
102
RTVSPost2010PropOp36
 70
     1
102
RTVSPost2010Prop37
 90
       50
102
RTVSPost2010PropOp37
 70
     1
102
RTVSPost2010Prop38
140
0.0
102
RTVSPost2010PropOp38
 70
     1
102
RTVSPost2010Prop39
140
1.0
102
RTVSPost2010PropOp39
 70
     1
102
RTVSPost2010Prop40
 90
        0
102
RTVSPost2010PropOp40
 70
     1
102
RTVSPost2010Prop41ColorIndex
 90
       18
102
RTVSPost2010Prop41ColorRGB
 90
        0
102
RTVSPost2010PropOp41
 70
     1
102
RTVSPost2010Prop42
 90
       50
102
RTVSPost2010PropOp42
 70
     1
102
RTVSPost2010Prop43
 90
        3
102
RTVSPost2010PropOp43
 70
     1
102
RTVSPost2010Prop44ColorIndex
 90
        5
102
RTVSPost2010Prop44ColorRGB
 90
      255
102
RTVSPost2010PropOp44
 70
     1
102
RTVSPost2010Prop45
280
     0
102
RTVSPost2010PropOp45
 70
     1
102
RTVSPost2010Prop46
 90
       50
102
RTVSPost2010PropOp46
 70
     1
102
RTVSPost2010Prop47
 90
       50
102
RTVSPost2010PropOp47
 70
     1
102
RTVSPost2010Prop48
 90
       50
102
RTVSPost2010PropOp48
 70
     1
102
RTVSPost2010Prop49
280
     0
102
RTVSPost2010PropOp49
 70
     1
102
RTVSPost2010Prop50
 90
       50
102
RTVSPost2010PropOp50
 70
     1
102
RTVSPost2010Prop51ColorIndex
 90
      256
102
RTVSPost2010Prop51ColorRGB
 90
-16777216
102
RTVSPost2010PropOp51
 70
     0
102
RTVSPost2010Prop52
140
1.0
102
RTVSPost2010PropOp52
 70
     0
102
RTVSPost2010Prop53
 90
        2
102
RTVSPost2010PropOp53
 70
     1
102
RTVSPost2010Prop54
  1
strokes_ogs.tif
102
RTVSPost2010PropOp54
 70
     1
102
RTVSPost2010Prop55
280
     0
102
RTVSPost2010PropOp55
 70
     1
102
RTVSPost2010Prop56
140
1.0
102
RTVSPost2010PropOp56
 70
     1
102
RTVSPost2010Prop57
140
1.0
102
RTVSPost2010PropOp57
 70
     1
  0
XRECORD
  5
18B
102
{ACAD_REACTORS
330
18A
102
}
330
18A
100
AcDbXrecord
280
     1
102
RTVSPost2010Prop28
280
     0
102
RTVSPost2010PropOp28
 70
     1
102
RTVSPost2010Prop29
280
     1
102
RTVSPost2010PropOp29
 70
     1
102
RTVSPost2010Prop30
280
     1
102
RTVSPost2010PropOp30
 70
     1
102
RTVSPost2010Prop31
280
     0
102
RTVSPost2010PropOp31
 70
     1
102
RTVSPost2010Prop32
280
     0
102
RTVSPost2010PropOp32
 70
     1
102
RTVSPost2010Prop33
280
     0
102
RTVSPost2010PropOp33
 70
     1
102
RTVSPost2010Prop34
280
     0
102
RTVSPost2010PropOp34
 70
     1
102
RTVSPost2010Prop35
280
     0
102
RTVSPost2010PropOp35
 70
     1
102
RTVSPost2010Prop36
280
     0
102
RTVSPost2010PropOp36
 70
     1
102
RTVSPost2010Prop37
 90
       50
102
RTVSPost2010PropOp37
 70
     1
102
RTVSPost2010Prop38
140
0.0
102
RTVSPost2010PropOp38
 70
     1
102
RTVSPost2010Prop39
140
1.0
102
RTVSPost2010PropOp39
 70
     1
102
RTVSPost2010Prop40
 90
        0
102
RTVSPost2010PropOp40
 70
     1
102
RTVSPost2010Prop41ColorIndex
 90
       18
102
RTVSPost2010Prop41ColorRGB
 90
        0
102
RTVSPost2010PropOp41
 70
     1
102
RTVSPost2010Prop42
 90
       50
102
RTVSPost2010PropOp42
 70
     1
102
RTVSPost2010Prop43
 90
        3
102
RTVSPost2010PropOp43
 70
     1
102
RTVSPost2010Prop44ColorIndex
 90
        5
102
RTVSPost2010Prop44ColorRGB
 90
      255
102
RTVSPost2010PropOp44
 70
     1
102
RTVSPost2010Prop45
280
     0
102
RTVSPost2010PropOp45
 70
     1
102
RTVSPost2010Prop46
 90
       50
102
RTVSPost2010PropOp46
 70
     1
102
RTVSPost2010Prop47
 90
       50
102
RTVSPost2010PropOp47
 70
     1
102
RTVSPost2010Prop48
 90
       50
102
RTVSPost2010PropOp48
 70
     1
102
RTVSPost2010Prop49
280
     0
102
RTVSPost2010PropOp49
 70
     1
102
RTVSPost2010Prop50
 90
       50
102
RTVSPost2010PropOp50
 70
     1
102
RTVSPost2010Prop51ColorIndex
 90
      256
102
RTVSPost2010Prop51ColorRGB
 90
-16777216
102
RTVSPost2010PropOp51
 70
     0
102
RTVSPost2010Prop52
140
1.0
102
RTVSPost2010PropOp52
 70
     0
102
RTVSPost2010Prop53
 90
        2
102
RTVSPost2010PropOp53
 70
     1
102
RTVSPost2010Prop54
  1
strokes_ogs.tif
102
RTVSPost2010PropOp54
 70
     1
102
RTVSPost2010Prop55
280
     0
102
RTVSPost2010PropOp55
 70
     1
102
RTVSPost2010Prop56
140
1.0
102
RTVSPost2010PropOp56
 70
     1
102
RTVSPost2010Prop57
140
1.0
102
RTVSPost2010PropOp57
 70
     1
  0
XRECORD
  5
1A7
102
{ACAD_REACTORS
330
1A6
102
}
330
1A6
100
AcDbXrecord
280
     1
102
RTVSPost2010Prop28
280
     0
102
RTVSPost2010PropOp28
 70
     0
102
RTVSPost2010Prop29
280
     1
102
RTVSPost2010PropOp29
 70
     0
102
RTVSPost2010Prop30
280
     1
102
RTVSPost2010PropOp30
 70
     0
102
RTVSPost2010Prop31
280
     0
102
RTVSPost2010PropOp31
 70
     0
102
RTVSPost2010Prop32
280
     0
102
RTVSPost2010PropOp32
 70
     0
102
RTVSPost2010Prop33
280
     0
102
RTVSPost2010PropOp33
 70
     0
102
RTVSPost2010Prop34
280
     0
102
RTVSPost2010PropOp34
 70
     0
102
RTVSPost2010Prop35
280
     0
102
RTVSPost2010PropOp35
 70
     0
102
RTVSPost2010Prop36
280
     0
102
RTVSPost2010PropOp36
 70
     0
102
RTVSPost2010Prop37
 90
       50
102
RTVSPost2010PropOp37
 70
     0
102
RTVSPost2010Prop38
140
0.0
102
RTVSPost2010PropOp38
 70
     0
102
RTVSPost2010Prop39
140
1.0
102
RTVSPost2010PropOp39
 70
     0
102
RTVSPost2010Prop40
 90
        0
102
RTVSPost2010PropOp40
 70
     0
102
RTVSPost2010Prop41ColorIndex
 90
       18
102
RTVSPost2010Prop41ColorRGB
 90
        0
102
RTVSPost2010PropOp41
 70
     0
102
RTVSPost2010Prop42
 90
       50
102
RTVSPost2010PropOp42
 70
     0
102
RTVSPost2010Prop43
 90
        3
102
RTVSPost2010PropOp43
 70
     0
102
RTVSPost2010Prop44ColorIndex
 90
        5
102
RTVSPost2010Prop44ColorRGB
 90
      255
102
RTVSPost2010PropOp44
 70
     0
102
RTVSPost2010Prop45
280
     0
102
RTVSPost2010PropOp45
 70
     0
102
RTVSPost2010Prop46
 90
       50
102
RTVSPost2010PropOp46
 70
     0
102
RTVSPost2010Prop47
 90
       50
102
RTVSPost2010PropOp47
 70
     0
102
RTVSPost2010Prop48
 90
       50
102
RTVSPost2010PropOp48
 70
     0
102
RTVSPost2010Prop49
280
     0
102
RTVSPost2010PropOp49
 70
     0
102
RTVSPost2010Prop50
 90
       50
102
RTVSPost2010PropOp50
 70
     0
102
RTVSPost2010Prop51ColorIndex
 90
      256
102
RTVSPost2010Prop51ColorRGB
 90
-16777216
102
RTVSPost2010PropOp51
 70
     0
102
RTVSPost2010Prop52
140
1.0
102
RTVSPost2010PropOp52
 70
     0
102
RTVSPost2010Prop53
 90
        2
102
RTVSPost2010PropOp53
 70
     0
102
RTVSPost2010Prop54
  1
strokes_ogs.tif
102
RTVSPost2010PropOp54
 70
     0
102
RTVSPost2010Prop55
280
     0
102
RTVSPost2010PropOp55
 70
     0
102
RTVSPost2010Prop56
140
1.0
102
RTVSPost2010PropOp56
 70
     0
102
RTVSPost2010Prop57
140
1.0
102
RTVSPost2010PropOp57
 70
     0
  0
XRECORD
  5
197
102
{ACAD_REACTORS
330
196
102
}
330
196
100
AcDbXrecord
280
     1
102
RTVSPost2010Prop28
280
     0
102
RTVSPost2010PropOp28
 70
     1
102
RTVSPost2010Prop29
280
     1
102
RTVSPost2010PropOp29
 70
     1
102
RTVSPost2010Prop30
280
     1
102
RTVSPost2010PropOp30
 70
     1
102
RTVSPost2010Prop31
280
     0
102
RTVSPost2010PropOp31
 70
     1
102
RTVSPost2010Prop32
280
     0
102
RTVSPost2010PropOp32
 70
     1
102
RTVSPost2010Prop33
280
     0
102
RTVSPost2010PropOp33
 70
     1
102
RTVSPost2010Prop34
280
     0
102
RTVSPost2010PropOp34
 70
     1
102
RTVSPost2010Prop35
280
     0
102
RTVSPost2010PropOp35
 70
     1
102
RTVSPost2010Prop36
280
     0
102
RTVSPost2010PropOp36
 70
     1
102
RTVSPost2010Prop37
 90
       50
102
RTVSPost2010PropOp37
 70
     1
102
RTVSPost2010Prop38
140
0.0
102
RTVSPost2010PropOp38
 70
     1
102
RTVSPost2010Prop39
140
1.0
102
RTVSPost2010PropOp39
 70
     1
102
RTVSPost2010Prop40
 90
        0
102
RTVSPost2010PropOp40
 70
     1
102
RTVSPost2010Prop41ColorIndex
 90
       18
102
RTVSPost2010Prop41ColorRGB
 90
        0
102
RTVSPost2010PropOp41
 70
     1
102
RTVSPost2010Prop42
 90
       50
102
RTVSPost2010PropOp42
 70
     1
102
RTVSPost2010Prop43
 90
        3
102
RTVSPost2010PropOp43
 70
     1
102
RTVSPost2010Prop44ColorIndex
 90
        5
102
RTVSPost2010Prop44ColorRGB
 90
      255
102
RTVSPost2010PropOp44
 70
     1
102
RTVSPost2010Prop45
280
     0
102
RTVSPost2010PropOp45
 70
     1
102
RTVSPost2010Prop46
 90
       50
102
RTVSPost2010PropOp46
 70
     1
102
RTVSPost2010Prop47
 90
       50
102
RTVSPost2010PropOp47
 70
     1
102
RTVSPost2010Prop48
 90
       50
102
RTVSPost2010PropOp48
 70
     1
102
RTVSPost2010Prop49
280
     0
102
RTVSPost2010PropOp49
 70
     1
102
RTVSPost2010Prop50
 90
       50
102
RTVSPost2010PropOp50
 70
     1
102
RTVSPost2010Prop51ColorIndex
 90
      256
102
RTVSPost2010Prop51ColorRGB
 90
-16777216
102
RTVSPost2010PropOp51
 70
     0
102
RTVSPost2010Prop52
140
1.0
102
RTVSPost2010PropOp52
 70
     0
102
RTVSPost2010Prop53
 90
        2
102
RTVSPost2010PropOp53
 70
     1
102
RTVSPost2010Prop54
  1
strokes_ogs.tif
102
RTVSPost2010PropOp54
 70
     1
102
RTVSPost2010Prop55
280
     0
102
RTVSPost2010PropOp55
 70
     1
102
RTVSPost2010Prop56
140
1.0
102
RTVSPost2010PropOp56
 70
     1
102
RTVSPost2010Prop57
140
1.0
102
RTVSPost2010PropOp57
 70
     1
  0
XRECORD
  5
1A9
102
{ACAD_REACTORS
330
1A8
102
}
330
1A8
100
AcDbXrecord
280
     1
102
RTVSPost2010Prop28
280
     0
102
RTVSPost2010PropOp28
 70
     0
102
RTVSPost2010Prop29
280
     1
102
RTVSPost2010PropOp29
 70
     0
102
RTVSPost2010Prop30
280
     1
102
RTVSPost2010PropOp30
 70
     0
102
RTVSPost2010Prop31
280
     0
102
RTVSPost2010PropOp31
 70
     0
102
RTVSPost2010Prop32
280
     0
102
RTVSPost2010PropOp32
 70
     0
102
RTVSPost2010Prop33
280
     0
102
RTVSPost2010PropOp33
 70
     0
102
RTVSPost2010Prop34
280
     0
102
RTVSPost2010PropOp34
 70
     0
102
RTVSPost2010Prop35
280
     0
102
RTVSPost2010PropOp35
 70
     0
102
RTVSPost2010Prop36
280
     0
102
RTVSPost2010PropOp36
 70
     0
102
RTVSPost2010Prop37
 90
       50
102
RTVSPost2010PropOp37
 70
     0
102
RTVSPost2010Prop38
140
0.0
102
RTVSPost2010PropOp38
 70
     0
102
RTVSPost2010Prop39
140
1.0
102
RTVSPost2010PropOp39
 70
     0
102
RTVSPost2010Prop40
 90
        0
102
RTVSPost2010PropOp40
 70
     0
102
RTVSPost2010Prop41ColorIndex
 90
       18
102
RTVSPost2010Prop41ColorRGB
 90
        0
102
RTVSPost2010PropOp41
 70
     0
102
RTVSPost2010Prop42
 90
       50
102
RTVSPost2010PropOp42
 70
     0
102
RTVSPost2010Prop43
 90
        3
102
RTVSPost2010PropOp43
 70
     0
102
RTVSPost2010Prop44ColorIndex
 90
        5
102
RTVSPost2010Prop44ColorRGB
 90
      255
102
RTVSPost2010PropOp44
 70
     0
102
RTVSPost2010Prop45
280
     0
102
RTVSPost2010PropOp45
 70
     0
102
RTVSPost2010Prop46
 90
       50
102
RTVSPost2010PropOp46
 70
     0
102
RTVSPost2010Prop47
 90
       50
102
RTVSPost2010PropOp47
 70
     0
102
RTVSPost2010Prop48
 90
       50
102
RTVSPost2010PropOp48
 70
     0
102
RTVSPost2010Prop49
280
     0
102
RTVSPost2010PropOp49
 70
     0
102
RTVSPost2010Prop50
 90
       50
102
RTVSPost2010PropOp50
 70
     0
102
RTVSPost2010Prop51ColorIndex
 90
      256
102
RTVSPost2010Prop51ColorRGB
 90
-16777216
102
RTVSPost2010PropOp51
 70
     0
102
RTVSPost2010Prop52
140
1.0
102
RTVSPost2010PropOp52
 70
     0
102
RTVSPost2010Prop53
 90
        2
102
RTVSPost2010PropOp53
 70
     0
102
RTVSPost2010Prop54
  1
strokes_ogs.tif
102
RTVSPost2010PropOp54
 70
     0
102
RTVSPost2010Prop55
280
     0
102
RTVSPost2010PropOp55
 70
     0
102
RTVSPost2010Prop56
140
1.0
102
RTVSPost2010PropOp56
 70
     0
102
RTVSPost2010Prop57
140
1.0
102
RTVSPost2010PropOp57
 70
     0
  0
XRECORD
  5
18F
102
{ACAD_REACTORS
330
18E
102
}
330
18E
100
AcDbXrecord
280
     1
102
RTVSPost2010Prop28
280
     0
102
RTVSPost2010PropOp28
 70
     1
102
RTVSPost2010Prop29
280
     1
102
RTVSPost2010PropOp29
 70
     1
102
RTVSPost2010Prop30
280
     1
102
RTVSPost2010PropOp30
 70
     1
102
RTVSPost2010Prop31
280
     0
102
RTVSPost2010PropOp31
 70
     1
102
RTVSPost2010Prop32
280
     0
102
RTVSPost2010PropOp32
 70
     1
102
RTVSPost2010Prop33
280
     0
102
RTVSPost2010PropOp33
 70
     1
102
RTVSPost2010Prop34
280
     0
102
RTVSPost2010PropOp34
 70
     1
102
RTVSPost2010Prop35
280
     0
102
RTVSPost2010PropOp35
 70
     1
102
RTVSPost2010Prop36
280
     0
102
RTVSPost2010PropOp36
 70
     1
102
RTVSPost2010Prop37
 90
       50
102
RTVSPost2010PropOp37
 70
     1
102
RTVSPost2010Prop38
140
0.0
102
RTVSPost2010PropOp38
 70
     1
102
RTVSPost2010Prop39
140
1.0
102
RTVSPost2010PropOp39
 70
     1
102
RTVSPost2010Prop40
 90
        0
102
RTVSPost2010PropOp40
 70
     1
102
RTVSPost2010Prop41ColorIndex
 90
       18
102
RTVSPost2010Prop41ColorRGB
 90
        0
102
RTVSPost2010PropOp41
 70
     1
102
RTVSPost2010Prop42
 90
       50
102
RTVSPost2010PropOp42
 70
     1
102
RTVSPost2010Prop43
 90
        3
102
RTVSPost2010PropOp43
 70
     1
102
RTVSPost2010Prop44ColorIndex
 90
        5
102
RTVSPost2010Prop44ColorRGB
 90
      255
102
RTVSPost2010PropOp44
 70
     1
102
RTVSPost2010Prop45
280
     0
102
RTVSPost2010PropOp45
 70
     1
102
RTVSPost2010Prop46
 90
       50
102
RTVSPost2010PropOp46
 70
     1
102
RTVSPost2010Prop47
 90
       50
102
RTVSPost2010PropOp47
 70
     1
102
RTVSPost2010Prop48
 90
       50
102
RTVSPost2010PropOp48
 70
     1
102
RTVSPost2010Prop49
280
     0
102
RTVSPost2010PropOp49
 70
     1
102
RTVSPost2010Prop50
 90
       50
102
RTVSPost2010PropOp50
 70
     1
102
RTVSPost2010Prop51ColorIndex
 90
      256
102
RTVSPost2010Prop51ColorRGB
 90
-16777216
102
RTVSPost2010PropOp51
 70
     0
102
RTVSPost2010Prop52
140
1.0
102
RTVSPost2010PropOp52
 70
     0
102
RTVSPost2010Prop53
 90
        2
102
RTVSPost2010PropOp53
 70
     1
102
RTVSPost2010Prop54
  1
strokes_ogs.tif
102
RTVSPost2010PropOp54
 70
     1
102
RTVSPost2010Prop55
280
     0
102
RTVSPost2010PropOp55
 70
     1
102
RTVSPost2010Prop56
140
1.0
102
RTVSPost2010PropOp56
 70
     1
102
RTVSPost2010Prop57
140
1.0
102
RTVSPost2010PropOp57
 70
     1
  0
XRECORD
  5
1A5
102
{ACAD_REACTORS
330
1A4
102
}
330
1A4
100
AcDbXrecord
280
     1
102
RTVSPost2010Prop28
280
     0
102
RTVSPost2010PropOp28
 70
     1
102
RTVSPost2010Prop29
280
     1
102
RTVSPost2010PropOp29
 70
     1
102
RTVSPost2010Prop30
280
     1
102
RTVSPost2010PropOp30
 70
     1
102
RTVSPost2010Prop31
280
     0
102
RTVSPost2010PropOp31
 70
     1
102
RTVSPost2010Prop32
280
     0
102
RTVSPost2010PropOp32
 70
     1
102
RTVSPost2010Prop33
280
     0
102
RTVSPost2010PropOp33
 70
     1
102
RTVSPost2010Prop34
280
     0
102
RTVSPost2010PropOp34
 70
     1
102
RTVSPost2010Prop35
280
     0
102
RTVSPost2010PropOp35
 70
     1
102
RTVSPost2010Prop36
280
     0
102
RTVSPost2010PropOp36
 70
     1
102
RTVSPost2010Prop37
 90
       50
102
RTVSPost2010PropOp37
 70
     1
102
RTVSPost2010Prop38
140
0.0
102
RTVSPost2010PropOp38
 70
     1
102
RTVSPost2010Prop39
140
1.0
102
RTVSPost2010PropOp39
 70
     1
102
RTVSPost2010Prop40
 90
        0
102
RTVSPost2010PropOp40
 70
     1
102
RTVSPost2010Prop41ColorIndex
 90
       18
102
RTVSPost2010Prop41ColorRGB
 90
        0
102
RTVSPost2010PropOp41
 70
     1
102
RTVSPost2010Prop42
 90
       50
102
RTVSPost2010PropOp42
 70
     1
102
RTVSPost2010Prop43
 90
        3
102
RTVSPost2010PropOp43
 70
     1
102
RTVSPost2010Prop44ColorIndex
 90
        5
102
RTVSPost2010Prop44ColorRGB
 90
      255
102
RTVSPost2010PropOp44
 70
     1
102
RTVSPost2010Prop45
280
     0
102
RTVSPost2010PropOp45
 70
     1
102
RTVSPost2010Prop46
 90
       50
102
RTVSPost2010PropOp46
 70
     1
102
RTVSPost2010Prop47
 90
       50
102
RTVSPost2010PropOp47
 70
     1
102
RTVSPost2010Prop48
 90
       50
102
RTVSPost2010PropOp48
 70
     1
102
RTVSPost2010Prop49
280
     0
102
RTVSPost2010PropOp49
 70
     1
102
RTVSPost2010Prop50
 90
       50
102
RTVSPost2010PropOp50
 70
     1
102
RTVSPost2010Prop51ColorIndex
 90
      256
102
RTVSPost2010Prop51ColorRGB
 90
-16777216
102
RTVSPost2010PropOp51
 70
     0
102
RTVSPost2010Prop52
140
1.0
102
RTVSPost2010PropOp52
 70
     0
102
RTVSPost2010Prop53
 90
        2
102
RTVSPost2010PropOp53
 70
     1
102
RTVSPost2010Prop54
  1
strokes_ogs.tif
102
RTVSPost2010PropOp54
 70
     1
102
RTVSPost2010Prop55
280
     0
102
RTVSPost2010PropOp55
 70
     1
102
RTVSPost2010Prop56
140
1.0
102
RTVSPost2010PropOp56
 70
     1
102
RTVSPost2010Prop57
140
1.0
102
RTVSPost2010PropOp57
 70
     1
  0
XRECORD
  5
1A3
102
{ACAD_REACTORS
330
1A2
102
}
330
1A2
100
AcDbXrecord
280
     1
102
RTVSPost2010Prop28
280
     0
102
RTVSPost2010PropOp28
 70
     1
102
RTVSPost2010Prop29
280
     1
102
RTVSPost2010PropOp29
 70
     1
102
RTVSPost2010Prop30
280
     1
102
RTVSPost2010PropOp30
 70
     1
102
RTVSPost2010Prop31
280
     0
102
RTVSPost2010PropOp31
 70
     1
102
RTVSPost2010Prop32
280
     0
102
RTVSPost2010PropOp32
 70
     1
102
RTVSPost2010Prop33
280
     0
102
RTVSPost2010PropOp33
 70
     1
102
RTVSPost2010Prop34
280
     0
102
RTVSPost2010PropOp34
 70
     1
102
RTVSPost2010Prop35
280
     0
102
RTVSPost2010PropOp35
 70
     1
102
RTVSPost2010Prop36
280
     0
102
RTVSPost2010PropOp36
 70
     1
102
RTVSPost2010Prop37
 90
       50
102
RTVSPost2010PropOp37
 70
     1
102
RTVSPost2010Prop38
140
0.0
102
RTVSPost2010PropOp38
 70
     1
102
RTVSPost2010Prop39
140
1.0
102
RTVSPost2010PropOp39
 70
     1
102
RTVSPost2010Prop40
 90
        0
102
RTVSPost2010PropOp40
 70
     1
102
RTVSPost2010Prop41ColorIndex
 90
       18
102
RTVSPost2010Prop41ColorRGB
 90
        0
102
RTVSPost2010PropOp41
 70
     1
102
RTVSPost2010Prop42
 90
       50
102
RTVSPost2010PropOp42
 70
     1
102
RTVSPost2010Prop43
 90
        3
102
RTVSPost2010PropOp43
 70
     1
102
RTVSPost2010Prop44ColorIndex
 90
        5
102
RTVSPost2010Prop44ColorRGB
 90
      255
102
RTVSPost2010PropOp44
 70
     1
102
RTVSPost2010Prop45
280
     0
102
RTVSPost2010PropOp45
 70
     1
102
RTVSPost2010Prop46
 90
       50
102
RTVSPost2010PropOp46
 70
     1
102
RTVSPost2010Prop47
 90
       50
102
RTVSPost2010PropOp47
 70
     1
102
RTVSPost2010Prop48
 90
       50
102
RTVSPost2010PropOp48
 70
     1
102
RTVSPost2010Prop49
280
     0
102
RTVSPost2010PropOp49
 70
     1
102
RTVSPost2010Prop50
 90
       50
102
RTVSPost2010PropOp50
 70
     1
102
RTVSPost2010Prop51ColorIndex
 90
      256
102
RTVSPost2010Prop51ColorRGB
 90
-16777216
102
RTVSPost2010PropOp51
 70
     0
102
RTVSPost2010Prop52
140
1.0
102
RTVSPost2010PropOp52
 70
     0
102
RTVSPost2010Prop53
 90
        2
102
RTVSPost2010PropOp53
 70
     1
102
RTVSPost2010Prop54
  1
strokes_ogs.tif
102
RTVSPost2010PropOp54
 70
     1
102
RTVSPost2010Prop55
280
     0
102
RTVSPost2010PropOp55
 70
     1
102
RTVSPost2010Prop56
140
1.0
102
RTVSPost2010PropOp56
 70
     1
102
RTVSPost2010Prop57
140
1.0
102
RTVSPost2010PropOp57
 70
     1
  0
XRECORD
  5
19D
102
{ACAD_REACTORS
330
19C
102
}
330
19C
100
AcDbXrecord
280
     1
102
RTVSPost2010Prop28
280
     0
102
RTVSPost2010PropOp28
 70
     1
102
RTVSPost2010Prop29
280
     1
102
RTVSPost2010PropOp29
 70
     1
102
RTVSPost2010Prop30
280
     1
102
RTVSPost2010PropOp30
 70
     1
102
RTVSPost2010Prop31
280
     0
102
RTVSPost2010PropOp31
 70
     1
102
RTVSPost2010Prop32
280
     0
102
RTVSPost2010PropOp32
 70
     1
102
RTVSPost2010Prop33
280
     0
102
RTVSPost2010PropOp33
 70
     1
102
RTVSPost2010Prop34
280
     0
102
RTVSPost2010PropOp34
 70
     1
102
RTVSPost2010Prop35
280
     0
102
RTVSPost2010PropOp35
 70
     1
102
RTVSPost2010Prop36
280
     0
102
RTVSPost2010PropOp36
 70
     1
102
RTVSPost2010Prop37
 90
       50
102
RTVSPost2010PropOp37
 70
     1
102
RTVSPost2010Prop38
140
0.0
102
RTVSPost2010PropOp38
 70
     1
102
RTVSPost2010Prop39
140
1.0
102
RTVSPost2010PropOp39
 70
     1
102
RTVSPost2010Prop40
 90
        0
102
RTVSPost2010PropOp40
 70
     1
102
RTVSPost2010Prop41ColorIndex
 90
       18
102
RTVSPost2010Prop41ColorRGB
 90
        0
102
RTVSPost2010PropOp41
 70
     1
102
RTVSPost2010Prop42
 90
       50
102
RTVSPost2010PropOp42
 70
     1
102
RTVSPost2010Prop43
 90
        3
102
RTVSPost2010PropOp43
 70
     1
102
RTVSPost2010Prop44ColorIndex
 90
        5
102
RTVSPost2010Prop44ColorRGB
 90
      255
102
RTVSPost2010PropOp44
 70
     1
102
RTVSPost2010Prop45
280
     0
102
RTVSPost2010PropOp45
 70
     1
102
RTVSPost2010Prop46
 90
       50
102
RTVSPost2010PropOp46
 70
     1
102
RTVSPost2010Prop47
 90
       50
102
RTVSPost2010PropOp47
 70
     1
102
RTVSPost2010Prop48
 90
       50
102
RTVSPost2010PropOp48
 70
     1
102
RTVSPost2010Prop49
280
     0
102
RTVSPost2010PropOp49
 70
     1
102
RTVSPost2010Prop50
 90
       50
102
RTVSPost2010PropOp50
 70
     1
102
RTVSPost2010Prop51ColorIndex
 90
      256
102
RTVSPost2010Prop51ColorRGB
 90
-16777216
102
RTVSPost2010PropOp51
 70
     0
102
RTVSPost2010Prop52
140
1.0
102
RTVSPost2010PropOp52
 70
     0
102
RTVSPost2010Prop53
 90
        2
102
RTVSPost2010PropOp53
 70
     1
102
RTVSPost2010Prop54
  1
strokes_ogs.tif
102
RTVSPost2010PropOp54
 70
     1
102
RTVSPost2010Prop55
280
     0
102
RTVSPost2010PropOp55
 70
     1
102
RTVSPost2010Prop56
140
1.0
102
RTVSPost2010PropOp56
 70
     1
102
RTVSPost2010Prop57
140
1.0
102
RTVSPost2010PropOp57
 70
     1
  0
XRECORD
  5
19F
102
{ACAD_REACTORS
330
19E
102
}
330
19E
100
AcDbXrecord
280
     1
102
RTVSPost2010Prop28
280
     0
102
RTVSPost2010PropOp28
 70
     1
102
RTVSPost2010Prop29
280
     1
102
RTVSPost2010PropOp29
 70
     1
102
RTVSPost2010Prop30
280
     1
102
RTVSPost2010PropOp30
 70
     1
102
RTVSPost2010Prop31
280
     0
102
RTVSPost2010PropOp31
 70
     1
102
RTVSPost2010Prop32
280
     0
102
RTVSPost2010PropOp32
 70
     1
102
RTVSPost2010Prop33
280
     0
102
RTVSPost2010PropOp33
 70
     1
102
RTVSPost2010Prop34
280
     0
102
RTVSPost2010PropOp34
 70
     1
102
RTVSPost2010Prop35
280
     0
102
RTVSPost2010PropOp35
 70
     1
102
RTVSPost2010Prop36
280
     0
102
RTVSPost2010PropOp36
 70
     1
102
RTVSPost2010Prop37
 90
       50
102
RTVSPost2010PropOp37
 70
     1
102
RTVSPost2010Prop38
140
0.0
102
RTVSPost2010PropOp38
 70
     1
102
RTVSPost2010Prop39
140
1.0
102
RTVSPost2010PropOp39
 70
     1
102
RTVSPost2010Prop40
 90
        0
102
RTVSPost2010PropOp40
 70
     1
102
RTVSPost2010Prop41ColorIndex
 90
       18
102
RTVSPost2010Prop41ColorRGB
 90
        0
102
RTVSPost2010PropOp41
 70
     1
102
RTVSPost2010Prop42
 90
       50
102
RTVSPost2010PropOp42
 70
     1
102
RTVSPost2010Prop43
 90
        3
102
RTVSPost2010PropOp43
 70
     1
102
RTVSPost2010Prop44ColorIndex
 90
        5
102
RTVSPost2010Prop44ColorRGB
 90
      255
102
RTVSPost2010PropOp44
 70
     1
102
RTVSPost2010Prop45
280
     0
102
RTVSPost2010PropOp45
 70
     1
102
RTVSPost2010Prop46
 90
       50
102
RTVSPost2010PropOp46
 70
     1
102
RTVSPost2010Prop47
 90
       50
102
RTVSPost2010PropOp47
 70
     1
102
RTVSPost2010Prop48
 90
       50
102
RTVSPost2010PropOp48
 70
     1
102
RTVSPost2010Prop49
280
     0
102
RTVSPost2010PropOp49
 70
     1
102
RTVSPost2010Prop50
 90
       50
102
RTVSPost2010PropOp50
 70
     1
102
RTVSPost2010Prop51ColorIndex
 90
      256
102
RTVSPost2010Prop51ColorRGB
 90
-16777216
102
RTVSPost2010PropOp51
 70
     0
102
RTVSPost2010Prop52
140
1.0
102
RTVSPost2010PropOp52
 70
     0
102
RTVSPost2010Prop53
 90
        2
102
RTVSPost2010PropOp53
 70
     1
102
RTVSPost2010Prop54
  1
strokes_ogs.tif
102
RTVSPost2010PropOp54
 70
     1
102
RTVSPost2010Prop55
280
     0
102
RTVSPost2010PropOp55
 70
     1
102
RTVSPost2010Prop56
140
1.0
102
RTVSPost2010PropOp56
 70
     1
102
RTVSPost2010Prop57
140
1.0
102
RTVSPost2010PropOp57
 70
     1
  0
XRECORD
  5
195
102
{ACAD_REACTORS
330
194
102
}
330
194
100
AcDbXrecord
280
     1
102
RTVSPost2010Prop28
280
     0
102
RTVSPost2010PropOp28
 70
     1
102
RTVSPost2010Prop29
280
     1
102
RTVSPost2010PropOp29
 70
     1
102
RTVSPost2010Prop30
280
     1
102
RTVSPost2010PropOp30
 70
     1
102
RTVSPost2010Prop31
280
     0
102
RTVSPost2010PropOp31
 70
     1
102
RTVSPost2010Prop32
280
     0
102
RTVSPost2010PropOp32
 70
     1
102
RTVSPost2010Prop33
280
     0
102
RTVSPost2010PropOp33
 70
     1
102
RTVSPost2010Prop34
280
     0
102
RTVSPost2010PropOp34
 70
     1
102
RTVSPost2010Prop35
280
     0
102
RTVSPost2010PropOp35
 70
     1
102
RTVSPost2010Prop36
280
     0
102
RTVSPost2010PropOp36
 70
     1
102
RTVSPost2010Prop37
 90
       50
102
RTVSPost2010PropOp37
 70
     1
102
RTVSPost2010Prop38
140
0.0
102
RTVSPost2010PropOp38
 70
     1
102
RTVSPost2010Prop39
140
1.0
102
RTVSPost2010PropOp39
 70
     1
102
RTVSPost2010Prop40
 90
        0
102
RTVSPost2010PropOp40
 70
     1
102
RTVSPost2010Prop41ColorIndex
 90
       18
102
RTVSPost2010Prop41ColorRGB
 90
        0
102
RTVSPost2010PropOp41
 70
     1
102
RTVSPost2010Prop42
 90
       50
102
RTVSPost2010PropOp42
 70
     1
102
RTVSPost2010Prop43
 90
        3
102
RTVSPost2010PropOp43
 70
     1
102
RTVSPost2010Prop44ColorIndex
 90
        5
102
RTVSPost2010Prop44ColorRGB
 90
      255
102
RTVSPost2010PropOp44
 70
     1
102
RTVSPost2010Prop45
280
     0
102
RTVSPost2010PropOp45
 70
     1
102
RTVSPost2010Prop46
 90
       50
102
RTVSPost2010PropOp46
 70
     1
102
RTVSPost2010Prop47
 90
       50
102
RTVSPost2010PropOp47
 70
     1
102
RTVSPost2010Prop48
 90
       50
102
RTVSPost2010PropOp48
 70
     1
102
RTVSPost2010Prop49
280
     0
102
RTVSPost2010PropOp49
 70
     1
102
RTVSPost2010Prop50
 90
       50
102
RTVSPost2010PropOp50
 70
     1
102
RTVSPost2010Prop51ColorIndex
 90
      256
102
RTVSPost2010Prop51ColorRGB
 90
-16777216
102
RTVSPost2010PropOp51
 70
     0
102
RTVSPost2010Prop52
140
1.0
102
RTVSPost2010PropOp52
 70
     0
102
RTVSPost2010Prop53
 90
        2
102
RTVSPost2010PropOp53
 70
     1
102
RTVSPost2010Prop54
  1
strokes_ogs.tif
102
RTVSPost2010PropOp54
 70
     1
102
RTVSPost2010Prop55
280
     0
102
RTVSPost2010PropOp55
 70
     1
102
RTVSPost2010Prop56
140
1.0
102
RTVSPost2010PropOp56
 70
     1
102
RTVSPost2010Prop57
140
1.0
102
RTVSPost2010PropOp57
 70
     1
  0
XRECORD
  5
189
102
{ACAD_REACTORS
330
188
102
}
330
188
100
AcDbXrecord
280
     1
102
RTVSPost2010Prop28
280
     0
102
RTVSPost2010PropOp28
 70
     1
102
RTVSPost2010Prop29
280
     1
102
RTVSPost2010PropOp29
 70
     1
102
RTVSPost2010Prop30
280
     1
102
RTVSPost2010PropOp30
 70
     1
102
RTVSPost2010Prop31
280
     0
102
RTVSPost2010PropOp31
 70
     1
102
RTVSPost2010Prop32
280
     0
102
RTVSPost2010PropOp32
 70
     1
102
RTVSPost2010Prop33
280
     0
102
RTVSPost2010PropOp33
 70
     1
102
RTVSPost2010Prop34
280
     0
102
RTVSPost2010PropOp34
 70
     1
102
RTVSPost2010Prop35
280
     0
102
RTVSPost2010PropOp35
 70
     1
102
RTVSPost2010Prop36
280
     0
102
RTVSPost2010PropOp36
 70
     1
102
RTVSPost2010Prop37
 90
       50
102
RTVSPost2010PropOp37
 70
     1
102
RTVSPost2010Prop38
140
0.0
102
RTVSPost2010PropOp38
 70
     1
102
RTVSPost2010Prop39
140
1.0
102
RTVSPost2010PropOp39
 70
     1
102
RTVSPost2010Prop40
 90
        0
102
RTVSPost2010PropOp40
 70
     1
102
RTVSPost2010Prop41ColorIndex
 90
       18
102
RTVSPost2010Prop41ColorRGB
 90
        0
102
RTVSPost2010PropOp41
 70
     1
102
RTVSPost2010Prop42
 90
       50
102
RTVSPost2010PropOp42
 70
     1
102
RTVSPost2010Prop43
 90
        3
102
RTVSPost2010PropOp43
 70
     1
102
RTVSPost2010Prop44ColorIndex
 90
        5
102
RTVSPost2010Prop44ColorRGB
 90
      255
102
RTVSPost2010PropOp44
 70
     1
102
RTVSPost2010Prop45
280
     0
102
RTVSPost2010PropOp45
 70
     1
102
RTVSPost2010Prop46
 90
       50
102
RTVSPost2010PropOp46
 70
     1
102
RTVSPost2010Prop47
 90
       50
102
RTVSPost2010PropOp47
 70
     1
102
RTVSPost2010Prop48
 90
       50
102
RTVSPost2010PropOp48
 70
     1
102
RTVSPost2010Prop49
280
     0
102
RTVSPost2010PropOp49
 70
     1
102
RTVSPost2010Prop50
 90
       50
102
RTVSPost2010PropOp50
 70
     1
102
RTVSPost2010Prop51ColorIndex
 90
      256
102
RTVSPost2010Prop51ColorRGB
 90
-16777216
102
RTVSPost2010PropOp51
 70
     0
102
RTVSPost2010Prop52
140
1.0
102
RTVSPost2010PropOp52
 70
     0
102
RTVSPost2010Prop53
 90
        2
102
RTVSPost2010PropOp53
 70
     1
102
RTVSPost2010Prop54
  1
strokes_ogs.tif
102
RTVSPost2010PropOp54
 70
     1
102
RTVSPost2010Prop55
280
     0
102
RTVSPost2010PropOp55
 70
     1
102
RTVSPost2010Prop56
140
1.0
102
RTVSPost2010PropOp56
 70
     1
102
RTVSPost2010Prop57
140
1.0
102
RTVSPost2010PropOp57
 70
     1
  0
XRECORD
  5
1A1
102
{ACAD_REACTORS
330
1A0
102
}
330
1A0
100
AcDbXrecord
280
     1
102
RTVSPost2010Prop28
280
     0
102
RTVSPost2010PropOp28
 70
     1
102
RTVSPost2010Prop29
280
     1
102
RTVSPost2010PropOp29
 70
     1
102
RTVSPost2010Prop30
280
     1
102
RTVSPost2010PropOp30
 70
     1
102
RTVSPost2010Prop31
280
     0
102
RTVSPost2010PropOp31
 70
     1
102
RTVSPost2010Prop32
280
     0
102
RTVSPost2010PropOp32
 70
     1
102
RTVSPost2010Prop33
280
     0
102
RTVSPost2010PropOp33
 70
     1
102
RTVSPost2010Prop34
280
     0
102
RTVSPost2010PropOp34
 70
     1
102
RTVSPost2010Prop35
280
     0
102
RTVSPost2010PropOp35
 70
     1
102
RTVSPost2010Prop36
280
     0
102
RTVSPost2010PropOp36
 70
     1
102
RTVSPost2010Prop37
 90
       50
102
RTVSPost2010PropOp37
 70
     1
102
RTVSPost2010Prop38
140
0.0
102
RTVSPost2010PropOp38
 70
     1
102
RTVSPost2010Prop39
140
1.0
102
RTVSPost2010PropOp39
 70
     1
102
RTVSPost2010Prop40
 90
        0
102
RTVSPost2010PropOp40
 70
     1
102
RTVSPost2010Prop41ColorIndex
 90
       18
102
RTVSPost2010Prop41ColorRGB
 90
        0
102
RTVSPost2010PropOp41
 70
     1
102
RTVSPost2010Prop42
 90
       50
102
RTVSPost2010PropOp42
 70
     1
102
RTVSPost2010Prop43
 90
        3
102
RTVSPost2010PropOp43
 70
     1
102
RTVSPost2010Prop44ColorIndex
 90
        5
102
RTVSPost2010Prop44ColorRGB
 90
      255
102
RTVSPost2010PropOp44
 70
     1
102
RTVSPost2010Prop45
280
     0
102
RTVSPost2010PropOp45
 70
     1
102
RTVSPost2010Prop46
 90
       50
102
RTVSPost2010PropOp46
 70
     1
102
RTVSPost2010Prop47
 90
       50
102
RTVSPost2010PropOp47
 70
     1
102
RTVSPost2010Prop48
 90
       50
102
RTVSPost2010PropOp48
 70
     1
102
RTVSPost2010Prop49
280
     0
102
RTVSPost2010PropOp49
 70
     1
102
RTVSPost2010Prop50
 90
       50
102
RTVSPost2010PropOp50
 70
     1
102
RTVSPost2010Prop51ColorIndex
 90
      256
102
RTVSPost2010Prop51ColorRGB
 90
-16777216
102
RTVSPost2010PropOp51
 70
     0
102
RTVSPost2010Prop52
140
1.0
102
RTVSPost2010PropOp52
 70
     0
102
RTVSPost2010Prop53
 90
        2
102
RTVSPost2010PropOp53
 70
     1
102
RTVSPost2010Prop54
  1
strokes_ogs.tif
102
RTVSPost2010PropOp54
 70
     1
102
RTVSPost2010Prop55
280
     0
102
RTVSPost2010PropOp55
 70
     1
102
RTVSPost2010Prop56
140
1.0
102
RTVSPost2010PropOp56
 70
     1
102
RTVSPost2010Prop57
140
1.0
102
RTVSPost2010PropOp57
 70
     1
  0
ENDSEC
  0
EOF
