  0
SECTION
  2
HEADER
  9
$ACADVER
  1
AC1024
  9
$ACADMAINTVER
 70
   205
  9
$DWGCODEPAGE
  3
ANSI_1251
  9
$INSBASE
 10
0.0
 20
0.0
 30
0.0
  9
$EXTMIN
 10
1.000000000000000E+20
 20
1.000000000000000E+20
 30
1.000000000000000E+20
  9
$EXTMAX
 10
-1.000000000000000E+20
 20
-1.000000000000000E+20
 30
-1.000000000000000E+20
  9
$LIMMIN
 10
0.0
 20
0.0
  9
$LIMMAX
 10
12.0
 20
9.0
  9
$ORTHOMODE
 70
     0
  9
$REGENMODE
 70
     1
  9
$FILLMODE
 70
     1
  9
$QTEXTMODE
 70
     0
  9
$MIRRTEXT
 70
     1
  9
$LTSCALE
 40
1.0
  9
$ATTMODE
 70
     1
  9
$TEXTSIZE
 40
0.2
  9
$TRACEWID
 40
0.05
  9
$TEXTSTYLE
  7
Standard
  9
$CLAYER
  8
OracDecor_panel_moldings
  9
$CELTYPE
  6
ByLayer
  9
$CECOLOR
 62
   256
  9
$CELTSCALE
 40
1.0
  9
$DISPSILH
 70
     0
  9
$DIMSCALE
 40
1.0
  9
$DIMASZ
 40
0.18
  9
$DIMEXO
 40
0.0625
  9
$DIMDLI
 40
0.38
  9
$DIMRND
 40
0.0
  9
$DIMDLE
 40
0.0
  9
$DIMEXE
 40
0.18
  9
$DIMTP
 40
0.0
  9
$DIMTM
 40
0.0
  9
$DIMTXT
 40
0.18
  9
$DIMCEN
 40
0.09
  9
$DIMTSZ
 40
0.0
  9
$DIMTOL
 70
     0
  9
$DIMLIM
 70
     0
  9
$DIMTIH
 70
     1
  9
$DIMTOH
 70
     1
  9
$DIMSE1
 70
     0
  9
$DIMSE2
 70
     0
  9
$DIMTAD
 70
     0
  9
$DIMZIN
 70
     0
  9
$DIMBLK
  1

  9
$DIMASO
 70
     1
  9
$DIMSHO
 70
     1
  9
$DIMPOST
  1

  9
$DIMAPOST
  1

  9
$DIMALT
 70
     0
  9
$DIMALTD
 70
     2
  9
$DIMALTF
 40
25.4
  9
$DIMLFAC
 40
1.0
  9
$DIMTOFL
 70
     0
  9
$DIMTVP
 40
0.0
  9
$DIMTIX
 70
     0
  9
$DIMSOXD
 70
     0
  9
$DIMSAH
 70
     0
  9
$DIMBLK1
  1

  9
$DIMBLK2
  1

  9
$DIMSTYLE
  2
Standard
  9
$DIMCLRD
 70
     0
  9
$DIMCLRE
 70
     0
  9
$DIMCLRT
 70
     0
  9
$DIMTFAC
 40
1.0
  9
$DIMGAP
 40
0.09
  9
$DIMJUST
 70
     0
  9
$DIMSD1
 70
     0
  9
$DIMSD2
 70
     0
  9
$DIMTOLJ
 70
     1
  9
$DIMTZIN
 70
     0
  9
$DIMALTZ
 70
     0
  9
$DIMALTTZ
 70
     0
  9
$DIMUPT
 70
     0
  9
$DIMDEC
 70
     4
  9
$DIMTDEC
 70
     4
  9
$DIMALTU
 70
     2
  9
$DIMALTTD
 70
     2
  9
$DIMTXSTY
  7
Standard
  9
$DIMAUNIT
 70
     0
  9
$DIMADEC
 70
     0
  9
$DIMALTRND
 40
0.0
  9
$DIMAZIN
 70
     0
  9
$DIMDSEP
 70
    46
  9
$DIMATFIT
 70
     3
  9
$DIMFRAC
 70
     0
  9
$DIMLDRBLK
  1

  9
$DIMLUNIT
 70
     2
  9
$DIMLWD
 70
    -2
  9
$DIMLWE
 70
    -2
  9
$DIMTMOVE
 70
     0
  9
$DIMFXL
 40
1.0
  9
$DIMFXLON
 70
     0
  9
$DIMJOGANG
 40
0.7853981633974483
  9
$DIMTFILL
 70
     0
  9
$DIMTFILLCLR
 70
     0
  9
$DIMARCSYM
 70
     0
  9
$DIMLTYPE
  6

  9
$DIMLTEX1
  6

  9
$DIMLTEX2
  6

  9
$DIMTXTDIRECTION
 70
     0
  9
$LUNITS
 70
     2
  9
$LUPREC
 70
     4
  9
$SKETCHINC
 40
0.1
  9
$FILLETRAD
 40
0.5
  9
$AUNITS
 70
     0
  9
$AUPREC
 70
     0
  9
$MENU
  1
.
  9
$ELEVATION
 40
0.0
  9
$PELEVATION
 40
0.0
  9
$THICKNESS
 40
0.0
  9
$LIMCHECK
 70
     0
  9
$CHAMFERA
 40
0.5
  9
$CHAMFERB
 40
0.5
  9
$CHAMFERC
 40
1.0
  9
$CHAMFERD
 40
0.0
  9
$SKPOLY
 70
     0
  9
$TDCREATE
 40
2451380.930432396
  9
$TDUCREATE
 40
2451380.805432396
  9
$TDUPDATE
 40
2451380.966180555
  9
$TDUUPDATE
 40
2451380.841180556
  9
$TDINDWG
 40
0.0075618056
  9
$TDUSRTIMER
 40
0.0075527662
  9
$USRTIMER
 70
     1
  9
$ANGBASE
 50
0.0
  9
$ANGDIR
 70
     0
  9
$PDMODE
 70
     0
  9
$PDSIZE
 40
0.0
  9
$PLINEWID
 40
0.0
  9
$SPLFRAME
 70
     0
  9
$SPLINETYPE
 70
     6
  9
$SPLINESEGS
 70
     8
  9
$HANDSEED
  5
13D
  9
$SURFTAB1
 70
     6
  9
$SURFTAB2
 70
     6
  9
$SURFTYPE
 70
     6
  9
$SURFU
 70
     6
  9
$SURFV
 70
     6
  9
$UCSBASE
  2

  9
$UCSNAME
  2

  9
$UCSORG
 10
0.0
 20
0.0
 30
0.0
  9
$UCSXDIR
 10
1.0
 20
0.0
 30
0.0
  9
$UCSYDIR
 10
0.0
 20
1.0
 30
0.0
  9
$UCSORTHOREF
  2

  9
$UCSORTHOVIEW
 70
     0
  9
$UCSORGTOP
 10
0.0
 20
0.0
 30
0.0
  9
$UCSORGBOTTOM
 10
0.0
 20
0.0
 30
0.0
  9
$UCSORGLEFT
 10
0.0
 20
0.0
 30
0.0
  9
$UCSORGRIGHT
 10
0.0
 20
0.0
 30
0.0
  9
$UCSORGFRONT
 10
0.0
 20
0.0
 30
0.0
  9
$UCSORGBACK
 10
0.0
 20
0.0
 30
0.0
  9
$PUCSBASE
  2

  9
$PUCSNAME
  2

  9
$PUCSORG
 10
0.0
 20
0.0
 30
0.0
  9
$PUCSXDIR
 10
1.0
 20
0.0
 30
0.0
  9
$PUCSYDIR
 10
0.0
 20
1.0
 30
0.0
  9
$PUCSORTHOREF
  2

  9
$PUCSORTHOVIEW
 70
     0
  9
$PUCSORGTOP
 10
0.0
 20
0.0
 30
0.0
  9
$PUCSORGBOTTOM
 10
0.0
 20
0.0
 30
0.0
  9
$PUCSORGLEFT
 10
0.0
 20
0.0
 30
0.0
  9
$PUCSORGRIGHT
 10
0.0
 20
0.0
 30
0.0
  9
$PUCSORGFRONT
 10
0.0
 20
0.0
 30
0.0
  9
$PUCSORGBACK
 10
0.0
 20
0.0
 30
0.0
  9
$USERI1
 70
     0
  9
$USERI2
 70
     0
  9
$USERI3
 70
     0
  9
$USERI4
 70
     0
  9
$USERI5
 70
     0
  9
$USERR1
 40
0.0
  9
$USERR2
 40
0.0
  9
$USERR3
 40
0.0
  9
$USERR4
 40
0.0
  9
$USERR5
 40
0.0
  9
$WORLDVIEW
 70
     1
  9
$SHADEDGE
 70
     3
  9
$SHADEDIF
 70
    70
  9
$TILEMODE
 70
     1
  9
$MAXACTVP
 70
    64
  9
$PINSBASE
 10
0.0
 20
0.0
 30
0.0
  9
$PLIMCHECK
 70
     0
  9
$PEXTMIN
 10
1.000000000000000E+20
 20
1.000000000000000E+20
 30
1.000000000000000E+20
  9
$PEXTMAX
 10
-1.000000000000000E+20
 20
-1.000000000000000E+20
 30
-1.000000000000000E+20
  9
$PLIMMIN
 10
0.0
 20
0.0
  9
$PLIMMAX
 10
12.0
 20
9.0
  9
$UNITMODE
 70
     0
  9
$VISRETAIN
 70
     1
  9
$PLINEGEN
 70
     0
  9
$PSLTSCALE
 70
     1
  9
$TREEDEPTH
 70
  3020
  9
$CMLSTYLE
  2
Standard
  9
$CMLJUST
 70
     0
  9
$CMLSCALE
 40
1.0
  9
$PROXYGRAPHICS
 70
     1
  9
$MEASUREMENT
 70
     1
  9
$CELWEIGHT
370
    -1
  9
$ENDCAPS
280
     0
  9
$JOINSTYLE
280
     0
  9
$LWDISPLAY
290
     0
  9
$INSUNITS
 70
     4
  9
$HYPERLINKBASE
  1

  9
$STYLESHEET
  1

  9
$XEDIT
290
     1
  9
$CEPSNTYPE
380
     0
  9
$PSTYLEMODE
290
     1
  9
$FINGERPRINTGUID
  2
{12F50282-3ED8-11D3-A8B7-0060B0F84BC6}
  9
$VERSIONGUID
  2
{12F50293-3ED8-11D3-A8B7-0060B0F84BC6}
  9
$EXTNAMES
290
     1
  9
$PSVPSCALE
 40
0.0
  9
$OLESTARTUP
290
     0
  9
$SORTENTS
280
   127
  9
$INDEXCTL
280
     0
  9
$HIDETEXT
280
     0
  9
$XCLIPFRAME
280
     2
  9
$HALOGAP
280
     0
  9
$OBSCOLOR
 70
   257
  9
$OBSLTYPE
280
     0
  9
$INTERSECTIONDISPLAY
280
     0
  9
$INTERSECTIONCOLOR
 70
   257
  9
$DIMASSOC
280
     1
  9
$PROJECTNAME
  1

  9
$CAMERADISPLAY
290
     0
  9
$LENSLENGTH
 40
50.0
  9
$CAMERAHEIGHT
 40
0.0
  9
$STEPSPERSEC
 40
2.0
  9
$STEPSIZE
 40
6.0
  9
$3DDWFPREC
 40
2.0
  9
$PSOLWIDTH
 40
0.25
  9
$PSOLHEIGHT
 40
4.0
  9
$LOFTANG1
 40
1.570796326794896
  9
$LOFTANG2
 40
1.570796326794896
  9
$LOFTMAG1
 40
0.0
  9
$LOFTMAG2
 40
0.0
  9
$LOFTPARAM
 70
     7
  9
$LOFTNORMALS
280
     1
  9
$LATITUDE
 40
37.795
  9
$LONGITUDE
 40
-122.394
  9
$NORTHDIRECTION
 40
0.0
  9
$TIMEZONE
 70
 -8000
  9
$LIGHTGLYPHDISPLAY
280
     1
  9
$TILEMODELIGHTSYNCH
280
     1
  9
$CMATERIAL
347
AB
  9
$SOLIDHIST
280
     0
  9
$SHOWHIST
280
     1
  9
$DWFFRAME
280
     2
  9
$DGNFRAME
280
     0
  9
$REALWORLDSCALE
290
     1
  9
$INTERFERECOLOR
 62
     1
  9
$INTERFEREOBJVS
345
CD
  9
$INTERFEREVPVS
346
CA
  9
$CSHADOW
280
     0
  9
$SHADOWPLANELOCATION
 40
0.0
  0
ENDSEC
  0
SECTION
  2
CLASSES
  0
CLASS
  1
ACDBDICTIONARYWDFLT
  2
AcDbDictionaryWithDefault
  3
ObjectDBX Classes
 90
        0
 91
        1
280
     0
281
     0
  0
CLASS
  1
ACDBPLACEHOLDER
  2
AcDbPlaceHolder
  3
ObjectDBX Classes
 90
        0
 91
        2
280
     0
281
     0
  0
CLASS
  1
LAYOUT
  2
AcDbLayout
  3
ObjectDBX Classes
 90
        0
 91
        3
280
     0
281
     0
  0
CLASS
  1
MATERIAL
  2
AcDbMaterial
  3
ObjectDBX Classes
 90
     1153
 91
        3
280
     0
281
     0
  0
CLASS
  1
VISUALSTYLE
  2
AcDbVisualStyle
  3
ObjectDBX Classes
 90
     4095
 91
       24
280
     0
281
     0
  0
CLASS
  1
TABLESTYLE
  2
AcDbTableStyle
  3
ObjectDBX Classes
 90
     4095
 91
        1
280
     0
281
     0
  0
CLASS
  1
SCALE
  2
AcDbScale
  3
ObjectDBX Classes
 90
     1153
 91
       17
280
     0
281
     0
  0
CLASS
  1
MLEADERSTYLE
  2
AcDbMLeaderStyle
  3
ACDB_MLEADERSTYLE_CLASS
 90
     4095
 91
        1
280
     0
281
     0
  0
CLASS
  1
ACDBSECTIONVIEWSTYLE
  2
AcDbSectionViewStyle
  3
ObjectDBX Classes
 90
     1025
 91
        1
280
     0
281
     0
  0
CLASS
  1
ACDBDETAILVIEWSTYLE
  2
AcDbDetailViewStyle
  3
ObjectDBX Classes
 90
     1025
 91
        1
280
     0
281
     0
  0
CLASS
  1
MESH
  2
AcDbSubDMesh
  3
ObjectDBX Classes
 90
        0
 91
        1
280
     0
281
     1
  0
CLASS
  1
DICTIONARYVAR
  2
AcDbDictionaryVar
  3
ObjectDBX Classes
 90
        0
 91
        9
280
     0
281
     0
  0
CLASS
  1
CELLSTYLEMAP
  2
AcDbCellStyleMap
  3
ObjectDBX Classes
 90
     1152
 91
        1
280
     0
281
     0
  0
ENDSEC
  0
SECTION
  2
TABLES
  0
TABLE
  2
VPORT
  5
8
330
0
100
AcDbSymbolTable
 70
     1
  0
VPORT
  5
A8
330
8
100
AcDbSymbolTableRecord
100
AcDbViewportTableRecord
  2
*Active
 70
     0
 10
0.0
 20
0.0
 11
1.0
 21
1.0
 12
11.21296215057373
 22
44.55722045898437
 13
0.0
 23
0.0
 14
0.5
 24
0.5
 15
0.5
 25
0.5
 16
-1.0
 26
-1.0
 36
1.0
 17
0.0
 27
0.0
 37
0.0
 40
1140.857520077122
 41
1.542275706756409
 42
50.0
 43
0.0
 44
0.0
 50
0.0
 51
0.0
 71
     0
 72
   100
 73
     1
 74
     3
 75
     0
 76
     0
 77
     0
 78
     0
281
     0
 65
     1
110
0.0
120
0.0
130
0.0
111
1.0
121
0.0
131
0.0
112
0.0
122
1.0
132
0.0
 79
     0
146
0.0
348
C9
 60
     3
 61
     5
292
     1
282
     1
141
0.0
142
0.0
 63
   250
421
  3355443
  0
ENDTAB
  0
TABLE
  2
LTYPE
  5
5
330
0
100
AcDbSymbolTable
 70
     1
  0
LTYPE
  5
14
330
5
100
AcDbSymbolTableRecord
100
AcDbLinetypeTableRecord
  2
ByBlock
 70
     0
  3

 72
    65
 73
     0
 40
0.0
  0
LTYPE
  5
15
330
5
100
AcDbSymbolTableRecord
100
AcDbLinetypeTableRecord
  2
ByLayer
 70
     0
  3

 72
    65
 73
     0
 40
0.0
  0
LTYPE
  5
16
330
5
100
AcDbSymbolTableRecord
100
AcDbLinetypeTableRecord
  2
Continuous
 70
     0
  3
Solid line
 72
    65
 73
     0
 40
0.0
  0
ENDTAB
  0
TABLE
  2
LAYER
  5
2
330
0
100
AcDbSymbolTable
 70
     3
  0
LAYER
  5
10
330
2
100
AcDbSymbolTableRecord
100
AcDbLayerTableRecord
  2
0
 70
     0
 62
     7
  6
Continuous
370
    -3
390
F
347
BB
  0
LAYER
  5
2B
330
2
100
AcDbSymbolTableRecord
100
AcDbLayerTableRecord
  2
ASHADE
 70
     4
 62
     7
  6
Continuous
370
    -3
390
2D
347
BB
  0
LAYER
  5
F8
330
2
100
AcDbSymbolTableRecord
100
AcDbLayerTableRecord
  2
OracDecor_panel_moldings
 70
     0
 62
   151
420
 10140133
  6
Continuous
370
    -3
390
F
347
BB
  0
ENDTAB
  0
TABLE
  2
STYLE
  5
3
330
0
100
AcDbSymbolTable
 70
     2
  0
STYLE
  5
11
330
3
100
AcDbSymbolTableRecord
100
AcDbTextStyleTableRecord
  2
Standard
 70
     0
 40
0.0
 41
1.0
 50
0.0
 71
     0
 42
0.2
  3
txt
  4

  0
STYLE
  5
2C
330
3
100
AcDbSymbolTableRecord
100
AcDbTextStyleTableRecord
  2
ASHADE
 70
     0
 40
0.2
 41
1.0
 50
0.0
 71
     0
 42
0.2
  3
simplex
  4

  0
ENDTAB
  0
TABLE
  2
VIEW
  5
6
330
0
100
AcDbSymbolTable
 70
     0
  0
ENDTAB
  0
TABLE
  2
UCS
  5
7
330
0
100
AcDbSymbolTable
 70
     0
  0
ENDTAB
  0
TABLE
  2
APPID
  5
9
330
0
100
AcDbSymbolTable
 70
     6
  0
APPID
  5
12
330
9
100
AcDbSymbolTableRecord
100
AcDbRegAppTableRecord
  2
ACAD
 70
     0
  0
APPID
  5
8F
330
9
100
AcDbSymbolTableRecord
100
AcDbRegAppTableRecord
  2
AVE_RENDER
 70
     0
  0
APPID
  5
90
330
9
100
AcDbSymbolTableRecord
100
AcDbRegAppTableRecord
  2
AVE_ENTITY_MATERIAL
 70
     0
  0
APPID
  5
9C
330
9
100
AcDbSymbolTableRecord
100
AcDbRegAppTableRecord
  2
AVE_FINISH
 70
     0
  0
APPID
  5
9D
330
9
100
AcDbSymbolTableRecord
100
AcDbRegAppTableRecord
  2
AVE_MATERIAL
 70
     0
  0
APPID
  5
9E
330
9
100
AcDbSymbolTableRecord
100
AcDbRegAppTableRecord
  2
AVE_GLOBAL
 70
     0
  0
ENDTAB
  0
TABLE
  2
DIMSTYLE
  5
A
330
0
100
AcDbSymbolTable
 70
     1
100
AcDbDimStyleTable
 71
     0
  0
DIMSTYLE
105
27
330
A
100
AcDbSymbolTableRecord
100
AcDbDimStyleTableRecord
  2
Standard
 70
     0
340
11
  0
ENDTAB
  0
TABLE
  2
BLOCK_RECORD
  5
1
330
0
100
AcDbSymbolTable
 70
     6
  0
BLOCK_RECORD
  5
1F
330
1
100
AcDbSymbolTableRecord
100
AcDbBlockTableRecord
  2
*Model_Space
340
22
 70
     0
280
     1
281
     0
  0
BLOCK_RECORD
  5
1B
330
1
100
AcDbSymbolTableRecord
100
AcDbBlockTableRecord
  2
*Paper_Space
340
1E
 70
     0
280
     1
281
     0
  0
BLOCK_RECORD
  5
23
330
1
100
AcDbSymbolTableRecord
100
AcDbBlockTableRecord
  2
*Paper_Space0
340
26
 70
     0
280
     1
281
     0
  0
BLOCK_RECORD
  5
2E
330
1
100
AcDbSymbolTableRecord
100
AcDbBlockTableRecord
  2
direct
340
0
 70
     0
280
     1
281
     0
  0
BLOCK_RECORD
  5
42
330
1
100
AcDbSymbolTableRecord
100
AcDbBlockTableRecord
  2
overhead
340
0
 70
     0
280
     1
281
     0
  0
BLOCK_RECORD
  5
5F
330
1
100
AcDbSymbolTableRecord
100
AcDbBlockTableRecord
  2
sh_spot
340
0
 70
     0
280
     1
281
     0
  0
BLOCK_RECORD
  5
91
330
1
100
AcDbSymbolTableRecord
100
AcDbBlockTableRecord
  2
AVE_RENDER
340
0
102
{BLKREFS
331
94
331
95
331
96
331
97
331
98
331
99
331
9A
331
9B
102
}
 70
     0
280
     1
281
     0
  0
BLOCK_RECORD
  5
9F
330
1
100
AcDbSymbolTableRecord
100
AcDbBlockTableRecord
  2
AVE_GLOBAL
340
0
102
{BLKREFS
331
A2
102
}
 70
     0
280
     1
281
     0
  0
ENDTAB
  0
ENDSEC
  0
SECTION
  2
BLOCKS
  0
BLOCK
  5
20
330
1F
100
AcDbEntity
  8
0
100
AcDbBlockBegin
  2
*Model_Space
 70
     0
 10
0.0
 20
0.0
 30
0.0
  3
*Model_Space
  1

  0
ENDBLK
  5
21
330
1F
100
AcDbEntity
  8
0
100
AcDbBlockEnd
  0
BLOCK
  5
1C
330
1B
100
AcDbEntity
 67
     1
  8
0
100
AcDbBlockBegin
  2
*Paper_Space
 70
     0
 10
0.0
 20
0.0
 30
0.0
  3
*Paper_Space
  1

  0
ENDBLK
  5
1D
330
1B
100
AcDbEntity
 67
     1
  8
0
100
AcDbBlockEnd
  0
BLOCK
  5
24
330
23
100
AcDbEntity
 67
     1
  8
0
100
AcDbBlockBegin
  2
*Paper_Space0
 70
     0
 10
0.0
 20
0.0
 30
0.0
  3
*Paper_Space0
  1

  0
ENDBLK
  5
25
330
23
100
AcDbEntity
 67
     1
  8
0
100
AcDbBlockEnd
  0
BLOCK
  5
40
330
2E
100
AcDbEntity
  8
0
100
AcDbBlockBegin
  2
direct
 70
     2
 10
0.0
 20
0.0
 30
0.0
  3
direct
  1

  0
ATTDEF
  5
2F
330
2E
100
AcDbEntity
  8
ASHADE
  6
Continuous
 62
     1
100
AcDbText
 10
0.0
 20
-0.1
 30
0.0
 40
0.2
  1

  7
ASHADE
 72
     1
 11
0.0
 21
-0.1
 31
0.0
100
AcDbAttributeDefinition
280
     0
  3
Light Name
  2
SNAME
 70
     0
280
     0
  0
ARC
  5
30
330
2E
100
AcDbEntity
  8
ASHADE
  6
Continuous
 62
     7
100
AcDbCircle
 10
0.0
 20
0.0
 30
0.0
 40
0.3
100
AcDbArc
 50
205.6792886194569
 51
334.3207113805431
  0
ARC
  5
31
330
2E
100
AcDbEntity
  8
ASHADE
  6
Continuous
 62
     7
100
AcDbCircle
 10
0.0
 20
0.0
 30
0.0
 40
0.3
100
AcDbArc
 50
25.67928861945685
 51
154.3207113805431
  0
LINE
  5
32
330
2E
100
AcDbEntity
  8
ASHADE
  6
Continuous
 62
     7
100
AcDbLine
 10
-0.21
 20
0.2142428528562855
 30
0.0
 11
-0.21
 21
0.5
 31
0.0
  0
LINE
  5
33
330
2E
100
AcDbEntity
  8
ASHADE
  6
Continuous
 62
     7
100
AcDbLine
 10
-0.11
 20
0.2791057147390572
 30
0.0
 11
-0.11
 21
0.5
 31
0.0
  0
LINE
  5
34
330
2E
100
AcDbEntity
  8
ASHADE
  6
Continuous
 62
     7
100
AcDbLine
 10
0.21
 20
0.2142428528562855
 30
0.0
 11
0.21
 21
0.5
 31
0.0
  0
ATTDEF
  5
35
330
2E
100
AcDbEntity
  8
ASHADE
  6
Continuous
 62
     7
100
AcDbText
 10
0.0
 20
0.25
 30
0.0
 40
0.01
  1

100
AcDbAttributeDefinition
280
     0
  3
Look-at Y
  2
LAY
 70
     1
280
     0
  0
ATTDEF
  5
36
330
2E
100
AcDbEntity
  8
ASHADE
  6
Continuous
 62
     7
100
AcDbText
 10
0.0
 20
0.22
 30
0.0
 40
0.01
  1
1
100
AcDbAttributeDefinition
280
     0
  3
Light Intensity
  2
INTENSITY
 70
     1
280
     0
  0
ATTDEF
  5
37
330
2E
100
AcDbEntity
  8
ASHADE
  6
Continuous
 62
     7
100
AcDbText
 10
0.0
 20
0.16
 30
0.0
 40
0.01
  1
-1
100
AcDbAttributeDefinition
280
     0
  3
*not used*
  2
BEAMD
 70
     1
280
     0
  0
ATTDEF
  5
38
330
2E
100
AcDbEntity
  8
ASHADE
  6
Continuous
 62
     7
100
AcDbText
 10
0.0
 20
0.175
 30
0.0
 40
0.01
  1
-1
100
AcDbAttributeDefinition
280
     0
  3
*not used*
  2
CONED
 70
     1
280
     0
  0
ATTDEF
  5
39
330
2E
100
AcDbEntity
  8
ASHADE
  6
Continuous
 62
     7
100
AcDbText
 10
0.0
 20
0.19
 30
0.0
 40
0.01
  1
0
100
AcDbAttributeDefinition
280
     0
  3
Depth Map Size
  2
CONEA
 70
     1
280
     0
  0
ATTDEF
  5
3A
330
2E
100
AcDbEntity
  8
ASHADE
  6
Continuous
 62
     7
100
AcDbText
 10
0.0
 20
0.2050000000000001
 30
0.0
 40
0.01
  1
1,1,1
100
AcDbAttributeDefinition
280
     0
  3
Light Color (RGB)
  2
COLOR
 70
     1
280
     0
  0
ATTDEF
  5
3B
330
2E
100
AcDbEntity
  8
ASHADE
  6
Continuous
 62
     7
100
AcDbText
 10
0.0
 20
0.235
 30
0.0
 40
0.01
  1

100
AcDbAttributeDefinition
280
     0
  3
Look-at Z
  2
LAZ
 70
     1
280
     0
  0
LINE
  5
3C
330
2E
100
AcDbEntity
  8
ASHADE
  6
Continuous
 62
     7
100
AcDbLine
 10
0.0
 20
0.3
 30
0.0
 11
0.0
 21
0.5
 31
0.0
  0
LINE
  5
3D
330
2E
100
AcDbEntity
  8
ASHADE
  6
Continuous
 62
     7
100
AcDbLine
 10
0.11
 20
0.2791057147390572
 30
0.0
 11
0.11
 21
0.5
 31
0.0
  0
ATTDEF
  5
3E
330
2E
100
AcDbEntity
  8
ASHADE
  6
Continuous
 62
     7
100
AcDbText
 10
0.0
 20
0.265
 30
0.0
 40
0.01
  1

100
AcDbAttributeDefinition
280
     0
  3
Look-at X
  2
LAX
 70
     1
280
     0
  0
ATTDEF
  5
3F
330
2E
100
AcDbEntity
  8
ASHADE
  6
Continuous
 62
     7
100
AcDbText
 10
0.0
 20
0.28
 30
0.0
 40
0.01
  1

100
AcDbAttributeDefinition
280
     0
  3

  2
GNAME
 70
     1
280
     0
  0
ENDBLK
  5
41
330
2E
100
AcDbEntity
  8
0
100
AcDbBlockEnd
  0
BLOCK
  5
5D
330
42
100
AcDbEntity
  8
0
100
AcDbBlockBegin
  2
overhead
 70
     2
 10
0.0
 20
0.0
 30
0.0
  3
overhead
  1

  0
ATTDEF
  5
43
330
42
100
AcDbEntity
  8
ASHADE
  6
Continuous
 62
     1
100
AcDbText
 10
0.0
 20
-0.1
 30
0.0
 40
0.2
  1

  7
ASHADE
 72
     1
 11
0.0
 21
-0.1
 31
0.0
100
AcDbAttributeDefinition
280
     0
  3
Light Name
  2
SNAME
 70
     0
280
     0
  0
ARC
  5
44
330
42
100
AcDbEntity
  8
ASHADE
  6
Continuous
 62
     7
100
AcDbCircle
 10
0.0
 20
0.0
 30
0.0
 40
0.3
100
AcDbArc
 50
205.6792886194569
 51
334.3207113805431
  0
LINE
  5
45
330
42
100
AcDbEntity
  8
ASHADE
  6
Continuous
 62
     7
100
AcDbLine
 10
-0.2041413561583015
 20
-0.2198324514393848
 30
0.0
 11
-0.2721884748777353
 21
-0.2931099352525131
 31
0.0
  0
LINE
  5
46
330
42
100
AcDbEntity
  8
ASHADE
  6
Continuous
 62
     7
100
AcDbLine
 10
-0.1096591641591904
 20
-0.2792398032442862
 30
0.0
 11
-0.1279356915190555
 21
-0.3257797704516673
 31
0.0
  0
LINE
  5
47
330
42
100
AcDbEntity
  8
ASHADE
  6
Continuous
 62
     7
100
AcDbLine
 10
0.0
 20
-0.2999999999999999
 30
0.0
 11
0.0
 21
-0.4
 31
0.0
  0
LINE
  5
48
330
42
100
AcDbEntity
  8
ASHADE
  6
Continuous
 62
     7
100
AcDbLine
 10
0.1096591641591904
 20
-0.2792398032442862
 30
0.0
 11
0.1279356915190555
 21
-0.3257797704516673
 31
0.0
  0
LINE
  5
49
330
42
100
AcDbEntity
  8
ASHADE
  6
Continuous
 62
     7
100
AcDbLine
 10
0.2041413561583015
 20
-0.2198324514393848
 30
0.0
 11
0.2721884748777353
 21
-0.2931099352525131
 31
0.0
  0
ARC
  5
4A
330
42
100
AcDbEntity
  8
ASHADE
  6
Continuous
 62
     7
100
AcDbCircle
 10
0.0
 20
0.0
 30
0.0
 40
0.3
100
AcDbArc
 50
25.67928861945685
 51
154.3207113805431
  0
LINE
  5
4B
330
42
100
AcDbEntity
  8
ASHADE
  6
Continuous
 62
     7
100
AcDbLine
 10
-0.2703701166919155
 20
0.13
 30
0.0
 11
-0.3154318028072347
 21
0.1516666666666666
 31
0.0
  0
LINE
  5
4C
330
42
100
AcDbEntity
  8
ASHADE
  6
Continuous
 62
     7
100
AcDbLine
 10
-0.2703701166919155
 20
-0.13
 30
0.0
 11
-0.3154318028072347
 21
-0.1516666666666666
 31
0.0
  0
LINE
  5
4D
330
42
100
AcDbEntity
  8
ASHADE
  6
Continuous
 62
     7
100
AcDbLine
 10
-0.2041413561583015
 20
0.2198324514393849
 30
0.0
 11
-0.2721884748777353
 21
0.2931099352525131
 31
0.0
  0
LINE
  5
4E
330
42
100
AcDbEntity
  8
ASHADE
  6
Continuous
 62
     7
100
AcDbLine
 10
-0.1096591641591904
 20
0.2792398032442862
 30
0.0
 11
-0.1279356915190555
 21
0.3257797704516674
 31
0.0
  0
LINE
  5
4F
330
42
100
AcDbEntity
  8
ASHADE
  6
Continuous
 62
     7
100
AcDbLine
 10
0.2703701166919155
 20
-0.13
 30
0.0
 11
0.3154318028072347
 21
-0.1516666666666666
 31
0.0
  0
LINE
  5
50
330
42
100
AcDbEntity
  8
ASHADE
  6
Continuous
 62
     7
100
AcDbLine
 10
0.2703701166919155
 20
0.13
 30
0.0
 11
0.3154318028072347
 21
0.1516666666666666
 31
0.0
  0
LINE
  5
51
330
42
100
AcDbEntity
  8
ASHADE
  6
Continuous
 62
     7
100
AcDbLine
 10
0.0
 20
0.3
 30
0.0
 11
0.0
 21
0.4
 31
0.0
  0
ATTDEF
  5
52
330
42
100
AcDbEntity
  8
ASHADE
  6
Continuous
 62
     7
100
AcDbText
 10
0.0
 20
0.22
 30
0.0
 40
0.01
  1
1
100
AcDbAttributeDefinition
280
     0
  3
Light Intensity
  2
INTENSITY
 70
     1
280
     0
  0
ATTDEF
  5
53
330
42
100
AcDbEntity
  8
ASHADE
  6
Continuous
 62
     7
100
AcDbText
 10
0.0
 20
0.16
 30
0.0
 40
0.01
  1
-1
100
AcDbAttributeDefinition
280
     0
  3
*not used*
  2
BEAMD
 70
     1
280
     0
  0
ATTDEF
  5
54
330
42
100
AcDbEntity
  8
ASHADE
  6
Continuous
 62
     7
100
AcDbText
 10
0.0
 20
0.175
 30
0.0
 40
0.01
  1
-1
100
AcDbAttributeDefinition
280
     0
  3
*not used*
  2
CONED
 70
     1
280
     0
  0
ATTDEF
  5
55
330
42
100
AcDbEntity
  8
ASHADE
  6
Continuous
 62
     7
100
AcDbText
 10
0.0
 20
0.19
 30
0.0
 40
0.01
  1
0
100
AcDbAttributeDefinition
280
     0
  3
Depth Map Size
  2
CONEA
 70
     1
280
     0
  0
ATTDEF
  5
56
330
42
100
AcDbEntity
  8
ASHADE
  6
Continuous
 62
     7
100
AcDbText
 10
0.0
 20
0.2050000000000001
 30
0.0
 40
0.01
  1
1,1,1
100
AcDbAttributeDefinition
280
     0
  3
Light Color (RGB)
  2
COLOR
 70
     1
280
     0
  0
ATTDEF
  5
57
330
42
100
AcDbEntity
  8
ASHADE
  6
Continuous
 62
     7
100
AcDbText
 10
0.0
 20
0.235
 30
0.0
 40
0.01
  1

100
AcDbAttributeDefinition
280
     0
  3
Look-at Z
  2
LAZ
 70
     1
280
     0
  0
ATTDEF
  5
58
330
42
100
AcDbEntity
  8
ASHADE
  6
Continuous
 62
     7
100
AcDbText
 10
0.0
 20
0.25
 30
0.0
 40
0.01
  1

100
AcDbAttributeDefinition
280
     0
  3
Look-at Y
  2
LAY
 70
     1
280
     0
  0
ATTDEF
  5
59
330
42
100
AcDbEntity
  8
ASHADE
  6
Continuous
 62
     7
100
AcDbText
 10
0.0
 20
0.265
 30
0.0
 40
0.01
  1

100
AcDbAttributeDefinition
280
     0
  3
Look-at X
  2
LAX
 70
     1
280
     0
  0
ATTDEF
  5
5A
330
42
100
AcDbEntity
  8
ASHADE
  6
Continuous
 62
     7
100
AcDbText
 10
0.0
 20
0.28
 30
0.0
 40
0.01
  1

100
AcDbAttributeDefinition
280
     0
  3

  2
GNAME
 70
     1
280
     0
  0
LINE
  5
5B
330
42
100
AcDbEntity
  8
ASHADE
  6
Continuous
 62
     7
100
AcDbLine
 10
0.1096591641591904
 20
0.2792398032442862
 30
0.0
 11
0.1279356915190555
 21
0.3257797704516674
 31
0.0
  0
LINE
  5
5C
330
42
100
AcDbEntity
  8
ASHADE
  6
Continuous
 62
     7
100
AcDbLine
 10
0.2041413561583015
 20
0.2198324514393849
 30
0.0
 11
0.2721884748777353
 21
0.2931099352525131
 31
0.0
  0
ENDBLK
  5
5E
330
42
100
AcDbEntity
  8
0
100
AcDbBlockEnd
  0
BLOCK
  5
85
330
5F
100
AcDbEntity
  8
0
100
AcDbBlockBegin
  2
sh_spot
 70
     2
 10
0.0
 20
0.0
 30
0.0
  3
sh_spot
  1

  0
LINE
  5
60
330
5F
100
AcDbEntity
  8
ASHADE
  6
Continuous
 62
     7
100
AcDbLine
 10
0.25
 20
0.26
 30
0.0
 11
-0.25
 21
0.26
 31
0.0
  0
LINE
  5
61
330
5F
100
AcDbEntity
  8
ASHADE
  6
Continuous
 62
     7
100
AcDbLine
 10
-0.25
 20
-0.3399999999999999
 30
0.0
 11
0.25
 21
-0.3399999999999999
 31
0.0
  0
ATTDEF
  5
62
330
5F
100
AcDbEntity
  8
ASHADE
  6
Continuous
 62
     1
100
AcDbText
 10
0.0
 20
-0.1
 30
0.0
 40
0.2
  1

  7
ASHADE
 72
     1
 11
0.0
 21
-0.1
 31
0.0
100
AcDbAttributeDefinition
280
     0
  3
Light Name
  2
SNAME
 70
     0
280
     0
  0
LINE
  5
63
330
5F
100
AcDbEntity
  8
ASHADE
  6
Continuous
 62
     7
100
AcDbLine
 10
-0.25
 20
-0.13
 30
0.0
 11
-0.25
 21
-0.3399999999999999
 31
0.0
  0
LINE
  5
64
330
5F
100
AcDbEntity
  8
ASHADE
  6
Continuous
 62
     7
100
AcDbLine
 10
-0.25
 20
-0.18
 30
0.0
 11
-0.29
 21
-0.18
 31
0.0
  0
LINE
  5
65
330
5F
100
AcDbEntity
  8
ASHADE
  6
Continuous
 62
     7
100
AcDbLine
 10
-0.29
 20
-0.22
 30
0.0
 11
-0.25
 21
-0.22
 31
0.0
  0
LINE
  5
66
330
5F
100
AcDbEntity
  8
ASHADE
  6
Continuous
 62
     7
100
AcDbLine
 10
-0.29
 20
-0.18
 30
0.0
 11
-0.29
 21
-0.22
 31
0.0
  0
LINE
  5
67
330
5F
100
AcDbEntity
  8
ASHADE
  6
Continuous
 62
     7
100
AcDbLine
 10
-0.1045454545454545
 20
0.26
 30
0.0
 11
-0.15
 21
0.46
 31
0.0
  0
LINE
  5
68
330
5F
100
AcDbEntity
  8
ASHADE
  6
Continuous
 62
     7
100
AcDbLine
 10
-0.21
 20
0.26
 30
0.0
 11
-0.301304347826087
 21
0.46
 31
0.0
  0
LINE
  5
69
330
5F
100
AcDbEntity
  8
ASHADE
  6
Continuous
 62
     7
100
AcDbLine
 10
-0.25
 20
0.26
 30
0.0
 11
-0.25
 21
0.13
 31
0.0
  0
LINE
  5
6A
330
5F
100
AcDbEntity
  8
ASHADE
  6
Continuous
 62
     7
100
AcDbLine
 10
-0.25
 20
0.22
 30
0.0
 11
-0.29
 21
0.22
 31
0.0
  0
LINE
  5
6B
330
5F
100
AcDbEntity
  8
ASHADE
  6
Continuous
 62
     7
100
AcDbLine
 10
-0.29
 20
0.1799999999999999
 30
0.0
 11
-0.25
 21
0.1799999999999999
 31
0.0
  0
LINE
  5
6C
330
5F
100
AcDbEntity
  8
ASHADE
  6
Continuous
 62
     7
100
AcDbLine
 10
-0.29
 20
0.22
 30
0.0
 11
-0.29
 21
0.1799999999999999
 31
0.0
  0
ATTDEF
  5
6D
330
5F
100
AcDbEntity
  8
ASHADE
  6
Continuous
 62
     7
100
AcDbText
 10
0.0
 20
-0.24
 30
0.0
 40
0.01
  1
0
100
AcDbAttributeDefinition
280
     0
  3
Depth Map Size
  2
ZSIZE
 70
     1
280
     0
  0
ATTDEF
  5
6E
330
5F
100
AcDbEntity
  8
ASHADE
  6
Continuous
 62
     7
100
AcDbText
 10
0.0
 20
-0.3300000000000001
 30
0.0
 40
0.01
  1
0,0,0
100
AcDbAttributeDefinition
280
     0
  3
Look-from XYZ
  2
LFXYZ
 70
     1
280
     0
  0
ATTDEF
  5
6F
330
5F
100
AcDbEntity
  8
ASHADE
  6
Continuous
 62
     7
100
AcDbText
 10
0.0
 20
-0.315
 30
0.0
 40
0.01
  1
0.0
100
AcDbAttributeDefinition
280
     0
  3
Beam Distribution
  2
BEAMDI
 70
     1
280
     0
  0
ATTDEF
  5
70
330
5F
100
AcDbEntity
  8
ASHADE
  6
Continuous
 62
     7
100
AcDbText
 10
0.0
 20
-0.3
 30
0.0
 40
0.01
  1
0.0
100
AcDbAttributeDefinition
280
     0
  3
Cone Delta
  2
CONEDE
 70
     1
280
     0
  0
ATTDEF
  5
71
330
5F
100
AcDbEntity
  8
ASHADE
  6
Continuous
 62
     7
100
AcDbText
 10
0.0
 20
-0.2850000000000001
 30
0.0
 40
0.01
  1
10.0
100
AcDbAttributeDefinition
280
     0
  3
Cone Angle
  2
CONEAN
 70
     1
280
     0
  0
ATTDEF
  5
72
330
5F
100
AcDbEntity
  8
ASHADE
  6
Continuous
 62
     7
100
AcDbText
 10
0.0
 20
-0.27
 30
0.0
 40
0.01
  1
-1
100
AcDbAttributeDefinition
280
     0
  3
*not used*
  2
BIASMAX
 70
     1
280
     0
  0
ATTDEF
  5
73
330
5F
100
AcDbEntity
  8
ASHADE
  6
Continuous
 62
     7
100
AcDbText
 10
0.0
 20
-0.255
 30
0.0
 40
0.01
  1
-1
100
AcDbAttributeDefinition
280
     0
  3
*not used*
  2
BIASMIN
 70
     1
280
     0
  0
ATTDEF
  5
74
330
5F
100
AcDbEntity
  8
ASHADE
  6
Continuous
 62
     7
100
AcDbText
 10
0.0
 20
-0.225
 30
0.0
 40
0.01
  1
1,1,1
100
AcDbAttributeDefinition
280
     0
  3
Light Color (RGB)
  2
COLOR
 70
     1
280
     0
  0
ATTDEF
  5
75
330
5F
100
AcDbEntity
  8
ASHADE
  6
Continuous
 62
     7
100
AcDbText
 10
0.0
 20
-0.21
 30
0.0
 40
0.01
  1
1
100
AcDbAttributeDefinition
280
     0
  3
Light Intensity
  2
INTENSITY
 70
     1
280
     0
  0
ATTDEF
  5
76
330
5F
100
AcDbEntity
  8
ASHADE
  6
Continuous
 62
     7
100
AcDbText
 10
0.0
 20
-0.15
 30
0.0
 40
0.01
  1

100
AcDbAttributeDefinition
280
     0
  3

  2
GNAME
 70
     1
280
     0
  0
ATTDEF
  5
77
330
5F
100
AcDbEntity
  8
ASHADE
  6
Continuous
 62
     7
100
AcDbText
 10
0.0
 20
-0.195
 30
0.0
 40
0.01
  1

100
AcDbAttributeDefinition
280
     0
  3
Look-at Z
  2
LAZ
 70
     1
280
     0
  0
ATTDEF
  5
78
330
5F
100
AcDbEntity
  8
ASHADE
  6
Continuous
 62
     7
100
AcDbText
 10
0.0
 20
-0.18
 30
0.0
 40
0.01
  1

100
AcDbAttributeDefinition
280
     0
  3
Look-at Y
  2
LAY
 70
     1
280
     0
  0
ATTDEF
  5
79
330
5F
100
AcDbEntity
  8
ASHADE
  6
Continuous
 62
     7
100
AcDbText
 10
0.0
 20
-0.165
 30
0.0
 40
0.01
  1

100
AcDbAttributeDefinition
280
     0
  3
Look-at X
  2
LAX
 70
     1
280
     0
  0
LINE
  5
7A
330
5F
100
AcDbEntity
  8
ASHADE
  6
Continuous
 62
     7
100
AcDbLine
 10
0.25
 20
-0.3399999999999999
 30
0.0
 11
0.25
 21
-0.13
 31
0.0
  0
LINE
  5
7B
330
5F
100
AcDbEntity
  8
ASHADE
  6
Continuous
 62
     7
100
AcDbLine
 10
0.25
 20
-0.18
 30
0.0
 11
0.29
 21
-0.18
 31
0.0
  0
LINE
  5
7C
330
5F
100
AcDbEntity
  8
ASHADE
  6
Continuous
 62
     7
100
AcDbLine
 10
0.29
 20
-0.22
 30
0.0
 11
0.25
 21
-0.22
 31
0.0
  0
LINE
  5
7D
330
5F
100
AcDbEntity
  8
ASHADE
  6
Continuous
 62
     7
100
AcDbLine
 10
0.29
 20
-0.18
 30
0.0
 11
0.29
 21
-0.22
 31
0.0
  0
LINE
  5
7E
330
5F
100
AcDbEntity
  8
ASHADE
  6
Continuous
 62
     7
100
AcDbLine
 10
0.21
 20
0.26
 30
0.0
 11
0.301304347826087
 21
0.46
 31
0.0
  0
LINE
  5
7F
330
5F
100
AcDbEntity
  8
ASHADE
  6
Continuous
 62
     7
100
AcDbLine
 10
0.1045454545454545
 20
0.26
 30
0.0
 11
0.15
 21
0.46
 31
0.0
  0
LINE
  5
80
330
5F
100
AcDbEntity
  8
ASHADE
  6
Continuous
 62
     7
100
AcDbLine
 10
0.0
 20
0.26
 30
0.0
 11
0.0
 21
0.46
 31
0.0
  0
LINE
  5
81
330
5F
100
AcDbEntity
  8
ASHADE
  6
Continuous
 62
     7
100
AcDbLine
 10
0.25
 20
0.13
 30
0.0
 11
0.25
 21
0.26
 31
0.0
  0
LINE
  5
82
330
5F
100
AcDbEntity
  8
ASHADE
  6
Continuous
 62
     7
100
AcDbLine
 10
0.25
 20
0.22
 30
0.0
 11
0.29
 21
0.22
 31
0.0
  0
LINE
  5
83
330
5F
100
AcDbEntity
  8
ASHADE
  6
Continuous
 62
     7
100
AcDbLine
 10
0.29
 20
0.1799999999999999
 30
0.0
 11
0.25
 21
0.1799999999999999
 31
0.0
  0
LINE
  5
84
330
5F
100
AcDbEntity
  8
ASHADE
  6
Continuous
 62
     7
100
AcDbLine
 10
0.29
 20
0.22
 30
0.0
 11
0.29
 21
0.1799999999999999
 31
0.0
  0
ENDBLK
  5
86
330
5F
100
AcDbEntity
  8
0
100
AcDbBlockEnd
  0
BLOCK
  5
92
330
91
100
AcDbEntity
  8
ASHADE
100
AcDbBlockBegin
  2
AVE_RENDER
 70
     0
 10
0.0
 20
0.0
 30
0.0
  3
AVE_RENDER
  1
AVE_RENDER
  0
ENDBLK
  5
93
330
91
100
AcDbEntity
  8
0
100
AcDbBlockEnd
  0
BLOCK
  5
A0
330
9F
100
AcDbEntity
  8
ASHADE
100
AcDbBlockBegin
  2
AVE_GLOBAL
 70
     0
 10
0.0
 20
0.0
 30
0.0
  3
AVE_GLOBAL
  1
AVE_GLOBAL
  0
ENDBLK
  5
A1
330
9F
100
AcDbEntity
  8
0
100
AcDbBlockEnd
  0
ENDSEC
  0
SECTION
  2
ENTITIES
  0
INSERT
  5
94
330
1F
100
AcDbEntity
  8
ASHADE
 62
     1
100
AcDbBlockReference
  2
AVE_RENDER
 10
0.0
 20
0.0
 30
0.0
1001
AVE_RENDER
1002
{
1070
     7
1000
Pref
1070
    30
1070
    20
1070
     1
1070
     0
1000

1070
    10
1070
     1
1070
    10
1040
1.0
1070
     1
1040
0.3
1040
0.7
1040
0.0
1040
10.0
1010
-1.0
1020
-1.0
1030
-1.0
1040
0.3
1070
    49
1070
     0
1070
     0
1010
1.0
1020
1.0
1030
1.0
1040
45.0
1070
     1
1070
     0
1000
WCS
1040
0.0
1070
     0
1040
10.0
1002
}
  0
INSERT
  5
95
330
1F
100
AcDbEntity
  8
ASHADE
 62
     3
100
AcDbBlockReference
  2
AVE_RENDER
 10
0.0
 20
0.0
 30
0.0
1001
AVE_RENDER
1002
{
1070
     0
1000
Full Opt
1070
     0
1070
     1
1070
     1
1070
     1
1070
     0
1070
     0
1070
     0
1070
     1
1070
     1
1040
0.0001
1040
0.0001
1002
}
  0
INSERT
  5
96
330
1F
100
AcDbEntity
  8
ASHADE
 62
     4
100
AcDbBlockReference
  2
AVE_RENDER
 10
0.0
 20
0.0
 30
0.0
1001
AVE_RENDER
1002
{
1070
     0
1000
Quick Opt
1070
     0
1070
     1
1070
     1
1070
     1
1070
     0
1070
     0
1070
     1
1002
}
  0
INSERT
  5
97
330
1F
100
AcDbEntity
  8
ASHADE
 62
     5
100
AcDbBlockReference
  2
AVE_RENDER
 10
0.0
 20
0.0
 30
0.0
1001
AVE_RENDER
1002
{
1070
     1
1000
Scanl Opt
1070
     2
1070
     0
1070
     2
1040
2.0
1040
4.0
1070
     0
1070
     1
1070
     0
1040
0.03
1002
}
  0
INSERT
  5
98
330
1F
100
AcDbEntity
  8
ASHADE
 62
     6
100
AcDbBlockReference
  2
AVE_RENDER
 10
0.0
 20
0.0
 30
0.0
1001
AVE_RENDER
1002
{
1070
     2
1000
Raytr Opt
1070
     2
1070
     0
1070
     2
1040
2.0
1040
4.0
1070
     0
1070
     1
1070
     1
1040
0.03
1070
     3
1040
0.03
1002
}
  0
INSERT
  5
99
330
1F
100
AcDbEntity
  8
ASHADE
 62
     7
100
AcDbBlockReference
  2
AVE_RENDER
 10
0.0
 20
0.0
 30
0.0
1001
AVE_RENDER
1002
{
1070
     0
1000
RFile Opt
1070
     1
1070
   640
1070
   480
1070
 10000
1070
     1
1070
     8
1070
     8
1070
     0
1070
     0
1070
     0
1070
     0
1070
     0
1070
     0
1070
     0
1002
}
  0
INSERT
  5
9A
330
1F
100
AcDbEntity
  8
ASHADE
 62
     8
100
AcDbBlockReference
  2
AVE_RENDER
 10
0.0
 20
0.0
 30
0.0
1001
AVE_RENDER
1002
{
1070
     0
1000
Fog Opt
1070
     0
1070
     0
1040
0.0
1040
1.0
1040
0.0
1040
1.0
1010
0.5
1020
0.5
1030
0.5
1002
}
  0
INSERT
  5
9B
330
1F
100
AcDbEntity
  8
ASHADE
 62
     9
100
AcDbBlockReference
  2
AVE_RENDER
 10
0.0
 20
0.0
 30
0.0
1001
AVE_RENDER
1002
{
1070
     0
1000
BG Opt
1070
     0
1070
     1
1010
0.0
1020
0.0
1030
0.0
1010
1.0
1020
0.0
1030
0.0
1010
0.0
1020
1.0
1030
0.0
1010
0.0
1020
0.0
1030
1.0
1040
0.5
1040
0.33
1040
0.0
1000

1070
     1
1000

1070
     1
1070
     1
1040
1.0
1040
1.0
1040
0.0
1040
0.0
1070
     0
1002
}
  0
INSERT
  5
A2
330
1F
100
AcDbEntity
  8
ASHADE
 62
     1
100
AcDbBlockReference
  2
AVE_GLOBAL
 10
0.0
 20
0.0
 30
0.0
1001
AVE_MATERIAL
1002
{
1000
*GLOBAL*
1000
2
1000
Global finish.
1002
{
1002
}
1002
{
1070
    63
1002
{
1002
{
1010
-1.0
1020
-1.0
1030
-1.0
1002
}
1040
0.1000000014901161
1000

1040
0.0
1002
{
1002
}
1040
0.0
1002
{
1002
}
1040
0.0
1002
}
1002
{
1002
{
1010
-1.0
1020
-1.0
1030
-1.0
1002
}
1040
0.6999999880790711
1000

1040
0.0
1002
{
1002
}
1040
0.0
1002
{
1002
}
1040
0.0
1002
}
1002
{
1002
{
1010
-1.0
1020
-1.0
1030
-1.0
1002
}
1040
0.2000000029802322
1000

1040
0.0
1002
{
1002
}
1040
0.0
1002
{
1002
}
1040
0.0
1002
}
1002
{
1070
     0
1002
{
1070
     1
1002
{
1040
1.0
1040
1.0
1000

1040
0.0
1002
{
1002
}
1040
0.0
1002
{
1002
}
1040
0.0
1002
}
1002
}
1040
1.0
1040
0.0
1040
0.0
1002
}
1002
{
1040
1.0
1040
1.0
1000

1040
0.0
1002
{
1002
}
1040
0.0
1002
{
1002
}
1040
0.0
1002
}
1002
{
1040
0.5
1040
1.0
1000

1040
0.0
1002
{
1002
}
1040
0.0
1002
{
1002
}
1040
0.0
1002
}
1002
{
1070
     0
1040
0.0
1002
{
1002
}
1040
1.0
1002
{
1002
}
1040
0.0
1002
}
1002
{
1040
0.0
1002
{
1002
{
1010
0.0
1020
0.0
1030
0.0
1002
}
1040
1.0
1000

1040
0.0
1002
{
1002
}
1040
0.0
1002
{
1002
}
1040
0.0
1002
}
1002
}
1002
{
1002
{
1070
     1
1002
{
1040
0.0
1040
1.0
1000

1040
0.0
1002
{
1002
}
1040
0.0
1002
{
1002
}
1040
0.0
1002
}
1002
}
1040
0.0
1002
{
1002
}
1010
1.0
1020
0.0
1030
0.0
1010
0.0
1020
1.0
1030
0.0
1010
0.0
1020
0.0
1030
1.0
1070
     0
1002
}
1002
{
1002
{
1040
1.0
1040
1.0
1002
{
1070
     1
1002
{
1040
1.0
1040
1.0
1000

1040
0.0
1002
{
1002
}
1040
0.0
1002
{
1002
}
1040
0.0
1002
}
1002
}
1002
}
1070
     0
1040
0.0
1002
{
1002
}
1002
}
1002
{
1002
}
1002
}
1002
{
1071
        3
1070
     3
1070
     0
1002
{
1070
     2
1070
     0
1070
     0
1040
0.0
1002
}
1070
     0
1070
     2
1002
{
1002
}
1002
}
1002
{
1040
8030.0
1040
190.3000030517578
1040
0.3050000071525574
1040
228.0
1040
545.0
1040
14.0
1040
17.39999961853027
1040
0.4560000002384186
1002
}
1002
}
  0
MESH
  5
F9
330
1F
100
AcDbEntity
  8
OracDecor_panel_moldings
 62
   136
420
   427889
160
             36296
310
C88D0000F00300000C00000013000000020000003C00000006000000020000000000000000408FC0000000C016D732C000000000A9B554400000000000208FC0000000C016D732C000000000A9B554400C000000130000000A0000003C00000006000000020000000000000000408FC0000000A0F77C2EC000000080FCF456
310
400000000000408FC0000000C016D732C000000000A9B554400C00000013000000120000003C00000006000000020000000000000000408FC0000000A0F77C2EC000000080FCF456400000000000208FC0000000C016D732C000000000A9B554400C000000130000001A0000003C0000000600000002000000000000000040
310
8FC0000000C04D1333C000000080F55854400000000000208FC0000000C04D1333C000000080F55854400C00000013000000220000003C00000006000000020000000000000000408FC0000000C016D732C000000000A9B554400000000000408FC0000000C04D1333C000000080F55854400C000000130000002A0000003C
310
00000006000000020000000000000000208FC0000000C016D732C000000000A9B554400000000000208FC0000000C04D1333C000000080F55854400C00000013000000320000003C00000006000000020000000000000000208FC0000000C016D732C000000000A9B554400000002009118FC0000000C00AFC32C000000000
310
269854400C000000130000003A0000003C00000006000000020000000000002009118FC0000000C00AFC32C00000000026985440000000E055158FC0000000408F2C33C000000040C44454400C00000013000000420000003C00000006000000020000000000000000208FC0000000C04D1333C000000080F5585440000000
310
E055158FC0000000408F2C33C000000040C44454400C000000130000004A0000003C00000006000000020000000000002009118FC0000000C00AFC32C00000000026985440000000E06F018FC0000000003E8033C0000000C0DB2754400C00000013000000520000003C0000000600000002000000000000E06F018FC00000
310
00003E8033C0000000C0DB275440000000E0260A8FC000000000028733C000000000BEF753400C000000130000005A0000003C0000000600000002000000000000E055158FC0000000408F2C33C000000040C4445440000000E0260A8FC000000000028733C000000000BEF753400C00000013000000620000003C00000006
310
00000002000000000000E06F018FC0000000003E8033C0000000C0DB27544000000040DAFB8EC000000040C60234C00000000060AD53400C000000130000006A0000003C000000060000000200000000000040DAFB8EC000000040C60234C00000000060AD53400000008004068FC00000008078E233C000000080C2A15340
310
0C00000013000000720000003C00000006000000020000000000008004068FC00000008078E233C000000080C2A15340000000E0260A8FC000000000028733C000000000BEF753400C000000130000007A0000003C00000006000000020000000000008025048FC000000000C1ED34C0000000C04B5152400000008004068F
310
C00000008078E233C000000080C2A153400C00000013000000820000003C000000060000000200000000000040DAFB8EC000000040C60234C00000000060AD53400000000015F98EC000000080781335C000000040DA6552400C000000130000008A0000003C00000006000000020000000000000015F98EC0000000807813
310
35C000000040DA6552400000008025048FC000000000C1ED34C0000000C04B5152400C00000013000000920000003C00000006000000020000000000008025048FC000000000C1ED34C0000000C04B5152400000004060048FC0000000C0739D35C000000000C53F4F400C000000130000009A0000003C0000000600000002
310
0000000000000015F98EC000000080781335C000000040DA655240000000A029F88EC0000000209AD935C000000040C43F4F400C00000013000000A20000003C0000000600000002000000000000A029F88EC0000000209AD935C000000040C43F4F400000004060048FC0000000C0739D35C000000000C53F4F400C000000
310
13000000AA0000003C0000000600000002000000000000A029F88EC0000000209AD935C000000040C43F4F400000008015F98EC000000060381335C0000000408BB349400C00000013000000B20000003C0000000600000002000000000000A029F88EC0000000209AD935C000000040C43F4F400000002093F88EC0000000
310
E0776935C000000080FBD14A400C00000013000000BA0000003C00000006000000020000000000002093F88EC0000000E0776935C000000080FBD14A400000008015F98EC000000060381335C0000000408BB349400C00000013000000C20000003C00000006000000020000000000008015F98EC000000060381335C00000
310
00408BB34940000000C025048FC00000008089ED34C000000080B9DC49400C00000013000000CA0000003C00000006000000020000000000004060048FC0000000C0739D35C000000000C53F4F40000000C025048FC00000008089ED34C000000080B9DC49400C00000013000000D20000003C000000060000000200000000
310
00008015F98EC000000060381335C0000000408BB3494000000040DAFB8EC0000000E0C60234C000000000402547400C00000013000000DA0000003C000000060000000200000000000040DAFB8EC0000000E0C60234C00000000040254740000000400C078FC0000000C065DA33C0000000C06D3F47400C00000013000000
310
E20000003C0000000600000002000000000000C025048FC00000008089ED34C000000080B9DC4940000000400C078FC0000000C065DA33C0000000C06D3F47400C00000013000000EA0000003C0000000600000002000000000000400C078FC0000000C065DA33C0000000C06D3F4740000000E0260A8FC000000000028733
310
C000000000839046400C00000013000000F20000003C000000060000000200000000000040DAFB8EC0000000E0C60234C00000000040254740000000E06F018FC000000080418033C0000000804D3046400C00000013000000FA0000003C0000000600000002000000000000E06F018FC000000080418033C0000000804D30
310
4640000000E0260A8FC000000000028733C000000000839046400C00000013000000020100003C0000000600000002000000000000E0260A8FC000000000028733C00000000083904640000000E055158FC0000000408F2C33C00000004076F645400C000000130000000A0100003C0000000600000002000000000000E06F
310
018FC000000080418033C0000000804D304640000000C008118FC0000000600CFC32C0000000C0B54F45400C00000013000000120100003C0000000600000002000000000000C008118FC0000000600CFC32C0000000C0B54F4540000000E055158FC0000000408F2C33C00000004076F645400C000000130000001A010000
310
3C0000000600000002000000000000C008118FC0000000600CFC32C0000000C0B54F45400000000000208FC0000000C016D732C000000000AD1445400C00000013000000220100003C00000006000000020000000000000000208FC0000000C016D732C000000000AD1445400000000000208FC0000000C04D1333C0000000
310
0014CE45400C000000130000002A0100003C00000006000000020000000000000000208FC0000000C04D1333C00000000014CE4540000000E055158FC0000000408F2C33C00000004076F645400C00000013000000320100003C00000006000000020000000000000000208FC0000000C04D1333C00000000014CE45400000
310
000000408FC0000000C04D1333C00000000014CE45400C000000130000003A0100003C00000006000000020000000000000000208FC0000000C016D732C000000000AD1445400000000000408FC0000000C016D732C000000000AD1445400C00000013000000420100003C00000006000000020000000000000000408FC000
310
0000C016D732C000000000AD1445400000000000408FC0000000C04D1333C00000000014CE45400C000000130000004A0100003C00000006000000020000000000000000388FC0000000E0DB4C31C0000000C0FF3F52400000000000208FC000000000DC4C31C0000000C0FF5F53400C00000013000000520100003C000000
310
06000000020000000000000000208FC0000000C0DB4C31C0000000C0AB2652400000000000208FC000000000DC4C31C0000000C0FF5F53400C000000130000005A0100003C00000006000000020000000000000000388FC0000000E0DB4C31C0000000C0FF3F52400000000000208FC0000000C0DB4C31C0000000C0AB2652
310
400C00000013000000620100003C00000006000000020000000000000000408FC000000040514532C0000000C070A653400000000000208FC000000040E84432C00000004048A653400C000000130000006A0100003C00000006000000020000000000000000208FC000000000DC4C31C0000000C0FF5F5340000000000020
310
8FC000000040E84432C00000004048A653400C00000013000000720100003C00000006000000020000000000000000408FC0000000E0DB4C31C0000000C0FF5F53400000000000208FC000000000DC4C31C0000000C0FF5F53400C000000130000007A0100003C00000006000000020000000000000000408FC0000000E0DB
310
4C31C0000000C0FF5F53400000000000408FC000000040514532C0000000C070A653400C00000013000000820100003C00000006000000020000000000000000388FC000000060E33935C000000040042A52400000000000408FC000000060E33935C000000040042A52400C000000130000008A0100003C00000006000000
310
020000000000000000408FC0000000E0DB4C31C0000000C0FF3F52400000000000408FC000000060E33935C000000040042A52400C00000013000000920100003C00000006000000020000000000000000408FC0000000E0DB4C31C0000000C0FF3F52400000000000388FC0000000E0DB4C31C0000000C0FF3F52400C0000
310
00130000009A0100003C00000006000000020000000000000000388FC0000000E0DB4C31C0000000C0FF3F52400000000000388FC000000060E33935C000000040042A52400C00000013000000A20100003C00000006000000020000000000000000388FC000000040DC4C31C000000080FFFF49400000000000208FC00000
310
0020DC4C31C00000004002324A400C00000013000000AA0100003C00000006000000020000000000000000388FC000000040DC4C31C000000080FFFF49400000000000388FC000000020DC4C31C000000040451D4F400C00000013000000B20100003C00000006000000020000000000000000208FC000000020DC4C31C000
310
000080C93F4F400000000000388FC000000020DC4C31C000000040451D4F400C00000013000000BA0100003C00000006000000020000000000000000208FC000000020DC4C31C00000004002324A400000000000208FC000000020DC4C31C000000080C93F4F400C00000013000000C20100003C0000000600000002000000
310
0000000000388FC0000000E0DB4C31C0000000C0FF3F52400000000000388FC000000020DC4C31C000000040451D4F400C00000013000000CA0100003C00000006000000020000000000000000388FC000000060000036C000000080FF3F4F400000000000388FC000000020DC4C31C000000040451D4F400C000000130000
310
00D20100003C00000006000000020000000000000000388FC000000060E33935C000000040042A52400000000000388FC000000060000036C000000080FF3F4F400C00000013000000DA0100003C00000006000000020000000000000000408FC000000040DC4C31C000000080FFBF47400000000000208FC000000020DC4C
310
31C000000080FFBF47400C00000013000000E20100003C00000006000000020000000000000000408FC000000040DC4C31C000000080FFFF49400000000000408FC000000040DC4C31C000000080FFBF47400C00000013000000EA0100003C00000006000000020000000000000000388FC000000040DC4C31C000000080FF
310
FF49400000000000408FC000000040DC4C31C000000080FFFF49400C00000013000000F20100003C00000006000000020000000000000000388FC000000040DC4C31C000000080FFFF49400000000000208FC000000020DC4C31C000000080FFBF47400C00000013000000FA0100003C000000060000000200000000000000
310
00388FC0000000C0E33935C000000000F62B4A400000000000408FC0000000C0E33935C000000000F62B4A400C00000013000000020200003C00000006000000020000000000000000388FC000000040DC4C31C000000080FFFF49400000000000388FC0000000C0E33935C000000000F62B4A400C000000130000000A0200
310
003C00000006000000020000000000000000408FC000000040DC4C31C000000080FFFF49400000000000408FC0000000C0E33935C000000000F62B4A400C00000013000000120200003C00000006000000020000000000000000208FC000000020DC4C31C000000080FFBF47400000000000208FC000000020DC4C31C00000
310
004002324A400C000000130000001A0200003C00000006000000020000000000000000208FC000000060E84432C0000000C06E3347400000000000408FC000000060514532C0000000C01D3347400C00000013000000220200003C00000006000000020000000000000000408FC000000040DC4C31C000000080FFBF474000
310
00000000408FC000000060514532C0000000C01D3347400C000000130000002A0200003C00000006000000020000000000000000208FC000000020DC4C31C000000080FFBF47400000000000208FC000000060E84432C0000000C06E3347400C00000013000000320200003C00000006000000020000000000000000208FC0
310
00000020DC4C31C000000080FFBF474000000040AA198FC000000000717832C000000000B48E47400C000000130000003A0200003C00000006000000020000000000000000208FC000000020DC4C31C00000004002324A40000000801B168FC0000000C0159633C000000040C0034A400C00000013000000420200003C0000
310
000600000002000000000000801B168FC0000000C0159633C000000040C0034A4000000040AA198FC000000000717832C000000000B48E47400C000000130000004A0200003C00000006000000020000000000000000208FC000000020DC4C31C000000080FFBF474000000040B51A8FC0000000404B6132C0000000802B63
310
47400C00000013000000520200003C000000060000000200000000000040AA198FC000000000717832C000000000B48E474000000040B51A8FC0000000404B6132C0000000802B6347400C000000130000005A0200003C00000006000000020000000000000000208FC000000060E84432C0000000C06E3347400000008073
310
1D8FC0000000C0F84A32C000000040213D47400C00000013000000620200003C00000006000000020000000000000000208FC000000020DC4C31C000000080FFBF474000000080731D8FC0000000C0F84A32C000000040213D47400C000000130000006A0200003C000000060000000200000000000040B51A8FC000000040
310
4B6132C0000000802B63474000000080731D8FC0000000C0F84A32C000000040213D47400C00000013000000720200003C00000006000000020000000000000000208FC000000000DC4C31C0000000C0FF5F534000000080731D8FC000000080F84A32C0000000006FA153400C000000130000007A0200003C000000060000
310
00020000000000000000208FC000000040E84432C00000004048A6534000000080731D8FC000000080F84A32C0000000006FA153400C00000013000000820200003C000000060000000200000000000040AA198FC000000000717832C000000080A578534000000040B51A8FC0000000404B6132C0000000C0698E53400C00
310
0000130000008A0200003C00000006000000020000000000000000208FC000000000DC4C31C0000000C0FF5F534000000040AA198FC000000000717832C000000080A57853400C00000013000000920200003C00000006000000020000000000000000208FC000000000DC4C31C0000000C0FF5F534000000040B51A8FC000
310
0000404B6132C0000000C0698E53400C000000130000009A0200003C000000060000000200000000000080731D8FC000000080F84A32C0000000006FA1534000000040B51A8FC0000000404B6132C0000000C0698E53400C00000013000000A20200003C00000006000000020000000000000000388FC000000060000036C0
310
00000080FF3F4F400000000000408FC000000060000036C000000080FF3F4F400C00000013000000AA0200003C00000006000000020000000000000000408FC000000060E33935C000000040042A52400000000000408FC000000060000036C000000080FF3F4F400C00000013000000B20200003C00000006000000020000
310
000000000000388FC000000060000036C000000080FF3F4F400000000000388FC0000000C0E33935C000000000F62B4A400C00000013000000BA0200003C00000006000000020000000000000000408FC0000000C0E33935C000000000F62B4A400000000000408FC000000060000036C000000080FF3F4F400C0000001300
310
0000C20200003C00000006000000020000000000000000408FC00000000047E132C000000040E1FB53400000000000208FC0000000002CE132C000000000CAFB53400C00000013000000CA0200003C00000006000000020000000000000000408FC0000000C04D1333C000000080F55854400000000000408FC00000000047
310
E132C000000040E1FB53400C00000013000000D20200003C00000006000000020000000000000000208FC0000000002CE132C000000000CAFB53400000000000208FC0000000C04D1333C000000080F55854400C00000013000000DA0200003C00000006000000020000000000000000208FC000000040E84432C000000040
310
48A653400000000000208FC0000000002CE132C000000000CAFB53400C00000013000000E20200003C00000006000000020000000000000000408FC00000000047E132C000000040E1FB53400000000000408FC000000040514532C0000000C070A653400C00000013000000EA0200003C0000000600000002000000000000
310
20CA198FC0000000C0E8EF32C0000000C001F0534000000080731D8FC000000080F84A32C0000000006FA153400C00000013000000F20200003C00000006000000020000000000000000208FC0000000002CE132C000000000CAFB534000000020CA198FC0000000C0E8EF32C0000000C001F053400C00000013000000FA02
310
00003C0000000600000002000000000000E055158FC0000000408F2C33C000000040C444544000000020CA198FC0000000C0E8EF32C0000000C001F053400C00000013000000020300003C0000000600000002000000000000C01B168FC000000040379633C000000000CB3D524000000040AA198FC000000000717832C000
310
000080A57853400C000000130000000A0300003C00000006000000020000000000000000208FC0000000C0DB4C31C0000000C0AB265240000000C01B168FC000000040379633C000000000CB3D52400C00000013000000120300003C00000006000000020000000000000000208FC000000020DC4C31C000000080C93F4F40
310
0000000000208FC0000000C0DB4C31C0000000C0AB2652400C000000130000001A0300003C0000000600000002000000000000C01B168FC000000040379633C000000000CB3D5240000000A06A178FC00000004078FA33C000000080C63F4F400C00000013000000220300003C00000006000000020000000000000000208F
310
C000000020DC4C31C000000080C93F4F40000000A06A178FC00000004078FA33C000000080C63F4F400C000000130000002A0300003C0000000600000002000000000000C01B168FC000000040379633C000000000CB3D524000000000DD0D8FC0000000802A6834C000000080E34852400C00000013000000320300003C00
310
0000060000000200000000000000DD0D8FC0000000802A6834C000000080E3485240000000E0DD0E8FC0000000C0E6F834C000000080C53F4F400C000000130000003A0300003C0000000600000002000000000000A06A178FC00000004078FA33C000000080C63F4F40000000E0DD0E8FC0000000C0E6F834C000000080C5
310
3F4F400C00000013000000420300003C000000060000000200000000000000DD0D8FC0000000802A6834C000000080E34852400000008025048FC000000000C1ED34C0000000C04B5152400C000000130000004A0300003C000000060000000200000000000000DD0D8FC0000000802A6834C000000080E348524000000020
310
BE108FC000000040D95B33C0000000003E8F53400C00000013000000520300003C00000006000000020000000000008004068FC00000008078E233C000000080C2A1534000000020BE108FC000000040D95B33C0000000003E8F53400C000000130000005A0300003C0000000600000002000000000000E0DD0E8FC0000000
310
C0E6F834C000000080C53F4F400000004060048FC0000000C0739D35C000000000C53F4F400C00000013000000620300003C0000000600000002000000000000E0260A8FC000000000028733C000000000BEF753400000006034138FC0000000C04A2533C00000004089C253400C000000130000006A0300003C0000000600
310
00000200000000000020BE108FC000000040D95B33C0000000003E8F53400000006034138FC0000000C04A2533C00000004089C253400C00000013000000720300003C00000006000000020000000000006034138FC0000000C04A2533C00000004089C2534000000040B51A8FC0000000404B6132C0000000C0698E53400C
310
000000130000007A0300003C000000060000000200000000000020BE108FC000000040D95B33C0000000003E8F534000000040AA198FC000000000717832C000000080A57853400C00000013000000820300003C0000000600000002000000000000A06A178FC00000004078FA33C000000080C63F4F40000000801B168FC0
310
000000C0159633C000000040C0034A400C000000130000008A0300003C0000000600000002000000000000801B168FC0000000C0159633C000000040C0034A4000000000DD0D8FC000000060FB6734C0000000808CED49400C00000013000000920300003C0000000600000002000000000000E0DD0E8FC0000000C0E6F834
310
C000000080C53F4F4000000000DD0D8FC000000060FB6734C0000000808CED49400C000000130000009A0300003C000000060000000200000000000000DD0D8FC000000060FB6734C0000000808CED4940000000C025048FC00000008089ED34C000000080B9DC49400C00000013000000A20300003C000000060000000200
310
000000000040AA198FC000000000717832C000000000B48E47400000002056118FC0000000A0AF5033C000000040066447400C00000013000000AA0300003C000000060000000200000000000000DD0D8FC000000060FB6734C0000000808CED49400000002056118FC0000000A0AF5033C000000040066447400C00000013
310
000000B20300003C00000006000000020000000000002056118FC0000000A0AF5033C00000004006644740000000400C078FC0000000C065DA33C0000000C06D3F47400C00000013000000BA0300003C00000006000000020000000000006034138FC0000000C04A2533C000000080ECFA464000000040B51A8FC000000040
310
4B6132C0000000802B6347400C00000013000000C20300003C00000006000000020000000000002056118FC0000000A0AF5033C000000040066447400000006034138FC0000000C04A2533C000000080ECFA46400C00000013000000CA0300003C0000000600000002000000000000E0260A8FC000000000028733C0000000
310
00839046400000006034138FC0000000C04A2533C000000080ECFA46400C00000013000000D20300003C00000006000000020000000000000000208FC0000000402CE132C0000000006B8846400000000000408FC00000002047E132C0000000803C8846400C00000013000000DA0300003C00000006000000020000000000
310
000000208FC0000000C04D1333C00000000014CE45400000000000208FC0000000402CE132C0000000006B8846400C00000013000000E20300003C00000006000000020000000000000000408FC00000002047E132C0000000803C8846400000000000408FC0000000C04D1333C00000000014CE45400C00000013000000EA
310
0300003C0000000600000002000000000000E055158FC0000000408F2C33C00000004076F6454000000020CA198FC0000000C0E8EF32C000000080FB9F46400C00000013000000F20300003C00000006000000020000000000000000208FC0000000402CE132C0000000006B88464000000020CA198FC0000000C0E8EF32C0
310
00000080FB9F46400C00000013000000FA0300003C00000006000000020000000000000000208FC0000000402CE132C0000000006B8846400000000000208FC000000060E84432C0000000C06E3347400C00000013000000020400003C00000006000000020000000000000000408FC000000060514532C0000000C01D3347
310
400000000000408FC00000002047E132C0000000803C8846400C000000130000000A0400003C000000060000000200000000000020CA198FC0000000C0E8EF32C000000080FB9F464000000080731D8FC0000000C0F84A32C000000040213D47400C00000013000000120400003C0000000600000002000000000000603413
310
8FC0000000C04A2533C000000080ECFA464000000020CA198FC0000000C0E8EF32C000000080FB9F46400C000000130000001A0400003C000000060000000200000000000020CA198FC0000000C0E8EF32C0000000C001F053400000006034138FC0000000C04A2533C00000004089C253400C00000013000000220400003C
310
00000006000000020000000000000000408FC0000000E0DB4C31C0000000C0FF5F53400000000000408FC0000000E0DB4C31C0000000C0FF3F52400C000000130000002A0400003C00000006000000020000000000000000208FC0000000C016D732C000000000AD1445400000000000408FC000000060F77C2EC000000000
310
069640400C00000013000000320400003C00000006000000020000000000000000408FC0000000C016D732C000000000AD1445400000000000408FC000000060F77C2EC000000000069640400C000000130000003A0400003C00000006000000020000000000000000208F400000008016D732C000000000A9B55440000000
310
0000408F4000000060F77C2EC000000080FCF456400C00000013000000420400003C00000006000000020000000000000000408F4000000060F77C2EC000000080FCF456400000000000408F400000008016D732C000000000A9B554400C000000130000004A0400003C00000006000000020000000000000000208F400000
310
008016D732C000000000A9B554400000000000408F400000008016D732C000000000A9B554400C00000013000000520400003C00000006000000020000000000000000208F400000008016D732C000000000A9B554400000000000208F40000000804D1333C000000080F55854400C000000130000005A0400003C00000006
310
000000020000000000000000408F400000008016D732C000000000A9B554400000000000408F40000000804D1333C000000080F55854400C00000013000000620400003C00000006000000020000000000000000208F40000000804D1333C000000080F55854400000000000408F40000000804D1333C000000080F5585440
310
0C000000130000006A0400003C00000006000000020000000000000000208F40000000804D1333C000000080F5585440000000E055158F40000000E08E2C33C000000040C44454400C00000013000000720400003C00000006000000020000000000002009118F40000000600AFC32C00000000026985440000000E055158F
310
40000000E08E2C33C000000040C44454400C000000130000007A0400003C00000006000000020000000000000000208F400000008016D732C000000000A9B554400000002009118F40000000600AFC32C000000000269854400C00000013000000820400003C0000000600000002000000000000E055158F40000000E08E2C
310
33C000000040C4445440000000E0260A8F40000000A0018733C000000000BEF753400C000000130000008A0400003C0000000600000002000000000000E06F018F40000000C03D8033C0000000C0DB275440000000E0260A8F40000000A0018733C000000000BEF753400C00000013000000920400003C0000000600000002
310
0000000000002009118F40000000600AFC32C00000000026985440000000E06F018F40000000C03D8033C0000000C0DB2754400C000000130000009A0400003C0000000600000002000000000000E0260A8F40000000A0018733C000000000BEF753400000008004068F400000002078E233C000000080C2A153400C000000
310
13000000A20400003C000000060000000200000000000040DAFB8E40000000E0C50234C00000000060AD53400000008004068F400000002078E233C000000080C2A153400C00000013000000AA0400003C0000000600000002000000000000E06F018F40000000C03D8033C0000000C0DB27544000000040DAFB8E40000000
310
E0C50234C00000000060AD53400C00000013000000B20400003C00000006000000020000000000008025048F40000000E0C0ED34C0000000C04B5152400000000015F98E4000000040781335C000000040DA6552400C00000013000000BA0400003C000000060000000200000000000040DAFB8E40000000E0C50234C00000
310
000060AD53400000000015F98E4000000040781335C000000040DA6552400C00000013000000C20400003C00000006000000020000000000008004068F400000002078E233C000000080C2A153400000008025048F40000000E0C0ED34C0000000C04B5152400C00000013000000CA0400003C000000060000000200000000
310
00004060048F40000000C0739D35C000000000C53F4F40000000A029F88E40000000009AD935C000000040C43F4F400C00000013000000D20400003C00000006000000020000000000000015F98E4000000040781335C000000040DA655240000000A029F88E40000000009AD935C000000040C43F4F400C00000013000000
310
DA0400003C00000006000000020000000000008025048F40000000E0C0ED34C0000000C04B5152400000004060048F40000000C0739D35C000000000C53F4F400C00000013000000E20400003C00000006000000020000000000008015F98E4000000040381335C0000000408BB349400000002093F88E40000000C0776935
310
C000000080FBD14A400C00000013000000EA0400003C0000000600000002000000000000A029F88E40000000009AD935C000000040C43F4F400000002093F88E40000000C0776935C000000080FBD14A400C00000013000000F20400003C0000000600000002000000000000A029F88E40000000009AD935C000000040C43F
310
4F400000008015F98E4000000040381335C0000000408BB349400C00000013000000FA0400003C00000006000000020000000000004060048F40000000C0739D35C000000000C53F4F40000000C025048F400000004089ED34C000000080B9DC49400C00000013000000020500003C00000006000000020000000000008015
310
F98E4000000040381335C0000000408BB34940000000C025048F400000004089ED34C000000080B9DC49400C000000130000000A0500003C0000000600000002000000000000C025048F400000004089ED34C000000080B9DC4940000000400C078F400000006065DA33C0000000C06D3F47400C0000001300000012050000
310
3C000000060000000200000000000040DAFB8E4000000080C60234C00000000040254740000000400C078F400000006065DA33C0000000C06D3F47400C000000130000001A0500003C00000006000000020000000000008015F98E4000000040381335C0000000408BB3494000000040DAFB8E4000000080C60234C0000000
310
00402547400C00000013000000220500003C0000000600000002000000000000E0260A8F40000000A0018733C00000000083904640000000E06F018F4000000020418033C0000000804D3046400C000000130000002A0500003C000000060000000200000000000040DAFB8E4000000080C60234C000000000402547400000
310
00E06F018F4000000020418033C0000000804D3046400C00000013000000320500003C0000000600000002000000000000400C078F400000006065DA33C0000000C06D3F4740000000E0260A8F40000000A0018733C000000000839046400C000000130000003A0500003C0000000600000002000000000000E055158F4000
310
0000E08E2C33C00000004076F64540000000C008118F40000000000CFC32C0000000C0B54F45400C00000013000000420500003C0000000600000002000000000000E06F018F4000000020418033C0000000804D304640000000C008118F40000000000CFC32C0000000C0B54F45400C000000130000004A0500003C000000
310
0600000002000000000000E0260A8F40000000A0018733C00000000083904640000000E055158F40000000E08E2C33C00000004076F645400C00000013000000520500003C0000000600000002000000000000E055158F40000000E08E2C33C00000004076F645400000000000208F40000000C04D1333C00000000014CE45
310
400C000000130000005A0500003C00000006000000020000000000000000208F400000008016D732C000000000AD1445400000000000208F40000000C04D1333C00000000014CE45400C00000013000000620500003C0000000600000002000000000000C008118F40000000000CFC32C0000000C0B54F4540000000000020
310
8F400000008016D732C000000000AD1445400C000000130000006A0500003C00000006000000020000000000000000408F40000000C04D1333C00000000014CE45400000000000408F400000008016D732C000000000AD1445400C00000013000000720500003C00000006000000020000000000000000208F400000008016
310
D732C000000000AD1445400000000000408F400000008016D732C000000000AD1445400C000000130000007A0500003C00000006000000020000000000000000208F40000000C04D1333C00000000014CE45400000000000408F40000000C04D1333C00000000014CE45400C00000013000000820500003C00000006000000
310
020000000000000000388F40000000E0DB4C31C0000000C0FF3F52400000000000208F40000000C0DB4C31C0000000C0AB2652400C000000130000008A0500003C00000006000000020000000000000000208F40000000C0DB4C31C0000000C0FF5F53400000000000208F40000000C0DB4C31C0000000C0AB2652400C0000
310
0013000000920500003C00000006000000020000000000000000388F40000000E0DB4C31C0000000C0FF3F52400000000000208F40000000C0DB4C31C0000000C0FF5F53400C000000130000009A0500003C00000006000000020000000000000000408F4000000000514532C0000000C070A653400000000000408F400000
310
00E0DB4C31C0000000C0FF5F53400C00000013000000A20500003C00000006000000020000000000000000208F40000000C0DB4C31C0000000C0FF5F53400000000000408F40000000E0DB4C31C0000000C0FF5F53400C00000013000000AA0500003C00000006000000020000000000000000208F40000000C0DB4C31C000
310
0000C0FF5F53400000000000208F4000000000E84432C00000004048A653400C00000013000000B20500003C00000006000000020000000000000000208F4000000000E84432C00000004048A653400000000000408F4000000000514532C0000000C070A653400C00000013000000BA0500003C0000000600000002000000
310
0000000000388F40000000E0DB4C31C0000000C0FF3F52400000000000388F4000000060E33935C000000040042A52400C00000013000000C20500003C00000006000000020000000000000000388F40000000E0DB4C31C0000000C0FF3F52400000000000408F40000000E0DB4C31C0000000C0FF3F52400C000000130000
310
00CA0500003C00000006000000020000000000000000408F4000000060E33935C000000040042A52400000000000408F40000000E0DB4C31C0000000C0FF3F52400C00000013000000D20500003C00000006000000020000000000000000388F4000000060E33935C000000040042A52400000000000408F4000000060E339
310
35C000000040042A52400C00000013000000DA0500003C00000006000000020000000000000000208F4000000000DC4C31C00000004002324A400000000000208F4000000020DC4C31C000000080C93F4F400C00000013000000E20500003C00000006000000020000000000000000388F4000000020DC4C31C00000004045
310
1D4F400000000000208F4000000020DC4C31C000000080C93F4F400C00000013000000EA0500003C00000006000000020000000000000000388F4000000040DC4C31C000000080FFFF49400000000000388F4000000020DC4C31C000000040451D4F400C00000013000000F20500003C000000060000000200000000000000
310
00208F4000000000DC4C31C00000004002324A400000000000388F4000000040DC4C31C000000080FFFF49400C00000013000000FA0500003C00000006000000020000000000000000388F4000000060E33935C000000040042A52400000000000388F4000000060000036C000000080FF3F4F400C00000013000000020600
310
003C00000006000000020000000000000000388F4000000020DC4C31C000000040451D4F400000000000388F4000000060000036C000000080FF3F4F400C000000130000000A0600003C00000006000000020000000000000000388F40000000E0DB4C31C0000000C0FF3F52400000000000388F4000000020DC4C31C00000
310
0040451D4F400C00000013000000120600003C00000006000000020000000000000000388F4000000040DC4C31C000000080FFFF49400000000000208F4000000000DC4C31C000000080FFBF47400C000000130000001A0600003C00000006000000020000000000000000388F4000000040DC4C31C000000080FFFF494000
310
00000000408F4000000040DC4C31C000000080FFFF49400C00000013000000220600003C00000006000000020000000000000000408F4000000040DC4C31C000000080FFFF49400000000000408F4000000020DC4C31C000000080FFBF47400C000000130000002A0600003C00000006000000020000000000000000208F40
310
00000000DC4C31C000000080FFBF47400000000000408F4000000020DC4C31C000000080FFBF47400C00000013000000320600003C00000006000000020000000000000000408F40000000C0E33935C000000000F62B4A400000000000408F4000000040DC4C31C000000080FFFF49400C000000130000003A0600003C0000
310
0006000000020000000000000000388F4000000040DC4C31C000000080FFFF49400000000000388F40000000C0E33935C000000000F62B4A400C00000013000000420600003C00000006000000020000000000000000388F40000000C0E33935C000000000F62B4A400000000000408F40000000C0E33935C000000000F62B
310
4A400C000000130000004A0600003C00000006000000020000000000000000208F4000000000DC4C31C00000004002324A400000000000208F4000000000DC4C31C000000080FFBF47400C00000013000000520600003C00000006000000020000000000000000208F4000000000DC4C31C000000080FFBF47400000000000
310
208F4000000040E84432C0000000C06E3347400C000000130000005A0600003C00000006000000020000000000000000408F4000000020DC4C31C000000080FFBF47400000000000408F4000000040514532C0000000C01D3347400C00000013000000620600003C00000006000000020000000000000000208F4000000040
310
E84432C0000000C06E3347400000000000408F4000000040514532C0000000C01D3347400C000000130000006A0600003C000000060000000200000000000040AA198F40000000A0707832C000000000B48E4740000000801B168F4000000080159633C000000040C0034A400C00000013000000720600003C000000060000
310
00020000000000000000208F4000000000DC4C31C00000004002324A40000000801B168F4000000080159633C000000040C0034A400C000000130000007A0600003C00000006000000020000000000000000208F4000000000DC4C31C000000080FFBF474000000040AA198F40000000A0707832C000000000B48E47400C00
310
000013000000820600003C000000060000000200000000000040AA198F40000000A0707832C000000000B48E474000000040B51A8F40000000E04A6132C0000000802B6347400C000000130000008A0600003C00000006000000020000000000000000208F4000000000DC4C31C000000080FFBF474000000040B51A8F4000
310
0000E04A6132C0000000802B6347400C00000013000000920600003C00000006000000020000000000000000208F4000000000DC4C31C000000080FFBF474000000080731D8F4000000080F84A32C000000040213D47400C000000130000009A0600003C00000006000000020000000000000000208F4000000040E84432C0
310
000000C06E33474000000080731D8F4000000080F84A32C000000040213D47400C00000013000000A20600003C000000060000000200000000000040B51A8F40000000E04A6132C0000000802B63474000000080731D8F4000000080F84A32C000000040213D47400C00000013000000AA0600003C00000006000000020000
310
000000000000208F4000000000E84432C00000004048A6534000000080731D8F4000000060F84A32C0000000006FA153400C00000013000000B20600003C00000006000000020000000000000000208F40000000C0DB4C31C0000000C0FF5F534000000080731D8F4000000060F84A32C0000000006FA153400C0000001300
310
0000BA0600003C00000006000000020000000000000000208F40000000C0DB4C31C0000000C0FF5F534000000040B51A8F40000000E04A6132C0000000C0698E53400C00000013000000C20600003C00000006000000020000000000000000208F40000000C0DB4C31C0000000C0FF5F534000000040AA198F40000000A070
310
7832C000000080A57853400C00000013000000CA0600003C000000060000000200000000000040B51A8F40000000E04A6132C0000000C0698E534000000040AA198F40000000A0707832C000000080A57853400C00000013000000D20600003C000000060000000200000000000080731D8F4000000060F84A32C000000000
310
6FA1534000000040B51A8F40000000E04A6132C0000000C0698E53400C00000013000000DA0600003C00000006000000020000000000000000408F4000000060000036C000000080FF3F4F400000000000408F4000000060E33935C000000040042A52400C00000013000000E20600003C0000000600000002000000000000
310
0000388F4000000060000036C000000080FF3F4F400000000000408F4000000060000036C000000080FF3F4F400C00000013000000EA0600003C00000006000000020000000000000000408F4000000060000036C000000080FF3F4F400000000000408F40000000C0E33935C000000000F62B4A400C00000013000000F206
310
00003C00000006000000020000000000000000388F4000000060000036C000000080FF3F4F400000000000388F40000000C0E33935C000000000F62B4A400C00000013000000FA0600003C00000006000000020000000000000000208F40000000804D1333C000000080F55854400000000000208F40000000E02BE132C000
310
000000CAFB53400C00000013000000020700003C00000006000000020000000000000000408F40000000804D1333C000000080F55854400000000000408F40000000C046E132C000000040E1FB53400C000000130000000A0700003C00000006000000020000000000000000208F40000000E02BE132C000000000CAFB5340
310
0000000000408F40000000C046E132C000000040E1FB53400C00000013000000120700003C00000006000000020000000000000000408F40000000C046E132C000000040E1FB53400000000000408F4000000000514532C0000000C070A653400C000000130000001A0700003C00000006000000020000000000000000208F
310
4000000000E84432C00000004048A653400000000000208F40000000E02BE132C000000000CAFB53400C00000013000000220700003C00000006000000020000000000000000208F40000000E02BE132C000000000CAFB534000000020CA198F4000000060E8EF32C0000000C001F053400C000000130000002A0700003C00
310
0000060000000200000000000080731D8F4000000060F84A32C0000000006FA1534000000020CA198F4000000060E8EF32C0000000C001F053400C00000013000000320700003C0000000600000002000000000000E055158F40000000E08E2C33C000000040C444544000000020CA198F4000000060E8EF32C0000000C001
310
F053400C000000130000003A0700003C00000006000000020000000000000000208F40000000C0DB4C31C0000000C0AB265240000000C01B168F4000000020379633C000000000CB3D52400C00000013000000420700003C000000060000000200000000000040AA198F40000000A0707832C000000080A5785340000000C0
310
1B168F4000000020379633C000000000CB3D52400C000000130000004A0700003C00000006000000020000000000000000208F4000000020DC4C31C000000080C93F4F40000000A06A178F400000004078FA33C000000080C63F4F400C00000013000000520700003C0000000600000002000000000000C01B168F40000000
310
20379633C000000000CB3D5240000000A06A178F400000004078FA33C000000080C63F4F400C000000130000005A0700003C00000006000000020000000000000000208F40000000C0DB4C31C0000000C0AB2652400000000000208F4000000020DC4C31C000000080C93F4F400C00000013000000620700003C0000000600
310
000002000000000000A06A178F400000004078FA33C000000080C63F4F40000000E0DD0E8F40000000C0E6F834C000000080C53F4F400C000000130000006A0700003C000000060000000200000000000000DD0D8F40000000602A6834C000000080E3485240000000E0DD0E8F40000000C0E6F834C000000080C53F4F400C
310
00000013000000720700003C0000000600000002000000000000C01B168F4000000020379633C000000000CB3D524000000000DD0D8F40000000602A6834C000000080E34852400C000000130000007A0700003C00000006000000020000000000008004068F400000002078E233C000000080C2A1534000000020BE108F40
310
00000000D95B33C0000000003E8F53400C00000013000000820700003C000000060000000200000000000000DD0D8F40000000602A6834C000000080E348524000000020BE108F4000000000D95B33C0000000003E8F53400C000000130000008A0700003C00000006000000020000000000008025048F40000000E0C0ED34
310
C0000000C04B51524000000000DD0D8F40000000602A6834C000000080E34852400C00000013000000920700003C00000006000000020000000000004060048F40000000C0739D35C000000000C53F4F40000000E0DD0E8F40000000C0E6F834C000000080C53F4F400C000000130000009A0700003C000000060000000200
310
000000000020BE108F4000000000D95B33C0000000003E8F53400000006034138F40000000604A2533C00000004089C253400C00000013000000A20700003C0000000600000002000000000000E0260A8F40000000A0018733C000000000BEF753400000006034138F40000000604A2533C00000004089C253400C00000013
310
000000AA0700003C000000060000000200000000000040AA198F40000000A0707832C000000080A578534000000020BE108F4000000000D95B33C0000000003E8F53400C00000013000000B20700003C000000060000000200000000000040B51A8F40000000E04A6132C0000000C0698E53400000006034138F4000000060
310
4A2533C00000004089C253400C00000013000000BA0700003C0000000600000002000000000000801B168F4000000080159633C000000040C0034A40000000A06A178F400000004078FA33C000000080C63F4F400C00000013000000C20700003C0000000600000002000000000000E0DD0E8F40000000C0E6F834C0000000
310
80C53F4F4000000000DD0D8F4000000040FB6734C0000000808CED49400C00000013000000CA0700003C0000000600000002000000000000801B168F4000000080159633C000000040C0034A4000000000DD0D8F4000000040FB6734C0000000808CED49400C00000013000000D20700003C00000006000000020000000000
310
00C025048F400000004089ED34C000000080B9DC494000000000DD0D8F4000000040FB6734C0000000808CED49400C00000013000000DA0700003C000000060000000200000000000000DD0D8F4000000040FB6734C0000000808CED49400000002056118F4000000040AF5033C000000040066447400C00000013000000E2
310
0700003C000000060000000200000000000040AA198F40000000A0707832C000000000B48E47400000002056118F4000000040AF5033C000000040066447400C00000013000000EA0700003C0000000600000002000000000000400C078F400000006065DA33C0000000C06D3F47400000002056118F4000000040AF5033C0
310
00000040066447400C00000013000000F20700003C00000006000000020000000000002056118F4000000040AF5033C000000040066447400000006034138F40000000604A2533C000000080ECFA46400C00000013000000FA0700003C000000060000000200000000000040B51A8F40000000E04A6132C0000000802B6347
310
400000006034138F40000000604A2533C000000080ECFA46400C00000013000000020800003C0000000600000002000000000000E0260A8F40000000A0018733C000000000839046400000006034138F40000000604A2533C000000080ECFA46400C000000130000000A0800003C0000000600000002000000000000000040
310
8F400000000047E132C0000000803C8846400000000000408F40000000C04D1333C00000000014CE45400C00000013000000120800003C00000006000000020000000000000000208F40000000C04D1333C00000000014CE45400000000000208F40000000002CE132C0000000006B8846400C000000130000001A0800003C
310
00000006000000020000000000000000208F40000000002CE132C0000000006B8846400000000000408F400000000047E132C0000000803C8846400C00000013000000220800003C00000006000000020000000000000000208F40000000002CE132C0000000006B88464000000020CA198F4000000060E8EF32C000000080
310
FB9F46400C000000130000002A0800003C0000000600000002000000000000E055158F40000000E08E2C33C00000004076F6454000000020CA198F4000000060E8EF32C000000080FB9F46400C00000013000000320800003C00000006000000020000000000000000408F4000000040514532C0000000C01D334740000000
310
0000408F400000000047E132C0000000803C8846400C000000130000003A0800003C00000006000000020000000000000000208F4000000040E84432C0000000C06E3347400000000000208F40000000002CE132C0000000006B8846400C00000013000000420800003C000000060000000200000000000080731D8F400000
310
0080F84A32C000000040213D474000000020CA198F4000000060E8EF32C000000080FB9F46400C000000130000004A0800003C00000006000000020000000000006034138F40000000604A2533C000000080ECFA464000000020CA198F4000000060E8EF32C000000080FB9F46400C00000013000000520800003C00000006
310
0000000200000000000020CA198F4000000060E8EF32C0000000C001F053400000006034138F40000000604A2533C00000004089C253400C000000130000005A0800003C00000006000000020000000000000000408F40000000E0DB4C31C0000000C0FF5F53400000000000408F40000000E0DB4C31C0000000C0FF3F5240
310
0C00000013000000620800003C00000006000000020000000000000000408F400000008016D732C000000000AD1445400000000000408F4000000000F77C2EC000000000069640400C000000130000006A0800003C00000006000000020000000000000000208F400000008016D732C000000000AD1445400000000000408F
310
4000000000F77C2EC000000000069640400C00000013000000720800003C00000006000000020000000000000000208FC0000000C016D732C000000000A9B554400000000000208F400000008016D732C000000000A9B554400C000000130000007A0800003C00000006000000020000000000000000408FC0000000A0F77C
310
2EC000000080FCF456400000000000408F4000000060F77C2EC000000080FCF456400C00000013000000820800003C00000006000000020000000000000000408FC000000060F77C2EC000000000069640400000000000408F4000000000F77C2EC000000000069640400C000000130000008A0800003C0000000600000002
310
0000000000000000208FC0000000C016D732C000000000AD1445400000000000208F400000008016D732C000000000AD1445400C00000013000000920800003C0000000600000002000000000000C008118FC0000000600CFC32C0000000C0B54F4540000000C008118F40000000000CFC32C0000000C0B54F45400C000000
310
130000009A0800003C0000000600000002000000000000E06F018FC000000080418033C0000000804D304640000000E06F018F4000000020418033C0000000804D3046400C00000013000000A20800003C000000060000000200000000000040DAFB8EC0000000E0C60234C0000000004025474000000040DAFB8E40000000
310
80C60234C000000000402547400C00000013000000AA0800003C00000006000000020000000000008015F98EC000000060381335C0000000408BB349400000008015F98E4000000040381335C0000000408BB349400C00000013000000B20800003C00000006000000020000000000002093F88EC0000000E0776935C00000
310
0080FBD14A400000002093F88E40000000C0776935C000000080FBD14A400C00000013000000BA0800003C0000000600000002000000000000A029F88EC0000000209AD935C000000040C43F4F40000000A029F88E40000000009AD935C000000040C43F4F400C00000013000000C20800003C000000060000000200000000
310
00000015F98EC000000080781335C000000040DA6552400000000015F98E4000000040781335C000000040DA6552400C00000013000000CA0800003C000000060000000200000000000040DAFB8EC000000040C60234C00000000060AD534000000040DAFB8E40000000E0C50234C00000000060AD53400C00000013000000
310
D20800003C0000000600000002000000000000E06F018FC0000000003E8033C0000000C0DB275440000000E06F018F40000000C03D8033C0000000C0DB2754400C00000013000000DA0800003C00000006000000020000000000002009118FC0000000C00AFC32C000000000269854400000002009118F40000000600AFC32
310
C000000000269854400C00000013000000E20800003C00000006000000020000000000000000408F4000000060F77C2EC000000080FCF456400000000000408F40000000C0CFC724C0000000802D0D59400C00000013000000EA0800003C00000006000000020000000000000000408FC0000000C0CFC724C0000000402D0D
310
59400000000000408FC0000000A0F77C2EC000000080FCF456400C00000013000000F20800003C00000006000000020000000000000000408FC0000000C0CFC724C0000000402D0D59400000000000408F40000000C0CFC724C0000000802D0D59400C00000013000000FA0800003C00000006000000020000000000000000
310
408F40000000C0CFC724C0000000802D0D59400000000000408F4000000000904B22C0000000C0976859400C00000013000000020900003C00000006000000020000000000000000408FC0000000C0CFC724C0000000402D0D59400000000000408FC000000000904B22C0000000C0976859400C000000130000000A090000
310
3C00000006000000020000000000000000408FC000000000904B22C0000000C0976859400000000000408F4000000000904B22C0000000C0976859400C00000013000000120900003C00000006000000020000000000000000408F4000000000BE6A1EC000000080C0AE59400000000000408F4000000000904B22C0000000
310
C0976859400C000000130000001A0900003C00000006000000020000000000000000408FC000000000BE6A1EC000000080C0AE59400000000000408FC000000000904B22C0000000C0976859400C00000013000000220900003C00000006000000020000000000000000408FC000000000BE6A1EC000000080C0AE59400000
310
000000408F4000000000BE6A1EC000000080C0AE59400C000000130000002A0900003C00000006000000020000000000000000408F4000000000BE6A1EC000000080C0AE59400000000000408F4000000080A26217C000000000BEDB59400C00000013000000320900003C00000006000000020000000000000000408FC000
310
000080A26217C0000000C0BDDB59400000000000408FC000000000BE6A1EC000000080C0AE59400C000000130000003A0900003C00000006000000020000000000000000408FC000000080A26217C0000000C0BDDB59400000000000408F4000000080A26217C000000000BEDB59400C00000013000000420900003C000000
310
06000000020000000000000000408F40000000000000E0BE000000C0FF3F5A400000000000408F4000000080A26217C000000000BEDB59400C000000130000004A0900003C00000006000000020000000000000000408FC0000000000000D8BE000000C0FF3F5A400000000000408FC000000080A26217C0000000C0BDDB59
310
400C00000013000000520900003C00000006000000020000000000000000408FC0000000000000D8BE000000C0FF3F5A400000000000408F40000000000000E0BE000000C0FF3F5A400C000000130000005A0900003C00000006000000020000000000000000408F40000000000000C0BE000000800D515C40000000000040
310
8F40000000000000E0BE000000C0FF3F5A400C00000013000000620900003C00000006000000020000000000000000408FC0000000000000D8BE000000C0FF3F5A400000000000408FC0000000000000C0BE000000800D515C400C000000130000006A0900003C00000006000000020000000000000000408FC00000000000
310
00C0BE000000800D515C400000000000408F40000000000000C0BE000000800D515C400C00000013000000720900003C00000006000000020000000000000000408FC0000000001487E7BF000000C0346C5C400000000000408FC0000000000000C0BE000000800D515C400C000000130000007A0900003C00000006000000
310
020000000000000000408FC0000000001487E7BF000000C0346C5C400000000000408F40000000001687E7BF000000C0346C5C400C00000013000000820900003C00000006000000020000000000000000408F40000000001687E7BF000000C0346C5C400000000000408F40000000000000C0BE000000800D515C400C0000
310
00130000008A0900003C00000006000000020000000000000000408F4000000000D871F2BF000000C05E925C400000000000408F40000000001687E7BF000000C0346C5C400C00000013000000920900003C00000006000000020000000000000000408FC000000000D771F2BF000000C05E925C400000000000408FC00000
310
00001487E7BF000000C0346C5C400C000000130000009A0900003C00000006000000020000000000000000408FC000000000D771F2BF000000C05E925C400000000000408F4000000000D871F2BF000000C05E925C400C00000013000000A20900003C00000006000000020000000000000000408F4000000000D2CCF4BF00
310
0000C0FFBF5C400000000000408F4000000000D871F2BF000000C05E925C400C00000013000000AA0900003C00000006000000020000000000000000408FC000000000D1CCF4BF000000C0FFBF5C400000000000408FC000000000D771F2BF000000C05E925C400C00000013000000B20900003C0000000600000002000000
310
0000000000408FC000000000D1CCF4BF000000C0FFBF5C400000000000408F4000000000D2CCF4BF000000C0FFBF5C400C00000013000000BA0900003C00000006000000020000000000000000408F4000000000D871F2BF000000C0A0ED5C400000000000408F4000000000D2CCF4BF000000C0FFBF5C400C000000130000
310
00C20900003C00000006000000020000000000000000408FC000000000D771F2BF000000C0A0ED5C400000000000408FC000000000D1CCF4BF000000C0FFBF5C400C00000013000000CA0900003C00000006000000020000000000000000408FC000000000D771F2BF000000C0A0ED5C400000000000408F4000000000D871
310
F2BF000000C0A0ED5C400C00000013000000D20900003C00000006000000020000000000000000408F40000000001687E7BF000000C0CA135D400000000000408F4000000000D871F2BF000000C0A0ED5C400C00000013000000DA0900003C00000006000000020000000000000000408FC0000000001087E7BF000000C0CA
310
135D400000000000408FC000000000D771F2BF000000C0A0ED5C400C00000013000000E20900003C00000006000000020000000000000000408FC0000000001087E7BF000000C0CA135D400000000000408F40000000001687E7BF000000C0CA135D400C00000013000000EA0900003C000000060000000200000000000000
310
00408FC0000000001087E7BF000000C0CA135D400000000000408FC0000000000000C0BE00000000F22E5D400C00000013000000F20900003C00000006000000020000000000000000408FC0000000000000C0BE00000000F22E5D400000000000408F40000000000000C0BE00000000F22E5D400C00000013000000FA0900
310
003C00000006000000020000000000000000408F40000000000000C0BE00000000F22E5D400000000000408F40000000001687E7BF000000C0CA135D400C00000013000000020A00003C00000006000000020000000000000000408F40000000000000C0BE000000C0FF3F5F400000000000408F40000000000000C0BE0000
310
0000F22E5D400C000000130000000A0A00003C00000006000000020000000000000000408FC0000000000000C0BE000000C0FF3F5F400000000000408FC0000000000000C0BE00000000F22E5D400C00000013000000120A00003C00000006000000020000000000000000408FC0000000000000C0BE000000C0FF3F5F4000
310
00000000408F40000000000000C0BE000000C0FF3F5F400C000000130000001A0A00003C00000006000000020000000000000000408F40000000C0C94B1EC000000000FE9E5D400000000000408F40000000000000C0BE000000C0FF3F5F400C00000013000000220A00003C00000006000000020000000000000000408FC0
310
000000000000C0BE000000C0FF3F5F400000000000408FC0000000C0C94B1EC000000000FE9E5D400C000000130000002A0A00003C00000006000000020000000000000000408FC0000000C0C94B1EC000000000FE9E5D400000000000408F40000000C0C94B1EC000000000FE9E5D400C00000013000000320A00003C0000
310
0006000000020000000000000000408F4000000040093328C0000000C0DD765C400000000000408F40000000C0136230C0000000C08D295B400C000000130000003A0A00003C00000006000000020000000000000000408FC000000040093328C0000000C0DD765C400000000000408F4000000040093328C0000000C0DD76
310
5C400C00000013000000420A00003C00000006000000020000000000000000408FC000000040093328C0000000C0DD765C400000000000408FC0000000C0136230C0000000C08D295B400C000000130000004A0A00003C00000006000000020000000000000000408FC0000000C0136230C0000000C08D295B400000000000
310
408F40000000C0136230C0000000C08D295B400C00000013000000520A00003C00000006000000020000000000000000408F40000000E0C96037C000000040E15C58400000000000408F4000000060B80C34C0000000C034D459400C000000130000005A0A00003C00000006000000020000000000000000408FC000000060
310
B80C34C0000000C034D459400000000000408F4000000060B80C34C0000000C034D459400C00000013000000620A00003C00000006000000020000000000000000408FC000000060B80C34C0000000C034D459400000000000408FC0000000E0C96037C000000040E15C58400C000000130000006A0A00003C000000060000
310
00020000000000000000408FC0000000E0C96037C000000040E15C58400000000000408F40000000E0C96037C000000040E15C58400C00000013000000720A00003C00000006000000020000000000000000408F4000000080C7133AC0000000C064E456400000000000408F40000000802A5A3CC0000000C0294E55400C00
310
0000130000007A0A00003C00000006000000020000000000000000408FC000000080C7133AC0000000C064E456400000000000408F4000000080C7133AC0000000C064E456400C00000013000000820A00003C00000006000000020000000000000000408FC000000080C7133AC0000000C064E456400000000000408FC000
310
0000802A5A3CC0000000C0294E55400C000000130000008A0A00003C00000006000000020000000000000000408FC0000000802A5A3CC0000000C0294E55400000000000408F40000000802A5A3CC0000000C0294E55400C00000013000000920A00003C00000006000000020000000000000000408F40000000A0AB283FC0
310
000000407A1452400000000000408F400000000019013EC000000080A8BD53400C000000130000009A0A00003C00000006000000020000000000000000408FC00000000019013EC000000080A8BD53400000000000408F400000000019013EC000000080A8BD53400C00000013000000A20A00003C00000006000000020000
310
000000000000408FC00000000019013EC000000080A8BD53400000000000408FC000000080AB283FC0000000407A1452400C00000013000000AA0A00003C00000006000000020000000000000000408FC000000080AB283FC0000000407A1452400000000000408F40000000A0AB283FC0000000407A1452400C0000001300
310
0000B20A00003C00000006000000020000000000000000408F40000000000DB73FC0000000006E904D400000000000408F40000000A00CB73FC000000080C87750400C00000013000000BA0A00003C00000006000000020000000000000000408FC0000000A00CB73FC000000080C87750400000000000408F40000000A00C
310
B73FC000000080C87750400C00000013000000C20A00003C00000006000000020000000000000000408FC0000000A00CB73FC000000080C87750400000000000408FC0000000000DB73FC0000000006E904D400C00000013000000CA0A00003C00000006000000020000000000000000408FC0000000000DB73FC000000000
310
6E904D400000000000408F40000000000DB73FC0000000006E904D400C00000013000000D20A00003C00000006000000020000000000000000408F4000000000AC283FC0000000800A574A400000000000408F400000004019013EC000000000AE0447400C00000013000000DA0A00003C0000000600000002000000000000
310
0000408FC0000000C0AB283FC0000000800A574A400000000000408F4000000000AC283FC0000000800A574A400C00000013000000E20A00003C00000006000000020000000000000000408FC0000000C0AB283FC0000000800A574A400000000000408FC00000000019013EC000000000AE0447400C00000013000000EA0A
310
00003C00000006000000020000000000000000408FC00000000019013EC000000000AE0447400000000000408F400000004019013EC000000000AE0447400C00000013000000F20A00003C00000006000000020000000000000000408F40000000802A5A3CC000000080ABE343400000000000408F4000000080C7133AC000
310
00008035B740400C00000013000000FA0A00003C00000006000000020000000000000000408FC0000000802A5A3CC000000080ABE343400000000000408F40000000802A5A3CC000000080ABE343400C00000013000000020B00003C00000006000000020000000000000000408FC0000000802A5A3CC000000080ABE34340
310
0000000000408FC000000080C7133AC00000008035B740400C000000130000000A0B00003C00000006000000020000000000000000408FC000000080C7133AC00000008035B740400000000000408F4000000080C7133AC00000008035B740400C00000013000000120B00003C00000006000000020000000000000000408F
310
40000000A0C96037C000000000798C3B400000000000408F4000000060B80C34C0000000002BAF35400C000000130000001A0B00003C00000006000000020000000000000000408FC0000000A0C96037C000000000798C3B400000000000408F40000000A0C96037C000000000798C3B400C00000013000000220B00003C00
310
000006000000020000000000000000408FC0000000A0C96037C000000000798C3B400000000000408FC000000060B80C34C0000000002BAF35400C000000130000002A0B00003C00000006000000020000000000000000408FC000000060B80C34C0000000002BAF35400000000000408F4000000060B80C34C0000000002B
310
AF35400C00000013000000320B00003C00000006000000020000000000000000408F40000000C0083328C0000000000F4926400000000000408F40000000C0136230C000000080C75930400C000000130000003A0B00003C00000006000000020000000000000000408FC0000000C0136230C000000080C759304000000000
310
00408F40000000C0136230C000000080C75930400C00000013000000420B00003C00000006000000020000000000000000408FC0000000C0136230C000000080C75930400000000000408FC0000000C0083328C0000000000F4926400C000000130000004A0B00003C00000006000000020000000000000000408FC0000000
310
C0083328C0000000000F4926400000000000408F40000000C0083328C0000000000F4926400C00000013000000520B00003C00000006000000020000000000000000408F40000000000000D8BE000000000000F0BE0000000000408F40000000C0C84B1EC0000000001A101A400C000000130000005A0B00003C0000000600
310
0000020000000000000000408FC0000000C0C84B1EC0000000001A101A400000000000408F40000000C0C84B1EC0000000001A101A400C00000013000000620B00003C00000006000000020000000000000000408FC0000000000000D8BE000000000000F0BE0000000000408FC0000000C0C84B1EC0000000001A101A400C
310
000000130000006A0B00003C00000006000000020000000000000000408FC0000000000000D8BE000000000000F0BE0000000000408F40000000000000D8BE000000000000F0BE0C00000013000000720B00003C00000006000000020000000000000000408F40000000000000D8BE000000000000F0BE0000000000408F40
310
000000000000E0BE000000006B8820400C000000130000007A0B00003C00000006000000020000000000000000408FC0000000000000D8BE000000000000F0BE0000000000408FC0000000000000E0BE000000006B8820400C00000013000000820B00003C00000006000000020000000000000000408FC0000000000000E0
310
BE000000006B8820400000000000408F40000000000000E0BE000000006B8820400C000000130000008A0B00003C00000006000000020000000000000000408FC0000000001487E7BF00000000A56121400000000000408FC0000000000000E0BE000000006B8820400C00000013000000920B00003C000000060000000200
310
00000000000000408FC0000000001487E7BF00000000A56121400000000000408F40000000001A87E7BF00000000A56121400C000000130000009A0B00003C00000006000000020000000000000000408F40000000001A87E7BF00000000A56121400000000000408F40000000000000E0BE000000006B8820400C00000013
310
000000A20B00003C00000006000000020000000000000000408F40000000001A87E7BF00000000A56121400000000000408F4000000000D971F2BF00000000F79222400C00000013000000AA0B00003C00000006000000020000000000000000408FC000000000D871F2BF00000000F79222400000000000408FC000000000
310
1487E7BF00000000A56121400C00000013000000B20B00003C00000006000000020000000000000000408FC000000000D871F2BF00000000F79222400000000000408F4000000000D971F2BF00000000F79222400C00000013000000BA0B00003C00000006000000020000000000000000408F4000000000D3CCF4BF000000
310
00FEFF23400000000000408F4000000000D971F2BF00000000F79222400C00000013000000C20B00003C00000006000000020000000000000000408FC000000000D1CCF4BF00000000FEFF23400000000000408FC000000000D871F2BF00000000F79222400C00000013000000CA0B00003C00000006000000020000000000
310
000000408FC000000000D1CCF4BF00000000FEFF23400000000000408F4000000000D3CCF4BF00000000FEFF23400C00000013000000D20B00003C00000006000000020000000000000000408F4000000000D3CCF4BF00000000FEFF23400000000000408F4000000000D971F2BF00000000056D25400C00000013000000DA
310
0B00003C00000006000000020000000000000000408FC000000000D771F2BF00000000056D25400000000000408FC000000000D1CCF4BF00000000FEFF23400C00000013000000E20B00003C00000006000000020000000000000000408FC000000000D771F2BF00000000056D25400000000000408F4000000000D971F2BF
310
00000000056D25400C00000013000000EA0B00003C00000006000000020000000000000000408F40000000001887E7BF00000000579E26400000000000408F4000000000D971F2BF00000000056D25400C00000013000000F20B00003C00000006000000020000000000000000408FC0000000001487E7BF00000000579E26
310
400000000000408FC000000000D771F2BF00000000056D25400C00000013000000FA0B00003C00000006000000020000000000000000408FC0000000001487E7BF00000000579E26400000000000408F40000000001887E7BF00000000579E26400C00000013000000020C00003C0000000600000002000000000000000040
310
8FC0000000001487E7BF00000000579E26400000000000408FC0000000000000E0BE00000000907727400C000000130000000A0C00003C00000006000000020000000000000000408FC0000000000000E0BE00000000907727400000000000408F40000000000000E0BE00000000907727400C00000013000000120C00003C
310
00000006000000020000000000000000408F40000000001887E7BF00000000579E26400000000000408F40000000000000E0BE00000000907727400C000000130000001A0C00003C00000006000000020000000000000000408F40000000000000D8BE00000000FFFF33400000000000408F40000000000000E0BE00000000
310
907727400C00000013000000220C00003C00000006000000020000000000000000408FC0000000000000C0BE00000000FFFF33400000000000408FC0000000000000E0BE00000000907727400C000000130000002A0C00003C00000006000000020000000000000000408FC0000000000000C0BE00000000FFFF3340000000
310
0000408F40000000000000D8BE00000000FFFF33400C00000013000000320C00003C00000006000000020000000000000000408F40000000000000D8BE00000000FFFF33400000000000408F4000000000A26217C000000080059135400C000000130000003A0C00003C00000006000000020000000000000000408FC00000
310
0000A26217C000000080059135400000000000408FC0000000000000C0BE00000000FFFF33400C00000013000000420C00003C00000006000000020000000000000000408FC000000000A26217C000000080059135400000000000408F4000000000A26217C000000080059135400C000000130000004A0C00003C00000006
310
000000020000000000000000408F4000000080BD6A1EC000000000FC4436400000000000408F4000000000A26217C000000080059135400C00000013000000520C00003C00000006000000020000000000000000408FC000000000A26217C000000080059135400000000000408FC000000080BD6A1EC000000000FC443640
310
0C000000130000005A0C00003C00000006000000020000000000000000408FC000000080BD6A1EC000000000FC4436400000000000408F4000000080BD6A1EC000000000FC4436400C00000013000000620C00003C00000006000000020000000000000000408F4000000020904B22C0000000809F5D37400000000000408F
310
4000000080BD6A1EC000000000FC4436400C000000130000006A0C00003C00000006000000020000000000000000408FC000000020904B22C0000000809F5D37400000000000408FC000000080BD6A1EC000000000FC4436400C00000013000000720C00003C00000006000000020000000000000000408FC000000020904B
310
22C0000000809F5D37400000000000408F4000000020904B22C0000000809F5D37400C000000130000007A0C00003C00000006000000020000000000000000408F4000000020904B22C0000000809F5D37400000000000408F4000000040D0C724C00000000048CB38400C00000013000000820C00003C0000000600000002
310
0000000000000000408FC000000040D0C724C00000000048CB38400000000000408FC000000020904B22C0000000809F5D37400C000000130000008A0C00003C00000006000000020000000000000000408FC000000040D0C724C00000000048CB38400000000000408F4000000040D0C724C00000000048CB38400C000000
310
13000000920C00003C00000006000000020000000000000000408F4000000000F77C2EC000000000069640400000000000408F4000000040D0C724C00000000048CB38400C000000130000009A0C00003C00000006000000020000000000000000408FC000000060F77C2EC000000000069640400000000000408FC0000000
310
40D0C724C00000000048CB38400C00000013000000A20C00003C00000006000000020000000000000000408FC000000040093328C0000000C0DD765C400000000000408FC0000000C0C94B1EC000000000FE9E5D400C00000013000000AA0C00003C00000006000000020000000000000000408F40000000C0C94B1EC00000
310
0000FE9E5D400000000000408F4000000040093328C0000000C0DD765C400C00000013000000B20C00003C00000006000000020000000000000000408FC000000060B80C34C0000000C034D459400000000000408FC0000000C0136230C0000000C08D295B400C00000013000000BA0C00003C000000060000000200000000
310
00000000408F4000000060B80C34C0000000C034D459400000000000408F40000000C0136230C0000000C08D295B400C00000013000000C20C00003C00000006000000020000000000000000408FC000000080C7133AC0000000C064E456400000000000408FC0000000E0C96037C000000040E15C58400C00000013000000
310
CA0C00003C00000006000000020000000000000000408F4000000080C7133AC0000000C064E456400000000000408F40000000E0C96037C000000040E15C58400C00000013000000D20C00003C00000006000000020000000000000000408FC00000000019013EC000000080A8BD53400000000000408FC0000000802A5A3C
310
C0000000C0294E55400C00000013000000DA0C00003C00000006000000020000000000000000408F400000000019013EC000000080A8BD53400000000000408F40000000802A5A3CC0000000C0294E55400C00000013000000E20C00003C00000006000000020000000000000000408FC0000000A00CB73FC000000080C877
310
50400000000000408FC000000080AB283FC0000000407A1452400C00000013000000EA0C00003C00000006000000020000000000000000408F40000000A00CB73FC000000080C87750400000000000408F40000000A0AB283FC0000000407A1452400C00000013000000F20C00003C00000006000000020000000000000000
310
408FC0000000C0AB283FC0000000800A574A400000000000408FC0000000000DB73FC0000000006E904D400C00000013000000FA0C00003C00000006000000020000000000000000408F40000000000DB73FC0000000006E904D400000000000408F4000000000AC283FC0000000800A574A400C00000013000000020D0000
310
3C00000006000000020000000000000000408FC0000000802A5A3CC000000080ABE343400000000000408FC00000000019013EC000000000AE0447400C000000130000000A0D00003C00000006000000020000000000000000408F400000004019013EC000000000AE0447400000000000408F40000000802A5A3CC0000000
310
80ABE343400C00000013000000120D00003C00000006000000020000000000000000408FC0000000A0C96037C000000000798C3B400000000000408FC000000080C7133AC00000008035B740400C000000130000001A0D00003C00000006000000020000000000000000408F40000000A0C96037C000000000798C3B400000
310
000000408F4000000080C7133AC00000008035B740400C00000013000000220D00003C00000006000000020000000000000000408FC0000000C0136230C000000080C75930400000000000408FC000000060B80C34C0000000002BAF35400C000000130000002A0D00003C00000006000000020000000000000000408F4000
310
0000C0136230C000000080C75930400000000000408F4000000060B80C34C0000000002BAF35400C00000013000000320D00003C00000006000000020000000000000000408FC0000000C0C84B1EC0000000001A101A400000000000408FC0000000C0083328C0000000000F4926400C000000130000003A0D00003C000000
310
06000000020000000000000000408F40000000C0C84B1EC0000000001A101A400000000000408F40000000C0083328C0000000000F4926400C00000013000000420D00003C00000006000000020000000000000000408FC0000000C0C84B1EC0000000001A101A400000000000408FC0000000001487E7BF00000000A56121
310
400C000000130000004A0D00003C00000006000000020000000000000000408FC0000000A00CB73FC000000080C87750400000000000408FC000000060000036C000000080FF3F4F400C00000013000000520D00003C00000006000000020000000000000000408FC000000060000036C000000080FF3F4F40000000000040
310
8FC0000000000DB73FC0000000006E904D400C000000130000005A0D00003C00000006000000020000000000000000408FC000000060E33935C000000040042A52400000000000408FC000000080AB283FC0000000407A1452400C00000013000000620D00003C00000006000000020000000000000000408FC00000000019
310
013EC000000080A8BD53400000000000408FC000000060E33935C000000040042A52400C000000130000006A0D00003C00000006000000020000000000000000408FC0000000C0AB283FC0000000800A574A400000000000408FC0000000C0E33935C000000000F62B4A400C00000013000000720D00003C00000006000000
310
020000000000000000408FC0000000001087E7BF000000C0CA135D400000000000408FC0000000C0C94B1EC000000000FE9E5D400C000000130000007A0D00003C00000006000000020000000000000000408FC000000000D771F2BF000000C0A0ED5C400000000000408FC0000000C0C94B1EC000000000FE9E5D400C0000
310
0013000000820D00003C00000006000000020000000000000000408FC000000040093328C0000000C0DD765C400000000000408FC000000000D1CCF4BF000000C0FFBF5C400C000000130000008A0D00003C00000006000000020000000000000000408FC000000040093328C0000000C0DD765C400000000000408FC00000
310
0000D771F2BF000000C05E925C400C00000013000000920D00003C00000006000000020000000000000000408FC000000040093328C0000000C0DD765C400000000000408FC0000000001487E7BF000000C0346C5C400C000000130000009A0D00003C00000006000000020000000000000000408FC000000040093328C000
310
0000C0DD765C400000000000408FC0000000000000D8BE000000C0FF3F5A400C00000013000000A20D00003C00000006000000020000000000000000408FC0000000A0F77C2EC000000080FCF456400000000000408FC0000000E0C96037C000000040E15C58400C00000013000000AA0D00003C0000000600000002000000
310
0000000000408FC000000080C7133AC0000000C064E456400000000000408FC0000000A0F77C2EC000000080FCF456400C00000013000000B20D00003C00000006000000020000000000000000408FC000000060B80C34C0000000C034D459400000000000408FC0000000C0CFC724C0000000402D0D59400C000000130000
310
00BA0D00003C00000006000000020000000000000000408FC000000000BE6A1EC000000080C0AE59400000000000408FC0000000C0136230C0000000C08D295B400C00000013000000C20D00003C00000006000000020000000000000000408FC000000060B80C34C0000000C034D459400000000000408FC000000000904B
310
22C0000000C0976859400C00000013000000CA0D00003C00000006000000020000000000000000408FC000000080A26217C0000000C0BDDB59400000000000408FC0000000C0136230C0000000C08D295B400C00000013000000D20D00003C00000006000000020000000000000000408FC0000000C016D732C000000000A9
310
B554400000000000408FC0000000802A5A3CC0000000C0294E55400C00000013000000DA0D00003C00000006000000020000000000000000408FC0000000C04D1333C000000080F55854400000000000408FC0000000802A5A3CC0000000C0294E55400C00000013000000E20D00003C000000060000000200000000000000
310
00408FC00000000019013EC000000080A8BD53400000000000408FC00000000047E132C000000040E1FB53400C00000013000000EA0D00003C00000006000000020000000000000000408FC00000000019013EC000000080A8BD53400000000000408FC000000040514532C0000000C070A653400C00000013000000F20D00
310
003C00000006000000020000000000000000408FC00000000019013EC000000080A8BD53400000000000408FC0000000E0DB4C31C0000000C0FF3F52400C00000013000000FA0D00003C00000006000000020000000000000000408FC0000000C0E33935C000000000F62B4A400000000000408FC00000000019013EC00000
310
0000AE0447400C00000013000000020E00003C00000006000000020000000000000000408FC000000040DC4C31C000000080FFFF49400000000000408FC00000000019013EC000000000AE0447400C000000130000000A0E00003C00000006000000020000000000000000408FC000000060514532C0000000C01D33474000
310
00000000408FC00000000019013EC000000000AE0447400C00000013000000120E00003C00000006000000020000000000000000408FC00000002047E132C0000000803C8846400000000000408FC00000000019013EC000000000AE0447400C000000130000001A0E00003C00000006000000020000000000000000408FC0
310
000000802A5A3CC000000080ABE343400000000000408FC0000000C04D1333C00000000014CE45400C00000013000000220E00003C00000006000000020000000000000000408FC0000000802A5A3CC000000080ABE343400000000000408FC0000000C016D732C000000000AD1445400C000000130000002A0E00003C0000
310
0006000000020000000000000000408FC000000060F77C2EC000000000069640400000000000408FC000000080C7133AC00000008035B740400C00000013000000320E00003C00000006000000020000000000000000408FC0000000A0C96037C000000000798C3B400000000000408FC000000060F77C2EC0000000000696
310
40400C000000130000003A0E00003C00000006000000020000000000000000408FC000000000D1CCF4BF00000000FEFF23400000000000408FC0000000C0083328C0000000000F4926400C00000013000000420E00003C00000006000000020000000000000000408FC0000000C0C84B1EC0000000001A101A400000000000
310
408FC000000000D871F2BF00000000F79222400C000000130000004A0E00003C00000006000000020000000000000000408FC0000000001487E7BF00000000579E26400000000000408FC0000000C0083328C0000000000F4926400C00000013000000520E00003C00000006000000020000000000000000408FC000000000
310
D771F2BF00000000056D25400000000000408FC0000000C0083328C0000000000F4926400C000000130000005A0E00003C00000006000000020000000000000000408FC0000000000000C0BE00000000FFFF33400000000000408FC0000000C0083328C0000000000F4926400C00000013000000620E00003C000000060000
310
00020000000000000000408FC000000020904B22C0000000809F5D37400000000000408FC000000060B80C34C0000000002BAF35400C000000130000006A0E00003C00000006000000020000000000000000408FC0000000C0136230C000000080C75930400000000000408FC000000080BD6A1EC000000000FC4436400C00
310
000013000000720E00003C00000006000000020000000000000000408FC0000000C0136230C000000080C75930400000000000408FC000000000A26217C000000080059135400C000000130000007A0E00003C00000006000000020000000000000000408FC000000040D0C724C00000000048CB38400000000000408FC000
310
000060B80C34C0000000002BAF35400C00000013000000820E00003C00000006000000020000000000000000408F40000000C0C84B1EC0000000001A101A400000000000408F40000000001A87E7BF00000000A56121400C000000130000008A0E00003C00000006000000020000000000000000408F40000000000DB73FC0
310
000000006E904D400000000000408F4000000060000036C000000080FF3F4F400C00000013000000920E00003C00000006000000020000000000000000408F40000000A00CB73FC000000080C87750400000000000408F4000000060000036C000000080FF3F4F400C000000130000009A0E00003C00000006000000020000
310
000000000000408F40000000A0AB283FC0000000407A1452400000000000408F4000000060E33935C000000040042A52400C00000013000000A20E00003C00000006000000020000000000000000408F4000000060E33935C000000040042A52400000000000408F400000000019013EC000000080A8BD53400C0000001300
310
0000AA0E00003C00000006000000020000000000000000408F4000000000AC283FC0000000800A574A400000000000408F40000000C0E33935C000000000F62B4A400C00000013000000B20E00003C00000006000000020000000000000000408F40000000C0C94B1EC000000000FE9E5D400000000000408F400000000016
310
87E7BF000000C0CA135D400C00000013000000BA0E00003C00000006000000020000000000000000408F40000000C0C94B1EC000000000FE9E5D400000000000408F4000000000D871F2BF000000C0A0ED5C400C00000013000000C20E00003C00000006000000020000000000000000408F4000000040093328C0000000C0
310
DD765C400000000000408F4000000000D871F2BF000000C05E925C400C00000013000000CA0E00003C00000006000000020000000000000000408F4000000040093328C0000000C0DD765C400000000000408F4000000000D2CCF4BF000000C0FFBF5C400C00000013000000D20E00003C0000000600000002000000000000
310
0000408F4000000040093328C0000000C0DD765C400000000000408F40000000001687E7BF000000C0346C5C400C00000013000000DA0E00003C00000006000000020000000000000000408F4000000040093328C0000000C0DD765C400000000000408F40000000000000E0BE000000C0FF3F5A400C00000013000000E20E
310
00003C00000006000000020000000000000000408F4000000080C7133AC0000000C064E456400000000000408F4000000060F77C2EC000000080FCF456400C00000013000000EA0E00003C00000006000000020000000000000000408F40000000E0C96037C000000040E15C58400000000000408F4000000060F77C2EC000
310
000080FCF456400C00000013000000F20E00003C00000006000000020000000000000000408F4000000060B80C34C0000000C034D459400000000000408F40000000C0CFC724C0000000802D0D59400C00000013000000FA0E00003C00000006000000020000000000000000408F4000000060B80C34C0000000C034D45940
310
0000000000408F4000000000904B22C0000000C0976859400C00000013000000020F00003C00000006000000020000000000000000408F40000000C0136230C0000000C08D295B400000000000408F4000000000BE6A1EC000000080C0AE59400C000000130000000A0F00003C00000006000000020000000000000000408F
310
40000000C0136230C0000000C08D295B400000000000408F4000000080A26217C000000000BEDB59400C00000013000000120F00003C00000006000000020000000000000000408F40000000802A5A3CC0000000C0294E55400000000000408F400000008016D732C000000000A9B554400C000000130000001A0F00003C00
310
000006000000020000000000000000408F40000000802A5A3CC0000000C0294E55400000000000408F40000000804D1333C000000080F55854400C00000013000000220F00003C00000006000000020000000000000000408F400000000019013EC000000080A8BD53400000000000408F40000000C046E132C000000040E1
310
FB53400C000000130000002A0F00003C00000006000000020000000000000000408F400000000019013EC000000080A8BD53400000000000408F4000000000514532C0000000C070A653400C00000013000000320F00003C00000006000000020000000000000000408F400000000019013EC000000080A8BD534000000000
310
00408F40000000E0DB4C31C0000000C0FF3F52400C000000130000003A0F00003C00000006000000020000000000000000408F40000000C0E33935C000000000F62B4A400000000000408F400000004019013EC000000000AE0447400C00000013000000420F00003C00000006000000020000000000000000408F40000000
310
4019013EC000000000AE0447400000000000408F4000000040DC4C31C000000080FFFF49400C000000130000004A0F00003C00000006000000020000000000000000408F400000004019013EC000000000AE0447400000000000408F4000000040514532C0000000C01D3347400C00000013000000520F00003C0000000600
310
0000020000000000000000408F400000004019013EC000000000AE0447400000000000408F400000000047E132C0000000803C8846400C000000130000005A0F00003C00000006000000020000000000000000408F40000000802A5A3CC000000080ABE343400000000000408F40000000C04D1333C00000000014CE45400C
310
00000013000000620F00003C00000006000000020000000000000000408F40000000802A5A3CC000000080ABE343400000000000408F400000008016D732C000000000AD1445400C000000130000006A0F00003C00000006000000020000000000000000408F40000000A0C96037C000000000798C3B400000000000408F40
310
00000000F77C2EC000000000069640400C00000013000000720F00003C00000006000000020000000000000000408F4000000080C7133AC00000008035B740400000000000408F4000000000F77C2EC000000000069640400C000000130000007A0F00003C00000006000000020000000000000000408F40000000C0C84B1E
310
C0000000001A101A400000000000408F4000000000D971F2BF00000000F79222400C00000013000000820F00003C00000006000000020000000000000000408F40000000C0083328C0000000000F4926400000000000408F4000000000D3CCF4BF00000000FEFF23400C000000130000008A0F00003C000000060000000200
310
00000000000000408F40000000C0083328C0000000000F4926400000000000408F4000000000D971F2BF00000000056D25400C00000013000000920F00003C00000006000000020000000000000000408F40000000C0083328C0000000000F4926400000000000408F40000000001887E7BF00000000579E26400C00000013
310
0000009A0F00003C00000006000000020000000000000000408F40000000C0083328C0000000000F4926400000000000408F40000000000000D8BE00000000FFFF33400C00000013000000A20F00003C00000006000000020000000000000000408F40000000C0136230C000000080C75930400000000000408F4000000080
310
BD6A1EC000000000FC4436400C00000013000000AA0F00003C00000006000000020000000000000000408F4000000060B80C34C0000000002BAF35400000000000408F4000000020904B22C0000000809F5D37400C00000013000000B20F00003C00000006000000020000000000000000408F40000000C0136230C0000000
310
80C75930400000000000408F4000000000A26217C000000080059135400C00000013000000BA0F00003C00000006000000020000000000000000408F4000000060B80C34C0000000002BAF35400000000000408F4000000040D0C724C00000000048CB3840
100
AcDbSubDMesh
 71
     2
 72
     0
 91
        0
 92
      238
 10
-1000.0
 20
-0.0000057220458984
 30
-0.0000152587890625
 10
-1000.0
 20
-7.574007987976074
 30
6.515724182128906
 10
-1000.0
 20
-16.38311386108398
 30
16.35070037841797
 10
-1000.0
 20
-23.37807655334473
 30
27.54872131347656
 10
-1000.0
 20
-28.35221099853516
 30
39.77867126464844
 10
-1000.0
 20
-31.15887069702149
 30
52.68000793457031
 10
-1000.0
 20
-31.71503639221191
 30
65.87161254882812
 10
-1000.0
 20
-30.00428771972656
 30
78.96340942382813
 10
-1000.0
 20
-26.07726287841797
 30
91.56864929199219
 10
-1000.0
 20
-20.0496883392334
 30
103.3157196044922
 10
-1000.0
 20
-12.09967994689941
 30
113.8572845458984
 10
-1000.0
 20
-0.0000019073486328
 30
124.9999847412109
 10
-1000.0
 20
-10.39025688171387
 30
100.2058868408203
 10
-1000.0
 20
-15.2440767288208
 30
91.82791137695312
 10
-1000.0
 20
-18.84019088745117
 30
82.83843994140625
 10
-996.0
 20
-18.84019088745117
 30
82.83843994140625
 10
-994.1294555664063
 20
-18.98453903198242
 30
82.3773193359375
 10
-992.1796264648437
 20
-19.50094604492187
 30
80.62278747558593
 10
-991.4815673828124
 20
-20.01083755493164
 30
78.708984375
 10
-991.13525390625
 20
-21.07605743408203
 30
73.59144592285156
 10
-991.0203247070311
 20
-21.85000801086426
 30
62.49817657470703
 10
-991.0718383789062
 20
-21.41198539733887
 30
53.64048767089844
 10
-991.135498046875
 20
-21.0750789642334
 30
51.4026870727539
 10
-991.4815673828124
 20
-20.0108470916748
 30
46.29101562499999
 10
-992.1796264648437
 20
-19.50099945068359
 30
44.37736511230468
 10
-994.1292724609375
 20
-18.98456382751465
 30
42.62273406982422
 10
-996.0
 20
-18.84019088745117
 30
42.16152954101562
 10
-1000.0
 20
-18.84019088745117
 30
42.16152954101562
 10
-1000.0
 20
-15.24407482147217
 30
33.17205810546875
 10
-1000.0
 20
-10.39026069641113
 30
24.7940673828125
 10
-1000.0
 20
-0.0000057220458984
 30
104.9999847412109
 10
-1000.0
 20
-5.846323013305664
 30
103.4334564208984
 10
-1000.0
 20
-5.846321105957031
 30
21.56649017333984
 10
-1000.0
 20
-0.0000019073486328
 30
19.99998474121094
 10
-1000.0
 20
-7.604240417480468
 30
102.7304992675781
 10
-1000.0
 20
-9.1475830078125
 30
101.6342620849609
 10
-1000.0
 20
-9.147583961486816
 30
23.36571502685547
 10
-1000.0
 20
-7.604238510131835
 30
22.26947021484375
 10
-1000.0
 20
-0.7352371215820313
 30
116.3092498779297
 10
-1000.0
 20
-1.152792930603027
 30
115.7129364013672
 10
-1000.0
 20
-1.300004005432128
 30
114.9999847412109
 10
-1000.0
 20
-1.152792930603027
 30
114.2870330810547
 10
-1000.0
 20
-0.7352390289306641
 30
113.6907196044922
 10
-1000.0
 20
-0.0000019073486328
 30
113.2664489746094
 10
-1000.0
 20
-0.0000019073486328
 30
116.7335205078125
 10
-1000.0
 20
-0.7352390289306641
 30
11.30925750732422
 10
-1000.0
 20
-1.152792930603027
 30
10.71292877197265
 10
-1000.0
 20
-1.300004005432128
 30
9.999984741210937
 10
-1000.0
 20
-1.152793884277343
 30
9.287040710449218
 10
-1000.0
 20
-0.7352390289306641
 30
8.690711975097656
 10
-1000.0
 20
-0.0000076293945313
 30
8.266441345214843
 10
-1000.0
 20
-0.0000076293945313
 30
11.7335205078125
 10
-1000.0
 20
-17.30023002624512
 30
77.49998474121094
 10
-1000.0
 20
-17.30023002624512
 30
72.99998474121093
 10
-999.0
 20
-17.30023002624512
 30
72.99998474121093
 10
-999.0
 20
-17.30023574829101
 30
51.99998474121094
 10
-1000.0
 20
-17.30023574829101
 30
51.99998474121094
 10
-1000.0
 20
-17.30023574829101
 30
47.49998474121094
 10
-996.0
 20
-17.30023384094238
 30
47.49998474121094
 10
-996.0
 20
-17.30023384094238
 30
52.39069366455078
 10
-996.0
 20
-17.30023384094238
 30
62.49833679199219
 10
-996.0
 20
-17.30022811889648
 30
72.60423278808594
 10
-996.0
 20
-17.30023193359375
 30
77.49998474121094
 10
-999.0
 20
-21.22612571716309
 30
72.65650939941406
 10
-999.0
 20
-22.0000057220459
 30
62.49998474121094
 10
-999.0
 20
-21.22613143920899
 30
52.34344482421875
 10
-1000.0
 20
-21.22613143920899
 30
52.34344482421875
 10
-1000.0
 20
-21.22612571716309
 30
72.65650939941406
 10
-1000.0
 20
-22.0000057220459
 30
62.49998474121094
 10
-1000.0
 20
-19.07540512084961
 30
81.38998413085937
 10
-1000.0
 20
-18.87998962402344
 30
79.93562316894531
 10
-1000.0
 20
-18.27077102661133
 30
78.60063171386719
 10
-996.0
 20
-18.26916885375976
 30
78.59815979003906
 10
-996.0
 20
-18.87957763671875
 30
79.9342041015625
 10
-996.0
 20
-19.07540512084961
 30
81.38998413085937
 10
-994.7635498046874
 20
-19.5867805480957
 30
72.96551513671875
 10
-993.73291015625
 20
-20.40689849853515
 30
73.13888549804687
 10
-992.518310546875
 20
-20.92872619628906
 30
73.27024841308594
 10
-992.7521972656249
 20
-19.88465118408203
 30
78.52749633789063
 10
-994.0928344726563
 20
-19.35878372192383
 30
78.2381591796875
 10
-995.2081298828124
 20
-18.47047424316406
 30
77.88510131835938
 10
-994.9270629882812
 20
-19.97839736938476
 30
62.49824523925781
 10
-993.8583374023437
 20
-20.97227096557617
 30
62.49821472167969
 10
-992.5469970703124
 20
-21.61504745483398
 30
62.49819946289062
 10
-994.763427734375
 20
-19.58626937866211
 30
52.02930450439453
 10
-993.73291015625
 20
-20.40617942810059
 30
51.85585021972656
 10
-992.5184326171875
 20
-20.92787933349609
 30
51.72441101074219
 10
-995.2081298828124
 20
-18.47047424316406
 30
47.1148681640625
 10
-994.1670532226563
 20
-19.3151798248291
 30
46.78144073486328
 10
-992.8809814453124
 20
-19.85311508178711
 30
46.49553680419922
 10
-996.0
 20
-19.07540512084961
 30
43.6099853515625
 10
-996.0
 20
-18.87958145141601
 30
45.06576538085937
 10
-996.0
 20
-18.2691707611084
 30
46.40181732177734
 10
-1000.0
 20
-18.27077293395996
 30
46.39934539794921
 10
-1000.0
 20
-18.87999153137207
 30
45.06434631347656
 10
-1000.0
 20
-19.07540512084961
 30
43.6099853515625
 10
-993.2689819335937
 20
-19.52737426757812
 30
45.12899780273437
 10
-994.6669311523438
 20
-19.1740608215332
 30
43.92548370361327
 10
-994.4005737304687
 20
-19.14567184448242
 30
45.96034240722656
 10
-995.2236938476563
 20
-18.9371452331543
 30
45.24986267089843
 10
-995.3385009765625
 20
-18.38005447387695
 30
46.77476501464844
 10
-995.681396484375
 20
-18.2928581237793
 30
46.47757720947265
 10
-994.6669311523438
 20
-19.1740608215332
 30
81.07447814941407
 10
-993.2689819335937
 20
-19.52737426757812
 30
79.8709716796875
 10
-995.2236938476563
 20
-18.9371452331543
 30
79.75010681152344
 10
-994.4005737304687
 20
-19.14567184448242
 30
79.03962707519531
 10
-995.681396484375
 20
-18.29285430908203
 30
78.52239990234375
 10
-995.3385009765625
 20
-18.38005447387695
 30
78.22520446777343
 10
-999.0
 20
-17.30023384094238
 30
62.22867584228516
 10
996.0
 20
-18.8401870727539
 30
82.83843994140625
 10
996.0
 20
-19.07540130615234
 30
81.38998413085937
 10
994.1294555664063
 20
-18.98453330993652
 30
82.3773193359375
 10
994.6669311523438
 20
-19.1740550994873
 30
81.07447814941407
 10
992.1796264648437
 20
-19.50094223022461
 30
80.62278747558593
 10
993.2689819335937
 20
-19.52736854553222
 30
79.8709716796875
 10
991.4815673828124
 20
-20.01083183288574
 30
78.708984375
 10
992.7521972656249
 20
-19.88464546203613
 30
78.52749633789063
 10
992.518310546875
 20
-20.92872428894043
 30
73.27024841308594
 10
991.13525390625
 20
-21.07605361938476
 30
73.59144592285156
 10
992.5469970703124
 20
-21.61504745483398
 30
62.49819946289062
 10
991.0203247070311
 20
-21.85000610351563
 30
62.49817657470703
 10
991.135498046875
 20
-21.07507705688477
 30
51.4026870727539
 10
991.0718383789062
 20
-21.41198348999024
 30
53.64048767089844
 10
992.5184326171875
 20
-20.92787551879883
 30
51.72441101074219
 10
991.4815673828124
 20
-20.01084136962891
 30
46.29101562499999
 10
992.8809814453124
 20
-19.85310935974121
 30
46.49553680419922
 10
993.2689819335937
 20
-19.52736854553222
 30
45.12899780273437
 10
992.1796264648437
 20
-19.50099372863769
 30
44.37736511230468
 10
994.6669311523438
 20
-19.1740550994873
 30
43.92548370361327
 10
994.1292724609375
 20
-18.98455810546875
 30
42.62273406982422
 10
996.0
 20
-18.8401870727539
 30
42.16152954101562
 10
996.0
 20
-19.07540512084961
 30
43.6099853515625
 10
999.0
 20
-17.30023002624512
 30
72.99998474121093
 10
996.0
 20
-17.30022811889648
 30
77.49998474121094
 10
996.0
 20
-17.30022811889648
 30
72.60423278808594
 10
996.0
 20
-18.2691650390625
 30
78.59815979003906
 10
999.0
 20
-21.22612571716309
 30
72.65650939941406
 10
996.0
 20
-17.30023193359375
 30
52.39069366455078
 10
999.0
 20
-17.30023574829101
 30
51.99998474121094
 10
999.0
 20
-17.30023384094238
 30
62.22867584228516
 10
996.0
 20
-17.30023384094238
 30
62.49833679199219
 10
999.0
 20
-22.0000057220459
 30
62.49998474121094
 10
996.0
 20
-17.30023193359375
 30
47.49998474121094
 10
999.0
 20
-21.22613143920899
 30
52.34344482421875
 10
996.0
 20
-18.26916885375976
 30
46.40181732177734
 10
995.2081298828124
 20
-18.47046852111816
 30
47.1148681640625
 10
994.763427734375
 20
-19.58626556396484
 30
52.02930450439453
 10
995.3385009765625
 20
-18.38004875183105
 30
46.77476501464844
 10
995.681396484375
 20
-18.29285430908203
 30
46.47757720947265
 10
995.681396484375
 20
-18.2928524017334
 30
78.52239990234375
 10
995.3385009765625
 20
-18.38004875183105
 30
78.22520446777343
 10
995.2081298828124
 20
-18.47046852111816
 30
77.88510131835938
 10
996.0
 20
-18.87957572937011
 30
79.9342041015625
 10
995.2236938476563
 20
-18.9371395111084
 30
79.75010681152344
 10
994.7635498046874
 20
-19.58677864074707
 30
72.96551513671875
 10
994.9270629882812
 20
-19.97839736938476
 30
62.49824523925781
 10
993.73291015625
 20
-20.40689659118652
 30
73.13888549804687
 10
993.8583374023437
 20
-20.97227096557617
 30
62.49821472167969
 10
994.0928344726563
 20
-19.35877990722656
 30
78.2381591796875
 10
994.4005737304687
 20
-19.14566612243652
 30
79.03962707519531
 10
993.73291015625
 20
-20.40617752075196
 30
51.85585021972656
 10
994.1670532226563
 20
-19.3151741027832
 30
46.78144073486328
 10
994.4005737304687
 20
-19.14566612243652
 30
45.96034240722656
 10
996.0
 20
-18.87957763671875
 30
45.06576538085937
 10
995.2236938476563
 20
-18.9371395111084
 30
45.24986267089843
 10
-1000.0
 20
-12.09967613220215
 30
11.14269256591797
 10
-1000.0
 20
-20.0496883392334
 30
21.68424987792969
 10
-1000.0
 20
-26.07726287841797
 30
33.43132019042969
 10
-1000.0
 20
-30.00428771972656
 30
46.03656005859375
 10
-1000.0
 20
-31.71504211425781
 30
59.12835693359375
 10
-1000.0
 20
-31.15886688232422
 30
72.31996154785156
 10
-1000.0
 20
-28.35221099853516
 30
85.22129821777344
 10
-1000.0
 20
-23.37808036804199
 30
97.45124816894531
 10
-1000.0
 20
-16.38311386108398
 30
108.6492767333984
 10
-1000.0
 20
-7.574011802673339
 30
118.4842529296875
 10
1000.0
 20
-0.0000057220458984
 30
-0.0000152587890625
 10
1000.0
 20
-7.574007987976074
 30
6.515724182128906
 10
1000.0
 20
-0.7352418899536133
 30
8.690711975097656
 10
1000.0
 20
-0.0000076293945313
 30
8.266441345214843
 10
1000.0
 20
-31.71504211425781
 30
59.12835693359375
 10
1000.0
 20
-31.71503639221191
 30
65.87161254882812
 10
1000.0
 20
-22.0000057220459
 30
62.49998474121094
 10
1000.0
 20
-31.15886878967285
 30
72.31996154785156
 10
1000.0
 20
-21.22612571716309
 30
72.65650939941406
 10
1000.0
 20
-30.00428771972656
 30
78.96340942382813
 10
1000.0
 20
-31.15887451171875
 30
52.68000793457031
 10
1000.0
 20
-21.22613143920899
 30
52.34344482421875
 10
1000.0
 20
-7.574011802673339
 30
118.4842529296875
 10
1000.0
 20
-0.0000019073486328
 30
124.9999847412109
 10
1000.0
 20
-0.0000019073486328
 30
116.7335205078125
 10
1000.0
 20
-0.7352399826049805
 30
116.3092498779297
 10
1000.0
 20
-1.152793884277343
 30
115.7129364013672
 10
1000.0
 20
-12.09967994689941
 30
113.8572845458984
 10
1000.0
 20
-1.300004959106445
 30
114.9999847412109
 10
1000.0
 20
-1.152793884277343
 30
114.2870330810547
 10
1000.0
 20
-0.7352399826049805
 30
113.6907196044922
 10
1000.0
 20
-0.0000019073486328
 30
113.2664489746094
 10
1000.0
 20
-0.0000076293945313
 30
104.9999847412109
 10
1000.0
 20
-26.07726287841797
 30
91.56864929199219
 10
1000.0
 20
-23.37808036804199
 30
97.45124816894531
 10
1000.0
 20
-15.24407482147217
 30
91.82791137695312
 10
1000.0
 20
-20.0496883392334
 30
103.3157196044922
 10
1000.0
 20
-10.39025688171387
 30
100.2059020996094
 10
1000.0
 20
-16.38311386108398
 30
108.6492767333984
 10
1000.0
 20
-7.604240417480468
 30
102.7304992675781
 10
1000.0
 20
-9.1475830078125
 30
101.6342620849609
 10
1000.0
 20
-5.846323013305664
 30
103.4334716796875
 10
1000.0
 20
-28.35221099853516
 30
85.22129821777344
 10
1000.0
 20
-18.8401870727539
 30
82.83843994140625
 10
1000.0
 20
-19.07540130615234
 30
81.38998413085937
 10
1000.0
 20
-18.87998580932617
 30
79.93562316894531
 10
1000.0
 20
-18.27076721191406
 30
78.60063171386719
 10
1000.0
 20
-17.30023002624512
 30
77.49998474121094
 10
1000.0
 20
-17.30023002624512
 30
72.99998474121093
 10
1000.0
 20
-30.00429153442383
 30
46.03656005859375
 10
1000.0
 20
-17.30023574829101
 30
51.99998474121094
 10
1000.0
 20
-17.30023384094238
 30
47.49998474121094
 10
1000.0
 20
-18.27077102661133
 30
46.39934539794921
 10
1000.0
 20
-18.87998962402344
 30
45.06434631347656
 10
1000.0
 20
-28.35221099853516
 30
39.77867126464844
 10
1000.0
 20
-19.07540512084961
 30
43.6099853515625
 10
1000.0
 20
-18.8401870727539
 30
42.16152954101562
 10
1000.0
 20
-23.37807655334473
 30
27.54872131347656
 10
1000.0
 20
-26.07726287841797
 30
33.43132019042969
 10
1000.0
 20
-15.24407196044922
 30
33.17205810546875
 10
1000.0
 20
-12.09967613220215
 30
11.14269256591797
 10
1000.0
 20
-1.300005912780761
 30
9.999984741210937
 10
1000.0
 20
-1.15279483795166
 30
9.287040710449218
 10
1000.0
 20
-0.7352409362792969
 30
11.30925750732422
 10
1000.0
 20
-1.15279483795166
 30
10.71292877197265
 10
1000.0
 20
-0.0000057220458984
 30
19.99998474121094
 10
1000.0
 20
-0.0000076293945313
 30
11.7335205078125
 10
1000.0
 20
-16.38311386108398
 30
16.35070037841797
 10
1000.0
 20
-20.0496883392334
 30
21.68424987792969
 10
1000.0
 20
-9.147583961486816
 30
23.36571502685547
 10
1000.0
 20
-7.604238510131835
 30
22.26947021484375
 10
1000.0
 20
-5.846321105957031
 30
21.56649017333984
 10
1000.0
 20
-10.39026069641113
 30
24.7940673828125
 93
     1276
 90
        3
 90
       15
 90
       14
 90
       13
 90
        4
 90
       74
 90
       69
 90
       14
 90
       15
 90
        4
 90
       74
 90
       15
 90
       16
 90
      102
 90
        4
 90
      102
 90
       16
 90
       17
 90
      103
 90
        4
 90
      103
 90
       17
 90
       18
 90
       78
 90
        4
 90
       77
 90
       78
 90
       18
 90
       19
 90
        4
 90
       83
 90
       77
 90
       19
 90
       20
 90
        3
 90
       22
 90
       20
 90
       21
 90
        4
 90
       83
 90
       20
 90
       22
 90
       86
 90
        4
 90
       86
 90
       22
 90
       23
 90
       89
 90
        4
 90
       96
 90
       89
 90
       23
 90
       24
 90
        4
 90
       97
 90
       96
 90
       24
 90
       25
 90
        4
 90
       97
 90
       25
 90
       26
 90
       90
 90
        4
 90
       95
 90
       90
 90
       26
 90
       27
 90
        3
 90
       54
 90
       62
 90
       61
 90
        4
 90
       71
 90
       72
 90
       62
 90
       52
 90
        4
 90
       63
 90
       67
 90
       53
 90
       54
 90
        4
 90
       59
 90
       55
 90
      108
 90
       60
 90
        4
 90
       63
 90
       54
 90
      108
 90
       64
 90
        4
 90
       58
 90
       57
 90
       56
 90
       55
 90
        4
 90
       66
 90
       65
 90
       55
 90
       56
 90
        3
 90
       59
 90
       58
 90
       55
 90
        4
 90
       92
 90
       93
 90
       57
 90
       58
 90
        4
 90
       87
 90
       58
 90
       59
 90
       84
 90
        3
 90
      100
 90
       58
 90
       87
 90
        3
 90
      101
 90
       92
 90
       58
 90
        3
 90
      101
 90
       58
 90
      100
 90
        3
 90
      106
 90
       62
 90
       72
 90
        3
 90
      107
 90
       80
 90
       62
 90
        3
 90
      107
 90
       62
 90
      106
 90
        4
 90
       67
 90
       63
 90
       64
 90
       68
 90
        4
 90
       68
 90
       64
 90
       65
 90
       66
 90
        4
 90
       73
 90
       70
 90
       69
 90
       74
 90
        4
 90
       73
 90
       72
 90
       71
 90
       70
 90
        4
 90
      104
 90
      106
 90
       72
 90
       73
 90
        4
 90
      102
 90
      104
 90
       73
 90
       74
 90
        4
 90
       80
 90
       75
 90
       61
 90
       62
 90
        4
 90
       60
 90
       61
 90
       75
 90
       81
 90
        4
 90
       81
 90
       75
 90
       76
 90
       82
 90
        4
 90
       78
 90
       77
 90
       76
 90
       79
 90
        4
 90
       82
 90
       76
 90
       77
 90
       83
 90
        4
 90
      105
 90
      103
 90
       78
 90
       79
 90
        4
 90
      107
 90
      105
 90
       79
 90
       80
 90
        4
 90
       84
 90
       59
 90
       60
 90
       81
 90
        4
 90
       85
 90
       84
 90
       81
 90
       82
 90
        4
 90
       86
 90
       85
 90
       82
 90
       83
 90
        4
 90
       88
 90
       87
 90
       84
 90
       85
 90
        4
 90
       89
 90
       88
 90
       85
 90
       86
 90
        4
 90
       98
 90
      100
 90
       87
 90
       88
 90
        4
 90
       96
 90
       98
 90
       88
 90
       89
 90
        4
 90
       94
 90
       91
 90
       90
 90
       95
 90
        4
 90
       99
 90
       97
 90
       90
 90
       91
 90
        4
 90
       93
 90
       92
 90
       91
 90
       94
 90
        4
 90
      101
 90
       99
 90
       91
 90
       92
 90
        4
 90
       98
 90
       96
 90
       97
 90
       99
 90
        4
 90
      100
 90
       98
 90
       99
 90
      101
 90
        4
 90
      104
 90
      102
 90
      103
 90
      105
 90
        4
 90
      106
 90
      104
 90
      105
 90
      107
 90
        4
 90
       80
 90
       79
 90
       76
 90
       75
 90
        4
 90
       54
 90
       53
 90
       52
 90
       62
 90
        4
 90
      108
 90
       54
 90
       61
 90
       60
 90
        4
 90
      108
 90
       55
 90
       65
 90
       64
 90
        3
 90
       26
 90
       28
 90
       27
 90
        3
 90
      109
 90
      200
 90
      208
 90
        4
 90
      110
 90
      109
 90
      208
 90
      209
 90
        4
 90
      110
 90
      112
 90
      111
 90
      109
 90
        4
 90
      112
 90
      114
 90
      113
 90
      111
 90
        4
 90
      114
 90
      116
 90
      115
 90
      113
 90
        4
 90
      117
 90
      118
 90
      115
 90
      116
 90
        4
 90
      119
 90
      120
 90
      118
 90
      117
 90
        3
 90
      121
 90
      122
 90
      120
 90
        4
 90
      119
 90
      123
 90
      121
 90
      120
 90
        4
 90
      123
 90
      125
 90
      124
 90
      121
 90
        4
 90
      126
 90
      127
 90
      124
 90
      125
 90
        4
 90
      128
 90
      129
 90
      127
 90
      126
 90
        4
 90
      128
 90
      131
 90
      130
 90
      129
 90
        4
 90
      220
 90
      221
 90
      130
 90
      131
 90
        3
 90
      132
 90
      134
 90
      133
 90
        4
 90
      211
 90
      212
 90
      133
 90
      135
 90
        4
 90
      136
 90
      132
 90
      213
 90
      183
 90
        4
 90
      137
 90
      140
 90
      139
 90
      138
 90
        4
 90
      136
 90
      141
 90
      139
 90
      132
 90
        4
 90
      142
 90
      138
 90
      215
 90
      216
 90
        4
 90
      186
 90
      215
 90
      138
 90
      143
 90
        3
 90
      137
 90
      138
 90
      142
 90
        4
 90
      144
 90
      142
 90
      216
 90
      217
 90
        4
 90
      145
 90
      146
 90
      137
 90
      142
 90
        3
 90
      147
 90
      145
 90
      142
 90
        3
 90
      148
 90
      142
 90
      144
 90
        3
 90
      148
 90
      147
 90
      142
 90
        3
 90
      149
 90
      135
 90
      133
 90
        3
 90
      150
 90
      133
 90
      151
 90
        3
 90
      150
 90
      149
 90
      133
 90
        4
 90
      183
 90
      181
 90
      141
 90
      136
 90
        4
 90
      181
 90
      186
 90
      143
 90
      141
 90
        4
 90
      152
 90
      110
 90
      209
 90
      210
 90
        4
 90
      152
 90
      210
 90
      211
 90
      135
 90
        4
 90
      153
 90
      152
 90
      135
 90
      149
 90
        4
 90
      112
 90
      110
 90
      152
 90
      153
 90
        4
 90
      151
 90
      133
 90
      134
 90
      154
 90
        4
 90
      140
 90
      155
 90
      154
 90
      134
 90
        4
 90
      155
 90
      157
 90
      156
 90
      154
 90
        4
 90
      116
 90
      158
 90
      156
 90
      117
 90
        4
 90
      157
 90
      119
 90
      117
 90
      156
 90
        4
 90
      159
 90
      158
 90
      116
 90
      114
 90
        4
 90
      150
 90
      151
 90
      158
 90
      159
 90
        4
 90
      146
 90
      155
 90
      140
 90
      137
 90
        4
 90
      160
 90
      157
 90
      155
 90
      146
 90
        4
 90
      123
 90
      119
 90
      157
 90
      160
 90
        4
 90
      161
 90
      160
 90
      146
 90
      145
 90
        4
 90
      125
 90
      123
 90
      160
 90
      161
 90
        4
 90
      162
 90
      161
 90
      145
 90
      147
 90
        4
 90
      126
 90
      125
 90
      161
 90
      162
 90
        4
 90
      218
 90
      220
 90
      131
 90
      163
 90
        4
 90
      164
 90
      163
 90
      131
 90
      128
 90
        4
 90
      217
 90
      218
 90
      163
 90
      144
 90
        4
 90
      148
 90
      144
 90
      163
 90
      164
 90
        4
 90
      162
 90
      164
 90
      128
 90
      126
 90
        4
 90
      147
 90
      148
 90
      164
 90
      162
 90
        4
 90
      153
 90
      159
 90
      114
 90
      112
 90
        4
 90
      149
 90
      150
 90
      159
 90
      153
 90
        4
 90
      151
 90
      154
 90
      156
 90
      158
 90
        4
 90
      132
 90
      133
 90
      212
 90
      213
 90
        4
 90
      139
 90
      140
 90
      134
 90
      132
 90
        4
 90
      139
 90
      141
 90
      143
 90
      138
 90
        3
 90
      130
 90
      221
 90
      224
 90
        4
 90
      200
 90
      109
 90
       15
 90
       13
 90
        4
 90
      130
 90
      224
 90
       28
 90
       26
 90
        4
 90
      129
 90
      130
 90
       26
 90
       25
 90
        4
 90
      127
 90
      129
 90
       25
 90
       24
 90
        4
 90
      124
 90
      127
 90
       24
 90
       23
 90
        4
 90
      121
 90
      124
 90
       23
 90
       22
 90
        4
 90
      122
 90
      121
 90
       22
 90
       21
 90
        4
 90
      120
 90
      122
 90
       21
 90
       20
 90
        4
 90
      118
 90
      120
 90
       20
 90
       19
 90
        4
 90
      115
 90
      118
 90
       19
 90
       18
 90
        4
 90
      113
 90
      115
 90
       18
 90
       17
 90
        4
 90
      111
 90
      113
 90
       17
 90
       16
 90
        4
 90
      109
 90
      111
 90
       16
 90
       15
 90
        4
 90
      202
 90
      200
 90
       13
 90
       12
 90
        4
 90
      205
 90
      202
 90
       12
 90
       35
 90
        4
 90
      204
 90
      205
 90
       35
 90
       34
 90
        4
 90
      206
 90
      204
 90
       34
 90
       31
 90
        4
 90
      197
 90
      206
 90
       31
 90
       30
 90
        4
 90
      196
 90
      197
 90
       30
 90
       43
 90
        4
 90
      196
 90
       43
 90
       42
 90
      195
 90
        4
 90
      194
 90
      195
 90
       42
 90
       41
 90
        4
 90
      193
 90
      194
 90
       41
 90
       40
 90
        4
 90
      191
 90
      193
 90
       40
 90
       39
 90
        4
 90
      190
 90
      191
 90
       39
 90
       38
 90
        4
 90
      190
 90
       38
 90
       44
 90
      189
 90
        4
 90
      188
 90
      189
 90
       44
 90
       11
 90
        4
 90
      187
 90
      188
 90
       11
 90
      174
 90
        4
 90
      203
 90
      192
 90
       10
 90
      173
 90
        4
 90
      199
 90
      201
 90
        9
 90
      172
 90
        4
 90
      207
 90
      198
 90
        8
 90
      171
 90
        4
 90
      182
 90
      184
 90
        7
 90
      170
 90
        4
 90
      179
 90
      180
 90
        6
 90
      169
 90
        4
 90
      214
 90
      185
 90
        5
 90
      168
 90
        4
 90
      223
 90
      219
 90
        4
 90
      167
 90
        4
 90
      233
 90
      222
 90
        3
 90
      166
 90
        4
 90
      225
 90
      232
 90
        2
 90
      165
 90
        4
 90
      175
 90
      176
 90
        1
 90
        0
 90
        4
 90
      178
 90
      175
 90
        0
 90
       50
 90
        4
 90
      178
 90
       50
 90
       49
 90
      177
 90
        4
 90
      227
 90
      177
 90
       49
 90
       48
 90
        4
 90
      226
 90
      227
 90
       48
 90
       47
 90
        4
 90
      229
 90
      226
 90
       47
 90
       46
 90
        4
 90
      228
 90
      229
 90
       46
 90
       45
 90
        4
 90
      228
 90
       45
 90
       51
 90
      231
 90
        4
 90
      230
 90
      231
 90
       51
 90
       33
 90
        4
 90
      236
 90
      230
 90
       33
 90
       32
 90
        4
 90
      235
 90
      236
 90
       32
 90
       37
 90
        4
 90
      234
 90
      235
 90
       37
 90
       36
 90
        4
 90
      237
 90
      234
 90
       36
 90
       29
 90
        4
 90
      224
 90
      237
 90
       29
 90
       28
 90
        4
 90
      174
 90
       10
 90
      192
 90
      187
 90
        4
 90
      173
 90
        9
 90
      201
 90
      203
 90
        4
 90
      172
 90
        8
 90
      198
 90
      199
 90
        4
 90
      171
 90
        7
 90
      184
 90
      207
 90
        4
 90
      170
 90
        6
 90
      180
 90
      182
 90
        4
 90
      169
 90
        5
 90
      185
 90
      179
 90
        4
 90
      168
 90
        4
 90
      219
 90
      214
 90
        4
 90
      167
 90
        3
 90
      222
 90
      223
 90
        4
 90
      166
 90
        2
 90
      232
 90
      233
 90
        4
 90
      165
 90
        1
 90
      176
 90
      225
 90
        4
 90
        0
 90
        1
 90
       49
 90
       50
 90
        3
 90
      169
 90
        6
 90
       68
 90
        4
 90
        6
 90
      170
 90
       67
 90
       68
 90
        3
 90
      170
 90
        7
 90
       67
 90
        4
 90
        5
 90
      169
 90
       68
 90
       66
 90
        4
 90
      174
 90
       11
 90
       44
 90
       38
 90
        3
 90
      174
 90
       38
 90
       39
 90
        3
 90
       10
 90
       40
 90
       41
 90
        3
 90
       10
 90
       41
 90
       42
 90
        4
 90
       10
 90
      174
 90
       39
 90
       40
 90
        4
 90
       10
 90
       42
 90
       43
 90
       30
 90
        3
 90
        8
 90
      172
 90
       13
 90
        4
 90
      172
 90
        9
 90
       12
 90
       13
 90
        4
 90
        9
 90
      173
 90
       34
 90
       35
 90
        3
 90
        9
 90
       35
 90
       12
 90
        4
 90
      173
 90
       10
 90
       30
 90
       31
 90
        3
 90
      173
 90
       31
 90
       34
 90
        4
 90
      171
 90
        8
 90
       13
 90
       14
 90
        3
 90
      171
 90
       14
 90
       69
 90
        4
 90
        7
 90
      171
 90
       69
 90
       70
 90
        3
 90
        7
 90
       70
 90
       71
 90
        4
 90
        7
 90
       71
 90
       52
 90
       53
 90
        3
 90
        7
 90
       53
 90
       67
 90
        3
 90
      168
 90
        5
 90
       66
 90
        3
 90
      168
 90
       66
 90
       56
 90
        4
 90
      168
 90
       56
 90
       57
 90
       93
 90
        3
 90
      168
 90
       93
 90
       94
 90
        4
 90
        4
 90
      168
 90
       94
 90
       95
 90
        3
 90
        4
 90
       95
 90
       27
 90
        3
 90
        3
 90
      167
 90
       28
 90
        4
 90
      167
 90
        4
 90
       27
 90
       28
 90
        4
 90
        1
 90
      165
 90
       47
 90
       48
 90
        3
 90
        1
 90
       48
 90
       49
 90
        3
 90
      165
 90
       45
 90
       46
 90
        3
 90
      165
 90
       46
 90
       47
 90
        4
 90
      165
 90
       33
 90
       51
 90
       45
 90
        4
 90
        2
 90
      166
 90
       36
 90
       37
 90
        3
 90
        2
 90
       37
 90
       32
 90
        4
 90
      165
 90
        2
 90
       32
 90
       33
 90
        4
 90
      166
 90
        3
 90
       28
 90
       29
 90
        3
 90
      166
 90
       29
 90
       36
 90
        4
 90
      175
 90
      178
 90
      177
 90
      176
 90
        3
 90
      179
 90
      181
 90
      180
 90
        4
 90
      180
 90
      181
 90
      183
 90
      182
 90
        3
 90
      182
 90
      183
 90
      184
 90
        4
 90
      185
 90
      186
 90
      181
 90
      179
 90
        4
 90
      187
 90
      190
 90
      189
 90
      188
 90
        3
 90
      187
 90
      191
 90
      190
 90
        3
 90
      192
 90
      194
 90
      193
 90
        3
 90
      192
 90
      195
 90
      194
 90
        4
 90
      192
 90
      193
 90
      191
 90
      187
 90
        4
 90
      192
 90
      197
 90
      196
 90
      195
 90
        3
 90
      198
 90
      200
 90
      199
 90
        4
 90
      199
 90
      200
 90
      202
 90
      201
 90
        4
 90
      201
 90
      205
 90
      204
 90
      203
 90
        3
 90
      201
 90
      202
 90
      205
 90
        4
 90
      203
 90
      206
 90
      197
 90
      192
 90
        3
 90
      203
 90
      204
 90
      206
 90
        4
 90
      207
 90
      208
 90
      200
 90
      198
 90
        3
 90
      207
 90
      209
 90
      208
 90
        4
 90
      184
 90
      210
 90
      209
 90
      207
 90
        3
 90
      184
 90
      211
 90
      210
 90
        4
 90
      184
 90
      213
 90
      212
 90
      211
 90
        3
 90
      184
 90
      183
 90
      213
 90
        3
 90
      214
 90
      186
 90
      185
 90
        3
 90
      214
 90
      215
 90
      186
 90
        4
 90
      214
 90
      217
 90
      216
 90
      215
 90
        3
 90
      214
 90
      218
 90
      217
 90
        4
 90
      219
 90
      220
 90
      218
 90
      214
 90
        3
 90
      219
 90
      221
 90
      220
 90
        3
 90
      222
 90
      224
 90
      223
 90
        4
 90
      223
 90
      224
 90
      221
 90
      219
 90
        4
 90
      176
 90
      227
 90
      226
 90
      225
 90
        3
 90
      176
 90
      177
 90
      227
 90
        3
 90
      225
 90
      229
 90
      228
 90
        3
 90
      225
 90
      226
 90
      229
 90
        4
 90
      225
 90
      228
 90
      231
 90
      230
 90
        4
 90
      232
 90
      235
 90
      234
 90
      233
 90
        3
 90
      232
 90
      236
 90
      235
 90
        4
 90
      225
 90
      230
 90
      236
 90
      232
 90
        4
 90
      233
 90
      237
 90
      224
 90
      222
 90
        3
 90
      233
 90
      234
 90
      237
 94
      504
 90
       14
 90
       15
 90
       13
 90
       14
 90
       13
 90
       15
 90
       69
 90
       74
 90
       14
 90
       69
 90
       15
 90
       74
 90
       15
 90
       16
 90
       16
 90
      102
 90
       74
 90
      102
 90
       16
 90
       17
 90
       17
 90
      103
 90
      102
 90
      103
 90
       17
 90
       18
 90
       18
 90
       78
 90
       78
 90
      103
 90
       77
 90
       78
 90
       18
 90
       19
 90
       19
 90
       77
 90
       77
 90
       83
 90
       19
 90
       20
 90
       20
 90
       83
 90
       20
 90
       22
 90
       20
 90
       21
 90
       21
 90
       22
 90
       22
 90
       86
 90
       83
 90
       86
 90
       22
 90
       23
 90
       23
 90
       89
 90
       86
 90
       89
 90
       89
 90
       96
 90
       23
 90
       24
 90
       24
 90
       96
 90
       96
 90
       97
 90
       24
 90
       25
 90
       25
 90
       97
 90
       25
 90
       26
 90
       26
 90
       90
 90
       90
 90
       97
 90
       90
 90
       95
 90
       26
 90
       27
 90
       27
 90
       95
 90
       54
 90
       62
 90
       61
 90
       62
 90
       54
 90
       61
 90
       71
 90
       72
 90
       62
 90
       72
 90
       52
 90
       62
 90
       52
 90
       71
 90
       63
 90
       67
 90
       53
 90
       67
 90
       53
 90
       54
 90
       54
 90
       63
 90
       55
 90
       59
 90
       55
 90
      108
 90
       60
 90
      108
 90
       59
 90
       60
 90
       54
 90
      108
 90
       64
 90
      108
 90
       63
 90
       64
 90
       57
 90
       58
 90
       56
 90
       57
 90
       55
 90
       56
 90
       55
 90
       58
 90
       65
 90
       66
 90
       55
 90
       65
 90
       56
 90
       66
 90
       58
 90
       59
 90
       92
 90
       93
 90
       57
 90
       93
 90
       58
 90
       92
 90
       58
 90
       87
 90
       59
 90
       84
 90
       84
 90
       87
 90
       58
 90
      100
 90
       87
 90
      100
 90
       92
 90
      101
 90
       58
 90
      101
 90
      100
 90
      101
 90
       62
 90
      106
 90
       72
 90
      106
 90
       80
 90
      107
 90
       62
 90
       80
 90
       62
 90
      107
 90
      106
 90
      107
 90
       64
 90
       68
 90
       67
 90
       68
 90
       64
 90
       65
 90
       66
 90
       68
 90
       70
 90
       73
 90
       69
 90
       70
 90
       73
 90
       74
 90
       72
 90
       73
 90
       70
 90
       71
 90
      104
 90
      106
 90
       73
 90
      104
 90
      102
 90
      104
 90
       75
 90
       80
 90
       61
 90
       75
 90
       60
 90
       61
 90
       75
 90
       81
 90
       60
 90
       81
 90
       75
 90
       76
 90
       76
 90
       82
 90
       81
 90
       82
 90
       76
 90
       77
 90
       76
 90
       79
 90
       78
 90
       79
 90
       82
 90
       83
 90
      103
 90
      105
 90
       79
 90
      105
 90
      105
 90
      107
 90
       79
 90
       80
 90
       81
 90
       84
 90
       84
 90
       85
 90
       82
 90
       85
 90
       85
 90
       86
 90
       87
 90
       88
 90
       85
 90
       88
 90
       88
 90
       89
 90
       98
 90
      100
 90
       88
 90
       98
 90
       96
 90
       98
 90
       91
 90
       94
 90
       90
 90
       91
 90
       94
 90
       95
 90
       97
 90
       99
 90
       91
 90
       99
 90
       91
 90
       92
 90
       93
 90
       94
 90
       99
 90
      101
 90
       98
 90
       99
 90
      104
 90
      105
 90
       52
 90
       53
 90
       26
 90
       28
 90
       27
 90
       28
 90
      109
 90
      200
 90
      200
 90
      208
 90
      109
 90
      208
 90
      109
 90
      110
 90
      208
 90
      209
 90
      110
 90
      209
 90
      110
 90
      112
 90
      111
 90
      112
 90
      109
 90
      111
 90
      112
 90
      114
 90
      113
 90
      114
 90
      111
 90
      113
 90
      114
 90
      116
 90
      115
 90
      116
 90
      113
 90
      115
 90
      117
 90
      118
 90
      115
 90
      118
 90
      116
 90
      117
 90
      119
 90
      120
 90
      118
 90
      120
 90
      117
 90
      119
 90
      121
 90
      122
 90
      120
 90
      122
 90
      120
 90
      121
 90
      119
 90
      123
 90
      121
 90
      123
 90
      123
 90
      125
 90
      124
 90
      125
 90
      121
 90
      124
 90
      126
 90
      127
 90
      124
 90
      127
 90
      125
 90
      126
 90
      128
 90
      129
 90
      127
 90
      129
 90
      126
 90
      128
 90
      128
 90
      131
 90
      130
 90
      131
 90
      129
 90
      130
 90
      220
 90
      221
 90
      130
 90
      221
 90
      131
 90
      220
 90
      132
 90
      134
 90
      133
 90
      134
 90
      132
 90
      133
 90
      211
 90
      212
 90
      133
 90
      212
 90
      133
 90
      135
 90
      135
 90
      211
 90
      132
 90
      136
 90
      132
 90
      213
 90
      183
 90
      213
 90
      136
 90
      183
 90
      137
 90
      140
 90
      139
 90
      140
 90
      138
 90
      139
 90
      137
 90
      138
 90
      136
 90
      141
 90
      139
 90
      141
 90
      132
 90
      139
 90
      138
 90
      142
 90
      138
 90
      215
 90
      215
 90
      216
 90
      142
 90
      216
 90
      186
 90
      215
 90
      138
 90
      143
 90
      143
 90
      186
 90
      137
 90
      142
 90
      142
 90
      144
 90
      216
 90
      217
 90
      144
 90
      217
 90
      145
 90
      146
 90
      137
 90
      146
 90
      142
 90
      145
 90
      145
 90
      147
 90
      142
 90
      147
 90
      142
 90
      148
 90
      144
 90
      148
 90
      147
 90
      148
 90
      135
 90
      149
 90
      133
 90
      149
 90
      133
 90
      150
 90
      133
 90
      151
 90
      150
 90
      151
 90
      149
 90
      150
 90
      181
 90
      183
 90
      141
 90
      181
 90
      181
 90
      186
 90
      141
 90
      143
 90
      110
 90
      152
 90
      209
 90
      210
 90
      152
 90
      210
 90
      210
 90
      211
 90
      135
 90
      152
 90
      152
 90
      153
 90
      149
 90
      153
 90
      112
 90
      153
 90
      134
 90
      154
 90
      151
 90
      154
 90
      140
 90
      155
 90
      154
 90
      155
 90
      134
 90
      140
 90
      155
 90
      157
 90
      156
 90
      157
 90
      154
 90
      156
 90
      116
 90
      158
 90
      156
 90
      158
 90
      117
 90
      156
 90
      119
 90
      157
 90
      158
 90
      159
 90
      114
 90
      159
 90
      151
 90
      158
 90
      150
 90
      159
 90
      146
 90
      155
 90
      157
 90
      160
 90
      146
 90
      160
 90
      123
 90
      160
 90
      160
 90
      161
 90
      145
 90
      161
 90
      125
 90
      161
 90
      161
 90
      162
 90
      147
 90
      162
 90
      126
 90
      162
 90
      218
 90
      220
 90
      131
 90
      163
 90
      163
 90
      218
 90
      163
 90
      164
 90
      128
 90
      164
 90
      217
 90
      218
 90
      144
 90
      163
 90
      148
 90
      164
 90
      162
 90
      164
 90
      153
 90
      159
 90
      212
 90
      213
 90
      221
 90
      224
 90
      130
 90
      224
 90
       15
 90
      109
 90
       13
 90
      200
 90
       28
 90
      224
 90
       26
 90
      130
 90
       25
 90
      129
 90
       24
 90
      127
 90
       23
 90
      124
 90
       22
 90
      121
 90
       21
 90
      122
 90
       20
 90
      120
 90
       19
 90
      118
 90
       18
 90
      115
 90
       17
 90
      113
 90
       16
 90
      111
 90
      200
 90
      202
 90
       12
 90
       13
 90
       12
 90
      202
 90
      202
 90
      205
 90
       12
 90
       35
 90
       35
 90
      205
 90
      204
 90
      205
 90
       34
 90
       35
 90
       34
 90
      204
 90
      204
 90
      206
 90
       31
 90
       34
 90
       31
 90
      206
 90
      197
 90
      206
 90
       30
 90
       31
 90
       30
 90
      197
 90
      196
 90
      197
 90
       30
 90
       43
 90
       43
 90
      196
 90
       42
 90
       43
 90
       42
 90
      195
 90
      195
 90
      196
 90
      194
 90
      195
 90
       41
 90
       42
 90
       41
 90
      194
 90
      193
 90
      194
 90
       40
 90
       41
 90
       40
 90
      193
 90
      191
 90
      193
 90
       39
 90
       40
 90
       39
 90
      191
 90
      190
 90
      191
 90
       38
 90
       39
 90
       38
 90
      190
 90
       38
 90
       44
 90
       44
 90
      189
 90
      189
 90
      190
 90
      188
 90
      189
 90
       11
 90
       44
 90
       11
 90
      188
 90
      187
 90
      188
 90
       11
 90
      174
 90
      174
 90
      187
 90
      192
 90
      203
 90
       10
 90
      192
 90
       10
 90
      173
 90
      173
 90
      203
 90
      199
 90
      201
 90
        9
 90
      201
 90
        9
 90
      172
 90
      172
 90
      199
 90
      198
 90
      207
 90
        8
 90
      198
 90
        8
 90
      171
 90
      171
 90
      207
 90
      182
 90
      184
 90
        7
 90
      184
 90
        7
 90
      170
 90
      170
 90
      182
 90
      179
 90
      180
 90
        6
 90
      180
 90
        6
 90
      169
 90
      169
 90
      179
 90
      185
 90
      214
 90
        5
 90
      185
 90
        5
 90
      168
 90
      168
 90
      214
 90
      219
 90
      223
 90
        4
 90
      219
 90
        4
 90
      167
 90
      167
 90
      223
 90
      222
 90
      233
 90
        3
 90
      222
 90
        3
 90
      166
 90
      166
 90
      233
 90
      225
 90
      232
 90
        2
 90
      232
 90
        2
 90
      165
 90
      165
 90
      225
 90
      175
 90
      176
 90
        1
 90
      176
 90
        0
 90
        1
 90
        0
 90
      175
 90
      175
 90
      178
 90
        0
 90
       50
 90
       50
 90
      178
 90
       49
 90
       50
 90
       49
 90
      177
 90
      177
 90
      178
 90
      177
 90
      227
 90
       48
 90
       49
 90
       48
 90
      227
 90
      226
 90
      227
 90
       47
 90
       48
 90
       47
 90
      226
 90
      226
 90
      229
 90
       46
 90
       47
 90
       46
 90
      229
 90
      228
 90
      229
 90
       45
 90
       46
 90
       45
 90
      228
 90
       45
 90
       51
 90
       51
 90
      231
 90
      228
 90
      231
 90
      230
 90
      231
 90
       33
 90
       51
 90
       33
 90
      230
 90
      230
 90
      236
 90
       32
 90
       33
 90
       32
 90
      236
 90
      235
 90
      236
 90
       32
 90
       37
 90
       37
 90
      235
 90
      234
 90
      235
 90
       36
 90
       37
 90
       36
 90
      234
 90
      234
 90
      237
 90
       29
 90
       36
 90
       29
 90
      237
 90
      224
 90
      237
 90
       28
 90
       29
 90
       10
 90
      174
 90
      187
 90
      192
 90
        9
 90
      173
 90
      201
 90
      203
 90
        8
 90
      172
 90
      198
 90
      199
 90
        7
 90
      171
 90
      184
 90
      207
 90
        6
 90
      170
 90
      180
 90
      182
 90
        5
 90
      169
 90
      179
 90
      185
 90
        4
 90
      168
 90
      214
 90
      219
 90
        3
 90
      167
 90
      222
 90
      223
 90
        2
 90
      166
 90
      232
 90
      233
 90
        1
 90
      165
 90
      176
 90
      225
 90
        1
 90
       49
 90
        6
 90
       68
 90
       68
 90
      169
 90
       67
 90
      170
 90
        7
 90
       67
 90
        5
 90
       66
 90
       38
 90
      174
 90
       39
 90
      174
 90
       10
 90
       40
 90
       10
 90
       41
 90
       10
 90
       42
 90
       10
 90
       30
 90
       13
 90
      172
 90
        8
 90
       13
 90
        9
 90
       12
 90
       34
 90
      173
 90
        9
 90
       35
 90
       31
 90
      173
 90
       14
 90
      171
 90
       69
 90
      171
 90
        7
 90
       70
 90
        7
 90
       71
 90
        7
 90
       53
 90
       66
 90
      168
 90
       56
 90
      168
 90
       93
 90
      168
 90
       94
 90
      168
 90
        4
 90
       95
 90
        4
 90
       27
 90
       28
 90
      167
 90
        3
 90
       28
 90
       47
 90
      165
 90
        1
 90
       48
 90
       45
 90
      165
 90
       46
 90
      165
 90
       33
 90
      165
 90
       36
 90
      166
 90
        2
 90
       37
 90
        2
 90
       32
 90
       29
 90
      166
 90
      176
 90
      177
 90
      179
 90
      181
 90
      180
 90
      181
 90
      182
 90
      183
 90
      183
 90
      184
 90
      185
 90
      186
 90
      187
 90
      190
 90
      187
 90
      191
 90
      192
 90
      194
 90
      192
 90
      193
 90
      192
 90
      195
 90
      192
 90
      197
 90
      198
 90
      200
 90
      199
 90
      200
 90
      201
 90
      202
 90
      201
 90
      205
 90
      203
 90
      204
 90
      203
 90
      206
 90
      207
 90
      208
 90
      207
 90
      209
 90
      184
 90
      210
 90
      184
 90
      211
 90
      184
 90
      213
 90
      186
 90
      214
 90
      214
 90
      215
 90
      214
 90
      217
 90
      214
 90
      218
 90
      219
 90
      220
 90
      219
 90
      221
 90
      222
 90
      224
 90
      223
 90
      224
 90
      176
 90
      227
 90
      225
 90
      226
 90
      225
 90
      229
 90
      225
 90
      228
 90
      225
 90
      230
 90
      232
 90
      235
 90
      233
 90
      234
 90
      232
 90
      236
 90
      233
 90
      237
 95
      504
140
0.0
140
0.0
140
0.0
140
0.0
140
0.0
140
0.0
140
0.0
140
0.0
140
0.0
140
0.0
140
0.0
140
0.0
140
0.0
140
0.0
140
0.0
140
0.0
140
0.0
140
0.0
140
0.0
140
0.0
140
0.0
140
0.0
140
0.0
140
0.0
140
0.0
140
0.0
140
0.0
140
0.0
140
0.0
140
0.0
140
0.0
140
0.0
140
0.0
140
0.0
140
0.0
140
0.0
140
0.0
140
0.0
140
0.0
140
0.0
140
0.0
140
0.0
140
0.0
140
0.0
140
0.0
140
0.0
140
0.0
140
0.0
140
0.0
140
0.0
140
0.0
140
0.0
140
0.0
140
0.0
140
0.0
140
0.0
140
0.0
140
0.0
140
0.0
140
0.0
140
0.0
140
0.0
140
0.0
140
0.0
140
0.0
140
0.0
140
0.0
140
0.0
140
0.0
140
0.0
140
0.0
140
0.0
140
0.0
140
0.0
140
0.0
140
0.0
140
0.0
140
0.0
140
0.0
140
0.0
140
0.0
140
0.0
140
0.0
140
0.0
140
0.0
140
0.0
140
0.0
140
0.0
140
0.0
140
0.0
140
0.0
140
0.0
140
0.0
140
0.0
140
0.0
140
0.0
140
0.0
140
0.0
140
0.0
140
0.0
140
0.0
140
0.0
140
0.0
140
0.0
140
0.0
140
0.0
140
0.0
140
0.0
140
0.0
140
0.0
140
0.0
140
0.0
140
0.0
140
0.0
140
0.0
140
0.0
140
0.0
140
0.0
140
0.0
140
0.0
140
0.0
140
0.0
140
0.0
140
0.0
140
0.0
140
0.0
140
0.0
140
0.0
140
0.0
140
0.0
140
0.0
140
0.0
140
0.0
140
0.0
140
0.0
140
0.0
140
0.0
140
0.0
140
0.0
140
0.0
140
0.0
140
0.0
140
0.0
140
0.0
140
0.0
140
0.0
140
0.0
140
0.0
140
0.0
140
0.0
140
0.0
140
0.0
140
0.0
140
0.0
140
0.0
140
0.0
140
0.0
140
0.0
140
0.0
140
0.0
140
0.0
140
0.0
140
0.0
140
0.0
140
0.0
140
0.0
140
0.0
140
0.0
140
0.0
140
0.0
140
0.0
140
0.0
140
0.0
140
0.0
140
0.0
140
0.0
140
0.0
140
0.0
140
0.0
140
0.0
140
0.0
140
0.0
140
0.0
140
0.0
140
0.0
140
0.0
140
0.0
140
0.0
140
0.0
140
0.0
140
0.0
140
0.0
140
0.0
140
0.0
140
0.0
140
0.0
140
0.0
140
0.0
140
0.0
140
0.0
140
0.0
140
0.0
140
0.0
140
0.0
140
0.0
140
0.0
140
0.0
140
0.0
140
0.0
140
0.0
140
0.0
140
0.0
140
0.0
140
0.0
140
0.0
140
0.0
140
0.0
140
0.0
140
0.0
140
0.0
140
0.0
140
0.0
140
0.0
140
0.0
140
0.0
140
0.0
140
0.0
140
0.0
140
0.0
140
0.0
140
0.0
140
0.0
140
0.0
140
0.0
140
0.0
140
0.0
140
0.0
140
0.0
140
0.0
140
0.0
140
0.0
140
0.0
140
0.0
140
0.0
140
0.0
140
0.0
140
0.0
140
0.0
140
0.0
140
0.0
140
0.0
140
0.0
140
0.0
140
0.0
140
0.0
140
0.0
140
0.0
140
0.0
140
0.0
140
0.0
140
0.0
140
0.0
140
0.0
140
0.0
140
0.0
140
0.0
140
0.0
140
0.0
140
0.0
140
0.0
140
0.0
140
0.0
140
0.0
140
0.0
140
0.0
140
0.0
140
0.0
140
0.0
140
0.0
140
0.0
140
0.0
140
0.0
140
0.0
140
0.0
140
0.0
140
0.0
140
0.0
140
0.0
140
0.0
140
0.0
140
0.0
140
0.0
140
0.0
140
0.0
140
0.0
140
0.0
140
0.0
140
0.0
140
0.0
140
0.0
140
0.0
140
0.0
140
0.0
140
0.0
140
0.0
140
0.0
140
0.0
140
0.0
140
0.0
140
0.0
140
0.0
140
0.0
140
0.0
140
0.0
140
0.0
140
0.0
140
0.0
140
0.0
140
0.0
140
0.0
140
0.0
140
0.0
140
0.0
140
0.0
140
0.0
140
0.0
140
0.0
140
0.0
140
0.0
140
0.0
140
0.0
140
0.0
140
0.0
140
0.0
140
0.0
140
0.0
140
0.0
140
0.0
140
0.0
140
0.0
140
0.0
140
0.0
140
0.0
140
0.0
140
0.0
140
0.0
140
0.0
140
0.0
140
0.0
140
0.0
140
0.0
140
0.0
140
0.0
140
0.0
140
0.0
140
0.0
140
0.0
140
0.0
140
0.0
140
0.0
140
0.0
140
0.0
140
0.0
140
0.0
140
0.0
140
0.0
140
0.0
140
0.0
140
0.0
140
0.0
140
0.0
140
0.0
140
0.0
140
0.0
140
0.0
140
0.0
140
0.0
140
0.0
140
0.0
140
0.0
140
0.0
140
0.0
140
0.0
140
0.0
140
0.0
140
0.0
140
0.0
140
0.0
140
0.0
140
0.0
140
0.0
140
0.0
140
0.0
140
0.0
140
0.0
140
0.0
140
0.0
140
0.0
140
0.0
140
0.0
140
0.0
140
0.0
140
0.0
140
0.0
140
0.0
140
0.0
140
0.0
140
0.0
140
0.0
140
0.0
140
0.0
140
0.0
140
0.0
140
0.0
140
0.0
140
0.0
140
0.0
140
0.0
140
0.0
140
0.0
140
0.0
140
0.0
140
0.0
140
0.0
140
0.0
140
0.0
140
0.0
140
0.0
140
0.0
140
0.0
140
0.0
140
0.0
140
0.0
140
0.0
140
0.0
140
0.0
140
0.0
140
0.0
140
0.0
140
0.0
140
0.0
140
0.0
140
0.0
140
0.0
140
0.0
140
0.0
140
0.0
140
0.0
140
0.0
140
0.0
140
0.0
140
0.0
140
0.0
140
0.0
140
0.0
140
0.0
140
0.0
140
0.0
140
0.0
140
0.0
140
0.0
140
0.0
140
0.0
140
0.0
140
0.0
140
0.0
140
0.0
140
0.0
140
0.0
140
0.0
140
0.0
140
0.0
140
0.0
140
0.0
140
0.0
140
0.0
140
0.0
140
0.0
140
0.0
140
0.0
140
0.0
140
0.0
140
0.0
140
0.0
140
0.0
140
0.0
140
0.0
140
0.0
140
0.0
140
0.0
140
0.0
140
0.0
140
0.0
140
0.0
140
0.0
140
0.0
140
0.0
140
0.0
140
0.0
140
0.0
140
0.0
140
0.0
140
0.0
140
0.0
 90
        0
  0
ENDSEC
  0
SECTION
  2
OBJECTS
  0
DICTIONARY
  5
C
330
0
100
AcDbDictionary
281
     1
  3
ACAD_COLOR
350
DC
  3
ACAD_DETAILVIEWSTYLE
350
F5
  3
ACAD_GROUP
350
D
  3
ACAD_LAYOUT
350
1A
  3
ACAD_MATERIAL
350
AA
  3
ACAD_MLEADERSTYLE
350
F1
  3
ACAD_MLINESTYLE
350
17
  3
ACAD_PLOTSETTINGS
350
19
  3
ACAD_PLOTSTYLENAME
350
E
  3
ACAD_SCALELIST
350
DF
  3
ACAD_SECTIONVIEWSTYLE
350
F3
  3
ACAD_TABLESTYLE
350
DD
  3
ACAD_VISUALSTYLE
350
C3
  3
ACDB_RECOMPOSE_DATA
350
106
  3
AcDbVariableDictionary
350
FA
  0
DICTIONARY
  5
DC
102
{ACAD_REACTORS
330
C
102
}
330
C
100
AcDbDictionary
281
     1
  0
DICTIONARY
  5
F5
102
{ACAD_REACTORS
330
C
102
}
330
C
100
AcDbDictionary
281
     1
  3
Imperial24
350
F6
  0
DICTIONARY
  5
D
102
{ACAD_REACTORS
330
C
102
}
330
C
100
AcDbDictionary
281
     1
  0
DICTIONARY
  5
1A
102
{ACAD_REACTORS
330
C
102
}
330
C
100
AcDbDictionary
281
     1
  3
Layout1
350
1E
  3
Layout2
350
26
  3
Model
350
22
  0
DICTIONARY
  5
AA
102
{ACAD_REACTORS
330
C
102
}
330
C
100
AcDbDictionary
281
     1
  3
ByBlock
350
B3
  3
ByLayer
350
AB
  3
Global
350
BB
  0
DICTIONARY
  5
F1
102
{ACAD_REACTORS
330
C
102
}
330
C
100
AcDbDictionary
281
     1
  3
Standard
350
F2
  0
DICTIONARY
  5
17
102
{ACAD_REACTORS
330
C
102
}
330
C
100
AcDbDictionary
281
     1
  3
Standard
350
18
  0
DICTIONARY
  5
19
102
{ACAD_REACTORS
330
C
102
}
330
C
100
AcDbDictionary
281
     1
  0
ACDBDICTIONARYWDFLT
  5
E
102
{ACAD_REACTORS
330
C
102
}
330
C
100
AcDbDictionary
281
     1
  3
ByLayer
350
2D
  3
Normal
350
F
100
AcDbDictionaryWithDefault
340
F
  0
DICTIONARY
  5
DF
102
{ACAD_REACTORS
330
C
102
}
330
C
100
AcDbDictionary
281
     1
  3
A0
350
E0
  3
A1
350
E1
  3
A2
350
E2
  3
A3
350
E3
  3
A4
350
E4
  3
A5
350
E5
  3
A6
350
E6
  3
A7
350
E7
  3
A8
350
E8
  3
A9
350
E9
  3
B0
350
EA
  3
B1
350
EB
  3
B2
350
EC
  3
B3
350
ED
  3
B4
350
EE
  3
B5
350
EF
  3
B6
350
F0
  0
DICTIONARY
  5
F3
102
{ACAD_REACTORS
330
C
102
}
330
C
100
AcDbDictionary
281
     1
  3
Imperial24
350
F4
  0
DICTIONARY
  5
DD
102
{ACAD_REACTORS
330
C
102
}
330
C
100
AcDbDictionary
281
     1
  3
Standard
350
DE
  0
DICTIONARY
  5
C3
102
{ACAD_REACTORS
330
C
102
}
330
C
100
AcDbDictionary
281
     1
  3
2dWireframe
350
C9
  3
Basic
350
C8
  3
Brighten
350
CF
  3
ColorChange
350
D3
  3
Conceptual
350
CC
  3
Dim
350
CE
  3
EdgeColorOff
350
DB
  3
Facepattern
350
D2
  3
Flat
350
C4
  3
FlatWithEdges
350
C5
  3
Gouraud
350
C6
  3
GouraudWithEdges
350
C7
  3
Hidden
350
CB
  3
JitterOff
350
D9
  3
Linepattern
350
D1
  3
OverhangOff
350
DA
  3
Realistic
350
CD
  3
Shaded
350
D8
  3
Shaded with edges
350
D7
  3
Shades of Gray
350
D4
  3
Sketchy
350
D5
  3
Thicken
350
D0
  3
Wireframe
350
CA
  3
X-Ray
350
D6
  0
XRECORD
  5
106
102
{ACAD_REACTORS
330
C
102
}
330
C
100
AcDbXrecord
280
     1
 90
        1
330
DE
  0
DICTIONARY
  5
FA
102
{ACAD_REACTORS
330
C
102
}
330
C
100
AcDbDictionary
281
     1
  3
CANNOSCALE
350
100
  3
CMLEADERSTYLE
350
FC
  3
CTABLESTYLE
350
FB
  3
CVIEWDETAILSTYLE
350
FD
  3
CVIEWSECTIONSTYLE
350
FE
  3
LAYEREVAL
350
102
  3
LAYERNOTIFY
350
103
  3
LIGHTINGUNITS
350
101
  3
MSLTSCALE
350
FF
  0
ACDBDETAILVIEWSTYLE
  5
F6
102
{ACAD_XDICTIONARY
360
13B
102
}
102
{ACAD_REACTORS
330
F5
102
}
330
F5
100
AcDbModelDocViewStyle
 70
     0
  3
Imperial24
290
     0
100
AcDbDetailViewStyle
 70
     0
 71
     0
 90
        3
 71
     1
340
11
 62
   256
 40
0.24
340
0
 62
   256
 40
0.24
300

 40
0.36
280
     3
 71
     2
340
16
 90
       25
 62
   256
 71
     3
340
11
 62
   256
 40
0.24
 90
        1
 40
0.75
 90
        1
300
%<\AcVar ViewType \f "%tc1">% %<\AcVar ViewDetailId>%\PSCALE %<\AcVar ViewScale \f "%sn">%
 71
     4
340
16
 90
       25
 62
   256
340
16
 90
       25
 62
   256
280
     0
  0
LAYOUT
  5
1E
102
{ACAD_REACTORS
330
1A
102
}
330
1A
100
AcDbPlotSettings
  1

  2
\\KTXNTBDC\CASF2PN1
  4

  6

 40
0.0
 41
0.0
 42
0.0
 43
0.0
 44
0.0
 45
0.0
 46
0.0
 47
0.0
 48
0.0
 49
0.0
140
0.0
141
0.0
142
1.0
143
1.0
 70
   688
 72
     0
 73
     0
 74
     5
  7

 75
    16
147
1.0
 76
     0
 77
     2
 78
   300
148
0.0
149
0.0
100
AcDbLayout
  1
Layout1
 70
     1
 71
     1
 10
0.0
 20
0.0
 11
12.0
 21
9.0
 12
0.0
 22
0.0
 32
0.0
 14
1.000000000000000E+20
 24
1.000000000000000E+20
 34
1.000000000000000E+20
 15
-1.000000000000000E+20
 25
-1.000000000000000E+20
 35
-1.000000000000000E+20
146
0.0
 13
0.0
 23
0.0
 33
0.0
 16
1.0
 26
0.0
 36
0.0
 17
0.0
 27
1.0
 37
0.0
 76
     0
330
1B
  0
LAYOUT
  5
26
102
{ACAD_REACTORS
330
1A
102
}
330
1A
100
AcDbPlotSettings
  1

  2
\\KTXNTBDC\CASF2PN1
  4

  6

 40
0.0
 41
0.0
 42
0.0
 43
0.0
 44
0.0
 45
0.0
 46
0.0
 47
0.0
 48
0.0
 49
0.0
140
0.0
141
0.0
142
1.0
143
1.0
 70
   688
 72
     0
 73
     0
 74
     5
  7

 75
    16
147
1.0
 76
     0
 77
     2
 78
   300
148
0.0
149
0.0
100
AcDbLayout
  1
Layout2
 70
     1
 71
     2
 10
0.0
 20
0.0
 11
12.0
 21
9.0
 12
0.0
 22
0.0
 32
0.0
 14
0.0
 24
0.0
 34
0.0
 15
0.0
 25
0.0
 35
0.0
146
0.0
 13
0.0
 23
0.0
 33
0.0
 16
1.0
 26
0.0
 36
0.0
 17
0.0
 27
1.0
 37
0.0
 76
     0
330
23
  0
LAYOUT
  5
22
102
{ACAD_REACTORS
330
1A
102
}
330
1A
100
AcDbPlotSettings
  1

  2
\\KTXNTBDC\CASF2PN1
  4

  6

 40
0.0
 41
0.0
 42
0.0
 43
0.0
 44
0.0
 45
0.0
 46
0.0
 47
0.0
 48
0.0
 49
0.0
140
0.0
141
0.0
142
1.0
143
1.0
 70
  1712
 72
     0
 73
     0
 74
     0
  7

 75
     0
147
1.0
 76
     0
 77
     2
 78
   300
148
0.0
149
0.0
100
AcDbLayout
  1
Model
 70
     1
 71
     0
 10
0.0
 20
0.0
 11
12.0
 21
9.0
 12
0.0
 22
0.0
 32
0.0
 14
0.0
 24
0.0
 34
0.0
 15
0.0
 25
0.0
 35
0.0
146
0.0
 13
0.0
 23
0.0
 33
0.0
 16
1.0
 26
0.0
 36
0.0
 17
0.0
 27
1.0
 37
0.0
 76
     0
330
1F
  0
MATERIAL
  5
B3
102
{ACAD_XDICTIONARY
360
B4
102
}
102
{ACAD_REACTORS
330
AA
102
}
330
AA
100
AcDbMaterial
  1
ByBlock
 72
     0
 43
0.0208333333333333
 43
0.0
 43
0.0
 43
0.0
 43
0.0
 43
0.0208333333333333
 43
0.0
 43
0.0
 43
0.0
 43
0.0
 43
1.0
 43
0.0
 43
0.0
 43
0.0
 43
0.0
 43
1.0
 77
     0
 47
0.0208333333333333
 47
0.0
 47
0.0
 47
0.0
 47
0.0
 47
0.0208333333333333
 47
0.0
 47
0.0
 47
0.0
 47
0.0
 47
1.0
 47
0.0
 47
0.0
 47
0.0
 47
0.0
 47
1.0
171
     0
 49
0.0208333333333333
 49
0.0
 49
0.0
 49
0.0
 49
0.0
 49
0.0208333333333333
 49
0.0
 49
0.0
 49
0.0
 49
0.0
 49
1.0
 49
0.0
 49
0.0
 49
0.0
 49
0.0
 49
1.0
175
     0
142
0.0208333333333333
142
0.0
142
0.0
142
0.0
142
0.0
142
0.0208333333333333
142
0.0
142
0.0
142
0.0
142
0.0
142
1.0
142
0.0
142
0.0
142
0.0
142
0.0
142
1.0
179
     0
144
0.0208333333333333
144
0.0
144
0.0
144
0.0
144
0.0
144
0.0208333333333333
144
0.0
144
0.0
144
0.0
144
0.0
144
1.0
144
0.0
144
0.0
144
0.0
144
0.0
144
1.0
147
0.0208333333333333
147
0.0
147
0.0
147
0.0
147
0.0
147
0.0208333333333333
147
0.0
147
0.0
147
0.0
147
0.0
147
1.0
147
0.0
147
0.0
147
0.0
147
0.0
147
1.0
  0
MATERIAL
  5
AB
102
{ACAD_XDICTIONARY
360
AC
102
}
102
{ACAD_REACTORS
330
AA
102
}
330
AA
100
AcDbMaterial
  1
ByLayer
 72
     0
 43
0.0208333333333333
 43
0.0
 43
0.0
 43
0.0
 43
0.0
 43
0.0208333333333333
 43
0.0
 43
0.0
 43
0.0
 43
0.0
 43
1.0
 43
0.0
 43
0.0
 43
0.0
 43
0.0
 43
1.0
 77
     0
 47
0.0208333333333333
 47
0.0
 47
0.0
 47
0.0
 47
0.0
 47
0.0208333333333333
 47
0.0
 47
0.0
 47
0.0
 47
0.0
 47
1.0
 47
0.0
 47
0.0
 47
0.0
 47
0.0
 47
1.0
171
     0
 49
0.0208333333333333
 49
0.0
 49
0.0
 49
0.0
 49
0.0
 49
0.0208333333333333
 49
0.0
 49
0.0
 49
0.0
 49
0.0
 49
1.0
 49
0.0
 49
0.0
 49
0.0
 49
0.0
 49
1.0
175
     0
142
0.0208333333333333
142
0.0
142
0.0
142
0.0
142
0.0
142
0.0208333333333333
142
0.0
142
0.0
142
0.0
142
0.0
142
1.0
142
0.0
142
0.0
142
0.0
142
0.0
142
1.0
179
     0
144
0.0208333333333333
144
0.0
144
0.0
144
0.0
144
0.0
144
0.0208333333333333
144
0.0
144
0.0
144
0.0
144
0.0
144
1.0
144
0.0
144
0.0
144
0.0
144
0.0
144
1.0
147
0.0208333333333333
147
0.0
147
0.0
147
0.0
147
0.0
147
0.0208333333333333
147
0.0
147
0.0
147
0.0
147
0.0
147
1.0
147
0.0
147
0.0
147
0.0
147
0.0
147
1.0
  0
MATERIAL
  5
BB
102
{ACAD_XDICTIONARY
360
BC
102
}
102
{ACAD_REACTORS
330
AA
102
}
330
AA
100
AcDbMaterial
  1
Global
 72
     0
 43
0.0208333333333333
 43
0.0
 43
0.0
 43
0.0
 43
0.0
 43
0.0208333333333333
 43
0.0
 43
0.0
 43
0.0
 43
0.0
 43
1.0
 43
0.0
 43
0.0
 43
0.0
 43
0.0
 43
1.0
 77
     0
 47
0.0208333333333333
 47
0.0
 47
0.0
 47
0.0
 47
0.0
 47
0.0208333333333333
 47
0.0
 47
0.0
 47
0.0
 47
0.0
 47
1.0
 47
0.0
 47
0.0
 47
0.0
 47
0.0
 47
1.0
171
     0
 49
0.0208333333333333
 49
0.0
 49
0.0
 49
0.0
 49
0.0
 49
0.0208333333333333
 49
0.0
 49
0.0
 49
0.0
 49
0.0
 49
1.0
 49
0.0
 49
0.0
 49
0.0
 49
0.0
 49
1.0
175
     0
142
0.0208333333333333
142
0.0
142
0.0
142
0.0
142
0.0
142
0.0208333333333333
142
0.0
142
0.0
142
0.0
142
0.0
142
1.0
142
0.0
142
0.0
142
0.0
142
0.0
142
1.0
179
     0
144
0.0208333333333333
144
0.0
144
0.0
144
0.0
144
0.0
144
0.0208333333333333
144
0.0
144
0.0
144
0.0
144
0.0
144
1.0
144
0.0
144
0.0
144
0.0
144
0.0
144
1.0
147
0.0208333333333333
147
0.0
147
0.0
147
0.0
147
0.0
147
0.0208333333333333
147
0.0
147
0.0
147
0.0
147
0.0
147
1.0
147
0.0
147
0.0
147
0.0
147
0.0
147
1.0
  0
MLEADERSTYLE
  5
F2
102
{ACAD_XDICTIONARY
360
137
102
}
102
{ACAD_REACTORS
330
F1
102
}
330
F1
100
AcDbMLeaderStyle
179
     2
170
     2
171
     1
172
     0
 90
        2
 40
0.0
 41
0.0
173
     1
 91
-1056964608
340
14
 92
       -2
290
     1
 42
0.09
291
     1
 43
0.36
  3
Standard
 44
0.18
300

342
11
174
     1
178
     6
175
     1
176
     0
 93
-1056964608
 45
0.18
292
     0
297
     0
 46
0.18
 94
-1056964608
 47
1.0
 49
1.0
140
1.0
293
     1
141
0.0
294
     1
177
     0
142
1.0
295
     0
296
     0
143
0.125
271
     0
272
     9
273
     9
  0
MLINESTYLE
  5
18
102
{ACAD_REACTORS
330
17
102
}
330
17
100
AcDbMlineStyle
  2
STANDARD
 70
     0
  3

 62
   256
 51
90.0
 52
90.0
 71
     2
 49
0.5
 62
   256
  6
BYLAYER
 49
-0.5
 62
   256
  6
BYLAYER
  0
ACDBPLACEHOLDER
  5
2D
102
{ACAD_REACTORS
330
E
102
}
330
E
  0
ACDBPLACEHOLDER
  5
F
102
{ACAD_REACTORS
330
E
102
}
330
E
  0
SCALE
  5
E0
102
{ACAD_REACTORS
330
DF
102
}
330
DF
100
AcDbScale
 70
     0
300
1:1
140
1.0
141
1.0
290
     1
  0
SCALE
  5
E1
102
{ACAD_REACTORS
330
DF
102
}
330
DF
100
AcDbScale
 70
     0
300
1/128" = 1'-0"
140
0.0078125
141
12.0
290
     0
  0
SCALE
  5
E2
102
{ACAD_REACTORS
330
DF
102
}
330
DF
100
AcDbScale
 70
     0
300
1/64" = 1'-0"
140
0.015625
141
12.0
290
     0
  0
SCALE
  5
E3
102
{ACAD_REACTORS
330
DF
102
}
330
DF
100
AcDbScale
 70
     0
300
1/32" = 1'-0"
140
0.03125
141
12.0
290
     0
  0
SCALE
  5
E4
102
{ACAD_REACTORS
330
DF
102
}
330
DF
100
AcDbScale
 70
     0
300
1/16" = 1'-0"
140
0.0625
141
12.0
290
     0
  0
SCALE
  5
E5
102
{ACAD_REACTORS
330
DF
102
}
330
DF
100
AcDbScale
 70
     0
300
3/32" = 1'-0"
140
0.09375
141
12.0
290
     0
  0
SCALE
  5
E6
102
{ACAD_REACTORS
330
DF
102
}
330
DF
100
AcDbScale
 70
     0
300
1/8" = 1'-0"
140
0.125
141
12.0
290
     0
  0
SCALE
  5
E7
102
{ACAD_REACTORS
330
DF
102
}
330
DF
100
AcDbScale
 70
     0
300
3/16" = 1'-0"
140
0.1875
141
12.0
290
     0
  0
SCALE
  5
E8
102
{ACAD_REACTORS
330
DF
102
}
330
DF
100
AcDbScale
 70
     0
300
1/4" = 1'-0"
140
0.25
141
12.0
290
     0
  0
SCALE
  5
E9
102
{ACAD_REACTORS
330
DF
102
}
330
DF
100
AcDbScale
 70
     0
300
3/8" = 1'-0"
140
0.375
141
12.0
290
     0
  0
SCALE
  5
EA
102
{ACAD_REACTORS
330
DF
102
}
330
DF
100
AcDbScale
 70
     0
300
1/2" = 1'-0"
140
0.5
141
12.0
290
     0
  0
SCALE
  5
EB
102
{ACAD_REACTORS
330
DF
102
}
330
DF
100
AcDbScale
 70
     0
300
3/4" = 1'-0"
140
0.75
141
12.0
290
     0
  0
SCALE
  5
EC
102
{ACAD_REACTORS
330
DF
102
}
330
DF
100
AcDbScale
 70
     0
300
1" = 1'-0"
140
1.0
141
12.0
290
     0
  0
SCALE
  5
ED
102
{ACAD_REACTORS
330
DF
102
}
330
DF
100
AcDbScale
 70
     0
300
1-1/2" = 1'-0"
140
1.5
141
12.0
290
     0
  0
SCALE
  5
EE
102
{ACAD_REACTORS
330
DF
102
}
330
DF
100
AcDbScale
 70
     0
300
3" = 1'-0"
140
3.0
141
12.0
290
     0
  0
SCALE
  5
EF
102
{ACAD_REACTORS
330
DF
102
}
330
DF
100
AcDbScale
 70
     0
300
6" = 1'-0"
140
6.0
141
12.0
290
     0
  0
SCALE
  5
F0
102
{ACAD_REACTORS
330
DF
102
}
330
DF
100
AcDbScale
 70
     0
300
1'-0" = 1'-0"
140
12.0
141
12.0
290
     0
  0
ACDBSECTIONVIEWSTYLE
  5
F4
102
{ACAD_XDICTIONARY
360
139
102
}
102
{ACAD_REACTORS
330
F3
102
}
330
F3
100
AcDbModelDocViewStyle
 70
     0
  3
Imperial24
290
     0
100
AcDbSectionViewStyle
 70
     0
 71
     0
 90
       78
 71
     1
340
11
 62
   256
 40
0.24
340
0
340
0
 62
   256
 40
0.24
300
I, O, Q, S, X, Z
 40
0.48
 90
        3
 40
0.18
 90
        1
 71
     2
340
16
 90
       25
 62
   256
340
16
 90
       50
 62
   256
 40
0.24
 40
0.0
 40
0.24
 71
     3
340
11
 62
   256
 40
0.24
 90
        1
 40
0.75
 90
        1
300
%<\AcVar ViewType \f "%tc1">% %<\AcVar ViewSectionStartId>%-%<\AcVar ViewSectionEndId>%\PSCALE %<\AcVar ViewScale \f "%sn">%
 71
     4
 62
   256
 62
   257
300
ANSI31
 40
1.0
 90
        0
290
     0
290
     0
 90
        6
 40
0.0
 40
1.570796326794896
 40
0.2617993877991494
 40
1.308996938995747
 40
-0.2617993877991494
 40
1.832595714594046
  0
TABLESTYLE
  5
DE
102
{ACAD_XDICTIONARY
360
104
102
}
102
{ACAD_REACTORS
330
DD
102
}
330
DD
100
AcDbTableStyle
280
     0
  3
Standard
 70
     0
 71
     0
 40
0.06
 41
0.06
280
     0
281
     0
  7
Standard
140
0.18
170
     2
 62
     0
 63
     7
283
     0
 90
      512
 91
        0
  1

274
    -2
284
     1
 64
     0
275
    -2
285
     1
 65
     0
276
    -2
286
     1
 66
     0
277
    -2
287
     1
 67
     0
278
    -2
288
     1
 68
     0
279
    -2
289
     1
 69
     0
  7
Standard
140
0.25
170
     5
 62
     0
 63
     7
283
     0
 90
      512
 91
        0
  1

274
    -2
284
     1
 64
     0
275
    -2
285
     1
 65
     0
276
    -2
286
     1
 66
     0
277
    -2
287
     1
 67
     0
278
    -2
288
     1
 68
     0
279
    -2
289
     1
 69
     0
  7
Standard
140
0.18
170
     5
 62
     0
 63
     7
283
     0
 90
      512
 91
        0
  1

274
    -2
284
     1
 64
     0
275
    -2
285
     1
 65
     0
276
    -2
286
     1
 66
     0
277
    -2
287
     1
 67
     0
278
    -2
288
     1
 68
     0
279
    -2
289
     1
 69
     0
  0
VISUALSTYLE
  5
C9
102
{ACAD_XDICTIONARY
360
111
102
}
102
{ACAD_REACTORS
330
C3
102
}
330
C3
100
AcDbVisualStyle
  2
2dWireframe
 70
     4
177
     2
291
     0
 71
     0
176
     1
 72
     2
176
     1
 73
     0
176
     1
 90
        0
176
     1
 40
0.6
176
     1
 41
30.0
176
     1
 63
     7
421
 16777215
176
     1
 74
     1
176
     1
 91
        4
176
     1
 64
     7
176
     1
 65
   257
176
     1
 75
     1
176
     1
175
     1
176
     1
 42
1.0
176
     1
 92
        0
176
     1
 66
   257
176
     1
 43
1.0
176
     1
 76
     1
176
     1
 77
     6
176
     1
 78
     2
176
     1
 67
     7
176
     1
 79
     5
176
     1
170
     0
176
     1
171
     0
176
     1
290
     0
176
     1
 93
        1
176
     1
 44
0.0
176
     1
173
     0
176
     1
1001
ACAD
1000
AcDbSavedByObjectVersion
1070
     0
  0
VISUALSTYLE
  5
C8
102
{ACAD_XDICTIONARY
360
10F
102
}
102
{ACAD_REACTORS
330
C3
102
}
330
C3
100
AcDbVisualStyle
  2
Basic
 70
     7
177
     2
291
     1
 71
     1
176
     1
 72
     0
176
     1
 73
     1
176
     1
 90
        0
176
     1
 40
0.6
176
     1
 41
30.0
176
     1
 63
     7
421
 16777215
176
     1
 74
     0
176
     1
 91
        4
176
     1
 64
     7
176
     1
 65
   257
176
     1
 75
     1
176
     1
175
     1
176
     1
 42
1.0
176
     1
 92
        8
176
     1
 66
     7
176
     1
 43
1.0
176
     1
 76
     1
176
     1
 77
     6
176
     1
 78
     2
176
     1
 67
     7
176
     1
 79
     5
176
     1
170
     0
176
     1
171
     0
176
     1
290
     0
176
     1
 93
        1
176
     1
 44
0.0
176
     1
173
     0
176
     1
1001
ACAD
1000
AcDbSavedByObjectVersion
1070
     0
  0
VISUALSTYLE
  5
CF
102
{ACAD_XDICTIONARY
360
11D
102
}
102
{ACAD_REACTORS
330
C3
102
}
330
C3
100
AcDbVisualStyle
  2
Brighten
 70
    12
177
     2
291
     1
 71
     2
176
     1
 72
     2
176
     1
 73
     0
176
     1
 90
        0
176
     1
 40
0.6
176
     1
 41
30.0
176
     1
 63
     7
421
 16777215
176
     1
 74
     1
176
     1
 91
        4
176
     1
 64
     7
176
     1
 65
   257
176
     1
 75
     1
176
     1
175
     1
176
     1
 42
1.0
176
     1
 92
        8
176
     1
 66
     7
176
     1
 43
1.0
176
     1
 76
     1
176
     1
 77
     6
176
     1
 78
     2
176
     1
 67
     7
176
     1
 79
     5
176
     1
170
     0
176
     1
171
     0
176
     1
290
     0
176
     1
 93
        1
176
     1
 44
50.0
176
     1
173
     0
176
     1
1001
ACAD
1000
AcDbSavedByObjectVersion
1070
     0
  0
VISUALSTYLE
  5
D3
102
{ACAD_XDICTIONARY
360
125
102
}
102
{ACAD_REACTORS
330
C3
102
}
330
C3
100
AcDbVisualStyle
  2
ColorChange
 70
    16
177
     2
291
     1
 71
     2
176
     1
 72
     2
176
     1
 73
     3
176
     1
 90
        0
176
     1
 40
0.6
176
     1
 41
30.0
176
     1
 63
     8
421
  8421504
176
     1
 74
     1
176
     1
 91
        4
176
     1
 64
     7
176
     1
 65
   257
176
     1
 75
     1
176
     1
175
     1
176
     1
 42
1.0
176
     1
 92
        8
176
     1
 66
     8
424
  8421504
176
     1
 43
1.0
176
     1
 76
     1
176
     1
 77
     6
176
     1
 78
     2
176
     1
 67
     7
176
     1
 79
     5
176
     1
170
     0
176
     1
171
     0
176
     1
290
     0
176
     1
 93
        1
176
     1
 44
0.0
176
     1
173
     0
176
     1
1001
ACAD
1000
AcDbSavedByObjectVersion
1070
     0
  0
VISUALSTYLE
  5
CC
102
{ACAD_XDICTIONARY
360
117
102
}
102
{ACAD_REACTORS
330
C3
102
}
330
C3
100
AcDbVisualStyle
  2
Conceptual
 70
     9
177
     2
291
     0
 71
     3
176
     1
 72
     2
176
     1
 73
     0
176
     1
 90
        0
176
     1
 40
0.6
176
     1
 41
30.0
176
     1
 63
     7
421
 16777215
176
     1
 74
     2
176
     1
 91
        2
176
     1
 64
     7
176
     1
 65
   257
176
     1
 75
     1
176
     1
175
     1
176
     1
 42
179.0
176
     1
 92
        8
176
     1
 66
     7
176
     1
 43
1.0
176
     1
 76
     1
176
     1
 77
     6
176
     1
 78
     2
176
     1
 67
     7
176
     1
 79
     3
176
     1
170
     0
176
     1
171
     0
176
     1
290
     0
176
     1
 93
        1
176
     1
 44
0.0
176
     1
173
     0
176
     1
1001
ACAD
1000
AcDbSavedByObjectVersion
1070
     0
  0
VISUALSTYLE
  5
CE
102
{ACAD_XDICTIONARY
360
11B
102
}
102
{ACAD_REACTORS
330
C3
102
}
330
C3
100
AcDbVisualStyle
  2
Dim
 70
    11
177
     2
291
     1
 71
     2
176
     1
 72
     2
176
     1
 73
     0
176
     1
 90
        0
176
     1
 40
0.6
176
     1
 41
30.0
176
     1
 63
     7
421
 16777215
176
     1
 74
     1
176
     1
 91
        4
176
     1
 64
     7
176
     1
 65
   257
176
     1
 75
     1
176
     1
175
     1
176
     1
 42
1.0
176
     1
 92
        8
176
     1
 66
     7
176
     1
 43
1.0
176
     1
 76
     1
176
     1
 77
     6
176
     1
 78
     2
176
     1
 67
     7
176
     1
 79
     5
176
     1
170
     0
176
     1
171
     0
176
     1
290
     0
176
     1
 93
        1
176
     1
 44
-50.0
176
     1
173
     0
176
     1
1001
ACAD
1000
AcDbSavedByObjectVersion
1070
     0
  0
VISUALSTYLE
  5
DB
102
{ACAD_XDICTIONARY
360
135
102
}
102
{ACAD_REACTORS
330
C3
102
}
330
C3
100
AcDbVisualStyle
  2
EdgeColorOff
 70
    22
177
     2
291
     1
 71
     2
176
     0
 72
     2
176
     0
 73
     0
176
     0
 90
        0
176
     0
 40
0.6
176
     0
 41
30.0
176
     0
 63
     7
421
 16777215
176
     0
 74
     1
176
     0
 91
        4
176
     0
 64
     7
176
     0
 65
   257
176
     0
 75
     1
176
     0
175
     1
176
     0
 42
1.0
176
     0
 92
        8
176
     2
 66
     7
176
     0
 43
1.0
176
     0
 76
     1
176
     0
 77
     6
176
     0
 78
     2
176
     0
 67
     7
176
     0
 79
     5
176
     0
170
     0
176
     0
171
     0
176
     0
290
     0
176
     0
 93
        1
176
     0
 44
0.0
176
     0
173
     0
176
     0
1001
ACAD
1000
AcDbSavedByObjectVersion
1070
     0
  0
VISUALSTYLE
  5
D2
102
{ACAD_XDICTIONARY
360
123
102
}
102
{ACAD_REACTORS
330
C3
102
}
330
C3
100
AcDbVisualStyle
  2
Facepattern
 70
    15
177
     2
291
     1
 71
     2
176
     1
 72
     2
176
     1
 73
     0
176
     1
 90
        0
176
     1
 40
0.6
176
     1
 41
30.0
176
     1
 63
     7
421
 16777215
176
     1
 74
     1
176
     1
 91
        4
176
     1
 64
     7
176
     1
 65
   257
176
     1
 75
     1
176
     1
175
     1
176
     1
 42
1.0
176
     1
 92
        8
176
     1
 66
     7
176
     1
 43
1.0
176
     1
 76
     1
176
     1
 77
     6
176
     1
 78
     2
176
     1
 67
     7
176
     1
 79
     5
176
     1
170
     0
176
     1
171
     0
176
     1
290
     0
176
     1
 93
        1
176
     1
 44
0.0
176
     1
173
     0
176
     1
1001
ACAD
1000
AcDbSavedByObjectVersion
1070
     0
  0
VISUALSTYLE
  5
C4
102
{ACAD_XDICTIONARY
360
107
102
}
102
{ACAD_REACTORS
330
C3
102
}
330
C3
100
AcDbVisualStyle
  2
Flat
 70
     0
177
     2
291
     1
 71
     2
176
     1
 72
     1
176
     1
 73
     1
176
     1
 90
        2
176
     1
 40
0.6
176
     1
 41
30.0
176
     1
 63
     7
421
 16777215
176
     1
 74
     0
176
     1
 91
        0
176
     1
 64
     7
176
     1
 65
   257
176
     1
 75
     1
176
     1
175
     1
176
     1
 42
1.0
176
     1
 92
        8
176
     1
 66
     7
176
     1
 43
1.0
176
     1
 76
     1
176
     1
 77
     6
176
     1
 78
     2
176
     1
 67
     7
176
     1
 79
     5
176
     1
170
     0
176
     1
171
     0
176
     1
290
     0
176
     1
 93
       13
176
     1
 44
0.0
176
     1
173
     0
176
     1
1001
ACAD
1000
AcDbSavedByObjectVersion
1070
     0
  0
VISUALSTYLE
  5
C5
102
{ACAD_XDICTIONARY
360
109
102
}
102
{ACAD_REACTORS
330
C3
102
}
330
C3
100
AcDbVisualStyle
  2
FlatWithEdges
 70
     1
177
     2
291
     1
 71
     2
176
     1
 72
     1
176
     1
 73
     1
176
     1
 90
        2
176
     1
 40
0.6
176
     1
 41
30.0
176
     1
 63
     7
421
 16777215
176
     1
 74
     1
176
     1
 91
        0
176
     1
 64
     7
176
     1
 65
   257
176
     1
 75
     1
176
     1
175
     1
176
     1
 42
1.0
176
     1
 92
        0
176
     1
 66
   257
176
     1
 43
1.0
176
     1
 76
     1
176
     1
 77
     6
176
     1
 78
     2
176
     1
 67
     7
176
     1
 79
     5
176
     1
170
     0
176
     1
171
     0
176
     1
290
     0
176
     1
 93
       13
176
     1
 44
0.0
176
     1
173
     0
176
     1
1001
ACAD
1000
AcDbSavedByObjectVersion
1070
     0
  0
VISUALSTYLE
  5
C6
102
{ACAD_XDICTIONARY
360
10B
102
}
102
{ACAD_REACTORS
330
C3
102
}
330
C3
100
AcDbVisualStyle
  2
Gouraud
 70
     2
177
     2
291
     1
 71
     2
176
     1
 72
     2
176
     1
 73
     1
176
     1
 90
        2
176
     1
 40
0.6
176
     1
 41
30.0
176
     1
 63
     7
421
 16777215
176
     1
 74
     0
176
     1
 91
        0
176
     1
 64
     7
176
     1
 65
   257
176
     1
 75
     1
176
     1
175
     1
176
     1
 42
1.0
176
     1
 92
        0
176
     1
 66
     7
176
     1
 43
1.0
176
     1
 76
     1
176
     1
 77
     6
176
     1
 78
     2
176
     1
 67
     7
176
     1
 79
     5
176
     1
170
     0
176
     1
171
     0
176
     1
290
     0
176
     1
 93
       13
176
     1
 44
0.0
176
     1
173
     0
176
     1
1001
ACAD
1000
AcDbSavedByObjectVersion
1070
     0
  0
VISUALSTYLE
  5
C7
102
{ACAD_XDICTIONARY
360
10D
102
}
102
{ACAD_REACTORS
330
C3
102
}
330
C3
100
AcDbVisualStyle
  2
GouraudWithEdges
 70
     3
177
     2
291
     1
 71
     2
176
     1
 72
     2
176
     1
 73
     1
176
     1
 90
        2
176
     1
 40
0.6
176
     1
 41
30.0
176
     1
 63
     7
421
 16777215
176
     1
 74
     1
176
     1
 91
        0
176
     1
 64
     7
176
     1
 65
   257
176
     1
 75
     1
176
     1
175
     1
176
     1
 42
1.0
176
     1
 92
        0
176
     1
 66
   257
176
     1
 43
1.0
176
     1
 76
     1
176
     1
 77
     6
176
     1
 78
     2
176
     1
 67
     7
176
     1
 79
     5
176
     1
170
     0
176
     1
171
     0
176
     1
290
     0
176
     1
 93
       13
176
     1
 44
0.0
176
     1
173
     0
176
     1
1001
ACAD
1000
AcDbSavedByObjectVersion
1070
     0
  0
VISUALSTYLE
  5
CB
102
{ACAD_XDICTIONARY
360
115
102
}
102
{ACAD_REACTORS
330
C3
102
}
330
C3
100
AcDbVisualStyle
  2
Hidden
 70
     6
177
     2
291
     0
 71
     1
176
     1
 72
     2
176
     1
 73
     2
176
     1
 90
        0
176
     1
 40
0.6
176
     1
 41
30.0
176
     1
 63
     7
421
 16777215
176
     1
 74
     2
176
     1
 91
        2
176
     1
 64
     7
176
     1
 65
   257
176
     1
 75
     2
176
     1
175
     1
176
     1
 42
40.0
176
     1
 92
        0
176
     1
 66
   257
176
     1
 43
1.0
176
     1
 76
     1
176
     1
 77
     6
176
     1
 78
     2
176
     1
 67
     7
176
     1
 79
     3
176
     1
170
     0
176
     1
171
     0
176
     1
290
     0
176
     1
 93
        1
176
     1
 44
0.0
176
     1
173
     0
176
     1
1001
ACAD
1000
AcDbSavedByObjectVersion
1070
     0
  0
VISUALSTYLE
  5
D9
102
{ACAD_XDICTIONARY
360
131
102
}
102
{ACAD_REACTORS
330
C3
102
}
330
C3
100
AcDbVisualStyle
  2
JitterOff
 70
    20
177
     2
291
     1
 71
     2
176
     0
 72
     2
176
     0
 73
     0
176
     0
 90
        0
176
     0
 40
0.6
176
     0
 41
30.0
176
     0
 63
     7
421
 16777215
176
     0
 74
     1
176
     0
 91
        4
176
     0
 64
     7
176
     0
 65
   257
176
     0
 75
     1
176
     0
175
     1
176
     0
 42
1.0
176
     0
 92
       10
176
     2
 66
     7
176
     0
 43
1.0
176
     0
 76
     1
176
     0
 77
     6
176
     0
 78
     2
176
     0
 67
     7
176
     0
 79
     5
176
     0
170
     0
176
     0
171
     0
176
     0
290
     0
176
     0
 93
        1
176
     0
 44
0.0
176
     0
173
     0
176
     0
1001
ACAD
1000
AcDbSavedByObjectVersion
1070
     0
  0
VISUALSTYLE
  5
D1
102
{ACAD_XDICTIONARY
360
121
102
}
102
{ACAD_REACTORS
330
C3
102
}
330
C3
100
AcDbVisualStyle
  2
Linepattern
 70
    14
177
     2
291
     1
 71
     2
176
     1
 72
     2
176
     1
 73
     0
176
     1
 90
        0
176
     1
 40
0.6
176
     1
 41
30.0
176
     1
 63
     7
421
 16777215
176
     1
 74
     1
176
     1
 91
        4
176
     1
 64
     7
176
     1
 65
   257
176
     1
 75
     7
176
     1
175
     7
176
     1
 42
1.0
176
     1
 92
        8
176
     1
 66
     7
176
     1
 43
1.0
176
     1
 76
     1
176
     1
 77
     6
176
     1
 78
     2
176
     1
 67
     7
176
     1
 79
     5
176
     1
170
     0
176
     1
171
     0
176
     1
290
     0
176
     1
 93
        1
176
     1
 44
0.0
176
     1
173
     0
176
     1
1001
ACAD
1000
AcDbSavedByObjectVersion
1070
     0
  0
VISUALSTYLE
  5
DA
102
{ACAD_XDICTIONARY
360
133
102
}
102
{ACAD_REACTORS
330
C3
102
}
330
C3
100
AcDbVisualStyle
  2
OverhangOff
 70
    21
177
     2
291
     1
 71
     2
176
     0
 72
     2
176
     0
 73
     0
176
     0
 90
        0
176
     0
 40
0.6
176
     0
 41
30.0
176
     0
 63
     7
421
 16777215
176
     0
 74
     1
176
     0
 91
        4
176
     0
 64
     7
176
     0
 65
   257
176
     0
 75
     1
176
     0
175
     1
176
     0
 42
1.0
176
     0
 92
        9
176
     2
 66
     7
176
     0
 43
1.0
176
     0
 76
     1
176
     0
 77
     6
176
     0
 78
     2
176
     0
 67
     7
176
     0
 79
     5
176
     0
170
     0
176
     0
171
     0
176
     0
290
     0
176
     0
 93
        1
176
     0
 44
0.0
176
     0
173
     0
176
     0
1001
ACAD
1000
AcDbSavedByObjectVersion
1070
     0
  0
VISUALSTYLE
  5
CD
102
{ACAD_XDICTIONARY
360
119
102
}
102
{ACAD_REACTORS
330
C3
102
}
330
C3
100
AcDbVisualStyle
  2
Realistic
 70
     8
177
     2
291
     0
 71
     2
176
     1
 72
     3
176
     1
 73
     0
176
     1
 90
        2
176
     1
 40
0.6
176
     1
 41
30.0
176
     1
 63
     7
421
 16777215
176
     1
 74
     0
176
     1
 91
        0
176
     1
 64
     7
176
     1
 65
   257
176
     1
 75
     1
176
     1
175
     1
176
     1
 42
1.0
176
     1
 92
        8
176
     1
 66
   257
176
     1
 43
1.0
176
     1
 76
     1
176
     1
 77
     6
176
     1
 78
     2
176
     1
 67
     7
176
     1
 79
     3
176
     1
170
     0
176
     1
171
     0
176
     1
290
     0
176
     1
 93
       13
176
     1
 44
0.0
176
     1
173
     0
176
     1
1001
ACAD
1000
AcDbSavedByObjectVersion
1070
     0
  0
VISUALSTYLE
  5
D8
102
{ACAD_XDICTIONARY
360
12F
102
}
102
{ACAD_REACTORS
330
C3
102
}
330
C3
100
AcDbVisualStyle
  2
Shaded
 70
    27
177
     2
291
     0
 71
     2
176
     1
 72
     2
176
     1
 73
     1
176
     1
 90
        2
176
     1
 40
0.6
176
     1
 41
30.0
176
     1
 63
     7
421
 16777215
176
     1
 74
     0
176
     1
 91
        4
176
     1
 64
     7
176
     1
 65
   257
176
     1
 75
     1
176
     1
175
     1
176
     1
 42
1.0
176
     1
 92
        8
176
     1
 66
   257
176
     1
 43
1.0
176
     1
 76
     1
176
     1
 77
     6
176
     1
 78
     2
176
     1
 67
     8
425
  7895160
176
     1
 79
     3
176
     1
170
     0
176
     1
171
     0
176
     1
290
     0
176
     1
 93
        5
176
     1
 44
0.0
176
     1
173
     0
176
     1
1001
ACAD
1000
AcDbSavedByObjectVersion
1070
     0
  0
VISUALSTYLE
  5
D7
102
{ACAD_XDICTIONARY
360
12D
102
}
102
{ACAD_REACTORS
330
C3
102
}
330
C3
100
AcDbVisualStyle
  2
Shaded with edges
 70
    26
177
     2
291
     0
 71
     2
176
     1
 72
     2
176
     1
 73
     1
176
     1
 90
        2
176
     1
 40
0.6
176
     1
 41
30.0
176
     1
 63
     7
421
 16777215
176
     1
 74
     1
176
     1
 91
       10
176
     1
 64
     7
176
     1
 65
   257
176
     1
 75
     2
176
     1
175
     1
176
     1
 42
1.0
176
     1
 92
        8
176
     1
 66
   257
176
     1
 43
1.0
176
     1
 76
     1
176
     1
 77
     6
176
     1
 78
     2
176
     1
 67
     7
176
     1
 79
     3
176
     1
170
     0
176
     1
171
     0
176
     1
290
     0
176
     1
 93
        5
176
     1
 44
0.0
176
     1
173
     0
176
     1
1001
ACAD
1000
AcDbSavedByObjectVersion
1070
     0
  0
VISUALSTYLE
  5
D4
102
{ACAD_XDICTIONARY
360
127
102
}
102
{ACAD_REACTORS
330
C3
102
}
330
C3
100
AcDbVisualStyle
  2
Shades of Gray
 70
    23
177
     2
291
     0
 71
     2
176
     1
 72
     2
176
     1
 73
     3
176
     1
 90
        0
176
     1
 40
0.6
176
     1
 41
30.0
176
     1
 63
     7
421
 16777215
176
     1
 74
     2
176
     1
 91
        2
176
     1
 64
     7
176
     1
 65
     7
176
     1
 75
     1
176
     1
175
     1
176
     1
 42
40.0
176
     1
 92
        8
176
     1
 66
     7
176
     1
 43
1.0
176
     1
 76
     1
176
     1
 77
     6
176
     1
 78
     2
176
     1
 67
     7
176
     1
 79
     3
176
     1
170
     0
176
     1
171
     0
176
     1
290
     0
176
     1
 93
        1
176
     1
 44
0.0
176
     1
173
     0
176
     1
1001
ACAD
1000
AcDbSavedByObjectVersion
1070
     0
  0
VISUALSTYLE
  5
D5
102
{ACAD_XDICTIONARY
360
129
102
}
102
{ACAD_REACTORS
330
C3
102
}
330
C3
100
AcDbVisualStyle
  2
Sketchy
 70
    24
177
     2
291
     0
 71
     1
176
     1
 72
     2
176
     1
 73
     2
176
     1
 90
        0
176
     1
 40
0.6
176
     1
 41
30.0
176
     1
 63
     7
421
 16777215
176
     1
 74
     2
176
     1
 91
        2
176
     1
 64
     7
176
     1
 65
     7
176
     1
 75
     1
176
     1
175
     1
176
     1
 42
40.0
176
     1
 92
       11
176
     1
 66
     7
176
     1
 43
1.0
176
     1
 76
     1
176
     1
 77
     6
176
     1
 78
     2
176
     1
 67
     7
176
     1
 79
     6
176
     1
170
     0
176
     1
171
     0
176
     1
290
     0
176
     1
 93
        1
176
     1
 44
0.0
176
     1
173
     0
176
     1
1001
ACAD
1000
AcDbSavedByObjectVersion
1070
     0
  0
VISUALSTYLE
  5
D0
102
{ACAD_XDICTIONARY
360
11F
102
}
102
{ACAD_REACTORS
330
C3
102
}
330
C3
100
AcDbVisualStyle
  2
Thicken
 70
    13
177
     2
291
     1
 71
     2
176
     1
 72
     2
176
     1
 73
     0
176
     1
 90
        0
176
     1
 40
0.6
176
     1
 41
30.0
176
     1
 63
     7
421
 16777215
176
     1
 74
     1
176
     1
 91
        4
176
     1
 64
     7
176
     1
 65
   257
176
     1
 75
     1
176
     1
175
     1
176
     1
 42
1.0
176
     1
 92
       12
176
     1
 66
     7
176
     1
 43
1.0
176
     1
 76
     1
176
     1
 77
     6
176
     1
 78
     2
176
     1
 67
     7
176
     1
 79
     5
176
     1
170
     0
176
     1
171
     0
176
     1
290
     0
176
     1
 93
        1
176
     1
 44
0.0
176
     1
173
     0
176
     1
1001
ACAD
1000
AcDbSavedByObjectVersion
1070
     0
  0
VISUALSTYLE
  5
CA
102
{ACAD_XDICTIONARY
360
113
102
}
102
{ACAD_REACTORS
330
C3
102
}
330
C3
100
AcDbVisualStyle
  2
Wireframe
 70
     5
177
     2
291
     0
 71
     0
176
     1
 72
     2
176
     1
 73
     0
176
     1
 90
        0
176
     1
 40
0.6
176
     1
 41
30.0
176
     1
 63
     7
421
 16777215
176
     1
 74
     1
176
     1
 91
        4
176
     1
 64
     7
176
     1
 65
   257
176
     1
 75
     1
176
     1
175
     1
176
     1
 42
1.0
176
     1
 92
        0
176
     1
 66
   257
176
     1
 43
1.0
176
     1
 76
     1
176
     1
 77
     6
176
     1
 78
     2
176
     1
 67
     7
176
     1
 79
     3
176
     1
170
     0
176
     1
171
     0
176
     1
290
     0
176
     1
 93
        1
176
     1
 44
0.0
176
     1
173
     0
176
     1
1001
ACAD
1000
AcDbSavedByObjectVersion
1070
     0
  0
VISUALSTYLE
  5
D6
102
{ACAD_XDICTIONARY
360
12B
102
}
102
{ACAD_REACTORS
330
C3
102
}
330
C3
100
AcDbVisualStyle
  2
X-Ray
 70
    25
177
     2
291
     0
 71
     2
176
     1
 72
     2
176
     1
 73
     1
176
     1
 90
        1
176
     1
 40
0.5
176
     1
 41
30.0
176
     1
 63
     7
421
 16777215
176
     1
 74
     1
176
     1
 91
        0
176
     1
 64
     7
176
     1
 65
   257
176
     1
 75
     1
176
     1
175
     1
176
     1
 42
1.0
176
     1
 92
        8
176
     1
 66
     7
176
     1
 43
1.0
176
     1
 76
     1
176
     1
 77
     6
176
     1
 78
     2
176
     1
 67
     7
176
     1
 79
     3
176
     1
170
     0
176
     1
171
     0
176
     1
290
     0
176
     1
 93
       13
176
     1
 44
0.0
176
     1
173
     0
176
     1
1001
ACAD
1000
AcDbSavedByObjectVersion
1070
     0
  0
DICTIONARYVAR
  5
100
102
{ACAD_REACTORS
330
FA
102
}
330
FA
100
DictionaryVariables
280
     0
  1
1:1
  0
DICTIONARYVAR
  5
FC
102
{ACAD_REACTORS
330
FA
102
}
330
FA
100
DictionaryVariables
280
     0
  1
STANDARD
  0
DICTIONARYVAR
  5
FB
102
{ACAD_REACTORS
330
FA
102
}
330
FA
100
DictionaryVariables
280
     0
  1
STANDARD
  0
DICTIONARYVAR
  5
FD
102
{ACAD_REACTORS
330
FA
102
}
330
FA
100
DictionaryVariables
280
     0
  1
Imperial24
  0
DICTIONARYVAR
  5
FE
102
{ACAD_REACTORS
330
FA
102
}
330
FA
100
DictionaryVariables
280
     0
  1
Imperial24
  0
DICTIONARYVAR
  5
102
102
{ACAD_REACTORS
330
FA
102
}
330
FA
100
DictionaryVariables
280
     0
  1
1
  0
DICTIONARYVAR
  5
103
102
{ACAD_REACTORS
330
FA
102
}
330
FA
100
DictionaryVariables
280
     0
  1
15
  0
DICTIONARYVAR
  5
101
102
{ACAD_REACTORS
330
FA
102
}
330
FA
100
DictionaryVariables
280
     0
  1
0
  0
DICTIONARYVAR
  5
FF
102
{ACAD_REACTORS
330
FA
102
}
330
FA
100
DictionaryVariables
280
     0
  1
0
  0
DICTIONARY
  5
13B
330
F6
100
AcDbDictionary
280
     1
281
     1
  3
ACAD_XREC_ROUNDTRIP
360
13C
  0
DICTIONARY
  5
B4
330
B3
100
AcDbDictionary
280
     1
281
     1
  3
BUMPTILE
360
B6
  3
DIFFUSETILE
360
B5
  3
OPACITYTILE
360
B9
  3
REFLECTIONTILE
360
B8
  3
REFRACTIONTILE
360
BA
  3
SPECULARTILE
360
B7
  0
DICTIONARY
  5
AC
330
AB
100
AcDbDictionary
280
     1
281
     1
  3
BUMPTILE
360
AE
  3
DIFFUSETILE
360
AD
  3
OPACITYTILE
360
B1
  3
REFLECTIONTILE
360
B0
  3
REFRACTIONTILE
360
B2
  3
SPECULARTILE
360
AF
  0
DICTIONARY
  5
BC
330
BB
100
AcDbDictionary
280
     1
281
     1
  3
BUMPTILE
360
BE
  3
DIFFUSETILE
360
BD
  3
OPACITYTILE
360
C1
  3
REFLECTIONTILE
360
C0
  3
REFRACTIONTILE
360
C2
  3
SPECULARTILE
360
BF
  0
DICTIONARY
  5
137
330
F2
100
AcDbDictionary
280
     1
281
     1
  3
ACAD_XREC_ROUNDTRIP
360
138
  0
DICTIONARY
  5
139
330
F4
100
AcDbDictionary
280
     1
281
     1
  3
ACAD_XREC_ROUNDTRIP
360
13A
  0
DICTIONARY
  5
104
330
DE
100
AcDbDictionary
280
     1
281
     1
  3
ACAD_ROUNDTRIP_2008_TABLESTYLE_CELLSTYLEMAP
360
105
  0
DICTIONARY
  5
111
330
C9
100
AcDbDictionary
280
     1
281
     1
  3
ACAD_XREC_ROUNDTRIP
360
112
  0
DICTIONARY
  5
10F
330
C8
100
AcDbDictionary
280
     1
281
     1
  3
ACAD_XREC_ROUNDTRIP
360
110
  0
DICTIONARY
  5
11D
330
CF
100
AcDbDictionary
280
     1
281
     1
  3
ACAD_XREC_ROUNDTRIP
360
11E
  0
DICTIONARY
  5
125
330
D3
100
AcDbDictionary
280
     1
281
     1
  3
ACAD_XREC_ROUNDTRIP
360
126
  0
DICTIONARY
  5
117
330
CC
100
AcDbDictionary
280
     1
281
     1
  3
ACAD_XREC_ROUNDTRIP
360
118
  0
DICTIONARY
  5
11B
330
CE
100
AcDbDictionary
280
     1
281
     1
  3
ACAD_XREC_ROUNDTRIP
360
11C
  0
DICTIONARY
  5
135
330
DB
100
AcDbDictionary
280
     1
281
     1
  3
ACAD_XREC_ROUNDTRIP
360
136
  0
DICTIONARY
  5
123
330
D2
100
AcDbDictionary
280
     1
281
     1
  3
ACAD_XREC_ROUNDTRIP
360
124
  0
DICTIONARY
  5
107
330
C4
100
AcDbDictionary
280
     1
281
     1
  3
ACAD_XREC_ROUNDTRIP
360
108
  0
DICTIONARY
  5
109
330
C5
100
AcDbDictionary
280
     1
281
     1
  3
ACAD_XREC_ROUNDTRIP
360
10A
  0
DICTIONARY
  5
10B
330
C6
100
AcDbDictionary
280
     1
281
     1
  3
ACAD_XREC_ROUNDTRIP
360
10C
  0
DICTIONARY
  5
10D
330
C7
100
AcDbDictionary
280
     1
281
     1
  3
ACAD_XREC_ROUNDTRIP
360
10E
  0
DICTIONARY
  5
115
330
CB
100
AcDbDictionary
280
     1
281
     1
  3
ACAD_XREC_ROUNDTRIP
360
116
  0
DICTIONARY
  5
131
330
D9
100
AcDbDictionary
280
     1
281
     1
  3
ACAD_XREC_ROUNDTRIP
360
132
  0
DICTIONARY
  5
121
330
D1
100
AcDbDictionary
280
     1
281
     1
  3
ACAD_XREC_ROUNDTRIP
360
122
  0
DICTIONARY
  5
133
330
DA
100
AcDbDictionary
280
     1
281
     1
  3
ACAD_XREC_ROUNDTRIP
360
134
  0
DICTIONARY
  5
119
330
CD
100
AcDbDictionary
280
     1
281
     1
  3
ACAD_XREC_ROUNDTRIP
360
11A
  0
DICTIONARY
  5
12F
330
D8
100
AcDbDictionary
280
     1
281
     1
  3
ACAD_XREC_ROUNDTRIP
360
130
  0
DICTIONARY
  5
12D
330
D7
100
AcDbDictionary
280
     1
281
     1
  3
ACAD_XREC_ROUNDTRIP
360
12E
  0
DICTIONARY
  5
127
330
D4
100
AcDbDictionary
280
     1
281
     1
  3
ACAD_XREC_ROUNDTRIP
360
128
  0
DICTIONARY
  5
129
330
D5
100
AcDbDictionary
280
     1
281
     1
  3
ACAD_XREC_ROUNDTRIP
360
12A
  0
DICTIONARY
  5
11F
330
D0
100
AcDbDictionary
280
     1
281
     1
  3
ACAD_XREC_ROUNDTRIP
360
120
  0
DICTIONARY
  5
113
330
CA
100
AcDbDictionary
280
     1
281
     1
  3
ACAD_XREC_ROUNDTRIP
360
114
  0
DICTIONARY
  5
12B
330
D6
100
AcDbDictionary
280
     1
281
     1
  3
ACAD_XREC_ROUNDTRIP
360
12C
  0
XRECORD
  5
13C
102
{ACAD_REACTORS
330
13B
102
}
330
13B
100
AcDbXrecord
280
     1
102
DISPLAYNAME
  1
Imperial24
102
FLAGS
 90
        0
  0
XRECORD
  5
B6
102
{ACAD_REACTORS
330
B4
102
}
330
B4
100
AcDbXrecord
280
     1
270
     1
271
     1
  0
XRECORD
  5
B5
102
{ACAD_REACTORS
330
B4
102
}
330
B4
100
AcDbXrecord
280
     1
270
     1
271
     1
  0
XRECORD
  5
B9
102
{ACAD_REACTORS
330
B4
102
}
330
B4
100
AcDbXrecord
280
     1
270
     1
271
     1
  0
XRECORD
  5
B8
102
{ACAD_REACTORS
330
B4
102
}
330
B4
100
AcDbXrecord
280
     1
270
     1
271
     1
  0
XRECORD
  5
BA
102
{ACAD_REACTORS
330
B4
102
}
330
B4
100
AcDbXrecord
280
     1
270
     1
271
     1
  0
XRECORD
  5
B7
102
{ACAD_REACTORS
330
B4
102
}
330
B4
100
AcDbXrecord
280
     1
270
     1
271
     1
  0
XRECORD
  5
AE
102
{ACAD_REACTORS
330
AC
102
}
330
AC
100
AcDbXrecord
280
     1
270
     1
271
     1
  0
XRECORD
  5
AD
102
{ACAD_REACTORS
330
AC
102
}
330
AC
100
AcDbXrecord
280
     1
270
     1
271
     1
  0
XRECORD
  5
B1
102
{ACAD_REACTORS
330
AC
102
}
330
AC
100
AcDbXrecord
280
     1
270
     1
271
     1
  0
XRECORD
  5
B0
102
{ACAD_REACTORS
330
AC
102
}
330
AC
100
AcDbXrecord
280
     1
270
     1
271
     1
  0
XRECORD
  5
B2
102
{ACAD_REACTORS
330
AC
102
}
330
AC
100
AcDbXrecord
280
     1
270
     1
271
     1
  0
XRECORD
  5
AF
102
{ACAD_REACTORS
330
AC
102
}
330
AC
100
AcDbXrecord
280
     1
270
     1
271
     1
  0
XRECORD
  5
BE
102
{ACAD_REACTORS
330
BC
102
}
330
BC
100
AcDbXrecord
280
     1
270
     1
271
     1
  0
XRECORD
  5
BD
102
{ACAD_REACTORS
330
BC
102
}
330
BC
100
AcDbXrecord
280
     1
270
     1
271
     1
  0
XRECORD
  5
C1
102
{ACAD_REACTORS
330
BC
102
}
330
BC
100
AcDbXrecord
280
     1
270
     1
271
     1
  0
XRECORD
  5
C0
102
{ACAD_REACTORS
330
BC
102
}
330
BC
100
AcDbXrecord
280
     1
270
     1
271
     1
  0
XRECORD
  5
C2
102
{ACAD_REACTORS
330
BC
102
}
330
BC
100
AcDbXrecord
280
     1
270
     1
271
     1
  0
XRECORD
  5
BF
102
{ACAD_REACTORS
330
BC
102
}
330
BC
100
AcDbXrecord
280
     1
270
     1
271
     1
  0
XRECORD
  5
138
102
{ACAD_REACTORS
330
137
102
}
330
137
100
AcDbXrecord
280
     1
102
ACAD_ROUNDTRIP_2012_MLEADER_STYLE
298
     1
  0
XRECORD
  5
13A
102
{ACAD_REACTORS
330
139
102
}
330
139
100
AcDbXrecord
280
     1
102
DISPLAYNAME
  1
Imperial24
102
FLAGS
 90
        0
  0
CELLSTYLEMAP
  5
105
102
{ACAD_REACTORS
330
104
102
}
330
104
100
AcDbCellStyleMap
 90
        3
300
CELLSTYLE
  1
TABLEFORMAT_BEGIN
 90
        5
170
     1
 91
        0
 92
    32768
 62
   257
 93
        1
300
CONTENTFORMAT
  1
CONTENTFORMAT_BEGIN
 90
        0
 91
        0
 92
      512
 93
        0
300

 40
0.0
140
1.0
 94
        5
 62
     0
340
11
144
0.25
309
CONTENTFORMAT_END
171
     0
 94
        0
309
TABLEFORMAT_END
  1
CELLSTYLE_BEGIN
 90
        1
 91
        1
300
_TITLE
309
CELLSTYLE_END
300
CELLSTYLE
  1
TABLEFORMAT_BEGIN
 90
        5
170
     1
 91
        0
 92
        0
 62
   257
 93
        1
300
CONTENTFORMAT
  1
CONTENTFORMAT_BEGIN
 90
        0
 91
        0
 92
      512
 93
        0
300

 40
0.0
140
1.0
 94
        5
 62
     0
340
11
144
0.18
309
CONTENTFORMAT_END
171
     0
 94
        0
309
TABLEFORMAT_END
  1
CELLSTYLE_BEGIN
 90
        2
 91
        1
300
_HEADER
309
CELLSTYLE_END
300
CELLSTYLE
  1
TABLEFORMAT_BEGIN
 90
        5
170
     1
 91
        0
 92
        0
 62
   257
 93
        1
300
CONTENTFORMAT
  1
CONTENTFORMAT_BEGIN
 90
        0
 91
        0
 92
      512
 93
        0
300

 40
0.0
140
1.0
 94
        2
 62
     0
340
11
144
0.18
309
CONTENTFORMAT_END
171
     0
 94
        0
309
TABLEFORMAT_END
  1
CELLSTYLE_BEGIN
 90
        3
 91
        2
300
_DATA
309
CELLSTYLE_END
  0
XRECORD
  5
112
102
{ACAD_REACTORS
330
111
102
}
330
111
100
AcDbXrecord
280
     1
102
RTVSPost2010Prop28
280
     1
102
RTVSPost2010PropOp28
 70
     1
102
RTVSPost2010Prop29
280
     1
102
RTVSPost2010PropOp29
 70
     1
102
RTVSPost2010Prop30
280
     0
102
RTVSPost2010PropOp30
 70
     1
102
RTVSPost2010Prop31
280
     0
102
RTVSPost2010PropOp31
 70
     1
102
RTVSPost2010Prop32
280
     0
102
RTVSPost2010PropOp32
 70
     1
102
RTVSPost2010Prop33
280
     0
102
RTVSPost2010PropOp33
 70
     1
102
RTVSPost2010Prop34
280
     0
102
RTVSPost2010PropOp34
 70
     1
102
RTVSPost2010Prop35
280
     0
102
RTVSPost2010PropOp35
 70
     1
102
RTVSPost2010Prop36
280
     0
102
RTVSPost2010PropOp36
 70
     1
102
RTVSPost2010Prop37
 90
       50
102
RTVSPost2010PropOp37
 70
     1
102
RTVSPost2010Prop38
140
0.0
102
RTVSPost2010PropOp38
 70
     1
102
RTVSPost2010Prop39
140
1.0
102
RTVSPost2010PropOp39
 70
     1
102
RTVSPost2010Prop40
 90
        0
102
RTVSPost2010PropOp40
 70
     1
102
RTVSPost2010Prop41ColorIndex
 90
       18
102
RTVSPost2010Prop41ColorRGB
 90
        0
102
RTVSPost2010PropOp41
 70
     1
102
RTVSPost2010Prop42
 90
       50
102
RTVSPost2010PropOp42
 70
     1
102
RTVSPost2010Prop43
 90
        3
102
RTVSPost2010PropOp43
 70
     1
102
RTVSPost2010Prop44ColorIndex
 90
        5
102
RTVSPost2010Prop44ColorRGB
 90
      255
102
RTVSPost2010PropOp44
 70
     1
102
RTVSPost2010Prop45
280
     0
102
RTVSPost2010PropOp45
 70
     1
102
RTVSPost2010Prop46
 90
       50
102
RTVSPost2010PropOp46
 70
     1
102
RTVSPost2010Prop47
 90
       50
102
RTVSPost2010PropOp47
 70
     1
102
RTVSPost2010Prop48
 90
       50
102
RTVSPost2010PropOp48
 70
     1
102
RTVSPost2010Prop49
280
     0
102
RTVSPost2010PropOp49
 70
     1
102
RTVSPost2010Prop50
 90
       50
102
RTVSPost2010PropOp50
 70
     1
102
RTVSPost2010Prop51ColorIndex
 90
      256
102
RTVSPost2010Prop51ColorRGB
 90
-16777216
102
RTVSPost2010PropOp51
 70
     0
102
RTVSPost2010Prop52
140
1.0
102
RTVSPost2010PropOp52
 70
     0
102
RTVSPost2010Prop53
 90
        2
102
RTVSPost2010PropOp53
 70
     1
102
RTVSPost2010Prop54
  1
strokes_ogs.tif
102
RTVSPost2010PropOp54
 70
     1
102
RTVSPost2010Prop55
280
     0
102
RTVSPost2010PropOp55
 70
     1
102
RTVSPost2010Prop56
140
1.0
102
RTVSPost2010PropOp56
 70
     1
102
RTVSPost2010Prop57
140
1.0
102
RTVSPost2010PropOp57
 70
     1
  0
XRECORD
  5
110
102
{ACAD_REACTORS
330
10F
102
}
330
10F
100
AcDbXrecord
280
     1
102
RTVSPost2010Prop28
280
     0
102
RTVSPost2010PropOp28
 70
     1
102
RTVSPost2010Prop29
280
     1
102
RTVSPost2010PropOp29
 70
     1
102
RTVSPost2010Prop30
280
     1
102
RTVSPost2010PropOp30
 70
     1
102
RTVSPost2010Prop31
280
     0
102
RTVSPost2010PropOp31
 70
     1
102
RTVSPost2010Prop32
280
     0
102
RTVSPost2010PropOp32
 70
     1
102
RTVSPost2010Prop33
280
     0
102
RTVSPost2010PropOp33
 70
     1
102
RTVSPost2010Prop34
280
     0
102
RTVSPost2010PropOp34
 70
     1
102
RTVSPost2010Prop35
280
     0
102
RTVSPost2010PropOp35
 70
     1
102
RTVSPost2010Prop36
280
     0
102
RTVSPost2010PropOp36
 70
     1
102
RTVSPost2010Prop37
 90
       50
102
RTVSPost2010PropOp37
 70
     1
102
RTVSPost2010Prop38
140
0.0
102
RTVSPost2010PropOp38
 70
     1
102
RTVSPost2010Prop39
140
1.0
102
RTVSPost2010PropOp39
 70
     1
102
RTVSPost2010Prop40
 90
        0
102
RTVSPost2010PropOp40
 70
     1
102
RTVSPost2010Prop41ColorIndex
 90
       18
102
RTVSPost2010Prop41ColorRGB
 90
        0
102
RTVSPost2010PropOp41
 70
     1
102
RTVSPost2010Prop42
 90
       50
102
RTVSPost2010PropOp42
 70
     1
102
RTVSPost2010Prop43
 90
        3
102
RTVSPost2010PropOp43
 70
     1
102
RTVSPost2010Prop44ColorIndex
 90
        5
102
RTVSPost2010Prop44ColorRGB
 90
      255
102
RTVSPost2010PropOp44
 70
     1
102
RTVSPost2010Prop45
280
     0
102
RTVSPost2010PropOp45
 70
     1
102
RTVSPost2010Prop46
 90
       50
102
RTVSPost2010PropOp46
 70
     1
102
RTVSPost2010Prop47
 90
       50
102
RTVSPost2010PropOp47
 70
     1
102
RTVSPost2010Prop48
 90
       50
102
RTVSPost2010PropOp48
 70
     1
102
RTVSPost2010Prop49
280
     0
102
RTVSPost2010PropOp49
 70
     1
102
RTVSPost2010Prop50
 90
       50
102
RTVSPost2010PropOp50
 70
     1
102
RTVSPost2010Prop51ColorIndex
 90
      256
102
RTVSPost2010Prop51ColorRGB
 90
-16777216
102
RTVSPost2010PropOp51
 70
     0
102
RTVSPost2010Prop52
140
1.0
102
RTVSPost2010PropOp52
 70
     0
102
RTVSPost2010Prop53
 90
        2
102
RTVSPost2010PropOp53
 70
     1
102
RTVSPost2010Prop54
  1
strokes_ogs.tif
102
RTVSPost2010PropOp54
 70
     1
102
RTVSPost2010Prop55
280
     0
102
RTVSPost2010PropOp55
 70
     1
102
RTVSPost2010Prop56
140
1.0
102
RTVSPost2010PropOp56
 70
     1
102
RTVSPost2010Prop57
140
1.0
102
RTVSPost2010PropOp57
 70
     1
  0
XRECORD
  5
11E
102
{ACAD_REACTORS
330
11D
102
}
330
11D
100
AcDbXrecord
280
     1
102
RTVSPost2010Prop28
280
     0
102
RTVSPost2010PropOp28
 70
     1
102
RTVSPost2010Prop29
280
     1
102
RTVSPost2010PropOp29
 70
     1
102
RTVSPost2010Prop30
280
     1
102
RTVSPost2010PropOp30
 70
     1
102
RTVSPost2010Prop31
280
     0
102
RTVSPost2010PropOp31
 70
     1
102
RTVSPost2010Prop32
280
     0
102
RTVSPost2010PropOp32
 70
     1
102
RTVSPost2010Prop33
280
     0
102
RTVSPost2010PropOp33
 70
     1
102
RTVSPost2010Prop34
280
     0
102
RTVSPost2010PropOp34
 70
     1
102
RTVSPost2010Prop35
280
     0
102
RTVSPost2010PropOp35
 70
     1
102
RTVSPost2010Prop36
280
     0
102
RTVSPost2010PropOp36
 70
     1
102
RTVSPost2010Prop37
 90
       50
102
RTVSPost2010PropOp37
 70
     1
102
RTVSPost2010Prop38
140
0.0
102
RTVSPost2010PropOp38
 70
     1
102
RTVSPost2010Prop39
140
1.0
102
RTVSPost2010PropOp39
 70
     1
102
RTVSPost2010Prop40
 90
        0
102
RTVSPost2010PropOp40
 70
     1
102
RTVSPost2010Prop41ColorIndex
 90
       18
102
RTVSPost2010Prop41ColorRGB
 90
        0
102
RTVSPost2010PropOp41
 70
     1
102
RTVSPost2010Prop42
 90
       50
102
RTVSPost2010PropOp42
 70
     1
102
RTVSPost2010Prop43
 90
        3
102
RTVSPost2010PropOp43
 70
     1
102
RTVSPost2010Prop44ColorIndex
 90
        5
102
RTVSPost2010Prop44ColorRGB
 90
      255
102
RTVSPost2010PropOp44
 70
     1
102
RTVSPost2010Prop45
280
     0
102
RTVSPost2010PropOp45
 70
     1
102
RTVSPost2010Prop46
 90
       50
102
RTVSPost2010PropOp46
 70
     1
102
RTVSPost2010Prop47
 90
       50
102
RTVSPost2010PropOp47
 70
     1
102
RTVSPost2010Prop48
 90
       50
102
RTVSPost2010PropOp48
 70
     1
102
RTVSPost2010Prop49
280
     0
102
RTVSPost2010PropOp49
 70
     1
102
RTVSPost2010Prop50
 90
       50
102
RTVSPost2010PropOp50
 70
     1
102
RTVSPost2010Prop51ColorIndex
 90
      256
102
RTVSPost2010Prop51ColorRGB
 90
-16777216
102
RTVSPost2010PropOp51
 70
     0
102
RTVSPost2010Prop52
140
1.0
102
RTVSPost2010PropOp52
 70
     0
102
RTVSPost2010Prop53
 90
        2
102
RTVSPost2010PropOp53
 70
     1
102
RTVSPost2010Prop54
  1
strokes_ogs.tif
102
RTVSPost2010PropOp54
 70
     1
102
RTVSPost2010Prop55
280
     0
102
RTVSPost2010PropOp55
 70
     1
102
RTVSPost2010Prop56
140
1.0
102
RTVSPost2010PropOp56
 70
     1
102
RTVSPost2010Prop57
140
1.0
102
RTVSPost2010PropOp57
 70
     1
  0
XRECORD
  5
126
102
{ACAD_REACTORS
330
125
102
}
330
125
100
AcDbXrecord
280
     1
102
RTVSPost2010Prop28
280
     0
102
RTVSPost2010PropOp28
 70
     1
102
RTVSPost2010Prop29
280
     1
102
RTVSPost2010PropOp29
 70
     1
102
RTVSPost2010Prop30
280
     1
102
RTVSPost2010PropOp30
 70
     1
102
RTVSPost2010Prop31
280
     0
102
RTVSPost2010PropOp31
 70
     1
102
RTVSPost2010Prop32
280
     0
102
RTVSPost2010PropOp32
 70
     1
102
RTVSPost2010Prop33
280
     0
102
RTVSPost2010PropOp33
 70
     1
102
RTVSPost2010Prop34
280
     0
102
RTVSPost2010PropOp34
 70
     1
102
RTVSPost2010Prop35
280
     0
102
RTVSPost2010PropOp35
 70
     1
102
RTVSPost2010Prop36
280
     0
102
RTVSPost2010PropOp36
 70
     1
102
RTVSPost2010Prop37
 90
       50
102
RTVSPost2010PropOp37
 70
     1
102
RTVSPost2010Prop38
140
0.0
102
RTVSPost2010PropOp38
 70
     1
102
RTVSPost2010Prop39
140
1.0
102
RTVSPost2010PropOp39
 70
     1
102
RTVSPost2010Prop40
 90
        0
102
RTVSPost2010PropOp40
 70
     1
102
RTVSPost2010Prop41ColorIndex
 90
       18
102
RTVSPost2010Prop41ColorRGB
 90
        0
102
RTVSPost2010PropOp41
 70
     1
102
RTVSPost2010Prop42
 90
       50
102
RTVSPost2010PropOp42
 70
     1
102
RTVSPost2010Prop43
 90
        3
102
RTVSPost2010PropOp43
 70
     1
102
RTVSPost2010Prop44ColorIndex
 90
        5
102
RTVSPost2010Prop44ColorRGB
 90
      255
102
RTVSPost2010PropOp44
 70
     1
102
RTVSPost2010Prop45
280
     0
102
RTVSPost2010PropOp45
 70
     1
102
RTVSPost2010Prop46
 90
       50
102
RTVSPost2010PropOp46
 70
     1
102
RTVSPost2010Prop47
 90
       50
102
RTVSPost2010PropOp47
 70
     1
102
RTVSPost2010Prop48
 90
       50
102
RTVSPost2010PropOp48
 70
     1
102
RTVSPost2010Prop49
280
     0
102
RTVSPost2010PropOp49
 70
     1
102
RTVSPost2010Prop50
 90
       50
102
RTVSPost2010PropOp50
 70
     1
102
RTVSPost2010Prop51ColorIndex
 90
      256
102
RTVSPost2010Prop51ColorRGB
 90
-16777216
102
RTVSPost2010PropOp51
 70
     0
102
RTVSPost2010Prop52
140
1.0
102
RTVSPost2010PropOp52
 70
     0
102
RTVSPost2010Prop53
 90
        2
102
RTVSPost2010PropOp53
 70
     1
102
RTVSPost2010Prop54
  1
strokes_ogs.tif
102
RTVSPost2010PropOp54
 70
     1
102
RTVSPost2010Prop55
280
     0
102
RTVSPost2010PropOp55
 70
     1
102
RTVSPost2010Prop56
140
1.0
102
RTVSPost2010PropOp56
 70
     1
102
RTVSPost2010Prop57
140
1.0
102
RTVSPost2010PropOp57
 70
     1
  0
XRECORD
  5
118
102
{ACAD_REACTORS
330
117
102
}
330
117
100
AcDbXrecord
280
     1
102
RTVSPost2010Prop28
280
     0
102
RTVSPost2010PropOp28
 70
     1
102
RTVSPost2010Prop29
280
     1
102
RTVSPost2010PropOp29
 70
     1
102
RTVSPost2010Prop30
280
     1
102
RTVSPost2010PropOp30
 70
     1
102
RTVSPost2010Prop31
280
     0
102
RTVSPost2010PropOp31
 70
     1
102
RTVSPost2010Prop32
280
     0
102
RTVSPost2010PropOp32
 70
     1
102
RTVSPost2010Prop33
280
     0
102
RTVSPost2010PropOp33
 70
     1
102
RTVSPost2010Prop34
280
     0
102
RTVSPost2010PropOp34
 70
     1
102
RTVSPost2010Prop35
280
     0
102
RTVSPost2010PropOp35
 70
     1
102
RTVSPost2010Prop36
280
     0
102
RTVSPost2010PropOp36
 70
     1
102
RTVSPost2010Prop37
 90
       50
102
RTVSPost2010PropOp37
 70
     1
102
RTVSPost2010Prop38
140
0.0
102
RTVSPost2010PropOp38
 70
     1
102
RTVSPost2010Prop39
140
1.0
102
RTVSPost2010PropOp39
 70
     1
102
RTVSPost2010Prop40
 90
        0
102
RTVSPost2010PropOp40
 70
     1
102
RTVSPost2010Prop41ColorIndex
 90
       18
102
RTVSPost2010Prop41ColorRGB
 90
        0
102
RTVSPost2010PropOp41
 70
     1
102
RTVSPost2010Prop42
 90
       50
102
RTVSPost2010PropOp42
 70
     1
102
RTVSPost2010Prop43
 90
        3
102
RTVSPost2010PropOp43
 70
     1
102
RTVSPost2010Prop44ColorIndex
 90
        5
102
RTVSPost2010Prop44ColorRGB
 90
      255
102
RTVSPost2010PropOp44
 70
     1
102
RTVSPost2010Prop45
280
     0
102
RTVSPost2010PropOp45
 70
     1
102
RTVSPost2010Prop46
 90
       50
102
RTVSPost2010PropOp46
 70
     1
102
RTVSPost2010Prop47
 90
       50
102
RTVSPost2010PropOp47
 70
     1
102
RTVSPost2010Prop48
 90
       50
102
RTVSPost2010PropOp48
 70
     1
102
RTVSPost2010Prop49
280
     0
102
RTVSPost2010PropOp49
 70
     1
102
RTVSPost2010Prop50
 90
       50
102
RTVSPost2010PropOp50
 70
     1
102
RTVSPost2010Prop51ColorIndex
 90
      256
102
RTVSPost2010Prop51ColorRGB
 90
-16777216
102
RTVSPost2010PropOp51
 70
     0
102
RTVSPost2010Prop52
140
1.0
102
RTVSPost2010PropOp52
 70
     0
102
RTVSPost2010Prop53
 90
        2
102
RTVSPost2010PropOp53
 70
     1
102
RTVSPost2010Prop54
  1
strokes_ogs.tif
102
RTVSPost2010PropOp54
 70
     1
102
RTVSPost2010Prop55
280
     0
102
RTVSPost2010PropOp55
 70
     1
102
RTVSPost2010Prop56
140
1.0
102
RTVSPost2010PropOp56
 70
     1
102
RTVSPost2010Prop57
140
1.0
102
RTVSPost2010PropOp57
 70
     1
  0
XRECORD
  5
11C
102
{ACAD_REACTORS
330
11B
102
}
330
11B
100
AcDbXrecord
280
     1
102
RTVSPost2010Prop28
280
     0
102
RTVSPost2010PropOp28
 70
     1
102
RTVSPost2010Prop29
280
     1
102
RTVSPost2010PropOp29
 70
     1
102
RTVSPost2010Prop30
280
     1
102
RTVSPost2010PropOp30
 70
     1
102
RTVSPost2010Prop31
280
     0
102
RTVSPost2010PropOp31
 70
     1
102
RTVSPost2010Prop32
280
     0
102
RTVSPost2010PropOp32
 70
     1
102
RTVSPost2010Prop33
280
     0
102
RTVSPost2010PropOp33
 70
     1
102
RTVSPost2010Prop34
280
     0
102
RTVSPost2010PropOp34
 70
     1
102
RTVSPost2010Prop35
280
     0
102
RTVSPost2010PropOp35
 70
     1
102
RTVSPost2010Prop36
280
     0
102
RTVSPost2010PropOp36
 70
     1
102
RTVSPost2010Prop37
 90
       50
102
RTVSPost2010PropOp37
 70
     1
102
RTVSPost2010Prop38
140
0.0
102
RTVSPost2010PropOp38
 70
     1
102
RTVSPost2010Prop39
140
1.0
102
RTVSPost2010PropOp39
 70
     1
102
RTVSPost2010Prop40
 90
        0
102
RTVSPost2010PropOp40
 70
     1
102
RTVSPost2010Prop41ColorIndex
 90
       18
102
RTVSPost2010Prop41ColorRGB
 90
        0
102
RTVSPost2010PropOp41
 70
     1
102
RTVSPost2010Prop42
 90
       50
102
RTVSPost2010PropOp42
 70
     1
102
RTVSPost2010Prop43
 90
        3
102
RTVSPost2010PropOp43
 70
     1
102
RTVSPost2010Prop44ColorIndex
 90
        5
102
RTVSPost2010Prop44ColorRGB
 90
      255
102
RTVSPost2010PropOp44
 70
     1
102
RTVSPost2010Prop45
280
     0
102
RTVSPost2010PropOp45
 70
     1
102
RTVSPost2010Prop46
 90
       50
102
RTVSPost2010PropOp46
 70
     1
102
RTVSPost2010Prop47
 90
       50
102
RTVSPost2010PropOp47
 70
     1
102
RTVSPost2010Prop48
 90
       50
102
RTVSPost2010PropOp48
 70
     1
102
RTVSPost2010Prop49
280
     0
102
RTVSPost2010PropOp49
 70
     1
102
RTVSPost2010Prop50
 90
       50
102
RTVSPost2010PropOp50
 70
     1
102
RTVSPost2010Prop51ColorIndex
 90
      256
102
RTVSPost2010Prop51ColorRGB
 90
-16777216
102
RTVSPost2010PropOp51
 70
     0
102
RTVSPost2010Prop52
140
1.0
102
RTVSPost2010PropOp52
 70
     0
102
RTVSPost2010Prop53
 90
        2
102
RTVSPost2010PropOp53
 70
     1
102
RTVSPost2010Prop54
  1
strokes_ogs.tif
102
RTVSPost2010PropOp54
 70
     1
102
RTVSPost2010Prop55
280
     0
102
RTVSPost2010PropOp55
 70
     1
102
RTVSPost2010Prop56
140
1.0
102
RTVSPost2010PropOp56
 70
     1
102
RTVSPost2010Prop57
140
1.0
102
RTVSPost2010PropOp57
 70
     1
  0
XRECORD
  5
136
102
{ACAD_REACTORS
330
135
102
}
330
135
100
AcDbXrecord
280
     1
102
RTVSPost2010Prop28
280
     0
102
RTVSPost2010PropOp28
 70
     0
102
RTVSPost2010Prop29
280
     1
102
RTVSPost2010PropOp29
 70
     0
102
RTVSPost2010Prop30
280
     1
102
RTVSPost2010PropOp30
 70
     0
102
RTVSPost2010Prop31
280
     0
102
RTVSPost2010PropOp31
 70
     0
102
RTVSPost2010Prop32
280
     0
102
RTVSPost2010PropOp32
 70
     0
102
RTVSPost2010Prop33
280
     0
102
RTVSPost2010PropOp33
 70
     0
102
RTVSPost2010Prop34
280
     0
102
RTVSPost2010PropOp34
 70
     0
102
RTVSPost2010Prop35
280
     0
102
RTVSPost2010PropOp35
 70
     0
102
RTVSPost2010Prop36
280
     0
102
RTVSPost2010PropOp36
 70
     0
102
RTVSPost2010Prop37
 90
       50
102
RTVSPost2010PropOp37
 70
     0
102
RTVSPost2010Prop38
140
0.0
102
RTVSPost2010PropOp38
 70
     0
102
RTVSPost2010Prop39
140
1.0
102
RTVSPost2010PropOp39
 70
     0
102
RTVSPost2010Prop40
 90
        0
102
RTVSPost2010PropOp40
 70
     0
102
RTVSPost2010Prop41ColorIndex
 90
       18
102
RTVSPost2010Prop41ColorRGB
 90
        0
102
RTVSPost2010PropOp41
 70
     0
102
RTVSPost2010Prop42
 90
       50
102
RTVSPost2010PropOp42
 70
     0
102
RTVSPost2010Prop43
 90
        3
102
RTVSPost2010PropOp43
 70
     0
102
RTVSPost2010Prop44ColorIndex
 90
        5
102
RTVSPost2010Prop44ColorRGB
 90
      255
102
RTVSPost2010PropOp44
 70
     0
102
RTVSPost2010Prop45
280
     0
102
RTVSPost2010PropOp45
 70
     0
102
RTVSPost2010Prop46
 90
       50
102
RTVSPost2010PropOp46
 70
     0
102
RTVSPost2010Prop47
 90
       50
102
RTVSPost2010PropOp47
 70
     0
102
RTVSPost2010Prop48
 90
       50
102
RTVSPost2010PropOp48
 70
     0
102
RTVSPost2010Prop49
280
     0
102
RTVSPost2010PropOp49
 70
     0
102
RTVSPost2010Prop50
 90
       50
102
RTVSPost2010PropOp50
 70
     0
102
RTVSPost2010Prop51ColorIndex
 90
      256
102
RTVSPost2010Prop51ColorRGB
 90
-16777216
102
RTVSPost2010PropOp51
 70
     0
102
RTVSPost2010Prop52
140
1.0
102
RTVSPost2010PropOp52
 70
     0
102
RTVSPost2010Prop53
 90
        2
102
RTVSPost2010PropOp53
 70
     0
102
RTVSPost2010Prop54
  1
strokes_ogs.tif
102
RTVSPost2010PropOp54
 70
     0
102
RTVSPost2010Prop55
280
     0
102
RTVSPost2010PropOp55
 70
     0
102
RTVSPost2010Prop56
140
1.0
102
RTVSPost2010PropOp56
 70
     0
102
RTVSPost2010Prop57
140
1.0
102
RTVSPost2010PropOp57
 70
     0
  0
XRECORD
  5
124
102
{ACAD_REACTORS
330
123
102
}
330
123
100
AcDbXrecord
280
     1
102
RTVSPost2010Prop28
280
     0
102
RTVSPost2010PropOp28
 70
     1
102
RTVSPost2010Prop29
280
     1
102
RTVSPost2010PropOp29
 70
     1
102
RTVSPost2010Prop30
280
     1
102
RTVSPost2010PropOp30
 70
     1
102
RTVSPost2010Prop31
280
     0
102
RTVSPost2010PropOp31
 70
     1
102
RTVSPost2010Prop32
280
     0
102
RTVSPost2010PropOp32
 70
     1
102
RTVSPost2010Prop33
280
     0
102
RTVSPost2010PropOp33
 70
     1
102
RTVSPost2010Prop34
280
     0
102
RTVSPost2010PropOp34
 70
     1
102
RTVSPost2010Prop35
280
     0
102
RTVSPost2010PropOp35
 70
     1
102
RTVSPost2010Prop36
280
     0
102
RTVSPost2010PropOp36
 70
     1
102
RTVSPost2010Prop37
 90
       50
102
RTVSPost2010PropOp37
 70
     1
102
RTVSPost2010Prop38
140
0.0
102
RTVSPost2010PropOp38
 70
     1
102
RTVSPost2010Prop39
140
1.0
102
RTVSPost2010PropOp39
 70
     1
102
RTVSPost2010Prop40
 90
        0
102
RTVSPost2010PropOp40
 70
     1
102
RTVSPost2010Prop41ColorIndex
 90
       18
102
RTVSPost2010Prop41ColorRGB
 90
        0
102
RTVSPost2010PropOp41
 70
     1
102
RTVSPost2010Prop42
 90
       50
102
RTVSPost2010PropOp42
 70
     1
102
RTVSPost2010Prop43
 90
        3
102
RTVSPost2010PropOp43
 70
     1
102
RTVSPost2010Prop44ColorIndex
 90
        5
102
RTVSPost2010Prop44ColorRGB
 90
      255
102
RTVSPost2010PropOp44
 70
     1
102
RTVSPost2010Prop45
280
     0
102
RTVSPost2010PropOp45
 70
     1
102
RTVSPost2010Prop46
 90
       50
102
RTVSPost2010PropOp46
 70
     1
102
RTVSPost2010Prop47
 90
       50
102
RTVSPost2010PropOp47
 70
     1
102
RTVSPost2010Prop48
 90
       50
102
RTVSPost2010PropOp48
 70
     1
102
RTVSPost2010Prop49
280
     0
102
RTVSPost2010PropOp49
 70
     1
102
RTVSPost2010Prop50
 90
       50
102
RTVSPost2010PropOp50
 70
     1
102
RTVSPost2010Prop51ColorIndex
 90
      256
102
RTVSPost2010Prop51ColorRGB
 90
-16777216
102
RTVSPost2010PropOp51
 70
     0
102
RTVSPost2010Prop52
140
1.0
102
RTVSPost2010PropOp52
 70
     0
102
RTVSPost2010Prop53
 90
        2
102
RTVSPost2010PropOp53
 70
     1
102
RTVSPost2010Prop54
  1
strokes_ogs.tif
102
RTVSPost2010PropOp54
 70
     1
102
RTVSPost2010Prop55
280
     0
102
RTVSPost2010PropOp55
 70
     1
102
RTVSPost2010Prop56
140
1.0
102
RTVSPost2010PropOp56
 70
     1
102
RTVSPost2010Prop57
140
1.0
102
RTVSPost2010PropOp57
 70
     1
  0
XRECORD
  5
108
102
{ACAD_REACTORS
330
107
102
}
330
107
100
AcDbXrecord
280
     1
102
RTVSPost2010Prop28
280
     0
102
RTVSPost2010PropOp28
 70
     1
102
RTVSPost2010Prop29
280
     1
102
RTVSPost2010PropOp29
 70
     1
102
RTVSPost2010Prop30
280
     1
102
RTVSPost2010PropOp30
 70
     1
102
RTVSPost2010Prop31
280
     0
102
RTVSPost2010PropOp31
 70
     1
102
RTVSPost2010Prop32
280
     0
102
RTVSPost2010PropOp32
 70
     1
102
RTVSPost2010Prop33
280
     0
102
RTVSPost2010PropOp33
 70
     1
102
RTVSPost2010Prop34
280
     0
102
RTVSPost2010PropOp34
 70
     1
102
RTVSPost2010Prop35
280
     0
102
RTVSPost2010PropOp35
 70
     1
102
RTVSPost2010Prop36
280
     0
102
RTVSPost2010PropOp36
 70
     1
102
RTVSPost2010Prop37
 90
       50
102
RTVSPost2010PropOp37
 70
     1
102
RTVSPost2010Prop38
140
0.0
102
RTVSPost2010PropOp38
 70
     1
102
RTVSPost2010Prop39
140
1.0
102
RTVSPost2010PropOp39
 70
     1
102
RTVSPost2010Prop40
 90
        0
102
RTVSPost2010PropOp40
 70
     1
102
RTVSPost2010Prop41ColorIndex
 90
       18
102
RTVSPost2010Prop41ColorRGB
 90
        0
102
RTVSPost2010PropOp41
 70
     1
102
RTVSPost2010Prop42
 90
       50
102
RTVSPost2010PropOp42
 70
     1
102
RTVSPost2010Prop43
 90
        3
102
RTVSPost2010PropOp43
 70
     1
102
RTVSPost2010Prop44ColorIndex
 90
        5
102
RTVSPost2010Prop44ColorRGB
 90
      255
102
RTVSPost2010PropOp44
 70
     1
102
RTVSPost2010Prop45
280
     0
102
RTVSPost2010PropOp45
 70
     1
102
RTVSPost2010Prop46
 90
       50
102
RTVSPost2010PropOp46
 70
     1
102
RTVSPost2010Prop47
 90
       50
102
RTVSPost2010PropOp47
 70
     1
102
RTVSPost2010Prop48
 90
       50
102
RTVSPost2010PropOp48
 70
     1
102
RTVSPost2010Prop49
280
     0
102
RTVSPost2010PropOp49
 70
     1
102
RTVSPost2010Prop50
 90
       50
102
RTVSPost2010PropOp50
 70
     1
102
RTVSPost2010Prop51ColorIndex
 90
      256
102
RTVSPost2010Prop51ColorRGB
 90
-16777216
102
RTVSPost2010PropOp51
 70
     0
102
RTVSPost2010Prop52
140
1.0
102
RTVSPost2010PropOp52
 70
     0
102
RTVSPost2010Prop53
 90
        2
102
RTVSPost2010PropOp53
 70
     1
102
RTVSPost2010Prop54
  1
strokes_ogs.tif
102
RTVSPost2010PropOp54
 70
     1
102
RTVSPost2010Prop55
280
     0
102
RTVSPost2010PropOp55
 70
     1
102
RTVSPost2010Prop56
140
1.0
102
RTVSPost2010PropOp56
 70
     1
102
RTVSPost2010Prop57
140
1.0
102
RTVSPost2010PropOp57
 70
     1
  0
XRECORD
  5
10A
102
{ACAD_REACTORS
330
109
102
}
330
109
100
AcDbXrecord
280
     1
102
RTVSPost2010Prop28
280
     0
102
RTVSPost2010PropOp28
 70
     1
102
RTVSPost2010Prop29
280
     1
102
RTVSPost2010PropOp29
 70
     1
102
RTVSPost2010Prop30
280
     1
102
RTVSPost2010PropOp30
 70
     1
102
RTVSPost2010Prop31
280
     0
102
RTVSPost2010PropOp31
 70
     1
102
RTVSPost2010Prop32
280
     0
102
RTVSPost2010PropOp32
 70
     1
102
RTVSPost2010Prop33
280
     0
102
RTVSPost2010PropOp33
 70
     1
102
RTVSPost2010Prop34
280
     0
102
RTVSPost2010PropOp34
 70
     1
102
RTVSPost2010Prop35
280
     0
102
RTVSPost2010PropOp35
 70
     1
102
RTVSPost2010Prop36
280
     0
102
RTVSPost2010PropOp36
 70
     1
102
RTVSPost2010Prop37
 90
       50
102
RTVSPost2010PropOp37
 70
     1
102
RTVSPost2010Prop38
140
0.0
102
RTVSPost2010PropOp38
 70
     1
102
RTVSPost2010Prop39
140
1.0
102
RTVSPost2010PropOp39
 70
     1
102
RTVSPost2010Prop40
 90
        0
102
RTVSPost2010PropOp40
 70
     1
102
RTVSPost2010Prop41ColorIndex
 90
       18
102
RTVSPost2010Prop41ColorRGB
 90
        0
102
RTVSPost2010PropOp41
 70
     1
102
RTVSPost2010Prop42
 90
       50
102
RTVSPost2010PropOp42
 70
     1
102
RTVSPost2010Prop43
 90
        3
102
RTVSPost2010PropOp43
 70
     1
102
RTVSPost2010Prop44ColorIndex
 90
        5
102
RTVSPost2010Prop44ColorRGB
 90
      255
102
RTVSPost2010PropOp44
 70
     1
102
RTVSPost2010Prop45
280
     0
102
RTVSPost2010PropOp45
 70
     1
102
RTVSPost2010Prop46
 90
       50
102
RTVSPost2010PropOp46
 70
     1
102
RTVSPost2010Prop47
 90
       50
102
RTVSPost2010PropOp47
 70
     1
102
RTVSPost2010Prop48
 90
       50
102
RTVSPost2010PropOp48
 70
     1
102
RTVSPost2010Prop49
280
     0
102
RTVSPost2010PropOp49
 70
     1
102
RTVSPost2010Prop50
 90
       50
102
RTVSPost2010PropOp50
 70
     1
102
RTVSPost2010Prop51ColorIndex
 90
      256
102
RTVSPost2010Prop51ColorRGB
 90
-16777216
102
RTVSPost2010PropOp51
 70
     0
102
RTVSPost2010Prop52
140
1.0
102
RTVSPost2010PropOp52
 70
     0
102
RTVSPost2010Prop53
 90
        2
102
RTVSPost2010PropOp53
 70
     1
102
RTVSPost2010Prop54
  1
strokes_ogs.tif
102
RTVSPost2010PropOp54
 70
     1
102
RTVSPost2010Prop55
280
     0
102
RTVSPost2010PropOp55
 70
     1
102
RTVSPost2010Prop56
140
1.0
102
RTVSPost2010PropOp56
 70
     1
102
RTVSPost2010Prop57
140
1.0
102
RTVSPost2010PropOp57
 70
     1
  0
XRECORD
  5
10C
102
{ACAD_REACTORS
330
10B
102
}
330
10B
100
AcDbXrecord
280
     1
102
RTVSPost2010Prop28
280
     0
102
RTVSPost2010PropOp28
 70
     1
102
RTVSPost2010Prop29
280
     1
102
RTVSPost2010PropOp29
 70
     1
102
RTVSPost2010Prop30
280
     1
102
RTVSPost2010PropOp30
 70
     1
102
RTVSPost2010Prop31
280
     0
102
RTVSPost2010PropOp31
 70
     1
102
RTVSPost2010Prop32
280
     0
102
RTVSPost2010PropOp32
 70
     1
102
RTVSPost2010Prop33
280
     0
102
RTVSPost2010PropOp33
 70
     1
102
RTVSPost2010Prop34
280
     0
102
RTVSPost2010PropOp34
 70
     1
102
RTVSPost2010Prop35
280
     0
102
RTVSPost2010PropOp35
 70
     1
102
RTVSPost2010Prop36
280
     0
102
RTVSPost2010PropOp36
 70
     1
102
RTVSPost2010Prop37
 90
       50
102
RTVSPost2010PropOp37
 70
     1
102
RTVSPost2010Prop38
140
0.0
102
RTVSPost2010PropOp38
 70
     1
102
RTVSPost2010Prop39
140
1.0
102
RTVSPost2010PropOp39
 70
     1
102
RTVSPost2010Prop40
 90
        0
102
RTVSPost2010PropOp40
 70
     1
102
RTVSPost2010Prop41ColorIndex
 90
       18
102
RTVSPost2010Prop41ColorRGB
 90
        0
102
RTVSPost2010PropOp41
 70
     1
102
RTVSPost2010Prop42
 90
       50
102
RTVSPost2010PropOp42
 70
     1
102
RTVSPost2010Prop43
 90
        3
102
RTVSPost2010PropOp43
 70
     1
102
RTVSPost2010Prop44ColorIndex
 90
        5
102
RTVSPost2010Prop44ColorRGB
 90
      255
102
RTVSPost2010PropOp44
 70
     1
102
RTVSPost2010Prop45
280
     0
102
RTVSPost2010PropOp45
 70
     1
102
RTVSPost2010Prop46
 90
       50
102
RTVSPost2010PropOp46
 70
     1
102
RTVSPost2010Prop47
 90
       50
102
RTVSPost2010PropOp47
 70
     1
102
RTVSPost2010Prop48
 90
       50
102
RTVSPost2010PropOp48
 70
     1
102
RTVSPost2010Prop49
280
     0
102
RTVSPost2010PropOp49
 70
     1
102
RTVSPost2010Prop50
 90
       50
102
RTVSPost2010PropOp50
 70
     1
102
RTVSPost2010Prop51ColorIndex
 90
      256
102
RTVSPost2010Prop51ColorRGB
 90
-16777216
102
RTVSPost2010PropOp51
 70
     0
102
RTVSPost2010Prop52
140
1.0
102
RTVSPost2010PropOp52
 70
     0
102
RTVSPost2010Prop53
 90
        2
102
RTVSPost2010PropOp53
 70
     1
102
RTVSPost2010Prop54
  1
strokes_ogs.tif
102
RTVSPost2010PropOp54
 70
     1
102
RTVSPost2010Prop55
280
     0
102
RTVSPost2010PropOp55
 70
     1
102
RTVSPost2010Prop56
140
1.0
102
RTVSPost2010PropOp56
 70
     1
102
RTVSPost2010Prop57
140
1.0
102
RTVSPost2010PropOp57
 70
     1
  0
XRECORD
  5
10E
102
{ACAD_REACTORS
330
10D
102
}
330
10D
100
AcDbXrecord
280
     1
102
RTVSPost2010Prop28
280
     0
102
RTVSPost2010PropOp28
 70
     1
102
RTVSPost2010Prop29
280
     1
102
RTVSPost2010PropOp29
 70
     1
102
RTVSPost2010Prop30
280
     1
102
RTVSPost2010PropOp30
 70
     1
102
RTVSPost2010Prop31
280
     0
102
RTVSPost2010PropOp31
 70
     1
102
RTVSPost2010Prop32
280
     0
102
RTVSPost2010PropOp32
 70
     1
102
RTVSPost2010Prop33
280
     0
102
RTVSPost2010PropOp33
 70
     1
102
RTVSPost2010Prop34
280
     0
102
RTVSPost2010PropOp34
 70
     1
102
RTVSPost2010Prop35
280
     0
102
RTVSPost2010PropOp35
 70
     1
102
RTVSPost2010Prop36
280
     0
102
RTVSPost2010PropOp36
 70
     1
102
RTVSPost2010Prop37
 90
       50
102
RTVSPost2010PropOp37
 70
     1
102
RTVSPost2010Prop38
140
0.0
102
RTVSPost2010PropOp38
 70
     1
102
RTVSPost2010Prop39
140
1.0
102
RTVSPost2010PropOp39
 70
     1
102
RTVSPost2010Prop40
 90
        0
102
RTVSPost2010PropOp40
 70
     1
102
RTVSPost2010Prop41ColorIndex
 90
       18
102
RTVSPost2010Prop41ColorRGB
 90
        0
102
RTVSPost2010PropOp41
 70
     1
102
RTVSPost2010Prop42
 90
       50
102
RTVSPost2010PropOp42
 70
     1
102
RTVSPost2010Prop43
 90
        3
102
RTVSPost2010PropOp43
 70
     1
102
RTVSPost2010Prop44ColorIndex
 90
        5
102
RTVSPost2010Prop44ColorRGB
 90
      255
102
RTVSPost2010PropOp44
 70
     1
102
RTVSPost2010Prop45
280
     0
102
RTVSPost2010PropOp45
 70
     1
102
RTVSPost2010Prop46
 90
       50
102
RTVSPost2010PropOp46
 70
     1
102
RTVSPost2010Prop47
 90
       50
102
RTVSPost2010PropOp47
 70
     1
102
RTVSPost2010Prop48
 90
       50
102
RTVSPost2010PropOp48
 70
     1
102
RTVSPost2010Prop49
280
     0
102
RTVSPost2010PropOp49
 70
     1
102
RTVSPost2010Prop50
 90
       50
102
RTVSPost2010PropOp50
 70
     1
102
RTVSPost2010Prop51ColorIndex
 90
      256
102
RTVSPost2010Prop51ColorRGB
 90
-16777216
102
RTVSPost2010PropOp51
 70
     0
102
RTVSPost2010Prop52
140
1.0
102
RTVSPost2010PropOp52
 70
     0
102
RTVSPost2010Prop53
 90
        2
102
RTVSPost2010PropOp53
 70
     1
102
RTVSPost2010Prop54
  1
strokes_ogs.tif
102
RTVSPost2010PropOp54
 70
     1
102
RTVSPost2010Prop55
280
     0
102
RTVSPost2010PropOp55
 70
     1
102
RTVSPost2010Prop56
140
1.0
102
RTVSPost2010PropOp56
 70
     1
102
RTVSPost2010Prop57
140
1.0
102
RTVSPost2010PropOp57
 70
     1
  0
XRECORD
  5
116
102
{ACAD_REACTORS
330
115
102
}
330
115
100
AcDbXrecord
280
     1
102
RTVSPost2010Prop28
280
     0
102
RTVSPost2010PropOp28
 70
     1
102
RTVSPost2010Prop29
280
     1
102
RTVSPost2010PropOp29
 70
     1
102
RTVSPost2010Prop30
280
     1
102
RTVSPost2010PropOp30
 70
     1
102
RTVSPost2010Prop31
280
     0
102
RTVSPost2010PropOp31
 70
     1
102
RTVSPost2010Prop32
280
     0
102
RTVSPost2010PropOp32
 70
     1
102
RTVSPost2010Prop33
280
     0
102
RTVSPost2010PropOp33
 70
     1
102
RTVSPost2010Prop34
280
     0
102
RTVSPost2010PropOp34
 70
     1
102
RTVSPost2010Prop35
280
     0
102
RTVSPost2010PropOp35
 70
     1
102
RTVSPost2010Prop36
280
     0
102
RTVSPost2010PropOp36
 70
     1
102
RTVSPost2010Prop37
 90
       50
102
RTVSPost2010PropOp37
 70
     1
102
RTVSPost2010Prop38
140
0.0
102
RTVSPost2010PropOp38
 70
     1
102
RTVSPost2010Prop39
140
1.0
102
RTVSPost2010PropOp39
 70
     1
102
RTVSPost2010Prop40
 90
        0
102
RTVSPost2010PropOp40
 70
     1
102
RTVSPost2010Prop41ColorIndex
 90
       18
102
RTVSPost2010Prop41ColorRGB
 90
        0
102
RTVSPost2010PropOp41
 70
     1
102
RTVSPost2010Prop42
 90
       50
102
RTVSPost2010PropOp42
 70
     1
102
RTVSPost2010Prop43
 90
        3
102
RTVSPost2010PropOp43
 70
     1
102
RTVSPost2010Prop44ColorIndex
 90
        5
102
RTVSPost2010Prop44ColorRGB
 90
      255
102
RTVSPost2010PropOp44
 70
     1
102
RTVSPost2010Prop45
280
     0
102
RTVSPost2010PropOp45
 70
     1
102
RTVSPost2010Prop46
 90
       50
102
RTVSPost2010PropOp46
 70
     1
102
RTVSPost2010Prop47
 90
       50
102
RTVSPost2010PropOp47
 70
     1
102
RTVSPost2010Prop48
 90
       50
102
RTVSPost2010PropOp48
 70
     1
102
RTVSPost2010Prop49
280
     0
102
RTVSPost2010PropOp49
 70
     1
102
RTVSPost2010Prop50
 90
       50
102
RTVSPost2010PropOp50
 70
     1
102
RTVSPost2010Prop51ColorIndex
 90
      256
102
RTVSPost2010Prop51ColorRGB
 90
-16777216
102
RTVSPost2010PropOp51
 70
     0
102
RTVSPost2010Prop52
140
1.0
102
RTVSPost2010PropOp52
 70
     0
102
RTVSPost2010Prop53
 90
        2
102
RTVSPost2010PropOp53
 70
     1
102
RTVSPost2010Prop54
  1
strokes_ogs.tif
102
RTVSPost2010PropOp54
 70
     1
102
RTVSPost2010Prop55
280
     0
102
RTVSPost2010PropOp55
 70
     1
102
RTVSPost2010Prop56
140
1.0
102
RTVSPost2010PropOp56
 70
     1
102
RTVSPost2010Prop57
140
1.0
102
RTVSPost2010PropOp57
 70
     1
  0
XRECORD
  5
132
102
{ACAD_REACTORS
330
131
102
}
330
131
100
AcDbXrecord
280
     1
102
RTVSPost2010Prop28
280
     0
102
RTVSPost2010PropOp28
 70
     0
102
RTVSPost2010Prop29
280
     1
102
RTVSPost2010PropOp29
 70
     0
102
RTVSPost2010Prop30
280
     1
102
RTVSPost2010PropOp30
 70
     0
102
RTVSPost2010Prop31
280
     0
102
RTVSPost2010PropOp31
 70
     0
102
RTVSPost2010Prop32
280
     0
102
RTVSPost2010PropOp32
 70
     0
102
RTVSPost2010Prop33
280
     0
102
RTVSPost2010PropOp33
 70
     0
102
RTVSPost2010Prop34
280
     0
102
RTVSPost2010PropOp34
 70
     0
102
RTVSPost2010Prop35
280
     0
102
RTVSPost2010PropOp35
 70
     0
102
RTVSPost2010Prop36
280
     0
102
RTVSPost2010PropOp36
 70
     0
102
RTVSPost2010Prop37
 90
       50
102
RTVSPost2010PropOp37
 70
     0
102
RTVSPost2010Prop38
140
0.0
102
RTVSPost2010PropOp38
 70
     0
102
RTVSPost2010Prop39
140
1.0
102
RTVSPost2010PropOp39
 70
     0
102
RTVSPost2010Prop40
 90
        0
102
RTVSPost2010PropOp40
 70
     0
102
RTVSPost2010Prop41ColorIndex
 90
       18
102
RTVSPost2010Prop41ColorRGB
 90
        0
102
RTVSPost2010PropOp41
 70
     0
102
RTVSPost2010Prop42
 90
       50
102
RTVSPost2010PropOp42
 70
     0
102
RTVSPost2010Prop43
 90
        3
102
RTVSPost2010PropOp43
 70
     0
102
RTVSPost2010Prop44ColorIndex
 90
        5
102
RTVSPost2010Prop44ColorRGB
 90
      255
102
RTVSPost2010PropOp44
 70
     0
102
RTVSPost2010Prop45
280
     0
102
RTVSPost2010PropOp45
 70
     0
102
RTVSPost2010Prop46
 90
       50
102
RTVSPost2010PropOp46
 70
     0
102
RTVSPost2010Prop47
 90
       50
102
RTVSPost2010PropOp47
 70
     0
102
RTVSPost2010Prop48
 90
       50
102
RTVSPost2010PropOp48
 70
     0
102
RTVSPost2010Prop49
280
     0
102
RTVSPost2010PropOp49
 70
     0
102
RTVSPost2010Prop50
 90
       50
102
RTVSPost2010PropOp50
 70
     0
102
RTVSPost2010Prop51ColorIndex
 90
      256
102
RTVSPost2010Prop51ColorRGB
 90
-16777216
102
RTVSPost2010PropOp51
 70
     0
102
RTVSPost2010Prop52
140
1.0
102
RTVSPost2010PropOp52
 70
     0
102
RTVSPost2010Prop53
 90
        2
102
RTVSPost2010PropOp53
 70
     0
102
RTVSPost2010Prop54
  1
strokes_ogs.tif
102
RTVSPost2010PropOp54
 70
     0
102
RTVSPost2010Prop55
280
     0
102
RTVSPost2010PropOp55
 70
     0
102
RTVSPost2010Prop56
140
1.0
102
RTVSPost2010PropOp56
 70
     0
102
RTVSPost2010Prop57
140
1.0
102
RTVSPost2010PropOp57
 70
     0
  0
XRECORD
  5
122
102
{ACAD_REACTORS
330
121
102
}
330
121
100
AcDbXrecord
280
     1
102
RTVSPost2010Prop28
280
     0
102
RTVSPost2010PropOp28
 70
     1
102
RTVSPost2010Prop29
280
     1
102
RTVSPost2010PropOp29
 70
     1
102
RTVSPost2010Prop30
280
     1
102
RTVSPost2010PropOp30
 70
     1
102
RTVSPost2010Prop31
280
     0
102
RTVSPost2010PropOp31
 70
     1
102
RTVSPost2010Prop32
280
     0
102
RTVSPost2010PropOp32
 70
     1
102
RTVSPost2010Prop33
280
     0
102
RTVSPost2010PropOp33
 70
     1
102
RTVSPost2010Prop34
280
     0
102
RTVSPost2010PropOp34
 70
     1
102
RTVSPost2010Prop35
280
     0
102
RTVSPost2010PropOp35
 70
     1
102
RTVSPost2010Prop36
280
     0
102
RTVSPost2010PropOp36
 70
     1
102
RTVSPost2010Prop37
 90
       50
102
RTVSPost2010PropOp37
 70
     1
102
RTVSPost2010Prop38
140
0.0
102
RTVSPost2010PropOp38
 70
     1
102
RTVSPost2010Prop39
140
1.0
102
RTVSPost2010PropOp39
 70
     1
102
RTVSPost2010Prop40
 90
        0
102
RTVSPost2010PropOp40
 70
     1
102
RTVSPost2010Prop41ColorIndex
 90
       18
102
RTVSPost2010Prop41ColorRGB
 90
        0
102
RTVSPost2010PropOp41
 70
     1
102
RTVSPost2010Prop42
 90
       50
102
RTVSPost2010PropOp42
 70
     1
102
RTVSPost2010Prop43
 90
        3
102
RTVSPost2010PropOp43
 70
     1
102
RTVSPost2010Prop44ColorIndex
 90
        5
102
RTVSPost2010Prop44ColorRGB
 90
      255
102
RTVSPost2010PropOp44
 70
     1
102
RTVSPost2010Prop45
280
     0
102
RTVSPost2010PropOp45
 70
     1
102
RTVSPost2010Prop46
 90
       50
102
RTVSPost2010PropOp46
 70
     1
102
RTVSPost2010Prop47
 90
       50
102
RTVSPost2010PropOp47
 70
     1
102
RTVSPost2010Prop48
 90
       50
102
RTVSPost2010PropOp48
 70
     1
102
RTVSPost2010Prop49
280
     0
102
RTVSPost2010PropOp49
 70
     1
102
RTVSPost2010Prop50
 90
       50
102
RTVSPost2010PropOp50
 70
     1
102
RTVSPost2010Prop51ColorIndex
 90
      256
102
RTVSPost2010Prop51ColorRGB
 90
-16777216
102
RTVSPost2010PropOp51
 70
     0
102
RTVSPost2010Prop52
140
1.0
102
RTVSPost2010PropOp52
 70
     0
102
RTVSPost2010Prop53
 90
        2
102
RTVSPost2010PropOp53
 70
     1
102
RTVSPost2010Prop54
  1
strokes_ogs.tif
102
RTVSPost2010PropOp54
 70
     1
102
RTVSPost2010Prop55
280
     0
102
RTVSPost2010PropOp55
 70
     1
102
RTVSPost2010Prop56
140
1.0
102
RTVSPost2010PropOp56
 70
     1
102
RTVSPost2010Prop57
140
1.0
102
RTVSPost2010PropOp57
 70
     1
  0
XRECORD
  5
134
102
{ACAD_REACTORS
330
133
102
}
330
133
100
AcDbXrecord
280
     1
102
RTVSPost2010Prop28
280
     0
102
RTVSPost2010PropOp28
 70
     0
102
RTVSPost2010Prop29
280
     1
102
RTVSPost2010PropOp29
 70
     0
102
RTVSPost2010Prop30
280
     1
102
RTVSPost2010PropOp30
 70
     0
102
RTVSPost2010Prop31
280
     0
102
RTVSPost2010PropOp31
 70
     0
102
RTVSPost2010Prop32
280
     0
102
RTVSPost2010PropOp32
 70
     0
102
RTVSPost2010Prop33
280
     0
102
RTVSPost2010PropOp33
 70
     0
102
RTVSPost2010Prop34
280
     0
102
RTVSPost2010PropOp34
 70
     0
102
RTVSPost2010Prop35
280
     0
102
RTVSPost2010PropOp35
 70
     0
102
RTVSPost2010Prop36
280
     0
102
RTVSPost2010PropOp36
 70
     0
102
RTVSPost2010Prop37
 90
       50
102
RTVSPost2010PropOp37
 70
     0
102
RTVSPost2010Prop38
140
0.0
102
RTVSPost2010PropOp38
 70
     0
102
RTVSPost2010Prop39
140
1.0
102
RTVSPost2010PropOp39
 70
     0
102
RTVSPost2010Prop40
 90
        0
102
RTVSPost2010PropOp40
 70
     0
102
RTVSPost2010Prop41ColorIndex
 90
       18
102
RTVSPost2010Prop41ColorRGB
 90
        0
102
RTVSPost2010PropOp41
 70
     0
102
RTVSPost2010Prop42
 90
       50
102
RTVSPost2010PropOp42
 70
     0
102
RTVSPost2010Prop43
 90
        3
102
RTVSPost2010PropOp43
 70
     0
102
RTVSPost2010Prop44ColorIndex
 90
        5
102
RTVSPost2010Prop44ColorRGB
 90
      255
102
RTVSPost2010PropOp44
 70
     0
102
RTVSPost2010Prop45
280
     0
102
RTVSPost2010PropOp45
 70
     0
102
RTVSPost2010Prop46
 90
       50
102
RTVSPost2010PropOp46
 70
     0
102
RTVSPost2010Prop47
 90
       50
102
RTVSPost2010PropOp47
 70
     0
102
RTVSPost2010Prop48
 90
       50
102
RTVSPost2010PropOp48
 70
     0
102
RTVSPost2010Prop49
280
     0
102
RTVSPost2010PropOp49
 70
     0
102
RTVSPost2010Prop50
 90
       50
102
RTVSPost2010PropOp50
 70
     0
102
RTVSPost2010Prop51ColorIndex
 90
      256
102
RTVSPost2010Prop51ColorRGB
 90
-16777216
102
RTVSPost2010PropOp51
 70
     0
102
RTVSPost2010Prop52
140
1.0
102
RTVSPost2010PropOp52
 70
     0
102
RTVSPost2010Prop53
 90
        2
102
RTVSPost2010PropOp53
 70
     0
102
RTVSPost2010Prop54
  1
strokes_ogs.tif
102
RTVSPost2010PropOp54
 70
     0
102
RTVSPost2010Prop55
280
     0
102
RTVSPost2010PropOp55
 70
     0
102
RTVSPost2010Prop56
140
1.0
102
RTVSPost2010PropOp56
 70
     0
102
RTVSPost2010Prop57
140
1.0
102
RTVSPost2010PropOp57
 70
     0
  0
XRECORD
  5
11A
102
{ACAD_REACTORS
330
119
102
}
330
119
100
AcDbXrecord
280
     1
102
RTVSPost2010Prop28
280
     0
102
RTVSPost2010PropOp28
 70
     1
102
RTVSPost2010Prop29
280
     1
102
RTVSPost2010PropOp29
 70
     1
102
RTVSPost2010Prop30
280
     1
102
RTVSPost2010PropOp30
 70
     1
102
RTVSPost2010Prop31
280
     0
102
RTVSPost2010PropOp31
 70
     1
102
RTVSPost2010Prop32
280
     0
102
RTVSPost2010PropOp32
 70
     1
102
RTVSPost2010Prop33
280
     0
102
RTVSPost2010PropOp33
 70
     1
102
RTVSPost2010Prop34
280
     0
102
RTVSPost2010PropOp34
 70
     1
102
RTVSPost2010Prop35
280
     0
102
RTVSPost2010PropOp35
 70
     1
102
RTVSPost2010Prop36
280
     0
102
RTVSPost2010PropOp36
 70
     1
102
RTVSPost2010Prop37
 90
       50
102
RTVSPost2010PropOp37
 70
     1
102
RTVSPost2010Prop38
140
0.0
102
RTVSPost2010PropOp38
 70
     1
102
RTVSPost2010Prop39
140
1.0
102
RTVSPost2010PropOp39
 70
     1
102
RTVSPost2010Prop40
 90
        0
102
RTVSPost2010PropOp40
 70
     1
102
RTVSPost2010Prop41ColorIndex
 90
       18
102
RTVSPost2010Prop41ColorRGB
 90
        0
102
RTVSPost2010PropOp41
 70
     1
102
RTVSPost2010Prop42
 90
       50
102
RTVSPost2010PropOp42
 70
     1
102
RTVSPost2010Prop43
 90
        3
102
RTVSPost2010PropOp43
 70
     1
102
RTVSPost2010Prop44ColorIndex
 90
        5
102
RTVSPost2010Prop44ColorRGB
 90
      255
102
RTVSPost2010PropOp44
 70
     1
102
RTVSPost2010Prop45
280
     0
102
RTVSPost2010PropOp45
 70
     1
102
RTVSPost2010Prop46
 90
       50
102
RTVSPost2010PropOp46
 70
     1
102
RTVSPost2010Prop47
 90
       50
102
RTVSPost2010PropOp47
 70
     1
102
RTVSPost2010Prop48
 90
       50
102
RTVSPost2010PropOp48
 70
     1
102
RTVSPost2010Prop49
280
     0
102
RTVSPost2010PropOp49
 70
     1
102
RTVSPost2010Prop50
 90
       50
102
RTVSPost2010PropOp50
 70
     1
102
RTVSPost2010Prop51ColorIndex
 90
      256
102
RTVSPost2010Prop51ColorRGB
 90
-16777216
102
RTVSPost2010PropOp51
 70
     0
102
RTVSPost2010Prop52
140
1.0
102
RTVSPost2010PropOp52
 70
     0
102
RTVSPost2010Prop53
 90
        2
102
RTVSPost2010PropOp53
 70
     1
102
RTVSPost2010Prop54
  1
strokes_ogs.tif
102
RTVSPost2010PropOp54
 70
     1
102
RTVSPost2010Prop55
280
     0
102
RTVSPost2010PropOp55
 70
     1
102
RTVSPost2010Prop56
140
1.0
102
RTVSPost2010PropOp56
 70
     1
102
RTVSPost2010Prop57
140
1.0
102
RTVSPost2010PropOp57
 70
     1
  0
XRECORD
  5
130
102
{ACAD_REACTORS
330
12F
102
}
330
12F
100
AcDbXrecord
280
     1
102
RTVSPost2010Prop28
280
     0
102
RTVSPost2010PropOp28
 70
     1
102
RTVSPost2010Prop29
280
     1
102
RTVSPost2010PropOp29
 70
     1
102
RTVSPost2010Prop30
280
     1
102
RTVSPost2010PropOp30
 70
     1
102
RTVSPost2010Prop31
280
     0
102
RTVSPost2010PropOp31
 70
     1
102
RTVSPost2010Prop32
280
     0
102
RTVSPost2010PropOp32
 70
     1
102
RTVSPost2010Prop33
280
     0
102
RTVSPost2010PropOp33
 70
     1
102
RTVSPost2010Prop34
280
     0
102
RTVSPost2010PropOp34
 70
     1
102
RTVSPost2010Prop35
280
     0
102
RTVSPost2010PropOp35
 70
     1
102
RTVSPost2010Prop36
280
     0
102
RTVSPost2010PropOp36
 70
     1
102
RTVSPost2010Prop37
 90
       50
102
RTVSPost2010PropOp37
 70
     1
102
RTVSPost2010Prop38
140
0.0
102
RTVSPost2010PropOp38
 70
     1
102
RTVSPost2010Prop39
140
1.0
102
RTVSPost2010PropOp39
 70
     1
102
RTVSPost2010Prop40
 90
        0
102
RTVSPost2010PropOp40
 70
     1
102
RTVSPost2010Prop41ColorIndex
 90
       18
102
RTVSPost2010Prop41ColorRGB
 90
        0
102
RTVSPost2010PropOp41
 70
     1
102
RTVSPost2010Prop42
 90
       50
102
RTVSPost2010PropOp42
 70
     1
102
RTVSPost2010Prop43
 90
        3
102
RTVSPost2010PropOp43
 70
     1
102
RTVSPost2010Prop44ColorIndex
 90
        5
102
RTVSPost2010Prop44ColorRGB
 90
      255
102
RTVSPost2010PropOp44
 70
     1
102
RTVSPost2010Prop45
280
     0
102
RTVSPost2010PropOp45
 70
     1
102
RTVSPost2010Prop46
 90
       50
102
RTVSPost2010PropOp46
 70
     1
102
RTVSPost2010Prop47
 90
       50
102
RTVSPost2010PropOp47
 70
     1
102
RTVSPost2010Prop48
 90
       50
102
RTVSPost2010PropOp48
 70
     1
102
RTVSPost2010Prop49
280
     0
102
RTVSPost2010PropOp49
 70
     1
102
RTVSPost2010Prop50
 90
       50
102
RTVSPost2010PropOp50
 70
     1
102
RTVSPost2010Prop51ColorIndex
 90
      256
102
RTVSPost2010Prop51ColorRGB
 90
-16777216
102
RTVSPost2010PropOp51
 70
     0
102
RTVSPost2010Prop52
140
1.0
102
RTVSPost2010PropOp52
 70
     0
102
RTVSPost2010Prop53
 90
        2
102
RTVSPost2010PropOp53
 70
     1
102
RTVSPost2010Prop54
  1
strokes_ogs.tif
102
RTVSPost2010PropOp54
 70
     1
102
RTVSPost2010Prop55
280
     0
102
RTVSPost2010PropOp55
 70
     1
102
RTVSPost2010Prop56
140
1.0
102
RTVSPost2010PropOp56
 70
     1
102
RTVSPost2010Prop57
140
1.0
102
RTVSPost2010PropOp57
 70
     1
  0
XRECORD
  5
12E
102
{ACAD_REACTORS
330
12D
102
}
330
12D
100
AcDbXrecord
280
     1
102
RTVSPost2010Prop28
280
     0
102
RTVSPost2010PropOp28
 70
     1
102
RTVSPost2010Prop29
280
     1
102
RTVSPost2010PropOp29
 70
     1
102
RTVSPost2010Prop30
280
     1
102
RTVSPost2010PropOp30
 70
     1
102
RTVSPost2010Prop31
280
     0
102
RTVSPost2010PropOp31
 70
     1
102
RTVSPost2010Prop32
280
     0
102
RTVSPost2010PropOp32
 70
     1
102
RTVSPost2010Prop33
280
     0
102
RTVSPost2010PropOp33
 70
     1
102
RTVSPost2010Prop34
280
     0
102
RTVSPost2010PropOp34
 70
     1
102
RTVSPost2010Prop35
280
     0
102
RTVSPost2010PropOp35
 70
     1
102
RTVSPost2010Prop36
280
     0
102
RTVSPost2010PropOp36
 70
     1
102
RTVSPost2010Prop37
 90
       50
102
RTVSPost2010PropOp37
 70
     1
102
RTVSPost2010Prop38
140
0.0
102
RTVSPost2010PropOp38
 70
     1
102
RTVSPost2010Prop39
140
1.0
102
RTVSPost2010PropOp39
 70
     1
102
RTVSPost2010Prop40
 90
        0
102
RTVSPost2010PropOp40
 70
     1
102
RTVSPost2010Prop41ColorIndex
 90
       18
102
RTVSPost2010Prop41ColorRGB
 90
        0
102
RTVSPost2010PropOp41
 70
     1
102
RTVSPost2010Prop42
 90
       50
102
RTVSPost2010PropOp42
 70
     1
102
RTVSPost2010Prop43
 90
        3
102
RTVSPost2010PropOp43
 70
     1
102
RTVSPost2010Prop44ColorIndex
 90
        5
102
RTVSPost2010Prop44ColorRGB
 90
      255
102
RTVSPost2010PropOp44
 70
     1
102
RTVSPost2010Prop45
280
     0
102
RTVSPost2010PropOp45
 70
     1
102
RTVSPost2010Prop46
 90
       50
102
RTVSPost2010PropOp46
 70
     1
102
RTVSPost2010Prop47
 90
       50
102
RTVSPost2010PropOp47
 70
     1
102
RTVSPost2010Prop48
 90
       50
102
RTVSPost2010PropOp48
 70
     1
102
RTVSPost2010Prop49
280
     0
102
RTVSPost2010PropOp49
 70
     1
102
RTVSPost2010Prop50
 90
       50
102
RTVSPost2010PropOp50
 70
     1
102
RTVSPost2010Prop51ColorIndex
 90
      256
102
RTVSPost2010Prop51ColorRGB
 90
-16777216
102
RTVSPost2010PropOp51
 70
     0
102
RTVSPost2010Prop52
140
1.0
102
RTVSPost2010PropOp52
 70
     0
102
RTVSPost2010Prop53
 90
        2
102
RTVSPost2010PropOp53
 70
     1
102
RTVSPost2010Prop54
  1
strokes_ogs.tif
102
RTVSPost2010PropOp54
 70
     1
102
RTVSPost2010Prop55
280
     0
102
RTVSPost2010PropOp55
 70
     1
102
RTVSPost2010Prop56
140
1.0
102
RTVSPost2010PropOp56
 70
     1
102
RTVSPost2010Prop57
140
1.0
102
RTVSPost2010PropOp57
 70
     1
  0
XRECORD
  5
128
102
{ACAD_REACTORS
330
127
102
}
330
127
100
AcDbXrecord
280
     1
102
RTVSPost2010Prop28
280
     0
102
RTVSPost2010PropOp28
 70
     1
102
RTVSPost2010Prop29
280
     1
102
RTVSPost2010PropOp29
 70
     1
102
RTVSPost2010Prop30
280
     1
102
RTVSPost2010PropOp30
 70
     1
102
RTVSPost2010Prop31
280
     0
102
RTVSPost2010PropOp31
 70
     1
102
RTVSPost2010Prop32
280
     0
102
RTVSPost2010PropOp32
 70
     1
102
RTVSPost2010Prop33
280
     0
102
RTVSPost2010PropOp33
 70
     1
102
RTVSPost2010Prop34
280
     0
102
RTVSPost2010PropOp34
 70
     1
102
RTVSPost2010Prop35
280
     0
102
RTVSPost2010PropOp35
 70
     1
102
RTVSPost2010Prop36
280
     0
102
RTVSPost2010PropOp36
 70
     1
102
RTVSPost2010Prop37
 90
       50
102
RTVSPost2010PropOp37
 70
     1
102
RTVSPost2010Prop38
140
0.0
102
RTVSPost2010PropOp38
 70
     1
102
RTVSPost2010Prop39
140
1.0
102
RTVSPost2010PropOp39
 70
     1
102
RTVSPost2010Prop40
 90
        0
102
RTVSPost2010PropOp40
 70
     1
102
RTVSPost2010Prop41ColorIndex
 90
       18
102
RTVSPost2010Prop41ColorRGB
 90
        0
102
RTVSPost2010PropOp41
 70
     1
102
RTVSPost2010Prop42
 90
       50
102
RTVSPost2010PropOp42
 70
     1
102
RTVSPost2010Prop43
 90
        3
102
RTVSPost2010PropOp43
 70
     1
102
RTVSPost2010Prop44ColorIndex
 90
        5
102
RTVSPost2010Prop44ColorRGB
 90
      255
102
RTVSPost2010PropOp44
 70
     1
102
RTVSPost2010Prop45
280
     0
102
RTVSPost2010PropOp45
 70
     1
102
RTVSPost2010Prop46
 90
       50
102
RTVSPost2010PropOp46
 70
     1
102
RTVSPost2010Prop47
 90
       50
102
RTVSPost2010PropOp47
 70
     1
102
RTVSPost2010Prop48
 90
       50
102
RTVSPost2010PropOp48
 70
     1
102
RTVSPost2010Prop49
280
     0
102
RTVSPost2010PropOp49
 70
     1
102
RTVSPost2010Prop50
 90
       50
102
RTVSPost2010PropOp50
 70
     1
102
RTVSPost2010Prop51ColorIndex
 90
      256
102
RTVSPost2010Prop51ColorRGB
 90
-16777216
102
RTVSPost2010PropOp51
 70
     0
102
RTVSPost2010Prop52
140
1.0
102
RTVSPost2010PropOp52
 70
     0
102
RTVSPost2010Prop53
 90
        2
102
RTVSPost2010PropOp53
 70
     1
102
RTVSPost2010Prop54
  1
strokes_ogs.tif
102
RTVSPost2010PropOp54
 70
     1
102
RTVSPost2010Prop55
280
     0
102
RTVSPost2010PropOp55
 70
     1
102
RTVSPost2010Prop56
140
1.0
102
RTVSPost2010PropOp56
 70
     1
102
RTVSPost2010Prop57
140
1.0
102
RTVSPost2010PropOp57
 70
     1
  0
XRECORD
  5
12A
102
{ACAD_REACTORS
330
129
102
}
330
129
100
AcDbXrecord
280
     1
102
RTVSPost2010Prop28
280
     0
102
RTVSPost2010PropOp28
 70
     1
102
RTVSPost2010Prop29
280
     1
102
RTVSPost2010PropOp29
 70
     1
102
RTVSPost2010Prop30
280
     1
102
RTVSPost2010PropOp30
 70
     1
102
RTVSPost2010Prop31
280
     0
102
RTVSPost2010PropOp31
 70
     1
102
RTVSPost2010Prop32
280
     0
102
RTVSPost2010PropOp32
 70
     1
102
RTVSPost2010Prop33
280
     0
102
RTVSPost2010PropOp33
 70
     1
102
RTVSPost2010Prop34
280
     0
102
RTVSPost2010PropOp34
 70
     1
102
RTVSPost2010Prop35
280
     0
102
RTVSPost2010PropOp35
 70
     1
102
RTVSPost2010Prop36
280
     0
102
RTVSPost2010PropOp36
 70
     1
102
RTVSPost2010Prop37
 90
       50
102
RTVSPost2010PropOp37
 70
     1
102
RTVSPost2010Prop38
140
0.0
102
RTVSPost2010PropOp38
 70
     1
102
RTVSPost2010Prop39
140
1.0
102
RTVSPost2010PropOp39
 70
     1
102
RTVSPost2010Prop40
 90
        0
102
RTVSPost2010PropOp40
 70
     1
102
RTVSPost2010Prop41ColorIndex
 90
       18
102
RTVSPost2010Prop41ColorRGB
 90
        0
102
RTVSPost2010PropOp41
 70
     1
102
RTVSPost2010Prop42
 90
       50
102
RTVSPost2010PropOp42
 70
     1
102
RTVSPost2010Prop43
 90
        3
102
RTVSPost2010PropOp43
 70
     1
102
RTVSPost2010Prop44ColorIndex
 90
        5
102
RTVSPost2010Prop44ColorRGB
 90
      255
102
RTVSPost2010PropOp44
 70
     1
102
RTVSPost2010Prop45
280
     0
102
RTVSPost2010PropOp45
 70
     1
102
RTVSPost2010Prop46
 90
       50
102
RTVSPost2010PropOp46
 70
     1
102
RTVSPost2010Prop47
 90
       50
102
RTVSPost2010PropOp47
 70
     1
102
RTVSPost2010Prop48
 90
       50
102
RTVSPost2010PropOp48
 70
     1
102
RTVSPost2010Prop49
280
     0
102
RTVSPost2010PropOp49
 70
     1
102
RTVSPost2010Prop50
 90
       50
102
RTVSPost2010PropOp50
 70
     1
102
RTVSPost2010Prop51ColorIndex
 90
      256
102
RTVSPost2010Prop51ColorRGB
 90
-16777216
102
RTVSPost2010PropOp51
 70
     0
102
RTVSPost2010Prop52
140
1.0
102
RTVSPost2010PropOp52
 70
     0
102
RTVSPost2010Prop53
 90
        2
102
RTVSPost2010PropOp53
 70
     1
102
RTVSPost2010Prop54
  1
strokes_ogs.tif
102
RTVSPost2010PropOp54
 70
     1
102
RTVSPost2010Prop55
280
     0
102
RTVSPost2010PropOp55
 70
     1
102
RTVSPost2010Prop56
140
1.0
102
RTVSPost2010PropOp56
 70
     1
102
RTVSPost2010Prop57
140
1.0
102
RTVSPost2010PropOp57
 70
     1
  0
XRECORD
  5
120
102
{ACAD_REACTORS
330
11F
102
}
330
11F
100
AcDbXrecord
280
     1
102
RTVSPost2010Prop28
280
     0
102
RTVSPost2010PropOp28
 70
     1
102
RTVSPost2010Prop29
280
     1
102
RTVSPost2010PropOp29
 70
     1
102
RTVSPost2010Prop30
280
     1
102
RTVSPost2010PropOp30
 70
     1
102
RTVSPost2010Prop31
280
     0
102
RTVSPost2010PropOp31
 70
     1
102
RTVSPost2010Prop32
280
     0
102
RTVSPost2010PropOp32
 70
     1
102
RTVSPost2010Prop33
280
     0
102
RTVSPost2010PropOp33
 70
     1
102
RTVSPost2010Prop34
280
     0
102
RTVSPost2010PropOp34
 70
     1
102
RTVSPost2010Prop35
280
     0
102
RTVSPost2010PropOp35
 70
     1
102
RTVSPost2010Prop36
280
     0
102
RTVSPost2010PropOp36
 70
     1
102
RTVSPost2010Prop37
 90
       50
102
RTVSPost2010PropOp37
 70
     1
102
RTVSPost2010Prop38
140
0.0
102
RTVSPost2010PropOp38
 70
     1
102
RTVSPost2010Prop39
140
1.0
102
RTVSPost2010PropOp39
 70
     1
102
RTVSPost2010Prop40
 90
        0
102
RTVSPost2010PropOp40
 70
     1
102
RTVSPost2010Prop41ColorIndex
 90
       18
102
RTVSPost2010Prop41ColorRGB
 90
        0
102
RTVSPost2010PropOp41
 70
     1
102
RTVSPost2010Prop42
 90
       50
102
RTVSPost2010PropOp42
 70
     1
102
RTVSPost2010Prop43
 90
        3
102
RTVSPost2010PropOp43
 70
     1
102
RTVSPost2010Prop44ColorIndex
 90
        5
102
RTVSPost2010Prop44ColorRGB
 90
      255
102
RTVSPost2010PropOp44
 70
     1
102
RTVSPost2010Prop45
280
     0
102
RTVSPost2010PropOp45
 70
     1
102
RTVSPost2010Prop46
 90
       50
102
RTVSPost2010PropOp46
 70
     1
102
RTVSPost2010Prop47
 90
       50
102
RTVSPost2010PropOp47
 70
     1
102
RTVSPost2010Prop48
 90
       50
102
RTVSPost2010PropOp48
 70
     1
102
RTVSPost2010Prop49
280
     0
102
RTVSPost2010PropOp49
 70
     1
102
RTVSPost2010Prop50
 90
       50
102
RTVSPost2010PropOp50
 70
     1
102
RTVSPost2010Prop51ColorIndex
 90
      256
102
RTVSPost2010Prop51ColorRGB
 90
-16777216
102
RTVSPost2010PropOp51
 70
     0
102
RTVSPost2010Prop52
140
1.0
102
RTVSPost2010PropOp52
 70
     0
102
RTVSPost2010Prop53
 90
        2
102
RTVSPost2010PropOp53
 70
     1
102
RTVSPost2010Prop54
  1
strokes_ogs.tif
102
RTVSPost2010PropOp54
 70
     1
102
RTVSPost2010Prop55
280
     0
102
RTVSPost2010PropOp55
 70
     1
102
RTVSPost2010Prop56
140
1.0
102
RTVSPost2010PropOp56
 70
     1
102
RTVSPost2010Prop57
140
1.0
102
RTVSPost2010PropOp57
 70
     1
  0
XRECORD
  5
114
102
{ACAD_REACTORS
330
113
102
}
330
113
100
AcDbXrecord
280
     1
102
RTVSPost2010Prop28
280
     0
102
RTVSPost2010PropOp28
 70
     1
102
RTVSPost2010Prop29
280
     1
102
RTVSPost2010PropOp29
 70
     1
102
RTVSPost2010Prop30
280
     1
102
RTVSPost2010PropOp30
 70
     1
102
RTVSPost2010Prop31
280
     0
102
RTVSPost2010PropOp31
 70
     1
102
RTVSPost2010Prop32
280
     0
102
RTVSPost2010PropOp32
 70
     1
102
RTVSPost2010Prop33
280
     0
102
RTVSPost2010PropOp33
 70
     1
102
RTVSPost2010Prop34
280
     0
102
RTVSPost2010PropOp34
 70
     1
102
RTVSPost2010Prop35
280
     0
102
RTVSPost2010PropOp35
 70
     1
102
RTVSPost2010Prop36
280
     0
102
RTVSPost2010PropOp36
 70
     1
102
RTVSPost2010Prop37
 90
       50
102
RTVSPost2010PropOp37
 70
     1
102
RTVSPost2010Prop38
140
0.0
102
RTVSPost2010PropOp38
 70
     1
102
RTVSPost2010Prop39
140
1.0
102
RTVSPost2010PropOp39
 70
     1
102
RTVSPost2010Prop40
 90
        0
102
RTVSPost2010PropOp40
 70
     1
102
RTVSPost2010Prop41ColorIndex
 90
       18
102
RTVSPost2010Prop41ColorRGB
 90
        0
102
RTVSPost2010PropOp41
 70
     1
102
RTVSPost2010Prop42
 90
       50
102
RTVSPost2010PropOp42
 70
     1
102
RTVSPost2010Prop43
 90
        3
102
RTVSPost2010PropOp43
 70
     1
102
RTVSPost2010Prop44ColorIndex
 90
        5
102
RTVSPost2010Prop44ColorRGB
 90
      255
102
RTVSPost2010PropOp44
 70
     1
102
RTVSPost2010Prop45
280
     0
102
RTVSPost2010PropOp45
 70
     1
102
RTVSPost2010Prop46
 90
       50
102
RTVSPost2010PropOp46
 70
     1
102
RTVSPost2010Prop47
 90
       50
102
RTVSPost2010PropOp47
 70
     1
102
RTVSPost2010Prop48
 90
       50
102
RTVSPost2010PropOp48
 70
     1
102
RTVSPost2010Prop49
280
     0
102
RTVSPost2010PropOp49
 70
     1
102
RTVSPost2010Prop50
 90
       50
102
RTVSPost2010PropOp50
 70
     1
102
RTVSPost2010Prop51ColorIndex
 90
      256
102
RTVSPost2010Prop51ColorRGB
 90
-16777216
102
RTVSPost2010PropOp51
 70
     0
102
RTVSPost2010Prop52
140
1.0
102
RTVSPost2010PropOp52
 70
     0
102
RTVSPost2010Prop53
 90
        2
102
RTVSPost2010PropOp53
 70
     1
102
RTVSPost2010Prop54
  1
strokes_ogs.tif
102
RTVSPost2010PropOp54
 70
     1
102
RTVSPost2010Prop55
280
     0
102
RTVSPost2010PropOp55
 70
     1
102
RTVSPost2010Prop56
140
1.0
102
RTVSPost2010PropOp56
 70
     1
102
RTVSPost2010Prop57
140
1.0
102
RTVSPost2010PropOp57
 70
     1
  0
XRECORD
  5
12C
102
{ACAD_REACTORS
330
12B
102
}
330
12B
100
AcDbXrecord
280
     1
102
RTVSPost2010Prop28
280
     0
102
RTVSPost2010PropOp28
 70
     1
102
RTVSPost2010Prop29
280
     1
102
RTVSPost2010PropOp29
 70
     1
102
RTVSPost2010Prop30
280
     1
102
RTVSPost2010PropOp30
 70
     1
102
RTVSPost2010Prop31
280
     0
102
RTVSPost2010PropOp31
 70
     1
102
RTVSPost2010Prop32
280
     0
102
RTVSPost2010PropOp32
 70
     1
102
RTVSPost2010Prop33
280
     0
102
RTVSPost2010PropOp33
 70
     1
102
RTVSPost2010Prop34
280
     0
102
RTVSPost2010PropOp34
 70
     1
102
RTVSPost2010Prop35
280
     0
102
RTVSPost2010PropOp35
 70
     1
102
RTVSPost2010Prop36
280
     0
102
RTVSPost2010PropOp36
 70
     1
102
RTVSPost2010Prop37
 90
       50
102
RTVSPost2010PropOp37
 70
     1
102
RTVSPost2010Prop38
140
0.0
102
RTVSPost2010PropOp38
 70
     1
102
RTVSPost2010Prop39
140
1.0
102
RTVSPost2010PropOp39
 70
     1
102
RTVSPost2010Prop40
 90
        0
102
RTVSPost2010PropOp40
 70
     1
102
RTVSPost2010Prop41ColorIndex
 90
       18
102
RTVSPost2010Prop41ColorRGB
 90
        0
102
RTVSPost2010PropOp41
 70
     1
102
RTVSPost2010Prop42
 90
       50
102
RTVSPost2010PropOp42
 70
     1
102
RTVSPost2010Prop43
 90
        3
102
RTVSPost2010PropOp43
 70
     1
102
RTVSPost2010Prop44ColorIndex
 90
        5
102
RTVSPost2010Prop44ColorRGB
 90
      255
102
RTVSPost2010PropOp44
 70
     1
102
RTVSPost2010Prop45
280
     0
102
RTVSPost2010PropOp45
 70
     1
102
RTVSPost2010Prop46
 90
       50
102
RTVSPost2010PropOp46
 70
     1
102
RTVSPost2010Prop47
 90
       50
102
RTVSPost2010PropOp47
 70
     1
102
RTVSPost2010Prop48
 90
       50
102
RTVSPost2010PropOp48
 70
     1
102
RTVSPost2010Prop49
280
     0
102
RTVSPost2010PropOp49
 70
     1
102
RTVSPost2010Prop50
 90
       50
102
RTVSPost2010PropOp50
 70
     1
102
RTVSPost2010Prop51ColorIndex
 90
      256
102
RTVSPost2010Prop51ColorRGB
 90
-16777216
102
RTVSPost2010PropOp51
 70
     0
102
RTVSPost2010Prop52
140
1.0
102
RTVSPost2010PropOp52
 70
     0
102
RTVSPost2010Prop53
 90
        2
102
RTVSPost2010PropOp53
 70
     1
102
RTVSPost2010Prop54
  1
strokes_ogs.tif
102
RTVSPost2010PropOp54
 70
     1
102
RTVSPost2010Prop55
280
     0
102
RTVSPost2010PropOp55
 70
     1
102
RTVSPost2010Prop56
140
1.0
102
RTVSPost2010PropOp56
 70
     1
102
RTVSPost2010Prop57
140
1.0
102
RTVSPost2010PropOp57
 70
     1
  0
ENDSEC
  0
EOF
