  0
SECTION
  2
HEADER
  9
$ACADVER
  1
AC1024
  9
$ACADMAINTVER
 70
   205
  9
$DWGCODEPAGE
  3
ANSI_1251
  9
$INSBASE
 10
0.0
 20
0.0
 30
0.0
  9
$EXTMIN
 10
1.000000000000000E+20
 20
1.000000000000000E+20
 30
1.000000000000000E+20
  9
$EXTMAX
 10
-1.000000000000000E+20
 20
-1.000000000000000E+20
 30
-1.000000000000000E+20
  9
$LIMMIN
 10
0.0
 20
0.0
  9
$LIMMAX
 10
12.0
 20
9.0
  9
$ORTHOMODE
 70
     0
  9
$REGENMODE
 70
     1
  9
$FILLMODE
 70
     1
  9
$QTEXTMODE
 70
     0
  9
$MIRRTEXT
 70
     1
  9
$LTSCALE
 40
1.0
  9
$ATTMODE
 70
     1
  9
$TEXTSIZE
 40
0.2
  9
$TRACEWID
 40
0.05
  9
$TEXTSTYLE
  7
Standard
  9
$CLAYER
  8
OracDecor_decorative_elements
  9
$CELTYPE
  6
ByLayer
  9
$CECOLOR
 62
   256
  9
$CELTSCALE
 40
1.0
  9
$DISPSILH
 70
     0
  9
$DIMSCALE
 40
1.0
  9
$DIMASZ
 40
0.18
  9
$DIMEXO
 40
0.0625
  9
$DIMDLI
 40
0.38
  9
$DIMRND
 40
0.0
  9
$DIMDLE
 40
0.0
  9
$DIMEXE
 40
0.18
  9
$DIMTP
 40
0.0
  9
$DIMTM
 40
0.0
  9
$DIMTXT
 40
0.18
  9
$DIMCEN
 40
0.09
  9
$DIMTSZ
 40
0.0
  9
$DIMTOL
 70
     0
  9
$DIMLIM
 70
     0
  9
$DIMTIH
 70
     1
  9
$DIMTOH
 70
     1
  9
$DIMSE1
 70
     0
  9
$DIMSE2
 70
     0
  9
$DIMTAD
 70
     0
  9
$DIMZIN
 70
     0
  9
$DIMBLK
  1

  9
$DIMASO
 70
     1
  9
$DIMSHO
 70
     1
  9
$DIMPOST
  1

  9
$DIMAPOST
  1

  9
$DIMALT
 70
     0
  9
$DIMALTD
 70
     2
  9
$DIMALTF
 40
25.4
  9
$DIMLFAC
 40
1.0
  9
$DIMTOFL
 70
     0
  9
$DIMTVP
 40
0.0
  9
$DIMTIX
 70
     0
  9
$DIMSOXD
 70
     0
  9
$DIMSAH
 70
     0
  9
$DIMBLK1
  1

  9
$DIMBLK2
  1

  9
$DIMSTYLE
  2
Standard
  9
$DIMCLRD
 70
     0
  9
$DIMCLRE
 70
     0
  9
$DIMCLRT
 70
     0
  9
$DIMTFAC
 40
1.0
  9
$DIMGAP
 40
0.09
  9
$DIMJUST
 70
     0
  9
$DIMSD1
 70
     0
  9
$DIMSD2
 70
     0
  9
$DIMTOLJ
 70
     1
  9
$DIMTZIN
 70
     0
  9
$DIMALTZ
 70
     0
  9
$DIMALTTZ
 70
     0
  9
$DIMUPT
 70
     0
  9
$DIMDEC
 70
     4
  9
$DIMTDEC
 70
     4
  9
$DIMALTU
 70
     2
  9
$DIMALTTD
 70
     2
  9
$DIMTXSTY
  7
Standard
  9
$DIMAUNIT
 70
     0
  9
$DIMADEC
 70
     0
  9
$DIMALTRND
 40
0.0
  9
$DIMAZIN
 70
     0
  9
$DIMDSEP
 70
    46
  9
$DIMATFIT
 70
     3
  9
$DIMFRAC
 70
     0
  9
$DIMLDRBLK
  1

  9
$DIMLUNIT
 70
     2
  9
$DIMLWD
 70
    -2
  9
$DIMLWE
 70
    -2
  9
$DIMTMOVE
 70
     0
  9
$DIMFXL
 40
1.0
  9
$DIMFXLON
 70
     0
  9
$DIMJOGANG
 40
0.7853981633974483
  9
$DIMTFILL
 70
     0
  9
$DIMTFILLCLR
 70
     0
  9
$DIMARCSYM
 70
     0
  9
$DIMLTYPE
  6

  9
$DIMLTEX1
  6

  9
$DIMLTEX2
  6

  9
$DIMTXTDIRECTION
 70
     0
  9
$LUNITS
 70
     2
  9
$LUPREC
 70
     4
  9
$SKETCHINC
 40
0.1
  9
$FILLETRAD
 40
0.5
  9
$AUNITS
 70
     0
  9
$AUPREC
 70
     0
  9
$MENU
  1
.
  9
$ELEVATION
 40
0.0
  9
$PELEVATION
 40
0.0
  9
$THICKNESS
 40
0.0
  9
$LIMCHECK
 70
     0
  9
$CHAMFERA
 40
0.5
  9
$CHAMFERB
 40
0.5
  9
$CHAMFERC
 40
1.0
  9
$CHAMFERD
 40
0.0
  9
$SKPOLY
 70
     0
  9
$TDCREATE
 40
2451380.930432396
  9
$TDUCREATE
 40
2451380.805432396
  9
$TDUPDATE
 40
2451380.966180555
  9
$TDUUPDATE
 40
2451380.841180556
  9
$TDINDWG
 40
0.0075613079
  9
$TDUSRTIMER
 40
0.0075522685
  9
$USRTIMER
 70
     1
  9
$ANGBASE
 50
0.0
  9
$ANGDIR
 70
     0
  9
$PDMODE
 70
     0
  9
$PDSIZE
 40
0.0
  9
$PLINEWID
 40
0.0
  9
$SPLFRAME
 70
     0
  9
$SPLINETYPE
 70
     6
  9
$SPLINESEGS
 70
     8
  9
$HANDSEED
  5
13D
  9
$SURFTAB1
 70
     6
  9
$SURFTAB2
 70
     6
  9
$SURFTYPE
 70
     6
  9
$SURFU
 70
     6
  9
$SURFV
 70
     6
  9
$UCSBASE
  2

  9
$UCSNAME
  2

  9
$UCSORG
 10
0.0
 20
0.0
 30
0.0
  9
$UCSXDIR
 10
1.0
 20
0.0
 30
0.0
  9
$UCSYDIR
 10
0.0
 20
1.0
 30
0.0
  9
$UCSORTHOREF
  2

  9
$UCSORTHOVIEW
 70
     0
  9
$UCSORGTOP
 10
0.0
 20
0.0
 30
0.0
  9
$UCSORGBOTTOM
 10
0.0
 20
0.0
 30
0.0
  9
$UCSORGLEFT
 10
0.0
 20
0.0
 30
0.0
  9
$UCSORGRIGHT
 10
0.0
 20
0.0
 30
0.0
  9
$UCSORGFRONT
 10
0.0
 20
0.0
 30
0.0
  9
$UCSORGBACK
 10
0.0
 20
0.0
 30
0.0
  9
$PUCSBASE
  2

  9
$PUCSNAME
  2

  9
$PUCSORG
 10
0.0
 20
0.0
 30
0.0
  9
$PUCSXDIR
 10
1.0
 20
0.0
 30
0.0
  9
$PUCSYDIR
 10
0.0
 20
1.0
 30
0.0
  9
$PUCSORTHOREF
  2

  9
$PUCSORTHOVIEW
 70
     0
  9
$PUCSORGTOP
 10
0.0
 20
0.0
 30
0.0
  9
$PUCSORGBOTTOM
 10
0.0
 20
0.0
 30
0.0
  9
$PUCSORGLEFT
 10
0.0
 20
0.0
 30
0.0
  9
$PUCSORGRIGHT
 10
0.0
 20
0.0
 30
0.0
  9
$PUCSORGFRONT
 10
0.0
 20
0.0
 30
0.0
  9
$PUCSORGBACK
 10
0.0
 20
0.0
 30
0.0
  9
$USERI1
 70
     0
  9
$USERI2
 70
     0
  9
$USERI3
 70
     0
  9
$USERI4
 70
     0
  9
$USERI5
 70
     0
  9
$USERR1
 40
0.0
  9
$USERR2
 40
0.0
  9
$USERR3
 40
0.0
  9
$USERR4
 40
0.0
  9
$USERR5
 40
0.0
  9
$WORLDVIEW
 70
     1
  9
$SHADEDGE
 70
     3
  9
$SHADEDIF
 70
    70
  9
$TILEMODE
 70
     1
  9
$MAXACTVP
 70
    64
  9
$PINSBASE
 10
0.0
 20
0.0
 30
0.0
  9
$PLIMCHECK
 70
     0
  9
$PEXTMIN
 10
1.000000000000000E+20
 20
1.000000000000000E+20
 30
1.000000000000000E+20
  9
$PEXTMAX
 10
-1.000000000000000E+20
 20
-1.000000000000000E+20
 30
-1.000000000000000E+20
  9
$PLIMMIN
 10
0.0
 20
0.0
  9
$PLIMMAX
 10
12.0
 20
9.0
  9
$UNITMODE
 70
     0
  9
$VISRETAIN
 70
     1
  9
$PLINEGEN
 70
     0
  9
$PSLTSCALE
 70
     1
  9
$TREEDEPTH
 70
  3020
  9
$CMLSTYLE
  2
Standard
  9
$CMLJUST
 70
     0
  9
$CMLSCALE
 40
1.0
  9
$PROXYGRAPHICS
 70
     1
  9
$MEASUREMENT
 70
     1
  9
$CELWEIGHT
370
    -1
  9
$ENDCAPS
280
     0
  9
$JOINSTYLE
280
     0
  9
$LWDISPLAY
290
     0
  9
$INSUNITS
 70
     4
  9
$HYPERLINKBASE
  1

  9
$STYLESHEET
  1

  9
$XEDIT
290
     1
  9
$CEPSNTYPE
380
     0
  9
$PSTYLEMODE
290
     1
  9
$FINGERPRINTGUID
  2
{12F50282-3ED8-11D3-A8B7-0060B0F84BC6}
  9
$VERSIONGUID
  2
{12F50293-3ED8-11D3-A8B7-0060B0F84BC6}
  9
$EXTNAMES
290
     1
  9
$PSVPSCALE
 40
0.0
  9
$OLESTARTUP
290
     0
  9
$SORTENTS
280
   127
  9
$INDEXCTL
280
     0
  9
$HIDETEXT
280
     0
  9
$XCLIPFRAME
280
     2
  9
$HALOGAP
280
     0
  9
$OBSCOLOR
 70
   257
  9
$OBSLTYPE
280
     0
  9
$INTERSECTIONDISPLAY
280
     0
  9
$INTERSECTIONCOLOR
 70
   257
  9
$DIMASSOC
280
     1
  9
$PROJECTNAME
  1

  9
$CAMERADISPLAY
290
     0
  9
$LENSLENGTH
 40
50.0
  9
$CAMERAHEIGHT
 40
0.0
  9
$STEPSPERSEC
 40
2.0
  9
$STEPSIZE
 40
6.0
  9
$3DDWFPREC
 40
2.0
  9
$PSOLWIDTH
 40
0.25
  9
$PSOLHEIGHT
 40
4.0
  9
$LOFTANG1
 40
1.570796326794896
  9
$LOFTANG2
 40
1.570796326794896
  9
$LOFTMAG1
 40
0.0
  9
$LOFTMAG2
 40
0.0
  9
$LOFTPARAM
 70
     7
  9
$LOFTNORMALS
280
     1
  9
$LATITUDE
 40
37.795
  9
$LONGITUDE
 40
-122.394
  9
$NORTHDIRECTION
 40
0.0
  9
$TIMEZONE
 70
 -8000
  9
$LIGHTGLYPHDISPLAY
280
     1
  9
$TILEMODELIGHTSYNCH
280
     1
  9
$CMATERIAL
347
AB
  9
$SOLIDHIST
280
     0
  9
$SHOWHIST
280
     1
  9
$DWFFRAME
280
     2
  9
$DGNFRAME
280
     0
  9
$REALWORLDSCALE
290
     1
  9
$INTERFERECOLOR
 62
     1
  9
$INTERFEREOBJVS
345
CD
  9
$INTERFEREVPVS
346
CA
  9
$CSHADOW
280
     0
  9
$SHADOWPLANELOCATION
 40
0.0
  0
ENDSEC
  0
SECTION
  2
CLASSES
  0
CLASS
  1
ACDBDICTIONARYWDFLT
  2
AcDbDictionaryWithDefault
  3
ObjectDBX Classes
 90
        0
 91
        1
280
     0
281
     0
  0
CLASS
  1
ACDBPLACEHOLDER
  2
AcDbPlaceHolder
  3
ObjectDBX Classes
 90
        0
 91
        2
280
     0
281
     0
  0
CLASS
  1
LAYOUT
  2
AcDbLayout
  3
ObjectDBX Classes
 90
        0
 91
        3
280
     0
281
     0
  0
CLASS
  1
MATERIAL
  2
AcDbMaterial
  3
ObjectDBX Classes
 90
     1153
 91
        3
280
     0
281
     0
  0
CLASS
  1
VISUALSTYLE
  2
AcDbVisualStyle
  3
ObjectDBX Classes
 90
     4095
 91
       24
280
     0
281
     0
  0
CLASS
  1
TABLESTYLE
  2
AcDbTableStyle
  3
ObjectDBX Classes
 90
     4095
 91
        1
280
     0
281
     0
  0
CLASS
  1
SCALE
  2
AcDbScale
  3
ObjectDBX Classes
 90
     1153
 91
       17
280
     0
281
     0
  0
CLASS
  1
MLEADERSTYLE
  2
AcDbMLeaderStyle
  3
ACDB_MLEADERSTYLE_CLASS
 90
     4095
 91
        1
280
     0
281
     0
  0
CLASS
  1
ACDBSECTIONVIEWSTYLE
  2
AcDbSectionViewStyle
  3
ObjectDBX Classes
 90
     1025
 91
        1
280
     0
281
     0
  0
CLASS
  1
ACDBDETAILVIEWSTYLE
  2
AcDbDetailViewStyle
  3
ObjectDBX Classes
 90
     1025
 91
        1
280
     0
281
     0
  0
CLASS
  1
MESH
  2
AcDbSubDMesh
  3
ObjectDBX Classes
 90
        0
 91
        1
280
     0
281
     1
  0
CLASS
  1
DICTIONARYVAR
  2
AcDbDictionaryVar
  3
ObjectDBX Classes
 90
        0
 91
        9
280
     0
281
     0
  0
CLASS
  1
CELLSTYLEMAP
  2
AcDbCellStyleMap
  3
ObjectDBX Classes
 90
     1152
 91
        1
280
     0
281
     0
  0
ENDSEC
  0
SECTION
  2
TABLES
  0
TABLE
  2
VPORT
  5
8
330
0
100
AcDbSymbolTable
 70
     1
  0
VPORT
  5
A8
330
8
100
AcDbSymbolTableRecord
100
AcDbViewportTableRecord
  2
*Active
 70
     0
 10
0.0
 20
0.0
 11
1.0
 21
1.0
 12
14.49570655822754
 22
212.4934539794922
 13
0.0
 23
0.0
 14
0.5
 24
0.5
 15
0.5
 25
0.5
 16
-1.0
 26
-1.0
 36
1.0
 17
0.0
 27
0.0
 37
0.0
 40
654.0004878014838
 41
0.2992684930389191
 42
50.0
 43
0.0
 44
0.0
 50
0.0
 51
0.0
 71
     0
 72
   100
 73
     1
 74
     3
 75
     0
 76
     0
 77
     0
 78
     0
281
     0
 65
     1
110
0.0
120
0.0
130
0.0
111
1.0
121
0.0
131
0.0
112
0.0
122
1.0
132
0.0
 79
     0
146
0.0
348
C9
 60
     3
 61
     5
292
     1
282
     1
141
0.0
142
0.0
 63
   250
421
  3355443
  0
ENDTAB
  0
TABLE
  2
LTYPE
  5
5
330
0
100
AcDbSymbolTable
 70
     1
  0
LTYPE
  5
14
330
5
100
AcDbSymbolTableRecord
100
AcDbLinetypeTableRecord
  2
ByBlock
 70
     0
  3

 72
    65
 73
     0
 40
0.0
  0
LTYPE
  5
15
330
5
100
AcDbSymbolTableRecord
100
AcDbLinetypeTableRecord
  2
ByLayer
 70
     0
  3

 72
    65
 73
     0
 40
0.0
  0
LTYPE
  5
16
330
5
100
AcDbSymbolTableRecord
100
AcDbLinetypeTableRecord
  2
Continuous
 70
     0
  3
Solid line
 72
    65
 73
     0
 40
0.0
  0
ENDTAB
  0
TABLE
  2
LAYER
  5
2
330
0
100
AcDbSymbolTable
 70
     3
  0
LAYER
  5
10
330
2
100
AcDbSymbolTableRecord
100
AcDbLayerTableRecord
  2
0
 70
     0
 62
     7
  6
Continuous
370
    -3
390
F
347
BB
  0
LAYER
  5
2B
330
2
100
AcDbSymbolTableRecord
100
AcDbLayerTableRecord
  2
ASHADE
 70
     4
 62
     7
  6
Continuous
370
    -3
390
2D
347
BB
  0
LAYER
  5
F8
330
2
100
AcDbSymbolTableRecord
100
AcDbLayerTableRecord
  2
OracDecor_decorative_elements
 70
     0
 62
    53
420
 13033815
  6
Continuous
370
    -3
390
F
347
BB
  0
ENDTAB
  0
TABLE
  2
STYLE
  5
3
330
0
100
AcDbSymbolTable
 70
     2
  0
STYLE
  5
11
330
3
100
AcDbSymbolTableRecord
100
AcDbTextStyleTableRecord
  2
Standard
 70
     0
 40
0.0
 41
1.0
 50
0.0
 71
     0
 42
0.2
  3
txt
  4

  0
STYLE
  5
2C
330
3
100
AcDbSymbolTableRecord
100
AcDbTextStyleTableRecord
  2
ASHADE
 70
     0
 40
0.2
 41
1.0
 50
0.0
 71
     0
 42
0.2
  3
simplex
  4

  0
ENDTAB
  0
TABLE
  2
VIEW
  5
6
330
0
100
AcDbSymbolTable
 70
     0
  0
ENDTAB
  0
TABLE
  2
UCS
  5
7
330
0
100
AcDbSymbolTable
 70
     0
  0
ENDTAB
  0
TABLE
  2
APPID
  5
9
330
0
100
AcDbSymbolTable
 70
     6
  0
APPID
  5
12
330
9
100
AcDbSymbolTableRecord
100
AcDbRegAppTableRecord
  2
ACAD
 70
     0
  0
APPID
  5
8F
330
9
100
AcDbSymbolTableRecord
100
AcDbRegAppTableRecord
  2
AVE_RENDER
 70
     0
  0
APPID
  5
90
330
9
100
AcDbSymbolTableRecord
100
AcDbRegAppTableRecord
  2
AVE_ENTITY_MATERIAL
 70
     0
  0
APPID
  5
9C
330
9
100
AcDbSymbolTableRecord
100
AcDbRegAppTableRecord
  2
AVE_FINISH
 70
     0
  0
APPID
  5
9D
330
9
100
AcDbSymbolTableRecord
100
AcDbRegAppTableRecord
  2
AVE_MATERIAL
 70
     0
  0
APPID
  5
9E
330
9
100
AcDbSymbolTableRecord
100
AcDbRegAppTableRecord
  2
AVE_GLOBAL
 70
     0
  0
ENDTAB
  0
TABLE
  2
DIMSTYLE
  5
A
330
0
100
AcDbSymbolTable
 70
     1
100
AcDbDimStyleTable
 71
     0
  0
DIMSTYLE
105
27
330
A
100
AcDbSymbolTableRecord
100
AcDbDimStyleTableRecord
  2
Standard
 70
     0
340
11
  0
ENDTAB
  0
TABLE
  2
BLOCK_RECORD
  5
1
330
0
100
AcDbSymbolTable
 70
     6
  0
BLOCK_RECORD
  5
1F
330
1
100
AcDbSymbolTableRecord
100
AcDbBlockTableRecord
  2
*Model_Space
340
22
 70
     0
280
     1
281
     0
  0
BLOCK_RECORD
  5
1B
330
1
100
AcDbSymbolTableRecord
100
AcDbBlockTableRecord
  2
*Paper_Space
340
1E
 70
     0
280
     1
281
     0
  0
BLOCK_RECORD
  5
23
330
1
100
AcDbSymbolTableRecord
100
AcDbBlockTableRecord
  2
*Paper_Space0
340
26
 70
     0
280
     1
281
     0
  0
BLOCK_RECORD
  5
2E
330
1
100
AcDbSymbolTableRecord
100
AcDbBlockTableRecord
  2
direct
340
0
 70
     0
280
     1
281
     0
  0
BLOCK_RECORD
  5
42
330
1
100
AcDbSymbolTableRecord
100
AcDbBlockTableRecord
  2
overhead
340
0
 70
     0
280
     1
281
     0
  0
BLOCK_RECORD
  5
5F
330
1
100
AcDbSymbolTableRecord
100
AcDbBlockTableRecord
  2
sh_spot
340
0
 70
     0
280
     1
281
     0
  0
BLOCK_RECORD
  5
91
330
1
100
AcDbSymbolTableRecord
100
AcDbBlockTableRecord
  2
AVE_RENDER
340
0
102
{BLKREFS
331
94
331
95
331
96
331
97
331
98
331
99
331
9A
331
9B
102
}
 70
     0
280
     1
281
     0
  0
BLOCK_RECORD
  5
9F
330
1
100
AcDbSymbolTableRecord
100
AcDbBlockTableRecord
  2
AVE_GLOBAL
340
0
102
{BLKREFS
331
A2
102
}
 70
     0
280
     1
281
     0
  0
ENDTAB
  0
ENDSEC
  0
SECTION
  2
BLOCKS
  0
BLOCK
  5
20
330
1F
100
AcDbEntity
  8
0
100
AcDbBlockBegin
  2
*Model_Space
 70
     0
 10
0.0
 20
0.0
 30
0.0
  3
*Model_Space
  1

  0
ENDBLK
  5
21
330
1F
100
AcDbEntity
  8
0
100
AcDbBlockEnd
  0
BLOCK
  5
1C
330
1B
100
AcDbEntity
 67
     1
  8
0
100
AcDbBlockBegin
  2
*Paper_Space
 70
     0
 10
0.0
 20
0.0
 30
0.0
  3
*Paper_Space
  1

  0
ENDBLK
  5
1D
330
1B
100
AcDbEntity
 67
     1
  8
0
100
AcDbBlockEnd
  0
BLOCK
  5
24
330
23
100
AcDbEntity
 67
     1
  8
0
100
AcDbBlockBegin
  2
*Paper_Space0
 70
     0
 10
0.0
 20
0.0
 30
0.0
  3
*Paper_Space0
  1

  0
ENDBLK
  5
25
330
23
100
AcDbEntity
 67
     1
  8
0
100
AcDbBlockEnd
  0
BLOCK
  5
40
330
2E
100
AcDbEntity
  8
0
100
AcDbBlockBegin
  2
direct
 70
     2
 10
0.0
 20
0.0
 30
0.0
  3
direct
  1

  0
ATTDEF
  5
2F
330
2E
100
AcDbEntity
  8
ASHADE
  6
Continuous
 62
     1
100
AcDbText
 10
0.0
 20
-0.1
 30
0.0
 40
0.2
  1

  7
ASHADE
 72
     1
 11
0.0
 21
-0.1
 31
0.0
100
AcDbAttributeDefinition
280
     0
  3
Light Name
  2
SNAME
 70
     0
280
     0
  0
ARC
  5
30
330
2E
100
AcDbEntity
  8
ASHADE
  6
Continuous
 62
     7
100
AcDbCircle
 10
0.0
 20
0.0
 30
0.0
 40
0.3
100
AcDbArc
 50
205.6792886194569
 51
334.3207113805431
  0
ARC
  5
31
330
2E
100
AcDbEntity
  8
ASHADE
  6
Continuous
 62
     7
100
AcDbCircle
 10
0.0
 20
0.0
 30
0.0
 40
0.3
100
AcDbArc
 50
25.67928861945685
 51
154.3207113805431
  0
LINE
  5
32
330
2E
100
AcDbEntity
  8
ASHADE
  6
Continuous
 62
     7
100
AcDbLine
 10
-0.21
 20
0.2142428528562855
 30
0.0
 11
-0.21
 21
0.5
 31
0.0
  0
LINE
  5
33
330
2E
100
AcDbEntity
  8
ASHADE
  6
Continuous
 62
     7
100
AcDbLine
 10
-0.11
 20
0.2791057147390572
 30
0.0
 11
-0.11
 21
0.5
 31
0.0
  0
LINE
  5
34
330
2E
100
AcDbEntity
  8
ASHADE
  6
Continuous
 62
     7
100
AcDbLine
 10
0.21
 20
0.2142428528562855
 30
0.0
 11
0.21
 21
0.5
 31
0.0
  0
ATTDEF
  5
35
330
2E
100
AcDbEntity
  8
ASHADE
  6
Continuous
 62
     7
100
AcDbText
 10
0.0
 20
0.25
 30
0.0
 40
0.01
  1

100
AcDbAttributeDefinition
280
     0
  3
Look-at Y
  2
LAY
 70
     1
280
     0
  0
ATTDEF
  5
36
330
2E
100
AcDbEntity
  8
ASHADE
  6
Continuous
 62
     7
100
AcDbText
 10
0.0
 20
0.22
 30
0.0
 40
0.01
  1
1
100
AcDbAttributeDefinition
280
     0
  3
Light Intensity
  2
INTENSITY
 70
     1
280
     0
  0
ATTDEF
  5
37
330
2E
100
AcDbEntity
  8
ASHADE
  6
Continuous
 62
     7
100
AcDbText
 10
0.0
 20
0.16
 30
0.0
 40
0.01
  1
-1
100
AcDbAttributeDefinition
280
     0
  3
*not used*
  2
BEAMD
 70
     1
280
     0
  0
ATTDEF
  5
38
330
2E
100
AcDbEntity
  8
ASHADE
  6
Continuous
 62
     7
100
AcDbText
 10
0.0
 20
0.175
 30
0.0
 40
0.01
  1
-1
100
AcDbAttributeDefinition
280
     0
  3
*not used*
  2
CONED
 70
     1
280
     0
  0
ATTDEF
  5
39
330
2E
100
AcDbEntity
  8
ASHADE
  6
Continuous
 62
     7
100
AcDbText
 10
0.0
 20
0.19
 30
0.0
 40
0.01
  1
0
100
AcDbAttributeDefinition
280
     0
  3
Depth Map Size
  2
CONEA
 70
     1
280
     0
  0
ATTDEF
  5
3A
330
2E
100
AcDbEntity
  8
ASHADE
  6
Continuous
 62
     7
100
AcDbText
 10
0.0
 20
0.2050000000000001
 30
0.0
 40
0.01
  1
1,1,1
100
AcDbAttributeDefinition
280
     0
  3
Light Color (RGB)
  2
COLOR
 70
     1
280
     0
  0
ATTDEF
  5
3B
330
2E
100
AcDbEntity
  8
ASHADE
  6
Continuous
 62
     7
100
AcDbText
 10
0.0
 20
0.235
 30
0.0
 40
0.01
  1

100
AcDbAttributeDefinition
280
     0
  3
Look-at Z
  2
LAZ
 70
     1
280
     0
  0
LINE
  5
3C
330
2E
100
AcDbEntity
  8
ASHADE
  6
Continuous
 62
     7
100
AcDbLine
 10
0.0
 20
0.3
 30
0.0
 11
0.0
 21
0.5
 31
0.0
  0
LINE
  5
3D
330
2E
100
AcDbEntity
  8
ASHADE
  6
Continuous
 62
     7
100
AcDbLine
 10
0.11
 20
0.2791057147390572
 30
0.0
 11
0.11
 21
0.5
 31
0.0
  0
ATTDEF
  5
3E
330
2E
100
AcDbEntity
  8
ASHADE
  6
Continuous
 62
     7
100
AcDbText
 10
0.0
 20
0.265
 30
0.0
 40
0.01
  1

100
AcDbAttributeDefinition
280
     0
  3
Look-at X
  2
LAX
 70
     1
280
     0
  0
ATTDEF
  5
3F
330
2E
100
AcDbEntity
  8
ASHADE
  6
Continuous
 62
     7
100
AcDbText
 10
0.0
 20
0.28
 30
0.0
 40
0.01
  1

100
AcDbAttributeDefinition
280
     0
  3

  2
GNAME
 70
     1
280
     0
  0
ENDBLK
  5
41
330
2E
100
AcDbEntity
  8
0
100
AcDbBlockEnd
  0
BLOCK
  5
5D
330
42
100
AcDbEntity
  8
0
100
AcDbBlockBegin
  2
overhead
 70
     2
 10
0.0
 20
0.0
 30
0.0
  3
overhead
  1

  0
ATTDEF
  5
43
330
42
100
AcDbEntity
  8
ASHADE
  6
Continuous
 62
     1
100
AcDbText
 10
0.0
 20
-0.1
 30
0.0
 40
0.2
  1

  7
ASHADE
 72
     1
 11
0.0
 21
-0.1
 31
0.0
100
AcDbAttributeDefinition
280
     0
  3
Light Name
  2
SNAME
 70
     0
280
     0
  0
ARC
  5
44
330
42
100
AcDbEntity
  8
ASHADE
  6
Continuous
 62
     7
100
AcDbCircle
 10
0.0
 20
0.0
 30
0.0
 40
0.3
100
AcDbArc
 50
205.6792886194569
 51
334.3207113805431
  0
LINE
  5
45
330
42
100
AcDbEntity
  8
ASHADE
  6
Continuous
 62
     7
100
AcDbLine
 10
-0.2041413561583015
 20
-0.2198324514393848
 30
0.0
 11
-0.2721884748777353
 21
-0.2931099352525131
 31
0.0
  0
LINE
  5
46
330
42
100
AcDbEntity
  8
ASHADE
  6
Continuous
 62
     7
100
AcDbLine
 10
-0.1096591641591904
 20
-0.2792398032442862
 30
0.0
 11
-0.1279356915190555
 21
-0.3257797704516673
 31
0.0
  0
LINE
  5
47
330
42
100
AcDbEntity
  8
ASHADE
  6
Continuous
 62
     7
100
AcDbLine
 10
0.0
 20
-0.2999999999999999
 30
0.0
 11
0.0
 21
-0.4
 31
0.0
  0
LINE
  5
48
330
42
100
AcDbEntity
  8
ASHADE
  6
Continuous
 62
     7
100
AcDbLine
 10
0.1096591641591904
 20
-0.2792398032442862
 30
0.0
 11
0.1279356915190555
 21
-0.3257797704516673
 31
0.0
  0
LINE
  5
49
330
42
100
AcDbEntity
  8
ASHADE
  6
Continuous
 62
     7
100
AcDbLine
 10
0.2041413561583015
 20
-0.2198324514393848
 30
0.0
 11
0.2721884748777353
 21
-0.2931099352525131
 31
0.0
  0
ARC
  5
4A
330
42
100
AcDbEntity
  8
ASHADE
  6
Continuous
 62
     7
100
AcDbCircle
 10
0.0
 20
0.0
 30
0.0
 40
0.3
100
AcDbArc
 50
25.67928861945685
 51
154.3207113805431
  0
LINE
  5
4B
330
42
100
AcDbEntity
  8
ASHADE
  6
Continuous
 62
     7
100
AcDbLine
 10
-0.2703701166919155
 20
0.13
 30
0.0
 11
-0.3154318028072347
 21
0.1516666666666666
 31
0.0
  0
LINE
  5
4C
330
42
100
AcDbEntity
  8
ASHADE
  6
Continuous
 62
     7
100
AcDbLine
 10
-0.2703701166919155
 20
-0.13
 30
0.0
 11
-0.3154318028072347
 21
-0.1516666666666666
 31
0.0
  0
LINE
  5
4D
330
42
100
AcDbEntity
  8
ASHADE
  6
Continuous
 62
     7
100
AcDbLine
 10
-0.2041413561583015
 20
0.2198324514393849
 30
0.0
 11
-0.2721884748777353
 21
0.2931099352525131
 31
0.0
  0
LINE
  5
4E
330
42
100
AcDbEntity
  8
ASHADE
  6
Continuous
 62
     7
100
AcDbLine
 10
-0.1096591641591904
 20
0.2792398032442862
 30
0.0
 11
-0.1279356915190555
 21
0.3257797704516674
 31
0.0
  0
LINE
  5
4F
330
42
100
AcDbEntity
  8
ASHADE
  6
Continuous
 62
     7
100
AcDbLine
 10
0.2703701166919155
 20
-0.13
 30
0.0
 11
0.3154318028072347
 21
-0.1516666666666666
 31
0.0
  0
LINE
  5
50
330
42
100
AcDbEntity
  8
ASHADE
  6
Continuous
 62
     7
100
AcDbLine
 10
0.2703701166919155
 20
0.13
 30
0.0
 11
0.3154318028072347
 21
0.1516666666666666
 31
0.0
  0
LINE
  5
51
330
42
100
AcDbEntity
  8
ASHADE
  6
Continuous
 62
     7
100
AcDbLine
 10
0.0
 20
0.3
 30
0.0
 11
0.0
 21
0.4
 31
0.0
  0
ATTDEF
  5
52
330
42
100
AcDbEntity
  8
ASHADE
  6
Continuous
 62
     7
100
AcDbText
 10
0.0
 20
0.22
 30
0.0
 40
0.01
  1
1
100
AcDbAttributeDefinition
280
     0
  3
Light Intensity
  2
INTENSITY
 70
     1
280
     0
  0
ATTDEF
  5
53
330
42
100
AcDbEntity
  8
ASHADE
  6
Continuous
 62
     7
100
AcDbText
 10
0.0
 20
0.16
 30
0.0
 40
0.01
  1
-1
100
AcDbAttributeDefinition
280
     0
  3
*not used*
  2
BEAMD
 70
     1
280
     0
  0
ATTDEF
  5
54
330
42
100
AcDbEntity
  8
ASHADE
  6
Continuous
 62
     7
100
AcDbText
 10
0.0
 20
0.175
 30
0.0
 40
0.01
  1
-1
100
AcDbAttributeDefinition
280
     0
  3
*not used*
  2
CONED
 70
     1
280
     0
  0
ATTDEF
  5
55
330
42
100
AcDbEntity
  8
ASHADE
  6
Continuous
 62
     7
100
AcDbText
 10
0.0
 20
0.19
 30
0.0
 40
0.01
  1
0
100
AcDbAttributeDefinition
280
     0
  3
Depth Map Size
  2
CONEA
 70
     1
280
     0
  0
ATTDEF
  5
56
330
42
100
AcDbEntity
  8
ASHADE
  6
Continuous
 62
     7
100
AcDbText
 10
0.0
 20
0.2050000000000001
 30
0.0
 40
0.01
  1
1,1,1
100
AcDbAttributeDefinition
280
     0
  3
Light Color (RGB)
  2
COLOR
 70
     1
280
     0
  0
ATTDEF
  5
57
330
42
100
AcDbEntity
  8
ASHADE
  6
Continuous
 62
     7
100
AcDbText
 10
0.0
 20
0.235
 30
0.0
 40
0.01
  1

100
AcDbAttributeDefinition
280
     0
  3
Look-at Z
  2
LAZ
 70
     1
280
     0
  0
ATTDEF
  5
58
330
42
100
AcDbEntity
  8
ASHADE
  6
Continuous
 62
     7
100
AcDbText
 10
0.0
 20
0.25
 30
0.0
 40
0.01
  1

100
AcDbAttributeDefinition
280
     0
  3
Look-at Y
  2
LAY
 70
     1
280
     0
  0
ATTDEF
  5
59
330
42
100
AcDbEntity
  8
ASHADE
  6
Continuous
 62
     7
100
AcDbText
 10
0.0
 20
0.265
 30
0.0
 40
0.01
  1

100
AcDbAttributeDefinition
280
     0
  3
Look-at X
  2
LAX
 70
     1
280
     0
  0
ATTDEF
  5
5A
330
42
100
AcDbEntity
  8
ASHADE
  6
Continuous
 62
     7
100
AcDbText
 10
0.0
 20
0.28
 30
0.0
 40
0.01
  1

100
AcDbAttributeDefinition
280
     0
  3

  2
GNAME
 70
     1
280
     0
  0
LINE
  5
5B
330
42
100
AcDbEntity
  8
ASHADE
  6
Continuous
 62
     7
100
AcDbLine
 10
0.1096591641591904
 20
0.2792398032442862
 30
0.0
 11
0.1279356915190555
 21
0.3257797704516674
 31
0.0
  0
LINE
  5
5C
330
42
100
AcDbEntity
  8
ASHADE
  6
Continuous
 62
     7
100
AcDbLine
 10
0.2041413561583015
 20
0.2198324514393849
 30
0.0
 11
0.2721884748777353
 21
0.2931099352525131
 31
0.0
  0
ENDBLK
  5
5E
330
42
100
AcDbEntity
  8
0
100
AcDbBlockEnd
  0
BLOCK
  5
85
330
5F
100
AcDbEntity
  8
0
100
AcDbBlockBegin
  2
sh_spot
 70
     2
 10
0.0
 20
0.0
 30
0.0
  3
sh_spot
  1

  0
LINE
  5
60
330
5F
100
AcDbEntity
  8
ASHADE
  6
Continuous
 62
     7
100
AcDbLine
 10
0.25
 20
0.26
 30
0.0
 11
-0.25
 21
0.26
 31
0.0
  0
LINE
  5
61
330
5F
100
AcDbEntity
  8
ASHADE
  6
Continuous
 62
     7
100
AcDbLine
 10
-0.25
 20
-0.3399999999999999
 30
0.0
 11
0.25
 21
-0.3399999999999999
 31
0.0
  0
ATTDEF
  5
62
330
5F
100
AcDbEntity
  8
ASHADE
  6
Continuous
 62
     1
100
AcDbText
 10
0.0
 20
-0.1
 30
0.0
 40
0.2
  1

  7
ASHADE
 72
     1
 11
0.0
 21
-0.1
 31
0.0
100
AcDbAttributeDefinition
280
     0
  3
Light Name
  2
SNAME
 70
     0
280
     0
  0
LINE
  5
63
330
5F
100
AcDbEntity
  8
ASHADE
  6
Continuous
 62
     7
100
AcDbLine
 10
-0.25
 20
-0.13
 30
0.0
 11
-0.25
 21
-0.3399999999999999
 31
0.0
  0
LINE
  5
64
330
5F
100
AcDbEntity
  8
ASHADE
  6
Continuous
 62
     7
100
AcDbLine
 10
-0.25
 20
-0.18
 30
0.0
 11
-0.29
 21
-0.18
 31
0.0
  0
LINE
  5
65
330
5F
100
AcDbEntity
  8
ASHADE
  6
Continuous
 62
     7
100
AcDbLine
 10
-0.29
 20
-0.22
 30
0.0
 11
-0.25
 21
-0.22
 31
0.0
  0
LINE
  5
66
330
5F
100
AcDbEntity
  8
ASHADE
  6
Continuous
 62
     7
100
AcDbLine
 10
-0.29
 20
-0.18
 30
0.0
 11
-0.29
 21
-0.22
 31
0.0
  0
LINE
  5
67
330
5F
100
AcDbEntity
  8
ASHADE
  6
Continuous
 62
     7
100
AcDbLine
 10
-0.1045454545454545
 20
0.26
 30
0.0
 11
-0.15
 21
0.46
 31
0.0
  0
LINE
  5
68
330
5F
100
AcDbEntity
  8
ASHADE
  6
Continuous
 62
     7
100
AcDbLine
 10
-0.21
 20
0.26
 30
0.0
 11
-0.301304347826087
 21
0.46
 31
0.0
  0
LINE
  5
69
330
5F
100
AcDbEntity
  8
ASHADE
  6
Continuous
 62
     7
100
AcDbLine
 10
-0.25
 20
0.26
 30
0.0
 11
-0.25
 21
0.13
 31
0.0
  0
LINE
  5
6A
330
5F
100
AcDbEntity
  8
ASHADE
  6
Continuous
 62
     7
100
AcDbLine
 10
-0.25
 20
0.22
 30
0.0
 11
-0.29
 21
0.22
 31
0.0
  0
LINE
  5
6B
330
5F
100
AcDbEntity
  8
ASHADE
  6
Continuous
 62
     7
100
AcDbLine
 10
-0.29
 20
0.1799999999999999
 30
0.0
 11
-0.25
 21
0.1799999999999999
 31
0.0
  0
LINE
  5
6C
330
5F
100
AcDbEntity
  8
ASHADE
  6
Continuous
 62
     7
100
AcDbLine
 10
-0.29
 20
0.22
 30
0.0
 11
-0.29
 21
0.1799999999999999
 31
0.0
  0
ATTDEF
  5
6D
330
5F
100
AcDbEntity
  8
ASHADE
  6
Continuous
 62
     7
100
AcDbText
 10
0.0
 20
-0.24
 30
0.0
 40
0.01
  1
0
100
AcDbAttributeDefinition
280
     0
  3
Depth Map Size
  2
ZSIZE
 70
     1
280
     0
  0
ATTDEF
  5
6E
330
5F
100
AcDbEntity
  8
ASHADE
  6
Continuous
 62
     7
100
AcDbText
 10
0.0
 20
-0.3300000000000001
 30
0.0
 40
0.01
  1
0,0,0
100
AcDbAttributeDefinition
280
     0
  3
Look-from XYZ
  2
LFXYZ
 70
     1
280
     0
  0
ATTDEF
  5
6F
330
5F
100
AcDbEntity
  8
ASHADE
  6
Continuous
 62
     7
100
AcDbText
 10
0.0
 20
-0.315
 30
0.0
 40
0.01
  1
0.0
100
AcDbAttributeDefinition
280
     0
  3
Beam Distribution
  2
BEAMDI
 70
     1
280
     0
  0
ATTDEF
  5
70
330
5F
100
AcDbEntity
  8
ASHADE
  6
Continuous
 62
     7
100
AcDbText
 10
0.0
 20
-0.3
 30
0.0
 40
0.01
  1
0.0
100
AcDbAttributeDefinition
280
     0
  3
Cone Delta
  2
CONEDE
 70
     1
280
     0
  0
ATTDEF
  5
71
330
5F
100
AcDbEntity
  8
ASHADE
  6
Continuous
 62
     7
100
AcDbText
 10
0.0
 20
-0.2850000000000001
 30
0.0
 40
0.01
  1
10.0
100
AcDbAttributeDefinition
280
     0
  3
Cone Angle
  2
CONEAN
 70
     1
280
     0
  0
ATTDEF
  5
72
330
5F
100
AcDbEntity
  8
ASHADE
  6
Continuous
 62
     7
100
AcDbText
 10
0.0
 20
-0.27
 30
0.0
 40
0.01
  1
-1
100
AcDbAttributeDefinition
280
     0
  3
*not used*
  2
BIASMAX
 70
     1
280
     0
  0
ATTDEF
  5
73
330
5F
100
AcDbEntity
  8
ASHADE
  6
Continuous
 62
     7
100
AcDbText
 10
0.0
 20
-0.255
 30
0.0
 40
0.01
  1
-1
100
AcDbAttributeDefinition
280
     0
  3
*not used*
  2
BIASMIN
 70
     1
280
     0
  0
ATTDEF
  5
74
330
5F
100
AcDbEntity
  8
ASHADE
  6
Continuous
 62
     7
100
AcDbText
 10
0.0
 20
-0.225
 30
0.0
 40
0.01
  1
1,1,1
100
AcDbAttributeDefinition
280
     0
  3
Light Color (RGB)
  2
COLOR
 70
     1
280
     0
  0
ATTDEF
  5
75
330
5F
100
AcDbEntity
  8
ASHADE
  6
Continuous
 62
     7
100
AcDbText
 10
0.0
 20
-0.21
 30
0.0
 40
0.01
  1
1
100
AcDbAttributeDefinition
280
     0
  3
Light Intensity
  2
INTENSITY
 70
     1
280
     0
  0
ATTDEF
  5
76
330
5F
100
AcDbEntity
  8
ASHADE
  6
Continuous
 62
     7
100
AcDbText
 10
0.0
 20
-0.15
 30
0.0
 40
0.01
  1

100
AcDbAttributeDefinition
280
     0
  3

  2
GNAME
 70
     1
280
     0
  0
ATTDEF
  5
77
330
5F
100
AcDbEntity
  8
ASHADE
  6
Continuous
 62
     7
100
AcDbText
 10
0.0
 20
-0.195
 30
0.0
 40
0.01
  1

100
AcDbAttributeDefinition
280
     0
  3
Look-at Z
  2
LAZ
 70
     1
280
     0
  0
ATTDEF
  5
78
330
5F
100
AcDbEntity
  8
ASHADE
  6
Continuous
 62
     7
100
AcDbText
 10
0.0
 20
-0.18
 30
0.0
 40
0.01
  1

100
AcDbAttributeDefinition
280
     0
  3
Look-at Y
  2
LAY
 70
     1
280
     0
  0
ATTDEF
  5
79
330
5F
100
AcDbEntity
  8
ASHADE
  6
Continuous
 62
     7
100
AcDbText
 10
0.0
 20
-0.165
 30
0.0
 40
0.01
  1

100
AcDbAttributeDefinition
280
     0
  3
Look-at X
  2
LAX
 70
     1
280
     0
  0
LINE
  5
7A
330
5F
100
AcDbEntity
  8
ASHADE
  6
Continuous
 62
     7
100
AcDbLine
 10
0.25
 20
-0.3399999999999999
 30
0.0
 11
0.25
 21
-0.13
 31
0.0
  0
LINE
  5
7B
330
5F
100
AcDbEntity
  8
ASHADE
  6
Continuous
 62
     7
100
AcDbLine
 10
0.25
 20
-0.18
 30
0.0
 11
0.29
 21
-0.18
 31
0.0
  0
LINE
  5
7C
330
5F
100
AcDbEntity
  8
ASHADE
  6
Continuous
 62
     7
100
AcDbLine
 10
0.29
 20
-0.22
 30
0.0
 11
0.25
 21
-0.22
 31
0.0
  0
LINE
  5
7D
330
5F
100
AcDbEntity
  8
ASHADE
  6
Continuous
 62
     7
100
AcDbLine
 10
0.29
 20
-0.18
 30
0.0
 11
0.29
 21
-0.22
 31
0.0
  0
LINE
  5
7E
330
5F
100
AcDbEntity
  8
ASHADE
  6
Continuous
 62
     7
100
AcDbLine
 10
0.21
 20
0.26
 30
0.0
 11
0.301304347826087
 21
0.46
 31
0.0
  0
LINE
  5
7F
330
5F
100
AcDbEntity
  8
ASHADE
  6
Continuous
 62
     7
100
AcDbLine
 10
0.1045454545454545
 20
0.26
 30
0.0
 11
0.15
 21
0.46
 31
0.0
  0
LINE
  5
80
330
5F
100
AcDbEntity
  8
ASHADE
  6
Continuous
 62
     7
100
AcDbLine
 10
0.0
 20
0.26
 30
0.0
 11
0.0
 21
0.46
 31
0.0
  0
LINE
  5
81
330
5F
100
AcDbEntity
  8
ASHADE
  6
Continuous
 62
     7
100
AcDbLine
 10
0.25
 20
0.13
 30
0.0
 11
0.25
 21
0.26
 31
0.0
  0
LINE
  5
82
330
5F
100
AcDbEntity
  8
ASHADE
  6
Continuous
 62
     7
100
AcDbLine
 10
0.25
 20
0.22
 30
0.0
 11
0.29
 21
0.22
 31
0.0
  0
LINE
  5
83
330
5F
100
AcDbEntity
  8
ASHADE
  6
Continuous
 62
     7
100
AcDbLine
 10
0.29
 20
0.1799999999999999
 30
0.0
 11
0.25
 21
0.1799999999999999
 31
0.0
  0
LINE
  5
84
330
5F
100
AcDbEntity
  8
ASHADE
  6
Continuous
 62
     7
100
AcDbLine
 10
0.29
 20
0.22
 30
0.0
 11
0.29
 21
0.1799999999999999
 31
0.0
  0
ENDBLK
  5
86
330
5F
100
AcDbEntity
  8
0
100
AcDbBlockEnd
  0
BLOCK
  5
92
330
91
100
AcDbEntity
  8
ASHADE
100
AcDbBlockBegin
  2
AVE_RENDER
 70
     0
 10
0.0
 20
0.0
 30
0.0
  3
AVE_RENDER
  1
AVE_RENDER
  0
ENDBLK
  5
93
330
91
100
AcDbEntity
  8
0
100
AcDbBlockEnd
  0
BLOCK
  5
A0
330
9F
100
AcDbEntity
  8
ASHADE
100
AcDbBlockBegin
  2
AVE_GLOBAL
 70
     0
 10
0.0
 20
0.0
 30
0.0
  3
AVE_GLOBAL
  1
AVE_GLOBAL
  0
ENDBLK
  5
A1
330
9F
100
AcDbEntity
  8
0
100
AcDbBlockEnd
  0
ENDSEC
  0
SECTION
  2
ENTITIES
  0
INSERT
  5
94
330
1F
100
AcDbEntity
  8
ASHADE
 62
     1
100
AcDbBlockReference
  2
AVE_RENDER
 10
0.0
 20
0.0
 30
0.0
1001
AVE_RENDER
1002
{
1070
     7
1000
Pref
1070
    30
1070
    20
1070
     1
1070
     0
1000

1070
    10
1070
     1
1070
    10
1040
1.0
1070
     1
1040
0.3
1040
0.7
1040
0.0
1040
10.0
1010
-1.0
1020
-1.0
1030
-1.0
1040
0.3
1070
    49
1070
     0
1070
     0
1010
1.0
1020
1.0
1030
1.0
1040
45.0
1070
     1
1070
     0
1000
WCS
1040
0.0
1070
     0
1040
10.0
1002
}
  0
INSERT
  5
95
330
1F
100
AcDbEntity
  8
ASHADE
 62
     3
100
AcDbBlockReference
  2
AVE_RENDER
 10
0.0
 20
0.0
 30
0.0
1001
AVE_RENDER
1002
{
1070
     0
1000
Full Opt
1070
     0
1070
     1
1070
     1
1070
     1
1070
     0
1070
     0
1070
     0
1070
     1
1070
     1
1040
0.0001
1040
0.0001
1002
}
  0
INSERT
  5
96
330
1F
100
AcDbEntity
  8
ASHADE
 62
     4
100
AcDbBlockReference
  2
AVE_RENDER
 10
0.0
 20
0.0
 30
0.0
1001
AVE_RENDER
1002
{
1070
     0
1000
Quick Opt
1070
     0
1070
     1
1070
     1
1070
     1
1070
     0
1070
     0
1070
     1
1002
}
  0
INSERT
  5
97
330
1F
100
AcDbEntity
  8
ASHADE
 62
     5
100
AcDbBlockReference
  2
AVE_RENDER
 10
0.0
 20
0.0
 30
0.0
1001
AVE_RENDER
1002
{
1070
     1
1000
Scanl Opt
1070
     2
1070
     0
1070
     2
1040
2.0
1040
4.0
1070
     0
1070
     1
1070
     0
1040
0.03
1002
}
  0
INSERT
  5
98
330
1F
100
AcDbEntity
  8
ASHADE
 62
     6
100
AcDbBlockReference
  2
AVE_RENDER
 10
0.0
 20
0.0
 30
0.0
1001
AVE_RENDER
1002
{
1070
     2
1000
Raytr Opt
1070
     2
1070
     0
1070
     2
1040
2.0
1040
4.0
1070
     0
1070
     1
1070
     1
1040
0.03
1070
     3
1040
0.03
1002
}
  0
INSERT
  5
99
330
1F
100
AcDbEntity
  8
ASHADE
 62
     7
100
AcDbBlockReference
  2
AVE_RENDER
 10
0.0
 20
0.0
 30
0.0
1001
AVE_RENDER
1002
{
1070
     0
1000
RFile Opt
1070
     1
1070
   640
1070
   480
1070
 10000
1070
     1
1070
     8
1070
     8
1070
     0
1070
     0
1070
     0
1070
     0
1070
     0
1070
     0
1070
     0
1002
}
  0
INSERT
  5
9A
330
1F
100
AcDbEntity
  8
ASHADE
 62
     8
100
AcDbBlockReference
  2
AVE_RENDER
 10
0.0
 20
0.0
 30
0.0
1001
AVE_RENDER
1002
{
1070
     0
1000
Fog Opt
1070
     0
1070
     0
1040
0.0
1040
1.0
1040
0.0
1040
1.0
1010
0.5
1020
0.5
1030
0.5
1002
}
  0
INSERT
  5
9B
330
1F
100
AcDbEntity
  8
ASHADE
 62
     9
100
AcDbBlockReference
  2
AVE_RENDER
 10
0.0
 20
0.0
 30
0.0
1001
AVE_RENDER
1002
{
1070
     0
1000
BG Opt
1070
     0
1070
     1
1010
0.0
1020
0.0
1030
0.0
1010
1.0
1020
0.0
1030
0.0
1010
0.0
1020
1.0
1030
0.0
1010
0.0
1020
0.0
1030
1.0
1040
0.5
1040
0.33
1040
0.0
1000

1070
     1
1000

1070
     1
1070
     1
1040
1.0
1040
1.0
1040
0.0
1040
0.0
1070
     0
1002
}
  0
INSERT
  5
A2
330
1F
100
AcDbEntity
  8
ASHADE
 62
     1
100
AcDbBlockReference
  2
AVE_GLOBAL
 10
0.0
 20
0.0
 30
0.0
1001
AVE_MATERIAL
1002
{
1000
*GLOBAL*
1000
2
1000
Global finish.
1002
{
1002
}
1002
{
1070
    63
1002
{
1002
{
1010
-1.0
1020
-1.0
1030
-1.0
1002
}
1040
0.1000000014901161
1000

1040
0.0
1002
{
1002
}
1040
0.0
1002
{
1002
}
1040
0.0
1002
}
1002
{
1002
{
1010
-1.0
1020
-1.0
1030
-1.0
1002
}
1040
0.6999999880790711
1000

1040
0.0
1002
{
1002
}
1040
0.0
1002
{
1002
}
1040
0.0
1002
}
1002
{
1002
{
1010
-1.0
1020
-1.0
1030
-1.0
1002
}
1040
0.2000000029802322
1000

1040
0.0
1002
{
1002
}
1040
0.0
1002
{
1002
}
1040
0.0
1002
}
1002
{
1070
     0
1002
{
1070
     1
1002
{
1040
1.0
1040
1.0
1000

1040
0.0
1002
{
1002
}
1040
0.0
1002
{
1002
}
1040
0.0
1002
}
1002
}
1040
1.0
1040
0.0
1040
0.0
1002
}
1002
{
1040
1.0
1040
1.0
1000

1040
0.0
1002
{
1002
}
1040
0.0
1002
{
1002
}
1040
0.0
1002
}
1002
{
1040
0.5
1040
1.0
1000

1040
0.0
1002
{
1002
}
1040
0.0
1002
{
1002
}
1040
0.0
1002
}
1002
{
1070
     0
1040
0.0
1002
{
1002
}
1040
1.0
1002
{
1002
}
1040
0.0
1002
}
1002
{
1040
0.0
1002
{
1002
{
1010
0.0
1020
0.0
1030
0.0
1002
}
1040
1.0
1000

1040
0.0
1002
{
1002
}
1040
0.0
1002
{
1002
}
1040
0.0
1002
}
1002
}
1002
{
1002
{
1070
     1
1002
{
1040
0.0
1040
1.0
1000

1040
0.0
1002
{
1002
}
1040
0.0
1002
{
1002
}
1040
0.0
1002
}
1002
}
1040
0.0
1002
{
1002
}
1010
1.0
1020
0.0
1030
0.0
1010
0.0
1020
1.0
1030
0.0
1010
0.0
1020
0.0
1030
1.0
1070
     0
1002
}
1002
{
1002
{
1040
1.0
1040
1.0
1002
{
1070
     1
1002
{
1040
1.0
1040
1.0
1000

1040
0.0
1002
{
1002
}
1040
0.0
1002
{
1002
}
1040
0.0
1002
}
1002
}
1002
}
1070
     0
1040
0.0
1002
{
1002
}
1002
}
1002
{
1002
}
1002
}
1002
{
1071
        3
1070
     3
1070
     0
1002
{
1070
     2
1070
     0
1070
     0
1040
0.0
1002
}
1070
     0
1070
     2
1002
{
1002
}
1002
}
1002
{
1040
8030.0
1040
190.3000030517578
1040
0.3050000071525574
1040
228.0
1040
545.0
1040
14.0
1040
17.39999961853027
1040
0.4560000002384186
1002
}
1002
}
  0
MESH
  5
F9
330
1F
100
AcDbEntity
  8
OracDecor_decorative_elements
 62
   141
420
 10147813
160
             38600
310
C8960000300400000C00000013000000020000003C000000060000000200000000000080A3FA564000000000956744C00000004066B07E40000000A05FAF5540000000206EB041C000000020D0E27E400C000000130000000A0000003C000000060000000200000000000040F49F5540000000A020C141C000000020D0E27E
310
40000000A05FAF5540000000206EB041C000000020D0E27E400C00000013000000120000003C00000006000000020000000000000000E05640000000C0008044C00000000000B07E4000000040F49F5540000000A020C141C000000020D0E27E400C000000130000001A0000003C00000006000000020000000000000000E0
310
5640000000C0008044C00000000000B07E4000000080A3FA564000000000956744C00000004066B07E400C00000013000000220000003C00000006000000020000000000000000005640000000C0004042C00000000000000000000000E0B2145740000000A0093744C000000000000000000C000000130000002A0000003C
310
00000006000000020000000000000000205740000000C0000044C000000000000000000000000000005640000000C0004042C000000000000000000C00000013000000320000003C00000006000000020000000000000000205740000000C0000044C00000000000000000000000E0B2145740000000A0093744C000000000
310
000000000C000000130000003A0000003C00000006000000020000000000000000205740000000C0000044C00000000000B07E400000004096C05540000000E0028041C000000020D0E27E400C00000013000000420000003C00000006000000020000000000000000205740000000C0000044C00000000000B07E40000000
310
0000205740000000000000F9BE0000000000B07E400C000000130000004A0000003C00000006000000020000000000000000205740000000000000F9BE0000000000B07E40000000C081C05540000000000000F9BE00000020D0E27E400C00000013000000520000003C0000000600000002000000000000C081C055400000
310
00000000F9BE00000020D0E27E400000004096C05540000000E0028041C000000020D0E27E400C000000130000005A0000003C00000006000000020000000000000000205740000000C0000044C00000000000B07E4000000020CA135740000000C0473544C00000004066B07E400C00000013000000620000003C00000006
310
000000020000000000004096C05540000000E0028041C000000020D0E27E400000006029B85540000000E0ED9E41C000000020D0E27E400C000000130000006A0000003C00000006000000020000000000006029B85540000000E0ED9E41C000000020D0E27E4000000020CA135740000000C0473544C00000004066B07E40
310
0C00000013000000720000003C0000000600000002000000000000A0AEC15240000000000000F9BE0000004023D080400000008095C15240000000A0778636C00000004023D080400C000000130000007A0000003C00000006000000020000000000000000C05240000000000000F9BE0000000000E88040000000A0AEC152
310
40000000000000F9BE0000004023D080400C00000013000000820000003C00000006000000020000000000000000C05240000000000000F9BE0000000000E880400000000000C0524000000080018036C00000000000E880400C000000130000008A0000003C00000006000000020000000000000000C05240000000800180
310
36C00000000000E880400000008095C15240000000A0778636C00000004023D080400C00000013000000920000003C00000006000000020000000000008095C15240000000A0778636C00000004023D08040000000602FB75240000000C0DC0637C00000004023D080400C000000130000009A0000003C0000000600000002
310
0000000000000000C0524000000080018036C00000000000E880400000004066B55240000000A0DB0237C00000000001E880400C00000013000000A20000003C00000006000000020000000000004066B55240000000A0DB0237C00000000001E88040000000602FB75240000000C0DC0637C00000004023D080400C000000
310
13000000AA0000003C00000006000000020000000000006057A15240000000E0B35B37C00000004023D08040000000602FB75240000000C0DC0637C00000004023D080400C00000013000000B20000003C00000006000000020000000000004066B55240000000A0DB0237C00000000001E8804000000040DE9F5240000000
310
809F5537C00000000000E880400C00000013000000BA0000003C000000060000000200000000000040DE9F5240000000809F5537C00000000000E880400000006057A15240000000E0B35B37C00000004023D080400C00000013000000C20000003C0000000600000002000000000000801682524000000040238837C00000
310
004023D080400000006057A15240000000E0B35B37C00000004023D080400C00000013000000CA0000003C000000060000000200000000000040DE9F5240000000809F5537C00000000000E88040000000000080524000000080018037C00000000000E880400C00000013000000D20000003C000000060000000200000000
310
0000000080524000000080018037C00000000000E88040000000801682524000000040238837C00000004023D080400C00000013000000DA0000003C000000060000000200000000000000002054400000008001003CC0000000000060804000000000002054400000008001003CC000000000007880400C00000013000000
310
E20000003C00000006000000020000000000000000205440000000000000F9BE000000000060804000000000002054400000008001003CC000000000006080400C00000013000000EA0000003C00000006000000020000000000000000205440000000000000F9BE00000000007880400000000000205440000000000000F9
310
BE00000000006080400C00000013000000F20000003C00000006000000020000000000000000205440000000000000F9BE000000000078804000000000002054400000008001003CC000000000007880400C00000013000000FA0000003C0000000600000002000000000000009C9F5340000000000000F9BE000000604D82
310
80400000006031665240000000000000F9BE000000E0717880400C00000013000000020100003C00000006000000020000000000000000205440000000000000F9BE0000000000788040000000009C9F5340000000000000F9BE000000604D8280400C000000130000000A0100003C00000006000000020000000000000000
310
205440000000000000F9BE00000000007880400000000000005340000000000000F9BE00000040506480400C00000013000000120100003C00000006000000020000000000000000005340000000000000F9BE00000040506480400000006031665240000000000000F9BE000000E0717880400C000000130000001A010000
310
3C0000000600000002000000000000009C9F5340000000000000F9BE000000604D82804000000000EDA25340000000408E763AC0000000C0438280400C00000013000000220100003C000000060000000200000000000000002054400000008001003CC0000000000078804000000000EDA25340000000408E763AC0000000
310
C0438280400C000000130000002A0100003C000000060000000200000000000060BE7F5540000000A0E7E440C0000000A03A41804000000040F4765540000000000000F9BE000000A03A4180400C00000013000000320100003C00000006000000020000000000000000205440000000000000F9BE00000000006080400000
310
0040F4765540000000000000F9BE000000A03A4180400C000000130000003A0100003C000000060000000200000000000000002054400000008001003CC0000000000060804000000060BE7F5540000000A0E7E440C0000000A03A4180400C00000013000000420100003C0000000600000002000000000000000020544000
310
0000000000F9BE00000000006080400000000000005340000000000000F9BE00000040EB4580400C000000130000004A0100003C00000006000000020000000000000000005340000000000000F9BE00000040506480400000000000005340000000000000F9BE00000040EB4580400C00000013000000520100003C000000
310
0600000002000000000000609814544000000080AB6A3CC00000008033608040000000A0961454400000004083753CC0000000C0617880400C000000130000005A0100003C000000060000000200000000000000002054400000008001003CC00000000000608040000000609814544000000080AB6A3CC000000080336080
310
400C00000013000000620100003C000000060000000200000000000000002054400000008001003CC00000000000788040000000A0961454400000004083753CC0000000C0617880400C000000130000006A0100003C0000000600000002000000000000007B535640000000A0D97442C00000000018377F4000000020004C
310
5640000000000000F9BE0000000018377F400C00000013000000720100003C00000006000000020000000000006003B15540000000A08E4041C0000000A0C2F97E40000000007B535640000000A0D97442C00000000018377F400C000000130000007A0100003C000000060000000200000000000040E3B055400000000000
310
00F9BE000000A0C2F97E400000006003B15540000000A08E4041C0000000A0C2F97E400C00000013000000820100003C000000060000000200000000000040E3B05540000000000000F9BE000000A0C2F97E4000000020004C5640000000000000F9BE0000000018377F400C000000130000008A0100003C00000006000000
310
02000000000000406AA35540000000000000F9BE000000C058F27E4000000020BCA55540000000A09B1241C0000000C058F27E400C00000013000000920100003C000000060000000200000000000040E3B05540000000000000F9BE000000A0C2F97E40000000406AA35540000000000000F9BE000000C058F27E400C0000
310
00130000009A0100003C00000006000000020000000000006003B15540000000A08E4041C0000000A0C2F97E4000000020BCA55540000000A09B1241C0000000C058F27E400C00000013000000A20100003C0000000600000002000000000000E05CD95440000000000000F9BE00000080B9297F40000000C0F97455400000
310
00000000F9BE000000E092697F400C00000013000000AA0100003C000000060000000200000000000020004C5640000000000000F9BE0000000018377F40000000C0F9745540000000000000F9BE000000E092697F400C00000013000000B20100003C000000060000000200000000000040E3B05540000000000000F9BE00
310
0000A0C2F97E40000000E05CD95440000000000000F9BE00000080B9297F400C00000013000000BA0100003C0000000600000002000000000000E05CD95440000000000000F9BE00000080B9297F4000000000D48F5440000000000000F9BE0000006015087F400C00000013000000C20100003C0000000600000002000000
310
000000406AA35540000000000000F9BE000000C058F27E4000000000D48F5440000000000000F9BE0000006015087F400C00000013000000CA0100003C0000000600000002000000000000007B535640000000A0D97442C00000000018377F4000000020AA445640000000E0FEA642C00000000018377F400C000000130000
310
00D20100003C000000060000000200000000000020AA445640000000E0FEA642C00000000018377F40000000607AA75540000000C09B6B41C0000000A0C2F97E400C00000013000000DA0100003C00000006000000020000000000006003B15540000000A08E4041C0000000A0C2F97E40000000607AA75540000000C09B6B
310
41C0000000A0C2F97E400C00000013000000E20100003C0000000600000002000000000000607AA75540000000C09B6B41C0000000A0C2F97E4000000080FA99554000000060884741C0000000C058F27E400C00000013000000EA0100003C000000060000000200000000000020BCA55540000000A09B1241C0000000C058
310
F27E4000000080FA99554000000060884741C0000000C058F27E400C00000013000000F20100003C00000006000000020000000000002041CB5640000000000000F9BE00000000F69C7F4000000020004C5640000000000000F9BE0000000018377F400C00000013000000FA0100003C000000060000000200000000000020
310
8FBD5640000000602F3D43C000000020308E7F400000002041CB5640000000000000F9BE00000000F69C7F400C00000013000000020200003C0000000600000002000000000000007B535640000000A0D97442C00000000018377F40000000208FBD5640000000602F3D43C000000020308E7F400C000000130000000A0200
310
003C0000000600000002000000000000208FBD5640000000602F3D43C000000020308E7F4000000040A8B05640000000A0EA7443C0000000A0F98D7F400C00000013000000120200003C000000060000000200000000000040A8B05640000000A0EA7443C0000000A0F98D7F4000000020AA445640000000E0FEA642C00000
310
000018377F400C000000130000001A0200003C0000000600000002000000000000C086BA5640000000E0783743C00000008048EC7F4000000020CAB75640000000000000F9BE0000008048EC7F400C00000013000000220200003C0000000600000002000000000000208FBD5640000000602F3D43C000000020308E7F4000
310
0000C086BA5640000000E0783743C00000008048EC7F400C000000130000002A0200003C000000060000000200000000000020CAB75640000000000000F9BE0000008048EC7F400000002041CB5640000000000000F9BE00000000F69C7F400C00000013000000320200003C0000000600000002000000000000C086BA5640
310
000000E0783743C00000008048EC7F4000000040BEB0564000000040696F43C00000008048EC7F400C000000130000003A0200003C000000060000000200000000000040BEB0564000000040696F43C00000008048EC7F4000000040A8B05640000000A0EA7443C0000000A0F98D7F400C00000013000000420200003C0000
310
000600000002000000000000604A3D5640000000000000F9BE000000007721804000000020CAB75640000000000000F9BE0000008048EC7F400C000000130000004A0200003C000000060000000200000000000040DE385640000000C0954242C00000000077218040000000604A3D5640000000000000F9BE000000007721
310
80400C00000013000000520200003C0000000600000002000000000000C086BA5640000000E0783743C00000008048EC7F4000000040DE385640000000C0954242C000000000772180400C000000130000005A0200003C000000060000000200000000000040DE385640000000C0954242C0000000007721804000000040E4
310
2D5640000000E0AE7742C000000000772180400C00000013000000620200003C000000060000000200000000000040E42D5640000000E0AE7742C0000000007721804000000040BEB0564000000040696F43C00000008048EC7F400C000000130000006A0200003C000000060000000200000000000040DE385640000000C0
310
954242C0000000007721804000000060BE7F5540000000A0E7E440C0000000A03A4180400C00000013000000720200003C000000060000000200000000000040F4765540000000000000F9BE000000A03A418040000000604A3D5640000000000000F9BE00000000772180400C000000130000007A0200003C000000060000
310
0002000000000000609814544000000080AB6A3CC00000008033608040000000C0A3785540000000E08D1141C0000000A03A4180400C00000013000000820200003C000000060000000200000000000060BE7F5540000000A0E7E440C0000000A03A418040000000C0A3785540000000E08D1141C0000000A03A4180400C00
310
0000130000008A0200003C000000060000000200000000000040F4765540000000000000F9BE000000A03A41804000000020E6155440000000000000F9BE000000801A3880400C00000013000000920200003C00000006000000020000000000000000005340000000000000F9BE00000040EB45804000000020E615544000
310
0000000000F9BE000000801A3880400C000000130000009A0200003C0000000600000002000000000000604A3D5640000000000000F9BE00000000772180400000004078F55440000000000000F9BE000000E0451F80400C00000013000000A20200003C000000060000000200000000000020CAB75640000000000000F9BE
310
0000008048EC7F40000000009E805540000000000000F9BE0000004076FE7F400C00000013000000AA0200003C0000000600000002000000000000009E805540000000000000F9BE0000004076FE7F400000004078F55440000000000000F9BE000000E0451F80400C00000013000000B20200003C00000006000000020000
310
00000000E01AAE5540000000000000F9BE000000205AB67F40000000009E805540000000000000F9BE0000004076FE7F400C00000013000000BA0200003C00000006000000020000000000002041CB5640000000000000F9BE00000000F69C7F40000000E01AAE5540000000000000F9BE000000205AB67F400C0000001300
310
0000C20200003C0000000600000002000000000000C0F9745540000000000000F9BE000000E092697F40000000E01AAE5540000000000000F9BE000000205AB67F400C00000013000000CA0200003C00000006000000020000000000004047A95540000000000000F9BE000000E003E97E40000000804FAC55400000008065
310
2D41C0000000E003E97E400C00000013000000D20200003C0000000600000002000000000000406AA35540000000000000F9BE000000C058F27E400000004047A95540000000000000F9BE000000E003E97E400C00000013000000DA0200003C0000000600000002000000000000804FAC554000000080652D41C0000000E0
310
03E97E4000000020BCA55540000000A09B1241C0000000C058F27E400C00000013000000E20200003C0000000600000002000000000000406AA35540000000000000F9BE000000C058F27E4000000000EF865440000000000000F9BE000000C0CFE17E400C00000013000000EA0200003C0000000600000002000000000000
310
00EF865440000000000000F9BE000000C0CFE17E4000000000D48F5440000000000000F9BE0000006015087F400C00000013000000F20200003C00000006000000020000000000004047A95540000000000000F9BE000000E003E97E40000000C081C05540000000000000F9BE00000020D0E27E400C00000013000000FA02
310
00003C00000006000000020000000000004096C05540000000E0028041C000000020D0E27E40000000804FAC554000000080652D41C0000000E003E97E400C00000013000000020300003C0000000600000002000000000000804FAC554000000080652D41C0000000E003E97E40000000A05AA0554000000000115D41C000
310
0000E003E97E400C000000130000000A0300003C0000000600000002000000000000A05AA0554000000000115D41C0000000E003E97E400000006029B85540000000E0ED9E41C000000020D0E27E400C00000013000000120300003C000000060000000200000000000080FA99554000000060884741C0000000C058F27E40
310
000000A05AA0554000000000115D41C0000000E003E97E400C000000130000001A0300003C0000000600000002000000000000A009CD5240000000E007B636C0000000C060BA80400000008095C15240000000A0778636C00000004023D080400C00000013000000220300003C000000060000000200000000000020D6CB52
310
40000000000000F9BE000000C060BA8040000000A009CD5240000000E007B636C0000000C060BA80400C000000130000002A0300003C0000000600000002000000000000A0AEC15240000000000000F9BE0000004023D0804000000020D6CB5240000000000000F9BE000000C060BA80400C00000013000000320300003C00
310
00000600000002000000000000A0AEC15240000000000000F9BE0000004023D08040000000C093A45140000000000000F9BE0000000000C480400C000000130000003A0300003C000000060000000200000000000020D6CB5240000000000000F9BE000000C060BA8040000000A0E8B55140000000000000F9BE0000002062
310
AE80400C00000013000000420300003C0000000600000002000000000000C093A45140000000000000F9BE0000000000C48040000000A0E8B55140000000000000F9BE0000002062AE80400C000000130000004A0300003C0000000600000002000000000000C0F7EB5240000000000000F9BE00000080AAA5804000000060
310
96EB5240000000A0243837C000000080AAA580400C00000013000000520300003C000000060000000200000000000020D6CB5240000000000000F9BE000000C060BA8040000000C0F7EB5240000000000000F9BE00000080AAA580400C000000130000005A0300003C00000006000000020000000000006096EB5240000000
310
A0243837C000000080AAA58040000000A009CD5240000000E007B636C0000000C060BA80400C00000013000000620300003C0000000600000002000000000000C0F7EB5240000000000000F9BE00000080AAA5804000000080A3D05140000000000000F9BE00000040F49D80400C000000130000006A0300003C0000000600
310
00000200000000000080A3D05140000000000000F9BE00000040F49D8040000000A0E8B55140000000000000F9BE0000002062AE80400C00000013000000720300003C000000060000000200000000000060702D534000000040125C38C000000040F99180400000006096EB5240000000A0243837C000000080AAA580400C
310
000000130000007A0300003C0000000600000002000000000000E0E62E5340000000000000F9BE00000000D191804000000060702D534000000040125C38C000000040F99180400C00000013000000820300003C0000000600000002000000000000C0F7EB5240000000000000F9BE00000080AAA58040000000E0E62E5340
310
000000000000F9BE00000000D19180400C000000130000008A0300003C0000000600000002000000000000E0E62E5340000000000000F9BE00000000D1918040000000C07E025240000000000000F9BE000000E0E88B80400C00000013000000920300003C0000000600000002000000000000C07E025240000000000000F9
310
BE000000E0E88B804000000080A3D05140000000000000F9BE00000040F49D80400C000000130000009A0300003C0000000600000002000000000000E0E62E5340000000000000F9BE00000000D1918040000000009C9F5340000000000000F9BE000000604D8280400C00000013000000A20300003C000000060000000200
310
00000000006031665240000000000000F9BE000000E071788040000000C07E025240000000000000F9BE000000E0E88B80400C00000013000000AA0300003C000000060000000200000000000040A8245340000000C0E9BC38C000000040F9918040000000001C99534000000000CDB63AC000000080428280400C00000013
310
000000B20300003C000000060000000200000000000000EDA25340000000408E763AC0000000C043828040000000001C99534000000000CDB63AC000000080428280400C00000013000000BA0300003C000000060000000200000000000000EDA25340000000408E763AC0000000C04382804000000060702D534000000040
310
125C38C000000040F99180400C00000013000000C20300003C000000060000000200000000000060702D534000000040125C38C000000040F991804000000040A8245340000000C0E9BC38C000000040F99180400C00000013000000CA0300003C00000006000000020000000000006096EB5240000000A0243837C0000000
310
80AAA58040000000E00EE15240000000007BBC37C000000080AAA580400C00000013000000D20300003C0000000600000002000000000000A009CD5240000000E007B636C0000000C060BA8040000000E0C4C2524000000040973837C0000000C060BA80400C00000013000000DA0300003C00000006000000020000000000
310
00E0C4C2524000000040973837C0000000C060BA8040000000E00EE15240000000007BBC37C000000080AAA580400C00000013000000E20300003C0000000600000002000000000000602FB75240000000C0DC0637C00000004023D08040000000E0C4C2524000000040973837C0000000C060BA80400C00000013000000EA
310
0300003C0000000600000002000000000000208CFB534000000080D4CF3CC0000000C033608040000000C009FB5340000000C01ED93CC000000060607880400C00000013000000F20300003C00000006000000020000000000000000E053400000008001003DC00000000000788040000000C009FB5340000000C01ED93CC0
310
00000060607880400C00000013000000FA0300003C00000006000000020000000000000000E053400000008001003DC000000000007880400000000000E053400000008001003DC000000000006080400C00000013000000020400003C00000006000000020000000000000000E053400000008001003DC000000000006080
310
40000000208CFB534000000080D4CF3CC0000000C0336080400C000000130000000A0400003C00000006000000020000000000000000E053400000008001003DC00000000000608040000000201B555540000000001D4541C0000000A03A4180400C00000013000000120400003C0000000600000002000000000000201B55
310
5540000000001D4541C0000000A03A418040000000E0226A5540000000C0173341C0000000A03A4180400C000000130000001A0400003C0000000600000002000000000000208CFB534000000080D4CF3CC0000000C033608040000000E0226A5540000000C0173341C0000000A03A4180400C00000013000000220400003C
310
000000060000000200000000000000FD1756400000006044A142C00000000077218040000000E0226A5540000000C0173341C0000000A03A4180400C000000130000002A0400003C0000000600000002000000000000201B555540000000001D4541C0000000A03A418040000000803B015640000000809DB142C000000000
310
772180400C00000013000000320400003C0000000600000002000000000000803B015640000000809DB142C0000000007721804000000000FD1756400000006044A142C000000000772180400C000000130000003A0400003C0000000600000002000000000000803B015640000000809DB142C00000000077218040000000
310
E0B87B5640000000C007B543C00000008048EC7F400C00000013000000420400003C0000000600000002000000000000E0B87B5640000000C007B543C00000008048EC7F40000000C0F19A564000000040B89E43C00000008048EC7F400C000000130000004A0400003C0000000600000002000000000000C0F19A56400000
310
0040B89E43C00000008048EC7F4000000000FD1756400000006044A142C000000000772180400C00000013000000520400003C0000000600000002000000000000E0B87B5640000000C007B543C00000008048EC7F4000000040987E5640000000C020BB43C000000000308E7F400C000000130000005A0400003C00000006
310
0000000200000000000040987E5640000000C020BB43C000000000308E7F40000000C0BA9A5640000000C0BAA143C0000000400B8E7F400C00000013000000620400003C0000000600000002000000000000C0BA9A5640000000C0BAA143C0000000400B8E7F40000000C0F19A564000000040B89E43C00000008048EC7F40
310
0C000000130000006A0400003C000000060000000200000000000040987E5640000000C020BB43C000000000308E7F40000000806D1A5640000000C0F9E642C00000000018377F400C00000013000000720400003C0000000600000002000000000000806D1A5640000000C0F9E642C00000000018377F4000000080AF3356
310
40000000C0C1C942C00000000018377F400C000000130000007A0400003C000000060000000200000000000080AF335640000000C0C1C942C00000000018377F40000000C0BA9A5640000000C0BAA143C0000000400B8E7F400C00000013000000820400003C000000060000000200000000000080AF335640000000C0C1C9
310
42C00000000018377F40000000006897554000000040288D41C0000000A0C2F97E400C000000130000008A0400003C0000000600000002000000000000607AA75540000000C09B6B41C0000000A0C2F97E40000000006897554000000040288D41C0000000A0C2F97E400C00000013000000920400003C0000000600000002
310
00000000000020AA445640000000E0FEA642C00000000018377F4000000080AF335640000000C0C1C942C00000000018377F400C000000130000009A0400003C0000000600000002000000000000006897554000000040288D41C0000000A0C2F97E400000006020815540000000E0BE7441C0000000C058F27E400C000000
310
13000000A20400003C0000000600000002000000000000C0BE825540000000A0DCA041C0000000A0C2F97E40000000006897554000000040288D41C0000000A0C2F97E400C00000013000000AA0400003C0000000600000002000000000000604766554000000080718841C0000000C058F27E40000000C0BE825540000000
310
A0DCA041C0000000A0C2F97E400C00000013000000B20400003C0000000600000002000000000000604766554000000080718841C0000000C058F27E400000006020815540000000E0BE7441C0000000C058F27E400C00000013000000BA0400003C0000000600000002000000000000604766554000000080718841C00000
310
00C058F27E4000000040D674554000000000CB9641C0000000E003E97E400C00000013000000C20400003C000000060000000200000000000040D674554000000000CB9641C0000000E003E97E4000000000868B5540000000A0558341C0000000E003E97E400C00000013000000CA0400003C000000060000000200000000
310
00006020815540000000E0BE7441C0000000C058F27E4000000000868B5540000000A0558341C0000000E003E97E400C00000013000000D20400003C000000060000000200000000000040D674554000000000CB9641C0000000E003E97E4000000040F49F5540000000A020C141C000000020D0E27E400C00000013000000
310
DA0400003C000000060000000200000000000000868B5540000000A0558341C0000000E003E97E40000000A05FAF5540000000206EB041C000000020D0E27E400C00000013000000E20400003C00000006000000020000000000006057A15240000000E0B35B37C00000004023D08040000000A035AC524000000020A88737
310
C0000000C060BA80400C00000013000000EA0400003C0000000600000002000000000000801682524000000040238837C00000004023D08040000000E0A48C524000000040D8B037C0000000C060BA80400C00000013000000F20400003C0000000600000002000000000000E0A48C524000000040D8B037C0000000C060BA
310
8040000000A035AC524000000020A88737C0000000C060BA80400C00000013000000FA0400003C0000000600000002000000000000A035AC524000000020A88737C0000000C060BA8040000000C038CC5240000000C0F90838C000000080AAA580400C00000013000000020500003C0000000600000002000000000000E0A4
310
8C524000000040D8B037C0000000C060BA804000000000EBAC5240000000006E2A38C000000080AAA580400C000000130000000A0500003C000000060000000200000000000000EBAC5240000000006E2A38C000000080AAA58040000000C038CC5240000000C0F90838C000000080AAA580400C0000001300000012050000
310
3C0000000600000002000000000000C038CC5240000000C0F90838C000000080AAA58040000000C0E713534000000000771839C000000040F99180400C000000130000001A0500003C000000060000000200000000000040A8245340000000C0E9BC38C000000040F9918040000000C0E713534000000000771839C0000000
310
40F99180400C00000013000000220500003C0000000600000002000000000000E00EE15240000000007BBC37C000000080AAA5804000000040A8245340000000C0E9BC38C000000040F99180400C000000130000002A0500003C0000000600000002000000000000C038CC5240000000C0F90838C000000080AAA580400000
310
00E00EE15240000000007BBC37C000000080AAA580400C00000013000000320500003C0000000600000002000000000000C0E713534000000000771839C000000040F991804000000080D88D534000000000A8E03AC0000000C0408280400C000000130000003A0500003C00000006000000020000000000008070FE524000
310
0000A0384E39C000000040F9918040000000C0E713534000000000771839C000000040F99180400C00000013000000420500003C00000006000000020000000000008070FE5240000000A0384E39C000000040F991804000000080177D53400000006065053BC0000000803F8280400C000000130000004A0500003C000000
310
060000000200000000000080177D53400000006065053BC0000000803F82804000000080D88D534000000000A8E03AC0000000C0408280400C00000013000000520500003C0000000600000002000000000000A035AC524000000020A88737C0000000C060BA8040000000E0C4C2524000000040973837C0000000C060BA80
310
400C000000130000005A0500003C000000060000000200000000000040BEB0564000000040696F43C00000008048EC7F40000000C0F19A564000000040B89E43C00000008048EC7F400C00000013000000620500003C000000060000000200000000000040E42D5640000000E0AE7742C0000000007721804000000000FD17
310
56400000006044A142C000000000772180400C000000130000006A0500003C000000060000000200000000000040A8B05640000000A0EA7443C0000000A0F98D7F40000000C0BA9A5640000000C0BAA143C0000000400B8E7F400C00000013000000720500003C000000060000000200000000000000000056400000000000
310
00F9BE000000406E867E400000004026315540000000000000F9BE0000008049A47E400C000000130000007A0500003C00000006000000020000000000000000005640000000C0004042C0000000406E867E400000000000005640000000000000F9BE000000406E867E400C00000013000000820500003C00000006000000
310
020000000000000000005640000000C0004042C0000000406E867E400000002026315540000000E04CA240C00000008049A47E400C000000130000008A0500003C00000006000000020000000000002026315540000000E04CA240C00000008049A47E400000004026315540000000000000F9BE0000008049A47E400C0000
310
0013000000920500003C0000000600000002000000000000A04FB35140000000203F4D33C0000000E099B08040000000A0E8B55140000000000000F9BE0000002062AE80400C000000130000009A0500003C0000000600000002000000000000C093A45140000000E04F1233C00000000000C48040000000A04FB351400000
310
00203F4D33C0000000E099B080400C00000013000000A20500003C0000000600000002000000000000C093A45140000000000000F9BE0000000000C48040000000C093A45140000000E04F1233C00000000000C480400C00000013000000AA0500003C0000000600000002000000000000000000534000000080018038C000
310
00004050648040000000000000534000000080018038C000000040EB4580400C00000013000000B20500003C00000006000000020000000000000000005340000000000000F9BE0000004050648040000000000000534000000080018038C000000040506480400C00000013000000BA0500003C0000000600000002000000
310
000000000000534000000080018038C000000040EB4580400000000000005340000000000000F9BE00000040EB4580400C00000013000000C20500003C000000060000000200000000000060025E5240000000400BF835C0000000E0717880400000006031665240000000000000F9BE000000E0717880400C000000130000
310
00CA0500003C0000000600000002000000000000000000534000000080018038C0000000405064804000000060025E5240000000400BF835C0000000E0717880400C00000013000000D20500003C000000060000000200000000000020E6155440000000000000F9BE000000801A38804000000060CD07544000000000379F
310
3CC0000000C02A3980400C00000013000000DA0500003C0000000600000002000000000000000000534000000080018038C000000040EB45804000000060CD07544000000000379F3CC0000000C02A3980400C00000013000000E20500003C0000000600000002000000000000C0F9745540000000000000F9BE000000E092
310
697F40000000A0B4575540000000006AEF40C000000040FA587F400C00000013000000EA0500003C0000000600000002000000000000E05CD95440000000000000F9BE00000080B9297F40000000E05CD954400000004075E53FC000000080B9297F400C00000013000000F20500003C0000000600000002000000000000A0
310
B4575540000000006AEF40C000000040FA587F40000000E05CD954400000004075E53FC000000080B9297F400C00000013000000FA0500003C000000060000000200000000000060F49F5440000000E0D2FF3EC0000000C03B137F4000000000D48F5440000000000000F9BE0000006015087F400C00000013000000020600
310
003C0000000600000002000000000000E05CD954400000004075E53FC000000080B9297F4000000060F49F5440000000E0D2FF3EC0000000C03B137F400C000000130000000A0600003C0000000600000002000000000000E01AAE5540000000000000F9BE000000205AB67F40000000202A9F554000000040557E41C00000
310
00205AB67F400C00000013000000120600003C0000000600000002000000000000202A9F554000000040557E41C0000000205AB67F40000000A0B4575540000000006AEF40C000000040FA587F400C000000130000001A0600003C000000060000000200000000000060A04E5540000000E0E20E41C0000000206D04804000
310
0000202A9F554000000040557E41C0000000205AB67F400C00000013000000220600003C0000000600000002000000000000009E805540000000000000F9BE0000004076FE7F4000000060A04E5540000000E0E20E41C0000000206D0480400C000000130000002A0600003C00000006000000020000000000000058CF5440
310
0000008061BD3FC000000040E124804000000060A04E5540000000E0E20E41C0000000206D0480400C00000013000000320600003C00000006000000020000000000004078F55440000000000000F9BE000000E0451F80400000000058CF54400000008061BD3FC000000040E12480400C000000130000003A0600003C0000
310
00060000000200000000000060CD07544000000000379F3CC0000000C02A3980400000000058CF54400000008061BD3FC000000040E12480400C00000013000000420600003C00000006000000020000000000004078F55440000000000000F9BE000000E0451F804000000020E6155440000000000000F9BE000000801A38
310
80400C000000130000004A0600003C0000000600000002000000000000E0528D5440000000C04CB53EC0000000A047E57E4000000000EF865440000000000000F9BE000000C0CFE17E400C00000013000000520600003C000000060000000200000000000060F49F5440000000E0D2FF3EC0000000C03B137F40000000E052
310
8D5440000000C04CB53EC0000000A047E57E400C000000130000005A0600003C0000000600000002000000000000C063D45440000000C090D13FC0000000A0B8B77E40000000C063C05440000000000000F9BE000000A044BE7E400C00000013000000620600003C0000000600000002000000000000E0528D5440000000C0
310
4CB53EC0000000A047E57E40000000C063D45440000000C090D13FC0000000A0B8B77E400C000000130000006A0600003C0000000600000002000000000000C063C05440000000000000F9BE000000A044BE7E4000000000EF865440000000000000F9BE000000C0CFE17E400C00000013000000720600003C000000060000
310
0002000000000000C063D45440000000C090D13FC0000000A0B8B77E400000002026315540000000E04CA240C00000008049A47E400C000000130000007A0600003C00000006000000020000000000004026315540000000000000F9BE0000008049A47E40000000C063C05440000000000000F9BE000000A044BE7E400C00
310
000013000000820600003C00000006000000020000000000004029CA514000000040A6A833C00000004037A1804000000080A3D05140000000000000F9BE00000040F49D80400C000000130000008A0600003C0000000600000002000000000000A04FB35140000000203F4D33C0000000E099B080400000004029CA514000
310
000040A6A833C00000004037A180400C00000013000000920600003C0000000600000002000000000000E0780C524000000040E5B134C00000004058898040000000C07E025240000000000000F9BE000000E0E88B80400C000000130000009A0600003C00000006000000020000000000004029CA514000000040A6A833C0
310
0000004037A18040000000E0780C524000000040E5B134C000000040588980400C00000013000000A20600003C0000000600000002000000000000E0780C524000000040E5B134C0000000405889804000000060025E5240000000400BF835C0000000E0717880400C00000013000000AA0600003C00000006000000020000
310
000000000000E05640000000C0008044C00000000000B07E400000000000E05640000000C0008044C000000000000000000C00000013000000B20600003C00000006000000020000000000000000E05640000000C0008044C000000000000000000000008084FB564000000060666944C000000000000000000C0000001300
310
0000BA0600003C000000060000000200000000000080A3FA564000000000956744C00000004066B07E400000008084FB564000000060666944C000000000000000000C00000013000000C20600003C000000060000000200000000000020CA135740000000C0473544C00000004066B07E40000000E0B2145740000000A009
310
3744C000000000000000000C00000013000000CA0600003C00000006000000020000000000000000205740000000C0000044C000000000000000000000000000205740000000C0000044C00000000000B07E400C00000013000000D20600003C00000006000000020000000000000000205740000000000000F9BE00000000
310
000000000000000000205740000000C0000044C000000000000000000C00000013000000DA0600003C00000006000000020000000000000000205740000000000000F9BE00000000000000000000000000205740000000000000F9BE0000000000B07E400C00000013000000E20600003C0000000600000002000000000000
310
0000205740000000000000F9BE0000000000B07E400000000000005640000000000000F9BE000000406E867E400C00000013000000EA0600003C00000006000000020000000000000000205740000000000000F9BE00000000000000000000000000005640000000000000F9BE00000000000000000C00000013000000F206
310
00003C00000006000000020000000000000000005640000000000000F9BE00000000000000000000000000005640000000000000F9BE000000406E867E400C00000013000000FA0600003C00000006000000020000000000000000005640000000000000F9BE00000000000000000000000000005640000000C0004042C000
310
000000000000000C00000013000000020700003C00000006000000020000000000000000005640000000C0004042C0000000406E867E400000000000005640000000C0004042C000000000000000000C000000130000000A0700003C0000000600000002000000000000806D1A5640000000C0F9E642C00000000018377F40
310
000000C0BE825540000000A0DCA041C0000000A0C2F97E400C00000013000000120700003C00000006000000020000000000000000E053400000008001003DC0000000000078804000000080177D53400000006065053BC0000000803F8280400C000000130000001A0700003C000000060000000200000000000080D88D53
310
4000000000A8E03AC0000000C040828040000000C009FB5340000000C01ED93CC000000060607880400C00000013000000220700003C0000000600000002000000000000001C99534000000000CDB63AC00000008042828040000000A0961454400000004083753CC0000000C0617880400C000000130000002A0700003C00
310
000006000000020000000000000000C05240000000000000F9BE0000000000E8804000000040DE9F5240000000809F5537C00000000000E880400C00000013000000320700003C00000006000000020000000000000000C05240000000000000F9BE0000000000E88040000000000080524000000080018037C00000000000
310
E880400C000000130000003A0700003C00000006000000020000000000000000C05240000000000000F9BE0000000000E880400000004066B55240000000A0DB0237C00000000001E880400C00000013000000420700003C00000006000000020000000000000000C05240000000000000F9BE0000000000E88040000000C0
310
93A45140000000000000F9BE0000000000C480400C000000130000004A0700003C0000000600000002000000000000C081C05540000000000000F9BE00000020D0E27E400000004026315540000000000000F9BE0000008049A47E400C00000013000000520700003C00000006000000020000000000004047A95540000000
310
000000F9BE000000E003E97E40000000C063C05440000000000000F9BE000000A044BE7E400C000000130000005A0700003C00000006000000020000000000008084FB564000000060666944C000000000000000000000000000005640000000C0004042C000000000000000000C00000013000000620700003C0000000600
310
0000020000000000000000E05640000000C0008044C000000000000000000000000000005640000000C0004042C000000000000000000C000000130000006A0700003C00000006000000020000000000000058CF54400000008061BD3FC000000040E12480400000000058CF54C00000008061BD3FC000000040E12480400C
310
00000013000000720700003C000000060000000200000000000060CD0754C000000000379F3CC0000000C02A3980400000000058CF54C00000008061BD3FC000000040E12480400C000000130000007A0700003C000000060000000200000000000060CD07544000000000379F3CC0000000C02A39804000000060CD0754C0
310
00000000379F3CC0000000C02A3980400C00000013000000820700003C000000060000000200000000000060A04E5540000000E0E20E41C0000000206D04804000000060A04E55C0000000E0E20E41C0000000206D0480400C000000130000008A0700003C000000060000000200000000000060A04E55C0000000E0E20E41
310
C0000000206D0480400000000058CF54C00000008061BD3FC000000040E12480400C00000013000000920700003C0000000600000002000000000000202A9F554000000040557E41C0000000205AB67F40000000202A9F55C000000040557E41C0000000205AB67F400C000000130000009A0700003C000000060000000200
310
0000000000202A9F55C000000040557E41C0000000205AB67F4000000060A04E55C0000000E0E20E41C0000000206D0480400C00000013000000A20700003C0000000600000002000000000000C063D45440000000C090D13FC0000000A0B8B77E40000000C063D454C0000000C090D13FC0000000A0B8B77E400C00000013
310
000000AA0700003C0000000600000002000000000000E0528D54C0000000C04CB53EC0000000A047E57E40000000C063D454C0000000C090D13FC0000000A0B8B77E400C00000013000000B20700003C0000000600000002000000000000E0528D5440000000C04CB53EC0000000A047E57E40000000E0528D54C0000000C0
310
4CB53EC0000000A047E57E400C00000013000000BA0700003C00000006000000020000000000002026315540000000E04CA240C00000008049A47E4000000020263155C0000000E04CA240C00000008049A47E400C00000013000000C20700003C000000060000000200000000000020263155C0000000E04CA240C0000000
310
8049A47E40000000C063D454C0000000C090D13FC0000000A0B8B77E400C00000013000000CA0700003C00000006000000020000000000000000005640000000C0004042C0000000406E867E4000000000000056C0000000C0004042C0000000406E867E400C00000013000000D20700003C00000006000000020000000000
310
0000000056C0000000C0004042C0000000406E867E4000000020263155C0000000E04CA240C00000008049A47E400C00000013000000DA0700003C00000006000000020000000000000000E05640000000C0008044C000000000000000000000000000E056C0000000C0008044C0000000000000003F0C00000013000000E2
310
0700003C000000060000000200000000000000000056C0000000C0004042C0000000000000003F0000000000E056C0000000C0008044C0000000000000003F0C00000013000000EA0700003C00000006000000020000000000000000005640000000C0004042C0000000000000000000000000000056C0000000C0004042C0
310
000000000000003F0C00000013000000F20700003C00000006000000020000000000000000E05640000000C0008044C00000000000B07E400000000000E056C0000000C0008044C00000000000B07E400C00000013000000FA0700003C00000006000000020000000000000000E056C0000000C0008044C00000000000B07E
310
400000000000E056C0000000C0008044C0000000000000003F0C00000013000000020800003C000000060000000200000000000040F49F5540000000A020C141C000000020D0E27E4000000040F49F55C0000000A020C141C000000020D0E27E400C000000130000000A0800003C000000060000000200000000000040F49F
310
55C0000000A020C141C000000020D0E27E400000000000E056C0000000C0008044C00000000000B07E400C00000013000000120800003C000000060000000200000000000040987E5640000000C020BB43C000000000308E7F4000000040987E56C0000000C020BB43C000000000308E7F400C000000130000001A0800003C
310
000000060000000200000000000040987E56C0000000C020BB43C000000000308E7F40000000806D1A56C0000000C0F9E642C00000000018377F400C00000013000000220800003C0000000600000002000000000000806D1A5640000000C0F9E642C00000000018377F40000000806D1A56C0000000C0F9E642C000000000
310
18377F400C000000130000002A0800003C0000000600000002000000000000803B015640000000809DB142C00000000077218040000000803B0156C0000000809DB142C000000000772180400C00000013000000320800003C0000000600000002000000000000803B0156C0000000809DB142C00000000077218040000000
310
E0B87B56C0000000C007B543C00000008048EC7F400C000000130000003A0800003C0000000600000002000000000000E0B87B5640000000C007B543C00000008048EC7F40000000E0B87B56C0000000C007B543C00000008048EC7F400C00000013000000420800003C0000000600000002000000000000201B5555400000
310
00001D4541C0000000A03A418040000000201B5555C0000000001D4541C0000000A03A4180400C000000130000004A0800003C0000000600000002000000000000201B5555C0000000001D4541C0000000A03A418040000000803B0156C0000000809DB142C000000000772180400C00000013000000520800003C00000006
310
000000020000000000000000E053400000008001003DC000000000006080400000000000E053C00000008001003DC000000000006080400C000000130000005A0800003C00000006000000020000000000000000E053C00000008001003DC00000000000608040000000201B5555C0000000001D4541C0000000A03A418040
310
0C00000013000000620800003C000000060000000200000000000080177D53400000006065053BC0000000803F82804000000080177D53C00000006065053BC0000000803F8280400C000000130000006A0800003C00000006000000020000000000000000E053C00000008001003DC0000000000078804000000080177D53
310
C00000006065053BC0000000803F8280400C00000013000000720800003C00000006000000020000000000000000E053400000008001003DC000000000007880400000000000E053C00000008001003DC000000000007880400C000000130000007A0800003C00000006000000020000000000008070FE5240000000A0384E
310
39C000000040F99180400000008070FE52C0000000A0384E39C000000040F99180400C00000013000000820800003C00000006000000020000000000008070FE52C0000000A0384E39C000000040F991804000000080177D53C00000006065053BC0000000803F8280400C000000130000008A0800003C0000000600000002
310
00000000000000EBAC5240000000006E2A38C000000080AAA580400000008070FE5240000000A0384E39C000000040F99180400C00000013000000920800003C000000060000000200000000000000EBAC5240000000006E2A38C000000080AAA5804000000000EBAC52C0000000006E2A38C000000080AAA580400C000000
310
130000009A0800003C000000060000000200000000000000EBAC52C0000000006E2A38C000000080AAA580400000008070FE52C0000000A0384E39C000000040F99180400C00000013000000A20800003C0000000600000002000000000000E0A48C524000000040D8B037C0000000C060BA8040000000E0A48C52C0000000
310
40D8B037C0000000C060BA80400C00000013000000AA0800003C0000000600000002000000000000E0A48C52C000000040D8B037C0000000C060BA804000000000EBAC52C0000000006E2A38C000000080AAA580400C00000013000000B20800003C0000000600000002000000000000C093A45140000000E04F1233C00000
310
000000C48040000000C093A451C0000000E04F1233C00000000000C480400C00000013000000BA0800003C0000000600000002000000000000C093A451C0000000000000F9BE0000000000C48040000000C093A451C0000000E04F1233C00000000000C480400C00000013000000C20800003C000000060000000200000000
310
0000C093A45140000000000000F9BE0000000000C48040000000C093A451C0000000000000F9BE0000000000C480400C00000013000000CA0800003C0000000600000002000000000000A04FB35140000000203F4D33C0000000E099B08040000000A04FB351C0000000203F4D33C0000000E099B080400C00000013000000
310
D20800003C0000000600000002000000000000A04FB351C0000000203F4D33C0000000E099B08040000000C093A451C0000000E04F1233C00000000000C480400C00000013000000DA0800003C00000006000000020000000000004029CA514000000040A6A833C00000004037A180400000004029CA51C000000040A6A833
310
C00000004037A180400C00000013000000E20800003C0000000600000002000000000000A04FB351C0000000203F4D33C0000000E099B080400000004029CA51C000000040A6A833C00000004037A180400C00000013000000EA0800003C000000060000000200000000000000000053C000000080018038C000000040EB45
310
804000000060CD0754C000000000379F3CC0000000C02A3980400C00000013000000F20800003C0000000600000002000000000000000000534000000080018038C000000040EB45804000000000000053C000000080018038C000000040EB4580400C00000013000000FA0800003C0000000600000002000000000000C0A3
310
785540000000E08D1141C0000000A03A418040000000E0226A5540000000C0173341C0000000A03A4180400C00000013000000020900003C0000000600000002000000000000C0A3785540000000E08D1141C0000000A03A41804000000040E42D5640000000E0AE7742C000000000772180400C000000130000000A090000
310
3C0000000600000002000000000000609814544000000080AB6A3CC00000008033608040000000208CFB534000000080D4CF3CC0000000C0336080400C00000013000000120900003C0000000600000002000000000000A0961454400000004083753CC0000000C061788040000000C009FB5340000000C01ED93CC0000000
310
60607880400C000000130000001A0900003C0000000600000002000000000000001C99534000000000CDB63AC0000000804282804000000080D88D534000000000A8E03AC0000000C0408280400C00000013000000220900003C00000006000000020000000000008084FB564000000060666944C000000000000000000000
310
00E0B2145740000000A0093744C000000000000000000C000000130000002A0900003C00000006000000020000000000006029B85540000000E0ED9E41C000000020D0E27E40000000A05FAF5540000000206EB041C000000020D0E27E400C00000013000000320900003C000000060000000200000000000080A3FA564000
310
000000956744C00000004066B07E4000000020CA135740000000C0473544C00000004066B07E400C000000130000003A0900003C0000000600000002000000000000A05AA0554000000000115D41C0000000E003E97E4000000000868B5540000000A0558341C0000000E003E97E400C00000013000000420900003C000000
310
060000000200000000000080FA99554000000060884741C0000000C058F27E400000006020815540000000E0BE7441C0000000C058F27E400C000000130000004A0900003C000000060000000200000000000080A3FA56C000000000956744C00000004066B07E400000000000E056C0000000C0008044C00000000000B07E
310
400C00000013000000520900003C0000000600000002000000000000A05FAF55C0000000206EB041C000000020D0E27E4000000040F49F55C0000000A020C141C000000020D0E27E400C000000130000005A0900003C000000060000000200000000000080A3FA56C000000000956744C00000004066B07E40000000A05FAF
310
55C0000000206EB041C000000020D0E27E400C00000013000000620900003C0000000600000002000000000000E0B21457C0000000A0093744C0000000000000003F00000000002057C0000000C0000044C0000000000000003F0C000000130000006A0900003C000000060000000200000000000000000056C0000000C000
310
4042C0000000000000003F00000000002057C0000000C0000044C0000000000000003F0C00000013000000720900003C0000000600000002000000000000E0B21457C0000000A0093744C0000000000000003F00000000000056C0000000C0004042C0000000000000003F0C000000130000007A0900003C00000006000000
310
020000000000004096C055C0000000E0028041C000000020D0E27E40000000C081C055C0000000000000F9BE00000020D0E27E400C00000013000000820900003C000000060000000200000000000000002057C0000000000000F9BE0000000000B07E40000000C081C055C0000000000000F9BE00000020D0E27E400C0000
310
00130000008A0900003C000000060000000200000000000000002057C0000000C0000044C00000000000B07E4000000000002057C0000000000000F9BE0000000000B07E400C00000013000000920900003C00000006000000020000000000004096C055C0000000E0028041C000000020D0E27E4000000000002057C00000
310
00C0000044C00000000000B07E400C000000130000009A0900003C000000060000000200000000000020CA1357C0000000C0473544C00000004066B07E400000006029B855C0000000E0ED9E41C000000020D0E27E400C00000013000000A20900003C00000006000000020000000000004096C055C0000000E0028041C000
310
000020D0E27E400000006029B855C0000000E0ED9E41C000000020D0E27E400C00000013000000AA0900003C000000060000000200000000000000002057C0000000C0000044C00000000000B07E4000000020CA1357C0000000C0473544C00000004066B07E400C00000013000000B20900003C0000000600000002000000
310
0000008095C152C0000000A0778636C00000004023D080400000000000C052C000000080018036C00000000000E880400C00000013000000BA0900003C00000006000000020000000000000000C052C0000000000000F9BE0000000000E880400000000000C052C000000080018036C00000000000E880400C000000130000
310
00C20900003C0000000600000002000000000000A0AEC152C0000000000000F9BE0000004023D080400000000000C052C0000000000000F9BE0000000000E880400C00000013000000CA0900003C00000006000000020000000000008095C152C0000000A0778636C00000004023D08040000000A0AEC152C0000000000000
310
F9BE0000004023D080400C00000013000000D20900003C0000000600000002000000000000602FB752C0000000C0DC0637C00000004023D080400000004066B552C0000000A0DB0237C00000000001E880400C00000013000000DA0900003C00000006000000020000000000000000C052C000000080018036C00000000000
310
E880400000004066B552C0000000A0DB0237C00000000001E880400C00000013000000E20900003C00000006000000020000000000008095C152C0000000A0778636C00000004023D08040000000602FB752C0000000C0DC0637C00000004023D080400C00000013000000EA0900003C000000060000000200000000000060
310
57A152C0000000E0B35B37C00000004023D0804000000040DE9F52C0000000809F5537C00000000000E880400C00000013000000F20900003C00000006000000020000000000004066B552C0000000A0DB0237C00000000001E8804000000040DE9F52C0000000809F5537C00000000000E880400C00000013000000FA0900
310
003C0000000600000002000000000000602FB752C0000000C0DC0637C00000004023D080400000006057A152C0000000E0B35B37C00000004023D080400C00000013000000020A00003C000000060000000200000000000080168252C000000040238837C00000004023D0804000000000008052C000000080018037C00000
310
000000E880400C000000130000000A0A00003C000000060000000200000000000040DE9F52C0000000809F5537C00000000000E8804000000000008052C000000080018037C00000000000E880400C00000013000000120A00003C00000006000000020000000000006057A152C0000000E0B35B37C00000004023D0804000
310
000080168252C000000040238837C00000004023D080400C000000130000001A0A00003C000000060000000200000000000000002054C00000008001003CC0000000000078804000000000002054C0000000000000F9BE00000000007880400C00000013000000220A00003C000000060000000200000000000000002054C0
310
000000000000F9BE000000000060804000000000002054C0000000000000F9BE00000000007880400C000000130000002A0A00003C000000060000000200000000000000002054C00000008001003CC0000000000060804000000000002054C0000000000000F9BE00000000006080400C00000013000000320A00003C0000
310
00060000000200000000000000002054C00000008001003CC0000000000078804000000000002054C00000008001003CC000000000006080400C000000130000003A0A00003C000000060000000200000000000060316652C0000000000000F9BE000000E07178804000000000000053C0000000000000F9BE000000405064
310
80400C00000013000000420A00003C000000060000000200000000000000002054C0000000000000F9BE000000000078804000000000000053C0000000000000F9BE00000040506480400C000000130000004A0A00003C000000060000000200000000000000002054C0000000000000F9BE0000000000788040000000009C
310
9F53C0000000000000F9BE000000604D8280400C00000013000000520A00003C000000060000000200000000000060316652C0000000000000F9BE000000E071788040000000009C9F53C0000000000000F9BE000000604D8280400C000000130000005A0A00003C000000060000000200000000000000002054C000000080
310
01003CC0000000000078804000000000EDA253C0000000408E763AC0000000C0438280400C00000013000000620A00003C0000000600000002000000000000009C9F53C0000000000000F9BE000000604D82804000000000EDA253C0000000408E763AC0000000C0438280400C000000130000006A0A00003C000000060000
310
000200000000000000002054C00000008001003CC0000000000060804000000060BE7F55C0000000A0E7E440C0000000A03A4180400C00000013000000720A00003C000000060000000200000000000000002054C0000000000000F9BE000000000060804000000040F47655C0000000000000F9BE000000A03A4180400C00
310
0000130000007A0A00003C000000060000000200000000000060BE7F55C0000000A0E7E440C0000000A03A41804000000040F47655C0000000000000F9BE000000A03A4180400C00000013000000820A00003C000000060000000200000000000000000053C0000000000000F9BE000000405064804000000000000053C000
310
0000000000F9BE00000040EB4580400C000000130000008A0A00003C000000060000000200000000000000002054C0000000000000F9BE000000000060804000000000000053C0000000000000F9BE00000040EB4580400C00000013000000920A00003C000000060000000200000000000000002054C00000008001003CC0
310
0000000000788040000000A0961454C00000004083753CC0000000C0617880400C000000130000009A0A00003C000000060000000200000000000000002054C00000008001003CC0000000000060804000000060981454C000000080AB6A3CC000000080336080400C00000013000000A20A00003C00000006000000020000
310
00000000A0961454C00000004083753CC0000000C06178804000000060981454C000000080AB6A3CC000000080336080400C00000013000000AA0A00003C000000060000000200000000000020004C56C0000000000000F9BE0000000018377F4000000040E3B055C0000000000000F9BE000000A0C2F97E400C0000001300
310
0000B20A00003C00000006000000020000000000006003B155C0000000A08E4041C0000000A0C2F97E4000000040E3B055C0000000000000F9BE000000A0C2F97E400C00000013000000BA0A00003C0000000600000002000000000000007B5356C0000000A0D97442C00000000018377F400000006003B155C0000000A08E
310
4041C0000000A0C2F97E400C00000013000000C20A00003C000000060000000200000000000020004C56C0000000000000F9BE0000000018377F40000000007B5356C0000000A0D97442C00000000018377F400C00000013000000CA0A00003C00000006000000020000000000006003B155C0000000A08E4041C0000000A0
310
C2F97E4000000020BCA555C0000000A09B1241C0000000C058F27E400C00000013000000D20A00003C000000060000000200000000000040E3B055C0000000000000F9BE000000A0C2F97E40000000406AA355C0000000000000F9BE000000C058F27E400C00000013000000DA0A00003C0000000600000002000000000000
310
20BCA555C0000000A09B1241C0000000C058F27E40000000406AA355C0000000000000F9BE000000C058F27E400C00000013000000E20A00003C000000060000000200000000000040E3B055C0000000000000F9BE000000A0C2F97E40000000E05CD954C0000000000000F9BE00000080B9297F400C00000013000000EA0A
310
00003C000000060000000200000000000020004C56C0000000000000F9BE0000000018377F40000000C0F97455C0000000000000F9BE000000E092697F400C00000013000000F20A00003C0000000600000002000000000000E05CD954C0000000000000F9BE00000080B9297F40000000C0F97455C0000000000000F9BE00
310
0000E092697F400C00000013000000FA0A00003C0000000600000002000000000000406AA355C0000000000000F9BE000000C058F27E4000000000D48F54C0000000000000F9BE0000006015087F400C00000013000000020B00003C0000000600000002000000000000E05CD954C0000000000000F9BE00000080B9297F40
310
00000000D48F54C0000000000000F9BE0000006015087F400C000000130000000A0B00003C00000006000000020000000000006003B155C0000000A08E4041C0000000A0C2F97E40000000607AA755C0000000C09B6B41C0000000A0C2F97E400C00000013000000120B00003C000000060000000200000000000020AA4456
310
C0000000E0FEA642C00000000018377F40000000607AA755C0000000C09B6B41C0000000A0C2F97E400C000000130000001A0B00003C0000000600000002000000000000007B5356C0000000A0D97442C00000000018377F4000000020AA4456C0000000E0FEA642C00000000018377F400C00000013000000220B00003C00
310
0000060000000200000000000020BCA555C0000000A09B1241C0000000C058F27E4000000080FA9955C000000060884741C0000000C058F27E400C000000130000002A0B00003C0000000600000002000000000000607AA755C0000000C09B6B41C0000000A0C2F97E4000000080FA9955C000000060884741C0000000C058
310
F27E400C00000013000000320B00003C0000000600000002000000000000007B5356C0000000A0D97442C00000000018377F40000000208FBD56C0000000602F3D43C000000020308E7F400C000000130000003A0B00003C00000006000000020000000000002041CB56C0000000000000F9BE00000000F69C7F4000000020
310
8FBD56C0000000602F3D43C000000020308E7F400C00000013000000420B00003C000000060000000200000000000020004C56C0000000000000F9BE0000000018377F400000002041CB56C0000000000000F9BE00000000F69C7F400C000000130000004A0B00003C000000060000000200000000000020AA4456C0000000
310
E0FEA642C00000000018377F4000000040A8B056C0000000A0EA7443C0000000A0F98D7F400C00000013000000520B00003C0000000600000002000000000000208FBD56C0000000602F3D43C000000020308E7F4000000040A8B056C0000000A0EA7443C0000000A0F98D7F400C000000130000005A0B00003C0000000600
310
0000020000000000002041CB56C0000000000000F9BE00000000F69C7F4000000020CAB756C0000000000000F9BE0000008048EC7F400C00000013000000620B00003C0000000600000002000000000000208FBD56C0000000602F3D43C000000020308E7F40000000C086BA56C0000000E0783743C00000008048EC7F400C
310
000000130000006A0B00003C000000060000000200000000000020CAB756C0000000000000F9BE0000008048EC7F40000000C086BA56C0000000E0783743C00000008048EC7F400C00000013000000720B00003C000000060000000200000000000040A8B056C0000000A0EA7443C0000000A0F98D7F4000000040BEB056C0
310
00000040696F43C00000008048EC7F400C000000130000007A0B00003C0000000600000002000000000000C086BA56C0000000E0783743C00000008048EC7F4000000040BEB056C000000040696F43C00000008048EC7F400C00000013000000820B00003C0000000600000002000000000000C086BA56C0000000E0783743
310
C00000008048EC7F4000000040DE3856C0000000C0954242C000000000772180400C000000130000008A0B00003C0000000600000002000000000000604A3D56C0000000000000F9BE000000007721804000000040DE3856C0000000C0954242C000000000772180400C00000013000000920B00003C000000060000000200
310
000000000020CAB756C0000000000000F9BE0000008048EC7F40000000604A3D56C0000000000000F9BE00000000772180400C000000130000009A0B00003C000000060000000200000000000040BEB056C000000040696F43C00000008048EC7F4000000040E42D56C0000000E0AE7742C000000000772180400C00000013
310
000000A20B00003C000000060000000200000000000040DE3856C0000000C0954242C0000000007721804000000040E42D56C0000000E0AE7742C000000000772180400C00000013000000AA0B00003C000000060000000200000000000040F47655C0000000000000F9BE000000A03A418040000000604A3D56C000000000
310
0000F9BE00000000772180400C00000013000000B20B00003C000000060000000200000000000060BE7F55C0000000A0E7E440C0000000A03A41804000000040DE3856C0000000C0954242C000000000772180400C00000013000000BA0B00003C000000060000000200000000000060BE7F55C0000000A0E7E440C0000000
310
A03A418040000000C0A37855C0000000E08D1141C0000000A03A4180400C00000013000000C20B00003C000000060000000200000000000060981454C000000080AB6A3CC00000008033608040000000C0A37855C0000000E08D1141C0000000A03A4180400C00000013000000CA0B00003C00000006000000020000000000
310
0000000053C0000000000000F9BE00000040EB45804000000020E61554C0000000000000F9BE000000801A3880400C00000013000000D20B00003C000000060000000200000000000040F47655C0000000000000F9BE000000A03A41804000000020E61554C0000000000000F9BE000000801A3880400C00000013000000DA
310
0B00003C00000006000000020000000000004078F554C0000000000000F9BE000000E0451F8040000000009E8055C0000000000000F9BE0000004076FE7F400C00000013000000E20B00003C000000060000000200000000000020CAB756C0000000000000F9BE0000008048EC7F40000000009E8055C0000000000000F9BE
310
0000004076FE7F400C00000013000000EA0B00003C0000000600000002000000000000604A3D56C0000000000000F9BE00000000772180400000004078F554C0000000000000F9BE000000E0451F80400C00000013000000F20B00003C00000006000000020000000000002041CB56C0000000000000F9BE00000000F69C7F
310
40000000E01AAE55C0000000000000F9BE000000205AB67F400C00000013000000FA0B00003C0000000600000002000000000000009E8055C0000000000000F9BE0000004076FE7F40000000E01AAE55C0000000000000F9BE000000205AB67F400C00000013000000020C00003C0000000600000002000000000000C0F974
310
55C0000000000000F9BE000000E092697F40000000E01AAE55C0000000000000F9BE000000205AB67F400C000000130000000A0C00003C000000060000000200000000000020BCA555C0000000A09B1241C0000000C058F27E40000000804FAC55C000000080652D41C0000000E003E97E400C00000013000000120C00003C
310
0000000600000002000000000000406AA355C0000000000000F9BE000000C058F27E400000004047A955C0000000000000F9BE000000E003E97E400C000000130000001A0C00003C0000000600000002000000000000804FAC55C000000080652D41C0000000E003E97E400000004047A955C0000000000000F9BE000000E0
310
03E97E400C00000013000000220C00003C000000060000000200000000000000D48F54C0000000000000F9BE0000006015087F4000000000EF8654C0000000000000F9BE000000C0CFE17E400C000000130000002A0C00003C0000000600000002000000000000406AA355C0000000000000F9BE000000C058F27E40000000
310
00EF8654C0000000000000F9BE000000C0CFE17E400C00000013000000320C00003C00000006000000020000000000004096C055C0000000E0028041C000000020D0E27E40000000804FAC55C000000080652D41C0000000E003E97E400C000000130000003A0C00003C0000000600000002000000000000C081C055C00000
310
00000000F9BE00000020D0E27E400000004047A955C0000000000000F9BE000000E003E97E400C00000013000000420C00003C00000006000000020000000000006029B855C0000000E0ED9E41C000000020D0E27E40000000A05AA055C000000000115D41C0000000E003E97E400C000000130000004A0C00003C00000006
310
00000002000000000000804FAC55C000000080652D41C0000000E003E97E40000000A05AA055C000000000115D41C0000000E003E97E400C00000013000000520C00003C000000060000000200000000000080FA9955C000000060884741C0000000C058F27E40000000A05AA055C000000000115D41C0000000E003E97E40
310
0C000000130000005A0C00003C0000000600000002000000000000A0AEC152C0000000000000F9BE0000004023D0804000000020D6CB52C0000000000000F9BE000000C060BA80400C00000013000000620C00003C0000000600000002000000000000A009CD52C0000000E007B636C0000000C060BA804000000020D6CB52
310
C0000000000000F9BE000000C060BA80400C000000130000006A0C00003C00000006000000020000000000008095C152C0000000A0778636C00000004023D08040000000A009CD52C0000000E007B636C0000000C060BA80400C00000013000000720C00003C0000000600000002000000000000C093A451C0000000000000
310
F9BE0000000000C48040000000A0E8B551C0000000000000F9BE0000002062AE80400C000000130000007A0C00003C000000060000000200000000000020D6CB52C0000000000000F9BE000000C060BA8040000000A0E8B551C0000000000000F9BE0000002062AE80400C00000013000000820C00003C0000000600000002
310
000000000000A0AEC152C0000000000000F9BE0000004023D08040000000C093A451C0000000000000F9BE0000000000C480400C000000130000008A0C00003C0000000600000002000000000000A009CD52C0000000E007B636C0000000C060BA80400000006096EB52C0000000A0243837C000000080AAA580400C000000
310
13000000920C00003C000000060000000200000000000020D6CB52C0000000000000F9BE000000C060BA8040000000C0F7EB52C0000000000000F9BE00000080AAA580400C000000130000009A0C00003C00000006000000020000000000006096EB52C0000000A0243837C000000080AAA58040000000C0F7EB52C0000000
310
000000F9BE00000080AAA580400C00000013000000A20C00003C0000000600000002000000000000A0E8B551C0000000000000F9BE0000002062AE804000000080A3D051C0000000000000F9BE00000040F49D80400C00000013000000AA0C00003C0000000600000002000000000000C0F7EB52C0000000000000F9BE0000
310
0080AAA5804000000080A3D051C0000000000000F9BE00000040F49D80400C00000013000000B20C00003C0000000600000002000000000000C0F7EB52C0000000000000F9BE00000080AAA58040000000E0E62E53C0000000000000F9BE00000000D19180400C00000013000000BA0C00003C000000060000000200000000
310
000060702D53C000000040125C38C000000040F9918040000000E0E62E53C0000000000000F9BE00000000D19180400C00000013000000C20C00003C00000006000000020000000000006096EB52C0000000A0243837C000000080AAA5804000000060702D53C000000040125C38C000000040F99180400C00000013000000
310
CA0C00003C000000060000000200000000000080A3D051C0000000000000F9BE00000040F49D8040000000C07E0252C0000000000000F9BE000000E0E88B80400C00000013000000D20C00003C0000000600000002000000000000E0E62E53C0000000000000F9BE00000000D1918040000000C07E0252C0000000000000F9
310
BE000000E0E88B80400C00000013000000DA0C00003C000000060000000200000000000060316652C0000000000000F9BE000000E071788040000000C07E0252C0000000000000F9BE000000E0E88B80400C00000013000000E20C00003C0000000600000002000000000000009C9F53C0000000000000F9BE000000604D82
310
8040000000E0E62E53C0000000000000F9BE00000000D19180400C00000013000000EA0C00003C000000060000000200000000000060702D53C000000040125C38C000000040F991804000000040A82453C0000000C0E9BC38C000000040F99180400C00000013000000F20C00003C000000060000000200000000000000ED
310
A253C0000000408E763AC0000000C04382804000000060702D53C000000040125C38C000000040F99180400C00000013000000FA0C00003C000000060000000200000000000000EDA253C0000000408E763AC0000000C043828040000000001C9953C000000000CDB63AC000000080428280400C00000013000000020D0000
310
3C000000060000000200000000000040A82453C0000000C0E9BC38C000000040F9918040000000001C9953C000000000CDB63AC000000080428280400C000000130000000A0D00003C0000000600000002000000000000E00EE152C0000000007BBC37C000000080AAA58040000000E0C4C252C000000040973837C0000000
310
C060BA80400C00000013000000120D00003C0000000600000002000000000000A009CD52C0000000E007B636C0000000C060BA8040000000E0C4C252C000000040973837C0000000C060BA80400C000000130000001A0D00003C00000006000000020000000000006096EB52C0000000A0243837C000000080AAA580400000
310
00E00EE152C0000000007BBC37C000000080AAA580400C00000013000000220D00003C0000000600000002000000000000602FB752C0000000C0DC0637C00000004023D08040000000E0C4C252C000000040973837C0000000C060BA80400C000000130000002A0D00003C0000000600000002000000000000208CFB53C000
310
000080D4CF3CC0000000C0336080400000000000E053C00000008001003DC000000000006080400C00000013000000320D00003C00000006000000020000000000000000E053C00000008001003DC000000000007880400000000000E053C00000008001003DC000000000006080400C000000130000003A0D00003C000000
310
0600000002000000000000C009FB53C0000000C01ED93CC000000060607880400000000000E053C00000008001003DC000000000007880400C00000013000000420D00003C0000000600000002000000000000208CFB53C000000080D4CF3CC0000000C033608040000000C009FB53C0000000C01ED93CC000000060607880
310
400C000000130000004A0D00003C0000000600000002000000000000208CFB53C000000080D4CF3CC0000000C033608040000000E0226A55C0000000C0173341C0000000A03A4180400C00000013000000520D00003C0000000600000002000000000000201B5555C0000000001D4541C0000000A03A418040000000E0226A
310
55C0000000C0173341C0000000A03A4180400C000000130000005A0D00003C000000060000000200000000000000FD1756C00000006044A142C00000000077218040000000803B0156C0000000809DB142C000000000772180400C00000013000000620D00003C0000000600000002000000000000E0226A55C0000000C017
310
3341C0000000A03A41804000000000FD1756C00000006044A142C000000000772180400C000000130000006A0D00003C000000060000000200000000000000FD1756C00000006044A142C00000000077218040000000C0F19A56C000000040B89E43C00000008048EC7F400C00000013000000720D00003C00000006000000
310
02000000000000E0B87B56C0000000C007B543C00000008048EC7F40000000C0F19A56C000000040B89E43C00000008048EC7F400C000000130000007A0D00003C0000000600000002000000000000C0F19A56C000000040B89E43C00000008048EC7F40000000C0BA9A56C0000000C0BAA143C0000000400B8E7F400C0000
310
0013000000820D00003C000000060000000200000000000040987E56C0000000C020BB43C000000000308E7F40000000C0BA9A56C0000000C0BAA143C0000000400B8E7F400C000000130000008A0D00003C0000000600000002000000000000E0B87B56C0000000C007B543C00000008048EC7F4000000040987E56C00000
310
00C020BB43C000000000308E7F400C00000013000000920D00003C0000000600000002000000000000C0BA9A56C0000000C0BAA143C0000000400B8E7F4000000080AF3356C0000000C0C1C942C00000000018377F400C000000130000009A0D00003C0000000600000002000000000000806D1A56C0000000C0F9E642C000
310
00000018377F4000000080AF3356C0000000C0C1C942C00000000018377F400C00000013000000A20D00003C000000060000000200000000000020AA4456C0000000E0FEA642C00000000018377F4000000080AF3356C0000000C0C1C942C00000000018377F400C00000013000000AA0D00003C0000000600000002000000
310
000000607AA755C0000000C09B6B41C0000000A0C2F97E4000000000689755C000000040288D41C0000000A0C2F97E400C00000013000000B20D00003C000000060000000200000000000080AF3356C0000000C0C1C942C00000000018377F4000000000689755C000000040288D41C0000000A0C2F97E400C000000130000
310
00BA0D00003C000000060000000200000000000060208155C0000000E0BE7441C0000000C058F27E4000000060476655C000000080718841C0000000C058F27E400C00000013000000C20D00003C0000000600000002000000000000C0BE8255C0000000A0DCA041C0000000A0C2F97E4000000060476655C0000000807188
310
41C0000000C058F27E400C00000013000000CA0D00003C000000060000000200000000000000689755C000000040288D41C0000000A0C2F97E40000000C0BE8255C0000000A0DCA041C0000000A0C2F97E400C00000013000000D20D00003C000000060000000200000000000000689755C000000040288D41C0000000A0C2
310
F97E4000000060208155C0000000E0BE7441C0000000C058F27E400C00000013000000DA0D00003C000000060000000200000000000060208155C0000000E0BE7441C0000000C058F27E4000000000868B55C0000000A0558341C0000000E003E97E400C00000013000000E20D00003C000000060000000200000000000040
310
D67455C000000000CB9641C0000000E003E97E4000000000868B55C0000000A0558341C0000000E003E97E400C00000013000000EA0D00003C000000060000000200000000000060476655C000000080718841C0000000C058F27E4000000040D67455C000000000CB9641C0000000E003E97E400C00000013000000F20D00
310
003C0000000600000002000000000000A05FAF55C0000000206EB041C000000020D0E27E4000000000868B55C0000000A0558341C0000000E003E97E400C00000013000000FA0D00003C000000060000000200000000000040F49F55C0000000A020C141C000000020D0E27E4000000040D67455C000000000CB9641C00000
310
00E003E97E400C00000013000000020E00003C0000000600000002000000000000A035AC52C000000020A88737C0000000C060BA8040000000E0A48C52C000000040D8B037C0000000C060BA80400C000000130000000A0E00003C000000060000000200000000000080168252C000000040238837C00000004023D0804000
310
0000E0A48C52C000000040D8B037C0000000C060BA80400C00000013000000120E00003C00000006000000020000000000006057A152C0000000E0B35B37C00000004023D08040000000A035AC52C000000020A88737C0000000C060BA80400C000000130000001A0E00003C0000000600000002000000000000C038CC52C0
310
000000C0F90838C000000080AAA5804000000000EBAC52C0000000006E2A38C000000080AAA580400C00000013000000220E00003C0000000600000002000000000000A035AC52C000000020A88737C0000000C060BA8040000000C038CC52C0000000C0F90838C000000080AAA580400C000000130000002A0E00003C0000
310
000600000002000000000000E00EE152C0000000007BBC37C000000080AAA58040000000C038CC52C0000000C0F90838C000000080AAA580400C00000013000000320E00003C000000060000000200000000000040A82453C0000000C0E9BC38C000000040F9918040000000E00EE152C0000000007BBC37C000000080AAA5
310
80400C000000130000003A0E00003C000000060000000200000000000040A82453C0000000C0E9BC38C000000040F9918040000000C0E71353C000000000771839C000000040F99180400C00000013000000420E00003C0000000600000002000000000000C038CC52C0000000C0F90838C000000080AAA58040000000C0E7
310
1353C000000000771839C000000040F99180400C000000130000004A0E00003C000000060000000200000000000080D88D53C000000000A8E03AC0000000C04082804000000080177D53C00000006065053BC0000000803F8280400C00000013000000520E00003C0000000600000002000000000000C0E71353C000000000
310
771839C000000040F99180400000008070FE52C0000000A0384E39C000000040F99180400C000000130000005A0E00003C0000000600000002000000000000C0E71353C000000000771839C000000040F991804000000080D88D53C000000000A8E03AC0000000C0408280400C00000013000000620E00003C000000060000
310
0002000000000000E0C4C252C000000040973837C0000000C060BA8040000000A035AC52C000000020A88737C0000000C060BA80400C000000130000006A0E00003C000000060000000200000000000040E42D56C0000000E0AE7742C0000000007721804000000000FD1756C00000006044A142C000000000772180400C00
310
000013000000720E00003C000000060000000200000000000040BEB056C000000040696F43C00000008048EC7F40000000C0F19A56C000000040B89E43C00000008048EC7F400C000000130000007A0E00003C000000060000000200000000000040A8B056C0000000A0EA7443C0000000A0F98D7F40000000C0BA9A56C000
310
0000C0BAA143C0000000400B8E7F400C00000013000000820E00003C000000060000000200000000000040263155C0000000000000F9BE0000008049A47E4000000020263155C0000000E04CA240C00000008049A47E400C000000130000008A0E00003C000000060000000200000000000000000056C0000000000000F9BE
310
000000406E867E4000000000000056C0000000C0004042C0000000406E867E400C00000013000000920E00003C000000060000000200000000000040263155C0000000000000F9BE0000008049A47E4000000000000056C0000000000000F9BE000000406E867E400C000000130000009A0E00003C00000006000000020000
310
00000000A0E8B551C0000000000000F9BE0000002062AE8040000000A04FB351C0000000203F4D33C0000000E099B080400C00000013000000A20E00003C000000060000000200000000000000000053C0000000000000F9BE00000040EB45804000000000000053C000000080018038C000000040EB4580400C0000001300
310
0000AA0E00003C000000060000000200000000000000000053C0000000000000F9BE000000405064804000000000000053C000000080018038C000000040506480400C00000013000000B20E00003C000000060000000200000000000000000053C000000080018038C000000040EB45804000000000000053C00000008001
310
8038C000000040506480400C00000013000000BA0E00003C000000060000000200000000000000000053C000000080018038C0000000405064804000000060025E52C0000000400BF835C0000000E0717880400C00000013000000C20E00003C000000060000000200000000000060316652C0000000000000F9BE000000E0
310
7178804000000060025E52C0000000400BF835C0000000E0717880400C00000013000000CA0E00003C000000060000000200000000000020E61554C0000000000000F9BE000000801A38804000000060CD0754C000000000379F3CC0000000C02A3980400C00000013000000D20E00003C0000000600000002000000000000
310
A0B45755C0000000006AEF40C000000040FA587F40000000E05CD954C00000004075E53FC000000080B9297F400C00000013000000DA0E00003C0000000600000002000000000000E05CD954C0000000000000F9BE00000080B9297F40000000E05CD954C00000004075E53FC000000080B9297F400C00000013000000E20E
310
00003C0000000600000002000000000000C0F97455C0000000000000F9BE000000E092697F40000000A0B45755C0000000006AEF40C000000040FA587F400C00000013000000EA0E00003C0000000600000002000000000000E05CD954C00000004075E53FC000000080B9297F4000000060F49F54C0000000E0D2FF3EC000
310
0000C03B137F400C00000013000000F20E00003C000000060000000200000000000000D48F54C0000000000000F9BE0000006015087F4000000060F49F54C0000000E0D2FF3EC0000000C03B137F400C00000013000000FA0E00003C0000000600000002000000000000A0B45755C0000000006AEF40C000000040FA587F40
310
000000202A9F55C000000040557E41C0000000205AB67F400C00000013000000020F00003C0000000600000002000000000000E01AAE55C0000000000000F9BE000000205AB67F40000000202A9F55C000000040557E41C0000000205AB67F400C000000130000000A0F00003C0000000600000002000000000000009E8055
310
C0000000000000F9BE0000004076FE7F4000000060A04E55C0000000E0E20E41C0000000206D0480400C00000013000000120F00003C00000006000000020000000000004078F554C0000000000000F9BE000000E0451F80400000000058CF54C00000008061BD3FC000000040E12480400C000000130000001A0F00003C00
310
0000060000000200000000000020E61554C0000000000000F9BE000000801A3880400000004078F554C0000000000000F9BE000000E0451F80400C00000013000000220F00003C000000060000000200000000000060F49F54C0000000E0D2FF3EC0000000C03B137F40000000E0528D54C0000000C04CB53EC0000000A047
310
E57E400C000000130000002A0F00003C000000060000000200000000000000EF8654C0000000000000F9BE000000C0CFE17E40000000E0528D54C0000000C04CB53EC0000000A047E57E400C00000013000000320F00003C000000060000000200000000000000EF8654C0000000000000F9BE000000C0CFE17E40000000C0
310
63C054C0000000000000F9BE000000A044BE7E400C000000130000003A0F00003C0000000600000002000000000000C063C054C0000000000000F9BE000000A044BE7E40000000C063D454C0000000C090D13FC0000000A0B8B77E400C00000013000000420F00003C000000060000000200000000000040263155C0000000
310
000000F9BE0000008049A47E40000000C063C054C0000000000000F9BE000000A044BE7E400C000000130000004A0F00003C000000060000000200000000000080A3D051C0000000000000F9BE00000040F49D80400000004029CA51C000000040A6A833C00000004037A180400C00000013000000520F00003C0000000600
310
0000020000000000004029CA51C000000040A6A833C00000004037A18040000000E0780C52C000000040E5B134C000000040588980400C000000130000005A0F00003C0000000600000002000000000000C07E0252C0000000000000F9BE000000E0E88B8040000000E0780C52C000000040E5B134C000000040588980400C
310
00000013000000620F00003C000000060000000200000000000060025E52C0000000400BF835C0000000E071788040000000E0780C52C000000040E5B134C000000040588980400C000000130000006A0F00003C000000060000000200000000000080A3FA56C000000000956744C00000004066B07E400000008084FB56C0
310
00000060666944C0000000000000003F0C00000013000000720F00003C00000006000000020000000000000000E056C0000000C0008044C0000000000000003F0000008084FB56C000000060666944C0000000000000003F0C000000130000007A0F00003C000000060000000200000000000000002057C0000000C0000044
310
C0000000000000003F00000000002057C0000000C0000044C00000000000B07E400C00000013000000820F00003C0000000600000002000000000000E0B21457C0000000A0093744C0000000000000003F00000020CA1357C0000000C0473544C00000004066B07E400C000000130000008A0F00003C000000060000000200
310
000000000000002057C0000000000000F9BE0000000000B07E4000000000002057C0000000000000F9BE000000000000003F0C00000013000000920F00003C000000060000000200000000000000002057C0000000C0000044C0000000000000003F00000000002057C0000000000000F9BE000000000000003F0C00000013
310
0000009A0F00003C000000060000000200000000000000000056C0000000000000F9BE000000406E867E4000000000000056C0000000000000F9BE000000000000003F0C00000013000000A20F00003C000000060000000200000000000000002057C0000000000000F9BE000000000000003F00000000000056C000000000
310
0000F9BE000000000000003F0C00000013000000AA0F00003C000000060000000200000000000000002057C0000000000000F9BE0000000000B07E4000000000000056C0000000000000F9BE000000406E867E400C00000013000000B20F00003C000000060000000200000000000000000056C0000000C0004042C0000000
310
000000003F00000000000056C0000000C0004042C0000000406E867E400C00000013000000BA0F00003C000000060000000200000000000000000056C0000000C0004042C0000000000000003F00000000000056C0000000000000F9BE000000000000003F0C00000013000000C20F00003C00000006000000020000000000
310
00806D1A56C0000000C0F9E642C00000000018377F40000000C0BE8255C0000000A0DCA041C0000000A0C2F97E400C00000013000000CA0F00003C0000000600000002000000000000C009FB53C0000000C01ED93CC0000000606078804000000080D88D53C000000000A8E03AC0000000C0408280400C00000013000000D2
310
0F00003C0000000600000002000000000000A0961454C00000004083753CC0000000C061788040000000001C9953C000000000CDB63AC000000080428280400C00000013000000DA0F00003C00000006000000020000000000000000C052C0000000000000F9BE0000000000E8804000000000008052C000000080018037C0
310
0000000000E880400C00000013000000E20F00003C00000006000000020000000000000000C052C0000000000000F9BE0000000000E8804000000040DE9F52C0000000809F5537C00000000000E880400C00000013000000EA0F00003C00000006000000020000000000000000C052C0000000000000F9BE0000000000E880
310
400000004066B552C0000000A0DB0237C00000000001E880400C00000013000000F20F00003C00000006000000020000000000000000C052C0000000000000F9BE0000000000E88040000000C093A451C0000000000000F9BE0000000000C480400C00000013000000FA0F00003C0000000600000002000000000000C081C0
310
55C0000000000000F9BE00000020D0E27E4000000040263155C0000000000000F9BE0000008049A47E400C00000013000000021000003C00000006000000020000000000004047A955C0000000000000F9BE000000E003E97E40000000C063C054C0000000000000F9BE000000A044BE7E400C000000130000000A1000003C
310
000000060000000200000000000000000056C0000000C0004042C0000000000000003F0000008084FB56C000000060666944C0000000000000003F0C00000013000000121000003C0000000600000002000000000000A0B4575540000000006AEF40C000000040FA587F40000000A0B45755C0000000006AEF40C000000040
310
FA587F400C000000130000001A1000003C0000000600000002000000000000E05CD954400000004075E53FC000000080B9297F40000000E05CD954C00000004075E53FC000000080B9297F400C00000013000000221000003C000000060000000200000000000060F49F5440000000E0D2FF3EC0000000C03B137F40000000
310
60F49F54C0000000E0D2FF3EC0000000C03B137F400C000000130000002A1000003C000000060000000200000000000040D674554000000000CB9641C0000000E003E97E4000000040D67455C000000000CB9641C0000000E003E97E400C00000013000000321000003C000000060000000200000000000060476655400000
310
0080718841C0000000C058F27E4000000060476655C000000080718841C0000000C058F27E400C000000130000003A1000003C0000000600000002000000000000C0BE825540000000A0DCA041C0000000A0C2F97E40000000C0BE8255C0000000A0DCA041C0000000A0C2F97E400C00000013000000421000003C00000006
310
00000002000000000000801682524000000040238837C00000004023D0804000000080168252C000000040238837C00000004023D080400C000000130000004A1000003C0000000600000002000000000000000080524000000080018037C00000000000E8804000000000008052C000000080018037C00000000000E88040
310
0C00000013000000521000003C00000006000000020000000000000000C05240000000000000F9BE0000000000E880400000000000C052C0000000000000F9BE0000000000E880400C000000130000005A1000003C0000000600000002000000000000E0780C524000000040E5B134C00000004058898040000000E0780C52
310
C000000040E5B134C000000040588980400C00000013000000621000003C000000060000000200000000000060025E5240000000400BF835C0000000E07178804000000060025E52C0000000400BF835C0000000E0717880400C000000130000006A1000003C00000006000000020000000000000000005340000000800180
310
38C0000000405064804000000000000053C000000080018038C000000040506480400C00000013000000721000003C000000060000000200000000000040E42D56C0000000E0AE7742C00000000077218040000000C0A37855C0000000E08D1141C0000000A03A4180400C000000130000007A1000003C0000000600000002
310
000000000000C0A37855C0000000E08D1141C0000000A03A418040000000E0226A55C0000000C0173341C0000000A03A4180400C00000013000000821000003C000000060000000200000000000060981454C000000080AB6A3CC00000008033608040000000208CFB53C000000080D4CF3CC0000000C0336080400C000000
310
130000008A1000003C0000000600000002000000000000A0961454C00000004083753CC0000000C061788040000000C009FB53C0000000C01ED93CC000000060607880400C00000013000000921000003C0000000600000002000000000000001C9953C000000000CDB63AC0000000804282804000000080D88D53C0000000
310
00A8E03AC0000000C0408280400C000000130000009A1000003C0000000600000002000000000000E0B21457C0000000A0093744C0000000000000003F0000008084FB56C000000060666944C0000000000000003F0C00000013000000A21000003C000000060000000200000000000080A3FA56C000000000956744C00000
310
004066B07E4000000020CA1357C0000000C0473544C00000004066B07E400C00000013000000AA1000003C0000000600000002000000000000A05FAF55C0000000206EB041C000000020D0E27E400000006029B855C0000000E0ED9E41C000000020D0E27E400C00000013000000B21000003C000000060000000200000000
310
0000A05AA055C000000000115D41C0000000E003E97E4000000000868B55C0000000A0558341C0000000E003E97E400C00000013000000BA1000003C000000060000000200000000000080FA9955C000000060884741C0000000C058F27E4000000060208155C0000000E0BE7441C0000000C058F27E40
100
AcDbSubDMesh
 71
     2
 72
     0
 91
        0
 92
      266
 10
91.5
 20
-41.00002288818359
 30
491.0
 10
91.5
 20
-41.00002288818359
 30
0.0
 10
92.5
 20
-0.0000238418579102
 30
0.0
 10
92.5
 20
-40.00002288818359
 30
0.0
 10
92.5
 20
-40.00002288818359
 30
491.0
 10
92.5
 20
-0.0000238418579102
 30
491.0
 10
75.0
 20
-0.0000238418579102
 30
541.0
 10
75.0
 20
-22.50002288818359
 30
541.0
 10
74.83436584472656
 20
-23.01116371154785
 30
541.00048828125
 10
74.49794006347656
 20
-23.33446502685547
 30
541.0
 10
74.0
 20
-23.50002288818359
 30
541.0
 10
80.5
 20
-0.0000238418579102
 30
527.0
 10
80.5
 20
-0.0000238418579102
 30
524.0
 10
80.5
 20
-28.0000228881836
 30
524.0
 10
80.5
 20
-28.0000228881836
 30
527.0
 10
86.76387023925782
 20
-0.0000238418579102
 30
495.6100158691405
 10
86.76583099365235
 20
-34.50435256958008
 30
495.6100158691405
 10
89.30438232421876
 20
-36.91289138793945
 30
499.443359375
 10
90.96186065673828
 20
-38.47800827026367
 30
504.8867492675781
 10
90.91447448730468
 20
-38.43337631225586
 30
510.7677001953125
 10
88.88856506347655
 20
-36.52019500732422
 30
516.18310546875
 10
85.99599456787109
 20
-33.7883186340332
 30
520.1536254882812
 10
85.85865783691406
 20
-0.0000238418579102
 30
520.1536254882812
 10
88.9576644897461
 20
-0.0000238418579102
 30
516.18310546875
 10
90.87171173095702
 20
-0.0000238418579102
 30
510.7677001953125
 10
91.17584991455078
 20
-0.0000238418579102
 30
505.8100585937499
 10
89.18750762939453
 20
-0.0000238418579102
 30
499.443359375
 10
86.55335998535155
 20
-0.0000238418579102
 30
495.1466674804687
 10
86.64497375488281
 20
-0.0000238418579102
 30
494.5634460449219
 10
87.00791931152343
 20
-0.0000238418579102
 30
494.1758117675781
 10
87.00917053222656
 20
-35.00008773803711
 30
494.1758117675781
 10
86.69235229492187
 20
-34.35466003417969
 30
494.5634460449219
 10
86.58960723876953
 20
-34.1453742980957
 30
495.1466674804687
 10
75.02628326416015
 20
-0.0000238418579102
 30
538.0172119140625
 10
75.18494415283203
 20
-0.0000238418579102
 30
535.2972412109375
 10
75.68699645996094
 20
-0.0000238418579102
 30
532.7082519531249
 10
76.73284149169922
 20
-0.0000238418579102
 30
530.22705078125
 10
78.493896484375
 20
-0.0000238418579102
 30
528.2877807617187
 10
78.54571533203125
 20
-26.46310806274414
 30
528.2830810546875
 10
76.7099838256836
 20
-24.35965347290039
 30
530.2467041015624
 10
75.68105316162109
 20
-23.21930885314941
 30
532.7082519531249
 10
75.20371246337891
 20
-22.71105766296387
 30
535.2972412109375
 10
75.02474975585937
 20
-22.5252628326416
 30
538.0172119140625
 10
79.5
 20
-29.0000228881836
 30
527.0
 10
79.5
 20
-29.0000228881836
 30
524.0
 10
80.3218002319336
 20
-28.41667938232422
 30
524.0251464843749
 10
85.32978057861328
 20
-34.53994750976562
 30
520.1536254882812
 10
88.01925659179687
 20
-37.38761901855469
 30
516.18310546875
 10
89.93315887451172
 20
-39.41429901123047
 30
510.7677001953125
 10
89.97804260253905
 20
-39.46193695068359
 30
504.8867187499999
 10
88.41293334960937
 20
-37.80449676513672
 30
499.443359375
 10
85.59810638427734
 20
-35.06596374511719
 30
495.1466674804687
 10
85.82557678222656
 20
-35.17807006835937
 30
494.5634460449219
 10
86.49928283691407
 20
-35.50880813598633
 30
494.1758117675781
 10
91.91622924804688
 20
-40.80923461914062
 30
491.0249633789062
 10
74.03262329101562
 20
-23.53178787231446
 30
538.0172119140625
 10
74.19756317138672
 20
-23.69079971313476
 30
535.2972412109375
 10
74.70184326171875
 20
-24.16574096679688
 30
532.7082519531249
 10
75.97561645507813
 20
-25.30555152893067
 30
530.2467041015624
 10
77.95455932617187
 20
-27.02107810974121
 30
528.2810058593749
 10
74.52095794677735
 20
-23.35821342468262
 30
538.0172119140625
 10
74.6907730102539
 20
-23.52990913391113
 30
535.2972412109375
 10
75.19096374511718
 20
-24.03506088256836
 30
532.7082519531249
 10
74.86226654052734
 20
-23.02680587768555
 30
538.0172119140625
 10
75.04326629638672
 20
-23.2210578918457
 30
535.2972412109375
 10
75.51653289794922
 20
-23.73625183105469
 30
532.7082519531249
 10
76.57276916503906
 20
-24.73794174194336
 30
530.2467041015624
 10
78.392333984375
 20
-26.71406555175781
 30
528.282470703125
 10
80.32169342041015
 20
-28.45903396606445
 30
527.0477294921875
 10
85.88499450683594
 20
-34.13714218139649
 30
520.1536254882812
 10
88.71705627441405
 20
-36.93502426147461
 30
516.18310546875
 10
90.76161193847656
 20
-38.87039947509766
 30
510.7677001953125
 10
90.76026916503906
 20
-38.91341018676758
 30
504.8734436035156
 10
89.07288360595703
 20
-37.30465316772461
 30
499.443359375
 10
86.61684417724609
 20
-34.84069061279297
 30
495.6100158691405
 10
86.04289245605469
 20
-35.25673294067383
 30
495.6100158691405
 10
88.80758666992187
 20
-37.57622528076172
 30
499.443359375
 10
90.41764831542968
 20
-39.26351165771484
 30
504.8777465820312
 10
90.42100524902343
 20
-39.23999786376953
 30
510.7677001953125
 10
88.37481689453126
 20
-37.2598991394043
 30
516.18310546875
 10
86.40591430664063
 20
-34.5588493347168
 30
495.1466674804687
 10
86.50553131103515
 20
-34.72708129882813
 30
494.5634460449219
 10
86.87752532958985
 20
-35.24163436889649
 30
494.1758117675781
 10
91.92996215820313
 20
-40.82343673706055
 30
0.0
 10
88.0
 20
-36.5000228881836
 30
488.4019165039062
 10
88.0
 20
-0.0000238418579102
 30
0.0
 10
88.0
 20
-0.0000238418579102
 30
488.4019165039062
 10
70.57151794433593
 20
-0.0000238418579102
 30
536.5
 10
70.57151794433593
 20
-19.07153129577636
 30
536.5
 10
76.0
 20
-0.0000238418579102
 30
524.5391845703125
 10
76.0
 20
-24.50002288818359
 30
524.5391845703125
 10
76.0
 20
-24.50002288818359
 30
520.7398681640625
 10
76.0
 20
-0.0000238418579102
 30
520.7398681640625
 10
83.39629364013672
 20
-0.0000238418579102
 30
498.6077880859375
 10
85.82774353027344
 20
-0.0000238418579102
 30
502.5983581542968
 10
86.72039031982421
 20
-0.0000238418579102
 30
507.3970031738281
 10
86.0096435546875
 20
-0.0000238418579102
 30
511.9038696289062
 10
83.83546447753905
 20
-0.0000238418579102
 30
515.9091186523437
 10
80.34217071533204
 20
-0.0000238418579102
 30
519.012939453125
 10
80.12191009521485
 20
-28.62193298339844
 30
519.1458740234375
 10
83.23974609375
 20
-31.73976898193359
 30
516.6099853515625
 10
85.22853851318359
 20
-34.11629867553711
 30
512.5532836914062
 10
86.48694610595702
 20
-34.98697662353516
 30
507.3970031738281
 10
85.37039947509766
 20
-33.87042236328125
 30
501.5610961914062
 10
83.39629364013672
 20
-31.89632034301758
 30
498.6077880859375
 10
82.49929046630859
 20
-30.99931144714356
 30
497.2020874023437
 10
82.20818328857422
 20
-30.70820236206055
 30
494.3299865722656
 10
83.31858825683594
 20
-31.8186149597168
 30
491.4825744628906
 10
84.76795196533203
 20
-33.26797103881836
 30
490.2679443359375
 10
84.76795959472656
 20
-0.0000238418579102
 30
490.2679443359375
 10
83.00608825683594
 20
-0.0000238418579102
 30
491.8917541503906
 10
82.10833740234376
 20
-0.0000238418579102
 30
494.1132202148437
 10
82.247314453125
 20
-0.0000238418579102
 30
496.5052185058594
 10
70.8017349243164
 20
-19.30174446105957
 30
534.0751342773437
 10
71.15876770019531
 20
-19.65878677368164
 30
532.1519775390624
 10
72.19487762451172
 20
-20.69490432739258
 30
529.1680908203125
 10
73.46889495849609
 20
-21.96892166137695
 30
527.0556030273437
 10
73.59676361083984
 20
-0.0000238418579102
 30
527.0556030273437
 10
72.03898620605468
 20
-0.0000238418579102
 30
529.4887084960937
 10
71.25997924804687
 20
-0.0000238418579102
 30
531.7442626953124
 10
70.84232330322265
 20
-0.0000238418579102
 30
533.7979125976562
 10
79.93042755126953
 20
-28.81183624267578
 30
524.0252685546875
 10
76.31101989746094
 20
-25.09556579589844
 30
530.2467041015624
 10
78.21633911132813
 20
-26.8775634765625
 30
528.2816162109375
 10
79.92247009277344
 20
-28.84812545776367
 30
527.0470581054687
 10
85.65837860107421
 20
-34.39916229248047
 30
520.1536254882812
 10
92.30921173095703
 20
-40.41625213623047
 30
491.0249633789062
 10
86.36572265625
 20
-35.10279083251953
 30
495.6100158691405
 10
86.0176010131836
 20
-34.91207504272461
 30
495.1466674804687
 10
86.18005371093749
 20
-35.02605056762695
 30
494.5634460449219
 10
86.7402114868164
 20
-35.37836074829102
 30
494.1758117675781
 10
88.0
 20
-36.5000228881836
 30
0.0
 10
92.32341766357421
 20
-40.42998123168945
 30
0.0
 10
-91.91622924804688
 20
-40.80923461914062
 30
491.0249633789062
 10
-86.7402114868164
 20
-35.37836074829102
 30
494.1758117675781
 10
-86.49928283691407
 20
-35.50880813598633
 30
494.1758117675781
 10
-91.5
 20
-41.00002288818359
 30
491.0
 10
-92.32341766357421
 20
-40.42998123168945
 30
0.000030517578125
 10
-88.0
 20
-36.5000228881836
 30
0.000030517578125
 10
-92.5
 20
-40.00002288818359
 30
0.000030517578125
 10
-87.00917053222656
 20
-35.00008773803711
 30
494.1758117675781
 10
-92.5
 20
-40.00002288818359
 30
491.0
 10
-92.5
 20
-0.0000238418579102
 30
491.0
 10
-87.00791931152343
 20
-0.0000238418579102
 30
494.1758117675781
 10
-92.30921173095703
 20
-40.41625213623047
 30
491.0249633789062
 10
-86.87752532958985
 20
-35.24163436889649
 30
494.1758117675781
 10
-75.02474975585937
 20
-22.5252628326416
 30
538.0172119140625
 10
-75.02628326416015
 20
-0.0000238418579102
 30
538.0172119140625
 10
-75.0
 20
-0.0000238418579102
 30
541.0
 10
-75.0
 20
-22.50002288818359
 30
541.0
 10
-74.86226654052734
 20
-23.02680587768555
 30
538.0172119140625
 10
-74.83436584472656
 20
-23.01116371154785
 30
541.00048828125
 10
-74.52095794677735
 20
-23.35821342468262
 30
538.0172119140625
 10
-74.49794006347656
 20
-23.33446502685547
 30
541.0
 10
-74.03262329101562
 20
-23.53178787231446
 30
538.0172119140625
 10
-74.0
 20
-23.50002288818359
 30
541.0
 10
-80.5
 20
-28.0000228881836
 30
527.0
 10
-80.5
 20
-28.0000228881836
 30
524.0
 10
-80.5
 20
-0.0000238418579102
 30
524.0
 10
-80.5
 20
-0.0000238418579102
 30
527.0
 10
-73.59676361083984
 20
-0.0000238418579102
 30
527.0556030273437
 10
-78.493896484375
 20
-0.0000238418579102
 30
528.2877807617187
 10
-76.0
 20
-0.0000238418579102
 30
524.5391845703125
 10
-78.54571533203125
 20
-26.46310806274414
 30
528.2830810546875
 10
-85.99599456787109
 20
-33.7883186340332
 30
520.1536254882812
 10
-85.85865783691406
 20
-0.0000238418579102
 30
520.1536254882812
 10
-76.0
 20
-0.0000238418579102
 30
520.7398681640625
 10
-80.32169342041015
 20
-28.45903396606445
 30
527.0477294921875
 10
-80.3218002319336
 20
-28.41667938232422
 30
524.0251464843749
 10
-89.18750762939453
 20
-0.0000238418579102
 30
499.443359375
 10
-89.30438232421876
 20
-36.91289138793945
 30
499.443359375
 10
-86.76583099365235
 20
-34.50435256958008
 30
495.6100158691405
 10
-86.76387023925782
 20
-0.0000238418579102
 30
495.6100158691405
 10
-86.58960723876953
 20
-34.1453742980957
 30
495.1466674804687
 10
-86.55335998535155
 20
-0.0000238418579102
 30
495.1466674804687
 10
-83.39629364013672
 20
-0.0000238418579102
 30
498.6077880859375
 10
-85.82774353027344
 20
-0.0000238418579102
 30
502.5983581542968
 10
-82.247314453125
 20
-0.0000238418579102
 30
496.5052185058594
 10
-89.07288360595703
 20
-37.30465316772461
 30
499.443359375
 10
-86.61684417724609
 20
-34.84069061279297
 30
495.6100158691405
 10
-86.40591430664063
 20
-34.5588493347168
 30
495.1466674804687
 10
-91.17584991455078
 20
-0.0000238418579102
 30
505.8100585937499
 10
-90.96186065673828
 20
-38.47800827026367
 30
504.8867492675781
 10
-90.76026916503906
 20
-38.91341018676758
 30
504.8734436035156
 10
-90.87171173095702
 20
-0.0000238418579102
 30
510.7677001953125
 10
-90.91447448730468
 20
-38.43337631225586
 30
510.7677001953125
 10
-90.76161193847656
 20
-38.87039947509766
 30
510.7677001953125
 10
-88.9576644897461
 20
-0.0000238418579102
 30
516.18310546875
 10
-88.88856506347655
 20
-36.52019500732422
 30
516.18310546875
 10
-88.71705627441405
 20
-36.93502426147461
 30
516.18310546875
 10
-85.88499450683594
 20
-34.13714218139649
 30
520.1536254882812
 10
-80.34217071533204
 20
-0.0000238418579102
 30
519.012939453125
 10
-83.83546447753905
 20
-0.0000238418579102
 30
515.9091186523437
 10
-86.0096435546875
 20
-0.0000238418579102
 30
511.9038696289062
 10
-86.72039031982421
 20
-0.0000238418579102
 30
507.3970031738281
 10
-86.69235229492187
 20
-34.35466003417969
 30
494.5634460449219
 10
-86.64497375488281
 20
-0.0000238418579102
 30
494.5634460449219
 10
-82.10833740234376
 20
-0.0000238418579102
 30
494.1132202148437
 10
-86.50553131103515
 20
-34.72708129882813
 30
494.5634460449219
 10
-75.20371246337891
 20
-22.71105766296387
 30
535.2972412109375
 10
-75.18494415283203
 20
-0.0000238418579102
 30
535.2972412109375
 10
-70.57151794433593
 20
-0.0000238418579102
 30
536.5
 10
-70.84232330322265
 20
-0.0000238418579102
 30
533.7979125976562
 10
-75.68105316162109
 20
-23.21930885314941
 30
532.7082519531249
 10
-75.68699645996094
 20
-0.0000238418579102
 30
532.7082519531249
 10
-71.25997924804687
 20
-0.0000238418579102
 30
531.7442626953124
 10
-76.7099838256836
 20
-24.35965347290039
 30
530.2467041015624
 10
-76.73284149169922
 20
-0.0000238418579102
 30
530.22705078125
 10
-72.03898620605468
 20
-0.0000238418579102
 30
529.4887084960937
 10
-76.57276916503906
 20
-24.73794174194336
 30
530.2467041015624
 10
-78.392333984375
 20
-26.71406555175781
 30
528.282470703125
 10
-75.51653289794922
 20
-23.73625183105469
 30
532.7082519531249
 10
-75.04326629638672
 20
-23.2210578918457
 30
535.2972412109375
 10
-79.93042755126953
 20
-28.81183624267578
 30
524.0252685546875
 10
-79.92247009277344
 20
-28.84812545776367
 30
527.0470581054687
 10
-79.5
 20
-29.0000228881836
 30
527.0
 10
-79.5
 20
-29.0000228881836
 30
524.0
 10
-85.32978057861328
 20
-34.53994750976562
 30
520.1536254882812
 10
-85.65837860107421
 20
-34.39916229248047
 30
520.1536254882812
 10
-88.37481689453126
 20
-37.2598991394043
 30
516.18310546875
 10
-88.01925659179687
 20
-37.38761901855469
 30
516.18310546875
 10
-89.93315887451172
 20
-39.41429901123047
 30
510.7677001953125
 10
-90.42100524902343
 20
-39.23999786376953
 30
510.7677001953125
 10
-89.97804260253905
 20
-39.46193695068359
 30
504.8867187499999
 10
-90.41764831542968
 20
-39.26351165771484
 30
504.8777465820312
 10
-88.41293334960937
 20
-37.80449676513672
 30
499.443359375
 10
-88.80758666992187
 20
-37.57622528076172
 30
499.443359375
 10
-86.36572265625
 20
-35.10279083251953
 30
495.6100158691405
 10
-86.0176010131836
 20
-34.91207504272461
 30
495.1466674804687
 10
-86.04289245605469
 20
-35.25673294067383
 30
495.6100158691405
 10
-85.59810638427734
 20
-35.06596374511719
 30
495.1466674804687
 10
-85.82557678222656
 20
-35.17807006835937
 30
494.5634460449219
 10
-86.18005371093749
 20
-35.02605056762695
 30
494.5634460449219
 10
-74.6907730102539
 20
-23.52990913391113
 30
535.2972412109375
 10
-74.19756317138672
 20
-23.69079971313476
 30
535.2972412109375
 10
-75.19096374511718
 20
-24.03506088256836
 30
532.7082519531249
 10
-74.70184326171875
 20
-24.16574096679688
 30
532.7082519531249
 10
-76.31101989746094
 20
-25.09556579589844
 30
530.2467041015624
 10
-78.21633911132813
 20
-26.8775634765625
 30
528.2816162109375
 10
-75.97561645507813
 20
-25.30555152893067
 30
530.2467041015624
 10
-77.95455932617187
 20
-27.02107810974121
 30
528.2810058593749
 10
-84.76795959472656
 20
-0.0000238418579102
 30
490.2679443359375
 10
-88.0
 20
-0.0000238418579102
 30
488.4019165039062
 10
-88.0
 20
-36.5000228881836
 30
488.4019165039062
 10
-84.76795196533203
 20
-33.26797103881836
 30
490.2679443359375
 10
-70.8017349243164
 20
-19.30174446105957
 30
534.0751342773437
 10
-70.57151794433593
 20
-19.07153129577636
 30
536.5
 10
-76.0
 20
-24.50002288818359
 30
520.7398681640625
 10
-76.0
 20
-24.50002288818359
 30
524.5391845703125
 10
-73.46889495849609
 20
-21.96892166137695
 30
527.0556030273437
 10
-80.12191009521485
 20
-28.62193298339844
 30
519.1458740234375
 10
-85.37039947509766
 20
-33.87042236328125
 30
501.5610961914062
 10
-83.39629364013672
 20
-31.89632034301758
 30
498.6077880859375
 10
-82.49929046630859
 20
-30.99931144714356
 30
497.2020874023437
 10
-86.48694610595702
 20
-34.98697662353516
 30
507.3970031738281
 10
-85.22853851318359
 20
-34.11629867553711
 30
512.5532836914062
 10
-83.23974609375
 20
-31.73976898193359
 30
516.6099853515625
 10
-82.20818328857422
 20
-30.70820236206055
 30
494.3299865722656
 10
-83.00608825683594
 20
-0.0000238418579102
 30
491.8917541503906
 10
-83.31858825683594
 20
-31.8186149597168
 30
491.4825744628906
 10
-71.15876770019531
 20
-19.65878677368164
 30
532.1519775390624
 10
-72.19487762451172
 20
-20.69490432739258
 30
529.1680908203125
 10
-91.5
 20
-41.00002288818359
 30
0.000030517578125
 10
-91.92996215820313
 20
-40.82343673706055
 30
0.000030517578125
 10
-92.5
 20
-0.0000238418579102
 30
0.000030517578125
 10
-88.0
 20
-0.0000238418579102
 30
0.000030517578125
 93
     1344
 90
        4
 90
       54
 90
      130
 90
       53
 90
        0
 90
        3
 90
      132
 90
      131
 90
        3
 90
        4
 90
       30
 90
        4
 90
        5
 90
       29
 90
        4
 90
      126
 90
        4
 90
       30
 90
       82
 90
        4
 90
       42
 90
       33
 90
        6
 90
        7
 90
        4
 90
       63
 90
       42
 90
        7
 90
        8
 90
        4
 90
       60
 90
       63
 90
        8
 90
        9
 90
        4
 90
       55
 90
       60
 90
        9
 90
       10
 90
        4
 90
       14
 90
       13
 90
       12
 90
       11
 90
        4
 90
      117
 90
       37
 90
       11
 90
       89
 90
        4
 90
       37
 90
       38
 90
       14
 90
       11
 90
        4
 90
       21
 90
       22
 90
       12
 90
       13
 90
        4
 90
       89
 90
       11
 90
       12
 90
       92
 90
        4
 90
       68
 90
       45
 90
       13
 90
       14
 90
        4
 90
       26
 90
       17
 90
       16
 90
       15
 90
        4
 90
       32
 90
       27
 90
       15
 90
       16
 90
        4
 90
       93
 90
       94
 90
       26
 90
       15
 90
        4
 90
      112
 90
       93
 90
       15
 90
       27
 90
        4
 90
       16
 90
       17
 90
       73
 90
       74
 90
        4
 90
       74
 90
       80
 90
       32
 90
       16
 90
        4
 90
       26
 90
       25
 90
       18
 90
       17
 90
        4
 90
       73
 90
       17
 90
       18
 90
       72
 90
        4
 90
       24
 90
       19
 90
       18
 90
       25
 90
        4
 90
       72
 90
       18
 90
       19
 90
       71
 90
        4
 90
       24
 90
       23
 90
       20
 90
       19
 90
        4
 90
       71
 90
       19
 90
       20
 90
       70
 90
        4
 90
       22
 90
       21
 90
       20
 90
       23
 90
        4
 90
       45
 90
       69
 90
       21
 90
       13
 90
        4
 90
       92
 90
       12
 90
       22
 90
       98
 90
        4
 90
       97
 90
       23
 90
       24
 90
       96
 90
        4
 90
       95
 90
       96
 90
       24
 90
       25
 90
        4
 90
       94
 90
       95
 90
       25
 90
       26
 90
        4
 90
       31
 90
       28
 90
       27
 90
       32
 90
        3
 90
      112
 90
       27
 90
      111
 90
        4
 90
       30
 90
       29
 90
       28
 90
       31
 90
        4
 90
       82
 90
       30
 90
       31
 90
       81
 90
        4
 90
       80
 90
       81
 90
       31
 90
       32
 90
        4
 90
       42
 90
       41
 90
       34
 90
       33
 90
        4
 90
       87
 90
       33
 90
       34
 90
      120
 90
        4
 90
       40
 90
       35
 90
       34
 90
       41
 90
        4
 90
      120
 90
       34
 90
       35
 90
      119
 90
        4
 90
       40
 90
       39
 90
       36
 90
       35
 90
        4
 90
      119
 90
       35
 90
       36
 90
      118
 90
        4
 90
       36
 90
       37
 90
      117
 90
      118
 90
        4
 90
       66
 90
       67
 90
       38
 90
       39
 90
        4
 90
       65
 90
       40
 90
       41
 90
       64
 90
        4
 90
       64
 90
       41
 90
       42
 90
       63
 90
        4
 90
      121
 90
      124
 90
       43
 90
       44
 90
        4
 90
      121
 90
       44
 90
       46
 90
      125
 90
        4
 90
       79
 90
      125
 90
       46
 90
       47
 90
        4
 90
       79
 90
       47
 90
       48
 90
       78
 90
        4
 90
       78
 90
       48
 90
       49
 90
       77
 90
        4
 90
       77
 90
       49
 90
       50
 90
       76
 90
        4
 90
       76
 90
      127
 90
       74
 90
       73
 90
        4
 90
      128
 90
      127
 90
       75
 90
       51
 90
        4
 90
      128
 90
       51
 90
       52
 90
      129
 90
        4
 90
      129
 90
       52
 90
       53
 90
      130
 90
        4
 90
       61
 90
       60
 90
       55
 90
       56
 90
        4
 90
       62
 90
       61
 90
       56
 90
       57
 90
        4
 90
       62
 90
      122
 90
       66
 90
       65
 90
        4
 90
      123
 90
      122
 90
       58
 90
       59
 90
        4
 90
       63
 90
       60
 90
       61
 90
       64
 90
        4
 90
       64
 90
       61
 90
       62
 90
       65
 90
        4
 90
       79
 90
       78
 90
       71
 90
       70
 90
        4
 90
       78
 90
       77
 90
       72
 90
       71
 90
        4
 90
       77
 90
       76
 90
       73
 90
       72
 90
        4
 90
      109
 90
       86
 90
       84
 90
      108
 90
        4
 90
      120
 90
      113
 90
       88
 90
       87
 90
        4
 90
       91
 90
       90
 90
       89
 90
       92
 90
        4
 90
      116
 90
      117
 90
       89
 90
       90
 90
        4
 90
       98
 90
       99
 90
       91
 90
       92
 90
        4
 90
      103
 90
       94
 90
       93
 90
      104
 90
        4
 90
      112
 90
      105
 90
      104
 90
       93
 90
        4
 90
      102
 90
       95
 90
       94
 90
      103
 90
        4
 90
      102
 90
      101
 90
       96
 90
       95
 90
        4
 90
      101
 90
      100
 90
       97
 90
       96
 90
        4
 90
      100
 90
       99
 90
       98
 90
       97
 90
        4
 90
      112
 90
      111
 90
      106
 90
      105
 90
        4
 90
      110
 90
      107
 90
      106
 90
      111
 90
        4
 90
      109
 90
      108
 90
      107
 90
      110
 90
        4
 90
      120
 90
      119
 90
      114
 90
      113
 90
        4
 90
      118
 90
      115
 90
      114
 90
      119
 90
        4
 90
      117
 90
      116
 90
      115
 90
      118
 90
        4
 90
       54
 90
        0
 90
        1
 90
       83
 90
        4
 90
        4
 90
      126
 90
      132
 90
        3
 90
        4
 90
        5
 90
        4
 90
        3
 90
        2
 90
        4
 90
       86
 90
        5
 90
        2
 90
       85
 90
        4
 90
       84
 90
       86
 90
       85
 90
      131
 90
        4
 90
       76
 90
       50
 90
       75
 90
      127
 90
        4
 90
      123
 90
       59
 90
       43
 90
      124
 90
        4
 90
       38
 90
       67
 90
       68
 90
       14
 90
        4
 90
       36
 90
       39
 90
       38
 90
       37
 90
        3
 90
       10
 90
        9
 90
        6
 90
        3
 90
        9
 90
        8
 90
        6
 90
        3
 90
        8
 90
        7
 90
        6
 90
        3
 90
        6
 90
       33
 90
       87
 90
        4
 90
       22
 90
       23
 90
       97
 90
       98
 90
        4
 90
       29
 90
        5
 90
       86
 90
      109
 90
        4
 90
       28
 90
       29
 90
      109
 90
      110
 90
        4
 90
       27
 90
       28
 90
      110
 90
      111
 90
        3
 90
      131
 90
       83
 90
        1
 90
        4
 90
      131
 90
       85
 90
        2
 90
        3
 90
        4
 90
       99
 90
      100
 90
      256
 90
      250
 90
        4
 90
      100
 90
      101
 90
      255
 90
      256
 90
        4
 90
      101
 90
      102
 90
      254
 90
      255
 90
        4
 90
      106
 90
      107
 90
      259
 90
      257
 90
        4
 90
      107
 90
      108
 90
      244
 90
      259
 90
        4
 90
      108
 90
       84
 90
      243
 90
      244
 90
        4
 90
      131
 90
        1
 90
      262
 90
      138
 90
        4
 90
        1
 90
        0
 90
      136
 90
      262
 90
        4
 90
        0
 90
       53
 90
      135
 90
      136
 90
        4
 90
       50
 90
       49
 90
      223
 90
      225
 90
        4
 90
       48
 90
       47
 90
      220
 90
      221
 90
        4
 90
       47
 90
       46
 90
      217
 90
      220
 90
        4
 90
       46
 90
       44
 90
      216
 90
      217
 90
        4
 90
       43
 90
       59
 90
      240
 90
      215
 90
        4
 90
       59
 90
       58
 90
      239
 90
      240
 90
        4
 90
       58
 90
       57
 90
      236
 90
      239
 90
        4
 90
       57
 90
       56
 90
      234
 90
      236
 90
        4
 90
       87
 90
       88
 90
      246
 90
      201
 90
        4
 90
       88
 90
      113
 90
      245
 90
      246
 90
        4
 90
      113
 90
      114
 90
      260
 90
      245
 90
        4
 90
       91
 90
       99
 90
      250
 90
      247
 90
        4
 90
       69
 90
      125
 90
       79
 90
       70
 90
        4
 90
       45
 90
      121
 90
      125
 90
       69
 90
        4
 90
       68
 90
      124
 90
      121
 90
       45
 90
        4
 90
       66
 90
      122
 90
      123
 90
       67
 90
        4
 90
       67
 90
      123
 90
      124
 90
       68
 90
        4
 90
       70
 90
       20
 90
       21
 90
       69
 90
        4
 90
       62
 90
       57
 90
       58
 90
      122
 90
        4
 90
       66
 90
       39
 90
       40
 90
       65
 90
        3
 90
       83
 90
      131
 90
      132
 90
        4
 90
       82
 90
      130
 90
       54
 90
      126
 90
        4
 90
       81
 90
      129
 90
      130
 90
       82
 90
        4
 90
       80
 90
      128
 90
      129
 90
       81
 90
        4
 90
       74
 90
      127
 90
      128
 90
       80
 90
        4
 90
       83
 90
      132
 90
      126
 90
       54
 90
        4
 90
      133
 90
      136
 90
      135
 90
      134
 90
        3
 90
      137
 90
      139
 90
      138
 90
        4
 90
      140
 90
      143
 90
      142
 90
      141
 90
        4
 90
      144
 90
      145
 90
      140
 90
      141
 90
        4
 90
      146
 90
      149
 90
      148
 90
      147
 90
        4
 90
      150
 90
      151
 90
      149
 90
      146
 90
        4
 90
      152
 90
      153
 90
      151
 90
      150
 90
        4
 90
      154
 90
      155
 90
      153
 90
      152
 90
        4
 90
      156
 90
      159
 90
      158
 90
      157
 90
        4
 90
      160
 90
      162
 90
      159
 90
      161
 90
        4
 90
      161
 90
      159
 90
      156
 90
      163
 90
        4
 90
      164
 90
      157
 90
      158
 90
      165
 90
        4
 90
      162
 90
      166
 90
      158
 90
      159
 90
        4
 90
      167
 90
      156
 90
      157
 90
      168
 90
        4
 90
      169
 90
      172
 90
      171
 90
      170
 90
        4
 90
      173
 90
      171
 90
      172
 90
      174
 90
        4
 90
      175
 90
      172
 90
      169
 90
      176
 90
        4
 90
      177
 90
      174
 90
      172
 90
      175
 90
        4
 90
      171
 90
      179
 90
      178
 90
      170
 90
        4
 90
      179
 90
      171
 90
      173
 90
      180
 90
        4
 90
      169
 90
      170
 90
      182
 90
      181
 90
        4
 90
      178
 90
      183
 90
      182
 90
      170
 90
        4
 90
      184
 90
      181
 90
      182
 90
      185
 90
        4
 90
      183
 90
      186
 90
      185
 90
      182
 90
        4
 90
      184
 90
      185
 90
      188
 90
      187
 90
        4
 90
      186
 90
      189
 90
      188
 90
      185
 90
        4
 90
      165
 90
      187
 90
      188
 90
      164
 90
        4
 90
      168
 90
      157
 90
      164
 90
      190
 90
        4
 90
      166
 90
      191
 90
      165
 90
      158
 90
        4
 90
      192
 90
      193
 90
      184
 90
      187
 90
        4
 90
      194
 90
      181
 90
      184
 90
      193
 90
        4
 90
      176
 90
      169
 90
      181
 90
      194
 90
        4
 90
      195
 90
      173
 90
      174
 90
      196
 90
        3
 90
      177
 90
      197
 90
      174
 90
        4
 90
      140
 90
      195
 90
      196
 90
      143
 90
        4
 90
      145
 90
      198
 90
      195
 90
      140
 90
        4
 90
      180
 90
      173
 90
      195
 90
      198
 90
        4
 90
      146
 90
      147
 90
      200
 90
      199
 90
        4
 90
      201
 90
      202
 90
      200
 90
      147
 90
        4
 90
      203
 90
      199
 90
      200
 90
      204
 90
        4
 90
      202
 90
      205
 90
      204
 90
      200
 90
        4
 90
      203
 90
      204
 90
      207
 90
      206
 90
        4
 90
      205
 90
      208
 90
      207
 90
      204
 90
        4
 90
      207
 90
      208
 90
      160
 90
      161
 90
        4
 90
      209
 90
      206
 90
      163
 90
      210
 90
        4
 90
      211
 90
      212
 90
      199
 90
      203
 90
        4
 90
      212
 90
      150
 90
      146
 90
      199
 90
        4
 90
      213
 90
      216
 90
      215
 90
      214
 90
        4
 90
      213
 90
      218
 90
      217
 90
      216
 90
        4
 90
      219
 90
      220
 90
      217
 90
      218
 90
        4
 90
      219
 90
      222
 90
      221
 90
      220
 90
        4
 90
      222
 90
      224
 90
      223
 90
      221
 90
        4
 90
      224
 90
      226
 90
      225
 90
      223
 90
        4
 90
      226
 90
      178
 90
      179
 90
      227
 90
        4
 90
      228
 90
      230
 90
      229
 90
      227
 90
        4
 90
      228
 90
      232
 90
      231
 90
      230
 90
        4
 90
      232
 90
      134
 90
      135
 90
      231
 90
        4
 90
      233
 90
      234
 90
      154
 90
      152
 90
        4
 90
      235
 90
      236
 90
      234
 90
      233
 90
        4
 90
      235
 90
      211
 90
      209
 90
      237
 90
        4
 90
      238
 90
      240
 90
      239
 90
      237
 90
        4
 90
      150
 90
      212
 90
      233
 90
      152
 90
        4
 90
      212
 90
      211
 90
      235
 90
      233
 90
        4
 90
      219
 90
      189
 90
      186
 90
      222
 90
        4
 90
      222
 90
      186
 90
      183
 90
      224
 90
        4
 90
      224
 90
      183
 90
      178
 90
      226
 90
        4
 90
      241
 90
      244
 90
      243
 90
      242
 90
        4
 90
      202
 90
      201
 90
      246
 90
      245
 90
        4
 90
      247
 90
      166
 90
      162
 90
      248
 90
        4
 90
      249
 90
      248
 90
      162
 90
      160
 90
        4
 90
      191
 90
      166
 90
      247
 90
      250
 90
        4
 90
      251
 90
      252
 90
      175
 90
      176
 90
        4
 90
      177
 90
      175
 90
      252
 90
      253
 90
        4
 90
      254
 90
      251
 90
      176
 90
      194
 90
        4
 90
      254
 90
      194
 90
      193
 90
      255
 90
        4
 90
      255
 90
      193
 90
      192
 90
      256
 90
        4
 90
      256
 90
      192
 90
      191
 90
      250
 90
        4
 90
      177
 90
      253
 90
      257
 90
      197
 90
        4
 90
      258
 90
      197
 90
      257
 90
      259
 90
        4
 90
      241
 90
      258
 90
      259
 90
      244
 90
        4
 90
      202
 90
      245
 90
      260
 90
      205
 90
        4
 90
      208
 90
      205
 90
      260
 90
      261
 90
        4
 90
      160
 90
      208
 90
      261
 90
      249
 90
        4
 90
      133
 90
      263
 90
      262
 90
      136
 90
        4
 90
      141
 90
      139
 90
      137
 90
      144
 90
        4
 90
      142
 90
      264
 90
      139
 90
      141
 90
        4
 90
      242
 90
      265
 90
      264
 90
      142
 90
        4
 90
      243
 90
      138
 90
      265
 90
      242
 90
        4
 90
      226
 90
      227
 90
      229
 90
      225
 90
        4
 90
      238
 90
      214
 90
      215
 90
      240
 90
        4
 90
      163
 90
      156
 90
      167
 90
      210
 90
        4
 90
      207
 90
      161
 90
      163
 90
      206
 90
        3
 90
      155
 90
      148
 90
      153
 90
        3
 90
      153
 90
      148
 90
      151
 90
        3
 90
      151
 90
      148
 90
      149
 90
        3
 90
      148
 90
      201
 90
      147
 90
        4
 90
      165
 90
      191
 90
      192
 90
      187
 90
        4
 90
      143
 90
      241
 90
      242
 90
      142
 90
        4
 90
      196
 90
      258
 90
      241
 90
      143
 90
        4
 90
      174
 90
      197
 90
      258
 90
      196
 90
        3
 90
      138
 90
      262
 90
      263
 90
        4
 90
      138
 90
      139
 90
      264
 90
      265
 90
        4
 90
      254
 90
      102
 90
      103
 90
      251
 90
        4
 90
      251
 90
      103
 90
      104
 90
      252
 90
        4
 90
      252
 90
      104
 90
      105
 90
      253
 90
        4
 90
      253
 90
      105
 90
      106
 90
      257
 90
        4
 90
      243
 90
       84
 90
      131
 90
      138
 90
        4
 90
      135
 90
       53
 90
       52
 90
      231
 90
        4
 90
      231
 90
       52
 90
       51
 90
      230
 90
        4
 90
      230
 90
       51
 90
       75
 90
      229
 90
        4
 90
      229
 90
       75
 90
       50
 90
      225
 90
        4
 90
      223
 90
       49
 90
       48
 90
      221
 90
        4
 90
      216
 90
       44
 90
       43
 90
      215
 90
        4
 90
      234
 90
       56
 90
       55
 90
      154
 90
        4
 90
      154
 90
       55
 90
       10
 90
      155
 90
        4
 90
      155
 90
       10
 90
        6
 90
      148
 90
        4
 90
      148
 90
        6
 90
       87
 90
      201
 90
        4
 90
      260
 90
      114
 90
      115
 90
      261
 90
        4
 90
      261
 90
      115
 90
      116
 90
      249
 90
        4
 90
      249
 90
      116
 90
       90
 90
      248
 90
        4
 90
      248
 90
       90
 90
       91
 90
      247
 90
        4
 90
      190
 90
      189
 90
      219
 90
      218
 90
        4
 90
      168
 90
      190
 90
      218
 90
      213
 90
        4
 90
      167
 90
      168
 90
      213
 90
      214
 90
        4
 90
      209
 90
      210
 90
      238
 90
      237
 90
        4
 90
      210
 90
      167
 90
      214
 90
      238
 90
        4
 90
      189
 90
      190
 90
      164
 90
      188
 90
        4
 90
      235
 90
      237
 90
      239
 90
      236
 90
        4
 90
      209
 90
      211
 90
      203
 90
      206
 90
        3
 90
      263
 90
      137
 90
      138
 90
        4
 90
      145
 90
      144
 90
      133
 90
      134
 90
        4
 90
      198
 90
      145
 90
      134
 90
      232
 90
        4
 90
      180
 90
      198
 90
      232
 90
      228
 90
        4
 90
      179
 90
      180
 90
      228
 90
      227
 90
        4
 90
      263
 90
      133
 90
      144
 90
      137
 94
      536
 90
       54
 90
      130
 90
       53
 90
      130
 90
        0
 90
       53
 90
        0
 90
       54
 90
      131
 90
      132
 90
        3
 90
      131
 90
        3
 90
      132
 90
        4
 90
       30
 90
        4
 90
        5
 90
        5
 90
       29
 90
       29
 90
       30
 90
        4
 90
      126
 90
       30
 90
       82
 90
       82
 90
      126
 90
       33
 90
       42
 90
        6
 90
       33
 90
        6
 90
        7
 90
        7
 90
       42
 90
       42
 90
       63
 90
        7
 90
        8
 90
        8
 90
       63
 90
       60
 90
       63
 90
        8
 90
        9
 90
        9
 90
       60
 90
       55
 90
       60
 90
        9
 90
       10
 90
       10
 90
       55
 90
       13
 90
       14
 90
       12
 90
       13
 90
       11
 90
       12
 90
       11
 90
       14
 90
       37
 90
      117
 90
       11
 90
       37
 90
       11
 90
       89
 90
       89
 90
      117
 90
       37
 90
       38
 90
       14
 90
       38
 90
       21
 90
       22
 90
       12
 90
       22
 90
       13
 90
       21
 90
       12
 90
       92
 90
       89
 90
       92
 90
       45
 90
       68
 90
       13
 90
       45
 90
       14
 90
       68
 90
       17
 90
       26
 90
       16
 90
       17
 90
       15
 90
       16
 90
       15
 90
       26
 90
       27
 90
       32
 90
       15
 90
       27
 90
       16
 90
       32
 90
       93
 90
       94
 90
       26
 90
       94
 90
       15
 90
       93
 90
       93
 90
      112
 90
       27
 90
      112
 90
       17
 90
       73
 90
       73
 90
       74
 90
       16
 90
       74
 90
       74
 90
       80
 90
       32
 90
       80
 90
       25
 90
       26
 90
       18
 90
       25
 90
       17
 90
       18
 90
       18
 90
       72
 90
       72
 90
       73
 90
       19
 90
       24
 90
       18
 90
       19
 90
       24
 90
       25
 90
       19
 90
       71
 90
       71
 90
       72
 90
       23
 90
       24
 90
       20
 90
       23
 90
       19
 90
       20
 90
       20
 90
       70
 90
       70
 90
       71
 90
       20
 90
       21
 90
       22
 90
       23
 90
       45
 90
       69
 90
       21
 90
       69
 90
       22
 90
       98
 90
       92
 90
       98
 90
       23
 90
       97
 90
       24
 90
       96
 90
       96
 90
       97
 90
       95
 90
       96
 90
       25
 90
       95
 90
       94
 90
       95
 90
       28
 90
       31
 90
       27
 90
       28
 90
       31
 90
       32
 90
       27
 90
      111
 90
      111
 90
      112
 90
       28
 90
       29
 90
       30
 90
       31
 90
       31
 90
       81
 90
       81
 90
       82
 90
       80
 90
       81
 90
       41
 90
       42
 90
       34
 90
       41
 90
       33
 90
       34
 90
       33
 90
       87
 90
       34
 90
      120
 90
       87
 90
      120
 90
       35
 90
       40
 90
       34
 90
       35
 90
       40
 90
       41
 90
       35
 90
      119
 90
      119
 90
      120
 90
       39
 90
       40
 90
       36
 90
       39
 90
       35
 90
       36
 90
       36
 90
      118
 90
      118
 90
      119
 90
       36
 90
       37
 90
      117
 90
      118
 90
       66
 90
       67
 90
       38
 90
       67
 90
       38
 90
       39
 90
       39
 90
       66
 90
       40
 90
       65
 90
       41
 90
       64
 90
       64
 90
       65
 90
       63
 90
       64
 90
      121
 90
      124
 90
       43
 90
      124
 90
       43
 90
       44
 90
       44
 90
      121
 90
       44
 90
       46
 90
       46
 90
      125
 90
      121
 90
      125
 90
       79
 90
      125
 90
       46
 90
       47
 90
       47
 90
       79
 90
       47
 90
       48
 90
       48
 90
       78
 90
       78
 90
       79
 90
       48
 90
       49
 90
       49
 90
       77
 90
       77
 90
       78
 90
       49
 90
       50
 90
       50
 90
       76
 90
       76
 90
       77
 90
       76
 90
      127
 90
       74
 90
      127
 90
       73
 90
       76
 90
      127
 90
      128
 90
       75
 90
      127
 90
       51
 90
       75
 90
       51
 90
      128
 90
       51
 90
       52
 90
       52
 90
      129
 90
      128
 90
      129
 90
       52
 90
       53
 90
      129
 90
      130
 90
       60
 90
       61
 90
       55
 90
       56
 90
       56
 90
       61
 90
       61
 90
       62
 90
       56
 90
       57
 90
       57
 90
       62
 90
       62
 90
      122
 90
       66
 90
      122
 90
       65
 90
       66
 90
       62
 90
       65
 90
      122
 90
      123
 90
       58
 90
      122
 90
       58
 90
       59
 90
       59
 90
      123
 90
       61
 90
       64
 90
       71
 90
       78
 90
       70
 90
       79
 90
       72
 90
       77
 90
       86
 90
      109
 90
       84
 90
       86
 90
       84
 90
      108
 90
      108
 90
      109
 90
      113
 90
      120
 90
       88
 90
      113
 90
       87
 90
       88
 90
       90
 90
       91
 90
       89
 90
       90
 90
       91
 90
       92
 90
      116
 90
      117
 90
       90
 90
      116
 90
       98
 90
       99
 90
       91
 90
       99
 90
       94
 90
      103
 90
       93
 90
      104
 90
      103
 90
      104
 90
      105
 90
      112
 90
      104
 90
      105
 90
       95
 90
      102
 90
      102
 90
      103
 90
      101
 90
      102
 90
       96
 90
      101
 90
      100
 90
      101
 90
       97
 90
      100
 90
       99
 90
      100
 90
       97
 90
       98
 90
      106
 90
      111
 90
      105
 90
      106
 90
      107
 90
      110
 90
      106
 90
      107
 90
      110
 90
      111
 90
      107
 90
      108
 90
      109
 90
      110
 90
      114
 90
      119
 90
      113
 90
      114
 90
      115
 90
      118
 90
      114
 90
      115
 90
      115
 90
      116
 90
        0
 90
        1
 90
        1
 90
       83
 90
       54
 90
       83
 90
      126
 90
      132
 90
        3
 90
        4
 90
        2
 90
        3
 90
        2
 90
        5
 90
        5
 90
       86
 90
        2
 90
       85
 90
       85
 90
       86
 90
       85
 90
      131
 90
       84
 90
      131
 90
       50
 90
       75
 90
       43
 90
       59
 90
      123
 90
      124
 90
       67
 90
       68
 90
        6
 90
        9
 90
        6
 90
       10
 90
        6
 90
        8
 90
        6
 90
       87
 90
       29
 90
      109
 90
       28
 90
      110
 90
       83
 90
      131
 90
        1
 90
      131
 90
      100
 90
      256
 90
      250
 90
      256
 90
       99
 90
      250
 90
      101
 90
      255
 90
      255
 90
      256
 90
      102
 90
      254
 90
      254
 90
      255
 90
      107
 90
      259
 90
      257
 90
      259
 90
      106
 90
      257
 90
      108
 90
      244
 90
      244
 90
      259
 90
       84
 90
      243
 90
      243
 90
      244
 90
        1
 90
      262
 90
      138
 90
      262
 90
      131
 90
      138
 90
        0
 90
      136
 90
      136
 90
      262
 90
       53
 90
      135
 90
      135
 90
      136
 90
       49
 90
      223
 90
      223
 90
      225
 90
       50
 90
      225
 90
       47
 90
      220
 90
      220
 90
      221
 90
       48
 90
      221
 90
       46
 90
      217
 90
      217
 90
      220
 90
       44
 90
      216
 90
      216
 90
      217
 90
       59
 90
      240
 90
      215
 90
      240
 90
       43
 90
      215
 90
       58
 90
      239
 90
      239
 90
      240
 90
       57
 90
       58
 90
       57
 90
      236
 90
      236
 90
      239
 90
       56
 90
      234
 90
      234
 90
      236
 90
       88
 90
      246
 90
      201
 90
      246
 90
       87
 90
      201
 90
      113
 90
      245
 90
      245
 90
      246
 90
      114
 90
      260
 90
      245
 90
      260
 90
      247
 90
      250
 90
       91
 90
      247
 90
       69
 90
      125
 90
       69
 90
       70
 90
       45
 90
      121
 90
       68
 90
      124
 90
       67
 90
      123
 90
       83
 90
      132
 90
       82
 90
      130
 90
       54
 90
      126
 90
       81
 90
      129
 90
       80
 90
      128
 90
      133
 90
      136
 90
      134
 90
      135
 90
      133
 90
      134
 90
      137
 90
      139
 90
      138
 90
      139
 90
      137
 90
      138
 90
      140
 90
      143
 90
      142
 90
      143
 90
      141
 90
      142
 90
      140
 90
      141
 90
      144
 90
      145
 90
      140
 90
      145
 90
      141
 90
      144
 90
      146
 90
      149
 90
      148
 90
      149
 90
      147
 90
      148
 90
      146
 90
      147
 90
      150
 90
      151
 90
      149
 90
      151
 90
      146
 90
      150
 90
      152
 90
      153
 90
      151
 90
      153
 90
      150
 90
      152
 90
      154
 90
      155
 90
      153
 90
      155
 90
      152
 90
      154
 90
      156
 90
      159
 90
      158
 90
      159
 90
      157
 90
      158
 90
      156
 90
      157
 90
      160
 90
      162
 90
      159
 90
      162
 90
      159
 90
      161
 90
      160
 90
      161
 90
      156
 90
      163
 90
      161
 90
      163
 90
      157
 90
      164
 90
      158
 90
      165
 90
      164
 90
      165
 90
      162
 90
      166
 90
      158
 90
      166
 90
      156
 90
      167
 90
      157
 90
      168
 90
      167
 90
      168
 90
      169
 90
      172
 90
      171
 90
      172
 90
      170
 90
      171
 90
      169
 90
      170
 90
      171
 90
      173
 90
      172
 90
      174
 90
      173
 90
      174
 90
      172
 90
      175
 90
      169
 90
      176
 90
      175
 90
      176
 90
      174
 90
      177
 90
      175
 90
      177
 90
      171
 90
      179
 90
      178
 90
      179
 90
      170
 90
      178
 90
      173
 90
      180
 90
      179
 90
      180
 90
      170
 90
      182
 90
      181
 90
      182
 90
      169
 90
      181
 90
      178
 90
      183
 90
      182
 90
      183
 90
      181
 90
      184
 90
      182
 90
      185
 90
      184
 90
      185
 90
      183
 90
      186
 90
      185
 90
      186
 90
      185
 90
      188
 90
      187
 90
      188
 90
      184
 90
      187
 90
      186
 90
      189
 90
      188
 90
      189
 90
      165
 90
      187
 90
      164
 90
      188
 90
      164
 90
      190
 90
      168
 90
      190
 90
      166
 90
      191
 90
      165
 90
      191
 90
      192
 90
      193
 90
      184
 90
      193
 90
      187
 90
      192
 90
      181
 90
      194
 90
      193
 90
      194
 90
      176
 90
      194
 90
      173
 90
      195
 90
      174
 90
      196
 90
      195
 90
      196
 90
      177
 90
      197
 90
      174
 90
      197
 90
      140
 90
      195
 90
      143
 90
      196
 90
      145
 90
      198
 90
      195
 90
      198
 90
      180
 90
      198
 90
      147
 90
      200
 90
      199
 90
      200
 90
      146
 90
      199
 90
      201
 90
      202
 90
      200
 90
      202
 90
      147
 90
      201
 90
      199
 90
      203
 90
      200
 90
      204
 90
      203
 90
      204
 90
      202
 90
      205
 90
      204
 90
      205
 90
      204
 90
      207
 90
      206
 90
      207
 90
      203
 90
      206
 90
      205
 90
      208
 90
      207
 90
      208
 90
      160
 90
      208
 90
      161
 90
      207
 90
      206
 90
      209
 90
      163
 90
      206
 90
      163
 90
      210
 90
      209
 90
      210
 90
      211
 90
      212
 90
      199
 90
      212
 90
      203
 90
      211
 90
      150
 90
      212
 90
      213
 90
      216
 90
      215
 90
      216
 90
      214
 90
      215
 90
      213
 90
      214
 90
      213
 90
      218
 90
      217
 90
      218
 90
      219
 90
      220
 90
      218
 90
      219
 90
      219
 90
      222
 90
      221
 90
      222
 90
      222
 90
      224
 90
      223
 90
      224
 90
      221
 90
      223
 90
      224
 90
      226
 90
      225
 90
      226
 90
      178
 90
      226
 90
      179
 90
      227
 90
      226
 90
      227
 90
      228
 90
      230
 90
      229
 90
      230
 90
      227
 90
      229
 90
      227
 90
      228
 90
      228
 90
      232
 90
      231
 90
      232
 90
      230
 90
      231
 90
      134
 90
      232
 90
      135
 90
      231
 90
      233
 90
      234
 90
      154
 90
      234
 90
      152
 90
      233
 90
      235
 90
      236
 90
      233
 90
      235
 90
      211
 90
      235
 90
      209
 90
      211
 90
      209
 90
      237
 90
      235
 90
      237
 90
      238
 90
      240
 90
      237
 90
      239
 90
      237
 90
      238
 90
      212
 90
      233
 90
      189
 90
      219
 90
      186
 90
      222
 90
      183
 90
      224
 90
      241
 90
      244
 90
      242
 90
      243
 90
      241
 90
      242
 90
      202
 90
      245
 90
      166
 90
      247
 90
      162
 90
      248
 90
      247
 90
      248
 90
      248
 90
      249
 90
      160
 90
      249
 90
      191
 90
      250
 90
      251
 90
      252
 90
      175
 90
      252
 90
      176
 90
      251
 90
      252
 90
      253
 90
      177
 90
      253
 90
      251
 90
      254
 90
      194
 90
      254
 90
      193
 90
      255
 90
      192
 90
      256
 90
      191
 90
      192
 90
      253
 90
      257
 90
      197
 90
      257
 90
      197
 90
      258
 90
      258
 90
      259
 90
      241
 90
      258
 90
      205
 90
      260
 90
      260
 90
      261
 90
      208
 90
      261
 90
      249
 90
      261
 90
      133
 90
      263
 90
      262
 90
      263
 90
      139
 90
      141
 90
      137
 90
      144
 90
      142
 90
      264
 90
      139
 90
      264
 90
      242
 90
      265
 90
      264
 90
      265
 90
      142
 90
      242
 90
      138
 90
      243
 90
      138
 90
      265
 90
      225
 90
      229
 90
      214
 90
      238
 90
      167
 90
      210
 90
      148
 90
      155
 90
      148
 90
      153
 90
      148
 90
      151
 90
      148
 90
      201
 90
      143
 90
      241
 90
      196
 90
      258
 90
      138
 90
      263
 90
      103
 90
      251
 90
      104
 90
      252
 90
      105
 90
      253
 90
       52
 90
      231
 90
       51
 90
      230
 90
       75
 90
      229
 90
       55
 90
      154
 90
       10
 90
      155
 90
        6
 90
      148
 90
      115
 90
      261
 90
      116
 90
      249
 90
       90
 90
      248
 90
      189
 90
      190
 90
      190
 90
      218
 90
      168
 90
      213
 90
      167
 90
      214
 90
      210
 90
      238
 90
      137
 90
      263
 90
      133
 90
      144
 90
      134
 90
      145
 90
      198
 90
      232
 90
      180
 90
      228
 95
      536
140
0.0
140
0.0
140
0.0
140
0.0
140
0.0
140
0.0
140
0.0
140
0.0
140
0.0
140
0.0
140
0.0
140
0.0
140
0.0
140
0.0
140
0.0
140
0.0
140
0.0
140
0.0
140
0.0
140
0.0
140
0.0
140
0.0
140
0.0
140
0.0
140
0.0
140
0.0
140
0.0
140
0.0
140
0.0
140
0.0
140
0.0
140
0.0
140
0.0
140
0.0
140
0.0
140
0.0
140
0.0
140
0.0
140
0.0
140
0.0
140
0.0
140
0.0
140
0.0
140
0.0
140
0.0
140
0.0
140
0.0
140
0.0
140
0.0
140
0.0
140
0.0
140
0.0
140
0.0
140
0.0
140
0.0
140
0.0
140
0.0
140
0.0
140
0.0
140
0.0
140
0.0
140
0.0
140
0.0
140
0.0
140
0.0
140
0.0
140
0.0
140
0.0
140
0.0
140
0.0
140
0.0
140
0.0
140
0.0
140
0.0
140
0.0
140
0.0
140
0.0
140
0.0
140
0.0
140
0.0
140
0.0
140
0.0
140
0.0
140
0.0
140
0.0
140
0.0
140
0.0
140
0.0
140
0.0
140
0.0
140
0.0
140
0.0
140
0.0
140
0.0
140
0.0
140
0.0
140
0.0
140
0.0
140
0.0
140
0.0
140
0.0
140
0.0
140
0.0
140
0.0
140
0.0
140
0.0
140
0.0
140
0.0
140
0.0
140
0.0
140
0.0
140
0.0
140
0.0
140
0.0
140
0.0
140
0.0
140
0.0
140
0.0
140
0.0
140
0.0
140
0.0
140
0.0
140
0.0
140
0.0
140
0.0
140
0.0
140
0.0
140
0.0
140
0.0
140
0.0
140
0.0
140
0.0
140
0.0
140
0.0
140
0.0
140
0.0
140
0.0
140
0.0
140
0.0
140
0.0
140
0.0
140
0.0
140
0.0
140
0.0
140
0.0
140
0.0
140
0.0
140
0.0
140
0.0
140
0.0
140
0.0
140
0.0
140
0.0
140
0.0
140
0.0
140
0.0
140
0.0
140
0.0
140
0.0
140
0.0
140
0.0
140
0.0
140
0.0
140
0.0
140
0.0
140
0.0
140
0.0
140
0.0
140
0.0
140
0.0
140
0.0
140
0.0
140
0.0
140
0.0
140
0.0
140
0.0
140
0.0
140
0.0
140
0.0
140
0.0
140
0.0
140
0.0
140
0.0
140
0.0
140
0.0
140
0.0
140
0.0
140
0.0
140
0.0
140
0.0
140
0.0
140
0.0
140
0.0
140
0.0
140
0.0
140
0.0
140
0.0
140
0.0
140
0.0
140
0.0
140
0.0
140
0.0
140
0.0
140
0.0
140
0.0
140
0.0
140
0.0
140
0.0
140
0.0
140
0.0
140
0.0
140
0.0
140
0.0
140
0.0
140
0.0
140
0.0
140
0.0
140
0.0
140
0.0
140
0.0
140
0.0
140
0.0
140
0.0
140
0.0
140
0.0
140
0.0
140
0.0
140
0.0
140
0.0
140
0.0
140
0.0
140
0.0
140
0.0
140
0.0
140
0.0
140
0.0
140
0.0
140
0.0
140
0.0
140
0.0
140
0.0
140
0.0
140
0.0
140
0.0
140
0.0
140
0.0
140
0.0
140
0.0
140
0.0
140
0.0
140
0.0
140
0.0
140
0.0
140
0.0
140
0.0
140
0.0
140
0.0
140
0.0
140
0.0
140
0.0
140
0.0
140
0.0
140
0.0
140
0.0
140
0.0
140
0.0
140
0.0
140
0.0
140
0.0
140
0.0
140
0.0
140
0.0
140
0.0
140
0.0
140
0.0
140
0.0
140
0.0
140
0.0
140
0.0
140
0.0
140
0.0
140
0.0
140
0.0
140
0.0
140
0.0
140
0.0
140
0.0
140
0.0
140
0.0
140
0.0
140
0.0
140
0.0
140
0.0
140
0.0
140
0.0
140
0.0
140
0.0
140
0.0
140
0.0
140
0.0
140
0.0
140
0.0
140
0.0
140
0.0
140
0.0
140
0.0
140
0.0
140
0.0
140
0.0
140
0.0
140
0.0
140
0.0
140
0.0
140
0.0
140
0.0
140
0.0
140
0.0
140
0.0
140
0.0
140
0.0
140
0.0
140
0.0
140
0.0
140
0.0
140
0.0
140
0.0
140
0.0
140
0.0
140
0.0
140
0.0
140
0.0
140
0.0
140
0.0
140
0.0
140
0.0
140
0.0
140
0.0
140
0.0
140
0.0
140
0.0
140
0.0
140
0.0
140
0.0
140
0.0
140
0.0
140
0.0
140
0.0
140
0.0
140
0.0
140
0.0
140
0.0
140
0.0
140
0.0
140
0.0
140
0.0
140
0.0
140
0.0
140
0.0
140
0.0
140
0.0
140
0.0
140
0.0
140
0.0
140
0.0
140
0.0
140
0.0
140
0.0
140
0.0
140
0.0
140
0.0
140
0.0
140
0.0
140
0.0
140
0.0
140
0.0
140
0.0
140
0.0
140
0.0
140
0.0
140
0.0
140
0.0
140
0.0
140
0.0
140
0.0
140
0.0
140
0.0
140
0.0
140
0.0
140
0.0
140
0.0
140
0.0
140
0.0
140
0.0
140
0.0
140
0.0
140
0.0
140
0.0
140
0.0
140
0.0
140
0.0
140
0.0
140
0.0
140
0.0
140
0.0
140
0.0
140
0.0
140
0.0
140
0.0
140
0.0
140
0.0
140
0.0
140
0.0
140
0.0
140
0.0
140
0.0
140
0.0
140
0.0
140
0.0
140
0.0
140
0.0
140
0.0
140
0.0
140
0.0
140
0.0
140
0.0
140
0.0
140
0.0
140
0.0
140
0.0
140
0.0
140
0.0
140
0.0
140
0.0
140
0.0
140
0.0
140
0.0
140
0.0
140
0.0
140
0.0
140
0.0
140
0.0
140
0.0
140
0.0
140
0.0
140
0.0
140
0.0
140
0.0
140
0.0
140
0.0
140
0.0
140
0.0
140
0.0
140
0.0
140
0.0
140
0.0
140
0.0
140
0.0
140
0.0
140
0.0
140
0.0
140
0.0
140
0.0
140
0.0
140
0.0
140
0.0
140
0.0
140
0.0
140
0.0
140
0.0
140
0.0
140
0.0
140
0.0
140
0.0
140
0.0
140
0.0
140
0.0
140
0.0
140
0.0
140
0.0
140
0.0
140
0.0
140
0.0
140
0.0
140
0.0
140
0.0
140
0.0
140
0.0
140
0.0
140
0.0
140
0.0
140
0.0
140
0.0
140
0.0
140
0.0
140
0.0
140
0.0
140
0.0
140
0.0
140
0.0
140
0.0
140
0.0
140
0.0
140
0.0
140
0.0
140
0.0
140
0.0
140
0.0
140
0.0
140
0.0
140
0.0
140
0.0
140
0.0
140
0.0
140
0.0
140
0.0
140
0.0
140
0.0
140
0.0
140
0.0
140
0.0
140
0.0
140
0.0
140
0.0
140
0.0
140
0.0
140
0.0
140
0.0
140
0.0
140
0.0
140
0.0
140
0.0
140
0.0
140
0.0
140
0.0
140
0.0
140
0.0
 90
        0
  0
ENDSEC
  0
SECTION
  2
OBJECTS
  0
DICTIONARY
  5
C
330
0
100
AcDbDictionary
281
     1
  3
ACAD_COLOR
350
DC
  3
ACAD_DETAILVIEWSTYLE
350
F5
  3
ACAD_GROUP
350
D
  3
ACAD_LAYOUT
350
1A
  3
ACAD_MATERIAL
350
AA
  3
ACAD_MLEADERSTYLE
350
F1
  3
ACAD_MLINESTYLE
350
17
  3
ACAD_PLOTSETTINGS
350
19
  3
ACAD_PLOTSTYLENAME
350
E
  3
ACAD_SCALELIST
350
DF
  3
ACAD_SECTIONVIEWSTYLE
350
F3
  3
ACAD_TABLESTYLE
350
DD
  3
ACAD_VISUALSTYLE
350
C3
  3
ACDB_RECOMPOSE_DATA
350
106
  3
AcDbVariableDictionary
350
FA
  0
DICTIONARY
  5
DC
102
{ACAD_REACTORS
330
C
102
}
330
C
100
AcDbDictionary
281
     1
  0
DICTIONARY
  5
F5
102
{ACAD_REACTORS
330
C
102
}
330
C
100
AcDbDictionary
281
     1
  3
Imperial24
350
F6
  0
DICTIONARY
  5
D
102
{ACAD_REACTORS
330
C
102
}
330
C
100
AcDbDictionary
281
     1
  0
DICTIONARY
  5
1A
102
{ACAD_REACTORS
330
C
102
}
330
C
100
AcDbDictionary
281
     1
  3
Layout1
350
1E
  3
Layout2
350
26
  3
Model
350
22
  0
DICTIONARY
  5
AA
102
{ACAD_REACTORS
330
C
102
}
330
C
100
AcDbDictionary
281
     1
  3
ByBlock
350
B3
  3
ByLayer
350
AB
  3
Global
350
BB
  0
DICTIONARY
  5
F1
102
{ACAD_REACTORS
330
C
102
}
330
C
100
AcDbDictionary
281
     1
  3
Standard
350
F2
  0
DICTIONARY
  5
17
102
{ACAD_REACTORS
330
C
102
}
330
C
100
AcDbDictionary
281
     1
  3
Standard
350
18
  0
DICTIONARY
  5
19
102
{ACAD_REACTORS
330
C
102
}
330
C
100
AcDbDictionary
281
     1
  0
ACDBDICTIONARYWDFLT
  5
E
102
{ACAD_REACTORS
330
C
102
}
330
C
100
AcDbDictionary
281
     1
  3
ByLayer
350
2D
  3
Normal
350
F
100
AcDbDictionaryWithDefault
340
F
  0
DICTIONARY
  5
DF
102
{ACAD_REACTORS
330
C
102
}
330
C
100
AcDbDictionary
281
     1
  3
A0
350
E0
  3
A1
350
E1
  3
A2
350
E2
  3
A3
350
E3
  3
A4
350
E4
  3
A5
350
E5
  3
A6
350
E6
  3
A7
350
E7
  3
A8
350
E8
  3
A9
350
E9
  3
B0
350
EA
  3
B1
350
EB
  3
B2
350
EC
  3
B3
350
ED
  3
B4
350
EE
  3
B5
350
EF
  3
B6
350
F0
  0
DICTIONARY
  5
F3
102
{ACAD_REACTORS
330
C
102
}
330
C
100
AcDbDictionary
281
     1
  3
Imperial24
350
F4
  0
DICTIONARY
  5
DD
102
{ACAD_REACTORS
330
C
102
}
330
C
100
AcDbDictionary
281
     1
  3
Standard
350
DE
  0
DICTIONARY
  5
C3
102
{ACAD_REACTORS
330
C
102
}
330
C
100
AcDbDictionary
281
     1
  3
2dWireframe
350
C9
  3
Basic
350
C8
  3
Brighten
350
CF
  3
ColorChange
350
D3
  3
Conceptual
350
CC
  3
Dim
350
CE
  3
EdgeColorOff
350
DB
  3
Facepattern
350
D2
  3
Flat
350
C4
  3
FlatWithEdges
350
C5
  3
Gouraud
350
C6
  3
GouraudWithEdges
350
C7
  3
Hidden
350
CB
  3
JitterOff
350
D9
  3
Linepattern
350
D1
  3
OverhangOff
350
DA
  3
Realistic
350
CD
  3
Shaded
350
D8
  3
Shaded with edges
350
D7
  3
Shades of Gray
350
D4
  3
Sketchy
350
D5
  3
Thicken
350
D0
  3
Wireframe
350
CA
  3
X-Ray
350
D6
  0
XRECORD
  5
106
102
{ACAD_REACTORS
330
C
102
}
330
C
100
AcDbXrecord
280
     1
 90
        1
330
DE
  0
DICTIONARY
  5
FA
102
{ACAD_REACTORS
330
C
102
}
330
C
100
AcDbDictionary
281
     1
  3
CANNOSCALE
350
100
  3
CMLEADERSTYLE
350
FC
  3
CTABLESTYLE
350
FB
  3
CVIEWDETAILSTYLE
350
FD
  3
CVIEWSECTIONSTYLE
350
FE
  3
LAYEREVAL
350
102
  3
LAYERNOTIFY
350
103
  3
LIGHTINGUNITS
350
101
  3
MSLTSCALE
350
FF
  0
ACDBDETAILVIEWSTYLE
  5
F6
102
{ACAD_XDICTIONARY
360
13B
102
}
102
{ACAD_REACTORS
330
F5
102
}
330
F5
100
AcDbModelDocViewStyle
 70
     0
  3
Imperial24
290
     0
100
AcDbDetailViewStyle
 70
     0
 71
     0
 90
        3
 71
     1
340
11
 62
   256
 40
0.24
340
0
 62
   256
 40
0.24
300

 40
0.36
280
     3
 71
     2
340
16
 90
       25
 62
   256
 71
     3
340
11
 62
   256
 40
0.24
 90
        1
 40
0.75
 90
        1
300
%<\AcVar ViewType \f "%tc1">% %<\AcVar ViewDetailId>%\PSCALE %<\AcVar ViewScale \f "%sn">%
 71
     4
340
16
 90
       25
 62
   256
340
16
 90
       25
 62
   256
280
     0
  0
LAYOUT
  5
1E
102
{ACAD_REACTORS
330
1A
102
}
330
1A
100
AcDbPlotSettings
  1

  2
\\KTXNTBDC\CASF2PN1
  4

  6

 40
0.0
 41
0.0
 42
0.0
 43
0.0
 44
0.0
 45
0.0
 46
0.0
 47
0.0
 48
0.0
 49
0.0
140
0.0
141
0.0
142
1.0
143
1.0
 70
   688
 72
     0
 73
     0
 74
     5
  7

 75
    16
147
1.0
 76
     0
 77
     2
 78
   300
148
0.0
149
0.0
100
AcDbLayout
  1
Layout1
 70
     1
 71
     1
 10
0.0
 20
0.0
 11
12.0
 21
9.0
 12
0.0
 22
0.0
 32
0.0
 14
1.000000000000000E+20
 24
1.000000000000000E+20
 34
1.000000000000000E+20
 15
-1.000000000000000E+20
 25
-1.000000000000000E+20
 35
-1.000000000000000E+20
146
0.0
 13
0.0
 23
0.0
 33
0.0
 16
1.0
 26
0.0
 36
0.0
 17
0.0
 27
1.0
 37
0.0
 76
     0
330
1B
  0
LAYOUT
  5
26
102
{ACAD_REACTORS
330
1A
102
}
330
1A
100
AcDbPlotSettings
  1

  2
\\KTXNTBDC\CASF2PN1
  4

  6

 40
0.0
 41
0.0
 42
0.0
 43
0.0
 44
0.0
 45
0.0
 46
0.0
 47
0.0
 48
0.0
 49
0.0
140
0.0
141
0.0
142
1.0
143
1.0
 70
   688
 72
     0
 73
     0
 74
     5
  7

 75
    16
147
1.0
 76
     0
 77
     2
 78
   300
148
0.0
149
0.0
100
AcDbLayout
  1
Layout2
 70
     1
 71
     2
 10
0.0
 20
0.0
 11
12.0
 21
9.0
 12
0.0
 22
0.0
 32
0.0
 14
0.0
 24
0.0
 34
0.0
 15
0.0
 25
0.0
 35
0.0
146
0.0
 13
0.0
 23
0.0
 33
0.0
 16
1.0
 26
0.0
 36
0.0
 17
0.0
 27
1.0
 37
0.0
 76
     0
330
23
  0
LAYOUT
  5
22
102
{ACAD_REACTORS
330
1A
102
}
330
1A
100
AcDbPlotSettings
  1

  2
\\KTXNTBDC\CASF2PN1
  4

  6

 40
0.0
 41
0.0
 42
0.0
 43
0.0
 44
0.0
 45
0.0
 46
0.0
 47
0.0
 48
0.0
 49
0.0
140
0.0
141
0.0
142
1.0
143
1.0
 70
  1712
 72
     0
 73
     0
 74
     0
  7

 75
     0
147
1.0
 76
     0
 77
     2
 78
   300
148
0.0
149
0.0
100
AcDbLayout
  1
Model
 70
     1
 71
     0
 10
0.0
 20
0.0
 11
12.0
 21
9.0
 12
0.0
 22
0.0
 32
0.0
 14
0.0
 24
0.0
 34
0.0
 15
0.0
 25
0.0
 35
0.0
146
0.0
 13
0.0
 23
0.0
 33
0.0
 16
1.0
 26
0.0
 36
0.0
 17
0.0
 27
1.0
 37
0.0
 76
     0
330
1F
  0
MATERIAL
  5
B3
102
{ACAD_XDICTIONARY
360
B4
102
}
102
{ACAD_REACTORS
330
AA
102
}
330
AA
100
AcDbMaterial
  1
ByBlock
 72
     0
 43
0.0208333333333333
 43
0.0
 43
0.0
 43
0.0
 43
0.0
 43
0.0208333333333333
 43
0.0
 43
0.0
 43
0.0
 43
0.0
 43
1.0
 43
0.0
 43
0.0
 43
0.0
 43
0.0
 43
1.0
 77
     0
 47
0.0208333333333333
 47
0.0
 47
0.0
 47
0.0
 47
0.0
 47
0.0208333333333333
 47
0.0
 47
0.0
 47
0.0
 47
0.0
 47
1.0
 47
0.0
 47
0.0
 47
0.0
 47
0.0
 47
1.0
171
     0
 49
0.0208333333333333
 49
0.0
 49
0.0
 49
0.0
 49
0.0
 49
0.0208333333333333
 49
0.0
 49
0.0
 49
0.0
 49
0.0
 49
1.0
 49
0.0
 49
0.0
 49
0.0
 49
0.0
 49
1.0
175
     0
142
0.0208333333333333
142
0.0
142
0.0
142
0.0
142
0.0
142
0.0208333333333333
142
0.0
142
0.0
142
0.0
142
0.0
142
1.0
142
0.0
142
0.0
142
0.0
142
0.0
142
1.0
179
     0
144
0.0208333333333333
144
0.0
144
0.0
144
0.0
144
0.0
144
0.0208333333333333
144
0.0
144
0.0
144
0.0
144
0.0
144
1.0
144
0.0
144
0.0
144
0.0
144
0.0
144
1.0
147
0.0208333333333333
147
0.0
147
0.0
147
0.0
147
0.0
147
0.0208333333333333
147
0.0
147
0.0
147
0.0
147
0.0
147
1.0
147
0.0
147
0.0
147
0.0
147
0.0
147
1.0
  0
MATERIAL
  5
AB
102
{ACAD_XDICTIONARY
360
AC
102
}
102
{ACAD_REACTORS
330
AA
102
}
330
AA
100
AcDbMaterial
  1
ByLayer
 72
     0
 43
0.0208333333333333
 43
0.0
 43
0.0
 43
0.0
 43
0.0
 43
0.0208333333333333
 43
0.0
 43
0.0
 43
0.0
 43
0.0
 43
1.0
 43
0.0
 43
0.0
 43
0.0
 43
0.0
 43
1.0
 77
     0
 47
0.0208333333333333
 47
0.0
 47
0.0
 47
0.0
 47
0.0
 47
0.0208333333333333
 47
0.0
 47
0.0
 47
0.0
 47
0.0
 47
1.0
 47
0.0
 47
0.0
 47
0.0
 47
0.0
 47
1.0
171
     0
 49
0.0208333333333333
 49
0.0
 49
0.0
 49
0.0
 49
0.0
 49
0.0208333333333333
 49
0.0
 49
0.0
 49
0.0
 49
0.0
 49
1.0
 49
0.0
 49
0.0
 49
0.0
 49
0.0
 49
1.0
175
     0
142
0.0208333333333333
142
0.0
142
0.0
142
0.0
142
0.0
142
0.0208333333333333
142
0.0
142
0.0
142
0.0
142
0.0
142
1.0
142
0.0
142
0.0
142
0.0
142
0.0
142
1.0
179
     0
144
0.0208333333333333
144
0.0
144
0.0
144
0.0
144
0.0
144
0.0208333333333333
144
0.0
144
0.0
144
0.0
144
0.0
144
1.0
144
0.0
144
0.0
144
0.0
144
0.0
144
1.0
147
0.0208333333333333
147
0.0
147
0.0
147
0.0
147
0.0
147
0.0208333333333333
147
0.0
147
0.0
147
0.0
147
0.0
147
1.0
147
0.0
147
0.0
147
0.0
147
0.0
147
1.0
  0
MATERIAL
  5
BB
102
{ACAD_XDICTIONARY
360
BC
102
}
102
{ACAD_REACTORS
330
AA
102
}
330
AA
100
AcDbMaterial
  1
Global
 72
     0
 43
0.0208333333333333
 43
0.0
 43
0.0
 43
0.0
 43
0.0
 43
0.0208333333333333
 43
0.0
 43
0.0
 43
0.0
 43
0.0
 43
1.0
 43
0.0
 43
0.0
 43
0.0
 43
0.0
 43
1.0
 77
     0
 47
0.0208333333333333
 47
0.0
 47
0.0
 47
0.0
 47
0.0
 47
0.0208333333333333
 47
0.0
 47
0.0
 47
0.0
 47
0.0
 47
1.0
 47
0.0
 47
0.0
 47
0.0
 47
0.0
 47
1.0
171
     0
 49
0.0208333333333333
 49
0.0
 49
0.0
 49
0.0
 49
0.0
 49
0.0208333333333333
 49
0.0
 49
0.0
 49
0.0
 49
0.0
 49
1.0
 49
0.0
 49
0.0
 49
0.0
 49
0.0
 49
1.0
175
     0
142
0.0208333333333333
142
0.0
142
0.0
142
0.0
142
0.0
142
0.0208333333333333
142
0.0
142
0.0
142
0.0
142
0.0
142
1.0
142
0.0
142
0.0
142
0.0
142
0.0
142
1.0
179
     0
144
0.0208333333333333
144
0.0
144
0.0
144
0.0
144
0.0
144
0.0208333333333333
144
0.0
144
0.0
144
0.0
144
0.0
144
1.0
144
0.0
144
0.0
144
0.0
144
0.0
144
1.0
147
0.0208333333333333
147
0.0
147
0.0
147
0.0
147
0.0
147
0.0208333333333333
147
0.0
147
0.0
147
0.0
147
0.0
147
1.0
147
0.0
147
0.0
147
0.0
147
0.0
147
1.0
  0
MLEADERSTYLE
  5
F2
102
{ACAD_XDICTIONARY
360
137
102
}
102
{ACAD_REACTORS
330
F1
102
}
330
F1
100
AcDbMLeaderStyle
179
     2
170
     2
171
     1
172
     0
 90
        2
 40
0.0
 41
0.0
173
     1
 91
-1056964608
340
14
 92
       -2
290
     1
 42
0.09
291
     1
 43
0.36
  3
Standard
 44
0.18
300

342
11
174
     1
178
     6
175
     1
176
     0
 93
-1056964608
 45
0.18
292
     0
297
     0
 46
0.18
 94
-1056964608
 47
1.0
 49
1.0
140
1.0
293
     1
141
0.0
294
     1
177
     0
142
1.0
295
     0
296
     0
143
0.125
271
     0
272
     9
273
     9
  0
MLINESTYLE
  5
18
102
{ACAD_REACTORS
330
17
102
}
330
17
100
AcDbMlineStyle
  2
STANDARD
 70
     0
  3

 62
   256
 51
90.0
 52
90.0
 71
     2
 49
0.5
 62
   256
  6
BYLAYER
 49
-0.5
 62
   256
  6
BYLAYER
  0
ACDBPLACEHOLDER
  5
2D
102
{ACAD_REACTORS
330
E
102
}
330
E
  0
ACDBPLACEHOLDER
  5
F
102
{ACAD_REACTORS
330
E
102
}
330
E
  0
SCALE
  5
E0
102
{ACAD_REACTORS
330
DF
102
}
330
DF
100
AcDbScale
 70
     0
300
1:1
140
1.0
141
1.0
290
     1
  0
SCALE
  5
E1
102
{ACAD_REACTORS
330
DF
102
}
330
DF
100
AcDbScale
 70
     0
300
1/128" = 1'-0"
140
0.0078125
141
12.0
290
     0
  0
SCALE
  5
E2
102
{ACAD_REACTORS
330
DF
102
}
330
DF
100
AcDbScale
 70
     0
300
1/64" = 1'-0"
140
0.015625
141
12.0
290
     0
  0
SCALE
  5
E3
102
{ACAD_REACTORS
330
DF
102
}
330
DF
100
AcDbScale
 70
     0
300
1/32" = 1'-0"
140
0.03125
141
12.0
290
     0
  0
SCALE
  5
E4
102
{ACAD_REACTORS
330
DF
102
}
330
DF
100
AcDbScale
 70
     0
300
1/16" = 1'-0"
140
0.0625
141
12.0
290
     0
  0
SCALE
  5
E5
102
{ACAD_REACTORS
330
DF
102
}
330
DF
100
AcDbScale
 70
     0
300
3/32" = 1'-0"
140
0.09375
141
12.0
290
     0
  0
SCALE
  5
E6
102
{ACAD_REACTORS
330
DF
102
}
330
DF
100
AcDbScale
 70
     0
300
1/8" = 1'-0"
140
0.125
141
12.0
290
     0
  0
SCALE
  5
E7
102
{ACAD_REACTORS
330
DF
102
}
330
DF
100
AcDbScale
 70
     0
300
3/16" = 1'-0"
140
0.1875
141
12.0
290
     0
  0
SCALE
  5
E8
102
{ACAD_REACTORS
330
DF
102
}
330
DF
100
AcDbScale
 70
     0
300
1/4" = 1'-0"
140
0.25
141
12.0
290
     0
  0
SCALE
  5
E9
102
{ACAD_REACTORS
330
DF
102
}
330
DF
100
AcDbScale
 70
     0
300
3/8" = 1'-0"
140
0.375
141
12.0
290
     0
  0
SCALE
  5
EA
102
{ACAD_REACTORS
330
DF
102
}
330
DF
100
AcDbScale
 70
     0
300
1/2" = 1'-0"
140
0.5
141
12.0
290
     0
  0
SCALE
  5
EB
102
{ACAD_REACTORS
330
DF
102
}
330
DF
100
AcDbScale
 70
     0
300
3/4" = 1'-0"
140
0.75
141
12.0
290
     0
  0
SCALE
  5
EC
102
{ACAD_REACTORS
330
DF
102
}
330
DF
100
AcDbScale
 70
     0
300
1" = 1'-0"
140
1.0
141
12.0
290
     0
  0
SCALE
  5
ED
102
{ACAD_REACTORS
330
DF
102
}
330
DF
100
AcDbScale
 70
     0
300
1-1/2" = 1'-0"
140
1.5
141
12.0
290
     0
  0
SCALE
  5
EE
102
{ACAD_REACTORS
330
DF
102
}
330
DF
100
AcDbScale
 70
     0
300
3" = 1'-0"
140
3.0
141
12.0
290
     0
  0
SCALE
  5
EF
102
{ACAD_REACTORS
330
DF
102
}
330
DF
100
AcDbScale
 70
     0
300
6" = 1'-0"
140
6.0
141
12.0
290
     0
  0
SCALE
  5
F0
102
{ACAD_REACTORS
330
DF
102
}
330
DF
100
AcDbScale
 70
     0
300
1'-0" = 1'-0"
140
12.0
141
12.0
290
     0
  0
ACDBSECTIONVIEWSTYLE
  5
F4
102
{ACAD_XDICTIONARY
360
139
102
}
102
{ACAD_REACTORS
330
F3
102
}
330
F3
100
AcDbModelDocViewStyle
 70
     0
  3
Imperial24
290
     0
100
AcDbSectionViewStyle
 70
     0
 71
     0
 90
       78
 71
     1
340
11
 62
   256
 40
0.24
340
0
340
0
 62
   256
 40
0.24
300
I, O, Q, S, X, Z
 40
0.48
 90
        3
 40
0.18
 90
        1
 71
     2
340
16
 90
       25
 62
   256
340
16
 90
       50
 62
   256
 40
0.24
 40
0.0
 40
0.24
 71
     3
340
11
 62
   256
 40
0.24
 90
        1
 40
0.75
 90
        1
300
%<\AcVar ViewType \f "%tc1">% %<\AcVar ViewSectionStartId>%-%<\AcVar ViewSectionEndId>%\PSCALE %<\AcVar ViewScale \f "%sn">%
 71
     4
 62
   256
 62
   257
300
ANSI31
 40
1.0
 90
        0
290
     0
290
     0
 90
        6
 40
0.0
 40
1.570796326794896
 40
0.2617993877991494
 40
1.308996938995747
 40
-0.2617993877991494
 40
1.832595714594046
  0
TABLESTYLE
  5
DE
102
{ACAD_XDICTIONARY
360
104
102
}
102
{ACAD_REACTORS
330
DD
102
}
330
DD
100
AcDbTableStyle
280
     0
  3
Standard
 70
     0
 71
     0
 40
0.06
 41
0.06
280
     0
281
     0
  7
Standard
140
0.18
170
     2
 62
     0
 63
     7
283
     0
 90
      512
 91
        0
  1

274
    -2
284
     1
 64
     0
275
    -2
285
     1
 65
     0
276
    -2
286
     1
 66
     0
277
    -2
287
     1
 67
     0
278
    -2
288
     1
 68
     0
279
    -2
289
     1
 69
     0
  7
Standard
140
0.25
170
     5
 62
     0
 63
     7
283
     0
 90
      512
 91
        0
  1

274
    -2
284
     1
 64
     0
275
    -2
285
     1
 65
     0
276
    -2
286
     1
 66
     0
277
    -2
287
     1
 67
     0
278
    -2
288
     1
 68
     0
279
    -2
289
     1
 69
     0
  7
Standard
140
0.18
170
     5
 62
     0
 63
     7
283
     0
 90
      512
 91
        0
  1

274
    -2
284
     1
 64
     0
275
    -2
285
     1
 65
     0
276
    -2
286
     1
 66
     0
277
    -2
287
     1
 67
     0
278
    -2
288
     1
 68
     0
279
    -2
289
     1
 69
     0
  0
VISUALSTYLE
  5
C9
102
{ACAD_XDICTIONARY
360
111
102
}
102
{ACAD_REACTORS
330
C3
102
}
330
C3
100
AcDbVisualStyle
  2
2dWireframe
 70
     4
177
     2
291
     0
 71
     0
176
     1
 72
     2
176
     1
 73
     0
176
     1
 90
        0
176
     1
 40
0.6
176
     1
 41
30.0
176
     1
 63
     7
421
 16777215
176
     1
 74
     1
176
     1
 91
        4
176
     1
 64
     7
176
     1
 65
   257
176
     1
 75
     1
176
     1
175
     1
176
     1
 42
1.0
176
     1
 92
        0
176
     1
 66
   257
176
     1
 43
1.0
176
     1
 76
     1
176
     1
 77
     6
176
     1
 78
     2
176
     1
 67
     7
176
     1
 79
     5
176
     1
170
     0
176
     1
171
     0
176
     1
290
     0
176
     1
 93
        1
176
     1
 44
0.0
176
     1
173
     0
176
     1
1001
ACAD
1000
AcDbSavedByObjectVersion
1070
     0
  0
VISUALSTYLE
  5
C8
102
{ACAD_XDICTIONARY
360
10F
102
}
102
{ACAD_REACTORS
330
C3
102
}
330
C3
100
AcDbVisualStyle
  2
Basic
 70
     7
177
     2
291
     1
 71
     1
176
     1
 72
     0
176
     1
 73
     1
176
     1
 90
        0
176
     1
 40
0.6
176
     1
 41
30.0
176
     1
 63
     7
421
 16777215
176
     1
 74
     0
176
     1
 91
        4
176
     1
 64
     7
176
     1
 65
   257
176
     1
 75
     1
176
     1
175
     1
176
     1
 42
1.0
176
     1
 92
        8
176
     1
 66
     7
176
     1
 43
1.0
176
     1
 76
     1
176
     1
 77
     6
176
     1
 78
     2
176
     1
 67
     7
176
     1
 79
     5
176
     1
170
     0
176
     1
171
     0
176
     1
290
     0
176
     1
 93
        1
176
     1
 44
0.0
176
     1
173
     0
176
     1
1001
ACAD
1000
AcDbSavedByObjectVersion
1070
     0
  0
VISUALSTYLE
  5
CF
102
{ACAD_XDICTIONARY
360
11D
102
}
102
{ACAD_REACTORS
330
C3
102
}
330
C3
100
AcDbVisualStyle
  2
Brighten
 70
    12
177
     2
291
     1
 71
     2
176
     1
 72
     2
176
     1
 73
     0
176
     1
 90
        0
176
     1
 40
0.6
176
     1
 41
30.0
176
     1
 63
     7
421
 16777215
176
     1
 74
     1
176
     1
 91
        4
176
     1
 64
     7
176
     1
 65
   257
176
     1
 75
     1
176
     1
175
     1
176
     1
 42
1.0
176
     1
 92
        8
176
     1
 66
     7
176
     1
 43
1.0
176
     1
 76
     1
176
     1
 77
     6
176
     1
 78
     2
176
     1
 67
     7
176
     1
 79
     5
176
     1
170
     0
176
     1
171
     0
176
     1
290
     0
176
     1
 93
        1
176
     1
 44
50.0
176
     1
173
     0
176
     1
1001
ACAD
1000
AcDbSavedByObjectVersion
1070
     0
  0
VISUALSTYLE
  5
D3
102
{ACAD_XDICTIONARY
360
125
102
}
102
{ACAD_REACTORS
330
C3
102
}
330
C3
100
AcDbVisualStyle
  2
ColorChange
 70
    16
177
     2
291
     1
 71
     2
176
     1
 72
     2
176
     1
 73
     3
176
     1
 90
        0
176
     1
 40
0.6
176
     1
 41
30.0
176
     1
 63
     8
421
  8421504
176
     1
 74
     1
176
     1
 91
        4
176
     1
 64
     7
176
     1
 65
   257
176
     1
 75
     1
176
     1
175
     1
176
     1
 42
1.0
176
     1
 92
        8
176
     1
 66
     8
424
  8421504
176
     1
 43
1.0
176
     1
 76
     1
176
     1
 77
     6
176
     1
 78
     2
176
     1
 67
     7
176
     1
 79
     5
176
     1
170
     0
176
     1
171
     0
176
     1
290
     0
176
     1
 93
        1
176
     1
 44
0.0
176
     1
173
     0
176
     1
1001
ACAD
1000
AcDbSavedByObjectVersion
1070
     0
  0
VISUALSTYLE
  5
CC
102
{ACAD_XDICTIONARY
360
117
102
}
102
{ACAD_REACTORS
330
C3
102
}
330
C3
100
AcDbVisualStyle
  2
Conceptual
 70
     9
177
     2
291
     0
 71
     3
176
     1
 72
     2
176
     1
 73
     0
176
     1
 90
        0
176
     1
 40
0.6
176
     1
 41
30.0
176
     1
 63
     7
421
 16777215
176
     1
 74
     2
176
     1
 91
        2
176
     1
 64
     7
176
     1
 65
   257
176
     1
 75
     1
176
     1
175
     1
176
     1
 42
179.0
176
     1
 92
        8
176
     1
 66
     7
176
     1
 43
1.0
176
     1
 76
     1
176
     1
 77
     6
176
     1
 78
     2
176
     1
 67
     7
176
     1
 79
     3
176
     1
170
     0
176
     1
171
     0
176
     1
290
     0
176
     1
 93
        1
176
     1
 44
0.0
176
     1
173
     0
176
     1
1001
ACAD
1000
AcDbSavedByObjectVersion
1070
     0
  0
VISUALSTYLE
  5
CE
102
{ACAD_XDICTIONARY
360
11B
102
}
102
{ACAD_REACTORS
330
C3
102
}
330
C3
100
AcDbVisualStyle
  2
Dim
 70
    11
177
     2
291
     1
 71
     2
176
     1
 72
     2
176
     1
 73
     0
176
     1
 90
        0
176
     1
 40
0.6
176
     1
 41
30.0
176
     1
 63
     7
421
 16777215
176
     1
 74
     1
176
     1
 91
        4
176
     1
 64
     7
176
     1
 65
   257
176
     1
 75
     1
176
     1
175
     1
176
     1
 42
1.0
176
     1
 92
        8
176
     1
 66
     7
176
     1
 43
1.0
176
     1
 76
     1
176
     1
 77
     6
176
     1
 78
     2
176
     1
 67
     7
176
     1
 79
     5
176
     1
170
     0
176
     1
171
     0
176
     1
290
     0
176
     1
 93
        1
176
     1
 44
-50.0
176
     1
173
     0
176
     1
1001
ACAD
1000
AcDbSavedByObjectVersion
1070
     0
  0
VISUALSTYLE
  5
DB
102
{ACAD_XDICTIONARY
360
135
102
}
102
{ACAD_REACTORS
330
C3
102
}
330
C3
100
AcDbVisualStyle
  2
EdgeColorOff
 70
    22
177
     2
291
     1
 71
     2
176
     0
 72
     2
176
     0
 73
     0
176
     0
 90
        0
176
     0
 40
0.6
176
     0
 41
30.0
176
     0
 63
     7
421
 16777215
176
     0
 74
     1
176
     0
 91
        4
176
     0
 64
     7
176
     0
 65
   257
176
     0
 75
     1
176
     0
175
     1
176
     0
 42
1.0
176
     0
 92
        8
176
     2
 66
     7
176
     0
 43
1.0
176
     0
 76
     1
176
     0
 77
     6
176
     0
 78
     2
176
     0
 67
     7
176
     0
 79
     5
176
     0
170
     0
176
     0
171
     0
176
     0
290
     0
176
     0
 93
        1
176
     0
 44
0.0
176
     0
173
     0
176
     0
1001
ACAD
1000
AcDbSavedByObjectVersion
1070
     0
  0
VISUALSTYLE
  5
D2
102
{ACAD_XDICTIONARY
360
123
102
}
102
{ACAD_REACTORS
330
C3
102
}
330
C3
100
AcDbVisualStyle
  2
Facepattern
 70
    15
177
     2
291
     1
 71
     2
176
     1
 72
     2
176
     1
 73
     0
176
     1
 90
        0
176
     1
 40
0.6
176
     1
 41
30.0
176
     1
 63
     7
421
 16777215
176
     1
 74
     1
176
     1
 91
        4
176
     1
 64
     7
176
     1
 65
   257
176
     1
 75
     1
176
     1
175
     1
176
     1
 42
1.0
176
     1
 92
        8
176
     1
 66
     7
176
     1
 43
1.0
176
     1
 76
     1
176
     1
 77
     6
176
     1
 78
     2
176
     1
 67
     7
176
     1
 79
     5
176
     1
170
     0
176
     1
171
     0
176
     1
290
     0
176
     1
 93
        1
176
     1
 44
0.0
176
     1
173
     0
176
     1
1001
ACAD
1000
AcDbSavedByObjectVersion
1070
     0
  0
VISUALSTYLE
  5
C4
102
{ACAD_XDICTIONARY
360
107
102
}
102
{ACAD_REACTORS
330
C3
102
}
330
C3
100
AcDbVisualStyle
  2
Flat
 70
     0
177
     2
291
     1
 71
     2
176
     1
 72
     1
176
     1
 73
     1
176
     1
 90
        2
176
     1
 40
0.6
176
     1
 41
30.0
176
     1
 63
     7
421
 16777215
176
     1
 74
     0
176
     1
 91
        0
176
     1
 64
     7
176
     1
 65
   257
176
     1
 75
     1
176
     1
175
     1
176
     1
 42
1.0
176
     1
 92
        8
176
     1
 66
     7
176
     1
 43
1.0
176
     1
 76
     1
176
     1
 77
     6
176
     1
 78
     2
176
     1
 67
     7
176
     1
 79
     5
176
     1
170
     0
176
     1
171
     0
176
     1
290
     0
176
     1
 93
       13
176
     1
 44
0.0
176
     1
173
     0
176
     1
1001
ACAD
1000
AcDbSavedByObjectVersion
1070
     0
  0
VISUALSTYLE
  5
C5
102
{ACAD_XDICTIONARY
360
109
102
}
102
{ACAD_REACTORS
330
C3
102
}
330
C3
100
AcDbVisualStyle
  2
FlatWithEdges
 70
     1
177
     2
291
     1
 71
     2
176
     1
 72
     1
176
     1
 73
     1
176
     1
 90
        2
176
     1
 40
0.6
176
     1
 41
30.0
176
     1
 63
     7
421
 16777215
176
     1
 74
     1
176
     1
 91
        0
176
     1
 64
     7
176
     1
 65
   257
176
     1
 75
     1
176
     1
175
     1
176
     1
 42
1.0
176
     1
 92
        0
176
     1
 66
   257
176
     1
 43
1.0
176
     1
 76
     1
176
     1
 77
     6
176
     1
 78
     2
176
     1
 67
     7
176
     1
 79
     5
176
     1
170
     0
176
     1
171
     0
176
     1
290
     0
176
     1
 93
       13
176
     1
 44
0.0
176
     1
173
     0
176
     1
1001
ACAD
1000
AcDbSavedByObjectVersion
1070
     0
  0
VISUALSTYLE
  5
C6
102
{ACAD_XDICTIONARY
360
10B
102
}
102
{ACAD_REACTORS
330
C3
102
}
330
C3
100
AcDbVisualStyle
  2
Gouraud
 70
     2
177
     2
291
     1
 71
     2
176
     1
 72
     2
176
     1
 73
     1
176
     1
 90
        2
176
     1
 40
0.6
176
     1
 41
30.0
176
     1
 63
     7
421
 16777215
176
     1
 74
     0
176
     1
 91
        0
176
     1
 64
     7
176
     1
 65
   257
176
     1
 75
     1
176
     1
175
     1
176
     1
 42
1.0
176
     1
 92
        0
176
     1
 66
     7
176
     1
 43
1.0
176
     1
 76
     1
176
     1
 77
     6
176
     1
 78
     2
176
     1
 67
     7
176
     1
 79
     5
176
     1
170
     0
176
     1
171
     0
176
     1
290
     0
176
     1
 93
       13
176
     1
 44
0.0
176
     1
173
     0
176
     1
1001
ACAD
1000
AcDbSavedByObjectVersion
1070
     0
  0
VISUALSTYLE
  5
C7
102
{ACAD_XDICTIONARY
360
10D
102
}
102
{ACAD_REACTORS
330
C3
102
}
330
C3
100
AcDbVisualStyle
  2
GouraudWithEdges
 70
     3
177
     2
291
     1
 71
     2
176
     1
 72
     2
176
     1
 73
     1
176
     1
 90
        2
176
     1
 40
0.6
176
     1
 41
30.0
176
     1
 63
     7
421
 16777215
176
     1
 74
     1
176
     1
 91
        0
176
     1
 64
     7
176
     1
 65
   257
176
     1
 75
     1
176
     1
175
     1
176
     1
 42
1.0
176
     1
 92
        0
176
     1
 66
   257
176
     1
 43
1.0
176
     1
 76
     1
176
     1
 77
     6
176
     1
 78
     2
176
     1
 67
     7
176
     1
 79
     5
176
     1
170
     0
176
     1
171
     0
176
     1
290
     0
176
     1
 93
       13
176
     1
 44
0.0
176
     1
173
     0
176
     1
1001
ACAD
1000
AcDbSavedByObjectVersion
1070
     0
  0
VISUALSTYLE
  5
CB
102
{ACAD_XDICTIONARY
360
115
102
}
102
{ACAD_REACTORS
330
C3
102
}
330
C3
100
AcDbVisualStyle
  2
Hidden
 70
     6
177
     2
291
     0
 71
     1
176
     1
 72
     2
176
     1
 73
     2
176
     1
 90
        0
176
     1
 40
0.6
176
     1
 41
30.0
176
     1
 63
     7
421
 16777215
176
     1
 74
     2
176
     1
 91
        2
176
     1
 64
     7
176
     1
 65
   257
176
     1
 75
     2
176
     1
175
     1
176
     1
 42
40.0
176
     1
 92
        0
176
     1
 66
   257
176
     1
 43
1.0
176
     1
 76
     1
176
     1
 77
     6
176
     1
 78
     2
176
     1
 67
     7
176
     1
 79
     3
176
     1
170
     0
176
     1
171
     0
176
     1
290
     0
176
     1
 93
        1
176
     1
 44
0.0
176
     1
173
     0
176
     1
1001
ACAD
1000
AcDbSavedByObjectVersion
1070
     0
  0
VISUALSTYLE
  5
D9
102
{ACAD_XDICTIONARY
360
131
102
}
102
{ACAD_REACTORS
330
C3
102
}
330
C3
100
AcDbVisualStyle
  2
JitterOff
 70
    20
177
     2
291
     1
 71
     2
176
     0
 72
     2
176
     0
 73
     0
176
     0
 90
        0
176
     0
 40
0.6
176
     0
 41
30.0
176
     0
 63
     7
421
 16777215
176
     0
 74
     1
176
     0
 91
        4
176
     0
 64
     7
176
     0
 65
   257
176
     0
 75
     1
176
     0
175
     1
176
     0
 42
1.0
176
     0
 92
       10
176
     2
 66
     7
176
     0
 43
1.0
176
     0
 76
     1
176
     0
 77
     6
176
     0
 78
     2
176
     0
 67
     7
176
     0
 79
     5
176
     0
170
     0
176
     0
171
     0
176
     0
290
     0
176
     0
 93
        1
176
     0
 44
0.0
176
     0
173
     0
176
     0
1001
ACAD
1000
AcDbSavedByObjectVersion
1070
     0
  0
VISUALSTYLE
  5
D1
102
{ACAD_XDICTIONARY
360
121
102
}
102
{ACAD_REACTORS
330
C3
102
}
330
C3
100
AcDbVisualStyle
  2
Linepattern
 70
    14
177
     2
291
     1
 71
     2
176
     1
 72
     2
176
     1
 73
     0
176
     1
 90
        0
176
     1
 40
0.6
176
     1
 41
30.0
176
     1
 63
     7
421
 16777215
176
     1
 74
     1
176
     1
 91
        4
176
     1
 64
     7
176
     1
 65
   257
176
     1
 75
     7
176
     1
175
     7
176
     1
 42
1.0
176
     1
 92
        8
176
     1
 66
     7
176
     1
 43
1.0
176
     1
 76
     1
176
     1
 77
     6
176
     1
 78
     2
176
     1
 67
     7
176
     1
 79
     5
176
     1
170
     0
176
     1
171
     0
176
     1
290
     0
176
     1
 93
        1
176
     1
 44
0.0
176
     1
173
     0
176
     1
1001
ACAD
1000
AcDbSavedByObjectVersion
1070
     0
  0
VISUALSTYLE
  5
DA
102
{ACAD_XDICTIONARY
360
133
102
}
102
{ACAD_REACTORS
330
C3
102
}
330
C3
100
AcDbVisualStyle
  2
OverhangOff
 70
    21
177
     2
291
     1
 71
     2
176
     0
 72
     2
176
     0
 73
     0
176
     0
 90
        0
176
     0
 40
0.6
176
     0
 41
30.0
176
     0
 63
     7
421
 16777215
176
     0
 74
     1
176
     0
 91
        4
176
     0
 64
     7
176
     0
 65
   257
176
     0
 75
     1
176
     0
175
     1
176
     0
 42
1.0
176
     0
 92
        9
176
     2
 66
     7
176
     0
 43
1.0
176
     0
 76
     1
176
     0
 77
     6
176
     0
 78
     2
176
     0
 67
     7
176
     0
 79
     5
176
     0
170
     0
176
     0
171
     0
176
     0
290
     0
176
     0
 93
        1
176
     0
 44
0.0
176
     0
173
     0
176
     0
1001
ACAD
1000
AcDbSavedByObjectVersion
1070
     0
  0
VISUALSTYLE
  5
CD
102
{ACAD_XDICTIONARY
360
119
102
}
102
{ACAD_REACTORS
330
C3
102
}
330
C3
100
AcDbVisualStyle
  2
Realistic
 70
     8
177
     2
291
     0
 71
     2
176
     1
 72
     3
176
     1
 73
     0
176
     1
 90
        2
176
     1
 40
0.6
176
     1
 41
30.0
176
     1
 63
     7
421
 16777215
176
     1
 74
     0
176
     1
 91
        0
176
     1
 64
     7
176
     1
 65
   257
176
     1
 75
     1
176
     1
175
     1
176
     1
 42
1.0
176
     1
 92
        8
176
     1
 66
   257
176
     1
 43
1.0
176
     1
 76
     1
176
     1
 77
     6
176
     1
 78
     2
176
     1
 67
     7
176
     1
 79
     3
176
     1
170
     0
176
     1
171
     0
176
     1
290
     0
176
     1
 93
       13
176
     1
 44
0.0
176
     1
173
     0
176
     1
1001
ACAD
1000
AcDbSavedByObjectVersion
1070
     0
  0
VISUALSTYLE
  5
D8
102
{ACAD_XDICTIONARY
360
12F
102
}
102
{ACAD_REACTORS
330
C3
102
}
330
C3
100
AcDbVisualStyle
  2
Shaded
 70
    27
177
     2
291
     0
 71
     2
176
     1
 72
     2
176
     1
 73
     1
176
     1
 90
        2
176
     1
 40
0.6
176
     1
 41
30.0
176
     1
 63
     7
421
 16777215
176
     1
 74
     0
176
     1
 91
        4
176
     1
 64
     7
176
     1
 65
   257
176
     1
 75
     1
176
     1
175
     1
176
     1
 42
1.0
176
     1
 92
        8
176
     1
 66
   257
176
     1
 43
1.0
176
     1
 76
     1
176
     1
 77
     6
176
     1
 78
     2
176
     1
 67
     8
425
  7895160
176
     1
 79
     3
176
     1
170
     0
176
     1
171
     0
176
     1
290
     0
176
     1
 93
        5
176
     1
 44
0.0
176
     1
173
     0
176
     1
1001
ACAD
1000
AcDbSavedByObjectVersion
1070
     0
  0
VISUALSTYLE
  5
D7
102
{ACAD_XDICTIONARY
360
12D
102
}
102
{ACAD_REACTORS
330
C3
102
}
330
C3
100
AcDbVisualStyle
  2
Shaded with edges
 70
    26
177
     2
291
     0
 71
     2
176
     1
 72
     2
176
     1
 73
     1
176
     1
 90
        2
176
     1
 40
0.6
176
     1
 41
30.0
176
     1
 63
     7
421
 16777215
176
     1
 74
     1
176
     1
 91
       10
176
     1
 64
     7
176
     1
 65
   257
176
     1
 75
     2
176
     1
175
     1
176
     1
 42
1.0
176
     1
 92
        8
176
     1
 66
   257
176
     1
 43
1.0
176
     1
 76
     1
176
     1
 77
     6
176
     1
 78
     2
176
     1
 67
     7
176
     1
 79
     3
176
     1
170
     0
176
     1
171
     0
176
     1
290
     0
176
     1
 93
        5
176
     1
 44
0.0
176
     1
173
     0
176
     1
1001
ACAD
1000
AcDbSavedByObjectVersion
1070
     0
  0
VISUALSTYLE
  5
D4
102
{ACAD_XDICTIONARY
360
127
102
}
102
{ACAD_REACTORS
330
C3
102
}
330
C3
100
AcDbVisualStyle
  2
Shades of Gray
 70
    23
177
     2
291
     0
 71
     2
176
     1
 72
     2
176
     1
 73
     3
176
     1
 90
        0
176
     1
 40
0.6
176
     1
 41
30.0
176
     1
 63
     7
421
 16777215
176
     1
 74
     2
176
     1
 91
        2
176
     1
 64
     7
176
     1
 65
     7
176
     1
 75
     1
176
     1
175
     1
176
     1
 42
40.0
176
     1
 92
        8
176
     1
 66
     7
176
     1
 43
1.0
176
     1
 76
     1
176
     1
 77
     6
176
     1
 78
     2
176
     1
 67
     7
176
     1
 79
     3
176
     1
170
     0
176
     1
171
     0
176
     1
290
     0
176
     1
 93
        1
176
     1
 44
0.0
176
     1
173
     0
176
     1
1001
ACAD
1000
AcDbSavedByObjectVersion
1070
     0
  0
VISUALSTYLE
  5
D5
102
{ACAD_XDICTIONARY
360
129
102
}
102
{ACAD_REACTORS
330
C3
102
}
330
C3
100
AcDbVisualStyle
  2
Sketchy
 70
    24
177
     2
291
     0
 71
     1
176
     1
 72
     2
176
     1
 73
     2
176
     1
 90
        0
176
     1
 40
0.6
176
     1
 41
30.0
176
     1
 63
     7
421
 16777215
176
     1
 74
     2
176
     1
 91
        2
176
     1
 64
     7
176
     1
 65
     7
176
     1
 75
     1
176
     1
175
     1
176
     1
 42
40.0
176
     1
 92
       11
176
     1
 66
     7
176
     1
 43
1.0
176
     1
 76
     1
176
     1
 77
     6
176
     1
 78
     2
176
     1
 67
     7
176
     1
 79
     6
176
     1
170
     0
176
     1
171
     0
176
     1
290
     0
176
     1
 93
        1
176
     1
 44
0.0
176
     1
173
     0
176
     1
1001
ACAD
1000
AcDbSavedByObjectVersion
1070
     0
  0
VISUALSTYLE
  5
D0
102
{ACAD_XDICTIONARY
360
11F
102
}
102
{ACAD_REACTORS
330
C3
102
}
330
C3
100
AcDbVisualStyle
  2
Thicken
 70
    13
177
     2
291
     1
 71
     2
176
     1
 72
     2
176
     1
 73
     0
176
     1
 90
        0
176
     1
 40
0.6
176
     1
 41
30.0
176
     1
 63
     7
421
 16777215
176
     1
 74
     1
176
     1
 91
        4
176
     1
 64
     7
176
     1
 65
   257
176
     1
 75
     1
176
     1
175
     1
176
     1
 42
1.0
176
     1
 92
       12
176
     1
 66
     7
176
     1
 43
1.0
176
     1
 76
     1
176
     1
 77
     6
176
     1
 78
     2
176
     1
 67
     7
176
     1
 79
     5
176
     1
170
     0
176
     1
171
     0
176
     1
290
     0
176
     1
 93
        1
176
     1
 44
0.0
176
     1
173
     0
176
     1
1001
ACAD
1000
AcDbSavedByObjectVersion
1070
     0
  0
VISUALSTYLE
  5
CA
102
{ACAD_XDICTIONARY
360
113
102
}
102
{ACAD_REACTORS
330
C3
102
}
330
C3
100
AcDbVisualStyle
  2
Wireframe
 70
     5
177
     2
291
     0
 71
     0
176
     1
 72
     2
176
     1
 73
     0
176
     1
 90
        0
176
     1
 40
0.6
176
     1
 41
30.0
176
     1
 63
     7
421
 16777215
176
     1
 74
     1
176
     1
 91
        4
176
     1
 64
     7
176
     1
 65
   257
176
     1
 75
     1
176
     1
175
     1
176
     1
 42
1.0
176
     1
 92
        0
176
     1
 66
   257
176
     1
 43
1.0
176
     1
 76
     1
176
     1
 77
     6
176
     1
 78
     2
176
     1
 67
     7
176
     1
 79
     3
176
     1
170
     0
176
     1
171
     0
176
     1
290
     0
176
     1
 93
        1
176
     1
 44
0.0
176
     1
173
     0
176
     1
1001
ACAD
1000
AcDbSavedByObjectVersion
1070
     0
  0
VISUALSTYLE
  5
D6
102
{ACAD_XDICTIONARY
360
12B
102
}
102
{ACAD_REACTORS
330
C3
102
}
330
C3
100
AcDbVisualStyle
  2
X-Ray
 70
    25
177
     2
291
     0
 71
     2
176
     1
 72
     2
176
     1
 73
     1
176
     1
 90
        1
176
     1
 40
0.5
176
     1
 41
30.0
176
     1
 63
     7
421
 16777215
176
     1
 74
     1
176
     1
 91
        0
176
     1
 64
     7
176
     1
 65
   257
176
     1
 75
     1
176
     1
175
     1
176
     1
 42
1.0
176
     1
 92
        8
176
     1
 66
     7
176
     1
 43
1.0
176
     1
 76
     1
176
     1
 77
     6
176
     1
 78
     2
176
     1
 67
     7
176
     1
 79
     3
176
     1
170
     0
176
     1
171
     0
176
     1
290
     0
176
     1
 93
       13
176
     1
 44
0.0
176
     1
173
     0
176
     1
1001
ACAD
1000
AcDbSavedByObjectVersion
1070
     0
  0
DICTIONARYVAR
  5
100
102
{ACAD_REACTORS
330
FA
102
}
330
FA
100
DictionaryVariables
280
     0
  1
1:1
  0
DICTIONARYVAR
  5
FC
102
{ACAD_REACTORS
330
FA
102
}
330
FA
100
DictionaryVariables
280
     0
  1
STANDARD
  0
DICTIONARYVAR
  5
FB
102
{ACAD_REACTORS
330
FA
102
}
330
FA
100
DictionaryVariables
280
     0
  1
STANDARD
  0
DICTIONARYVAR
  5
FD
102
{ACAD_REACTORS
330
FA
102
}
330
FA
100
DictionaryVariables
280
     0
  1
Imperial24
  0
DICTIONARYVAR
  5
FE
102
{ACAD_REACTORS
330
FA
102
}
330
FA
100
DictionaryVariables
280
     0
  1
Imperial24
  0
DICTIONARYVAR
  5
102
102
{ACAD_REACTORS
330
FA
102
}
330
FA
100
DictionaryVariables
280
     0
  1
1
  0
DICTIONARYVAR
  5
103
102
{ACAD_REACTORS
330
FA
102
}
330
FA
100
DictionaryVariables
280
     0
  1
15
  0
DICTIONARYVAR
  5
101
102
{ACAD_REACTORS
330
FA
102
}
330
FA
100
DictionaryVariables
280
     0
  1
0
  0
DICTIONARYVAR
  5
FF
102
{ACAD_REACTORS
330
FA
102
}
330
FA
100
DictionaryVariables
280
     0
  1
0
  0
DICTIONARY
  5
13B
330
F6
100
AcDbDictionary
280
     1
281
     1
  3
ACAD_XREC_ROUNDTRIP
360
13C
  0
DICTIONARY
  5
B4
330
B3
100
AcDbDictionary
280
     1
281
     1
  3
BUMPTILE
360
B6
  3
DIFFUSETILE
360
B5
  3
OPACITYTILE
360
B9
  3
REFLECTIONTILE
360
B8
  3
REFRACTIONTILE
360
BA
  3
SPECULARTILE
360
B7
  0
DICTIONARY
  5
AC
330
AB
100
AcDbDictionary
280
     1
281
     1
  3
BUMPTILE
360
AE
  3
DIFFUSETILE
360
AD
  3
OPACITYTILE
360
B1
  3
REFLECTIONTILE
360
B0
  3
REFRACTIONTILE
360
B2
  3
SPECULARTILE
360
AF
  0
DICTIONARY
  5
BC
330
BB
100
AcDbDictionary
280
     1
281
     1
  3
BUMPTILE
360
BE
  3
DIFFUSETILE
360
BD
  3
OPACITYTILE
360
C1
  3
REFLECTIONTILE
360
C0
  3
REFRACTIONTILE
360
C2
  3
SPECULARTILE
360
BF
  0
DICTIONARY
  5
137
330
F2
100
AcDbDictionary
280
     1
281
     1
  3
ACAD_XREC_ROUNDTRIP
360
138
  0
DICTIONARY
  5
139
330
F4
100
AcDbDictionary
280
     1
281
     1
  3
ACAD_XREC_ROUNDTRIP
360
13A
  0
DICTIONARY
  5
104
330
DE
100
AcDbDictionary
280
     1
281
     1
  3
ACAD_ROUNDTRIP_2008_TABLESTYLE_CELLSTYLEMAP
360
105
  0
DICTIONARY
  5
111
330
C9
100
AcDbDictionary
280
     1
281
     1
  3
ACAD_XREC_ROUNDTRIP
360
112
  0
DICTIONARY
  5
10F
330
C8
100
AcDbDictionary
280
     1
281
     1
  3
ACAD_XREC_ROUNDTRIP
360
110
  0
DICTIONARY
  5
11D
330
CF
100
AcDbDictionary
280
     1
281
     1
  3
ACAD_XREC_ROUNDTRIP
360
11E
  0
DICTIONARY
  5
125
330
D3
100
AcDbDictionary
280
     1
281
     1
  3
ACAD_XREC_ROUNDTRIP
360
126
  0
DICTIONARY
  5
117
330
CC
100
AcDbDictionary
280
     1
281
     1
  3
ACAD_XREC_ROUNDTRIP
360
118
  0
DICTIONARY
  5
11B
330
CE
100
AcDbDictionary
280
     1
281
     1
  3
ACAD_XREC_ROUNDTRIP
360
11C
  0
DICTIONARY
  5
135
330
DB
100
AcDbDictionary
280
     1
281
     1
  3
ACAD_XREC_ROUNDTRIP
360
136
  0
DICTIONARY
  5
123
330
D2
100
AcDbDictionary
280
     1
281
     1
  3
ACAD_XREC_ROUNDTRIP
360
124
  0
DICTIONARY
  5
107
330
C4
100
AcDbDictionary
280
     1
281
     1
  3
ACAD_XREC_ROUNDTRIP
360
108
  0
DICTIONARY
  5
109
330
C5
100
AcDbDictionary
280
     1
281
     1
  3
ACAD_XREC_ROUNDTRIP
360
10A
  0
DICTIONARY
  5
10B
330
C6
100
AcDbDictionary
280
     1
281
     1
  3
ACAD_XREC_ROUNDTRIP
360
10C
  0
DICTIONARY
  5
10D
330
C7
100
AcDbDictionary
280
     1
281
     1
  3
ACAD_XREC_ROUNDTRIP
360
10E
  0
DICTIONARY
  5
115
330
CB
100
AcDbDictionary
280
     1
281
     1
  3
ACAD_XREC_ROUNDTRIP
360
116
  0
DICTIONARY
  5
131
330
D9
100
AcDbDictionary
280
     1
281
     1
  3
ACAD_XREC_ROUNDTRIP
360
132
  0
DICTIONARY
  5
121
330
D1
100
AcDbDictionary
280
     1
281
     1
  3
ACAD_XREC_ROUNDTRIP
360
122
  0
DICTIONARY
  5
133
330
DA
100
AcDbDictionary
280
     1
281
     1
  3
ACAD_XREC_ROUNDTRIP
360
134
  0
DICTIONARY
  5
119
330
CD
100
AcDbDictionary
280
     1
281
     1
  3
ACAD_XREC_ROUNDTRIP
360
11A
  0
DICTIONARY
  5
12F
330
D8
100
AcDbDictionary
280
     1
281
     1
  3
ACAD_XREC_ROUNDTRIP
360
130
  0
DICTIONARY
  5
12D
330
D7
100
AcDbDictionary
280
     1
281
     1
  3
ACAD_XREC_ROUNDTRIP
360
12E
  0
DICTIONARY
  5
127
330
D4
100
AcDbDictionary
280
     1
281
     1
  3
ACAD_XREC_ROUNDTRIP
360
128
  0
DICTIONARY
  5
129
330
D5
100
AcDbDictionary
280
     1
281
     1
  3
ACAD_XREC_ROUNDTRIP
360
12A
  0
DICTIONARY
  5
11F
330
D0
100
AcDbDictionary
280
     1
281
     1
  3
ACAD_XREC_ROUNDTRIP
360
120
  0
DICTIONARY
  5
113
330
CA
100
AcDbDictionary
280
     1
281
     1
  3
ACAD_XREC_ROUNDTRIP
360
114
  0
DICTIONARY
  5
12B
330
D6
100
AcDbDictionary
280
     1
281
     1
  3
ACAD_XREC_ROUNDTRIP
360
12C
  0
XRECORD
  5
13C
102
{ACAD_REACTORS
330
13B
102
}
330
13B
100
AcDbXrecord
280
     1
102
DISPLAYNAME
  1
Imperial24
102
FLAGS
 90
        0
  0
XRECORD
  5
B6
102
{ACAD_REACTORS
330
B4
102
}
330
B4
100
AcDbXrecord
280
     1
270
     1
271
     1
  0
XRECORD
  5
B5
102
{ACAD_REACTORS
330
B4
102
}
330
B4
100
AcDbXrecord
280
     1
270
     1
271
     1
  0
XRECORD
  5
B9
102
{ACAD_REACTORS
330
B4
102
}
330
B4
100
AcDbXrecord
280
     1
270
     1
271
     1
  0
XRECORD
  5
B8
102
{ACAD_REACTORS
330
B4
102
}
330
B4
100
AcDbXrecord
280
     1
270
     1
271
     1
  0
XRECORD
  5
BA
102
{ACAD_REACTORS
330
B4
102
}
330
B4
100
AcDbXrecord
280
     1
270
     1
271
     1
  0
XRECORD
  5
B7
102
{ACAD_REACTORS
330
B4
102
}
330
B4
100
AcDbXrecord
280
     1
270
     1
271
     1
  0
XRECORD
  5
AE
102
{ACAD_REACTORS
330
AC
102
}
330
AC
100
AcDbXrecord
280
     1
270
     1
271
     1
  0
XRECORD
  5
AD
102
{ACAD_REACTORS
330
AC
102
}
330
AC
100
AcDbXrecord
280
     1
270
     1
271
     1
  0
XRECORD
  5
B1
102
{ACAD_REACTORS
330
AC
102
}
330
AC
100
AcDbXrecord
280
     1
270
     1
271
     1
  0
XRECORD
  5
B0
102
{ACAD_REACTORS
330
AC
102
}
330
AC
100
AcDbXrecord
280
     1
270
     1
271
     1
  0
XRECORD
  5
B2
102
{ACAD_REACTORS
330
AC
102
}
330
AC
100
AcDbXrecord
280
     1
270
     1
271
     1
  0
XRECORD
  5
AF
102
{ACAD_REACTORS
330
AC
102
}
330
AC
100
AcDbXrecord
280
     1
270
     1
271
     1
  0
XRECORD
  5
BE
102
{ACAD_REACTORS
330
BC
102
}
330
BC
100
AcDbXrecord
280
     1
270
     1
271
     1
  0
XRECORD
  5
BD
102
{ACAD_REACTORS
330
BC
102
}
330
BC
100
AcDbXrecord
280
     1
270
     1
271
     1
  0
XRECORD
  5
C1
102
{ACAD_REACTORS
330
BC
102
}
330
BC
100
AcDbXrecord
280
     1
270
     1
271
     1
  0
XRECORD
  5
C0
102
{ACAD_REACTORS
330
BC
102
}
330
BC
100
AcDbXrecord
280
     1
270
     1
271
     1
  0
XRECORD
  5
C2
102
{ACAD_REACTORS
330
BC
102
}
330
BC
100
AcDbXrecord
280
     1
270
     1
271
     1
  0
XRECORD
  5
BF
102
{ACAD_REACTORS
330
BC
102
}
330
BC
100
AcDbXrecord
280
     1
270
     1
271
     1
  0
XRECORD
  5
138
102
{ACAD_REACTORS
330
137
102
}
330
137
100
AcDbXrecord
280
     1
102
ACAD_ROUNDTRIP_2012_MLEADER_STYLE
298
     1
  0
XRECORD
  5
13A
102
{ACAD_REACTORS
330
139
102
}
330
139
100
AcDbXrecord
280
     1
102
DISPLAYNAME
  1
Imperial24
102
FLAGS
 90
        0
  0
CELLSTYLEMAP
  5
105
102
{ACAD_REACTORS
330
104
102
}
330
104
100
AcDbCellStyleMap
 90
        3
300
CELLSTYLE
  1
TABLEFORMAT_BEGIN
 90
        5
170
     1
 91
        0
 92
    32768
 62
   257
 93
        1
300
CONTENTFORMAT
  1
CONTENTFORMAT_BEGIN
 90
        0
 91
        0
 92
      512
 93
        0
300

 40
0.0
140
1.0
 94
        5
 62
     0
340
11
144
0.25
309
CONTENTFORMAT_END
171
     0
 94
        0
309
TABLEFORMAT_END
  1
CELLSTYLE_BEGIN
 90
        1
 91
        1
300
_TITLE
309
CELLSTYLE_END
300
CELLSTYLE
  1
TABLEFORMAT_BEGIN
 90
        5
170
     1
 91
        0
 92
        0
 62
   257
 93
        1
300
CONTENTFORMAT
  1
CONTENTFORMAT_BEGIN
 90
        0
 91
        0
 92
      512
 93
        0
300

 40
0.0
140
1.0
 94
        5
 62
     0
340
11
144
0.18
309
CONTENTFORMAT_END
171
     0
 94
        0
309
TABLEFORMAT_END
  1
CELLSTYLE_BEGIN
 90
        2
 91
        1
300
_HEADER
309
CELLSTYLE_END
300
CELLSTYLE
  1
TABLEFORMAT_BEGIN
 90
        5
170
     1
 91
        0
 92
        0
 62
   257
 93
        1
300
CONTENTFORMAT
  1
CONTENTFORMAT_BEGIN
 90
        0
 91
        0
 92
      512
 93
        0
300

 40
0.0
140
1.0
 94
        2
 62
     0
340
11
144
0.18
309
CONTENTFORMAT_END
171
     0
 94
        0
309
TABLEFORMAT_END
  1
CELLSTYLE_BEGIN
 90
        3
 91
        2
300
_DATA
309
CELLSTYLE_END
  0
XRECORD
  5
112
102
{ACAD_REACTORS
330
111
102
}
330
111
100
AcDbXrecord
280
     1
102
RTVSPost2010Prop28
280
     1
102
RTVSPost2010PropOp28
 70
     1
102
RTVSPost2010Prop29
280
     1
102
RTVSPost2010PropOp29
 70
     1
102
RTVSPost2010Prop30
280
     0
102
RTVSPost2010PropOp30
 70
     1
102
RTVSPost2010Prop31
280
     0
102
RTVSPost2010PropOp31
 70
     1
102
RTVSPost2010Prop32
280
     0
102
RTVSPost2010PropOp32
 70
     1
102
RTVSPost2010Prop33
280
     0
102
RTVSPost2010PropOp33
 70
     1
102
RTVSPost2010Prop34
280
     0
102
RTVSPost2010PropOp34
 70
     1
102
RTVSPost2010Prop35
280
     0
102
RTVSPost2010PropOp35
 70
     1
102
RTVSPost2010Prop36
280
     0
102
RTVSPost2010PropOp36
 70
     1
102
RTVSPost2010Prop37
 90
       50
102
RTVSPost2010PropOp37
 70
     1
102
RTVSPost2010Prop38
140
0.0
102
RTVSPost2010PropOp38
 70
     1
102
RTVSPost2010Prop39
140
1.0
102
RTVSPost2010PropOp39
 70
     1
102
RTVSPost2010Prop40
 90
        0
102
RTVSPost2010PropOp40
 70
     1
102
RTVSPost2010Prop41ColorIndex
 90
       18
102
RTVSPost2010Prop41ColorRGB
 90
        0
102
RTVSPost2010PropOp41
 70
     1
102
RTVSPost2010Prop42
 90
       50
102
RTVSPost2010PropOp42
 70
     1
102
RTVSPost2010Prop43
 90
        3
102
RTVSPost2010PropOp43
 70
     1
102
RTVSPost2010Prop44ColorIndex
 90
        5
102
RTVSPost2010Prop44ColorRGB
 90
      255
102
RTVSPost2010PropOp44
 70
     1
102
RTVSPost2010Prop45
280
     0
102
RTVSPost2010PropOp45
 70
     1
102
RTVSPost2010Prop46
 90
       50
102
RTVSPost2010PropOp46
 70
     1
102
RTVSPost2010Prop47
 90
       50
102
RTVSPost2010PropOp47
 70
     1
102
RTVSPost2010Prop48
 90
       50
102
RTVSPost2010PropOp48
 70
     1
102
RTVSPost2010Prop49
280
     0
102
RTVSPost2010PropOp49
 70
     1
102
RTVSPost2010Prop50
 90
       50
102
RTVSPost2010PropOp50
 70
     1
102
RTVSPost2010Prop51ColorIndex
 90
      256
102
RTVSPost2010Prop51ColorRGB
 90
-16777216
102
RTVSPost2010PropOp51
 70
     0
102
RTVSPost2010Prop52
140
1.0
102
RTVSPost2010PropOp52
 70
     0
102
RTVSPost2010Prop53
 90
        2
102
RTVSPost2010PropOp53
 70
     1
102
RTVSPost2010Prop54
  1
strokes_ogs.tif
102
RTVSPost2010PropOp54
 70
     1
102
RTVSPost2010Prop55
280
     0
102
RTVSPost2010PropOp55
 70
     1
102
RTVSPost2010Prop56
140
1.0
102
RTVSPost2010PropOp56
 70
     1
102
RTVSPost2010Prop57
140
1.0
102
RTVSPost2010PropOp57
 70
     1
  0
XRECORD
  5
110
102
{ACAD_REACTORS
330
10F
102
}
330
10F
100
AcDbXrecord
280
     1
102
RTVSPost2010Prop28
280
     0
102
RTVSPost2010PropOp28
 70
     1
102
RTVSPost2010Prop29
280
     1
102
RTVSPost2010PropOp29
 70
     1
102
RTVSPost2010Prop30
280
     1
102
RTVSPost2010PropOp30
 70
     1
102
RTVSPost2010Prop31
280
     0
102
RTVSPost2010PropOp31
 70
     1
102
RTVSPost2010Prop32
280
     0
102
RTVSPost2010PropOp32
 70
     1
102
RTVSPost2010Prop33
280
     0
102
RTVSPost2010PropOp33
 70
     1
102
RTVSPost2010Prop34
280
     0
102
RTVSPost2010PropOp34
 70
     1
102
RTVSPost2010Prop35
280
     0
102
RTVSPost2010PropOp35
 70
     1
102
RTVSPost2010Prop36
280
     0
102
RTVSPost2010PropOp36
 70
     1
102
RTVSPost2010Prop37
 90
       50
102
RTVSPost2010PropOp37
 70
     1
102
RTVSPost2010Prop38
140
0.0
102
RTVSPost2010PropOp38
 70
     1
102
RTVSPost2010Prop39
140
1.0
102
RTVSPost2010PropOp39
 70
     1
102
RTVSPost2010Prop40
 90
        0
102
RTVSPost2010PropOp40
 70
     1
102
RTVSPost2010Prop41ColorIndex
 90
       18
102
RTVSPost2010Prop41ColorRGB
 90
        0
102
RTVSPost2010PropOp41
 70
     1
102
RTVSPost2010Prop42
 90
       50
102
RTVSPost2010PropOp42
 70
     1
102
RTVSPost2010Prop43
 90
        3
102
RTVSPost2010PropOp43
 70
     1
102
RTVSPost2010Prop44ColorIndex
 90
        5
102
RTVSPost2010Prop44ColorRGB
 90
      255
102
RTVSPost2010PropOp44
 70
     1
102
RTVSPost2010Prop45
280
     0
102
RTVSPost2010PropOp45
 70
     1
102
RTVSPost2010Prop46
 90
       50
102
RTVSPost2010PropOp46
 70
     1
102
RTVSPost2010Prop47
 90
       50
102
RTVSPost2010PropOp47
 70
     1
102
RTVSPost2010Prop48
 90
       50
102
RTVSPost2010PropOp48
 70
     1
102
RTVSPost2010Prop49
280
     0
102
RTVSPost2010PropOp49
 70
     1
102
RTVSPost2010Prop50
 90
       50
102
RTVSPost2010PropOp50
 70
     1
102
RTVSPost2010Prop51ColorIndex
 90
      256
102
RTVSPost2010Prop51ColorRGB
 90
-16777216
102
RTVSPost2010PropOp51
 70
     0
102
RTVSPost2010Prop52
140
1.0
102
RTVSPost2010PropOp52
 70
     0
102
RTVSPost2010Prop53
 90
        2
102
RTVSPost2010PropOp53
 70
     1
102
RTVSPost2010Prop54
  1
strokes_ogs.tif
102
RTVSPost2010PropOp54
 70
     1
102
RTVSPost2010Prop55
280
     0
102
RTVSPost2010PropOp55
 70
     1
102
RTVSPost2010Prop56
140
1.0
102
RTVSPost2010PropOp56
 70
     1
102
RTVSPost2010Prop57
140
1.0
102
RTVSPost2010PropOp57
 70
     1
  0
XRECORD
  5
11E
102
{ACAD_REACTORS
330
11D
102
}
330
11D
100
AcDbXrecord
280
     1
102
RTVSPost2010Prop28
280
     0
102
RTVSPost2010PropOp28
 70
     1
102
RTVSPost2010Prop29
280
     1
102
RTVSPost2010PropOp29
 70
     1
102
RTVSPost2010Prop30
280
     1
102
RTVSPost2010PropOp30
 70
     1
102
RTVSPost2010Prop31
280
     0
102
RTVSPost2010PropOp31
 70
     1
102
RTVSPost2010Prop32
280
     0
102
RTVSPost2010PropOp32
 70
     1
102
RTVSPost2010Prop33
280
     0
102
RTVSPost2010PropOp33
 70
     1
102
RTVSPost2010Prop34
280
     0
102
RTVSPost2010PropOp34
 70
     1
102
RTVSPost2010Prop35
280
     0
102
RTVSPost2010PropOp35
 70
     1
102
RTVSPost2010Prop36
280
     0
102
RTVSPost2010PropOp36
 70
     1
102
RTVSPost2010Prop37
 90
       50
102
RTVSPost2010PropOp37
 70
     1
102
RTVSPost2010Prop38
140
0.0
102
RTVSPost2010PropOp38
 70
     1
102
RTVSPost2010Prop39
140
1.0
102
RTVSPost2010PropOp39
 70
     1
102
RTVSPost2010Prop40
 90
        0
102
RTVSPost2010PropOp40
 70
     1
102
RTVSPost2010Prop41ColorIndex
 90
       18
102
RTVSPost2010Prop41ColorRGB
 90
        0
102
RTVSPost2010PropOp41
 70
     1
102
RTVSPost2010Prop42
 90
       50
102
RTVSPost2010PropOp42
 70
     1
102
RTVSPost2010Prop43
 90
        3
102
RTVSPost2010PropOp43
 70
     1
102
RTVSPost2010Prop44ColorIndex
 90
        5
102
RTVSPost2010Prop44ColorRGB
 90
      255
102
RTVSPost2010PropOp44
 70
     1
102
RTVSPost2010Prop45
280
     0
102
RTVSPost2010PropOp45
 70
     1
102
RTVSPost2010Prop46
 90
       50
102
RTVSPost2010PropOp46
 70
     1
102
RTVSPost2010Prop47
 90
       50
102
RTVSPost2010PropOp47
 70
     1
102
RTVSPost2010Prop48
 90
       50
102
RTVSPost2010PropOp48
 70
     1
102
RTVSPost2010Prop49
280
     0
102
RTVSPost2010PropOp49
 70
     1
102
RTVSPost2010Prop50
 90
       50
102
RTVSPost2010PropOp50
 70
     1
102
RTVSPost2010Prop51ColorIndex
 90
      256
102
RTVSPost2010Prop51ColorRGB
 90
-16777216
102
RTVSPost2010PropOp51
 70
     0
102
RTVSPost2010Prop52
140
1.0
102
RTVSPost2010PropOp52
 70
     0
102
RTVSPost2010Prop53
 90
        2
102
RTVSPost2010PropOp53
 70
     1
102
RTVSPost2010Prop54
  1
strokes_ogs.tif
102
RTVSPost2010PropOp54
 70
     1
102
RTVSPost2010Prop55
280
     0
102
RTVSPost2010PropOp55
 70
     1
102
RTVSPost2010Prop56
140
1.0
102
RTVSPost2010PropOp56
 70
     1
102
RTVSPost2010Prop57
140
1.0
102
RTVSPost2010PropOp57
 70
     1
  0
XRECORD
  5
126
102
{ACAD_REACTORS
330
125
102
}
330
125
100
AcDbXrecord
280
     1
102
RTVSPost2010Prop28
280
     0
102
RTVSPost2010PropOp28
 70
     1
102
RTVSPost2010Prop29
280
     1
102
RTVSPost2010PropOp29
 70
     1
102
RTVSPost2010Prop30
280
     1
102
RTVSPost2010PropOp30
 70
     1
102
RTVSPost2010Prop31
280
     0
102
RTVSPost2010PropOp31
 70
     1
102
RTVSPost2010Prop32
280
     0
102
RTVSPost2010PropOp32
 70
     1
102
RTVSPost2010Prop33
280
     0
102
RTVSPost2010PropOp33
 70
     1
102
RTVSPost2010Prop34
280
     0
102
RTVSPost2010PropOp34
 70
     1
102
RTVSPost2010Prop35
280
     0
102
RTVSPost2010PropOp35
 70
     1
102
RTVSPost2010Prop36
280
     0
102
RTVSPost2010PropOp36
 70
     1
102
RTVSPost2010Prop37
 90
       50
102
RTVSPost2010PropOp37
 70
     1
102
RTVSPost2010Prop38
140
0.0
102
RTVSPost2010PropOp38
 70
     1
102
RTVSPost2010Prop39
140
1.0
102
RTVSPost2010PropOp39
 70
     1
102
RTVSPost2010Prop40
 90
        0
102
RTVSPost2010PropOp40
 70
     1
102
RTVSPost2010Prop41ColorIndex
 90
       18
102
RTVSPost2010Prop41ColorRGB
 90
        0
102
RTVSPost2010PropOp41
 70
     1
102
RTVSPost2010Prop42
 90
       50
102
RTVSPost2010PropOp42
 70
     1
102
RTVSPost2010Prop43
 90
        3
102
RTVSPost2010PropOp43
 70
     1
102
RTVSPost2010Prop44ColorIndex
 90
        5
102
RTVSPost2010Prop44ColorRGB
 90
      255
102
RTVSPost2010PropOp44
 70
     1
102
RTVSPost2010Prop45
280
     0
102
RTVSPost2010PropOp45
 70
     1
102
RTVSPost2010Prop46
 90
       50
102
RTVSPost2010PropOp46
 70
     1
102
RTVSPost2010Prop47
 90
       50
102
RTVSPost2010PropOp47
 70
     1
102
RTVSPost2010Prop48
 90
       50
102
RTVSPost2010PropOp48
 70
     1
102
RTVSPost2010Prop49
280
     0
102
RTVSPost2010PropOp49
 70
     1
102
RTVSPost2010Prop50
 90
       50
102
RTVSPost2010PropOp50
 70
     1
102
RTVSPost2010Prop51ColorIndex
 90
      256
102
RTVSPost2010Prop51ColorRGB
 90
-16777216
102
RTVSPost2010PropOp51
 70
     0
102
RTVSPost2010Prop52
140
1.0
102
RTVSPost2010PropOp52
 70
     0
102
RTVSPost2010Prop53
 90
        2
102
RTVSPost2010PropOp53
 70
     1
102
RTVSPost2010Prop54
  1
strokes_ogs.tif
102
RTVSPost2010PropOp54
 70
     1
102
RTVSPost2010Prop55
280
     0
102
RTVSPost2010PropOp55
 70
     1
102
RTVSPost2010Prop56
140
1.0
102
RTVSPost2010PropOp56
 70
     1
102
RTVSPost2010Prop57
140
1.0
102
RTVSPost2010PropOp57
 70
     1
  0
XRECORD
  5
118
102
{ACAD_REACTORS
330
117
102
}
330
117
100
AcDbXrecord
280
     1
102
RTVSPost2010Prop28
280
     0
102
RTVSPost2010PropOp28
 70
     1
102
RTVSPost2010Prop29
280
     1
102
RTVSPost2010PropOp29
 70
     1
102
RTVSPost2010Prop30
280
     1
102
RTVSPost2010PropOp30
 70
     1
102
RTVSPost2010Prop31
280
     0
102
RTVSPost2010PropOp31
 70
     1
102
RTVSPost2010Prop32
280
     0
102
RTVSPost2010PropOp32
 70
     1
102
RTVSPost2010Prop33
280
     0
102
RTVSPost2010PropOp33
 70
     1
102
RTVSPost2010Prop34
280
     0
102
RTVSPost2010PropOp34
 70
     1
102
RTVSPost2010Prop35
280
     0
102
RTVSPost2010PropOp35
 70
     1
102
RTVSPost2010Prop36
280
     0
102
RTVSPost2010PropOp36
 70
     1
102
RTVSPost2010Prop37
 90
       50
102
RTVSPost2010PropOp37
 70
     1
102
RTVSPost2010Prop38
140
0.0
102
RTVSPost2010PropOp38
 70
     1
102
RTVSPost2010Prop39
140
1.0
102
RTVSPost2010PropOp39
 70
     1
102
RTVSPost2010Prop40
 90
        0
102
RTVSPost2010PropOp40
 70
     1
102
RTVSPost2010Prop41ColorIndex
 90
       18
102
RTVSPost2010Prop41ColorRGB
 90
        0
102
RTVSPost2010PropOp41
 70
     1
102
RTVSPost2010Prop42
 90
       50
102
RTVSPost2010PropOp42
 70
     1
102
RTVSPost2010Prop43
 90
        3
102
RTVSPost2010PropOp43
 70
     1
102
RTVSPost2010Prop44ColorIndex
 90
        5
102
RTVSPost2010Prop44ColorRGB
 90
      255
102
RTVSPost2010PropOp44
 70
     1
102
RTVSPost2010Prop45
280
     0
102
RTVSPost2010PropOp45
 70
     1
102
RTVSPost2010Prop46
 90
       50
102
RTVSPost2010PropOp46
 70
     1
102
RTVSPost2010Prop47
 90
       50
102
RTVSPost2010PropOp47
 70
     1
102
RTVSPost2010Prop48
 90
       50
102
RTVSPost2010PropOp48
 70
     1
102
RTVSPost2010Prop49
280
     0
102
RTVSPost2010PropOp49
 70
     1
102
RTVSPost2010Prop50
 90
       50
102
RTVSPost2010PropOp50
 70
     1
102
RTVSPost2010Prop51ColorIndex
 90
      256
102
RTVSPost2010Prop51ColorRGB
 90
-16777216
102
RTVSPost2010PropOp51
 70
     0
102
RTVSPost2010Prop52
140
1.0
102
RTVSPost2010PropOp52
 70
     0
102
RTVSPost2010Prop53
 90
        2
102
RTVSPost2010PropOp53
 70
     1
102
RTVSPost2010Prop54
  1
strokes_ogs.tif
102
RTVSPost2010PropOp54
 70
     1
102
RTVSPost2010Prop55
280
     0
102
RTVSPost2010PropOp55
 70
     1
102
RTVSPost2010Prop56
140
1.0
102
RTVSPost2010PropOp56
 70
     1
102
RTVSPost2010Prop57
140
1.0
102
RTVSPost2010PropOp57
 70
     1
  0
XRECORD
  5
11C
102
{ACAD_REACTORS
330
11B
102
}
330
11B
100
AcDbXrecord
280
     1
102
RTVSPost2010Prop28
280
     0
102
RTVSPost2010PropOp28
 70
     1
102
RTVSPost2010Prop29
280
     1
102
RTVSPost2010PropOp29
 70
     1
102
RTVSPost2010Prop30
280
     1
102
RTVSPost2010PropOp30
 70
     1
102
RTVSPost2010Prop31
280
     0
102
RTVSPost2010PropOp31
 70
     1
102
RTVSPost2010Prop32
280
     0
102
RTVSPost2010PropOp32
 70
     1
102
RTVSPost2010Prop33
280
     0
102
RTVSPost2010PropOp33
 70
     1
102
RTVSPost2010Prop34
280
     0
102
RTVSPost2010PropOp34
 70
     1
102
RTVSPost2010Prop35
280
     0
102
RTVSPost2010PropOp35
 70
     1
102
RTVSPost2010Prop36
280
     0
102
RTVSPost2010PropOp36
 70
     1
102
RTVSPost2010Prop37
 90
       50
102
RTVSPost2010PropOp37
 70
     1
102
RTVSPost2010Prop38
140
0.0
102
RTVSPost2010PropOp38
 70
     1
102
RTVSPost2010Prop39
140
1.0
102
RTVSPost2010PropOp39
 70
     1
102
RTVSPost2010Prop40
 90
        0
102
RTVSPost2010PropOp40
 70
     1
102
RTVSPost2010Prop41ColorIndex
 90
       18
102
RTVSPost2010Prop41ColorRGB
 90
        0
102
RTVSPost2010PropOp41
 70
     1
102
RTVSPost2010Prop42
 90
       50
102
RTVSPost2010PropOp42
 70
     1
102
RTVSPost2010Prop43
 90
        3
102
RTVSPost2010PropOp43
 70
     1
102
RTVSPost2010Prop44ColorIndex
 90
        5
102
RTVSPost2010Prop44ColorRGB
 90
      255
102
RTVSPost2010PropOp44
 70
     1
102
RTVSPost2010Prop45
280
     0
102
RTVSPost2010PropOp45
 70
     1
102
RTVSPost2010Prop46
 90
       50
102
RTVSPost2010PropOp46
 70
     1
102
RTVSPost2010Prop47
 90
       50
102
RTVSPost2010PropOp47
 70
     1
102
RTVSPost2010Prop48
 90
       50
102
RTVSPost2010PropOp48
 70
     1
102
RTVSPost2010Prop49
280
     0
102
RTVSPost2010PropOp49
 70
     1
102
RTVSPost2010Prop50
 90
       50
102
RTVSPost2010PropOp50
 70
     1
102
RTVSPost2010Prop51ColorIndex
 90
      256
102
RTVSPost2010Prop51ColorRGB
 90
-16777216
102
RTVSPost2010PropOp51
 70
     0
102
RTVSPost2010Prop52
140
1.0
102
RTVSPost2010PropOp52
 70
     0
102
RTVSPost2010Prop53
 90
        2
102
RTVSPost2010PropOp53
 70
     1
102
RTVSPost2010Prop54
  1
strokes_ogs.tif
102
RTVSPost2010PropOp54
 70
     1
102
RTVSPost2010Prop55
280
     0
102
RTVSPost2010PropOp55
 70
     1
102
RTVSPost2010Prop56
140
1.0
102
RTVSPost2010PropOp56
 70
     1
102
RTVSPost2010Prop57
140
1.0
102
RTVSPost2010PropOp57
 70
     1
  0
XRECORD
  5
136
102
{ACAD_REACTORS
330
135
102
}
330
135
100
AcDbXrecord
280
     1
102
RTVSPost2010Prop28
280
     0
102
RTVSPost2010PropOp28
 70
     0
102
RTVSPost2010Prop29
280
     1
102
RTVSPost2010PropOp29
 70
     0
102
RTVSPost2010Prop30
280
     1
102
RTVSPost2010PropOp30
 70
     0
102
RTVSPost2010Prop31
280
     0
102
RTVSPost2010PropOp31
 70
     0
102
RTVSPost2010Prop32
280
     0
102
RTVSPost2010PropOp32
 70
     0
102
RTVSPost2010Prop33
280
     0
102
RTVSPost2010PropOp33
 70
     0
102
RTVSPost2010Prop34
280
     0
102
RTVSPost2010PropOp34
 70
     0
102
RTVSPost2010Prop35
280
     0
102
RTVSPost2010PropOp35
 70
     0
102
RTVSPost2010Prop36
280
     0
102
RTVSPost2010PropOp36
 70
     0
102
RTVSPost2010Prop37
 90
       50
102
RTVSPost2010PropOp37
 70
     0
102
RTVSPost2010Prop38
140
0.0
102
RTVSPost2010PropOp38
 70
     0
102
RTVSPost2010Prop39
140
1.0
102
RTVSPost2010PropOp39
 70
     0
102
RTVSPost2010Prop40
 90
        0
102
RTVSPost2010PropOp40
 70
     0
102
RTVSPost2010Prop41ColorIndex
 90
       18
102
RTVSPost2010Prop41ColorRGB
 90
        0
102
RTVSPost2010PropOp41
 70
     0
102
RTVSPost2010Prop42
 90
       50
102
RTVSPost2010PropOp42
 70
     0
102
RTVSPost2010Prop43
 90
        3
102
RTVSPost2010PropOp43
 70
     0
102
RTVSPost2010Prop44ColorIndex
 90
        5
102
RTVSPost2010Prop44ColorRGB
 90
      255
102
RTVSPost2010PropOp44
 70
     0
102
RTVSPost2010Prop45
280
     0
102
RTVSPost2010PropOp45
 70
     0
102
RTVSPost2010Prop46
 90
       50
102
RTVSPost2010PropOp46
 70
     0
102
RTVSPost2010Prop47
 90
       50
102
RTVSPost2010PropOp47
 70
     0
102
RTVSPost2010Prop48
 90
       50
102
RTVSPost2010PropOp48
 70
     0
102
RTVSPost2010Prop49
280
     0
102
RTVSPost2010PropOp49
 70
     0
102
RTVSPost2010Prop50
 90
       50
102
RTVSPost2010PropOp50
 70
     0
102
RTVSPost2010Prop51ColorIndex
 90
      256
102
RTVSPost2010Prop51ColorRGB
 90
-16777216
102
RTVSPost2010PropOp51
 70
     0
102
RTVSPost2010Prop52
140
1.0
102
RTVSPost2010PropOp52
 70
     0
102
RTVSPost2010Prop53
 90
        2
102
RTVSPost2010PropOp53
 70
     0
102
RTVSPost2010Prop54
  1
strokes_ogs.tif
102
RTVSPost2010PropOp54
 70
     0
102
RTVSPost2010Prop55
280
     0
102
RTVSPost2010PropOp55
 70
     0
102
RTVSPost2010Prop56
140
1.0
102
RTVSPost2010PropOp56
 70
     0
102
RTVSPost2010Prop57
140
1.0
102
RTVSPost2010PropOp57
 70
     0
  0
XRECORD
  5
124
102
{ACAD_REACTORS
330
123
102
}
330
123
100
AcDbXrecord
280
     1
102
RTVSPost2010Prop28
280
     0
102
RTVSPost2010PropOp28
 70
     1
102
RTVSPost2010Prop29
280
     1
102
RTVSPost2010PropOp29
 70
     1
102
RTVSPost2010Prop30
280
     1
102
RTVSPost2010PropOp30
 70
     1
102
RTVSPost2010Prop31
280
     0
102
RTVSPost2010PropOp31
 70
     1
102
RTVSPost2010Prop32
280
     0
102
RTVSPost2010PropOp32
 70
     1
102
RTVSPost2010Prop33
280
     0
102
RTVSPost2010PropOp33
 70
     1
102
RTVSPost2010Prop34
280
     0
102
RTVSPost2010PropOp34
 70
     1
102
RTVSPost2010Prop35
280
     0
102
RTVSPost2010PropOp35
 70
     1
102
RTVSPost2010Prop36
280
     0
102
RTVSPost2010PropOp36
 70
     1
102
RTVSPost2010Prop37
 90
       50
102
RTVSPost2010PropOp37
 70
     1
102
RTVSPost2010Prop38
140
0.0
102
RTVSPost2010PropOp38
 70
     1
102
RTVSPost2010Prop39
140
1.0
102
RTVSPost2010PropOp39
 70
     1
102
RTVSPost2010Prop40
 90
        0
102
RTVSPost2010PropOp40
 70
     1
102
RTVSPost2010Prop41ColorIndex
 90
       18
102
RTVSPost2010Prop41ColorRGB
 90
        0
102
RTVSPost2010PropOp41
 70
     1
102
RTVSPost2010Prop42
 90
       50
102
RTVSPost2010PropOp42
 70
     1
102
RTVSPost2010Prop43
 90
        3
102
RTVSPost2010PropOp43
 70
     1
102
RTVSPost2010Prop44ColorIndex
 90
        5
102
RTVSPost2010Prop44ColorRGB
 90
      255
102
RTVSPost2010PropOp44
 70
     1
102
RTVSPost2010Prop45
280
     0
102
RTVSPost2010PropOp45
 70
     1
102
RTVSPost2010Prop46
 90
       50
102
RTVSPost2010PropOp46
 70
     1
102
RTVSPost2010Prop47
 90
       50
102
RTVSPost2010PropOp47
 70
     1
102
RTVSPost2010Prop48
 90
       50
102
RTVSPost2010PropOp48
 70
     1
102
RTVSPost2010Prop49
280
     0
102
RTVSPost2010PropOp49
 70
     1
102
RTVSPost2010Prop50
 90
       50
102
RTVSPost2010PropOp50
 70
     1
102
RTVSPost2010Prop51ColorIndex
 90
      256
102
RTVSPost2010Prop51ColorRGB
 90
-16777216
102
RTVSPost2010PropOp51
 70
     0
102
RTVSPost2010Prop52
140
1.0
102
RTVSPost2010PropOp52
 70
     0
102
RTVSPost2010Prop53
 90
        2
102
RTVSPost2010PropOp53
 70
     1
102
RTVSPost2010Prop54
  1
strokes_ogs.tif
102
RTVSPost2010PropOp54
 70
     1
102
RTVSPost2010Prop55
280
     0
102
RTVSPost2010PropOp55
 70
     1
102
RTVSPost2010Prop56
140
1.0
102
RTVSPost2010PropOp56
 70
     1
102
RTVSPost2010Prop57
140
1.0
102
RTVSPost2010PropOp57
 70
     1
  0
XRECORD
  5
108
102
{ACAD_REACTORS
330
107
102
}
330
107
100
AcDbXrecord
280
     1
102
RTVSPost2010Prop28
280
     0
102
RTVSPost2010PropOp28
 70
     1
102
RTVSPost2010Prop29
280
     1
102
RTVSPost2010PropOp29
 70
     1
102
RTVSPost2010Prop30
280
     1
102
RTVSPost2010PropOp30
 70
     1
102
RTVSPost2010Prop31
280
     0
102
RTVSPost2010PropOp31
 70
     1
102
RTVSPost2010Prop32
280
     0
102
RTVSPost2010PropOp32
 70
     1
102
RTVSPost2010Prop33
280
     0
102
RTVSPost2010PropOp33
 70
     1
102
RTVSPost2010Prop34
280
     0
102
RTVSPost2010PropOp34
 70
     1
102
RTVSPost2010Prop35
280
     0
102
RTVSPost2010PropOp35
 70
     1
102
RTVSPost2010Prop36
280
     0
102
RTVSPost2010PropOp36
 70
     1
102
RTVSPost2010Prop37
 90
       50
102
RTVSPost2010PropOp37
 70
     1
102
RTVSPost2010Prop38
140
0.0
102
RTVSPost2010PropOp38
 70
     1
102
RTVSPost2010Prop39
140
1.0
102
RTVSPost2010PropOp39
 70
     1
102
RTVSPost2010Prop40
 90
        0
102
RTVSPost2010PropOp40
 70
     1
102
RTVSPost2010Prop41ColorIndex
 90
       18
102
RTVSPost2010Prop41ColorRGB
 90
        0
102
RTVSPost2010PropOp41
 70
     1
102
RTVSPost2010Prop42
 90
       50
102
RTVSPost2010PropOp42
 70
     1
102
RTVSPost2010Prop43
 90
        3
102
RTVSPost2010PropOp43
 70
     1
102
RTVSPost2010Prop44ColorIndex
 90
        5
102
RTVSPost2010Prop44ColorRGB
 90
      255
102
RTVSPost2010PropOp44
 70
     1
102
RTVSPost2010Prop45
280
     0
102
RTVSPost2010PropOp45
 70
     1
102
RTVSPost2010Prop46
 90
       50
102
RTVSPost2010PropOp46
 70
     1
102
RTVSPost2010Prop47
 90
       50
102
RTVSPost2010PropOp47
 70
     1
102
RTVSPost2010Prop48
 90
       50
102
RTVSPost2010PropOp48
 70
     1
102
RTVSPost2010Prop49
280
     0
102
RTVSPost2010PropOp49
 70
     1
102
RTVSPost2010Prop50
 90
       50
102
RTVSPost2010PropOp50
 70
     1
102
RTVSPost2010Prop51ColorIndex
 90
      256
102
RTVSPost2010Prop51ColorRGB
 90
-16777216
102
RTVSPost2010PropOp51
 70
     0
102
RTVSPost2010Prop52
140
1.0
102
RTVSPost2010PropOp52
 70
     0
102
RTVSPost2010Prop53
 90
        2
102
RTVSPost2010PropOp53
 70
     1
102
RTVSPost2010Prop54
  1
strokes_ogs.tif
102
RTVSPost2010PropOp54
 70
     1
102
RTVSPost2010Prop55
280
     0
102
RTVSPost2010PropOp55
 70
     1
102
RTVSPost2010Prop56
140
1.0
102
RTVSPost2010PropOp56
 70
     1
102
RTVSPost2010Prop57
140
1.0
102
RTVSPost2010PropOp57
 70
     1
  0
XRECORD
  5
10A
102
{ACAD_REACTORS
330
109
102
}
330
109
100
AcDbXrecord
280
     1
102
RTVSPost2010Prop28
280
     0
102
RTVSPost2010PropOp28
 70
     1
102
RTVSPost2010Prop29
280
     1
102
RTVSPost2010PropOp29
 70
     1
102
RTVSPost2010Prop30
280
     1
102
RTVSPost2010PropOp30
 70
     1
102
RTVSPost2010Prop31
280
     0
102
RTVSPost2010PropOp31
 70
     1
102
RTVSPost2010Prop32
280
     0
102
RTVSPost2010PropOp32
 70
     1
102
RTVSPost2010Prop33
280
     0
102
RTVSPost2010PropOp33
 70
     1
102
RTVSPost2010Prop34
280
     0
102
RTVSPost2010PropOp34
 70
     1
102
RTVSPost2010Prop35
280
     0
102
RTVSPost2010PropOp35
 70
     1
102
RTVSPost2010Prop36
280
     0
102
RTVSPost2010PropOp36
 70
     1
102
RTVSPost2010Prop37
 90
       50
102
RTVSPost2010PropOp37
 70
     1
102
RTVSPost2010Prop38
140
0.0
102
RTVSPost2010PropOp38
 70
     1
102
RTVSPost2010Prop39
140
1.0
102
RTVSPost2010PropOp39
 70
     1
102
RTVSPost2010Prop40
 90
        0
102
RTVSPost2010PropOp40
 70
     1
102
RTVSPost2010Prop41ColorIndex
 90
       18
102
RTVSPost2010Prop41ColorRGB
 90
        0
102
RTVSPost2010PropOp41
 70
     1
102
RTVSPost2010Prop42
 90
       50
102
RTVSPost2010PropOp42
 70
     1
102
RTVSPost2010Prop43
 90
        3
102
RTVSPost2010PropOp43
 70
     1
102
RTVSPost2010Prop44ColorIndex
 90
        5
102
RTVSPost2010Prop44ColorRGB
 90
      255
102
RTVSPost2010PropOp44
 70
     1
102
RTVSPost2010Prop45
280
     0
102
RTVSPost2010PropOp45
 70
     1
102
RTVSPost2010Prop46
 90
       50
102
RTVSPost2010PropOp46
 70
     1
102
RTVSPost2010Prop47
 90
       50
102
RTVSPost2010PropOp47
 70
     1
102
RTVSPost2010Prop48
 90
       50
102
RTVSPost2010PropOp48
 70
     1
102
RTVSPost2010Prop49
280
     0
102
RTVSPost2010PropOp49
 70
     1
102
RTVSPost2010Prop50
 90
       50
102
RTVSPost2010PropOp50
 70
     1
102
RTVSPost2010Prop51ColorIndex
 90
      256
102
RTVSPost2010Prop51ColorRGB
 90
-16777216
102
RTVSPost2010PropOp51
 70
     0
102
RTVSPost2010Prop52
140
1.0
102
RTVSPost2010PropOp52
 70
     0
102
RTVSPost2010Prop53
 90
        2
102
RTVSPost2010PropOp53
 70
     1
102
RTVSPost2010Prop54
  1
strokes_ogs.tif
102
RTVSPost2010PropOp54
 70
     1
102
RTVSPost2010Prop55
280
     0
102
RTVSPost2010PropOp55
 70
     1
102
RTVSPost2010Prop56
140
1.0
102
RTVSPost2010PropOp56
 70
     1
102
RTVSPost2010Prop57
140
1.0
102
RTVSPost2010PropOp57
 70
     1
  0
XRECORD
  5
10C
102
{ACAD_REACTORS
330
10B
102
}
330
10B
100
AcDbXrecord
280
     1
102
RTVSPost2010Prop28
280
     0
102
RTVSPost2010PropOp28
 70
     1
102
RTVSPost2010Prop29
280
     1
102
RTVSPost2010PropOp29
 70
     1
102
RTVSPost2010Prop30
280
     1
102
RTVSPost2010PropOp30
 70
     1
102
RTVSPost2010Prop31
280
     0
102
RTVSPost2010PropOp31
 70
     1
102
RTVSPost2010Prop32
280
     0
102
RTVSPost2010PropOp32
 70
     1
102
RTVSPost2010Prop33
280
     0
102
RTVSPost2010PropOp33
 70
     1
102
RTVSPost2010Prop34
280
     0
102
RTVSPost2010PropOp34
 70
     1
102
RTVSPost2010Prop35
280
     0
102
RTVSPost2010PropOp35
 70
     1
102
RTVSPost2010Prop36
280
     0
102
RTVSPost2010PropOp36
 70
     1
102
RTVSPost2010Prop37
 90
       50
102
RTVSPost2010PropOp37
 70
     1
102
RTVSPost2010Prop38
140
0.0
102
RTVSPost2010PropOp38
 70
     1
102
RTVSPost2010Prop39
140
1.0
102
RTVSPost2010PropOp39
 70
     1
102
RTVSPost2010Prop40
 90
        0
102
RTVSPost2010PropOp40
 70
     1
102
RTVSPost2010Prop41ColorIndex
 90
       18
102
RTVSPost2010Prop41ColorRGB
 90
        0
102
RTVSPost2010PropOp41
 70
     1
102
RTVSPost2010Prop42
 90
       50
102
RTVSPost2010PropOp42
 70
     1
102
RTVSPost2010Prop43
 90
        3
102
RTVSPost2010PropOp43
 70
     1
102
RTVSPost2010Prop44ColorIndex
 90
        5
102
RTVSPost2010Prop44ColorRGB
 90
      255
102
RTVSPost2010PropOp44
 70
     1
102
RTVSPost2010Prop45
280
     0
102
RTVSPost2010PropOp45
 70
     1
102
RTVSPost2010Prop46
 90
       50
102
RTVSPost2010PropOp46
 70
     1
102
RTVSPost2010Prop47
 90
       50
102
RTVSPost2010PropOp47
 70
     1
102
RTVSPost2010Prop48
 90
       50
102
RTVSPost2010PropOp48
 70
     1
102
RTVSPost2010Prop49
280
     0
102
RTVSPost2010PropOp49
 70
     1
102
RTVSPost2010Prop50
 90
       50
102
RTVSPost2010PropOp50
 70
     1
102
RTVSPost2010Prop51ColorIndex
 90
      256
102
RTVSPost2010Prop51ColorRGB
 90
-16777216
102
RTVSPost2010PropOp51
 70
     0
102
RTVSPost2010Prop52
140
1.0
102
RTVSPost2010PropOp52
 70
     0
102
RTVSPost2010Prop53
 90
        2
102
RTVSPost2010PropOp53
 70
     1
102
RTVSPost2010Prop54
  1
strokes_ogs.tif
102
RTVSPost2010PropOp54
 70
     1
102
RTVSPost2010Prop55
280
     0
102
RTVSPost2010PropOp55
 70
     1
102
RTVSPost2010Prop56
140
1.0
102
RTVSPost2010PropOp56
 70
     1
102
RTVSPost2010Prop57
140
1.0
102
RTVSPost2010PropOp57
 70
     1
  0
XRECORD
  5
10E
102
{ACAD_REACTORS
330
10D
102
}
330
10D
100
AcDbXrecord
280
     1
102
RTVSPost2010Prop28
280
     0
102
RTVSPost2010PropOp28
 70
     1
102
RTVSPost2010Prop29
280
     1
102
RTVSPost2010PropOp29
 70
     1
102
RTVSPost2010Prop30
280
     1
102
RTVSPost2010PropOp30
 70
     1
102
RTVSPost2010Prop31
280
     0
102
RTVSPost2010PropOp31
 70
     1
102
RTVSPost2010Prop32
280
     0
102
RTVSPost2010PropOp32
 70
     1
102
RTVSPost2010Prop33
280
     0
102
RTVSPost2010PropOp33
 70
     1
102
RTVSPost2010Prop34
280
     0
102
RTVSPost2010PropOp34
 70
     1
102
RTVSPost2010Prop35
280
     0
102
RTVSPost2010PropOp35
 70
     1
102
RTVSPost2010Prop36
280
     0
102
RTVSPost2010PropOp36
 70
     1
102
RTVSPost2010Prop37
 90
       50
102
RTVSPost2010PropOp37
 70
     1
102
RTVSPost2010Prop38
140
0.0
102
RTVSPost2010PropOp38
 70
     1
102
RTVSPost2010Prop39
140
1.0
102
RTVSPost2010PropOp39
 70
     1
102
RTVSPost2010Prop40
 90
        0
102
RTVSPost2010PropOp40
 70
     1
102
RTVSPost2010Prop41ColorIndex
 90
       18
102
RTVSPost2010Prop41ColorRGB
 90
        0
102
RTVSPost2010PropOp41
 70
     1
102
RTVSPost2010Prop42
 90
       50
102
RTVSPost2010PropOp42
 70
     1
102
RTVSPost2010Prop43
 90
        3
102
RTVSPost2010PropOp43
 70
     1
102
RTVSPost2010Prop44ColorIndex
 90
        5
102
RTVSPost2010Prop44ColorRGB
 90
      255
102
RTVSPost2010PropOp44
 70
     1
102
RTVSPost2010Prop45
280
     0
102
RTVSPost2010PropOp45
 70
     1
102
RTVSPost2010Prop46
 90
       50
102
RTVSPost2010PropOp46
 70
     1
102
RTVSPost2010Prop47
 90
       50
102
RTVSPost2010PropOp47
 70
     1
102
RTVSPost2010Prop48
 90
       50
102
RTVSPost2010PropOp48
 70
     1
102
RTVSPost2010Prop49
280
     0
102
RTVSPost2010PropOp49
 70
     1
102
RTVSPost2010Prop50
 90
       50
102
RTVSPost2010PropOp50
 70
     1
102
RTVSPost2010Prop51ColorIndex
 90
      256
102
RTVSPost2010Prop51ColorRGB
 90
-16777216
102
RTVSPost2010PropOp51
 70
     0
102
RTVSPost2010Prop52
140
1.0
102
RTVSPost2010PropOp52
 70
     0
102
RTVSPost2010Prop53
 90
        2
102
RTVSPost2010PropOp53
 70
     1
102
RTVSPost2010Prop54
  1
strokes_ogs.tif
102
RTVSPost2010PropOp54
 70
     1
102
RTVSPost2010Prop55
280
     0
102
RTVSPost2010PropOp55
 70
     1
102
RTVSPost2010Prop56
140
1.0
102
RTVSPost2010PropOp56
 70
     1
102
RTVSPost2010Prop57
140
1.0
102
RTVSPost2010PropOp57
 70
     1
  0
XRECORD
  5
116
102
{ACAD_REACTORS
330
115
102
}
330
115
100
AcDbXrecord
280
     1
102
RTVSPost2010Prop28
280
     0
102
RTVSPost2010PropOp28
 70
     1
102
RTVSPost2010Prop29
280
     1
102
RTVSPost2010PropOp29
 70
     1
102
RTVSPost2010Prop30
280
     1
102
RTVSPost2010PropOp30
 70
     1
102
RTVSPost2010Prop31
280
     0
102
RTVSPost2010PropOp31
 70
     1
102
RTVSPost2010Prop32
280
     0
102
RTVSPost2010PropOp32
 70
     1
102
RTVSPost2010Prop33
280
     0
102
RTVSPost2010PropOp33
 70
     1
102
RTVSPost2010Prop34
280
     0
102
RTVSPost2010PropOp34
 70
     1
102
RTVSPost2010Prop35
280
     0
102
RTVSPost2010PropOp35
 70
     1
102
RTVSPost2010Prop36
280
     0
102
RTVSPost2010PropOp36
 70
     1
102
RTVSPost2010Prop37
 90
       50
102
RTVSPost2010PropOp37
 70
     1
102
RTVSPost2010Prop38
140
0.0
102
RTVSPost2010PropOp38
 70
     1
102
RTVSPost2010Prop39
140
1.0
102
RTVSPost2010PropOp39
 70
     1
102
RTVSPost2010Prop40
 90
        0
102
RTVSPost2010PropOp40
 70
     1
102
RTVSPost2010Prop41ColorIndex
 90
       18
102
RTVSPost2010Prop41ColorRGB
 90
        0
102
RTVSPost2010PropOp41
 70
     1
102
RTVSPost2010Prop42
 90
       50
102
RTVSPost2010PropOp42
 70
     1
102
RTVSPost2010Prop43
 90
        3
102
RTVSPost2010PropOp43
 70
     1
102
RTVSPost2010Prop44ColorIndex
 90
        5
102
RTVSPost2010Prop44ColorRGB
 90
      255
102
RTVSPost2010PropOp44
 70
     1
102
RTVSPost2010Prop45
280
     0
102
RTVSPost2010PropOp45
 70
     1
102
RTVSPost2010Prop46
 90
       50
102
RTVSPost2010PropOp46
 70
     1
102
RTVSPost2010Prop47
 90
       50
102
RTVSPost2010PropOp47
 70
     1
102
RTVSPost2010Prop48
 90
       50
102
RTVSPost2010PropOp48
 70
     1
102
RTVSPost2010Prop49
280
     0
102
RTVSPost2010PropOp49
 70
     1
102
RTVSPost2010Prop50
 90
       50
102
RTVSPost2010PropOp50
 70
     1
102
RTVSPost2010Prop51ColorIndex
 90
      256
102
RTVSPost2010Prop51ColorRGB
 90
-16777216
102
RTVSPost2010PropOp51
 70
     0
102
RTVSPost2010Prop52
140
1.0
102
RTVSPost2010PropOp52
 70
     0
102
RTVSPost2010Prop53
 90
        2
102
RTVSPost2010PropOp53
 70
     1
102
RTVSPost2010Prop54
  1
strokes_ogs.tif
102
RTVSPost2010PropOp54
 70
     1
102
RTVSPost2010Prop55
280
     0
102
RTVSPost2010PropOp55
 70
     1
102
RTVSPost2010Prop56
140
1.0
102
RTVSPost2010PropOp56
 70
     1
102
RTVSPost2010Prop57
140
1.0
102
RTVSPost2010PropOp57
 70
     1
  0
XRECORD
  5
132
102
{ACAD_REACTORS
330
131
102
}
330
131
100
AcDbXrecord
280
     1
102
RTVSPost2010Prop28
280
     0
102
RTVSPost2010PropOp28
 70
     0
102
RTVSPost2010Prop29
280
     1
102
RTVSPost2010PropOp29
 70
     0
102
RTVSPost2010Prop30
280
     1
102
RTVSPost2010PropOp30
 70
     0
102
RTVSPost2010Prop31
280
     0
102
RTVSPost2010PropOp31
 70
     0
102
RTVSPost2010Prop32
280
     0
102
RTVSPost2010PropOp32
 70
     0
102
RTVSPost2010Prop33
280
     0
102
RTVSPost2010PropOp33
 70
     0
102
RTVSPost2010Prop34
280
     0
102
RTVSPost2010PropOp34
 70
     0
102
RTVSPost2010Prop35
280
     0
102
RTVSPost2010PropOp35
 70
     0
102
RTVSPost2010Prop36
280
     0
102
RTVSPost2010PropOp36
 70
     0
102
RTVSPost2010Prop37
 90
       50
102
RTVSPost2010PropOp37
 70
     0
102
RTVSPost2010Prop38
140
0.0
102
RTVSPost2010PropOp38
 70
     0
102
RTVSPost2010Prop39
140
1.0
102
RTVSPost2010PropOp39
 70
     0
102
RTVSPost2010Prop40
 90
        0
102
RTVSPost2010PropOp40
 70
     0
102
RTVSPost2010Prop41ColorIndex
 90
       18
102
RTVSPost2010Prop41ColorRGB
 90
        0
102
RTVSPost2010PropOp41
 70
     0
102
RTVSPost2010Prop42
 90
       50
102
RTVSPost2010PropOp42
 70
     0
102
RTVSPost2010Prop43
 90
        3
102
RTVSPost2010PropOp43
 70
     0
102
RTVSPost2010Prop44ColorIndex
 90
        5
102
RTVSPost2010Prop44ColorRGB
 90
      255
102
RTVSPost2010PropOp44
 70
     0
102
RTVSPost2010Prop45
280
     0
102
RTVSPost2010PropOp45
 70
     0
102
RTVSPost2010Prop46
 90
       50
102
RTVSPost2010PropOp46
 70
     0
102
RTVSPost2010Prop47
 90
       50
102
RTVSPost2010PropOp47
 70
     0
102
RTVSPost2010Prop48
 90
       50
102
RTVSPost2010PropOp48
 70
     0
102
RTVSPost2010Prop49
280
     0
102
RTVSPost2010PropOp49
 70
     0
102
RTVSPost2010Prop50
 90
       50
102
RTVSPost2010PropOp50
 70
     0
102
RTVSPost2010Prop51ColorIndex
 90
      256
102
RTVSPost2010Prop51ColorRGB
 90
-16777216
102
RTVSPost2010PropOp51
 70
     0
102
RTVSPost2010Prop52
140
1.0
102
RTVSPost2010PropOp52
 70
     0
102
RTVSPost2010Prop53
 90
        2
102
RTVSPost2010PropOp53
 70
     0
102
RTVSPost2010Prop54
  1
strokes_ogs.tif
102
RTVSPost2010PropOp54
 70
     0
102
RTVSPost2010Prop55
280
     0
102
RTVSPost2010PropOp55
 70
     0
102
RTVSPost2010Prop56
140
1.0
102
RTVSPost2010PropOp56
 70
     0
102
RTVSPost2010Prop57
140
1.0
102
RTVSPost2010PropOp57
 70
     0
  0
XRECORD
  5
122
102
{ACAD_REACTORS
330
121
102
}
330
121
100
AcDbXrecord
280
     1
102
RTVSPost2010Prop28
280
     0
102
RTVSPost2010PropOp28
 70
     1
102
RTVSPost2010Prop29
280
     1
102
RTVSPost2010PropOp29
 70
     1
102
RTVSPost2010Prop30
280
     1
102
RTVSPost2010PropOp30
 70
     1
102
RTVSPost2010Prop31
280
     0
102
RTVSPost2010PropOp31
 70
     1
102
RTVSPost2010Prop32
280
     0
102
RTVSPost2010PropOp32
 70
     1
102
RTVSPost2010Prop33
280
     0
102
RTVSPost2010PropOp33
 70
     1
102
RTVSPost2010Prop34
280
     0
102
RTVSPost2010PropOp34
 70
     1
102
RTVSPost2010Prop35
280
     0
102
RTVSPost2010PropOp35
 70
     1
102
RTVSPost2010Prop36
280
     0
102
RTVSPost2010PropOp36
 70
     1
102
RTVSPost2010Prop37
 90
       50
102
RTVSPost2010PropOp37
 70
     1
102
RTVSPost2010Prop38
140
0.0
102
RTVSPost2010PropOp38
 70
     1
102
RTVSPost2010Prop39
140
1.0
102
RTVSPost2010PropOp39
 70
     1
102
RTVSPost2010Prop40
 90
        0
102
RTVSPost2010PropOp40
 70
     1
102
RTVSPost2010Prop41ColorIndex
 90
       18
102
RTVSPost2010Prop41ColorRGB
 90
        0
102
RTVSPost2010PropOp41
 70
     1
102
RTVSPost2010Prop42
 90
       50
102
RTVSPost2010PropOp42
 70
     1
102
RTVSPost2010Prop43
 90
        3
102
RTVSPost2010PropOp43
 70
     1
102
RTVSPost2010Prop44ColorIndex
 90
        5
102
RTVSPost2010Prop44ColorRGB
 90
      255
102
RTVSPost2010PropOp44
 70
     1
102
RTVSPost2010Prop45
280
     0
102
RTVSPost2010PropOp45
 70
     1
102
RTVSPost2010Prop46
 90
       50
102
RTVSPost2010PropOp46
 70
     1
102
RTVSPost2010Prop47
 90
       50
102
RTVSPost2010PropOp47
 70
     1
102
RTVSPost2010Prop48
 90
       50
102
RTVSPost2010PropOp48
 70
     1
102
RTVSPost2010Prop49
280
     0
102
RTVSPost2010PropOp49
 70
     1
102
RTVSPost2010Prop50
 90
       50
102
RTVSPost2010PropOp50
 70
     1
102
RTVSPost2010Prop51ColorIndex
 90
      256
102
RTVSPost2010Prop51ColorRGB
 90
-16777216
102
RTVSPost2010PropOp51
 70
     0
102
RTVSPost2010Prop52
140
1.0
102
RTVSPost2010PropOp52
 70
     0
102
RTVSPost2010Prop53
 90
        2
102
RTVSPost2010PropOp53
 70
     1
102
RTVSPost2010Prop54
  1
strokes_ogs.tif
102
RTVSPost2010PropOp54
 70
     1
102
RTVSPost2010Prop55
280
     0
102
RTVSPost2010PropOp55
 70
     1
102
RTVSPost2010Prop56
140
1.0
102
RTVSPost2010PropOp56
 70
     1
102
RTVSPost2010Prop57
140
1.0
102
RTVSPost2010PropOp57
 70
     1
  0
XRECORD
  5
134
102
{ACAD_REACTORS
330
133
102
}
330
133
100
AcDbXrecord
280
     1
102
RTVSPost2010Prop28
280
     0
102
RTVSPost2010PropOp28
 70
     0
102
RTVSPost2010Prop29
280
     1
102
RTVSPost2010PropOp29
 70
     0
102
RTVSPost2010Prop30
280
     1
102
RTVSPost2010PropOp30
 70
     0
102
RTVSPost2010Prop31
280
     0
102
RTVSPost2010PropOp31
 70
     0
102
RTVSPost2010Prop32
280
     0
102
RTVSPost2010PropOp32
 70
     0
102
RTVSPost2010Prop33
280
     0
102
RTVSPost2010PropOp33
 70
     0
102
RTVSPost2010Prop34
280
     0
102
RTVSPost2010PropOp34
 70
     0
102
RTVSPost2010Prop35
280
     0
102
RTVSPost2010PropOp35
 70
     0
102
RTVSPost2010Prop36
280
     0
102
RTVSPost2010PropOp36
 70
     0
102
RTVSPost2010Prop37
 90
       50
102
RTVSPost2010PropOp37
 70
     0
102
RTVSPost2010Prop38
140
0.0
102
RTVSPost2010PropOp38
 70
     0
102
RTVSPost2010Prop39
140
1.0
102
RTVSPost2010PropOp39
 70
     0
102
RTVSPost2010Prop40
 90
        0
102
RTVSPost2010PropOp40
 70
     0
102
RTVSPost2010Prop41ColorIndex
 90
       18
102
RTVSPost2010Prop41ColorRGB
 90
        0
102
RTVSPost2010PropOp41
 70
     0
102
RTVSPost2010Prop42
 90
       50
102
RTVSPost2010PropOp42
 70
     0
102
RTVSPost2010Prop43
 90
        3
102
RTVSPost2010PropOp43
 70
     0
102
RTVSPost2010Prop44ColorIndex
 90
        5
102
RTVSPost2010Prop44ColorRGB
 90
      255
102
RTVSPost2010PropOp44
 70
     0
102
RTVSPost2010Prop45
280
     0
102
RTVSPost2010PropOp45
 70
     0
102
RTVSPost2010Prop46
 90
       50
102
RTVSPost2010PropOp46
 70
     0
102
RTVSPost2010Prop47
 90
       50
102
RTVSPost2010PropOp47
 70
     0
102
RTVSPost2010Prop48
 90
       50
102
RTVSPost2010PropOp48
 70
     0
102
RTVSPost2010Prop49
280
     0
102
RTVSPost2010PropOp49
 70
     0
102
RTVSPost2010Prop50
 90
       50
102
RTVSPost2010PropOp50
 70
     0
102
RTVSPost2010Prop51ColorIndex
 90
      256
102
RTVSPost2010Prop51ColorRGB
 90
-16777216
102
RTVSPost2010PropOp51
 70
     0
102
RTVSPost2010Prop52
140
1.0
102
RTVSPost2010PropOp52
 70
     0
102
RTVSPost2010Prop53
 90
        2
102
RTVSPost2010PropOp53
 70
     0
102
RTVSPost2010Prop54
  1
strokes_ogs.tif
102
RTVSPost2010PropOp54
 70
     0
102
RTVSPost2010Prop55
280
     0
102
RTVSPost2010PropOp55
 70
     0
102
RTVSPost2010Prop56
140
1.0
102
RTVSPost2010PropOp56
 70
     0
102
RTVSPost2010Prop57
140
1.0
102
RTVSPost2010PropOp57
 70
     0
  0
XRECORD
  5
11A
102
{ACAD_REACTORS
330
119
102
}
330
119
100
AcDbXrecord
280
     1
102
RTVSPost2010Prop28
280
     0
102
RTVSPost2010PropOp28
 70
     1
102
RTVSPost2010Prop29
280
     1
102
RTVSPost2010PropOp29
 70
     1
102
RTVSPost2010Prop30
280
     1
102
RTVSPost2010PropOp30
 70
     1
102
RTVSPost2010Prop31
280
     0
102
RTVSPost2010PropOp31
 70
     1
102
RTVSPost2010Prop32
280
     0
102
RTVSPost2010PropOp32
 70
     1
102
RTVSPost2010Prop33
280
     0
102
RTVSPost2010PropOp33
 70
     1
102
RTVSPost2010Prop34
280
     0
102
RTVSPost2010PropOp34
 70
     1
102
RTVSPost2010Prop35
280
     0
102
RTVSPost2010PropOp35
 70
     1
102
RTVSPost2010Prop36
280
     0
102
RTVSPost2010PropOp36
 70
     1
102
RTVSPost2010Prop37
 90
       50
102
RTVSPost2010PropOp37
 70
     1
102
RTVSPost2010Prop38
140
0.0
102
RTVSPost2010PropOp38
 70
     1
102
RTVSPost2010Prop39
140
1.0
102
RTVSPost2010PropOp39
 70
     1
102
RTVSPost2010Prop40
 90
        0
102
RTVSPost2010PropOp40
 70
     1
102
RTVSPost2010Prop41ColorIndex
 90
       18
102
RTVSPost2010Prop41ColorRGB
 90
        0
102
RTVSPost2010PropOp41
 70
     1
102
RTVSPost2010Prop42
 90
       50
102
RTVSPost2010PropOp42
 70
     1
102
RTVSPost2010Prop43
 90
        3
102
RTVSPost2010PropOp43
 70
     1
102
RTVSPost2010Prop44ColorIndex
 90
        5
102
RTVSPost2010Prop44ColorRGB
 90
      255
102
RTVSPost2010PropOp44
 70
     1
102
RTVSPost2010Prop45
280
     0
102
RTVSPost2010PropOp45
 70
     1
102
RTVSPost2010Prop46
 90
       50
102
RTVSPost2010PropOp46
 70
     1
102
RTVSPost2010Prop47
 90
       50
102
RTVSPost2010PropOp47
 70
     1
102
RTVSPost2010Prop48
 90
       50
102
RTVSPost2010PropOp48
 70
     1
102
RTVSPost2010Prop49
280
     0
102
RTVSPost2010PropOp49
 70
     1
102
RTVSPost2010Prop50
 90
       50
102
RTVSPost2010PropOp50
 70
     1
102
RTVSPost2010Prop51ColorIndex
 90
      256
102
RTVSPost2010Prop51ColorRGB
 90
-16777216
102
RTVSPost2010PropOp51
 70
     0
102
RTVSPost2010Prop52
140
1.0
102
RTVSPost2010PropOp52
 70
     0
102
RTVSPost2010Prop53
 90
        2
102
RTVSPost2010PropOp53
 70
     1
102
RTVSPost2010Prop54
  1
strokes_ogs.tif
102
RTVSPost2010PropOp54
 70
     1
102
RTVSPost2010Prop55
280
     0
102
RTVSPost2010PropOp55
 70
     1
102
RTVSPost2010Prop56
140
1.0
102
RTVSPost2010PropOp56
 70
     1
102
RTVSPost2010Prop57
140
1.0
102
RTVSPost2010PropOp57
 70
     1
  0
XRECORD
  5
130
102
{ACAD_REACTORS
330
12F
102
}
330
12F
100
AcDbXrecord
280
     1
102
RTVSPost2010Prop28
280
     0
102
RTVSPost2010PropOp28
 70
     1
102
RTVSPost2010Prop29
280
     1
102
RTVSPost2010PropOp29
 70
     1
102
RTVSPost2010Prop30
280
     1
102
RTVSPost2010PropOp30
 70
     1
102
RTVSPost2010Prop31
280
     0
102
RTVSPost2010PropOp31
 70
     1
102
RTVSPost2010Prop32
280
     0
102
RTVSPost2010PropOp32
 70
     1
102
RTVSPost2010Prop33
280
     0
102
RTVSPost2010PropOp33
 70
     1
102
RTVSPost2010Prop34
280
     0
102
RTVSPost2010PropOp34
 70
     1
102
RTVSPost2010Prop35
280
     0
102
RTVSPost2010PropOp35
 70
     1
102
RTVSPost2010Prop36
280
     0
102
RTVSPost2010PropOp36
 70
     1
102
RTVSPost2010Prop37
 90
       50
102
RTVSPost2010PropOp37
 70
     1
102
RTVSPost2010Prop38
140
0.0
102
RTVSPost2010PropOp38
 70
     1
102
RTVSPost2010Prop39
140
1.0
102
RTVSPost2010PropOp39
 70
     1
102
RTVSPost2010Prop40
 90
        0
102
RTVSPost2010PropOp40
 70
     1
102
RTVSPost2010Prop41ColorIndex
 90
       18
102
RTVSPost2010Prop41ColorRGB
 90
        0
102
RTVSPost2010PropOp41
 70
     1
102
RTVSPost2010Prop42
 90
       50
102
RTVSPost2010PropOp42
 70
     1
102
RTVSPost2010Prop43
 90
        3
102
RTVSPost2010PropOp43
 70
     1
102
RTVSPost2010Prop44ColorIndex
 90
        5
102
RTVSPost2010Prop44ColorRGB
 90
      255
102
RTVSPost2010PropOp44
 70
     1
102
RTVSPost2010Prop45
280
     0
102
RTVSPost2010PropOp45
 70
     1
102
RTVSPost2010Prop46
 90
       50
102
RTVSPost2010PropOp46
 70
     1
102
RTVSPost2010Prop47
 90
       50
102
RTVSPost2010PropOp47
 70
     1
102
RTVSPost2010Prop48
 90
       50
102
RTVSPost2010PropOp48
 70
     1
102
RTVSPost2010Prop49
280
     0
102
RTVSPost2010PropOp49
 70
     1
102
RTVSPost2010Prop50
 90
       50
102
RTVSPost2010PropOp50
 70
     1
102
RTVSPost2010Prop51ColorIndex
 90
      256
102
RTVSPost2010Prop51ColorRGB
 90
-16777216
102
RTVSPost2010PropOp51
 70
     0
102
RTVSPost2010Prop52
140
1.0
102
RTVSPost2010PropOp52
 70
     0
102
RTVSPost2010Prop53
 90
        2
102
RTVSPost2010PropOp53
 70
     1
102
RTVSPost2010Prop54
  1
strokes_ogs.tif
102
RTVSPost2010PropOp54
 70
     1
102
RTVSPost2010Prop55
280
     0
102
RTVSPost2010PropOp55
 70
     1
102
RTVSPost2010Prop56
140
1.0
102
RTVSPost2010PropOp56
 70
     1
102
RTVSPost2010Prop57
140
1.0
102
RTVSPost2010PropOp57
 70
     1
  0
XRECORD
  5
12E
102
{ACAD_REACTORS
330
12D
102
}
330
12D
100
AcDbXrecord
280
     1
102
RTVSPost2010Prop28
280
     0
102
RTVSPost2010PropOp28
 70
     1
102
RTVSPost2010Prop29
280
     1
102
RTVSPost2010PropOp29
 70
     1
102
RTVSPost2010Prop30
280
     1
102
RTVSPost2010PropOp30
 70
     1
102
RTVSPost2010Prop31
280
     0
102
RTVSPost2010PropOp31
 70
     1
102
RTVSPost2010Prop32
280
     0
102
RTVSPost2010PropOp32
 70
     1
102
RTVSPost2010Prop33
280
     0
102
RTVSPost2010PropOp33
 70
     1
102
RTVSPost2010Prop34
280
     0
102
RTVSPost2010PropOp34
 70
     1
102
RTVSPost2010Prop35
280
     0
102
RTVSPost2010PropOp35
 70
     1
102
RTVSPost2010Prop36
280
     0
102
RTVSPost2010PropOp36
 70
     1
102
RTVSPost2010Prop37
 90
       50
102
RTVSPost2010PropOp37
 70
     1
102
RTVSPost2010Prop38
140
0.0
102
RTVSPost2010PropOp38
 70
     1
102
RTVSPost2010Prop39
140
1.0
102
RTVSPost2010PropOp39
 70
     1
102
RTVSPost2010Prop40
 90
        0
102
RTVSPost2010PropOp40
 70
     1
102
RTVSPost2010Prop41ColorIndex
 90
       18
102
RTVSPost2010Prop41ColorRGB
 90
        0
102
RTVSPost2010PropOp41
 70
     1
102
RTVSPost2010Prop42
 90
       50
102
RTVSPost2010PropOp42
 70
     1
102
RTVSPost2010Prop43
 90
        3
102
RTVSPost2010PropOp43
 70
     1
102
RTVSPost2010Prop44ColorIndex
 90
        5
102
RTVSPost2010Prop44ColorRGB
 90
      255
102
RTVSPost2010PropOp44
 70
     1
102
RTVSPost2010Prop45
280
     0
102
RTVSPost2010PropOp45
 70
     1
102
RTVSPost2010Prop46
 90
       50
102
RTVSPost2010PropOp46
 70
     1
102
RTVSPost2010Prop47
 90
       50
102
RTVSPost2010PropOp47
 70
     1
102
RTVSPost2010Prop48
 90
       50
102
RTVSPost2010PropOp48
 70
     1
102
RTVSPost2010Prop49
280
     0
102
RTVSPost2010PropOp49
 70
     1
102
RTVSPost2010Prop50
 90
       50
102
RTVSPost2010PropOp50
 70
     1
102
RTVSPost2010Prop51ColorIndex
 90
      256
102
RTVSPost2010Prop51ColorRGB
 90
-16777216
102
RTVSPost2010PropOp51
 70
     0
102
RTVSPost2010Prop52
140
1.0
102
RTVSPost2010PropOp52
 70
     0
102
RTVSPost2010Prop53
 90
        2
102
RTVSPost2010PropOp53
 70
     1
102
RTVSPost2010Prop54
  1
strokes_ogs.tif
102
RTVSPost2010PropOp54
 70
     1
102
RTVSPost2010Prop55
280
     0
102
RTVSPost2010PropOp55
 70
     1
102
RTVSPost2010Prop56
140
1.0
102
RTVSPost2010PropOp56
 70
     1
102
RTVSPost2010Prop57
140
1.0
102
RTVSPost2010PropOp57
 70
     1
  0
XRECORD
  5
128
102
{ACAD_REACTORS
330
127
102
}
330
127
100
AcDbXrecord
280
     1
102
RTVSPost2010Prop28
280
     0
102
RTVSPost2010PropOp28
 70
     1
102
RTVSPost2010Prop29
280
     1
102
RTVSPost2010PropOp29
 70
     1
102
RTVSPost2010Prop30
280
     1
102
RTVSPost2010PropOp30
 70
     1
102
RTVSPost2010Prop31
280
     0
102
RTVSPost2010PropOp31
 70
     1
102
RTVSPost2010Prop32
280
     0
102
RTVSPost2010PropOp32
 70
     1
102
RTVSPost2010Prop33
280
     0
102
RTVSPost2010PropOp33
 70
     1
102
RTVSPost2010Prop34
280
     0
102
RTVSPost2010PropOp34
 70
     1
102
RTVSPost2010Prop35
280
     0
102
RTVSPost2010PropOp35
 70
     1
102
RTVSPost2010Prop36
280
     0
102
RTVSPost2010PropOp36
 70
     1
102
RTVSPost2010Prop37
 90
       50
102
RTVSPost2010PropOp37
 70
     1
102
RTVSPost2010Prop38
140
0.0
102
RTVSPost2010PropOp38
 70
     1
102
RTVSPost2010Prop39
140
1.0
102
RTVSPost2010PropOp39
 70
     1
102
RTVSPost2010Prop40
 90
        0
102
RTVSPost2010PropOp40
 70
     1
102
RTVSPost2010Prop41ColorIndex
 90
       18
102
RTVSPost2010Prop41ColorRGB
 90
        0
102
RTVSPost2010PropOp41
 70
     1
102
RTVSPost2010Prop42
 90
       50
102
RTVSPost2010PropOp42
 70
     1
102
RTVSPost2010Prop43
 90
        3
102
RTVSPost2010PropOp43
 70
     1
102
RTVSPost2010Prop44ColorIndex
 90
        5
102
RTVSPost2010Prop44ColorRGB
 90
      255
102
RTVSPost2010PropOp44
 70
     1
102
RTVSPost2010Prop45
280
     0
102
RTVSPost2010PropOp45
 70
     1
102
RTVSPost2010Prop46
 90
       50
102
RTVSPost2010PropOp46
 70
     1
102
RTVSPost2010Prop47
 90
       50
102
RTVSPost2010PropOp47
 70
     1
102
RTVSPost2010Prop48
 90
       50
102
RTVSPost2010PropOp48
 70
     1
102
RTVSPost2010Prop49
280
     0
102
RTVSPost2010PropOp49
 70
     1
102
RTVSPost2010Prop50
 90
       50
102
RTVSPost2010PropOp50
 70
     1
102
RTVSPost2010Prop51ColorIndex
 90
      256
102
RTVSPost2010Prop51ColorRGB
 90
-16777216
102
RTVSPost2010PropOp51
 70
     0
102
RTVSPost2010Prop52
140
1.0
102
RTVSPost2010PropOp52
 70
     0
102
RTVSPost2010Prop53
 90
        2
102
RTVSPost2010PropOp53
 70
     1
102
RTVSPost2010Prop54
  1
strokes_ogs.tif
102
RTVSPost2010PropOp54
 70
     1
102
RTVSPost2010Prop55
280
     0
102
RTVSPost2010PropOp55
 70
     1
102
RTVSPost2010Prop56
140
1.0
102
RTVSPost2010PropOp56
 70
     1
102
RTVSPost2010Prop57
140
1.0
102
RTVSPost2010PropOp57
 70
     1
  0
XRECORD
  5
12A
102
{ACAD_REACTORS
330
129
102
}
330
129
100
AcDbXrecord
280
     1
102
RTVSPost2010Prop28
280
     0
102
RTVSPost2010PropOp28
 70
     1
102
RTVSPost2010Prop29
280
     1
102
RTVSPost2010PropOp29
 70
     1
102
RTVSPost2010Prop30
280
     1
102
RTVSPost2010PropOp30
 70
     1
102
RTVSPost2010Prop31
280
     0
102
RTVSPost2010PropOp31
 70
     1
102
RTVSPost2010Prop32
280
     0
102
RTVSPost2010PropOp32
 70
     1
102
RTVSPost2010Prop33
280
     0
102
RTVSPost2010PropOp33
 70
     1
102
RTVSPost2010Prop34
280
     0
102
RTVSPost2010PropOp34
 70
     1
102
RTVSPost2010Prop35
280
     0
102
RTVSPost2010PropOp35
 70
     1
102
RTVSPost2010Prop36
280
     0
102
RTVSPost2010PropOp36
 70
     1
102
RTVSPost2010Prop37
 90
       50
102
RTVSPost2010PropOp37
 70
     1
102
RTVSPost2010Prop38
140
0.0
102
RTVSPost2010PropOp38
 70
     1
102
RTVSPost2010Prop39
140
1.0
102
RTVSPost2010PropOp39
 70
     1
102
RTVSPost2010Prop40
 90
        0
102
RTVSPost2010PropOp40
 70
     1
102
RTVSPost2010Prop41ColorIndex
 90
       18
102
RTVSPost2010Prop41ColorRGB
 90
        0
102
RTVSPost2010PropOp41
 70
     1
102
RTVSPost2010Prop42
 90
       50
102
RTVSPost2010PropOp42
 70
     1
102
RTVSPost2010Prop43
 90
        3
102
RTVSPost2010PropOp43
 70
     1
102
RTVSPost2010Prop44ColorIndex
 90
        5
102
RTVSPost2010Prop44ColorRGB
 90
      255
102
RTVSPost2010PropOp44
 70
     1
102
RTVSPost2010Prop45
280
     0
102
RTVSPost2010PropOp45
 70
     1
102
RTVSPost2010Prop46
 90
       50
102
RTVSPost2010PropOp46
 70
     1
102
RTVSPost2010Prop47
 90
       50
102
RTVSPost2010PropOp47
 70
     1
102
RTVSPost2010Prop48
 90
       50
102
RTVSPost2010PropOp48
 70
     1
102
RTVSPost2010Prop49
280
     0
102
RTVSPost2010PropOp49
 70
     1
102
RTVSPost2010Prop50
 90
       50
102
RTVSPost2010PropOp50
 70
     1
102
RTVSPost2010Prop51ColorIndex
 90
      256
102
RTVSPost2010Prop51ColorRGB
 90
-16777216
102
RTVSPost2010PropOp51
 70
     0
102
RTVSPost2010Prop52
140
1.0
102
RTVSPost2010PropOp52
 70
     0
102
RTVSPost2010Prop53
 90
        2
102
RTVSPost2010PropOp53
 70
     1
102
RTVSPost2010Prop54
  1
strokes_ogs.tif
102
RTVSPost2010PropOp54
 70
     1
102
RTVSPost2010Prop55
280
     0
102
RTVSPost2010PropOp55
 70
     1
102
RTVSPost2010Prop56
140
1.0
102
RTVSPost2010PropOp56
 70
     1
102
RTVSPost2010Prop57
140
1.0
102
RTVSPost2010PropOp57
 70
     1
  0
XRECORD
  5
120
102
{ACAD_REACTORS
330
11F
102
}
330
11F
100
AcDbXrecord
280
     1
102
RTVSPost2010Prop28
280
     0
102
RTVSPost2010PropOp28
 70
     1
102
RTVSPost2010Prop29
280
     1
102
RTVSPost2010PropOp29
 70
     1
102
RTVSPost2010Prop30
280
     1
102
RTVSPost2010PropOp30
 70
     1
102
RTVSPost2010Prop31
280
     0
102
RTVSPost2010PropOp31
 70
     1
102
RTVSPost2010Prop32
280
     0
102
RTVSPost2010PropOp32
 70
     1
102
RTVSPost2010Prop33
280
     0
102
RTVSPost2010PropOp33
 70
     1
102
RTVSPost2010Prop34
280
     0
102
RTVSPost2010PropOp34
 70
     1
102
RTVSPost2010Prop35
280
     0
102
RTVSPost2010PropOp35
 70
     1
102
RTVSPost2010Prop36
280
     0
102
RTVSPost2010PropOp36
 70
     1
102
RTVSPost2010Prop37
 90
       50
102
RTVSPost2010PropOp37
 70
     1
102
RTVSPost2010Prop38
140
0.0
102
RTVSPost2010PropOp38
 70
     1
102
RTVSPost2010Prop39
140
1.0
102
RTVSPost2010PropOp39
 70
     1
102
RTVSPost2010Prop40
 90
        0
102
RTVSPost2010PropOp40
 70
     1
102
RTVSPost2010Prop41ColorIndex
 90
       18
102
RTVSPost2010Prop41ColorRGB
 90
        0
102
RTVSPost2010PropOp41
 70
     1
102
RTVSPost2010Prop42
 90
       50
102
RTVSPost2010PropOp42
 70
     1
102
RTVSPost2010Prop43
 90
        3
102
RTVSPost2010PropOp43
 70
     1
102
RTVSPost2010Prop44ColorIndex
 90
        5
102
RTVSPost2010Prop44ColorRGB
 90
      255
102
RTVSPost2010PropOp44
 70
     1
102
RTVSPost2010Prop45
280
     0
102
RTVSPost2010PropOp45
 70
     1
102
RTVSPost2010Prop46
 90
       50
102
RTVSPost2010PropOp46
 70
     1
102
RTVSPost2010Prop47
 90
       50
102
RTVSPost2010PropOp47
 70
     1
102
RTVSPost2010Prop48
 90
       50
102
RTVSPost2010PropOp48
 70
     1
102
RTVSPost2010Prop49
280
     0
102
RTVSPost2010PropOp49
 70
     1
102
RTVSPost2010Prop50
 90
       50
102
RTVSPost2010PropOp50
 70
     1
102
RTVSPost2010Prop51ColorIndex
 90
      256
102
RTVSPost2010Prop51ColorRGB
 90
-16777216
102
RTVSPost2010PropOp51
 70
     0
102
RTVSPost2010Prop52
140
1.0
102
RTVSPost2010PropOp52
 70
     0
102
RTVSPost2010Prop53
 90
        2
102
RTVSPost2010PropOp53
 70
     1
102
RTVSPost2010Prop54
  1
strokes_ogs.tif
102
RTVSPost2010PropOp54
 70
     1
102
RTVSPost2010Prop55
280
     0
102
RTVSPost2010PropOp55
 70
     1
102
RTVSPost2010Prop56
140
1.0
102
RTVSPost2010PropOp56
 70
     1
102
RTVSPost2010Prop57
140
1.0
102
RTVSPost2010PropOp57
 70
     1
  0
XRECORD
  5
114
102
{ACAD_REACTORS
330
113
102
}
330
113
100
AcDbXrecord
280
     1
102
RTVSPost2010Prop28
280
     0
102
RTVSPost2010PropOp28
 70
     1
102
RTVSPost2010Prop29
280
     1
102
RTVSPost2010PropOp29
 70
     1
102
RTVSPost2010Prop30
280
     1
102
RTVSPost2010PropOp30
 70
     1
102
RTVSPost2010Prop31
280
     0
102
RTVSPost2010PropOp31
 70
     1
102
RTVSPost2010Prop32
280
     0
102
RTVSPost2010PropOp32
 70
     1
102
RTVSPost2010Prop33
280
     0
102
RTVSPost2010PropOp33
 70
     1
102
RTVSPost2010Prop34
280
     0
102
RTVSPost2010PropOp34
 70
     1
102
RTVSPost2010Prop35
280
     0
102
RTVSPost2010PropOp35
 70
     1
102
RTVSPost2010Prop36
280
     0
102
RTVSPost2010PropOp36
 70
     1
102
RTVSPost2010Prop37
 90
       50
102
RTVSPost2010PropOp37
 70
     1
102
RTVSPost2010Prop38
140
0.0
102
RTVSPost2010PropOp38
 70
     1
102
RTVSPost2010Prop39
140
1.0
102
RTVSPost2010PropOp39
 70
     1
102
RTVSPost2010Prop40
 90
        0
102
RTVSPost2010PropOp40
 70
     1
102
RTVSPost2010Prop41ColorIndex
 90
       18
102
RTVSPost2010Prop41ColorRGB
 90
        0
102
RTVSPost2010PropOp41
 70
     1
102
RTVSPost2010Prop42
 90
       50
102
RTVSPost2010PropOp42
 70
     1
102
RTVSPost2010Prop43
 90
        3
102
RTVSPost2010PropOp43
 70
     1
102
RTVSPost2010Prop44ColorIndex
 90
        5
102
RTVSPost2010Prop44ColorRGB
 90
      255
102
RTVSPost2010PropOp44
 70
     1
102
RTVSPost2010Prop45
280
     0
102
RTVSPost2010PropOp45
 70
     1
102
RTVSPost2010Prop46
 90
       50
102
RTVSPost2010PropOp46
 70
     1
102
RTVSPost2010Prop47
 90
       50
102
RTVSPost2010PropOp47
 70
     1
102
RTVSPost2010Prop48
 90
       50
102
RTVSPost2010PropOp48
 70
     1
102
RTVSPost2010Prop49
280
     0
102
RTVSPost2010PropOp49
 70
     1
102
RTVSPost2010Prop50
 90
       50
102
RTVSPost2010PropOp50
 70
     1
102
RTVSPost2010Prop51ColorIndex
 90
      256
102
RTVSPost2010Prop51ColorRGB
 90
-16777216
102
RTVSPost2010PropOp51
 70
     0
102
RTVSPost2010Prop52
140
1.0
102
RTVSPost2010PropOp52
 70
     0
102
RTVSPost2010Prop53
 90
        2
102
RTVSPost2010PropOp53
 70
     1
102
RTVSPost2010Prop54
  1
strokes_ogs.tif
102
RTVSPost2010PropOp54
 70
     1
102
RTVSPost2010Prop55
280
     0
102
RTVSPost2010PropOp55
 70
     1
102
RTVSPost2010Prop56
140
1.0
102
RTVSPost2010PropOp56
 70
     1
102
RTVSPost2010Prop57
140
1.0
102
RTVSPost2010PropOp57
 70
     1
  0
XRECORD
  5
12C
102
{ACAD_REACTORS
330
12B
102
}
330
12B
100
AcDbXrecord
280
     1
102
RTVSPost2010Prop28
280
     0
102
RTVSPost2010PropOp28
 70
     1
102
RTVSPost2010Prop29
280
     1
102
RTVSPost2010PropOp29
 70
     1
102
RTVSPost2010Prop30
280
     1
102
RTVSPost2010PropOp30
 70
     1
102
RTVSPost2010Prop31
280
     0
102
RTVSPost2010PropOp31
 70
     1
102
RTVSPost2010Prop32
280
     0
102
RTVSPost2010PropOp32
 70
     1
102
RTVSPost2010Prop33
280
     0
102
RTVSPost2010PropOp33
 70
     1
102
RTVSPost2010Prop34
280
     0
102
RTVSPost2010PropOp34
 70
     1
102
RTVSPost2010Prop35
280
     0
102
RTVSPost2010PropOp35
 70
     1
102
RTVSPost2010Prop36
280
     0
102
RTVSPost2010PropOp36
 70
     1
102
RTVSPost2010Prop37
 90
       50
102
RTVSPost2010PropOp37
 70
     1
102
RTVSPost2010Prop38
140
0.0
102
RTVSPost2010PropOp38
 70
     1
102
RTVSPost2010Prop39
140
1.0
102
RTVSPost2010PropOp39
 70
     1
102
RTVSPost2010Prop40
 90
        0
102
RTVSPost2010PropOp40
 70
     1
102
RTVSPost2010Prop41ColorIndex
 90
       18
102
RTVSPost2010Prop41ColorRGB
 90
        0
102
RTVSPost2010PropOp41
 70
     1
102
RTVSPost2010Prop42
 90
       50
102
RTVSPost2010PropOp42
 70
     1
102
RTVSPost2010Prop43
 90
        3
102
RTVSPost2010PropOp43
 70
     1
102
RTVSPost2010Prop44ColorIndex
 90
        5
102
RTVSPost2010Prop44ColorRGB
 90
      255
102
RTVSPost2010PropOp44
 70
     1
102
RTVSPost2010Prop45
280
     0
102
RTVSPost2010PropOp45
 70
     1
102
RTVSPost2010Prop46
 90
       50
102
RTVSPost2010PropOp46
 70
     1
102
RTVSPost2010Prop47
 90
       50
102
RTVSPost2010PropOp47
 70
     1
102
RTVSPost2010Prop48
 90
       50
102
RTVSPost2010PropOp48
 70
     1
102
RTVSPost2010Prop49
280
     0
102
RTVSPost2010PropOp49
 70
     1
102
RTVSPost2010Prop50
 90
       50
102
RTVSPost2010PropOp50
 70
     1
102
RTVSPost2010Prop51ColorIndex
 90
      256
102
RTVSPost2010Prop51ColorRGB
 90
-16777216
102
RTVSPost2010PropOp51
 70
     0
102
RTVSPost2010Prop52
140
1.0
102
RTVSPost2010PropOp52
 70
     0
102
RTVSPost2010Prop53
 90
        2
102
RTVSPost2010PropOp53
 70
     1
102
RTVSPost2010Prop54
  1
strokes_ogs.tif
102
RTVSPost2010PropOp54
 70
     1
102
RTVSPost2010Prop55
280
     0
102
RTVSPost2010PropOp55
 70
     1
102
RTVSPost2010Prop56
140
1.0
102
RTVSPost2010PropOp56
 70
     1
102
RTVSPost2010Prop57
140
1.0
102
RTVSPost2010PropOp57
 70
     1
  0
ENDSEC
  0
EOF
