  0
SECTION
  2
HEADER
  9
$ACADVER
  1
AC1024
  9
$ACADMAINTVER
 70
   205
  9
$DWGCODEPAGE
  3
ANSI_1251
  9
$INSBASE
 10
0.0
 20
0.0
 30
0.0
  9
$EXTMIN
 10
1.000000000000000E+20
 20
1.000000000000000E+20
 30
1.000000000000000E+20
  9
$EXTMAX
 10
-1.000000000000000E+20
 20
-1.000000000000000E+20
 30
-1.000000000000000E+20
  9
$LIMMIN
 10
0.0
 20
0.0
  9
$LIMMAX
 10
12.0
 20
9.0
  9
$ORTHOMODE
 70
     0
  9
$REGENMODE
 70
     1
  9
$FILLMODE
 70
     1
  9
$QTEXTMODE
 70
     0
  9
$MIRRTEXT
 70
     1
  9
$LTSCALE
 40
1.0
  9
$ATTMODE
 70
     1
  9
$TEXTSIZE
 40
0.2
  9
$TRACEWID
 40
0.05
  9
$TEXTSTYLE
  7
Standard
  9
$CLAYER
  8
OracDecor_cornice_mouldings
  9
$CELTYPE
  6
ByLayer
  9
$CECOLOR
 62
   256
  9
$CELTSCALE
 40
1.0
  9
$DISPSILH
 70
     0
  9
$DIMSCALE
 40
1.0
  9
$DIMASZ
 40
0.18
  9
$DIMEXO
 40
0.0625
  9
$DIMDLI
 40
0.38
  9
$DIMRND
 40
0.0
  9
$DIMDLE
 40
0.0
  9
$DIMEXE
 40
0.18
  9
$DIMTP
 40
0.0
  9
$DIMTM
 40
0.0
  9
$DIMTXT
 40
0.18
  9
$DIMCEN
 40
0.09
  9
$DIMTSZ
 40
0.0
  9
$DIMTOL
 70
     0
  9
$DIMLIM
 70
     0
  9
$DIMTIH
 70
     1
  9
$DIMTOH
 70
     1
  9
$DIMSE1
 70
     0
  9
$DIMSE2
 70
     0
  9
$DIMTAD
 70
     0
  9
$DIMZIN
 70
     0
  9
$DIMBLK
  1

  9
$DIMASO
 70
     1
  9
$DIMSHO
 70
     1
  9
$DIMPOST
  1

  9
$DIMAPOST
  1

  9
$DIMALT
 70
     0
  9
$DIMALTD
 70
     2
  9
$DIMALTF
 40
25.4
  9
$DIMLFAC
 40
1.0
  9
$DIMTOFL
 70
     0
  9
$DIMTVP
 40
0.0
  9
$DIMTIX
 70
     0
  9
$DIMSOXD
 70
     0
  9
$DIMSAH
 70
     0
  9
$DIMBLK1
  1

  9
$DIMBLK2
  1

  9
$DIMSTYLE
  2
Standard
  9
$DIMCLRD
 70
     0
  9
$DIMCLRE
 70
     0
  9
$DIMCLRT
 70
     0
  9
$DIMTFAC
 40
1.0
  9
$DIMGAP
 40
0.09
  9
$DIMJUST
 70
     0
  9
$DIMSD1
 70
     0
  9
$DIMSD2
 70
     0
  9
$DIMTOLJ
 70
     1
  9
$DIMTZIN
 70
     0
  9
$DIMALTZ
 70
     0
  9
$DIMALTTZ
 70
     0
  9
$DIMUPT
 70
     0
  9
$DIMDEC
 70
     4
  9
$DIMTDEC
 70
     4
  9
$DIMALTU
 70
     2
  9
$DIMALTTD
 70
     2
  9
$DIMTXSTY
  7
Standard
  9
$DIMAUNIT
 70
     0
  9
$DIMADEC
 70
     0
  9
$DIMALTRND
 40
0.0
  9
$DIMAZIN
 70
     0
  9
$DIMDSEP
 70
    46
  9
$DIMATFIT
 70
     3
  9
$DIMFRAC
 70
     0
  9
$DIMLDRBLK
  1

  9
$DIMLUNIT
 70
     2
  9
$DIMLWD
 70
    -2
  9
$DIMLWE
 70
    -2
  9
$DIMTMOVE
 70
     0
  9
$DIMFXL
 40
1.0
  9
$DIMFXLON
 70
     0
  9
$DIMJOGANG
 40
0.7853981633974483
  9
$DIMTFILL
 70
     0
  9
$DIMTFILLCLR
 70
     0
  9
$DIMARCSYM
 70
     0
  9
$DIMLTYPE
  6

  9
$DIMLTEX1
  6

  9
$DIMLTEX2
  6

  9
$DIMTXTDIRECTION
 70
     0
  9
$LUNITS
 70
     2
  9
$LUPREC
 70
     4
  9
$SKETCHINC
 40
0.1
  9
$FILLETRAD
 40
0.5
  9
$AUNITS
 70
     0
  9
$AUPREC
 70
     0
  9
$MENU
  1
.
  9
$ELEVATION
 40
0.0
  9
$PELEVATION
 40
0.0
  9
$THICKNESS
 40
0.0
  9
$LIMCHECK
 70
     0
  9
$CHAMFERA
 40
0.5
  9
$CHAMFERB
 40
0.5
  9
$CHAMFERC
 40
1.0
  9
$CHAMFERD
 40
0.0
  9
$SKPOLY
 70
     0
  9
$TDCREATE
 40
2451380.930432396
  9
$TDUCREATE
 40
2451380.805432396
  9
$TDUPDATE
 40
2451380.966180555
  9
$TDUUPDATE
 40
2451380.841180556
  9
$TDINDWG
 40
0.0075625347
  9
$TDUSRTIMER
 40
0.0075534954
  9
$USRTIMER
 70
     1
  9
$ANGBASE
 50
0.0
  9
$ANGDIR
 70
     0
  9
$PDMODE
 70
     0
  9
$PDSIZE
 40
0.0
  9
$PLINEWID
 40
0.0
  9
$SPLFRAME
 70
     0
  9
$SPLINETYPE
 70
     6
  9
$SPLINESEGS
 70
     8
  9
$HANDSEED
  5
1A1
  9
$SURFTAB1
 70
     6
  9
$SURFTAB2
 70
     6
  9
$SURFTYPE
 70
     6
  9
$SURFU
 70
     6
  9
$SURFV
 70
     6
  9
$UCSBASE
  2

  9
$UCSNAME
  2

  9
$UCSORG
 10
0.0
 20
0.0
 30
0.0
  9
$UCSXDIR
 10
1.0
 20
0.0
 30
0.0
  9
$UCSYDIR
 10
0.0
 20
1.0
 30
0.0
  9
$UCSORTHOREF
  2

  9
$UCSORTHOVIEW
 70
     0
  9
$UCSORGTOP
 10
0.0
 20
0.0
 30
0.0
  9
$UCSORGBOTTOM
 10
0.0
 20
0.0
 30
0.0
  9
$UCSORGLEFT
 10
0.0
 20
0.0
 30
0.0
  9
$UCSORGRIGHT
 10
0.0
 20
0.0
 30
0.0
  9
$UCSORGFRONT
 10
0.0
 20
0.0
 30
0.0
  9
$UCSORGBACK
 10
0.0
 20
0.0
 30
0.0
  9
$PUCSBASE
  2

  9
$PUCSNAME
  2

  9
$PUCSORG
 10
0.0
 20
0.0
 30
0.0
  9
$PUCSXDIR
 10
1.0
 20
0.0
 30
0.0
  9
$PUCSYDIR
 10
0.0
 20
1.0
 30
0.0
  9
$PUCSORTHOREF
  2

  9
$PUCSORTHOVIEW
 70
     0
  9
$PUCSORGTOP
 10
0.0
 20
0.0
 30
0.0
  9
$PUCSORGBOTTOM
 10
0.0
 20
0.0
 30
0.0
  9
$PUCSORGLEFT
 10
0.0
 20
0.0
 30
0.0
  9
$PUCSORGRIGHT
 10
0.0
 20
0.0
 30
0.0
  9
$PUCSORGFRONT
 10
0.0
 20
0.0
 30
0.0
  9
$PUCSORGBACK
 10
0.0
 20
0.0
 30
0.0
  9
$USERI1
 70
     0
  9
$USERI2
 70
     0
  9
$USERI3
 70
     0
  9
$USERI4
 70
     0
  9
$USERI5
 70
     0
  9
$USERR1
 40
0.0
  9
$USERR2
 40
0.0
  9
$USERR3
 40
0.0
  9
$USERR4
 40
0.0
  9
$USERR5
 40
0.0
  9
$WORLDVIEW
 70
     1
  9
$SHADEDGE
 70
     3
  9
$SHADEDIF
 70
    70
  9
$TILEMODE
 70
     1
  9
$MAXACTVP
 70
    64
  9
$PINSBASE
 10
0.0
 20
0.0
 30
0.0
  9
$PLIMCHECK
 70
     0
  9
$PEXTMIN
 10
1.000000000000000E+20
 20
1.000000000000000E+20
 30
1.000000000000000E+20
  9
$PEXTMAX
 10
-1.000000000000000E+20
 20
-1.000000000000000E+20
 30
-1.000000000000000E+20
  9
$PLIMMIN
 10
0.0
 20
0.0
  9
$PLIMMAX
 10
12.0
 20
9.0
  9
$UNITMODE
 70
     0
  9
$VISRETAIN
 70
     1
  9
$PLINEGEN
 70
     0
  9
$PSLTSCALE
 70
     1
  9
$TREEDEPTH
 70
  3020
  9
$CMLSTYLE
  2
Standard
  9
$CMLJUST
 70
     0
  9
$CMLSCALE
 40
1.0
  9
$PROXYGRAPHICS
 70
     1
  9
$MEASUREMENT
 70
     1
  9
$CELWEIGHT
370
    -1
  9
$ENDCAPS
280
     0
  9
$JOINSTYLE
280
     0
  9
$LWDISPLAY
290
     0
  9
$INSUNITS
 70
     4
  9
$HYPERLINKBASE
  1

  9
$STYLESHEET
  1

  9
$XEDIT
290
     1
  9
$CEPSNTYPE
380
     0
  9
$PSTYLEMODE
290
     1
  9
$FINGERPRINTGUID
  2
{12F50282-3ED8-11D3-A8B7-0060B0F84BC6}
  9
$VERSIONGUID
  2
{12F50293-3ED8-11D3-A8B7-0060B0F84BC6}
  9
$EXTNAMES
290
     1
  9
$PSVPSCALE
 40
0.0
  9
$OLESTARTUP
290
     0
  9
$SORTENTS
280
   127
  9
$INDEXCTL
280
     0
  9
$HIDETEXT
280
     0
  9
$XCLIPFRAME
280
     2
  9
$HALOGAP
280
     0
  9
$OBSCOLOR
 70
   257
  9
$OBSLTYPE
280
     0
  9
$INTERSECTIONDISPLAY
280
     0
  9
$INTERSECTIONCOLOR
 70
   257
  9
$DIMASSOC
280
     1
  9
$PROJECTNAME
  1

  9
$CAMERADISPLAY
290
     0
  9
$LENSLENGTH
 40
50.0
  9
$CAMERAHEIGHT
 40
0.0
  9
$STEPSPERSEC
 40
2.0
  9
$STEPSIZE
 40
6.0
  9
$3DDWFPREC
 40
2.0
  9
$PSOLWIDTH
 40
0.25
  9
$PSOLHEIGHT
 40
4.0
  9
$LOFTANG1
 40
1.570796326794896
  9
$LOFTANG2
 40
1.570796326794896
  9
$LOFTMAG1
 40
0.0
  9
$LOFTMAG2
 40
0.0
  9
$LOFTPARAM
 70
     7
  9
$LOFTNORMALS
280
     1
  9
$LATITUDE
 40
37.795
  9
$LONGITUDE
 40
-122.394
  9
$NORTHDIRECTION
 40
0.0
  9
$TIMEZONE
 70
 -8000
  9
$LIGHTGLYPHDISPLAY
280
     1
  9
$TILEMODELIGHTSYNCH
280
     1
  9
$CMATERIAL
347
AB
  9
$SOLIDHIST
280
     0
  9
$SHOWHIST
280
     1
  9
$DWFFRAME
280
     2
  9
$DGNFRAME
280
     0
  9
$REALWORLDSCALE
290
     1
  9
$INTERFERECOLOR
 62
     1
  9
$INTERFEREOBJVS
345
CD
  9
$INTERFEREVPVS
346
CA
  9
$CSHADOW
280
     0
  9
$SHADOWPLANELOCATION
 40
0.0
  0
ENDSEC
  0
SECTION
  2
CLASSES
  0
CLASS
  1
ACDBDICTIONARYWDFLT
  2
AcDbDictionaryWithDefault
  3
ObjectDBX Classes
 90
        0
 91
        1
280
     0
281
     0
  0
CLASS
  1
ACDBPLACEHOLDER
  2
AcDbPlaceHolder
  3
ObjectDBX Classes
 90
        0
 91
        2
280
     0
281
     0
  0
CLASS
  1
LAYOUT
  2
AcDbLayout
  3
ObjectDBX Classes
 90
        0
 91
        3
280
     0
281
     0
  0
CLASS
  1
MATERIAL
  2
AcDbMaterial
  3
ObjectDBX Classes
 90
     1153
 91
        3
280
     0
281
     0
  0
CLASS
  1
VISUALSTYLE
  2
AcDbVisualStyle
  3
ObjectDBX Classes
 90
     4095
 91
       24
280
     0
281
     0
  0
CLASS
  1
TABLESTYLE
  2
AcDbTableStyle
  3
ObjectDBX Classes
 90
     4095
 91
        1
280
     0
281
     0
  0
CLASS
  1
SCALE
  2
AcDbScale
  3
ObjectDBX Classes
 90
     1153
 91
       17
280
     0
281
     0
  0
CLASS
  1
MLEADERSTYLE
  2
AcDbMLeaderStyle
  3
ACDB_MLEADERSTYLE_CLASS
 90
     4095
 91
        1
280
     0
281
     0
  0
CLASS
  1
ACDBSECTIONVIEWSTYLE
  2
AcDbSectionViewStyle
  3
ObjectDBX Classes
 90
     1025
 91
        1
280
     0
281
     0
  0
CLASS
  1
ACDBDETAILVIEWSTYLE
  2
AcDbDetailViewStyle
  3
ObjectDBX Classes
 90
     1025
 91
        1
280
     0
281
     0
  0
CLASS
  1
MESH
  2
AcDbSubDMesh
  3
ObjectDBX Classes
 90
        0
 91
        1
280
     0
281
     1
  0
CLASS
  1
DICTIONARYVAR
  2
AcDbDictionaryVar
  3
ObjectDBX Classes
 90
        0
 91
        9
280
     0
281
     0
  0
CLASS
  1
CELLSTYLEMAP
  2
AcDbCellStyleMap
  3
ObjectDBX Classes
 90
     1152
 91
        1
280
     0
281
     0
  0
ENDSEC
  0
SECTION
  2
TABLES
  0
TABLE
  2
VPORT
  5
8
330
0
100
AcDbSymbolTable
 70
     1
  0
VPORT
  5
A8
330
8
100
AcDbSymbolTableRecord
100
AcDbViewportTableRecord
  2
*Active
 70
     0
 10
0.0
 20
0.0
 11
1.0
 21
1.0
 12
0.0001011524436763
 22
-40.41638183593749
 13
0.0
 23
0.0
 14
0.5
 24
0.5
 15
0.5
 25
0.5
 16
-1.0
 26
-1.0
 36
1.0
 17
0.0
 27
0.0
 37
0.0
 40
1148.999395343265
 41
1.582814435468545
 42
50.0
 43
0.0
 44
0.0
 50
0.0
 51
0.0
 71
     0
 72
   100
 73
     1
 74
     3
 75
     0
 76
     0
 77
     0
 78
     0
281
     0
 65
     1
110
0.0
120
0.0
130
0.0
111
1.0
121
0.0
131
0.0
112
0.0
122
1.0
132
0.0
 79
     0
146
0.0
348
C9
 60
     3
 61
     5
292
     1
282
     1
141
0.0
142
0.0
 63
   250
421
  3355443
  0
ENDTAB
  0
TABLE
  2
LTYPE
  5
5
330
0
100
AcDbSymbolTable
 70
     1
  0
LTYPE
  5
14
330
5
100
AcDbSymbolTableRecord
100
AcDbLinetypeTableRecord
  2
ByBlock
 70
     0
  3

 72
    65
 73
     0
 40
0.0
  0
LTYPE
  5
15
330
5
100
AcDbSymbolTableRecord
100
AcDbLinetypeTableRecord
  2
ByLayer
 70
     0
  3

 72
    65
 73
     0
 40
0.0
  0
LTYPE
  5
16
330
5
100
AcDbSymbolTableRecord
100
AcDbLinetypeTableRecord
  2
Continuous
 70
     0
  3
Solid line
 72
    65
 73
     0
 40
0.0
  0
ENDTAB
  0
TABLE
  2
LAYER
  5
2
330
0
100
AcDbSymbolTable
 70
     3
  0
LAYER
  5
10
330
2
100
AcDbSymbolTableRecord
100
AcDbLayerTableRecord
  2
0
 70
     0
 62
     7
  6
Continuous
370
    -3
390
F
347
BB
  0
LAYER
  5
2B
330
2
100
AcDbSymbolTableRecord
100
AcDbLayerTableRecord
  2
ASHADE
 70
     4
 62
     7
  6
Continuous
370
    -3
390
2D
347
BB
  0
LAYER
  5
F8
330
2
100
AcDbSymbolTableRecord
100
AcDbLayerTableRecord
  2
OracDecor_cornice_mouldings
 70
     0
 62
   206
420
  7080072
  6
Continuous
370
    -3
390
F
347
BB
  0
ENDTAB
  0
TABLE
  2
STYLE
  5
3
330
0
100
AcDbSymbolTable
 70
     2
  0
STYLE
  5
11
330
3
100
AcDbSymbolTableRecord
100
AcDbTextStyleTableRecord
  2
Standard
 70
     0
 40
0.0
 41
1.0
 50
0.0
 71
     0
 42
0.2
  3
txt
  4

  0
STYLE
  5
2C
330
3
100
AcDbSymbolTableRecord
100
AcDbTextStyleTableRecord
  2
ASHADE
 70
     0
 40
0.2
 41
1.0
 50
0.0
 71
     0
 42
0.2
  3
simplex
  4

  0
ENDTAB
  0
TABLE
  2
VIEW
  5
6
330
0
100
AcDbSymbolTable
 70
     0
  0
ENDTAB
  0
TABLE
  2
UCS
  5
7
330
0
100
AcDbSymbolTable
 70
     0
  0
ENDTAB
  0
TABLE
  2
APPID
  5
9
330
0
100
AcDbSymbolTable
 70
     6
  0
APPID
  5
12
330
9
100
AcDbSymbolTableRecord
100
AcDbRegAppTableRecord
  2
ACAD
 70
     0
  0
APPID
  5
8F
330
9
100
AcDbSymbolTableRecord
100
AcDbRegAppTableRecord
  2
AVE_RENDER
 70
     0
  0
APPID
  5
90
330
9
100
AcDbSymbolTableRecord
100
AcDbRegAppTableRecord
  2
AVE_ENTITY_MATERIAL
 70
     0
  0
APPID
  5
9C
330
9
100
AcDbSymbolTableRecord
100
AcDbRegAppTableRecord
  2
AVE_FINISH
 70
     0
  0
APPID
  5
9D
330
9
100
AcDbSymbolTableRecord
100
AcDbRegAppTableRecord
  2
AVE_MATERIAL
 70
     0
  0
APPID
  5
9E
330
9
100
AcDbSymbolTableRecord
100
AcDbRegAppTableRecord
  2
AVE_GLOBAL
 70
     0
  0
ENDTAB
  0
TABLE
  2
DIMSTYLE
  5
A
330
0
100
AcDbSymbolTable
 70
     1
100
AcDbDimStyleTable
 71
     0
  0
DIMSTYLE
105
27
330
A
100
AcDbSymbolTableRecord
100
AcDbDimStyleTableRecord
  2
Standard
 70
     0
340
11
  0
ENDTAB
  0
TABLE
  2
BLOCK_RECORD
  5
1
330
0
100
AcDbSymbolTable
 70
     6
  0
BLOCK_RECORD
  5
1F
330
1
100
AcDbSymbolTableRecord
100
AcDbBlockTableRecord
  2
*Model_Space
340
22
 70
     0
280
     1
281
     0
  0
BLOCK_RECORD
  5
1B
330
1
100
AcDbSymbolTableRecord
100
AcDbBlockTableRecord
  2
*Paper_Space
340
1E
 70
     0
280
     1
281
     0
  0
BLOCK_RECORD
  5
23
330
1
100
AcDbSymbolTableRecord
100
AcDbBlockTableRecord
  2
*Paper_Space0
340
26
 70
     0
280
     1
281
     0
  0
BLOCK_RECORD
  5
2E
330
1
100
AcDbSymbolTableRecord
100
AcDbBlockTableRecord
  2
direct
340
0
 70
     0
280
     1
281
     0
  0
BLOCK_RECORD
  5
42
330
1
100
AcDbSymbolTableRecord
100
AcDbBlockTableRecord
  2
overhead
340
0
 70
     0
280
     1
281
     0
  0
BLOCK_RECORD
  5
5F
330
1
100
AcDbSymbolTableRecord
100
AcDbBlockTableRecord
  2
sh_spot
340
0
 70
     0
280
     1
281
     0
  0
BLOCK_RECORD
  5
91
330
1
100
AcDbSymbolTableRecord
100
AcDbBlockTableRecord
  2
AVE_RENDER
340
0
102
{BLKREFS
331
94
331
95
331
96
331
97
331
98
331
99
331
9A
331
9B
102
}
 70
     0
280
     1
281
     0
  0
BLOCK_RECORD
  5
9F
330
1
100
AcDbSymbolTableRecord
100
AcDbBlockTableRecord
  2
AVE_GLOBAL
340
0
102
{BLKREFS
331
A2
102
}
 70
     0
280
     1
281
     0
  0
ENDTAB
  0
ENDSEC
  0
SECTION
  2
BLOCKS
  0
BLOCK
  5
20
330
1F
100
AcDbEntity
  8
0
100
AcDbBlockBegin
  2
*Model_Space
 70
     0
 10
0.0
 20
0.0
 30
0.0
  3
*Model_Space
  1

  0
ENDBLK
  5
21
330
1F
100
AcDbEntity
  8
0
100
AcDbBlockEnd
  0
BLOCK
  5
1C
330
1B
100
AcDbEntity
 67
     1
  8
0
100
AcDbBlockBegin
  2
*Paper_Space
 70
     0
 10
0.0
 20
0.0
 30
0.0
  3
*Paper_Space
  1

  0
ENDBLK
  5
1D
330
1B
100
AcDbEntity
 67
     1
  8
0
100
AcDbBlockEnd
  0
BLOCK
  5
24
330
23
100
AcDbEntity
 67
     1
  8
0
100
AcDbBlockBegin
  2
*Paper_Space0
 70
     0
 10
0.0
 20
0.0
 30
0.0
  3
*Paper_Space0
  1

  0
ENDBLK
  5
25
330
23
100
AcDbEntity
 67
     1
  8
0
100
AcDbBlockEnd
  0
BLOCK
  5
40
330
2E
100
AcDbEntity
  8
0
100
AcDbBlockBegin
  2
direct
 70
     2
 10
0.0
 20
0.0
 30
0.0
  3
direct
  1

  0
ATTDEF
  5
2F
330
2E
100
AcDbEntity
  8
ASHADE
  6
Continuous
 62
     1
100
AcDbText
 10
0.0
 20
-0.1
 30
0.0
 40
0.2
  1

  7
ASHADE
 72
     1
 11
0.0
 21
-0.1
 31
0.0
100
AcDbAttributeDefinition
280
     0
  3
Light Name
  2
SNAME
 70
     0
280
     0
  0
ARC
  5
30
330
2E
100
AcDbEntity
  8
ASHADE
  6
Continuous
 62
     7
100
AcDbCircle
 10
0.0
 20
0.0
 30
0.0
 40
0.3
100
AcDbArc
 50
205.6792886194569
 51
334.3207113805431
  0
ARC
  5
31
330
2E
100
AcDbEntity
  8
ASHADE
  6
Continuous
 62
     7
100
AcDbCircle
 10
0.0
 20
0.0
 30
0.0
 40
0.3
100
AcDbArc
 50
25.67928861945685
 51
154.3207113805431
  0
LINE
  5
32
330
2E
100
AcDbEntity
  8
ASHADE
  6
Continuous
 62
     7
100
AcDbLine
 10
-0.21
 20
0.2142428528562855
 30
0.0
 11
-0.21
 21
0.5
 31
0.0
  0
LINE
  5
33
330
2E
100
AcDbEntity
  8
ASHADE
  6
Continuous
 62
     7
100
AcDbLine
 10
-0.11
 20
0.2791057147390572
 30
0.0
 11
-0.11
 21
0.5
 31
0.0
  0
LINE
  5
34
330
2E
100
AcDbEntity
  8
ASHADE
  6
Continuous
 62
     7
100
AcDbLine
 10
0.21
 20
0.2142428528562855
 30
0.0
 11
0.21
 21
0.5
 31
0.0
  0
ATTDEF
  5
35
330
2E
100
AcDbEntity
  8
ASHADE
  6
Continuous
 62
     7
100
AcDbText
 10
0.0
 20
0.25
 30
0.0
 40
0.01
  1

100
AcDbAttributeDefinition
280
     0
  3
Look-at Y
  2
LAY
 70
     1
280
     0
  0
ATTDEF
  5
36
330
2E
100
AcDbEntity
  8
ASHADE
  6
Continuous
 62
     7
100
AcDbText
 10
0.0
 20
0.22
 30
0.0
 40
0.01
  1
1
100
AcDbAttributeDefinition
280
     0
  3
Light Intensity
  2
INTENSITY
 70
     1
280
     0
  0
ATTDEF
  5
37
330
2E
100
AcDbEntity
  8
ASHADE
  6
Continuous
 62
     7
100
AcDbText
 10
0.0
 20
0.16
 30
0.0
 40
0.01
  1
-1
100
AcDbAttributeDefinition
280
     0
  3
*not used*
  2
BEAMD
 70
     1
280
     0
  0
ATTDEF
  5
38
330
2E
100
AcDbEntity
  8
ASHADE
  6
Continuous
 62
     7
100
AcDbText
 10
0.0
 20
0.175
 30
0.0
 40
0.01
  1
-1
100
AcDbAttributeDefinition
280
     0
  3
*not used*
  2
CONED
 70
     1
280
     0
  0
ATTDEF
  5
39
330
2E
100
AcDbEntity
  8
ASHADE
  6
Continuous
 62
     7
100
AcDbText
 10
0.0
 20
0.19
 30
0.0
 40
0.01
  1
0
100
AcDbAttributeDefinition
280
     0
  3
Depth Map Size
  2
CONEA
 70
     1
280
     0
  0
ATTDEF
  5
3A
330
2E
100
AcDbEntity
  8
ASHADE
  6
Continuous
 62
     7
100
AcDbText
 10
0.0
 20
0.2050000000000001
 30
0.0
 40
0.01
  1
1,1,1
100
AcDbAttributeDefinition
280
     0
  3
Light Color (RGB)
  2
COLOR
 70
     1
280
     0
  0
ATTDEF
  5
3B
330
2E
100
AcDbEntity
  8
ASHADE
  6
Continuous
 62
     7
100
AcDbText
 10
0.0
 20
0.235
 30
0.0
 40
0.01
  1

100
AcDbAttributeDefinition
280
     0
  3
Look-at Z
  2
LAZ
 70
     1
280
     0
  0
LINE
  5
3C
330
2E
100
AcDbEntity
  8
ASHADE
  6
Continuous
 62
     7
100
AcDbLine
 10
0.0
 20
0.3
 30
0.0
 11
0.0
 21
0.5
 31
0.0
  0
LINE
  5
3D
330
2E
100
AcDbEntity
  8
ASHADE
  6
Continuous
 62
     7
100
AcDbLine
 10
0.11
 20
0.2791057147390572
 30
0.0
 11
0.11
 21
0.5
 31
0.0
  0
ATTDEF
  5
3E
330
2E
100
AcDbEntity
  8
ASHADE
  6
Continuous
 62
     7
100
AcDbText
 10
0.0
 20
0.265
 30
0.0
 40
0.01
  1

100
AcDbAttributeDefinition
280
     0
  3
Look-at X
  2
LAX
 70
     1
280
     0
  0
ATTDEF
  5
3F
330
2E
100
AcDbEntity
  8
ASHADE
  6
Continuous
 62
     7
100
AcDbText
 10
0.0
 20
0.28
 30
0.0
 40
0.01
  1

100
AcDbAttributeDefinition
280
     0
  3

  2
GNAME
 70
     1
280
     0
  0
ENDBLK
  5
41
330
2E
100
AcDbEntity
  8
0
100
AcDbBlockEnd
  0
BLOCK
  5
5D
330
42
100
AcDbEntity
  8
0
100
AcDbBlockBegin
  2
overhead
 70
     2
 10
0.0
 20
0.0
 30
0.0
  3
overhead
  1

  0
ATTDEF
  5
43
330
42
100
AcDbEntity
  8
ASHADE
  6
Continuous
 62
     1
100
AcDbText
 10
0.0
 20
-0.1
 30
0.0
 40
0.2
  1

  7
ASHADE
 72
     1
 11
0.0
 21
-0.1
 31
0.0
100
AcDbAttributeDefinition
280
     0
  3
Light Name
  2
SNAME
 70
     0
280
     0
  0
ARC
  5
44
330
42
100
AcDbEntity
  8
ASHADE
  6
Continuous
 62
     7
100
AcDbCircle
 10
0.0
 20
0.0
 30
0.0
 40
0.3
100
AcDbArc
 50
205.6792886194569
 51
334.3207113805431
  0
LINE
  5
45
330
42
100
AcDbEntity
  8
ASHADE
  6
Continuous
 62
     7
100
AcDbLine
 10
-0.2041413561583015
 20
-0.2198324514393848
 30
0.0
 11
-0.2721884748777353
 21
-0.2931099352525131
 31
0.0
  0
LINE
  5
46
330
42
100
AcDbEntity
  8
ASHADE
  6
Continuous
 62
     7
100
AcDbLine
 10
-0.1096591641591904
 20
-0.2792398032442862
 30
0.0
 11
-0.1279356915190555
 21
-0.3257797704516673
 31
0.0
  0
LINE
  5
47
330
42
100
AcDbEntity
  8
ASHADE
  6
Continuous
 62
     7
100
AcDbLine
 10
0.0
 20
-0.2999999999999999
 30
0.0
 11
0.0
 21
-0.4
 31
0.0
  0
LINE
  5
48
330
42
100
AcDbEntity
  8
ASHADE
  6
Continuous
 62
     7
100
AcDbLine
 10
0.1096591641591904
 20
-0.2792398032442862
 30
0.0
 11
0.1279356915190555
 21
-0.3257797704516673
 31
0.0
  0
LINE
  5
49
330
42
100
AcDbEntity
  8
ASHADE
  6
Continuous
 62
     7
100
AcDbLine
 10
0.2041413561583015
 20
-0.2198324514393848
 30
0.0
 11
0.2721884748777353
 21
-0.2931099352525131
 31
0.0
  0
ARC
  5
4A
330
42
100
AcDbEntity
  8
ASHADE
  6
Continuous
 62
     7
100
AcDbCircle
 10
0.0
 20
0.0
 30
0.0
 40
0.3
100
AcDbArc
 50
25.67928861945685
 51
154.3207113805431
  0
LINE
  5
4B
330
42
100
AcDbEntity
  8
ASHADE
  6
Continuous
 62
     7
100
AcDbLine
 10
-0.2703701166919155
 20
0.13
 30
0.0
 11
-0.3154318028072347
 21
0.1516666666666666
 31
0.0
  0
LINE
  5
4C
330
42
100
AcDbEntity
  8
ASHADE
  6
Continuous
 62
     7
100
AcDbLine
 10
-0.2703701166919155
 20
-0.13
 30
0.0
 11
-0.3154318028072347
 21
-0.1516666666666666
 31
0.0
  0
LINE
  5
4D
330
42
100
AcDbEntity
  8
ASHADE
  6
Continuous
 62
     7
100
AcDbLine
 10
-0.2041413561583015
 20
0.2198324514393849
 30
0.0
 11
-0.2721884748777353
 21
0.2931099352525131
 31
0.0
  0
LINE
  5
4E
330
42
100
AcDbEntity
  8
ASHADE
  6
Continuous
 62
     7
100
AcDbLine
 10
-0.1096591641591904
 20
0.2792398032442862
 30
0.0
 11
-0.1279356915190555
 21
0.3257797704516674
 31
0.0
  0
LINE
  5
4F
330
42
100
AcDbEntity
  8
ASHADE
  6
Continuous
 62
     7
100
AcDbLine
 10
0.2703701166919155
 20
-0.13
 30
0.0
 11
0.3154318028072347
 21
-0.1516666666666666
 31
0.0
  0
LINE
  5
50
330
42
100
AcDbEntity
  8
ASHADE
  6
Continuous
 62
     7
100
AcDbLine
 10
0.2703701166919155
 20
0.13
 30
0.0
 11
0.3154318028072347
 21
0.1516666666666666
 31
0.0
  0
LINE
  5
51
330
42
100
AcDbEntity
  8
ASHADE
  6
Continuous
 62
     7
100
AcDbLine
 10
0.0
 20
0.3
 30
0.0
 11
0.0
 21
0.4
 31
0.0
  0
ATTDEF
  5
52
330
42
100
AcDbEntity
  8
ASHADE
  6
Continuous
 62
     7
100
AcDbText
 10
0.0
 20
0.22
 30
0.0
 40
0.01
  1
1
100
AcDbAttributeDefinition
280
     0
  3
Light Intensity
  2
INTENSITY
 70
     1
280
     0
  0
ATTDEF
  5
53
330
42
100
AcDbEntity
  8
ASHADE
  6
Continuous
 62
     7
100
AcDbText
 10
0.0
 20
0.16
 30
0.0
 40
0.01
  1
-1
100
AcDbAttributeDefinition
280
     0
  3
*not used*
  2
BEAMD
 70
     1
280
     0
  0
ATTDEF
  5
54
330
42
100
AcDbEntity
  8
ASHADE
  6
Continuous
 62
     7
100
AcDbText
 10
0.0
 20
0.175
 30
0.0
 40
0.01
  1
-1
100
AcDbAttributeDefinition
280
     0
  3
*not used*
  2
CONED
 70
     1
280
     0
  0
ATTDEF
  5
55
330
42
100
AcDbEntity
  8
ASHADE
  6
Continuous
 62
     7
100
AcDbText
 10
0.0
 20
0.19
 30
0.0
 40
0.01
  1
0
100
AcDbAttributeDefinition
280
     0
  3
Depth Map Size
  2
CONEA
 70
     1
280
     0
  0
ATTDEF
  5
56
330
42
100
AcDbEntity
  8
ASHADE
  6
Continuous
 62
     7
100
AcDbText
 10
0.0
 20
0.2050000000000001
 30
0.0
 40
0.01
  1
1,1,1
100
AcDbAttributeDefinition
280
     0
  3
Light Color (RGB)
  2
COLOR
 70
     1
280
     0
  0
ATTDEF
  5
57
330
42
100
AcDbEntity
  8
ASHADE
  6
Continuous
 62
     7
100
AcDbText
 10
0.0
 20
0.235
 30
0.0
 40
0.01
  1

100
AcDbAttributeDefinition
280
     0
  3
Look-at Z
  2
LAZ
 70
     1
280
     0
  0
ATTDEF
  5
58
330
42
100
AcDbEntity
  8
ASHADE
  6
Continuous
 62
     7
100
AcDbText
 10
0.0
 20
0.25
 30
0.0
 40
0.01
  1

100
AcDbAttributeDefinition
280
     0
  3
Look-at Y
  2
LAY
 70
     1
280
     0
  0
ATTDEF
  5
59
330
42
100
AcDbEntity
  8
ASHADE
  6
Continuous
 62
     7
100
AcDbText
 10
0.0
 20
0.265
 30
0.0
 40
0.01
  1

100
AcDbAttributeDefinition
280
     0
  3
Look-at X
  2
LAX
 70
     1
280
     0
  0
ATTDEF
  5
5A
330
42
100
AcDbEntity
  8
ASHADE
  6
Continuous
 62
     7
100
AcDbText
 10
0.0
 20
0.28
 30
0.0
 40
0.01
  1

100
AcDbAttributeDefinition
280
     0
  3

  2
GNAME
 70
     1
280
     0
  0
LINE
  5
5B
330
42
100
AcDbEntity
  8
ASHADE
  6
Continuous
 62
     7
100
AcDbLine
 10
0.1096591641591904
 20
0.2792398032442862
 30
0.0
 11
0.1279356915190555
 21
0.3257797704516674
 31
0.0
  0
LINE
  5
5C
330
42
100
AcDbEntity
  8
ASHADE
  6
Continuous
 62
     7
100
AcDbLine
 10
0.2041413561583015
 20
0.2198324514393849
 30
0.0
 11
0.2721884748777353
 21
0.2931099352525131
 31
0.0
  0
ENDBLK
  5
5E
330
42
100
AcDbEntity
  8
0
100
AcDbBlockEnd
  0
BLOCK
  5
85
330
5F
100
AcDbEntity
  8
0
100
AcDbBlockBegin
  2
sh_spot
 70
     2
 10
0.0
 20
0.0
 30
0.0
  3
sh_spot
  1

  0
LINE
  5
60
330
5F
100
AcDbEntity
  8
ASHADE
  6
Continuous
 62
     7
100
AcDbLine
 10
0.25
 20
0.26
 30
0.0
 11
-0.25
 21
0.26
 31
0.0
  0
LINE
  5
61
330
5F
100
AcDbEntity
  8
ASHADE
  6
Continuous
 62
     7
100
AcDbLine
 10
-0.25
 20
-0.3399999999999999
 30
0.0
 11
0.25
 21
-0.3399999999999999
 31
0.0
  0
ATTDEF
  5
62
330
5F
100
AcDbEntity
  8
ASHADE
  6
Continuous
 62
     1
100
AcDbText
 10
0.0
 20
-0.1
 30
0.0
 40
0.2
  1

  7
ASHADE
 72
     1
 11
0.0
 21
-0.1
 31
0.0
100
AcDbAttributeDefinition
280
     0
  3
Light Name
  2
SNAME
 70
     0
280
     0
  0
LINE
  5
63
330
5F
100
AcDbEntity
  8
ASHADE
  6
Continuous
 62
     7
100
AcDbLine
 10
-0.25
 20
-0.13
 30
0.0
 11
-0.25
 21
-0.3399999999999999
 31
0.0
  0
LINE
  5
64
330
5F
100
AcDbEntity
  8
ASHADE
  6
Continuous
 62
     7
100
AcDbLine
 10
-0.25
 20
-0.18
 30
0.0
 11
-0.29
 21
-0.18
 31
0.0
  0
LINE
  5
65
330
5F
100
AcDbEntity
  8
ASHADE
  6
Continuous
 62
     7
100
AcDbLine
 10
-0.29
 20
-0.22
 30
0.0
 11
-0.25
 21
-0.22
 31
0.0
  0
LINE
  5
66
330
5F
100
AcDbEntity
  8
ASHADE
  6
Continuous
 62
     7
100
AcDbLine
 10
-0.29
 20
-0.18
 30
0.0
 11
-0.29
 21
-0.22
 31
0.0
  0
LINE
  5
67
330
5F
100
AcDbEntity
  8
ASHADE
  6
Continuous
 62
     7
100
AcDbLine
 10
-0.1045454545454545
 20
0.26
 30
0.0
 11
-0.15
 21
0.46
 31
0.0
  0
LINE
  5
68
330
5F
100
AcDbEntity
  8
ASHADE
  6
Continuous
 62
     7
100
AcDbLine
 10
-0.21
 20
0.26
 30
0.0
 11
-0.301304347826087
 21
0.46
 31
0.0
  0
LINE
  5
69
330
5F
100
AcDbEntity
  8
ASHADE
  6
Continuous
 62
     7
100
AcDbLine
 10
-0.25
 20
0.26
 30
0.0
 11
-0.25
 21
0.13
 31
0.0
  0
LINE
  5
6A
330
5F
100
AcDbEntity
  8
ASHADE
  6
Continuous
 62
     7
100
AcDbLine
 10
-0.25
 20
0.22
 30
0.0
 11
-0.29
 21
0.22
 31
0.0
  0
LINE
  5
6B
330
5F
100
AcDbEntity
  8
ASHADE
  6
Continuous
 62
     7
100
AcDbLine
 10
-0.29
 20
0.1799999999999999
 30
0.0
 11
-0.25
 21
0.1799999999999999
 31
0.0
  0
LINE
  5
6C
330
5F
100
AcDbEntity
  8
ASHADE
  6
Continuous
 62
     7
100
AcDbLine
 10
-0.29
 20
0.22
 30
0.0
 11
-0.29
 21
0.1799999999999999
 31
0.0
  0
ATTDEF
  5
6D
330
5F
100
AcDbEntity
  8
ASHADE
  6
Continuous
 62
     7
100
AcDbText
 10
0.0
 20
-0.24
 30
0.0
 40
0.01
  1
0
100
AcDbAttributeDefinition
280
     0
  3
Depth Map Size
  2
ZSIZE
 70
     1
280
     0
  0
ATTDEF
  5
6E
330
5F
100
AcDbEntity
  8
ASHADE
  6
Continuous
 62
     7
100
AcDbText
 10
0.0
 20
-0.3300000000000001
 30
0.0
 40
0.01
  1
0,0,0
100
AcDbAttributeDefinition
280
     0
  3
Look-from XYZ
  2
LFXYZ
 70
     1
280
     0
  0
ATTDEF
  5
6F
330
5F
100
AcDbEntity
  8
ASHADE
  6
Continuous
 62
     7
100
AcDbText
 10
0.0
 20
-0.315
 30
0.0
 40
0.01
  1
0.0
100
AcDbAttributeDefinition
280
     0
  3
Beam Distribution
  2
BEAMDI
 70
     1
280
     0
  0
ATTDEF
  5
70
330
5F
100
AcDbEntity
  8
ASHADE
  6
Continuous
 62
     7
100
AcDbText
 10
0.0
 20
-0.3
 30
0.0
 40
0.01
  1
0.0
100
AcDbAttributeDefinition
280
     0
  3
Cone Delta
  2
CONEDE
 70
     1
280
     0
  0
ATTDEF
  5
71
330
5F
100
AcDbEntity
  8
ASHADE
  6
Continuous
 62
     7
100
AcDbText
 10
0.0
 20
-0.2850000000000001
 30
0.0
 40
0.01
  1
10.0
100
AcDbAttributeDefinition
280
     0
  3
Cone Angle
  2
CONEAN
 70
     1
280
     0
  0
ATTDEF
  5
72
330
5F
100
AcDbEntity
  8
ASHADE
  6
Continuous
 62
     7
100
AcDbText
 10
0.0
 20
-0.27
 30
0.0
 40
0.01
  1
-1
100
AcDbAttributeDefinition
280
     0
  3
*not used*
  2
BIASMAX
 70
     1
280
     0
  0
ATTDEF
  5
73
330
5F
100
AcDbEntity
  8
ASHADE
  6
Continuous
 62
     7
100
AcDbText
 10
0.0
 20
-0.255
 30
0.0
 40
0.01
  1
-1
100
AcDbAttributeDefinition
280
     0
  3
*not used*
  2
BIASMIN
 70
     1
280
     0
  0
ATTDEF
  5
74
330
5F
100
AcDbEntity
  8
ASHADE
  6
Continuous
 62
     7
100
AcDbText
 10
0.0
 20
-0.225
 30
0.0
 40
0.01
  1
1,1,1
100
AcDbAttributeDefinition
280
     0
  3
Light Color (RGB)
  2
COLOR
 70
     1
280
     0
  0
ATTDEF
  5
75
330
5F
100
AcDbEntity
  8
ASHADE
  6
Continuous
 62
     7
100
AcDbText
 10
0.0
 20
-0.21
 30
0.0
 40
0.01
  1
1
100
AcDbAttributeDefinition
280
     0
  3
Light Intensity
  2
INTENSITY
 70
     1
280
     0
  0
ATTDEF
  5
76
330
5F
100
AcDbEntity
  8
ASHADE
  6
Continuous
 62
     7
100
AcDbText
 10
0.0
 20
-0.15
 30
0.0
 40
0.01
  1

100
AcDbAttributeDefinition
280
     0
  3

  2
GNAME
 70
     1
280
     0
  0
ATTDEF
  5
77
330
5F
100
AcDbEntity
  8
ASHADE
  6
Continuous
 62
     7
100
AcDbText
 10
0.0
 20
-0.195
 30
0.0
 40
0.01
  1

100
AcDbAttributeDefinition
280
     0
  3
Look-at Z
  2
LAZ
 70
     1
280
     0
  0
ATTDEF
  5
78
330
5F
100
AcDbEntity
  8
ASHADE
  6
Continuous
 62
     7
100
AcDbText
 10
0.0
 20
-0.18
 30
0.0
 40
0.01
  1

100
AcDbAttributeDefinition
280
     0
  3
Look-at Y
  2
LAY
 70
     1
280
     0
  0
ATTDEF
  5
79
330
5F
100
AcDbEntity
  8
ASHADE
  6
Continuous
 62
     7
100
AcDbText
 10
0.0
 20
-0.165
 30
0.0
 40
0.01
  1

100
AcDbAttributeDefinition
280
     0
  3
Look-at X
  2
LAX
 70
     1
280
     0
  0
LINE
  5
7A
330
5F
100
AcDbEntity
  8
ASHADE
  6
Continuous
 62
     7
100
AcDbLine
 10
0.25
 20
-0.3399999999999999
 30
0.0
 11
0.25
 21
-0.13
 31
0.0
  0
LINE
  5
7B
330
5F
100
AcDbEntity
  8
ASHADE
  6
Continuous
 62
     7
100
AcDbLine
 10
0.25
 20
-0.18
 30
0.0
 11
0.29
 21
-0.18
 31
0.0
  0
LINE
  5
7C
330
5F
100
AcDbEntity
  8
ASHADE
  6
Continuous
 62
     7
100
AcDbLine
 10
0.29
 20
-0.22
 30
0.0
 11
0.25
 21
-0.22
 31
0.0
  0
LINE
  5
7D
330
5F
100
AcDbEntity
  8
ASHADE
  6
Continuous
 62
     7
100
AcDbLine
 10
0.29
 20
-0.18
 30
0.0
 11
0.29
 21
-0.22
 31
0.0
  0
LINE
  5
7E
330
5F
100
AcDbEntity
  8
ASHADE
  6
Continuous
 62
     7
100
AcDbLine
 10
0.21
 20
0.26
 30
0.0
 11
0.301304347826087
 21
0.46
 31
0.0
  0
LINE
  5
7F
330
5F
100
AcDbEntity
  8
ASHADE
  6
Continuous
 62
     7
100
AcDbLine
 10
0.1045454545454545
 20
0.26
 30
0.0
 11
0.15
 21
0.46
 31
0.0
  0
LINE
  5
80
330
5F
100
AcDbEntity
  8
ASHADE
  6
Continuous
 62
     7
100
AcDbLine
 10
0.0
 20
0.26
 30
0.0
 11
0.0
 21
0.46
 31
0.0
  0
LINE
  5
81
330
5F
100
AcDbEntity
  8
ASHADE
  6
Continuous
 62
     7
100
AcDbLine
 10
0.25
 20
0.13
 30
0.0
 11
0.25
 21
0.26
 31
0.0
  0
LINE
  5
82
330
5F
100
AcDbEntity
  8
ASHADE
  6
Continuous
 62
     7
100
AcDbLine
 10
0.25
 20
0.22
 30
0.0
 11
0.29
 21
0.22
 31
0.0
  0
LINE
  5
83
330
5F
100
AcDbEntity
  8
ASHADE
  6
Continuous
 62
     7
100
AcDbLine
 10
0.29
 20
0.1799999999999999
 30
0.0
 11
0.25
 21
0.1799999999999999
 31
0.0
  0
LINE
  5
84
330
5F
100
AcDbEntity
  8
ASHADE
  6
Continuous
 62
     7
100
AcDbLine
 10
0.29
 20
0.22
 30
0.0
 11
0.29
 21
0.1799999999999999
 31
0.0
  0
ENDBLK
  5
86
330
5F
100
AcDbEntity
  8
0
100
AcDbBlockEnd
  0
BLOCK
  5
92
330
91
100
AcDbEntity
  8
ASHADE
100
AcDbBlockBegin
  2
AVE_RENDER
 70
     0
 10
0.0
 20
0.0
 30
0.0
  3
AVE_RENDER
  1
AVE_RENDER
  0
ENDBLK
  5
93
330
91
100
AcDbEntity
  8
0
100
AcDbBlockEnd
  0
BLOCK
  5
A0
330
9F
100
AcDbEntity
  8
ASHADE
100
AcDbBlockBegin
  2
AVE_GLOBAL
 70
     0
 10
0.0
 20
0.0
 30
0.0
  3
AVE_GLOBAL
  1
AVE_GLOBAL
  0
ENDBLK
  5
A1
330
9F
100
AcDbEntity
  8
0
100
AcDbBlockEnd
  0
ENDSEC
  0
SECTION
  2
ENTITIES
  0
INSERT
  5
94
330
1F
100
AcDbEntity
  8
ASHADE
 62
     1
100
AcDbBlockReference
  2
AVE_RENDER
 10
0.0
 20
0.0
 30
0.0
1001
AVE_RENDER
1002
{
1070
     7
1000
Pref
1070
    30
1070
    20
1070
     1
1070
     0
1000

1070
    10
1070
     1
1070
    10
1040
1.0
1070
     1
1040
0.3
1040
0.7
1040
0.0
1040
10.0
1010
-1.0
1020
-1.0
1030
-1.0
1040
0.3
1070
    49
1070
     0
1070
     0
1010
1.0
1020
1.0
1030
1.0
1040
45.0
1070
     1
1070
     0
1000
WCS
1040
0.0
1070
     0
1040
10.0
1002
}
  0
INSERT
  5
95
330
1F
100
AcDbEntity
  8
ASHADE
 62
     3
100
AcDbBlockReference
  2
AVE_RENDER
 10
0.0
 20
0.0
 30
0.0
1001
AVE_RENDER
1002
{
1070
     0
1000
Full Opt
1070
     0
1070
     1
1070
     1
1070
     1
1070
     0
1070
     0
1070
     0
1070
     1
1070
     1
1040
0.0001
1040
0.0001
1002
}
  0
INSERT
  5
96
330
1F
100
AcDbEntity
  8
ASHADE
 62
     4
100
AcDbBlockReference
  2
AVE_RENDER
 10
0.0
 20
0.0
 30
0.0
1001
AVE_RENDER
1002
{
1070
     0
1000
Quick Opt
1070
     0
1070
     1
1070
     1
1070
     1
1070
     0
1070
     0
1070
     1
1002
}
  0
INSERT
  5
97
330
1F
100
AcDbEntity
  8
ASHADE
 62
     5
100
AcDbBlockReference
  2
AVE_RENDER
 10
0.0
 20
0.0
 30
0.0
1001
AVE_RENDER
1002
{
1070
     1
1000
Scanl Opt
1070
     2
1070
     0
1070
     2
1040
2.0
1040
4.0
1070
     0
1070
     1
1070
     0
1040
0.03
1002
}
  0
INSERT
  5
98
330
1F
100
AcDbEntity
  8
ASHADE
 62
     6
100
AcDbBlockReference
  2
AVE_RENDER
 10
0.0
 20
0.0
 30
0.0
1001
AVE_RENDER
1002
{
1070
     2
1000
Raytr Opt
1070
     2
1070
     0
1070
     2
1040
2.0
1040
4.0
1070
     0
1070
     1
1070
     1
1040
0.03
1070
     3
1040
0.03
1002
}
  0
INSERT
  5
99
330
1F
100
AcDbEntity
  8
ASHADE
 62
     7
100
AcDbBlockReference
  2
AVE_RENDER
 10
0.0
 20
0.0
 30
0.0
1001
AVE_RENDER
1002
{
1070
     0
1000
RFile Opt
1070
     1
1070
   640
1070
   480
1070
 10000
1070
     1
1070
     8
1070
     8
1070
     0
1070
     0
1070
     0
1070
     0
1070
     0
1070
     0
1070
     0
1002
}
  0
INSERT
  5
9A
330
1F
100
AcDbEntity
  8
ASHADE
 62
     8
100
AcDbBlockReference
  2
AVE_RENDER
 10
0.0
 20
0.0
 30
0.0
1001
AVE_RENDER
1002
{
1070
     0
1000
Fog Opt
1070
     0
1070
     0
1040
0.0
1040
1.0
1040
0.0
1040
1.0
1010
0.5
1020
0.5
1030
0.5
1002
}
  0
INSERT
  5
9B
330
1F
100
AcDbEntity
  8
ASHADE
 62
     9
100
AcDbBlockReference
  2
AVE_RENDER
 10
0.0
 20
0.0
 30
0.0
1001
AVE_RENDER
1002
{
1070
     0
1000
BG Opt
1070
     0
1070
     1
1010
0.0
1020
0.0
1030
0.0
1010
1.0
1020
0.0
1030
0.0
1010
0.0
1020
1.0
1030
0.0
1010
0.0
1020
0.0
1030
1.0
1040
0.5
1040
0.33
1040
0.0
1000

1070
     1
1000

1070
     1
1070
     1
1040
1.0
1040
1.0
1040
0.0
1040
0.0
1070
     0
1002
}
  0
INSERT
  5
A2
330
1F
100
AcDbEntity
  8
ASHADE
 62
     1
100
AcDbBlockReference
  2
AVE_GLOBAL
 10
0.0
 20
0.0
 30
0.0
1001
AVE_MATERIAL
1002
{
1000
*GLOBAL*
1000
2
1000
Global finish.
1002
{
1002
}
1002
{
1070
    63
1002
{
1002
{
1010
-1.0
1020
-1.0
1030
-1.0
1002
}
1040
0.1000000014901161
1000

1040
0.0
1002
{
1002
}
1040
0.0
1002
{
1002
}
1040
0.0
1002
}
1002
{
1002
{
1010
-1.0
1020
-1.0
1030
-1.0
1002
}
1040
0.6999999880790711
1000

1040
0.0
1002
{
1002
}
1040
0.0
1002
{
1002
}
1040
0.0
1002
}
1002
{
1002
{
1010
-1.0
1020
-1.0
1030
-1.0
1002
}
1040
0.2000000029802322
1000

1040
0.0
1002
{
1002
}
1040
0.0
1002
{
1002
}
1040
0.0
1002
}
1002
{
1070
     0
1002
{
1070
     1
1002
{
1040
1.0
1040
1.0
1000

1040
0.0
1002
{
1002
}
1040
0.0
1002
{
1002
}
1040
0.0
1002
}
1002
}
1040
1.0
1040
0.0
1040
0.0
1002
}
1002
{
1040
1.0
1040
1.0
1000

1040
0.0
1002
{
1002
}
1040
0.0
1002
{
1002
}
1040
0.0
1002
}
1002
{
1040
0.5
1040
1.0
1000

1040
0.0
1002
{
1002
}
1040
0.0
1002
{
1002
}
1040
0.0
1002
}
1002
{
1070
     0
1040
0.0
1002
{
1002
}
1040
1.0
1002
{
1002
}
1040
0.0
1002
}
1002
{
1040
0.0
1002
{
1002
{
1010
0.0
1020
0.0
1030
0.0
1002
}
1040
1.0
1000

1040
0.0
1002
{
1002
}
1040
0.0
1002
{
1002
}
1040
0.0
1002
}
1002
}
1002
{
1002
{
1070
     1
1002
{
1040
0.0
1040
1.0
1000

1040
0.0
1002
{
1002
}
1040
0.0
1002
{
1002
}
1040
0.0
1002
}
1002
}
1040
0.0
1002
{
1002
}
1010
1.0
1020
0.0
1030
0.0
1010
0.0
1020
1.0
1030
0.0
1010
0.0
1020
0.0
1030
1.0
1070
     0
1002
}
1002
{
1002
{
1040
1.0
1040
1.0
1002
{
1070
     1
1002
{
1040
1.0
1040
1.0
1000

1040
0.0
1002
{
1002
}
1040
0.0
1002
{
1002
}
1040
0.0
1002
}
1002
}
1002
}
1070
     0
1040
0.0
1002
{
1002
}
1002
}
1002
{
1002
}
1002
}
1002
{
1071
        3
1070
     3
1070
     0
1002
{
1070
     2
1070
     0
1070
     0
1040
0.0
1002
}
1070
     0
1070
     2
1002
{
1002
}
1002
}
1002
{
1040
8030.0
1040
190.3000030517578
1040
0.3050000071525574
1040
228.0
1040
545.0
1040
14.0
1040
17.39999961853027
1040
0.4560000002384186
1002
}
1002
}
  0
MESH
  5
F9
330
1F
100
AcDbEntity
  8
OracDecor_cornice_mouldings
 62
    74
420
  5812507
160
             30392
310
B87600004C0300000C00000013000000020000003C00000006000000020000000000008000408F40000000E0F2FF48C0000000000000C03E0000008000408F40000000C0844F46C0000000000000C03E0C000000130000000A0000003C00000006000000020000000000008000408F40000000C0844F46C0000000000000C0
310
3E0000000000408FC000000060834F46C0000000000000083F0C00000013000000120000003C00000006000000020000000000000000408FC000000060F1FF48C0000000000000083F0000000000408FC000000060834F46C0000000000000083F0C000000130000001A0000003C0000000600000002000000000000000040
310
8FC000000060F1FF48C0000000000000083F0000008000408F40000000E0F2FF48C0000000000000C03E0C00000013000000220000003C00000006000000020000000000008000408F4000000040AC3346C000000000E076DDBF0000008000408F40000000C0844F46C0000000000000C03E0C000000130000002A0000003C
310
00000006000000020000000000008000408F4000000040AC3346C000000000E076DDBF0000000000408FC0000000E0AA3346C0000000002076DDBF0C00000013000000320000003C00000006000000020000000000000000408FC000000060834F46C0000000000000083F0000000000408FC0000000E0AA3346C000000000
310
2076DDBF0C000000130000003A0000003C00000006000000020000000000008000408F400000008041F845C000000000F485EEBF0000008000408F4000000040AC3346C000000000E076DDBF0C00000013000000420000003C00000006000000020000000000008000408F400000008041F845C000000000F485EEBF000000
310
0000408FC00000000040F845C0000000009885EEBF0C000000130000004A0000003C00000006000000020000000000000000408FC0000000E0AA3346C0000000002076DDBF0000000000408FC00000000040F845C0000000009885EEBF0C00000013000000520000003C00000006000000020000000000008000408F400000
310
00009AA945C00000000046EBF3BF0000008000408F400000008041F845C000000000F485EEBF0C000000130000005A0000003C00000006000000020000000000008000408F40000000009AA945C00000000046EBF3BF0000000000408FC0000000A098A945C00000000018EBF3BF0C00000013000000620000003C00000006
310
000000020000000000000000408FC00000000040F845C0000000009885EEBF0000000000408FC0000000A098A945C00000000018EBF3BF0C000000130000006A0000003C00000006000000020000000000008000408F4000000080786845C0000000003C01F5BF0000008000408F40000000009AA945C00000000046EBF3BF
310
0C00000013000000720000003C00000006000000020000000000008000408F4000000080786845C0000000003C01F5BF0000000000408FC000000020776845C0000000000C01F5BF0C000000130000007A0000003C00000006000000020000000000000000408FC0000000A098A945C00000000018EBF3BF0000000000408F
310
C000000020776845C0000000000C01F5BF0C00000013000000820000003C00000006000000020000000000008000408F4000000040CA3C45C0000000005860F4BF0000008000408F4000000080786845C0000000003C01F5BF0C000000130000008A0000003C00000006000000020000000000008000408F4000000040CA3C
310
45C0000000005860F4BF0000000000408FC0000000E0C83C45C0000000002860F4BF0C00000013000000920000003C00000006000000020000000000000000408FC000000020776845C0000000000C01F5BF0000000000408FC0000000E0C83C45C0000000002860F4BF0C000000130000009A0000003C0000000600000002
310
0000000000008000408F4000000040CA3C45C0000000005860F4BF0000008000408F40000000C0233642C0000000000000C03E0C00000013000000A20000003C00000006000000020000000000008000408F40000000C0233642C0000000000000C03E0000000000408FC000000060223642C0000000000000083F0C000000
310
13000000AA0000003C00000006000000020000000000000000408FC0000000E0C83C45C0000000002860F4BF0000000000408FC000000060223642C0000000000000083F0C00000013000000B20000003C00000006000000020000000000008000408F400000004073973DC0000000000000C03E0000008000408F40000000
310
C0233642C0000000000000C03E0C00000013000000BA0000003C00000006000000020000000000008000408F400000004073973DC0000000000000C03E0000000000408FC00000006070973DC0000000000000083F0C00000013000000C20000003C00000006000000020000000000000000408FC00000006070973DC00000
310
00000000083F0000000000408FC000000060223642C0000000000000083F0C00000013000000CA0000003C00000006000000020000000000008000408F400000004073973DC0000000000000C03E0000008000408F40000000000000B0BE000000803C133CC00C00000013000000D20000003C000000060000000200000000
310
00000000408FC0000000000000073F0000008039133CC00000008000408F40000000000000B0BE000000803C133CC00C00000013000000DA0000003C00000006000000020000000000000000408FC00000006070973DC0000000000000083F0000000000408FC0000000000000073F0000008039133CC00C00000013000000
310
E20000003C00000006000000020000000000008000408F40000000000000B0BE000000803C133CC00000008000408F40000000000000B0BE00000020642C41C00C00000013000000EA0000003C00000006000000020000000000008000408F40000000000000B0BE00000020642C41C00000000000408FC000000000000007
310
3F000000A0622C41C00C00000013000000F20000003C00000006000000020000000000000000408FC0000000000000073F0000008039133CC00000000000408FC0000000000000073F000000A0622C41C00C00000013000000FA0000003C00000006000000020000000000008000408F40000000000000B0BE00000020642C
310
41C00000008000408F400000000064D1D7BF000000208F4141C00C00000013000000020100003C00000006000000020000000000000000408FC000000000A8D0D7BF000000A08D4141C00000008000408F400000000064D1D7BF000000208F4141C00C000000130000000A0100003C00000006000000020000000000000000
310
408FC0000000000000073F000000A0622C41C00000000000408FC000000000A8D0D7BF000000A08D4141C00C00000013000000120100003C00000006000000020000000000008000408F40000000002E77EDBF000000607A7C41C00000008000408F400000000064D1D7BF000000208F4141C00C000000130000001A010000
310
3C00000006000000020000000000000000408FC000000000D076EDBF000000E0787C41C00000008000408F40000000002E77EDBF000000607A7C41C00C00000013000000220100003C00000006000000020000000000000000408FC000000000A8D0D7BF000000A08D4141C00000000000408FC000000000D076EDBF000000
310
E0787C41C00C000000130000002A0100003C00000006000000020000000000008000408F40000000009FF4F3BF00000060B0CD41C00000008000408F40000000002E77EDBF000000607A7C41C00C00000013000000320100003C00000006000000020000000000000000408FC00000000072F4F3BF000000E0AECD41C00000
310
008000408F40000000009FF4F3BF00000060B0CD41C00C000000130000003A0100003C00000006000000020000000000000000408FC000000000D076EDBF000000E0787C41C00000000000408FC00000000072F4F3BF000000E0AECD41C00C00000013000000420100003C00000006000000020000000000008000408F4000
310
0000008CCFF4BF000000A0932842C00000008000408F40000000009FF4F3BF00000060B0CD41C00C000000130000004A0100003C00000006000000020000000000000000408FC0000000005ECFF4BF00000020922842C00000008000408F40000000008CCFF4BF000000A0932842C00C00000013000000520100003C000000
310
06000000020000000000000000408FC00000000072F4F3BF000000E0AECD41C00000000000408FC0000000005ECFF4BF00000020922842C00C000000130000005A0100003C00000006000000020000000000008000408F40000000005E2AF1BF00000080057F42C00000008000408F40000000008CCFF4BF000000A0932842
310
C00C00000013000000620100003C00000006000000020000000000000000408FC000000000302AF1BF00000020047F42C00000008000408F40000000005E2AF1BF00000080057F42C00C000000130000006A0100003C00000006000000020000000000000000408FC0000000005ECFF4BF00000020922842C0000000000040
310
8FC000000000302AF1BF00000020047F42C00C00000013000000720100003C00000006000000020000000000008000408F4000000000082CE3BF0000004099C342C00000008000408F40000000005E2AF1BF00000080057F42C00C000000130000007A0100003C00000006000000020000000000000000408FC000000000AC
310
2BE3BF000000C097C342C00000008000408F4000000000082CE3BF0000004099C342C00C00000013000000820100003C00000006000000020000000000000000408FC000000000302AF1BF00000020047F42C00000000000408FC000000000AC2BE3BF000000C097C342C00C000000130000008A0100003C00000006000000
310
020000000000008000408F40000000000000B0BE0000006092EB42C00000008000408F4000000000082CE3BF0000004099C342C00C00000013000000920100003C00000006000000020000000000000000408FC0000000000000073F000000E090EB42C00000008000408F40000000000000B0BE0000006092EB42C00C0000
310
00130000009A0100003C00000006000000020000000000000000408FC000000000AC2BE3BF000000C097C342C00000000000408FC0000000000000073F000000E090EB42C00C00000013000000A20100003C00000006000000020000000000008000408F40000000000000B0BE00000080E9AE45C00000008000408F400000
310
00000000B0BE0000006092EB42C00C00000013000000AA0100003C00000006000000020000000000008000408F40000000000000B0BE00000080E9AE45C00000000000408FC0000000000000073F00000000E8AE45C00C00000013000000B20100003C00000006000000020000000000000000408FC0000000000000073F00
310
000000E8AE45C00000000000408FC0000000000000073F000000E090EB42C00C00000013000000BA0100003C00000006000000020000000000008000408F40000000A0726814C00000008064DC46C00000008000408F40000000000000B0BE00000080E9AE45C00C00000013000000C20100003C0000000600000002000000
310
0000008000408F40000000A0726814C00000008064DC46C00000000000408FC000000040676814C00000002063DC46C00C00000013000000CA0100003C00000006000000020000000000000000408FC000000040676814C00000002063DC46C00000000000408FC0000000000000073F00000000E8AE45C00C000000130000
310
00D20100003C00000006000000020000000000008000408F40000000A0726814C00000008064DC46C00000008000408F40000000A0726814C000000080A76F52C00C00000013000000DA0100003C00000006000000020000000000000000408FC000000040676814C0000000C0A66F52C00000008000408F40000000A07268
310
14C000000080A76F52C00C00000013000000E20100003C00000006000000020000000000000000408FC000000040676814C00000002063DC46C00000000000408FC000000040676814C0000000C0A66F52C00C00000013000000EA0100003C00000006000000020000000000008000408F40000000A0726814C000000080A7
310
6F52C00000008000408F40000000000000B0BE00000040EBB253C00C00000013000000F20100003C00000006000000020000000000000000408FC0000000000000073F00000060EAB253C00000008000408F40000000000000B0BE00000040EBB253C00C00000013000000FA0100003C000000060000000200000000000000
310
00408FC000000040676814C0000000C0A66F52C00000000000408FC0000000000000073F00000060EAB253C00C00000013000000020200003C00000006000000020000000000008000408F40000000000000B0BE00000040EBB253C00000008000408F40000000000000B0BE000000C0A6C955C00C000000130000000A0200
310
003C00000006000000020000000000008000408F40000000000000B0BE000000C0A6C955C00000000000408FC0000000000000073F00000000A6C955C00C00000013000000120200003C00000006000000020000000000000000408FC0000000000000073F00000060EAB253C00000000000408FC0000000000000073F0000
310
0000A6C955C00C000000130000001A0200003C00000006000000020000000000008000408F400000000064D1D7BF000000403CD455C00000008000408F40000000000000B0BE000000C0A6C955C00C00000013000000220200003C00000006000000020000000000008000408F400000000064D1D7BF000000403CD455C000
310
00000000408FC000000000A8D0D7BF000000803BD455C00C000000130000002A0200003C00000006000000020000000000000000408FC0000000000000073F00000000A6C955C00000000000408FC000000000A8D0D7BF000000803BD455C00C00000013000000320200003C00000006000000020000000000008000408F40
310
000000002E77EDBF000000E0B1F155C00000008000408F400000000064D1D7BF000000403CD455C00C000000130000003A0200003C00000006000000020000000000008000408F40000000002E77EDBF000000E0B1F155C00000000000408FC000000000D076EDBF00000000B1F155C00C00000013000000420200003C0000
310
0006000000020000000000000000408FC000000000A8D0D7BF000000803BD455C00000000000408FC000000000D076EDBF00000000B1F155C00C000000130000004A0200003C00000006000000020000000000008000408F40000000009FF4F3BF000000004D1A56C00000008000408F40000000002E77EDBF000000E0B1F1
310
55C00C00000013000000520200003C00000006000000020000000000008000408F40000000009FF4F3BF000000004D1A56C00000000000408FC00000000072F4F3BF000000204C1A56C00C000000130000005A0200003C00000006000000020000000000000000408FC000000000D076EDBF00000000B1F155C00000000000
310
408FC00000000072F4F3BF000000204C1A56C00C00000013000000620200003C00000006000000020000000000008000408F40000000008CCFF4BF00000080BE4756C00000008000408F40000000009FF4F3BF000000004D1A56C00C000000130000006A0200003C00000006000000020000000000008000408F4000000000
310
8CCFF4BF00000080BE4756C00000000000408FC0000000005ECFF4BF000000C0BD4756C00C00000013000000720200003C00000006000000020000000000000000408FC00000000072F4F3BF000000204C1A56C00000000000408FC0000000005ECFF4BF000000C0BD4756C00C000000130000007A0200003C000000060000
310
00020000000000008000408F40000000005E2AF1BF00000080F77256C00000008000408F40000000008CCFF4BF00000080BE4756C00C00000013000000820200003C00000006000000020000000000008000408F40000000005E2AF1BF00000080F77256C00000000000408FC000000000302AF1BF000000C0F67256C00C00
310
0000130000008A0200003C00000006000000020000000000000000408FC0000000005ECFF4BF000000C0BD4756C00000000000408FC000000000302AF1BF000000C0F67256C00C00000013000000920200003C00000006000000020000000000008000408F4000000000082CE3BF00000040419556C00000008000408F4000
310
0000005E2AF1BF00000080F77256C00C000000130000009A0200003C00000006000000020000000000008000408F4000000000082CE3BF00000040419556C00000000000408FC000000000AC2BE3BF00000080409556C00C00000013000000A20200003C00000006000000020000000000000000408FC000000000302AF1BF
310
000000C0F67256C00000000000408FC000000000AC2BE3BF00000080409556C00C00000013000000AA0200003C00000006000000020000000000008000408F40000000000000B0BE000000C03DA956C00000008000408F4000000000082CE3BF00000040419556C00C00000013000000B20200003C00000006000000020000
310
000000008000408F40000000000000B0BE000000C03DA956C00000000000408FC0000000000000073F000000203DA956C00C00000013000000BA0200003C00000006000000020000000000000000408FC000000000AC2BE3BF00000080409556C00000000000408FC0000000000000073F000000203DA956C00C0000001300
310
0000C20200003C00000006000000020000000000008000408F40000000000000B0BE00000080F9BF58C00000008000408F40000000000000B0BE000000C03DA956C00C00000013000000CA0200003C00000006000000020000000000008000408F40000000000000B0BE00000080F9BF58C00000000000408FC00000000000
310
00073F000000C0F8BF58C00C00000013000000D20200003C00000006000000020000000000000000408FC0000000000000073F000000C0F8BF58C00000000000408FC0000000000000073F000000203DA956C00C00000013000000DA0200003C00000006000000020000000000008000408F40000000000000B0BE00000080
310
F9BF58C00000008000408F40000000003A921CC000000080F9BF58C00C00000013000000E20200003C00000006000000020000000000000000408FC0000000802E921CC0000000C0F8BF58C00000008000408F40000000003A921CC000000080F9BF58C00C00000013000000EA0200003C0000000600000002000000000000
310
0000408FC0000000000000073F000000C0F8BF58C00000000000408FC0000000802E921CC0000000C0F8BF58C00C00000013000000F20200003C00000006000000020000000000008000408F40000000003A921CC000000080F9BF58C00000008000408F400000008045571EC000000080EC9158C00C00000013000000FA02
310
00003C00000006000000020000000000000000408FC0000000003A571EC0000000C0EB9158C00000008000408F400000008045571EC000000080EC9158C00C00000013000000020300003C00000006000000020000000000000000408FC0000000802E921CC0000000C0F8BF58C00000000000408FC0000000003A571EC000
310
0000C0EB9158C00C000000130000000A0300003C00000006000000020000000000008000408F4000000020596020C0000000001D5A58C00000008000408F400000008045571EC000000080EC9158C00C00000013000000120300003C00000006000000020000000000000000408FC000000060536020C0000000401C5A58C0
310
0000008000408F4000000020596020C0000000001D5A58C00C000000130000001A0300003C00000006000000020000000000000000408FC0000000003A571EC0000000C0EB9158C00000000000408FC000000060536020C0000000401C5A58C00C00000013000000220300003C00000006000000020000000000008000408F
310
400000006035F421C000000080C41B58C00000008000408F4000000020596020C0000000001D5A58C00C000000130000002A0300003C00000006000000020000000000000000408FC0000000A02FF421C0000000E0C31B58C00000008000408F400000006035F421C000000080C41B58C00C00000013000000320300003C00
310
000006000000020000000000000000408FC000000060536020C0000000401C5A58C00000000000408FC0000000A02FF421C0000000E0C31B58C00C000000130000003A0300003C00000006000000020000000000008000408F40000000A0554D23C00000004087EE57C00000008000408F400000006035F421C000000080C4
310
1B58C00C00000013000000420300003C00000006000000020000000000000000408FC0000000E04F4D23C00000008086EE57C00000008000408F40000000A0554D23C00000004087EE57C00C000000130000004A0300003C00000006000000020000000000000000408FC0000000A02FF421C0000000E0C31B58C000000000
310
00408FC0000000E04F4D23C00000008086EE57C00C00000013000000520300003C00000006000000020000000000008000408F4000000020C4B424C0000000C0AEC557C00000008000408F40000000A0554D23C00000004087EE57C00C000000130000005A0300003C00000006000000020000000000000000408FC0000000
310
60BEB424C000000000AEC557C00000008000408F4000000020C4B424C0000000C0AEC557C00C00000013000000620300003C00000006000000020000000000000000408FC0000000E04F4D23C00000008086EE57C00000000000408FC000000060BEB424C000000000AEC557C00C000000130000006A0300003C0000000600
310
0000020000000000008000408F4000000040952526C0000000008EA157C00000008000408F4000000020C4B424C0000000C0AEC557C00C00000013000000720300003C00000006000000020000000000000000408FC0000000808F2526C0000000608DA157C00000008000408F4000000040952526C0000000008EA157C00C
310
000000130000007A0300003C00000006000000020000000000000000408FC000000060BEB424C000000000AEC557C00000000000408FC0000000808F2526C0000000608DA157C00C00000013000000820300003C00000006000000020000000000008000408F40000000C04CA627C000000080288157C00000008000408F40
310
00000040952526C0000000008EA157C00C000000130000008A0300003C00000006000000020000000000000000408FC00000000047A627C0000000C0278157C00000008000408F40000000C04CA627C000000080288157C00C00000013000000920300003C00000006000000020000000000000000408FC0000000808F2526
310
C0000000608DA157C00000000000408FC00000000047A627C0000000C0278157C00C000000130000009A0300003C00000006000000020000000000008000408F40000000A0803529C000000080826457C00000008000408F40000000C04CA627C000000080288157C00C00000013000000A20300003C000000060000000200
310
00000000000000408FC0000000E07A3529C0000000C0816457C00000008000408F40000000A0803529C000000080826457C00C00000013000000AA0300003C00000006000000020000000000000000408FC00000000047A627C0000000C0278157C00000000000408FC0000000E07A3529C0000000C0816457C00C00000013
310
000000B20300003C00000006000000020000000000008000408F40000000C0BBD62AC0000000C04A4B57C00000008000408F40000000A0803529C000000080826457C00C00000013000000BA0300003C00000006000000020000000000000000408FC000000020B6D62AC0000000204A4B57C00000008000408F40000000C0
310
BBD62AC0000000C04A4B57C00C00000013000000C20300003C00000006000000020000000000000000408FC0000000E07A3529C0000000C0816457C00000000000408FC000000020B6D62AC0000000204A4B57C00C00000013000000CA0300003C00000006000000020000000000008000408F400000008033862CC0000000
310
40A73557C00000008000408F40000000C0BBD62AC0000000C04A4B57C00C00000013000000D20300003C00000006000000020000000000000000408FC0000000C02D862CC000000080A63557C00000008000408F400000008033862CC000000040A73557C00C00000013000000DA0300003C00000006000000020000000000
310
000000408FC000000020B6D62AC0000000204A4B57C00000000000408FC0000000C02D862CC000000080A63557C00C00000013000000E20300003C00000006000000020000000000008000408F4000000080AF512EC0000000C0122357C00000008000408F400000008033862CC000000040A73557C00C00000013000000EA
310
0300003C00000006000000020000000000000000408FC0000000C0A9512EC000000000122357C00000008000408F4000000080AF512EC0000000C0122357C00C00000013000000F20300003C00000006000000020000000000000000408FC0000000C02D862CC000000080A63557C00000000000408FC0000000C0A9512EC0
310
00000000122357C00C00000013000000FA0300003C00000006000000020000000000008000408F4000000040E95C30C000000040821057C00000008000408F4000000080AF512EC0000000C0122357C00C00000013000000020400003C00000006000000020000000000000000408FC000000040E65C30C000000080811057
310
C00000008000408F4000000040E95C30C000000040821057C00C000000130000000A0400003C00000006000000020000000000000000408FC0000000C0A9512EC000000000122357C00000000000408FC000000040E65C30C000000080811057C00C00000013000000120400003C0000000600000002000000000000800040
310
8F40000000C0376231C000000020980557C00000008000408F4000000040E95C30C000000040821057C00C000000130000001A0400003C00000006000000020000000000000000408FC0000000E0346231C000000060970557C00000008000408F40000000C0376231C000000020980557C00C00000013000000220400003C
310
00000006000000020000000000000000408FC000000040E65C30C000000080811057C00000000000408FC0000000E0346231C000000060970557C00C000000130000002A0400003C00000006000000020000000000008000408F4000000080FB7C32C00000008067FE56C00000008000408F40000000C0376231C000000020
310
980557C00C00000013000000320400003C00000006000000020000000000000000408FC0000000A0F87C32C0000000C066FE56C00000008000408F4000000080FB7C32C00000008067FE56C00C000000130000003A0400003C00000006000000020000000000000000408FC0000000E0346231C000000060970557C0000000
310
0000408FC0000000A0F87C32C0000000C066FE56C00C00000013000000420400003C00000006000000020000000000008000408F40000000C0396333C00000008067FB56C00000008000408F4000000080FB7C32C00000008067FE56C00C000000130000004A0400003C00000006000000020000000000000000408FC00000
310
00E0366333C0000000E066FB56C00000008000408F40000000C0396333C00000008067FB56C00C00000013000000520400003C00000006000000020000000000000000408FC0000000A0F87C32C0000000C066FE56C00000000000408FC0000000E0366333C0000000E066FB56C00C000000130000005A0400003C00000006
310
000000020000000000008000408F40000000C0396333C00000008067FB56C00000008000408F40000000C0396333C0000000007D7755C00C00000013000000620400003C00000006000000020000000000000000408FC0000000E0366333C0000000207C7755C00000008000408F40000000C0396333C0000000007D7755C0
310
0C000000130000006A0400003C00000006000000020000000000000000408FC0000000E0366333C0000000E066FB56C00000000000408FC0000000E0366333C0000000207C7755C00C00000013000000720400003C00000006000000020000000000008000408F40000000C0396333C0000000007D7755C00000008000408F
310
400000000036BF33C000000040817655C00C000000130000007A0400003C00000006000000020000000000000000408FC00000002033BF33C000000060807655C00000008000408F400000000036BF33C000000040817655C00C00000013000000820400003C00000006000000020000000000000000408FC0000000E03663
310
33C0000000207C7755C00000000000408FC00000002033BF33C000000060807655C00C000000130000008A0400003C00000006000000020000000000008000408F4000000080E98134C0000000C0446F55C00000008000408F400000000036BF33C000000040817655C00C00000013000000920400003C0000000600000002
310
0000000000000000408FC0000000A0E68134C000000000446F55C00000008000408F4000000080E98134C0000000C0446F55C00C000000130000009A0400003C00000006000000020000000000000000408FC00000002033BF33C000000060807655C00000000000408FC0000000A0E68134C000000000446F55C00C000000
310
13000000A20400003C00000006000000020000000000008000408F40000000C0604A35C0000000C0CE5F55C00000008000408F4000000080E98134C0000000C0446F55C00C00000013000000AA0400003C00000006000000020000000000000000408FC0000000E05D4A35C000000000CE5F55C00000008000408F40000000
310
C0604A35C0000000C0CE5F55C00C00000013000000B20400003C00000006000000020000000000000000408FC0000000A0E68134C000000000446F55C00000000000408FC0000000E05D4A35C000000000CE5F55C00C00000013000000BA0400003C00000006000000020000000000008000408F40000000003F0636C00000
310
0000964855C00000008000408F40000000C0604A35C0000000C0CE5F55C00C00000013000000C20400003C00000006000000020000000000000000408FC0000000203C0636C000000040954855C00000008000408F40000000003F0636C000000000964855C00C00000013000000CA0400003C000000060000000200000000
310
00000000408FC0000000E05D4A35C000000000CE5F55C00000000000408FC0000000203C0636C000000040954855C00C00000013000000D20400003C00000006000000020000000000008000408F40000000C09CB036C000000080352A55C00000008000408F40000000003F0636C000000000964855C00C00000013000000
310
DA0400003C00000006000000020000000000000000408FC0000000E099B036C0000000C0342A55C00000008000408F40000000C09CB036C000000080352A55C00C00000013000000E20400003C00000006000000020000000000000000408FC0000000203C0636C000000040954855C00000000000408FC0000000E099B036
310
C0000000C0342A55C00C00000013000000EA0400003C00000006000000020000000000008000408F40000000001A4537C000000040750555C00000008000408F40000000C09CB036C000000080352A55C00C00000013000000F20400003C00000006000000020000000000000000408FC000000000174537C0000000807405
310
55C00000008000408F40000000001A4537C000000040750555C00C00000013000000FA0400003C00000006000000020000000000000000408FC0000000E099B036C0000000C0342A55C00000000000408FC000000000174537C000000080740555C00C00000013000000020500003C00000006000000020000000000008000
310
408F40000000A0D5BF37C0000000E04ADB54C00000008000408F40000000001A4537C000000040750555C00C000000130000000A0500003C00000006000000020000000000000000408FC0000000C0D2BF37C0000000004ADB54C00000008000408F40000000A0D5BF37C0000000E04ADB54C00C0000001300000012050000
310
3C00000006000000020000000000000000408FC000000000174537C000000080740555C00000000000408FC0000000C0D2BF37C0000000004ADB54C00C000000130000001A0500003C00000006000000020000000000008000408F4000000000A91D38C000000080CBAC54C00000008000408F40000000A0D5BF37C0000000
310
E04ADB54C00C00000013000000220500003C00000006000000020000000000000000408FC000000020A61D38C0000000A0CAAC54C00000008000408F4000000000A91D38C000000080CBAC54C00C000000130000002A0500003C00000006000000020000000000000000408FC0000000C0D2BF37C0000000004ADB54C00000
310
000000408FC000000020A61D38C0000000A0CAAC54C00C00000013000000320500003C00000006000000020000000000008000408F4000000080205C38C0000000002E7B54C00000008000408F4000000000A91D38C000000080CBAC54C00C000000130000003A0500003C00000006000000020000000000000000408FC000
310
0000A01D5C38C0000000202D7B54C00000008000408F4000000080205C38C0000000002E7B54C00C00000013000000420500003C00000006000000020000000000000000408FC000000020A61D38C0000000A0CAAC54C00000000000408FC0000000A01D5C38C0000000202D7B54C00C000000130000004A0500003C000000
310
06000000020000000000008000408F40000000E0A17938C0000000C0B84754C00000008000408F4000000080205C38C0000000002E7B54C00C00000013000000520500003C00000006000000020000000000000000408FC0000000009F7938C000000000B84754C00000008000408F40000000E0A17938C0000000C0B84754
310
C00C000000130000005A0500003C00000006000000020000000000000000408FC0000000A01D5C38C0000000202D7B54C00000000000408FC0000000009F7938C000000000B84754C00C00000013000000620500003C00000006000000020000000000008000408F4000000040677538C000000040C31354C0000000800040
310
8F40000000E0A17938C0000000C0B84754C00C000000130000006A0500003C00000006000000020000000000000000408FC000000040647538C000000060C21354C00000008000408F4000000040677538C000000040C31354C00C00000013000000720500003C00000006000000020000000000000000408FC0000000009F
310
7938C000000000B84754C00000000000408FC000000040647538C000000060C21354C00C000000130000007A0500003C00000006000000020000000000008000408F40000000808D4F38C000000080A4E053C00000008000408F4000000040677538C000000040C31354C00C00000013000000820500003C00000006000000
310
020000000000000000408FC0000000A08A4F38C0000000A0A3E053C00000008000408F40000000808D4F38C000000080A4E053C00C000000130000008A0500003C00000006000000020000000000000000408FC000000040647538C000000060C21354C00000000000408FC0000000A08A4F38C0000000A0A3E053C00C0000
310
0013000000920500003C00000006000000020000000000008000408F40000000200F0938C0000000C0AFAF53C00000008000408F40000000808D4F38C000000080A4E053C00C000000130000009A0500003C00000006000000020000000000000000408FC0000000400C0938C000000000AFAF53C00000008000408F400000
310
00200F0938C0000000C0AFAF53C00C00000013000000A20500003C00000006000000020000000000000000408FC0000000A08A4F38C0000000A0A3E053C00000000000408FC0000000400C0938C000000000AFAF53C00C00000013000000AA0500003C00000006000000020000000000008000408F4000000000C1A337C000
310
0000402A8253C00000008000408F40000000200F0938C0000000C0AFAF53C00C00000013000000B20500003C00000006000000020000000000000000408FC000000020BEA337C000000080298253C00000008000408F4000000000C1A337C0000000402A8253C00C00000013000000BA0500003C0000000600000002000000
310
0000000000408FC0000000400C0938C000000000AFAF53C00000000000408FC000000020BEA337C000000080298253C00C00000013000000C20500003C00000006000000020000000000008000408F40000000403F2237C0000000C0405953C00000008000408F4000000000C1A337C0000000402A8253C00C000000130000
310
00CA0500003C00000006000000020000000000000000408FC0000000603C2237C000000000405953C00000008000408F40000000403F2237C0000000C0405953C00C00000013000000D20500003C00000006000000020000000000000000408FC000000020BEA337C000000080298253C00000000000408FC0000000603C22
310
37C000000000405953C00C00000013000000DA0500003C00000006000000020000000000008000408F4000000080EA8736C0000000E0033653C00000008000408F40000000403F2237C0000000C0405953C00C00000013000000E20500003C00000006000000020000000000000000408FC0000000A0E78736C00000002003
310
3653C00000008000408F4000000080EA8736C0000000E0033653C00C00000013000000EA0500003C00000006000000020000000000000000408FC0000000603C2237C000000000405953C00000000000408FC0000000A0E78736C000000020033653C00C00000013000000F20500003C000000060000000200000000000080
310
00408F4000000020BAD835C0000000C05B1953C00000008000408F4000000080EA8736C0000000E0033653C00C00000013000000FA0500003C00000006000000020000000000000000408FC000000040B7D835C0000000E05A1953C00000008000408F4000000020BAD835C0000000C05B1953C00C00000013000000020600
310
003C00000006000000020000000000000000408FC0000000A0E78736C000000020033653C00000000000408FC000000040B7D835C0000000E05A1953C00C000000130000000A0600003C00000006000000020000000000008000408F4000000000411935C0000000A0070453C00000008000408F4000000020BAD835C00000
310
00C05B1953C00C00000013000000120600003C00000006000000020000000000000000408FC0000000203E1935C0000000C0060453C00000008000408F4000000000411935C0000000A0070453C00C000000130000001A0600003C00000006000000020000000000000000408FC000000040B7D835C0000000E05A1953C000
310
00000000408FC0000000203E1935C0000000C0060453C00C00000013000000220600003C00000006000000020000000000008000408F40000000006A4E34C00000000094F652C00000008000408F4000000000411935C0000000A0070453C00C000000130000002A0600003C00000006000000020000000000000000408FC0
310
00000020674E34C00000002093F652C00000008000408F40000000006A4E34C00000000094F652C00C00000013000000320600003C00000006000000020000000000000000408FC0000000203E1935C0000000C0060453C00000000000408FC000000020674E34C00000002093F652C00C000000130000003A0600003C0000
310
0006000000020000000000008000408F40000000C0396333C0000000C0F5F052C00000008000408F40000000006A4E34C00000000094F652C00C00000013000000420600003C00000006000000020000000000000000408FC0000000E0366333C000000000F5F052C00000008000408F40000000C0396333C0000000C0F5F0
310
52C00C000000130000004A0600003C00000006000000020000000000000000408FC000000020674E34C00000002093F652C00000000000408FC0000000E0366333C000000000F5F052C00C00000013000000520600003C00000006000000020000000000008000408F40000000C0396333C0000000C0F5F052C00000008000
310
408F40000000C0396333C000000040B2AD51C00C000000130000005A0600003C00000006000000020000000000000000408FC0000000E0366333C000000060B1AD51C00000008000408F40000000C0396333C000000040B2AD51C00C00000013000000620600003C00000006000000020000000000000000408FC0000000E0
310
366333C000000000F5F052C00000000000408FC0000000E0366333C000000060B1AD51C00C000000130000006A0600003C00000006000000020000000000008000408F40000000C0396333C000000040B2AD51C00000008000408F4000000020224332C0000000007A8B51C00C00000013000000720600003C000000060000
310
00020000000000000000408FC0000000401F4332C000000040798B51C00000008000408F4000000020224332C0000000007A8B51C00C000000130000007A0600003C00000006000000020000000000000000408FC0000000E0366333C000000060B1AD51C00000000000408FC0000000401F4332C000000040798B51C00C00
310
000013000000820600003C00000006000000020000000000008000408F40000000C013D830C000000000DD5151C00000008000408F4000000020224332C0000000007A8B51C00C000000130000008A0600003C00000006000000020000000000000000408FC0000000E010D830C000000020DC5151C00000008000408F4000
310
0000C013D830C000000000DD5151C00C00000013000000920600003C00000006000000020000000000000000408FC0000000401F4332C000000040798B51C00000000000408FC0000000E010D830C000000020DC5151C00C000000130000009A0600003C00000006000000020000000000008000408F40000000404B922FC0
310
00000040221251C00000008000408F40000000C013D830C000000000DD5151C00C00000013000000A20600003C00000006000000020000000000000000408FC00000008045922FC000000080211251C00000008000408F40000000404B922FC000000040221251C00C00000013000000AA0600003C00000006000000020000
310
000000000000408FC0000000E010D830C000000020DC5151C00000000000408FC00000008045922FC000000080211251C00C00000013000000B20600003C00000006000000020000000000008000408F40000000C0481D2EC0000000E06FD050C00000008000408F40000000404B922FC000000040221251C00C0000001300
310
0000BA0600003C00000006000000020000000000000000408FC000000000431D2EC0000000006FD050C00000008000408F40000000C0481D2EC0000000E06FD050C00C00000013000000C20600003C00000006000000020000000000000000408FC00000008045922FC000000080211251C00000000000408FC00000000043
310
1D2EC0000000006FD050C00C00000013000000CA0600003C00000006000000020000000000008000408F40000000A03C362DC000000020208E50C00000008000408F40000000C0481D2EC0000000E06FD050C00C00000013000000D20600003C00000006000000020000000000000000408FC0000000E036362DC000000040
310
1F8E50C00000008000408F40000000A03C362DC000000020208E50C00C00000013000000DA0600003C00000006000000020000000000000000408FC000000000431D2EC0000000006FD050C00000000000408FC0000000E036362DC0000000401F8E50C00C00000013000000E20600003C0000000600000002000000000000
310
8000408F40000000808CB52CC000000080F04650C00000008000408F40000000A03C362DC000000020208E50C00C00000013000000EA0600003C00000006000000020000000000000000408FC0000000C086B52CC0000000A0EF4650C00000008000408F40000000808CB52CC000000080F04650C00C00000013000000F206
310
00003C00000006000000020000000000000000408FC0000000E036362DC0000000401F8E50C00000000000408FC0000000C086B52CC0000000A0EF4650C00C00000013000000FA0600003C00000006000000020000000000008000408F40000000003A922CC000000000740950C00000008000408F40000000808CB52CC000
310
000080F04650C00C00000013000000020700003C00000006000000020000000000000000408FC00000006034922CC000000020730950C00000008000408F40000000003A922CC000000000740950C00C000000130000000A0700003C00000006000000020000000000000000408FC0000000C086B52CC0000000A0EF4650C0
310
0000000000408FC00000006034922CC000000020730950C00C00000013000000120700003C00000006000000020000000000008000408F40000000003A922CC000000000740950C00000008000408F40000000003A922CC00000000096C239C00C000000130000001A0700003C00000006000000020000000000000000408F
310
C00000006034922CC0000000E092C239C00000008000408F40000000003A922CC00000000096C239C00C00000013000000220700003C00000006000000020000000000000000408FC00000006034922CC000000020730950C00000000000408FC00000006034922CC0000000E092C239C00C000000130000002A0700003C00
310
000006000000020000000000008000408F40000000003A922CC00000000096C239C00000008000408F40000000801D7837C0000000C0F4F638C00C00000013000000320700003C00000006000000020000000000000000408FC0000000A01A7837C0000000A0F1F638C00000008000408F40000000801D7837C0000000C0F4
310
F638C00C000000130000003A0700003C00000006000000020000000000000000408FC00000006034922CC0000000E092C239C00000000000408FC0000000A01A7837C0000000A0F1F638C00C00000013000000420700003C00000006000000020000000000008000408F40000000801D7837C0000000C0F4F638C000000080
310
00408F40000000801D7837C000000040E6E933C00C000000130000004A0700003C00000006000000020000000000000000408FC0000000A01A7837C000000040E3E933C00000008000408F40000000801D7837C000000040E6E933C00C00000013000000520700003C00000006000000020000000000000000408FC0000000
310
A01A7837C0000000A0F1F638C00000000000408FC0000000A01A7837C000000040E3E933C00C000000130000005A0700003C00000006000000020000000000008000408F40000000801D7837C000000040E6E933C00000008000408F4000000040E95E38C0000000A032E433C00C00000013000000620700003C0000000600
310
0000020000000000000000408FC000000060E65E38C0000000C02FE433C00000008000408F4000000040E95E38C0000000A032E433C00C000000130000006A0700003C00000006000000020000000000000000408FC0000000A01A7837C000000040E3E933C00000000000408FC000000060E65E38C0000000C02FE433C00C
310
00000013000000720700003C00000006000000020000000000008000408F4000000040B78239C00000008066C133C00000008000408F4000000040E95E38C0000000A032E433C00C000000130000007A0700003C00000006000000020000000000000000408FC000000060B48239C00000008063C133C00000008000408F40
310
00000040B78239C00000008066C133C00C00000013000000820700003C00000006000000020000000000000000408FC000000060E65E38C0000000C02FE433C00000000000408FC000000060B48239C00000008063C133C00C000000130000008A0700003C00000006000000020000000000008000408F40000000407CDD3A
310
C0000000C0176933C00000008000408F4000000040B78239C00000008066C133C00C00000013000000920700003C00000006000000020000000000000000408FC00000008079DD3AC0000000C0146933C00000008000408F40000000407CDD3AC0000000C0176933C00C000000130000009A0700003C000000060000000200
310
00000000000000408FC000000060B48239C00000008063C133C00000000000408FC00000008079DD3AC0000000C0146933C00C00000013000000A20700003C00000006000000020000000000008000408F400000008060FD3BC0000000C0F6E732C00000008000408F40000000407CDD3AC0000000C0176933C00C00000013
310
000000AA0700003C00000006000000020000000000000000408FC0000000A05DFD3BC0000000C0F3E732C00000008000408F400000008060FD3BC0000000C0F6E732C00C00000013000000B20700003C00000006000000020000000000000000408FC00000008079DD3AC0000000C0146933C00000000000408FC0000000A0
310
5DFD3BC0000000C0F3E732C00C00000013000000BA0700003C00000006000000020000000000008000408F40000000C096F43CC0000000E0C54032C00000008000408F400000008060FD3BC0000000C0F6E732C00C00000013000000C20700003C00000006000000020000000000000000408FC0000000E093F43CC0000000
310
C0C24032C00000008000408F40000000C096F43CC0000000E0C54032C00C00000013000000CA0700003C00000006000000020000000000000000408FC0000000A05DFD3BC0000000C0F3E732C00000000000408FC0000000E093F43CC0000000C0C24032C00C00000013000000D20700003C00000006000000020000000000
310
008000408F400000000058D83DC0000000C00B6731C00000008000408F40000000C096F43CC0000000E0C54032C00C00000013000000DA0700003C00000006000000020000000000000000408FC00000004055D83DC0000000C0086731C00000008000408F400000000058D83DC0000000C00B6731C00C00000013000000E2
310
0700003C00000006000000020000000000000000408FC0000000E093F43CC0000000C0C24032C00000000000408FC00000004055D83DC0000000C0086731C00C00000013000000EA0700003C00000006000000020000000000008000408F40000000C065A43EC0000000A0E35F30C00000008000408F400000000058D83DC0
310
000000C00B6731C00C00000013000000F20700003C00000006000000020000000000000000408FC0000000E062A43EC0000000C0E05F30C00000008000408F40000000C065A43EC0000000A0E35F30C00C00000013000000FA0700003C00000006000000020000000000000000408FC00000004055D83DC0000000C0086731
310
C00000000000408FC0000000E062A43EC0000000C0E05F30C00C00000013000000020800003C00000006000000020000000000008000408F40000000C04A6B3FC00000004020232EC00000008000408F40000000C065A43EC0000000A0E35F30C00C000000130000000A0800003C0000000600000002000000000000000040
310
8FC0000000E0476B3FC0000000801A232EC00000008000408F40000000C04A6B3FC00000004020232EC00C00000013000000120800003C00000006000000020000000000000000408FC0000000E062A43EC0000000C0E05F30C00000000000408FC0000000E0476B3FC0000000801A232EC00C000000130000001A0800003C
310
00000006000000020000000000008000408F40000000C0BC1F40C00000004075F72AC00000008000408F40000000C04A6B3FC00000004020232EC00C00000013000000220800003C00000006000000020000000000000000408FC000000040BB1F40C0000000806FF72AC00000008000408F40000000C0BC1F40C000000040
310
75F72AC00C000000130000002A0800003C00000006000000020000000000000000408FC0000000E0476B3FC0000000801A232EC00000000000408FC000000040BB1F40C0000000806FF72AC00C00000013000000320800003C00000006000000020000000000008000408F40000000A0129440C000000000F9DA27C0000000
310
8000408F40000000C0BC1F40C00000004075F72AC00C000000130000003A0800003C00000006000000020000000000000000408FC000000020119440C000000000F3DA27C00000008000408F40000000A0129440C000000000F9DA27C00C00000013000000420800003C00000006000000020000000000000000408FC00000
310
0040BB1F40C0000000806FF72AC00000000000408FC000000020119440C000000000F3DA27C00C000000130000004A0800003C00000006000000020000000000008000408F4000000040F71C41C0000000002F3325C00000008000408F40000000A0129440C000000000F9DA27C00C00000013000000520800003C00000006
310
000000020000000000000000408FC0000000C0F51C41C000000000293325C00000008000408F4000000040F71C41C0000000002F3325C00C000000130000005A0800003C00000006000000020000000000000000408FC000000020119440C000000000F3DA27C00000000000408FC0000000C0F51C41C000000000293325C0
310
0C00000013000000620800003C00000006000000020000000000008000408F400000002026C241C000000080F9EE22C00000008000408F4000000040F71C41C0000000002F3325C00C000000130000006A0800003C00000006000000020000000000000000408FC0000000A024C241C000000080F3EE22C00000008000408F
310
400000002026C241C000000080F9EE22C00C00000013000000720800003C00000006000000020000000000000000408FC0000000C0F51C41C000000000293325C00000000000408FC0000000A024C241C000000080F3EE22C00C000000130000007A0800003C00000006000000020000000000008000408F4000000000308B
310
42C0000000400EE520C00000008000408F400000002026C241C000000080F9EE22C00C00000013000000820800003C00000006000000020000000000000000408FC0000000A02E8B42C00000008008E520C00000008000408F4000000000308B42C0000000400EE520C00C000000130000008A0800003C0000000600000002
310
0000000000000000408FC0000000A024C241C000000080F3EE22C00000000000408FC0000000A02E8B42C00000008008E520C00C00000013000000920800003C00000006000000020000000000008000408F4000000080828143C000000000FA171EC00000008000408F4000000000308B42C0000000400EE520C00C000000
310
130000009A0800003C00000006000000020000000000000000408FC000000020818143C000000000EE171EC00000008000408F4000000080828143C000000000FA171EC00C00000013000000A20800003C00000006000000020000000000000000408FC0000000A02E8B42C00000008008E520C00000000000408FC0000000
310
20818143C000000000EE171EC00C00000013000000AA0800003C00000006000000020000000000008000408F4000000080F29644C00000008014361BC00000008000408F4000000080828143C000000000FA171EC00C00000013000000B20800003C00000006000000020000000000000000408FC000000020F19644C00000
310
000009361BC00000008000408F4000000080F29644C00000008014361BC00C00000013000000BA0800003C00000006000000020000000000000000408FC000000020818143C000000000EE171EC00000000000408FC000000020F19644C00000000009361BC00C00000013000000C20800003C000000060000000200000000
310
00008000408F40000000C06BBD45C000000000636C19C00000008000408F4000000080F29644C00000008014361BC00C00000013000000CA0800003C00000006000000020000000000000000408FC0000000406ABD45C000000000576C19C00000008000408F40000000C06BBD45C000000000636C19C00C00000013000000
310
D20800003C00000006000000020000000000000000408FC000000020F19644C00000000009361BC00000000000408FC0000000406ABD45C000000000576C19C00C00000013000000DA0800003C00000006000000020000000000008000408F4000000000270447C00000008095A418C00000008000408F40000000C06BBD45
310
C000000000636C19C00C00000013000000E20800003C00000006000000020000000000000000408FC0000000A0250447C0000000008AA418C00000008000408F4000000000270447C00000008095A418C00C00000013000000EA0800003C00000006000000020000000000000000408FC0000000406ABD45C000000000576C
310
19C00000000000408FC0000000A0250447C0000000008AA418C00C00000013000000F20800003C00000006000000020000000000008000408F40000000E0335848C0000000006E6618C00000008000408F4000000000270447C00000008095A418C00C00000013000000FA0800003C00000006000000020000000000000000
310
408FC000000060325848C000000000626618C00000008000408F40000000E0335848C0000000006E6618C00C00000013000000020900003C00000006000000020000000000000000408FC0000000A0250447C0000000008AA418C00000000000408FC000000060325848C000000000626618C00C000000130000000A090000
310
3C00000006000000020000000000008000408F40000000E0F2FF48C000000000AB3E18C00000008000408F40000000E0335848C0000000006E6618C00C00000013000000120900003C00000006000000020000000000000000408FC000000060F1FF48C0000000009F3E18C00000008000408F40000000E0F2FF48C0000000
310
00AB3E18C00C000000130000001A0900003C00000006000000020000000000000000408FC000000060325848C000000000626618C00000000000408FC000000060F1FF48C0000000009F3E18C00C00000013000000220900003C00000006000000020000000000008000408F40000000E0F2FF48C000000000AB3E18C00000
310
008000408F40000000E0F2FF48C0000000000000C03E0C000000130000002A0900003C00000006000000020000000000000000408FC000000060F1FF48C0000000009F3E18C00000000000408FC000000060F1FF48C0000000000000083F0C00000013000000320900003C00000006000000020000000000000000408FC000
310
00006070973DC0000000000000083F0000000000408FC0000000C0F51C41C000000000293325C00C000000130000003A0900003C00000006000000020000000000000000408FC0000000A024C241C000000080F3EE22C00000000000408FC000000060223642C0000000000000083F0C00000013000000420900003C000000
310
06000000020000000000000000408FC000000060325848C000000000626618C00000000000408FC000000060834F46C0000000000000083F0C000000130000004A0900003C00000006000000020000000000000000408FC0000000A0250447C0000000008AA418C00000000000408FC0000000E0AA3346C0000000002076DD
310
BF0C00000013000000520900003C00000006000000020000000000000000408FC0000000406ABD45C000000000576C19C00000000000408FC00000000040F845C0000000009885EEBF0C000000130000005A0900003C00000006000000020000000000000000408FC000000020F19644C00000000009361BC0000000000040
310
8FC0000000A098A945C00000000018EBF3BF0C00000013000000620900003C00000006000000020000000000000000408FC000000020818143C000000000EE171EC00000000000408FC000000020776845C0000000000C01F5BF0C000000130000006A0900003C00000006000000020000000000000000408FC0000000A02E
310
8B42C00000008008E520C00000000000408FC0000000E0C83C45C0000000002860F4BF0C00000013000000720900003C00000006000000020000000000000000408FC00000006070973DC0000000000000083F0000000000408FC000000020119440C000000000F3DA27C00C000000130000007A0900003C00000006000000
310
020000000000000000408FC00000006034922CC0000000E092C239C00000000000408FC0000000A01A7837C000000040E3E933C00C00000013000000820900003C00000006000000020000000000000000408FC00000006034922CC0000000E092C239C00000000000408FC000000000A8D0D7BF000000A08D4141C00C0000
310
00130000008A0900003C00000006000000020000000000000000408FC0000000000000073F0000008039133CC00000000000408FC00000006034922CC0000000E092C239C00C00000013000000920900003C00000006000000020000000000000000408FC00000006070973DC0000000000000083F0000000000408FC00000
310
00A01A7837C000000040E3E933C00C000000130000009A0900003C00000006000000020000000000000000408FC00000006070973DC0000000000000083F0000000000408FC0000000E0476B3FC0000000801A232EC00C00000013000000A20900003C00000006000000020000000000000000408FC00000006070973DC000
310
0000000000083F0000000000408FC000000040BB1F40C0000000806FF72AC00C00000013000000AA0900003C00000006000000020000000000000000408FC00000006070973DC0000000000000083F0000000000408FC0000000E062A43EC0000000C0E05F30C00C00000013000000B20900003C0000000600000002000000
310
0000000000408FC00000006070973DC0000000000000083F0000000000408FC00000004055D83DC0000000C0086731C00C00000013000000BA0900003C00000006000000020000000000000000408FC00000006070973DC0000000000000083F0000000000408FC0000000A05DFD3BC0000000C0F3E732C00C000000130000
310
00C20900003C00000006000000020000000000000000408FC00000006070973DC0000000000000083F0000000000408FC0000000E093F43CC0000000C0C24032C00C00000013000000CA0900003C00000006000000020000000000000000408FC00000006070973DC0000000000000083F0000000000408FC000000060B482
310
39C00000008063C133C00C00000013000000D20900003C00000006000000020000000000000000408FC00000006070973DC0000000000000083F0000000000408FC00000008079DD3AC0000000C0146933C00C00000013000000DA0900003C00000006000000020000000000000000408FC00000006070973DC00000000000
310
00083F0000000000408FC000000060E65E38C0000000C02FE433C00C00000013000000E20900003C00000006000000020000000000000000408FC00000006034922CC0000000E092C239C00000000000408FC00000000072F4F3BF000000E0AECD41C00C00000013000000EA0900003C000000060000000200000000000000
310
00408FC00000006034922CC0000000E092C239C00000000000408FC000000000D076EDBF000000E0787C41C00C00000013000000F20900003C00000006000000020000000000000000408FC00000006034922CC0000000E092C239C00000000000408FC0000000005ECFF4BF00000020922842C00C00000013000000FA0900
310
003C00000006000000020000000000000000408FC000000040676814C00000002063DC46C00000000000408FC000000000302AF1BF00000020047F42C00C00000013000000020A00003C00000006000000020000000000000000408FC000000040676814C00000002063DC46C00000000000408FC00000006034922CC00000
310
00E092C239C00C000000130000000A0A00003C00000006000000020000000000000000408FC000000040676814C00000002063DC46C00000000000408FC000000000AC2BE3BF000000C097C342C00C00000013000000120A00003C00000006000000020000000000000000408FC000000040676814C0000000C0A66F52C000
310
00000000408FC00000006034922CC000000020730950C00C000000130000001A0A00003C00000006000000020000000000000000408FC000000040676814C0000000C0A66F52C00000000000408FC0000000E036362DC0000000401F8E50C00C00000013000000220A00003C00000006000000020000000000000000408FC0
310
00000040676814C0000000C0A66F52C00000000000408FC0000000C086B52CC0000000A0EF4650C00C000000130000002A0A00003C00000006000000020000000000000000408FC000000040676814C0000000C0A66F52C00000000000408FC00000008045922FC000000080211251C00C00000013000000320A00003C0000
310
0006000000020000000000000000408FC000000040676814C0000000C0A66F52C00000000000408FC000000000431D2EC0000000006FD050C00C000000130000003A0A00003C00000006000000020000000000000000408FC000000040676814C0000000C0A66F52C00000000000408FC0000000E010D830C000000020DC51
310
51C00C00000013000000420A00003C00000006000000020000000000000000408FC000000040676814C0000000C0A66F52C00000000000408FC0000000401F4332C000000040798B51C00C000000130000004A0A00003C00000006000000020000000000000000408FC000000040676814C0000000C0A66F52C00000000000
310
408FC0000000E0366333C000000060B1AD51C00C00000013000000520A00003C00000006000000020000000000000000408FC0000000000000073F00000060EAB253C00000000000408FC0000000E0366333C000000000F5F052C00C000000130000005A0A00003C00000006000000020000000000000000408FC000000020
310
33BF33C000000060807655C00000000000408FC000000020674E34C00000002093F652C00C00000013000000620A00003C00000006000000020000000000000000408FC0000000E0366333C0000000207C7755C00000000000408FC0000000E0366333C000000000F5F052C00C000000130000006A0A00003C000000060000
310
00020000000000000000408FC0000000A0E68134C000000000446F55C00000000000408FC0000000203E1935C0000000C0060453C00C00000013000000720A00003C00000006000000020000000000000000408FC0000000E05D4A35C000000000CE5F55C00000000000408FC000000040B7D835C0000000E05A1953C00C00
310
0000130000007A0A00003C00000006000000020000000000000000408FC0000000203C0636C000000040954855C00000000000408FC0000000A0E78736C000000020033653C00C00000013000000820A00003C00000006000000020000000000000000408FC0000000E099B036C0000000C0342A55C00000000000408FC000
310
0000603C2237C000000000405953C00C000000130000008A0A00003C00000006000000020000000000000000408FC000000000174537C000000080740555C00000000000408FC000000020BEA337C000000080298253C00C00000013000000920A00003C00000006000000020000000000000000408FC0000000C0D2BF37C0
310
000000004ADB54C00000000000408FC0000000400C0938C000000000AFAF53C00C000000130000009A0A00003C00000006000000020000000000000000408FC000000020A61D38C0000000A0CAAC54C00000000000408FC0000000A08A4F38C0000000A0A3E053C00C00000013000000A20A00003C00000006000000020000
310
000000000000408FC0000000000000073F00000060EAB253C00000000000408FC0000000E0366333C0000000207C7755C00C00000013000000AA0A00003C00000006000000020000000000000000408FC0000000E0366333C0000000207C7755C00000000000408FC000000000A8D0D7BF000000803BD455C00C0000001300
310
0000B20A00003C00000006000000020000000000000000408FC0000000E0366333C0000000207C7755C00000000000408FC000000000D076EDBF00000000B1F155C00C00000013000000BA0A00003C00000006000000020000000000000000408FC0000000802E921CC0000000C0F8BF58C00000000000408FC000000000AC
310
2BE3BF00000080409556C00C00000013000000C20A00003C00000006000000020000000000000000408FC0000000003A571EC0000000C0EB9158C00000000000408FC000000000302AF1BF000000C0F67256C00C00000013000000CA0A00003C00000006000000020000000000000000408FC000000060536020C000000040
310
1C5A58C00000000000408FC000000000302AF1BF000000C0F67256C00C00000013000000D20A00003C00000006000000020000000000000000408FC0000000A02FF421C0000000E0C31B58C00000000000408FC000000000302AF1BF000000C0F67256C00C00000013000000DA0A00003C0000000600000002000000000000
310
0000408FC0000000E04F4D23C00000008086EE57C00000000000408FC0000000005ECFF4BF000000C0BD4756C00C00000013000000E20A00003C00000006000000020000000000000000408FC000000060BEB424C000000000AEC557C00000000000408FC0000000005ECFF4BF000000C0BD4756C00C00000013000000EA0A
310
00003C00000006000000020000000000000000408FC0000000808F2526C0000000608DA157C00000000000408FC0000000005ECFF4BF000000C0BD4756C00C00000013000000F20A00003C00000006000000020000000000000000408FC00000000047A627C0000000C0278157C00000000000408FC00000000072F4F3BF00
310
0000204C1A56C00C00000013000000FA0A00003C00000006000000020000000000000000408FC0000000E07A3529C0000000C0816457C00000000000408FC00000000072F4F3BF000000204C1A56C00C00000013000000020B00003C00000006000000020000000000000000408FC000000020B6D62AC0000000204A4B57C0
310
0000000000408FC000000000D076EDBF00000000B1F155C00C000000130000000A0B00003C00000006000000020000000000000000408FC0000000C02D862CC000000080A63557C00000000000408FC0000000E0366333C0000000207C7755C00C00000013000000120B00003C00000006000000020000000000000000408F
310
C0000000A0F87C32C0000000C066FE56C00000000000408FC0000000E0366333C0000000207C7755C00C000000130000001A0B00003C00000006000000020000000000000000408FC0000000E0346231C000000060970557C00000000000408FC0000000E0366333C0000000207C7755C00C00000013000000220B00003C00
310
000006000000020000000000000000408FC000000040E65C30C000000080811057C00000000000408FC0000000E0366333C0000000207C7755C00C000000130000002A0B00003C00000006000000020000000000000000408FC0000000C0A9512EC000000000122357C00000000000408FC0000000E0366333C0000000207C
310
7755C00C00000013000000320B00003C00000006000000020000000000008000408F400000002026C241C000000080F9EE22C00000008000408F40000000C0233642C0000000000000C03E0C000000130000003A0B00003C00000006000000020000000000008000408F400000004073973DC0000000000000C03E00000080
310
00408F4000000040F71C41C0000000002F3325C00C00000013000000420B00003C00000006000000020000000000008000408F40000000E0335848C0000000006E6618C00000008000408F40000000C0844F46C0000000000000C03E0C000000130000004A0B00003C00000006000000020000000000008000408F40000000
310
00270447C00000008095A418C00000008000408F4000000040AC3346C000000000E076DDBF0C00000013000000520B00003C00000006000000020000000000008000408F40000000C06BBD45C000000000636C19C00000008000408F400000008041F845C000000000F485EEBF0C000000130000005A0B00003C0000000600
310
0000020000000000008000408F4000000080F29644C00000008014361BC00000008000408F40000000009AA945C00000000046EBF3BF0C00000013000000620B00003C00000006000000020000000000008000408F4000000080828143C000000000FA171EC00000008000408F4000000080786845C0000000003C01F5BF0C
310
000000130000006A0B00003C00000006000000020000000000008000408F4000000000308B42C0000000400EE520C00000008000408F4000000040CA3C45C0000000005860F4BF0C00000013000000720B00003C00000006000000020000000000008000408F400000004073973DC0000000000000C03E0000008000408F40
310
000000A0129440C000000000F9DA27C00C000000130000007A0B00003C00000006000000020000000000008000408F40000000003A922CC00000000096C239C00000008000408F40000000801D7837C000000040E6E933C00C00000013000000820B00003C00000006000000020000000000008000408F40000000000000B0
310
BE000000803C133CC00000008000408F40000000003A922CC00000000096C239C00C000000130000008A0B00003C00000006000000020000000000008000408F40000000003A922CC00000000096C239C00000008000408F400000000064D1D7BF000000208F4141C00C00000013000000920B00003C000000060000000200
310
00000000008000408F400000004073973DC0000000000000C03E0000008000408F40000000801D7837C000000040E6E933C00C000000130000009A0B00003C00000006000000020000000000008000408F400000004073973DC0000000000000C03E0000008000408F40000000C0BC1F40C00000004075F72AC00C00000013
310
000000A20B00003C00000006000000020000000000008000408F400000004073973DC0000000000000C03E0000008000408F40000000C04A6B3FC00000004020232EC00C00000013000000AA0B00003C00000006000000020000000000008000408F400000004073973DC0000000000000C03E0000008000408F40000000C0
310
65A43EC0000000A0E35F30C00C00000013000000B20B00003C00000006000000020000000000008000408F400000004073973DC0000000000000C03E0000008000408F400000000058D83DC0000000C00B6731C00C00000013000000BA0B00003C00000006000000020000000000008000408F400000004073973DC0000000
310
000000C03E0000008000408F40000000C096F43CC0000000E0C54032C00C00000013000000C20B00003C00000006000000020000000000008000408F400000004073973DC0000000000000C03E0000008000408F400000008060FD3BC0000000C0F6E732C00C00000013000000CA0B00003C00000006000000020000000000
310
008000408F400000004073973DC0000000000000C03E0000008000408F40000000407CDD3AC0000000C0176933C00C00000013000000D20B00003C00000006000000020000000000008000408F400000004073973DC0000000000000C03E0000008000408F4000000040B78239C00000008066C133C00C00000013000000DA
310
0B00003C00000006000000020000000000008000408F400000004073973DC0000000000000C03E0000008000408F4000000040E95E38C0000000A032E433C00C00000013000000E20B00003C00000006000000020000000000008000408F40000000003A922CC00000000096C239C00000008000408F40000000002E77EDBF
310
000000607A7C41C00C00000013000000EA0B00003C00000006000000020000000000008000408F40000000003A922CC00000000096C239C00000008000408F40000000009FF4F3BF00000060B0CD41C00C00000013000000F20B00003C00000006000000020000000000008000408F40000000003A922CC00000000096C239
310
C00000008000408F40000000008CCFF4BF000000A0932842C00C00000013000000FA0B00003C00000006000000020000000000008000408F40000000A0726814C00000008064DC46C00000008000408F40000000003A922CC00000000096C239C00C00000013000000020C00003C0000000600000002000000000000800040
310
8F40000000A0726814C00000008064DC46C00000008000408F40000000005E2AF1BF00000080057F42C00C000000130000000A0C00003C00000006000000020000000000008000408F40000000A0726814C00000008064DC46C00000008000408F4000000000082CE3BF0000004099C342C00C00000013000000120C00003C
310
00000006000000020000000000008000408F40000000A0726814C000000080A76F52C00000008000408F40000000003A922CC000000000740950C00C000000130000001A0C00003C00000006000000020000000000008000408F40000000A0726814C000000080A76F52C00000008000408F40000000808CB52CC000000080
310
F04650C00C00000013000000220C00003C00000006000000020000000000008000408F40000000A0726814C000000080A76F52C00000008000408F40000000A03C362DC000000020208E50C00C000000130000002A0C00003C00000006000000020000000000008000408F40000000A0726814C000000080A76F52C0000000
310
8000408F40000000C0481D2EC0000000E06FD050C00C00000013000000320C00003C00000006000000020000000000008000408F40000000A0726814C000000080A76F52C00000008000408F40000000404B922FC000000040221251C00C000000130000003A0C00003C00000006000000020000000000008000408F400000
310
00A0726814C000000080A76F52C00000008000408F40000000C013D830C000000000DD5151C00C00000013000000420C00003C00000006000000020000000000008000408F40000000A0726814C000000080A76F52C00000008000408F4000000020224332C0000000007A8B51C00C000000130000004A0C00003C00000006
310
000000020000000000008000408F40000000A0726814C000000080A76F52C00000008000408F40000000C0396333C000000040B2AD51C00C00000013000000520C00003C00000006000000020000000000008000408F40000000000000B0BE00000040EBB253C00000008000408F40000000C0396333C0000000C0F5F052C0
310
0C000000130000005A0C00003C00000006000000020000000000008000408F40000000C0396333C0000000007D7755C00000008000408F40000000C0396333C0000000C0F5F052C00C00000013000000620C00003C00000006000000020000000000008000408F40000000006A4E34C00000000094F652C00000008000408F
310
400000000036BF33C000000040817655C00C000000130000006A0C00003C00000006000000020000000000008000408F4000000000411935C0000000A0070453C00000008000408F4000000080E98134C0000000C0446F55C00C00000013000000720C00003C00000006000000020000000000008000408F4000000020BAD8
310
35C0000000C05B1953C00000008000408F40000000C0604A35C0000000C0CE5F55C00C000000130000007A0C00003C00000006000000020000000000008000408F4000000080EA8736C0000000E0033653C00000008000408F40000000003F0636C000000000964855C00C00000013000000820C00003C0000000600000002
310
0000000000008000408F40000000403F2237C0000000C0405953C00000008000408F40000000C09CB036C000000080352A55C00C000000130000008A0C00003C00000006000000020000000000008000408F4000000000C1A337C0000000402A8253C00000008000408F40000000001A4537C000000040750555C00C000000
310
13000000920C00003C00000006000000020000000000008000408F40000000200F0938C0000000C0AFAF53C00000008000408F40000000A0D5BF37C0000000E04ADB54C00C000000130000009A0C00003C00000006000000020000000000008000408F40000000808D4F38C000000080A4E053C00000008000408F40000000
310
00A91D38C000000080CBAC54C00C00000013000000A20C00003C00000006000000020000000000008000408F40000000000000B0BE00000040EBB253C00000008000408F40000000C0396333C0000000007D7755C00C00000013000000AA0C00003C00000006000000020000000000008000408F40000000C0396333C00000
310
00007D7755C00000008000408F400000000064D1D7BF000000403CD455C00C00000013000000B20C00003C00000006000000020000000000008000408F40000000C0396333C0000000007D7755C00000008000408F40000000002E77EDBF000000E0B1F155C00C00000013000000BA0C00003C000000060000000200000000
310
00008000408F40000000003A921CC000000080F9BF58C00000008000408F4000000000082CE3BF00000040419556C00C00000013000000C20C00003C00000006000000020000000000008000408F400000008045571EC000000080EC9158C00000008000408F40000000005E2AF1BF00000080F77256C00C00000013000000
310
CA0C00003C00000006000000020000000000008000408F4000000020596020C0000000001D5A58C00000008000408F40000000005E2AF1BF00000080F77256C00C00000013000000D20C00003C00000006000000020000000000008000408F400000006035F421C000000080C41B58C00000008000408F40000000005E2AF1
310
BF00000080F77256C00C00000013000000DA0C00003C00000006000000020000000000008000408F40000000A0554D23C00000004087EE57C00000008000408F40000000008CCFF4BF00000080BE4756C00C00000013000000E20C00003C00000006000000020000000000008000408F4000000020C4B424C0000000C0AEC5
310
57C00000008000408F40000000008CCFF4BF00000080BE4756C00C00000013000000EA0C00003C00000006000000020000000000008000408F4000000040952526C0000000008EA157C00000008000408F40000000008CCFF4BF00000080BE4756C00C00000013000000F20C00003C00000006000000020000000000008000
310
408F40000000C04CA627C000000080288157C00000008000408F40000000009FF4F3BF000000004D1A56C00C00000013000000FA0C00003C00000006000000020000000000008000408F40000000A0803529C000000080826457C00000008000408F40000000009FF4F3BF000000004D1A56C00C00000013000000020D0000
310
3C00000006000000020000000000008000408F400000008033862CC000000040A73557C00000008000408F40000000C0396333C0000000007D7755C00C000000130000000A0D00003C00000006000000020000000000008000408F40000000C0BBD62AC0000000C04A4B57C00000008000408F40000000002E77EDBF000000
310
E0B1F155C00C00000013000000120D00003C00000006000000020000000000008000408F4000000080FB7C32C00000008067FE56C00000008000408F40000000C0396333C0000000007D7755C00C000000130000001A0D00003C00000006000000020000000000008000408F40000000C0376231C000000020980557C00000
310
008000408F40000000C0396333C0000000007D7755C00C00000013000000220D00003C00000006000000020000000000008000408F4000000040E95C30C000000040821057C00000008000408F40000000C0396333C0000000007D7755C00C000000130000002A0D00003C00000006000000020000000000008000408F4000
310
000080AF512EC0000000C0122357C00000008000408F40000000C0396333C0000000007D7755C0
100
AcDbSubDMesh
 71
     2
 72
     0
 91
        0
 92
      196
 10
1000.000244140625
 20
-29.59160232543946
 30
0.0000019073486328
 10
-1000.0
 20
-29.5915584564209
 30
0.0000457763671875
 10
-1000.0
 20
0.0000438690185547
 30
-28.0750961303711
 10
1000.000244140625
 20
-0.0000009536743164
 30
-28.07514190673828
 10
1000.000244140625
 20
-5.101999759674072
 30
-45.72181701660156
 10
-1000.0
 20
-5.101956367492675
 30
-45.72177505493164
 10
-1000.0
 20
-5.101956367492675
 30
-73.74455261230469
 10
1000.000244140625
 20
-5.101999759674072
 30
-73.74459838867188
 10
-1000.0
 20
0.0000438690185547
 30
-78.7955551147461
 10
1000.000244140625
 20
-0.0000009536743164
 30
-78.79560852050781
 10
1000.000244140625
 20
-0.0000009536743164
 30
-98.99960327148438
 10
-1000.0
 20
0.0000438690185547
 30
-98.99955749511718
 10
-1000.0
 20
-7.142755508422851
 30
-98.99955749511718
 10
1000.000244140625
 20
-7.142799377441406
 30
-98.99960327148438
 10
-1000.0
 20
-7.585182189941406
 30
-98.28001403808594
 10
-1000.0
 20
-8.188136100769042
 30
-97.40797424316406
 10
-1000.0
 20
-8.97692584991455
 30
-96.43383026123046
 10
-1000.0
 20
-9.651000022888183
 30
-95.72695922851563
 10
-1000.0
 20
-10.35301494598388
 30
-95.08874511718749
 10
-1000.0
 20
-11.07336044311523
 30
-94.52425384521484
 10
-1000.0
 20
-11.82476043701172
 30
-94.01805114746094
 10
-1000.0
 20
-12.60445308685303
 30
-93.57041931152343
 10
-1000.0
 20
-13.419358253479
 30
-93.17639923095702
 10
-1000.0
 20
-14.2620677947998
 30
-92.83828735351562
 10
-1000.0
 20
-15.15949821472168
 30
-92.5479736328125
 10
-1000.0
 20
-16.36288833618164
 30
-92.25790405273437
 10
-1000.0
 20
-17.38361930847168
 30
-92.08736419677734
 10
-1000.0
 20
-18.48816871643066
 30
-91.97502136230468
 10
-1000.0
 20
-19.3875560760498
 30
-91.92815399169921
 10
1000.000244140625
 20
-19.38759994506836
 30
-91.92819213867187
 10
1000.000244140625
 20
-18.48821258544922
 30
-91.97506713867188
 10
1000.000244140625
 20
-17.38366317749023
 30
-92.08740997314453
 10
1000.000244140625
 20
-16.36293411254882
 30
-92.25794982910157
 10
1000.000244140625
 20
-15.15954208374023
 30
-92.54801940917969
 10
1000.000244140625
 20
-14.26211166381836
 30
-92.83833312988281
 10
1000.000244140625
 20
-13.41940116882324
 30
-93.17643737792968
 10
1000.000244140625
 20
-12.60449695587158
 30
-93.57046508789062
 10
1000.000244140625
 20
-11.82480430603027
 30
-94.01809692382812
 10
1000.000244140625
 20
-11.07340431213379
 30
-94.5242919921875
 10
1000.000244140625
 20
-10.35305881500244
 30
-95.08879089355469
 10
1000.000244140625
 20
-9.651043891906738
 30
-95.72700500488281
 10
1000.000244140625
 20
-8.976969718933105
 30
-96.43386840820312
 10
1000.000244140625
 20
-8.188179969787597
 30
-97.40802001953126
 10
1000.000244140625
 20
-7.58522605895996
 30
-98.28005981445313
 10
-1000.0
 20
-19.3875560760498
 30
-85.86695098876953
 10
1000.000244140625
 20
-19.38759994506836
 30
-85.86700439453125
 10
-1000.0
 20
-19.74687385559082
 30
-85.8515853881836
 10
-1000.0
 20
-20.50742530822754
 30
-85.738525390625
 10
-1000.0
 20
-21.29049491882324
 30
-85.4969482421875
 10
-1000.0
 20
-22.02435493469238
 30
-85.13410949707031
 10
-1000.0
 20
-22.68984794616699
 30
-84.65946960449219
 10
-1000.0
 20
-23.26988220214844
 30
-84.08523559570312
 10
-1000.0
 20
-23.74930953979492
 30
-83.42639160156251
 10
-1000.0
 20
-24.11581611633301
 30
-82.69986724853515
 10
-1000.0
 20
-24.35982704162598
 30
-81.92462921142578
 10
-1000.0
 20
-24.47508239746094
 30
-81.12060546875
 10
-1000.0
 20
-24.45856094360352
 30
-80.30873870849609
 10
-1000.0
 20
-24.31070899963379
 30
-79.5099868774414
 10
-1000.0
 20
-24.03534317016602
 30
-78.74505615234375
 10
-1000.0
 20
-23.63961982727051
 30
-78.03378295898437
 10
-1000.0
 20
-23.13373374938965
 30
-77.39453125
 10
-1000.0
 20
-22.5308780670166
 30
-76.84394073486328
 10
-1000.0
 20
-21.8465461730957
 30
-76.39617156982422
 10
-1000.0
 20
-21.09860420227051
 30
-76.06291198730469
 10
-1000.0
 20
-20.30626106262207
 30
-75.85272979736328
 10
-1000.0
 20
-19.3875560760498
 30
-75.76495361328125
 10
1000.000244140625
 20
-19.38759994506836
 30
-75.76499938964843
 10
1000.000244140625
 20
-20.30630493164062
 30
-75.852783203125
 10
1000.000244140625
 20
-21.09864807128906
 30
-76.0629653930664
 10
1000.000244140625
 20
-21.84659004211426
 30
-76.39622497558594
 10
1000.000244140625
 20
-22.53092193603515
 30
-76.84398651123046
 10
1000.000244140625
 20
-23.1337776184082
 30
-77.39457702636719
 10
1000.000244140625
 20
-23.63966369628906
 30
-78.03382873535156
 10
1000.000244140625
 20
-24.03538703918457
 30
-78.74510192871094
 10
1000.000244140625
 20
-24.31075286865234
 30
-79.51004028320312
 10
1000.000244140625
 20
-24.45860671997071
 30
-80.30879211425782
 10
1000.000244140625
 20
-24.47512626647949
 30
-81.12065124511719
 10
1000.000244140625
 20
-24.35987091064453
 30
-81.92468261718749
 10
1000.000244140625
 20
-24.11585998535156
 30
-82.69992065429688
 10
1000.000244140625
 20
-23.74935340881348
 30
-83.42644500732422
 10
1000.000244140625
 20
-23.26992797851563
 30
-84.08528137207031
 10
1000.000244140625
 20
-22.68989181518555
 30
-84.65951538085937
 10
1000.000244140625
 20
-22.02439880371094
 30
-85.13415527343751
 10
1000.000244140625
 20
-21.2905387878418
 30
-85.49699401855468
 10
1000.000244140625
 20
-20.50746917724609
 30
-85.73857116699219
 10
1000.000244140625
 20
-19.74691772460937
 30
-85.85163879394531
 10
-1000.0
 20
-19.3875560760498
 30
-70.71395111083984
 10
1000.000244140625
 20
-19.38759994506836
 30
-70.71400451660156
 10
-1000.0
 20
-18.2621955871582
 30
-70.17927551269531
 10
-1000.0
 20
-16.84400749206543
 30
-69.27906036376953
 10
-1000.0
 20
-15.78568649291992
 30
-68.28329467773437
 10
-1000.0
 20
-15.05715179443359
 30
-67.25677490234375
 10
-1000.0
 20
-14.6058874130249
 30
-66.22065734863281
 10
-1000.0
 20
-14.35454368591308
 30
-65.1083755493164
 10
-1000.0
 20
-14.28555583953857
 30
-64.14765167236328
 10
1000.000244140625
 20
-14.28559875488281
 30
-64.147705078125
 10
1000.000244140625
 20
-14.35458755493164
 30
-65.10842895507813
 10
1000.000244140625
 20
-14.60593128204346
 30
-66.22071075439453
 10
1000.000244140625
 20
-15.05719566345215
 30
-67.25682830810547
 10
1000.000244140625
 20
-15.78573036193847
 30
-68.28334045410156
 10
1000.000244140625
 20
-16.84405136108398
 30
-69.27911376953125
 10
1000.000244140625
 20
-18.26223945617676
 30
-70.1793212890625
 10
-1000.0
 20
-14.28555583953857
 30
-25.76005363464356
 10
1000.000244140625
 20
-14.28559875488281
 30
-25.76010131835938
 10
-1000.0
 20
-23.46915626525879
 30
-24.96462440490723
 10
1000.000244140625
 20
-23.46920013427734
 30
-24.96467208862305
 10
-1000.0
 20
-23.46915626525879
 30
-19.91362380981445
 10
1000.000244140625
 20
-23.46920013427734
 30
-19.91366958618164
 10
-1000.0
 20
-24.37070274353028
 30
-19.89135360717773
 10
-1000.0
 20
-25.51056480407715
 30
-19.75542449951172
 10
-1000.0
 20
-26.86513519287109
 30
-19.41047286987305
 10
-1000.0
 20
-27.98970985412598
 30
-18.90606307983398
 10
-1000.0
 20
-28.95538139343262
 30
-18.25297164916992
 10
-1000.0
 20
-29.84505081176758
 30
-17.40247726440429
 10
-1000.0
 20
-30.64213371276856
 30
-16.3745231628418
 10
-1000.0
 20
-31.41906547546387
 30
-15.06856155395508
 10
-1000.0
 20
-32.24790191650391
 30
-13.48327255249023
 10
-1000.0
 20
-33.15677261352539
 30
-11.92763519287109
 10
-1000.0
 20
-34.22624969482422
 30
-10.59992218017578
 10
-1000.0
 20
-35.51674270629883
 30
-9.466701507568359
 10
-1000.0
 20
-37.08736038208008
 30
-8.447330474853515
 10
-1000.0
 20
-39.01175308227539
 30
-7.523368835449218
 10
-1000.0
 20
-41.17923355102539
 30
-6.80276870727539
 10
-1000.0
 20
-43.47980499267578
 30
-6.355800628662109
 10
-1000.0
 20
-46.03239822387695
 30
-6.160682678222656
 10
-1000.0
 20
-48.68903732299805
 30
-6.099983215332031
 10
-1000.0
 20
-49.99955368041992
 30
-6.061153411865234
 10
1000.000244140625
 20
-49.9995994567871
 30
-6.061199188232421
 10
1000.000244140625
 20
-48.68908309936523
 30
-6.100028991699218
 10
1000.000244140625
 20
-46.03244018554687
 30
-6.16072654724121
 10
1000.000244140625
 20
-43.47985076904296
 30
-6.355846405029296
 10
1000.000244140625
 20
-41.17927551269531
 30
-6.802812576293945
 10
1000.000244140625
 20
-39.01179504394531
 30
-7.523414611816406
 10
1000.000244140625
 20
-37.08740234375
 30
-8.44737434387207
 10
1000.000244140625
 20
-35.51678848266602
 30
-9.466747283935546
 10
1000.000244140625
 20
-34.22629547119141
 30
-10.59996795654297
 10
1000.000244140625
 20
-33.15681838989258
 30
-11.92768096923828
 10
1000.000244140625
 20
-32.2479476928711
 30
-13.48331642150879
 10
1000.000244140625
 20
-31.41910934448242
 30
-15.06860542297363
 10
1000.000244140625
 20
-30.64217758178711
 30
-16.37456703186035
 10
1000.000244140625
 20
-29.8450927734375
 30
-17.40252304077148
 10
1000.000244140625
 20
-28.95542526245117
 30
-18.25301933288574
 10
1000.000244140625
 20
-27.98975372314453
 30
-18.90610885620117
 10
1000.000244140625
 20
-26.86517715454102
 30
-19.41051864624023
 10
1000.000244140625
 20
-25.5106086730957
 30
-19.7554702758789
 10
1000.000244140625
 20
-24.37074661254883
 30
-19.89139747619629
 10
-1000.0
 20
-49.99955368041992
 30
0.0000457763671875
 10
1000.000244140625
 20
-49.9995994567871
 30
0.0000019073486328
 10
1000.000244140625
 20
-0.0000009536743164
 30
-90.64439392089843
 10
1000.000244140625
 20
-0.5991249084472657
 30
-90.33210754394531
 10
1000.000244140625
 20
-1.072843551635742
 30
-89.79635620117187
 10
1000.000244140625
 20
-1.300670623779296
 30
-89.12100219726562
 10
1000.000244140625
 20
-1.247221946716308
 30
-88.41094970703125
 10
1000.000244140625
 20
-0.9207983016967773
 30
-87.77648162841797
 10
1000.000244140625
 20
-0.3721551895141602
 30
-87.31617736816406
 10
1000.000244140625
 20
-0.0000009536743164
 30
-87.15080261230468
 10
-1000.0
 20
0.0000438690185547
 30
-87.15075683593751
 10
-1000.0
 20
-0.3721103668212891
 30
-87.31613159179687
 10
-1000.0
 20
-0.9207534790039062
 30
-87.77642822265624
 10
-1000.0
 20
-1.24717903137207
 30
-88.41089630126953
 10
-1000.0
 20
-1.300626754760742
 30
-89.12095642089843
 10
-1000.0
 20
-1.072799682617187
 30
-89.79631042480468
 10
-1000.0
 20
-0.599081039428711
 30
-90.33206176757813
 10
-1000.0
 20
0.0000438690185547
 30
-90.64435577392577
 10
1000.000244140625
 20
-42.47492218017578
 30
-1.273521423339843
 10
1000.000244140625
 20
-42.81617736816406
 30
-1.312801361083984
 10
1000.000244140625
 20
-43.32501220703124
 30
-1.244939804077148
 10
1000.000244140625
 20
-43.93949890136719
 30
-0.9538516998291015
 10
1000.000244140625
 20
-44.40369415283202
 30
-0.4603805541992188
 10
1000.000244140625
 20
-44.62123870849609
 30
0.0000019073486328
 10
-1000.0
 20
-44.62119674682617
 30
0.0000457763671875
 10
-1000.0
 20
-44.40365219116211
 30
-0.4603347778320313
 10
-1000.0
 20
-43.939453125
 30
-0.9538078308105468
 10
-1000.0
 20
-43.32497024536133
 30
-1.244895935058593
 10
-1000.0
 20
-42.81613540649414
 30
-1.312755584716796
 10
-1000.0
 20
-42.47488021850585
 30
-1.273475646972656
 10
1000.000244140625
 20
-36.42296600341797
 30
0.0000019073486328
 10
-1000.0
 20
-36.42292404174805
 30
0.0000457763671875
 10
1000.000244140625
 20
-0.0000009536743164
 30
-43.36650085449218
 10
-1000.0
 20
0.0000438690185547
 30
-43.366455078125
 10
1000.000244140625
 20
-0.0000009536743164
 30
-34.34680557250977
 10
-1000.0
 20
0.0000438690185547
 30
-34.34675979614258
 10
-1000.0
 20
-0.3721103668212891
 30
-34.51213455200195
 10
-1000.0
 20
-0.9207534790039062
 30
-34.97243881225586
 10
-1000.0
 20
-1.24717903137207
 30
-35.60689926147461
 10
-1000.0
 20
-1.300626754760742
 30
-36.31695938110352
 10
-1000.0
 20
-1.072799682617187
 30
-36.99231338500977
 10
-1000.0
 20
-0.599081039428711
 30
-37.52806854248047
 10
-1000.0
 20
0.0000438690185547
 30
-37.84035873413086
 10
1000.000244140625
 20
-0.0000009536743164
 30
-37.84040451049805
 10
1000.000244140625
 20
-0.5991249084472657
 30
-37.52811431884766
 10
1000.000244140625
 20
-1.072843551635742
 30
-36.99235534667969
 10
1000.000244140625
 20
-1.300670623779296
 30
-36.3170051574707
 10
1000.000244140625
 20
-1.247221946716308
 30
-35.6069450378418
 10
1000.000244140625
 20
-0.9207983016967773
 30
-34.97248458862305
 10
1000.000244140625
 20
-0.3721551895141602
 30
-34.51218032836914
 93
     1072
 90
        4
 90
      147
 90
      169
 90
      170
 90
      146
 90
        4
 90
      169
 90
      168
 90
      171
 90
      170
 90
        4
 90
      168
 90
      167
 90
      172
 90
      171
 90
        4
 90
      167
 90
      166
 90
      173
 90
      172
 90
        4
 90
      166
 90
      165
 90
      174
 90
      173
 90
        4
 90
      165
 90
      164
 90
      175
 90
      174
 90
        4
 90
      164
 90
      176
 90
      177
 90
      175
 90
        4
 90
      176
 90
        0
 90
        1
 90
      177
 90
        4
 90
        0
 90
        3
 90
        2
 90
        1
 90
        4
 90
        3
 90
      180
 90
      181
 90
        2
 90
        4
 90
      180
 90
      195
 90
      182
 90
      181
 90
        4
 90
      195
 90
      194
 90
      183
 90
      182
 90
        4
 90
      194
 90
      193
 90
      184
 90
      183
 90
        4
 90
      193
 90
      192
 90
      185
 90
      184
 90
        4
 90
      192
 90
      191
 90
      186
 90
      185
 90
        4
 90
      191
 90
      190
 90
      187
 90
      186
 90
        4
 90
      190
 90
      189
 90
      188
 90
      187
 90
        4
 90
      189
 90
      178
 90
      179
 90
      188
 90
        4
 90
      178
 90
        4
 90
        5
 90
      179
 90
        4
 90
        4
 90
        7
 90
        6
 90
        5
 90
        4
 90
        7
 90
        9
 90
        8
 90
        6
 90
        4
 90
        9
 90
      155
 90
      156
 90
        8
 90
        4
 90
      155
 90
      154
 90
      157
 90
      156
 90
        4
 90
      154
 90
      153
 90
      158
 90
      157
 90
        4
 90
      153
 90
      152
 90
      159
 90
      158
 90
        4
 90
      152
 90
      151
 90
      160
 90
      159
 90
        4
 90
      151
 90
      150
 90
      161
 90
      160
 90
        4
 90
      150
 90
      149
 90
      162
 90
      161
 90
        4
 90
      149
 90
      148
 90
      163
 90
      162
 90
        4
 90
      148
 90
       10
 90
       11
 90
      163
 90
        4
 90
       10
 90
       13
 90
       12
 90
       11
 90
        4
 90
       13
 90
       43
 90
       14
 90
       12
 90
        4
 90
       43
 90
       42
 90
       15
 90
       14
 90
        4
 90
       42
 90
       41
 90
       16
 90
       15
 90
        4
 90
       41
 90
       40
 90
       17
 90
       16
 90
        4
 90
       40
 90
       39
 90
       18
 90
       17
 90
        4
 90
       39
 90
       38
 90
       19
 90
       18
 90
        4
 90
       38
 90
       37
 90
       20
 90
       19
 90
        4
 90
       37
 90
       36
 90
       21
 90
       20
 90
        4
 90
       36
 90
       35
 90
       22
 90
       21
 90
        4
 90
       35
 90
       34
 90
       23
 90
       22
 90
        4
 90
       34
 90
       33
 90
       24
 90
       23
 90
        4
 90
       33
 90
       32
 90
       25
 90
       24
 90
        4
 90
       32
 90
       31
 90
       26
 90
       25
 90
        4
 90
       31
 90
       30
 90
       27
 90
       26
 90
        4
 90
       30
 90
       29
 90
       28
 90
       27
 90
        4
 90
       29
 90
       45
 90
       44
 90
       28
 90
        4
 90
       45
 90
       85
 90
       46
 90
       44
 90
        4
 90
       85
 90
       84
 90
       47
 90
       46
 90
        4
 90
       84
 90
       83
 90
       48
 90
       47
 90
        4
 90
       83
 90
       82
 90
       49
 90
       48
 90
        4
 90
       82
 90
       81
 90
       50
 90
       49
 90
        4
 90
       81
 90
       80
 90
       51
 90
       50
 90
        4
 90
       80
 90
       79
 90
       52
 90
       51
 90
        4
 90
       79
 90
       78
 90
       53
 90
       52
 90
        4
 90
       78
 90
       77
 90
       54
 90
       53
 90
        4
 90
       77
 90
       76
 90
       55
 90
       54
 90
        4
 90
       76
 90
       75
 90
       56
 90
       55
 90
        4
 90
       75
 90
       74
 90
       57
 90
       56
 90
        4
 90
       74
 90
       73
 90
       58
 90
       57
 90
        4
 90
       73
 90
       72
 90
       59
 90
       58
 90
        4
 90
       72
 90
       71
 90
       60
 90
       59
 90
        4
 90
       71
 90
       70
 90
       61
 90
       60
 90
        4
 90
       70
 90
       69
 90
       62
 90
       61
 90
        4
 90
       69
 90
       68
 90
       63
 90
       62
 90
        4
 90
       68
 90
       67
 90
       64
 90
       63
 90
        4
 90
       67
 90
       66
 90
       65
 90
       64
 90
        4
 90
       66
 90
       87
 90
       86
 90
       65
 90
        4
 90
       87
 90
      101
 90
       88
 90
       86
 90
        4
 90
      101
 90
      100
 90
       89
 90
       88
 90
        4
 90
      100
 90
       99
 90
       90
 90
       89
 90
        4
 90
       99
 90
       98
 90
       91
 90
       90
 90
        4
 90
       98
 90
       97
 90
       92
 90
       91
 90
        4
 90
       97
 90
       96
 90
       93
 90
       92
 90
        4
 90
       96
 90
       95
 90
       94
 90
       93
 90
        4
 90
       95
 90
      103
 90
      102
 90
       94
 90
        4
 90
      103
 90
      105
 90
      104
 90
      102
 90
        4
 90
      105
 90
      107
 90
      106
 90
      104
 90
        4
 90
      107
 90
      145
 90
      108
 90
      106
 90
        4
 90
      145
 90
      144
 90
      109
 90
      108
 90
        4
 90
      144
 90
      143
 90
      110
 90
      109
 90
        4
 90
      143
 90
      142
 90
      111
 90
      110
 90
        4
 90
      142
 90
      141
 90
      112
 90
      111
 90
        4
 90
      141
 90
      140
 90
      113
 90
      112
 90
        4
 90
      140
 90
      139
 90
      114
 90
      113
 90
        4
 90
      139
 90
      138
 90
      115
 90
      114
 90
        4
 90
      138
 90
      137
 90
      116
 90
      115
 90
        4
 90
      137
 90
      136
 90
      117
 90
      116
 90
        4
 90
      136
 90
      135
 90
      118
 90
      117
 90
        4
 90
      135
 90
      134
 90
      119
 90
      118
 90
        4
 90
      134
 90
      133
 90
      120
 90
      119
 90
        4
 90
      133
 90
      132
 90
      121
 90
      120
 90
        4
 90
      132
 90
      131
 90
      122
 90
      121
 90
        4
 90
      131
 90
      130
 90
      123
 90
      122
 90
        4
 90
      130
 90
      129
 90
      124
 90
      123
 90
        4
 90
      129
 90
      128
 90
      125
 90
      124
 90
        4
 90
      128
 90
      127
 90
      126
 90
      125
 90
        4
 90
      127
 90
      147
 90
      146
 90
      126
 90
        4
 90
        1
 90
      118
 90
      119
 90
      177
 90
        4
 90
      125
 90
      126
 90
      146
 90
      170
 90
        4
 90
      124
 90
      125
 90
      170
 90
      171
 90
        4
 90
      123
 90
      124
 90
      171
 90
      172
 90
        4
 90
      122
 90
      123
 90
      172
 90
      173
 90
        4
 90
      121
 90
      122
 90
      173
 90
      174
 90
        4
 90
      119
 90
      120
 90
      175
 90
      177
 90
        4
 90
      120
 90
      121
 90
      174
 90
      175
 90
        3
 90
        1
 90
      117
 90
      118
 90
        3
 90
      102
 90
      104
 90
      106
 90
        4
 90
        2
 90
      181
 90
      182
 90
      102
 90
        4
 90
        1
 90
        2
 90
      102
 90
      106
 90
        3
 90
        1
 90
      115
 90
      116
 90
        3
 90
        1
 90
      116
 90
      117
 90
        3
 90
        1
 90
      114
 90
      115
 90
        3
 90
        1
 90
      113
 90
      114
 90
        3
 90
        1
 90
      111
 90
      112
 90
        3
 90
        1
 90
      112
 90
      113
 90
        3
 90
        1
 90
      109
 90
      110
 90
        3
 90
        1
 90
      110
 90
      111
 90
        3
 90
        1
 90
      106
 90
      108
 90
        3
 90
        1
 90
      108
 90
      109
 90
        3
 90
      183
 90
      184
 90
      102
 90
        3
 90
      102
 90
      182
 90
      183
 90
        3
 90
      184
 90
      185
 90
      102
 90
        4
 90
      185
 90
      186
 90
        5
 90
      102
 90
        3
 90
      186
 90
      187
 90
        5
 90
        4
 90
      187
 90
      188
 90
      179
 90
        5
 90
        4
 90
        5
 90
        6
 90
       94
 90
      102
 90
        3
 90
        6
 90
       92
 90
       93
 90
        3
 90
        6
 90
       93
 90
       94
 90
        3
 90
        6
 90
       90
 90
       91
 90
        3
 90
        6
 90
       91
 90
       92
 90
        3
 90
        6
 90
       89
 90
       90
 90
        3
 90
        6
 90
       88
 90
       89
 90
        3
 90
        6
 90
       86
 90
       88
 90
        4
 90
        6
 90
        8
 90
       65
 90
       86
 90
        4
 90
       44
 90
       46
 90
       64
 90
       65
 90
        4
 90
       46
 90
       47
 90
       63
 90
       64
 90
        4
 90
       47
 90
       48
 90
       62
 90
       63
 90
        4
 90
       48
 90
       49
 90
       61
 90
       62
 90
        4
 90
       49
 90
       50
 90
       60
 90
       61
 90
        4
 90
       50
 90
       51
 90
       59
 90
       60
 90
        4
 90
       51
 90
       52
 90
       58
 90
       59
 90
        4
 90
       52
 90
       53
 90
       57
 90
       58
 90
        3
 90
        8
 90
       44
 90
       65
 90
        4
 90
        8
 90
      156
 90
      157
 90
       44
 90
        5
 90
       53
 90
       54
 90
       55
 90
       56
 90
       57
 90
        3
 90
      157
 90
      158
 90
       44
 90
        4
 90
      162
 90
      163
 90
       11
 90
       12
 90
        4
 90
      161
 90
      162
 90
       12
 90
       14
 90
        3
 90
      161
 90
       14
 90
       15
 90
        3
 90
      161
 90
       15
 90
       16
 90
        4
 90
      160
 90
      161
 90
       16
 90
       17
 90
        3
 90
      160
 90
       17
 90
       18
 90
        3
 90
      160
 90
       18
 90
       19
 90
        4
 90
      159
 90
      160
 90
       19
 90
       20
 90
        3
 90
      159
 90
       20
 90
       21
 90
        4
 90
      158
 90
       22
 90
       23
 90
       44
 90
        3
 90
       27
 90
       28
 90
       44
 90
        3
 90
       44
 90
       26
 90
       27
 90
        3
 90
       25
 90
       26
 90
       44
 90
        3
 90
       44
 90
       24
 90
       25
 90
        3
 90
       23
 90
       24
 90
       44
 90
        4
 90
      158
 90
      159
 90
       21
 90
       22
 90
        4
 90
        0
 90
      176
 90
      134
 90
      135
 90
        4
 90
      128
 90
      169
 90
      147
 90
      127
 90
        4
 90
      129
 90
      168
 90
      169
 90
      128
 90
        4
 90
      130
 90
      167
 90
      168
 90
      129
 90
        4
 90
      131
 90
      166
 90
      167
 90
      130
 90
        4
 90
      132
 90
      165
 90
      166
 90
      131
 90
        4
 90
      134
 90
      176
 90
      164
 90
      133
 90
        4
 90
      133
 90
      164
 90
      165
 90
      132
 90
        3
 90
        0
 90
      135
 90
      136
 90
        3
 90
      103
 90
      107
 90
      105
 90
        4
 90
        3
 90
      103
 90
      195
 90
      180
 90
        4
 90
        0
 90
      107
 90
      103
 90
        3
 90
        3
 90
        0
 90
      137
 90
      138
 90
        3
 90
        0
 90
      136
 90
      137
 90
        3
 90
        0
 90
      138
 90
      139
 90
        3
 90
        0
 90
      139
 90
      140
 90
        3
 90
        0
 90
      141
 90
      142
 90
        3
 90
        0
 90
      140
 90
      141
 90
        3
 90
        0
 90
      143
 90
      144
 90
        3
 90
        0
 90
      142
 90
      143
 90
        3
 90
        0
 90
      145
 90
      107
 90
        3
 90
        0
 90
      144
 90
      145
 90
        3
 90
      194
 90
      103
 90
      193
 90
        3
 90
      103
 90
      194
 90
      195
 90
        3
 90
      193
 90
      103
 90
      192
 90
        4
 90
      192
 90
      103
 90
        4
 90
      191
 90
        3
 90
      191
 90
        4
 90
      190
 90
        4
 90
      190
 90
        4
 90
      178
 90
      189
 90
        4
 90
        4
 90
      103
 90
       95
 90
        7
 90
        3
 90
        7
 90
       96
 90
       97
 90
        3
 90
        7
 90
       95
 90
       96
 90
        3
 90
        7
 90
       98
 90
       99
 90
        3
 90
        7
 90
       97
 90
       98
 90
        3
 90
        7
 90
       99
 90
      100
 90
        3
 90
        7
 90
      100
 90
      101
 90
        3
 90
        7
 90
      101
 90
       87
 90
        4
 90
        7
 90
       87
 90
       66
 90
        9
 90
        4
 90
       45
 90
       66
 90
       67
 90
       85
 90
        4
 90
       85
 90
       67
 90
       68
 90
       84
 90
        4
 90
       84
 90
       68
 90
       69
 90
       83
 90
        4
 90
       83
 90
       69
 90
       70
 90
       82
 90
        4
 90
       82
 90
       70
 90
       71
 90
       81
 90
        4
 90
       81
 90
       71
 90
       72
 90
       80
 90
        4
 90
       80
 90
       72
 90
       73
 90
       79
 90
        4
 90
       79
 90
       73
 90
       74
 90
       78
 90
        3
 90
        9
 90
       66
 90
       45
 90
        4
 90
        9
 90
       45
 90
      154
 90
      155
 90
        5
 90
       78
 90
       74
 90
       75
 90
       76
 90
       77
 90
        3
 90
      154
 90
       45
 90
      153
 90
        4
 90
      149
 90
       13
 90
       10
 90
      148
 90
        4
 90
      150
 90
       43
 90
       13
 90
      149
 90
        3
 90
      150
 90
       42
 90
       43
 90
        3
 90
      150
 90
       41
 90
       42
 90
        4
 90
      151
 90
       40
 90
       41
 90
      150
 90
        3
 90
      151
 90
       39
 90
       40
 90
        3
 90
      151
 90
       38
 90
       39
 90
        4
 90
      152
 90
       37
 90
       38
 90
      151
 90
        3
 90
      152
 90
       36
 90
       37
 90
        4
 90
      153
 90
       45
 90
       34
 90
       35
 90
        3
 90
       30
 90
       45
 90
       29
 90
        3
 90
       45
 90
       30
 90
       31
 90
        3
 90
       32
 90
       45
 90
       31
 90
        3
 90
       45
 90
       32
 90
       33
 90
        3
 90
       34
 90
       45
 90
       33
 90
        4
 90
      153
 90
       35
 90
       36
 90
      152
 94
      422
 90
      147
 90
      169
 90
      169
 90
      170
 90
      146
 90
      170
 90
      146
 90
      147
 90
      168
 90
      169
 90
      168
 90
      171
 90
      170
 90
      171
 90
      167
 90
      168
 90
      167
 90
      172
 90
      171
 90
      172
 90
      166
 90
      167
 90
      166
 90
      173
 90
      172
 90
      173
 90
      165
 90
      166
 90
      165
 90
      174
 90
      173
 90
      174
 90
      164
 90
      165
 90
      164
 90
      175
 90
      174
 90
      175
 90
      164
 90
      176
 90
      176
 90
      177
 90
      175
 90
      177
 90
        0
 90
      176
 90
        0
 90
        1
 90
        1
 90
      177
 90
        0
 90
        3
 90
        2
 90
        3
 90
        1
 90
        2
 90
        3
 90
      180
 90
      180
 90
      181
 90
        2
 90
      181
 90
      180
 90
      195
 90
      182
 90
      195
 90
      181
 90
      182
 90
      194
 90
      195
 90
      183
 90
      194
 90
      182
 90
      183
 90
      193
 90
      194
 90
      184
 90
      193
 90
      183
 90
      184
 90
      192
 90
      193
 90
      185
 90
      192
 90
      184
 90
      185
 90
      191
 90
      192
 90
      186
 90
      191
 90
      185
 90
      186
 90
      190
 90
      191
 90
      187
 90
      190
 90
      186
 90
      187
 90
      189
 90
      190
 90
      188
 90
      189
 90
      187
 90
      188
 90
      178
 90
      189
 90
      178
 90
      179
 90
      179
 90
      188
 90
        4
 90
      178
 90
        4
 90
        5
 90
        5
 90
      179
 90
        4
 90
        7
 90
        6
 90
        7
 90
        5
 90
        6
 90
        7
 90
        9
 90
        8
 90
        9
 90
        6
 90
        8
 90
        9
 90
      155
 90
      155
 90
      156
 90
        8
 90
      156
 90
      154
 90
      155
 90
      154
 90
      157
 90
      156
 90
      157
 90
      153
 90
      154
 90
      153
 90
      158
 90
      157
 90
      158
 90
      152
 90
      153
 90
      152
 90
      159
 90
      158
 90
      159
 90
      151
 90
      152
 90
      151
 90
      160
 90
      159
 90
      160
 90
      150
 90
      151
 90
      150
 90
      161
 90
      160
 90
      161
 90
      149
 90
      150
 90
      149
 90
      162
 90
      161
 90
      162
 90
      148
 90
      149
 90
      148
 90
      163
 90
      162
 90
      163
 90
       10
 90
      148
 90
       10
 90
       11
 90
       11
 90
      163
 90
       10
 90
       13
 90
       12
 90
       13
 90
       11
 90
       12
 90
       13
 90
       43
 90
       14
 90
       43
 90
       12
 90
       14
 90
       42
 90
       43
 90
       15
 90
       42
 90
       14
 90
       15
 90
       41
 90
       42
 90
       16
 90
       41
 90
       15
 90
       16
 90
       40
 90
       41
 90
       17
 90
       40
 90
       16
 90
       17
 90
       39
 90
       40
 90
       18
 90
       39
 90
       17
 90
       18
 90
       38
 90
       39
 90
       19
 90
       38
 90
       18
 90
       19
 90
       37
 90
       38
 90
       20
 90
       37
 90
       19
 90
       20
 90
       36
 90
       37
 90
       21
 90
       36
 90
       20
 90
       21
 90
       35
 90
       36
 90
       22
 90
       35
 90
       21
 90
       22
 90
       34
 90
       35
 90
       23
 90
       34
 90
       22
 90
       23
 90
       33
 90
       34
 90
       24
 90
       33
 90
       23
 90
       24
 90
       32
 90
       33
 90
       25
 90
       32
 90
       24
 90
       25
 90
       31
 90
       32
 90
       26
 90
       31
 90
       25
 90
       26
 90
       30
 90
       31
 90
       27
 90
       30
 90
       26
 90
       27
 90
       29
 90
       30
 90
       28
 90
       29
 90
       27
 90
       28
 90
       29
 90
       45
 90
       44
 90
       45
 90
       28
 90
       44
 90
       45
 90
       85
 90
       46
 90
       85
 90
       44
 90
       46
 90
       84
 90
       85
 90
       47
 90
       84
 90
       46
 90
       47
 90
       83
 90
       84
 90
       48
 90
       83
 90
       47
 90
       48
 90
       82
 90
       83
 90
       49
 90
       82
 90
       48
 90
       49
 90
       81
 90
       82
 90
       50
 90
       81
 90
       49
 90
       50
 90
       80
 90
       81
 90
       51
 90
       80
 90
       50
 90
       51
 90
       79
 90
       80
 90
       52
 90
       79
 90
       51
 90
       52
 90
       78
 90
       79
 90
       53
 90
       78
 90
       52
 90
       53
 90
       77
 90
       78
 90
       54
 90
       77
 90
       53
 90
       54
 90
       76
 90
       77
 90
       55
 90
       76
 90
       54
 90
       55
 90
       75
 90
       76
 90
       56
 90
       75
 90
       55
 90
       56
 90
       74
 90
       75
 90
       57
 90
       74
 90
       56
 90
       57
 90
       73
 90
       74
 90
       58
 90
       73
 90
       57
 90
       58
 90
       72
 90
       73
 90
       59
 90
       72
 90
       58
 90
       59
 90
       71
 90
       72
 90
       60
 90
       71
 90
       59
 90
       60
 90
       70
 90
       71
 90
       61
 90
       70
 90
       60
 90
       61
 90
       69
 90
       70
 90
       62
 90
       69
 90
       61
 90
       62
 90
       68
 90
       69
 90
       63
 90
       68
 90
       62
 90
       63
 90
       67
 90
       68
 90
       64
 90
       67
 90
       63
 90
       64
 90
       66
 90
       67
 90
       65
 90
       66
 90
       64
 90
       65
 90
       66
 90
       87
 90
       86
 90
       87
 90
       65
 90
       86
 90
       87
 90
      101
 90
       88
 90
      101
 90
       86
 90
       88
 90
      100
 90
      101
 90
       89
 90
      100
 90
       88
 90
       89
 90
       99
 90
      100
 90
       90
 90
       99
 90
       89
 90
       90
 90
       98
 90
       99
 90
       91
 90
       98
 90
       90
 90
       91
 90
       97
 90
       98
 90
       92
 90
       97
 90
       91
 90
       92
 90
       96
 90
       97
 90
       93
 90
       96
 90
       92
 90
       93
 90
       95
 90
       96
 90
       94
 90
       95
 90
       93
 90
       94
 90
       95
 90
      103
 90
      102
 90
      103
 90
       94
 90
      102
 90
      103
 90
      105
 90
      104
 90
      105
 90
      102
 90
      104
 90
      105
 90
      107
 90
      106
 90
      107
 90
      104
 90
      106
 90
      107
 90
      145
 90
      108
 90
      145
 90
      106
 90
      108
 90
      144
 90
      145
 90
      109
 90
      144
 90
      108
 90
      109
 90
      143
 90
      144
 90
      110
 90
      143
 90
      109
 90
      110
 90
      142
 90
      143
 90
      111
 90
      142
 90
      110
 90
      111
 90
      141
 90
      142
 90
      112
 90
      141
 90
      111
 90
      112
 90
      140
 90
      141
 90
      113
 90
      140
 90
      112
 90
      113
 90
      139
 90
      140
 90
      114
 90
      139
 90
      113
 90
      114
 90
      138
 90
      139
 90
      115
 90
      138
 90
      114
 90
      115
 90
      137
 90
      138
 90
      116
 90
      137
 90
      115
 90
      116
 90
      136
 90
      137
 90
      117
 90
      136
 90
      116
 90
      117
 90
      135
 90
      136
 90
      118
 90
      135
 90
      117
 90
      118
 90
      134
 90
      135
 90
      119
 90
      134
 90
      118
 90
      119
 90
      133
 90
      134
 90
      120
 90
      133
 90
      119
 90
      120
 90
      132
 90
      133
 90
      121
 90
      132
 90
      120
 90
      121
 90
      131
 90
      132
 90
      122
 90
      131
 90
      121
 90
      122
 90
      130
 90
      131
 90
      123
 90
      130
 90
      122
 90
      123
 90
      129
 90
      130
 90
      124
 90
      129
 90
      123
 90
      124
 90
      128
 90
      129
 90
      125
 90
      128
 90
      124
 90
      125
 90
      127
 90
      128
 90
      126
 90
      127
 90
      125
 90
      126
 90
      127
 90
      147
 90
      126
 90
      146
 90
        1
 90
      118
 90
      119
 90
      177
 90
      125
 90
      170
 90
      124
 90
      171
 90
      123
 90
      172
 90
      122
 90
      173
 90
      121
 90
      174
 90
      120
 90
      175
 90
        1
 90
      117
 90
      102
 90
      106
 90
      102
 90
      182
 90
        2
 90
      102
 90
        1
 90
      106
 90
        1
 90
      115
 90
        1
 90
      116
 90
        1
 90
      114
 90
        1
 90
      113
 90
        1
 90
      111
 90
        1
 90
      112
 90
        1
 90
      109
 90
        1
 90
      110
 90
        1
 90
      108
 90
      102
 90
      184
 90
      102
 90
      183
 90
      102
 90
      185
 90
        5
 90
      186
 90
        5
 90
      102
 90
        5
 90
      187
 90
        6
 90
       94
 90
        6
 90
       92
 90
        6
 90
       93
 90
        6
 90
       90
 90
        6
 90
       91
 90
        6
 90
       89
 90
        6
 90
       88
 90
        6
 90
       86
 90
        8
 90
       65
 90
       46
 90
       64
 90
       44
 90
       65
 90
       47
 90
       63
 90
       48
 90
       62
 90
       49
 90
       61
 90
       50
 90
       60
 90
       51
 90
       59
 90
       52
 90
       58
 90
       53
 90
       57
 90
        8
 90
       44
 90
       44
 90
      157
 90
       44
 90
      158
 90
       12
 90
      162
 90
       14
 90
      161
 90
       15
 90
      161
 90
       16
 90
      161
 90
       17
 90
      160
 90
       18
 90
      160
 90
       19
 90
      160
 90
       20
 90
      159
 90
       21
 90
      159
 90
       22
 90
      158
 90
       23
 90
       44
 90
       27
 90
       44
 90
       26
 90
       44
 90
       25
 90
       44
 90
       24
 90
       44
 90
      134
 90
      176
 90
        0
 90
      135
 90
      128
 90
      169
 90
      129
 90
      168
 90
      130
 90
      167
 90
      131
 90
      166
 90
      132
 90
      165
 90
      133
 90
      164
 90
        0
 90
      136
 90
      103
 90
      107
 90
        3
 90
      103
 90
      103
 90
      195
 90
        0
 90
      107
 90
        0
 90
      137
 90
        0
 90
      138
 90
        0
 90
      139
 90
        0
 90
      140
 90
        0
 90
      141
 90
        0
 90
      142
 90
        0
 90
      143
 90
        0
 90
      144
 90
        0
 90
      145
 90
      103
 90
      194
 90
      103
 90
      193
 90
      103
 90
      192
 90
        4
 90
      103
 90
        4
 90
      191
 90
        4
 90
      190
 90
        7
 90
       95
 90
        7
 90
       96
 90
        7
 90
       97
 90
        7
 90
       98
 90
        7
 90
       99
 90
        7
 90
      100
 90
        7
 90
      101
 90
        7
 90
       87
 90
        9
 90
       66
 90
       45
 90
       66
 90
       67
 90
       85
 90
       68
 90
       84
 90
       69
 90
       83
 90
       70
 90
       82
 90
       71
 90
       81
 90
       72
 90
       80
 90
       73
 90
       79
 90
       74
 90
       78
 90
        9
 90
       45
 90
       45
 90
      154
 90
       45
 90
      153
 90
       13
 90
      149
 90
       43
 90
      150
 90
       42
 90
      150
 90
       41
 90
      150
 90
       40
 90
      151
 90
       39
 90
      151
 90
       38
 90
      151
 90
       37
 90
      152
 90
       36
 90
      152
 90
       34
 90
       45
 90
       35
 90
      153
 90
       30
 90
       45
 90
       31
 90
       45
 90
       32
 90
       45
 90
       33
 90
       45
 95
      422
140
0.0
140
0.0
140
0.0
140
0.0
140
0.0
140
0.0
140
0.0
140
0.0
140
0.0
140
0.0
140
0.0
140
0.0
140
0.0
140
0.0
140
0.0
140
0.0
140
0.0
140
0.0
140
0.0
140
0.0
140
0.0
140
0.0
140
0.0
140
0.0
140
0.0
140
0.0
140
0.0
140
0.0
140
0.0
140
0.0
140
0.0
140
0.0
140
0.0
140
0.0
140
0.0
140
0.0
140
0.0
140
0.0
140
0.0
140
0.0
140
0.0
140
0.0
140
0.0
140
0.0
140
0.0
140
0.0
140
0.0
140
0.0
140
0.0
140
0.0
140
0.0
140
0.0
140
0.0
140
0.0
140
0.0
140
0.0
140
0.0
140
0.0
140
0.0
140
0.0
140
0.0
140
0.0
140
0.0
140
0.0
140
0.0
140
0.0
140
0.0
140
0.0
140
0.0
140
0.0
140
0.0
140
0.0
140
0.0
140
0.0
140
0.0
140
0.0
140
0.0
140
0.0
140
0.0
140
0.0
140
0.0
140
0.0
140
0.0
140
0.0
140
0.0
140
0.0
140
0.0
140
0.0
140
0.0
140
0.0
140
0.0
140
0.0
140
0.0
140
0.0
140
0.0
140
0.0
140
0.0
140
0.0
140
0.0
140
0.0
140
0.0
140
0.0
140
0.0
140
0.0
140
0.0
140
0.0
140
0.0
140
0.0
140
0.0
140
0.0
140
0.0
140
0.0
140
0.0
140
0.0
140
0.0
140
0.0
140
0.0
140
0.0
140
0.0
140
0.0
140
0.0
140
0.0
140
0.0
140
0.0
140
0.0
140
0.0
140
0.0
140
0.0
140
0.0
140
0.0
140
0.0
140
0.0
140
0.0
140
0.0
140
0.0
140
0.0
140
0.0
140
0.0
140
0.0
140
0.0
140
0.0
140
0.0
140
0.0
140
0.0
140
0.0
140
0.0
140
0.0
140
0.0
140
0.0
140
0.0
140
0.0
140
0.0
140
0.0
140
0.0
140
0.0
140
0.0
140
0.0
140
0.0
140
0.0
140
0.0
140
0.0
140
0.0
140
0.0
140
0.0
140
0.0
140
0.0
140
0.0
140
0.0
140
0.0
140
0.0
140
0.0
140
0.0
140
0.0
140
0.0
140
0.0
140
0.0
140
0.0
140
0.0
140
0.0
140
0.0
140
0.0
140
0.0
140
0.0
140
0.0
140
0.0
140
0.0
140
0.0
140
0.0
140
0.0
140
0.0
140
0.0
140
0.0
140
0.0
140
0.0
140
0.0
140
0.0
140
0.0
140
0.0
140
0.0
140
0.0
140
0.0
140
0.0
140
0.0
140
0.0
140
0.0
140
0.0
140
0.0
140
0.0
140
0.0
140
0.0
140
0.0
140
0.0
140
0.0
140
0.0
140
0.0
140
0.0
140
0.0
140
0.0
140
0.0
140
0.0
140
0.0
140
0.0
140
0.0
140
0.0
140
0.0
140
0.0
140
0.0
140
0.0
140
0.0
140
0.0
140
0.0
140
0.0
140
0.0
140
0.0
140
0.0
140
0.0
140
0.0
140
0.0
140
0.0
140
0.0
140
0.0
140
0.0
140
0.0
140
0.0
140
0.0
140
0.0
140
0.0
140
0.0
140
0.0
140
0.0
140
0.0
140
0.0
140
0.0
140
0.0
140
0.0
140
0.0
140
0.0
140
0.0
140
0.0
140
0.0
140
0.0
140
0.0
140
0.0
140
0.0
140
0.0
140
0.0
140
0.0
140
0.0
140
0.0
140
0.0
140
0.0
140
0.0
140
0.0
140
0.0
140
0.0
140
0.0
140
0.0
140
0.0
140
0.0
140
0.0
140
0.0
140
0.0
140
0.0
140
0.0
140
0.0
140
0.0
140
0.0
140
0.0
140
0.0
140
0.0
140
0.0
140
0.0
140
0.0
140
0.0
140
0.0
140
0.0
140
0.0
140
0.0
140
0.0
140
0.0
140
0.0
140
0.0
140
0.0
140
0.0
140
0.0
140
0.0
140
0.0
140
0.0
140
0.0
140
0.0
140
0.0
140
0.0
140
0.0
140
0.0
140
0.0
140
0.0
140
0.0
140
0.0
140
0.0
140
0.0
140
0.0
140
0.0
140
0.0
140
0.0
140
0.0
140
0.0
140
0.0
140
0.0
140
0.0
140
0.0
140
0.0
140
0.0
140
0.0
140
0.0
140
0.0
140
0.0
140
0.0
140
0.0
140
0.0
140
0.0
140
0.0
140
0.0
140
0.0
140
0.0
140
0.0
140
0.0
140
0.0
140
0.0
140
0.0
140
0.0
140
0.0
140
0.0
140
0.0
140
0.0
140
0.0
140
0.0
140
0.0
140
0.0
140
0.0
140
0.0
140
0.0
140
0.0
140
0.0
140
0.0
140
0.0
140
0.0
140
0.0
140
0.0
140
0.0
140
0.0
140
0.0
140
0.0
140
0.0
140
0.0
140
0.0
140
0.0
140
0.0
140
0.0
140
0.0
140
0.0
140
0.0
140
0.0
140
0.0
140
0.0
140
0.0
140
0.0
140
0.0
140
0.0
140
0.0
140
0.0
140
0.0
140
0.0
140
0.0
140
0.0
140
0.0
140
0.0
140
0.0
140
0.0
140
0.0
140
0.0
140
0.0
140
0.0
140
0.0
140
0.0
140
0.0
140
0.0
140
0.0
140
0.0
140
0.0
140
0.0
140
0.0
140
0.0
140
0.0
140
0.0
140
0.0
140
0.0
140
0.0
140
0.0
140
0.0
140
0.0
140
0.0
140
0.0
 90
        0
  0
POLYLINE
  5
FA
330
1F
100
AcDbEntity
  8
OracDecor_cornice_mouldings
 62
   111
420
 10085560
100
AcDb2dPolyline
 66
     1
 10
0.0
 20
0.0
 30
0.0000004703104537
 70
     1
210
-0.9999999999999769
220
0.0000001788139343
230
-0.0000001192092896
  0
VERTEX
  5
FB
330
FA
100
AcDbEntity
  8
OracDecor_cornice_mouldings
 62
   111
420
 10085560
100
AcDbVertex
100
AcDb2dVertex
 10
-29.59155654907227
 20
-0.0000411384789913
 30
0.0000004703104537
  0
VERTEX
  5
FC
330
FA
100
AcDbEntity
  8
OracDecor_cornice_mouldings
 62
   111
420
 10085560
100
AcDbVertex
100
AcDb2dVertex
 10
0.0000393496411562
 20
-28.0751895904541
 30
0.0000004703104537
  0
VERTEX
  5
FD
330
FA
100
AcDbEntity
  8
OracDecor_cornice_mouldings
 62
   111
420
 10085560
100
AcDbVertex
100
AcDb2dVertex
 10
0.0000388013540942
 20
-34.34685134887696
 30
0.0000004703104537
  0
VERTEX
  5
FE
330
FA
100
AcDbEntity
  8
OracDecor_cornice_mouldings
 62
   111
420
 10085560
100
AcDbVertex
100
AcDb2dVertex
 10
-0.372115433216095
 20
-34.51222610473633
 30
0.0000004703104537
  0
VERTEX
  5
FF
330
FA
100
AcDbEntity
  8
OracDecor_cornice_mouldings
 62
   111
420
 10085560
100
AcDbVertex
100
AcDb2dVertex
 10
-0.9207586050033569
 20
-34.97253036499023
 30
0.0000004703104537
  0
VERTEX
  5
100
330
FA
100
AcDbEntity
  8
OracDecor_cornice_mouldings
 62
   111
420
 10085560
100
AcDbVertex
100
AcDb2dVertex
 10
-1.247180342674255
 20
-35.60699081420898
 30
0.0000004703104537
  0
VERTEX
  5
101
330
FA
100
AcDbEntity
  8
OracDecor_cornice_mouldings
 62
   111
420
 10085560
100
AcDbVertex
100
AcDb2dVertex
 10
-1.300630092620849
 20
-36.31705093383789
 30
0.0000004703104537
  0
VERTEX
  5
102
330
FA
100
AcDbEntity
  8
OracDecor_cornice_mouldings
 62
   111
420
 10085560
100
AcDbVertex
100
AcDb2dVertex
 10
-1.072803020477294
 20
-36.99240112304688
 30
0.0000004703104537
  0
VERTEX
  5
103
330
FA
100
AcDbEntity
  8
OracDecor_cornice_mouldings
 62
   111
420
 10085560
100
AcDbVertex
100
AcDb2dVertex
 10
-0.5990844964981079
 20
-37.52815628051758
 30
0.0000004703104537
  0
VERTEX
  5
104
330
FA
100
AcDbEntity
  8
OracDecor_cornice_mouldings
 62
   111
420
 10085560
100
AcDbVertex
100
AcDb2dVertex
 10
0.0000384959348594
 20
-37.84045028686524
 30
0.0000004703104537
  0
VERTEX
  5
105
330
FA
100
AcDbEntity
  8
OracDecor_cornice_mouldings
 62
   111
420
 10085560
100
AcDbVertex
100
AcDb2dVertex
 10
0.0000380128258257
 20
-43.36654281616211
 30
0.0000004703104537
  0
VERTEX
  5
106
330
FA
100
AcDbEntity
  8
OracDecor_cornice_mouldings
 62
   111
420
 10085560
100
AcDbVertex
100
AcDb2dVertex
 10
-5.101959228515625
 20
-45.72186279296874
 30
0.0000004703104537
  0
VERTEX
  5
107
330
FA
100
AcDbEntity
  8
OracDecor_cornice_mouldings
 62
   111
420
 10085560
100
AcDbVertex
100
AcDb2dVertex
 10
-5.101962089538574
 20
-73.74465179443359
 30
0.0000004703104537
  0
VERTEX
  5
108
330
FA
100
AcDbEntity
  8
OracDecor_cornice_mouldings
 62
   111
420
 10085560
100
AcDbVertex
100
AcDb2dVertex
 10
0.000034915516153
 20
-78.795654296875
 30
0.0000004703104537
  0
VERTEX
  5
109
330
FA
100
AcDbEntity
  8
OracDecor_cornice_mouldings
 62
   111
420
 10085560
100
AcDbVertex
100
AcDb2dVertex
 10
0.0000341850791301
 20
-87.1508560180664
 30
0.0000004703104537
  0
VERTEX
  5
10A
330
FA
100
AcDbEntity
  8
OracDecor_cornice_mouldings
 62
   111
420
 10085560
100
AcDbVertex
100
AcDb2dVertex
 10
-0.3721200525760651
 20
-87.31622314453124
 30
0.0000004703104537
  0
VERTEX
  5
10B
330
FA
100
AcDbEntity
  8
OracDecor_cornice_mouldings
 62
   111
420
 10085560
100
AcDbVertex
100
AcDb2dVertex
 10
-0.9207632541656494
 20
-87.77653503417969
 30
0.0000004703104537
  0
VERTEX
  5
10C
330
FA
100
AcDbEntity
  8
OracDecor_cornice_mouldings
 62
   111
420
 10085560
100
AcDbVertex
100
AcDb2dVertex
 10
-1.247184991836547
 20
-88.41099548339844
 30
0.0000004703104537
  0
VERTEX
  5
10D
330
FA
100
AcDbEntity
  8
OracDecor_cornice_mouldings
 62
   111
420
 10085560
100
AcDbVertex
100
AcDb2dVertex
 10
-1.300634622573852
 20
-89.12104797363282
 30
0.0000004703104537
  0
VERTEX
  5
10E
330
FA
100
AcDbEntity
  8
OracDecor_cornice_mouldings
 62
   111
420
 10085560
100
AcDbVertex
100
AcDb2dVertex
 10
-1.072807669639587
 20
-89.79640197753907
 30
0.0000004703104537
  0
VERTEX
  5
10F
330
FA
100
AcDbEntity
  8
OracDecor_cornice_mouldings
 62
   111
420
 10085560
100
AcDbVertex
100
AcDb2dVertex
 10
-0.5990890860557557
 20
-90.3321533203125
 30
0.0000004703104537
  0
VERTEX
  5
110
330
FA
100
AcDbEntity
  8
OracDecor_cornice_mouldings
 62
   111
420
 10085560
100
AcDbVertex
100
AcDb2dVertex
 10
0.0000338796598953
 20
-90.64443969726562
 30
0.0000004703104537
  0
VERTEX
  5
111
330
FA
100
AcDbEntity
  8
OracDecor_cornice_mouldings
 62
   111
420
 10085560
100
AcDbVertex
100
AcDb2dVertex
 10
0.0000331492265104
 20
-98.99964904785157
 30
0.0000004703104537
  0
VERTEX
  5
112
330
FA
100
AcDbEntity
  8
OracDecor_cornice_mouldings
 62
   111
420
 10085560
100
AcDbVertex
100
AcDb2dVertex
 10
-7.142764091491699
 20
-98.99964904785157
 30
0.0000004703104537
  0
VERTEX
  5
113
330
FA
100
AcDbEntity
  8
OracDecor_cornice_mouldings
 62
   111
420
 10085560
100
AcDbVertex
100
AcDb2dVertex
 10
-7.585190773010253
 20
-98.28009796142579
 30
0.0000004703104537
  0
VERTEX
  5
114
330
FA
100
AcDbEntity
  8
OracDecor_cornice_mouldings
 62
   111
420
 10085560
100
AcDbVertex
100
AcDb2dVertex
 10
-8.18814468383789
 20
-97.40805816650391
 30
0.0000004703104537
  0
VERTEX
  5
115
330
FA
100
AcDbEntity
  8
OracDecor_cornice_mouldings
 62
   111
420
 10085560
100
AcDbVertex
100
AcDb2dVertex
 10
-8.976934432983398
 20
-96.43391418457031
 30
0.0000004703104537
  0
VERTEX
  5
116
330
FA
100
AcDbEntity
  8
OracDecor_cornice_mouldings
 62
   111
420
 10085560
100
AcDbVertex
100
AcDb2dVertex
 10
-9.651008605957031
 20
-95.72705078125
 30
0.0000004703104537
  0
VERTEX
  5
117
330
FA
100
AcDbEntity
  8
OracDecor_cornice_mouldings
 62
   111
420
 10085560
100
AcDbVertex
100
AcDb2dVertex
 10
-10.35302352905273
 20
-95.08883666992188
 30
0.0000004703104537
  0
VERTEX
  5
118
330
FA
100
AcDbEntity
  8
OracDecor_cornice_mouldings
 62
   111
420
 10085560
100
AcDbVertex
100
AcDb2dVertex
 10
-11.0733699798584
 20
-94.52433776855469
 30
0.0000004703104537
  0
VERTEX
  5
119
330
FA
100
AcDbEntity
  8
OracDecor_cornice_mouldings
 62
   111
420
 10085560
100
AcDbVertex
100
AcDb2dVertex
 10
-11.82476997375488
 20
-94.01814270019531
 30
0.0000004703104537
  0
VERTEX
  5
11A
330
FA
100
AcDbEntity
  8
OracDecor_cornice_mouldings
 62
   111
420
 10085560
100
AcDbVertex
100
AcDb2dVertex
 10
-12.60446166992187
 20
-93.57051086425782
 30
0.0000004703104537
  0
VERTEX
  5
11B
330
FA
100
AcDbEntity
  8
OracDecor_cornice_mouldings
 62
   111
420
 10085560
100
AcDbVertex
100
AcDb2dVertex
 10
-13.41936588287353
 20
-93.17648315429687
 30
0.0000004703104537
  0
VERTEX
  5
11C
330
FA
100
AcDbEntity
  8
OracDecor_cornice_mouldings
 62
   111
420
 10085560
100
AcDbVertex
100
AcDb2dVertex
 10
-14.26207542419433
 20
-92.83837890624999
 30
0.0000004703104537
  0
VERTEX
  5
11D
330
FA
100
AcDbEntity
  8
OracDecor_cornice_mouldings
 62
   111
420
 10085560
100
AcDbVertex
100
AcDb2dVertex
 10
-15.15950489044189
 20
-92.54806518554687
 30
0.0000004703104537
  0
VERTEX
  5
11E
330
FA
100
AcDbEntity
  8
OracDecor_cornice_mouldings
 62
   111
420
 10085560
100
AcDbVertex
100
AcDb2dVertex
 10
-16.3628978729248
 20
-92.25798797607422
 30
0.0000004703104537
  0
VERTEX
  5
11F
330
FA
100
AcDbEntity
  8
OracDecor_cornice_mouldings
 62
   111
420
 10085560
100
AcDbVertex
100
AcDb2dVertex
 10
-17.38362884521484
 20
-92.08745574951171
 30
0.0000004703104537
  0
VERTEX
  5
120
330
FA
100
AcDbEntity
  8
OracDecor_cornice_mouldings
 62
   111
420
 10085560
100
AcDbVertex
100
AcDb2dVertex
 10
-18.48817634582519
 20
-91.97511291503905
 30
0.0000004703104537
  0
VERTEX
  5
121
330
FA
100
AcDbEntity
  8
OracDecor_cornice_mouldings
 62
   111
420
 10085560
100
AcDbVertex
100
AcDb2dVertex
 10
-19.38756561279297
 20
-91.92823791503906
 30
0.0000004703104537
  0
VERTEX
  5
122
330
FA
100
AcDbEntity
  8
OracDecor_cornice_mouldings
 62
   111
420
 10085560
100
AcDbVertex
100
AcDb2dVertex
 10
-19.38756561279297
 20
-85.86705017089844
 30
0.0000004703104537
  0
VERTEX
  5
123
330
FA
100
AcDbEntity
  8
OracDecor_cornice_mouldings
 62
   111
420
 10085560
100
AcDbVertex
100
AcDb2dVertex
 10
-19.74687957763672
 20
-85.85168457031249
 30
0.0000004703104537
  0
VERTEX
  5
124
330
FA
100
AcDbEntity
  8
OracDecor_cornice_mouldings
 62
   111
420
 10085560
100
AcDbVertex
100
AcDb2dVertex
 10
-20.5074348449707
 20
-85.73861694335937
 30
0.0000004703104537
  0
VERTEX
  5
125
330
FA
100
AcDbEntity
  8
OracDecor_cornice_mouldings
 62
   111
420
 10085560
100
AcDbVertex
100
AcDb2dVertex
 10
-21.29050445556641
 20
-85.49704742431641
 30
0.0000004703104537
  0
VERTEX
  5
126
330
FA
100
AcDbEntity
  8
OracDecor_cornice_mouldings
 62
   111
420
 10085560
100
AcDbVertex
100
AcDb2dVertex
 10
-22.02436256408692
 20
-85.13420104980468
 30
0.0000004703104537
  0
VERTEX
  5
127
330
FA
100
AcDbEntity
  8
OracDecor_cornice_mouldings
 62
   111
420
 10085560
100
AcDbVertex
100
AcDb2dVertex
 10
-22.68985748291016
 20
-84.6595687866211
 30
0.0000004703104537
  0
VERTEX
  5
128
330
FA
100
AcDbEntity
  8
OracDecor_cornice_mouldings
 62
   111
420
 10085560
100
AcDbVertex
100
AcDb2dVertex
 10
-23.2698917388916
 20
-84.08533477783203
 30
0.0000004703104537
  0
VERTEX
  5
129
330
FA
100
AcDbEntity
  8
OracDecor_cornice_mouldings
 62
   111
420
 10085560
100
AcDbVertex
100
AcDb2dVertex
 10
-23.74931716918945
 20
-83.42649841308594
 30
0.0000004703104537
  0
VERTEX
  5
12A
330
FA
100
AcDbEntity
  8
OracDecor_cornice_mouldings
 62
   111
420
 10085560
100
AcDbVertex
100
AcDb2dVertex
 10
-24.11582374572754
 20
-82.69996643066406
 30
0.0000004703104537
  0
VERTEX
  5
12B
330
FA
100
AcDbEntity
  8
OracDecor_cornice_mouldings
 62
   111
420
 10085560
100
AcDbVertex
100
AcDb2dVertex
 10
-24.35983467102051
 20
-81.92472839355469
 30
0.0000004703104537
  0
VERTEX
  5
12C
330
FA
100
AcDbEntity
  8
OracDecor_cornice_mouldings
 62
   111
420
 10085560
100
AcDbVertex
100
AcDb2dVertex
 10
-24.47509002685547
 20
-81.1207046508789
 30
0.0000004703104537
  0
VERTEX
  5
12D
330
FA
100
AcDbEntity
  8
OracDecor_cornice_mouldings
 62
   111
420
 10085560
100
AcDbVertex
100
AcDb2dVertex
 10
-24.45857048034668
 20
-80.308837890625
 30
0.0000004703104537
  0
VERTEX
  5
12E
330
FA
100
AcDbEntity
  8
OracDecor_cornice_mouldings
 62
   111
420
 10085560
100
AcDbVertex
100
AcDb2dVertex
 10
-24.31071853637695
 20
-79.51008605957031
 30
0.0000004703104537
  0
VERTEX
  5
12F
330
FA
100
AcDbEntity
  8
OracDecor_cornice_mouldings
 62
   111
420
 10085560
100
AcDbVertex
100
AcDb2dVertex
 10
-24.03535079956055
 20
-78.74515533447265
 30
0.0000004703104537
  0
VERTEX
  5
130
330
FA
100
AcDbEntity
  8
OracDecor_cornice_mouldings
 62
   111
420
 10085560
100
AcDbVertex
100
AcDb2dVertex
 10
-23.63962936401367
 20
-78.03388214111328
 30
0.0000004703104537
  0
VERTEX
  5
131
330
FA
100
AcDbEntity
  8
OracDecor_cornice_mouldings
 62
   111
420
 10085560
100
AcDbVertex
100
AcDb2dVertex
 10
-23.13374328613281
 20
-77.3946304321289
 30
0.0000004703104537
  0
VERTEX
  5
132
330
FA
100
AcDbEntity
  8
OracDecor_cornice_mouldings
 62
   111
420
 10085560
100
AcDbVertex
100
AcDb2dVertex
 10
-22.53088760375977
 20
-76.84403228759766
 30
0.0000004703104537
  0
VERTEX
  5
133
330
FA
100
AcDbEntity
  8
OracDecor_cornice_mouldings
 62
   111
420
 10085560
100
AcDbVertex
100
AcDb2dVertex
 10
-21.84655380249024
 20
-76.39627075195313
 30
0.0000004703104537
  0
VERTEX
  5
134
330
FA
100
AcDbEntity
  8
OracDecor_cornice_mouldings
 62
   111
420
 10085560
100
AcDbVertex
100
AcDb2dVertex
 10
-21.09861183166504
 20
-76.06301879882813
 30
0.0000004703104537
  0
VERTEX
  5
135
330
FA
100
AcDbEntity
  8
OracDecor_cornice_mouldings
 62
   111
420
 10085560
100
AcDbVertex
100
AcDb2dVertex
 10
-20.3062686920166
 20
-75.85282897949219
 30
0.0000004703104537
  0
VERTEX
  5
136
330
FA
100
AcDbEntity
  8
OracDecor_cornice_mouldings
 62
   111
420
 10085560
100
AcDbVertex
100
AcDb2dVertex
 10
-19.38756370544433
 20
-75.76505279541016
 30
0.0000004703104537
  0
VERTEX
  5
137
330
FA
100
AcDbEntity
  8
OracDecor_cornice_mouldings
 62
   111
420
 10085560
100
AcDbVertex
100
AcDb2dVertex
 10
-19.38756370544433
 20
-70.71405029296875
 30
0.0000004703104537
  0
VERTEX
  5
138
330
FA
100
AcDbEntity
  8
OracDecor_cornice_mouldings
 62
   111
420
 10085560
100
AcDbVertex
100
AcDb2dVertex
 10
-18.2622013092041
 20
-70.17937469482422
 30
0.0000004703104537
  0
VERTEX
  5
139
330
FA
100
AcDbEntity
  8
OracDecor_cornice_mouldings
 62
   111
420
 10085560
100
AcDbVertex
100
AcDb2dVertex
 10
-16.84401512145996
 20
-69.27915954589844
 30
0.0000004703104537
  0
VERTEX
  5
13A
330
FA
100
AcDbEntity
  8
OracDecor_cornice_mouldings
 62
   111
420
 10085560
100
AcDbVertex
100
AcDb2dVertex
 10
-15.7856912612915
 20
-68.28338623046875
 30
0.0000004703104537
  0
VERTEX
  5
13B
330
FA
100
AcDbEntity
  8
OracDecor_cornice_mouldings
 62
   111
420
 10085560
100
AcDbVertex
100
AcDb2dVertex
 10
-15.05715656280517
 20
-67.25688171386718
 30
0.0000004703104537
  0
VERTEX
  5
13C
330
FA
100
AcDbEntity
  8
OracDecor_cornice_mouldings
 62
   111
420
 10085560
100
AcDbVertex
100
AcDb2dVertex
 10
-14.6058931350708
 20
-66.22076416015625
 30
0.0000004703104537
  0
VERTEX
  5
13D
330
FA
100
AcDbEntity
  8
OracDecor_cornice_mouldings
 62
   111
420
 10085560
100
AcDbVertex
100
AcDb2dVertex
 10
-14.35454845428466
 20
-65.10847473144531
 30
0.0000004703104537
  0
VERTEX
  5
13E
330
FA
100
AcDbEntity
  8
OracDecor_cornice_mouldings
 62
   111
420
 10085560
100
AcDbVertex
100
AcDb2dVertex
 10
-14.28556060791015
 20
-64.14775085449218
 30
0.0000004703104537
  0
VERTEX
  5
13F
330
FA
100
AcDbEntity
  8
OracDecor_cornice_mouldings
 62
   111
420
 10085560
100
AcDbVertex
100
AcDb2dVertex
 10
-14.28555679321289
 20
-25.76014518737793
 30
0.0000004703104537
  0
VERTEX
  5
140
330
FA
100
AcDbEntity
  8
OracDecor_cornice_mouldings
 62
   111
420
 10085560
100
AcDbVertex
100
AcDb2dVertex
 10
-23.46916007995606
 20
-24.96471786499024
 30
0.0000004703104537
  0
VERTEX
  5
141
330
FA
100
AcDbEntity
  8
OracDecor_cornice_mouldings
 62
   111
420
 10085560
100
AcDbVertex
100
AcDb2dVertex
 10
-23.46916007995606
 20
-19.91371536254883
 30
0.0000004703104537
  0
VERTEX
  5
142
330
FA
100
AcDbEntity
  8
OracDecor_cornice_mouldings
 62
   111
420
 10085560
100
AcDbVertex
100
AcDb2dVertex
 10
-24.37070465087891
 20
-19.89144134521484
 30
0.0000004703104537
  0
VERTEX
  5
143
330
FA
100
AcDbEntity
  8
OracDecor_cornice_mouldings
 62
   111
420
 10085560
100
AcDbVertex
100
AcDb2dVertex
 10
-25.51056480407715
 20
-19.75551605224609
 30
0.0000004703104537
  0
VERTEX
  5
144
330
FA
100
AcDbEntity
  8
OracDecor_cornice_mouldings
 62
   111
420
 10085560
100
AcDbVertex
100
AcDb2dVertex
 10
-26.86513519287109
 20
-19.41056442260742
 30
0.0000004703104537
  0
VERTEX
  5
145
330
FA
100
AcDbEntity
  8
OracDecor_cornice_mouldings
 62
   111
420
 10085560
100
AcDbVertex
100
AcDb2dVertex
 10
-27.98970985412598
 20
-18.90615463256836
 30
0.0000004703104537
  0
VERTEX
  5
146
330
FA
100
AcDbEntity
  8
OracDecor_cornice_mouldings
 62
   111
420
 10085560
100
AcDbVertex
100
AcDb2dVertex
 10
-28.95538139343262
 20
-18.25306701660156
 30
0.0000004703104537
  0
VERTEX
  5
147
330
FA
100
AcDbEntity
  8
OracDecor_cornice_mouldings
 62
   111
420
 10085560
100
AcDbVertex
100
AcDb2dVertex
 10
-29.84505081176758
 20
-17.40256881713867
 30
0.0000004703104537
  0
VERTEX
  5
148
330
FA
100
AcDbEntity
  8
OracDecor_cornice_mouldings
 62
   111
420
 10085560
100
AcDbVertex
100
AcDb2dVertex
 10
-30.64213371276856
 20
-16.3746109008789
 30
0.0000004703104537
  0
VERTEX
  5
149
330
FA
100
AcDbEntity
  8
OracDecor_cornice_mouldings
 62
   111
420
 10085560
100
AcDbVertex
100
AcDb2dVertex
 10
-31.41906547546387
 20
-15.06864833831787
 30
0.0000004703104537
  0
VERTEX
  5
14A
330
FA
100
AcDbEntity
  8
OracDecor_cornice_mouldings
 62
   111
420
 10085560
100
AcDbVertex
100
AcDb2dVertex
 10
-32.24790191650391
 20
-13.48335933685303
 30
0.0000004703104537
  0
VERTEX
  5
14B
330
FA
100
AcDbEntity
  8
OracDecor_cornice_mouldings
 62
   111
420
 10085560
100
AcDbVertex
100
AcDb2dVertex
 10
-33.15677642822266
 20
-11.92772579193115
 30
0.0000004703104537
  0
VERTEX
  5
14C
330
FA
100
AcDbEntity
  8
OracDecor_cornice_mouldings
 62
   111
420
 10085560
100
AcDbVertex
100
AcDb2dVertex
 10
-34.22624969482422
 20
-10.60001277923584
 30
0.0000004703104537
  0
VERTEX
  5
14D
330
FA
100
AcDbEntity
  8
OracDecor_cornice_mouldings
 62
   111
420
 10085560
100
AcDbVertex
100
AcDb2dVertex
 10
-35.5167465209961
 20
-9.466792106628417
 30
0.0000004703104537
  0
VERTEX
  5
14E
330
FA
100
AcDbEntity
  8
OracDecor_cornice_mouldings
 62
   111
420
 10085560
100
AcDbVertex
100
AcDb2dVertex
 10
-37.08736038208008
 20
-8.447417259216308
 30
0.0000004703104537
  0
VERTEX
  5
14F
330
FA
100
AcDbEntity
  8
OracDecor_cornice_mouldings
 62
   111
420
 10085560
100
AcDbVertex
100
AcDb2dVertex
 10
-39.01174926757813
 20
-7.523459434509277
 30
0.0000004703104537
  0
VERTEX
  5
150
330
FA
100
AcDbEntity
  8
OracDecor_cornice_mouldings
 62
   111
420
 10085560
100
AcDbVertex
100
AcDb2dVertex
 10
-41.17923355102539
 20
-6.802855014801025
 30
0.0000004703104537
  0
VERTEX
  5
151
330
FA
100
AcDbEntity
  8
OracDecor_cornice_mouldings
 62
   111
420
 10085560
100
AcDbVertex
100
AcDb2dVertex
 10
-43.47980499267578
 20
-6.355890750885009
 30
0.0000004703104537
  0
VERTEX
  5
152
330
FA
100
AcDbEntity
  8
OracDecor_cornice_mouldings
 62
   111
420
 10085560
100
AcDbVertex
100
AcDb2dVertex
 10
-46.03239440917969
 20
-6.160769462585449
 30
0.0000004703104537
  0
VERTEX
  5
153
330
FA
100
AcDbEntity
  8
OracDecor_cornice_mouldings
 62
   111
420
 10085560
100
AcDbVertex
100
AcDb2dVertex
 10
-48.68904113769531
 20
-6.100073337554931
 30
0.0000004703104537
  0
VERTEX
  5
154
330
FA
100
AcDbEntity
  8
OracDecor_cornice_mouldings
 62
   111
420
 10085560
100
AcDbVertex
100
AcDb2dVertex
 10
-49.99955749511719
 20
-6.061243534088134
 30
0.0000004703104537
  0
VERTEX
  5
155
330
FA
100
AcDbEntity
  8
OracDecor_cornice_mouldings
 62
   111
420
 10085560
100
AcDbVertex
100
AcDb2dVertex
 10
-49.99955749511719
 20
-0.0000405707687605
 30
0.0000004703104537
  0
VERTEX
  5
156
330
FA
100
AcDbEntity
  8
OracDecor_cornice_mouldings
 62
   111
420
 10085560
100
AcDbVertex
100
AcDb2dVertex
 10
-44.6211929321289
 20
-0.0000407203842769
 30
0.0000004703104537
  0
VERTEX
  5
157
330
FA
100
AcDbEntity
  8
OracDecor_cornice_mouldings
 62
   111
420
 10085560
100
AcDbVertex
100
AcDb2dVertex
 10
-44.40365219116211
 20
-0.4604251086711884
 30
0.0000004703104537
  0
VERTEX
  5
158
330
FA
100
AcDbEntity
  8
OracDecor_cornice_mouldings
 62
   111
420
 10085560
100
AcDbVertex
100
AcDb2dVertex
 10
-43.939453125
 20
-0.9538943767547607
 30
0.0000004703104537
  0
VERTEX
  5
159
330
FA
100
AcDbEntity
  8
OracDecor_cornice_mouldings
 62
   111
420
 10085560
100
AcDbVertex
100
AcDb2dVertex
 10
-43.32497024536133
 20
-1.244982481002807
 30
0.0000004703104537
  0
VERTEX
  5
15A
330
FA
100
AcDbEntity
  8
OracDecor_cornice_mouldings
 62
   111
420
 10085560
100
AcDbVertex
100
AcDb2dVertex
 10
-42.81613159179687
 20
-1.312845945358276
 30
0.0000004703104537
  0
VERTEX
  5
15B
330
FA
100
AcDbEntity
  8
OracDecor_cornice_mouldings
 62
   111
420
 10085560
100
AcDbVertex
100
AcDb2dVertex
 10
-42.47487640380859
 20
-1.273566007614135
 30
0.0000004703104537
  0
VERTEX
  5
15C
330
FA
100
AcDbEntity
  8
OracDecor_cornice_mouldings
 62
   111
420
 10085560
100
AcDbVertex
100
AcDb2dVertex
 10
-36.42292022705078
 20
-0.0000409484455304
 30
0.0000004703104537
  0
SEQEND
  5
15D
330
FA
100
AcDbEntity
  8
OracDecor_cornice_mouldings
 62
   111
420
 10085560
  0
ENDSEC
  0
SECTION
  2
OBJECTS
  0
DICTIONARY
  5
C
330
0
100
AcDbDictionary
281
     1
  3
ACAD_COLOR
350
DC
  3
ACAD_DETAILVIEWSTYLE
350
F5
  3
ACAD_GROUP
350
D
  3
ACAD_LAYOUT
350
1A
  3
ACAD_MATERIAL
350
AA
  3
ACAD_MLEADERSTYLE
350
F1
  3
ACAD_MLINESTYLE
350
17
  3
ACAD_PLOTSETTINGS
350
19
  3
ACAD_PLOTSTYLENAME
350
E
  3
ACAD_SCALELIST
350
DF
  3
ACAD_SECTIONVIEWSTYLE
350
F3
  3
ACAD_TABLESTYLE
350
DD
  3
ACAD_VISUALSTYLE
350
C3
  3
ACDB_RECOMPOSE_DATA
350
16A
  3
AcDbVariableDictionary
350
15E
  0
DICTIONARY
  5
DC
102
{ACAD_REACTORS
330
C
102
}
330
C
100
AcDbDictionary
281
     1
  0
DICTIONARY
  5
F5
102
{ACAD_REACTORS
330
C
102
}
330
C
100
AcDbDictionary
281
     1
  3
Imperial24
350
F6
  0
DICTIONARY
  5
D
102
{ACAD_REACTORS
330
C
102
}
330
C
100
AcDbDictionary
281
     1
  0
DICTIONARY
  5
1A
102
{ACAD_REACTORS
330
C
102
}
330
C
100
AcDbDictionary
281
     1
  3
Layout1
350
1E
  3
Layout2
350
26
  3
Model
350
22
  0
DICTIONARY
  5
AA
102
{ACAD_REACTORS
330
C
102
}
330
C
100
AcDbDictionary
281
     1
  3
ByBlock
350
B3
  3
ByLayer
350
AB
  3
Global
350
BB
  0
DICTIONARY
  5
F1
102
{ACAD_REACTORS
330
C
102
}
330
C
100
AcDbDictionary
281
     1
  3
Standard
350
F2
  0
DICTIONARY
  5
17
102
{ACAD_REACTORS
330
C
102
}
330
C
100
AcDbDictionary
281
     1
  3
Standard
350
18
  0
DICTIONARY
  5
19
102
{ACAD_REACTORS
330
C
102
}
330
C
100
AcDbDictionary
281
     1
  0
ACDBDICTIONARYWDFLT
  5
E
102
{ACAD_REACTORS
330
C
102
}
330
C
100
AcDbDictionary
281
     1
  3
ByLayer
350
2D
  3
Normal
350
F
100
AcDbDictionaryWithDefault
340
F
  0
DICTIONARY
  5
DF
102
{ACAD_REACTORS
330
C
102
}
330
C
100
AcDbDictionary
281
     1
  3
A0
350
E0
  3
A1
350
E1
  3
A2
350
E2
  3
A3
350
E3
  3
A4
350
E4
  3
A5
350
E5
  3
A6
350
E6
  3
A7
350
E7
  3
A8
350
E8
  3
A9
350
E9
  3
B0
350
EA
  3
B1
350
EB
  3
B2
350
EC
  3
B3
350
ED
  3
B4
350
EE
  3
B5
350
EF
  3
B6
350
F0
  0
DICTIONARY
  5
F3
102
{ACAD_REACTORS
330
C
102
}
330
C
100
AcDbDictionary
281
     1
  3
Imperial24
350
F4
  0
DICTIONARY
  5
DD
102
{ACAD_REACTORS
330
C
102
}
330
C
100
AcDbDictionary
281
     1
  3
Standard
350
DE
  0
DICTIONARY
  5
C3
102
{ACAD_REACTORS
330
C
102
}
330
C
100
AcDbDictionary
281
     1
  3
2dWireframe
350
C9
  3
Basic
350
C8
  3
Brighten
350
CF
  3
ColorChange
350
D3
  3
Conceptual
350
CC
  3
Dim
350
CE
  3
EdgeColorOff
350
DB
  3
Facepattern
350
D2
  3
Flat
350
C4
  3
FlatWithEdges
350
C5
  3
Gouraud
350
C6
  3
GouraudWithEdges
350
C7
  3
Hidden
350
CB
  3
JitterOff
350
D9
  3
Linepattern
350
D1
  3
OverhangOff
350
DA
  3
Realistic
350
CD
  3
Shaded
350
D8
  3
Shaded with edges
350
D7
  3
Shades of Gray
350
D4
  3
Sketchy
350
D5
  3
Thicken
350
D0
  3
Wireframe
350
CA
  3
X-Ray
350
D6
  0
XRECORD
  5
16A
102
{ACAD_REACTORS
330
C
102
}
330
C
100
AcDbXrecord
280
     1
 90
        1
330
DE
  0
DICTIONARY
  5
15E
102
{ACAD_REACTORS
330
C
102
}
330
C
100
AcDbDictionary
281
     1
  3
CANNOSCALE
350
164
  3
CMLEADERSTYLE
350
160
  3
CTABLESTYLE
350
15F
  3
CVIEWDETAILSTYLE
350
161
  3
CVIEWSECTIONSTYLE
350
162
  3
LAYEREVAL
350
166
  3
LAYERNOTIFY
350
167
  3
LIGHTINGUNITS
350
165
  3
MSLTSCALE
350
163
  0
ACDBDETAILVIEWSTYLE
  5
F6
102
{ACAD_XDICTIONARY
360
19F
102
}
102
{ACAD_REACTORS
330
F5
102
}
330
F5
100
AcDbModelDocViewStyle
 70
     0
  3
Imperial24
290
     0
100
AcDbDetailViewStyle
 70
     0
 71
     0
 90
        3
 71
     1
340
11
 62
   256
 40
0.24
340
0
 62
   256
 40
0.24
300

 40
0.36
280
     3
 71
     2
340
16
 90
       25
 62
   256
 71
     3
340
11
 62
   256
 40
0.24
 90
        1
 40
0.75
 90
        1
300
%<\AcVar ViewType \f "%tc1">% %<\AcVar ViewDetailId>%\PSCALE %<\AcVar ViewScale \f "%sn">%
 71
     4
340
16
 90
       25
 62
   256
340
16
 90
       25
 62
   256
280
     0
  0
LAYOUT
  5
1E
102
{ACAD_REACTORS
330
1A
102
}
330
1A
100
AcDbPlotSettings
  1

  2
\\KTXNTBDC\CASF2PN1
  4

  6

 40
0.0
 41
0.0
 42
0.0
 43
0.0
 44
0.0
 45
0.0
 46
0.0
 47
0.0
 48
0.0
 49
0.0
140
0.0
141
0.0
142
1.0
143
1.0
 70
   688
 72
     0
 73
     0
 74
     5
  7

 75
    16
147
1.0
 76
     0
 77
     2
 78
   300
148
0.0
149
0.0
100
AcDbLayout
  1
Layout1
 70
     1
 71
     1
 10
0.0
 20
0.0
 11
12.0
 21
9.0
 12
0.0
 22
0.0
 32
0.0
 14
1.000000000000000E+20
 24
1.000000000000000E+20
 34
1.000000000000000E+20
 15
-1.000000000000000E+20
 25
-1.000000000000000E+20
 35
-1.000000000000000E+20
146
0.0
 13
0.0
 23
0.0
 33
0.0
 16
1.0
 26
0.0
 36
0.0
 17
0.0
 27
1.0
 37
0.0
 76
     0
330
1B
  0
LAYOUT
  5
26
102
{ACAD_REACTORS
330
1A
102
}
330
1A
100
AcDbPlotSettings
  1

  2
\\KTXNTBDC\CASF2PN1
  4

  6

 40
0.0
 41
0.0
 42
0.0
 43
0.0
 44
0.0
 45
0.0
 46
0.0
 47
0.0
 48
0.0
 49
0.0
140
0.0
141
0.0
142
1.0
143
1.0
 70
   688
 72
     0
 73
     0
 74
     5
  7

 75
    16
147
1.0
 76
     0
 77
     2
 78
   300
148
0.0
149
0.0
100
AcDbLayout
  1
Layout2
 70
     1
 71
     2
 10
0.0
 20
0.0
 11
12.0
 21
9.0
 12
0.0
 22
0.0
 32
0.0
 14
0.0
 24
0.0
 34
0.0
 15
0.0
 25
0.0
 35
0.0
146
0.0
 13
0.0
 23
0.0
 33
0.0
 16
1.0
 26
0.0
 36
0.0
 17
0.0
 27
1.0
 37
0.0
 76
     0
330
23
  0
LAYOUT
  5
22
102
{ACAD_REACTORS
330
1A
102
}
330
1A
100
AcDbPlotSettings
  1

  2
\\KTXNTBDC\CASF2PN1
  4

  6

 40
0.0
 41
0.0
 42
0.0
 43
0.0
 44
0.0
 45
0.0
 46
0.0
 47
0.0
 48
0.0
 49
0.0
140
0.0
141
0.0
142
1.0
143
1.0
 70
  1712
 72
     0
 73
     0
 74
     0
  7

 75
     0
147
1.0
 76
     0
 77
     2
 78
   300
148
0.0
149
0.0
100
AcDbLayout
  1
Model
 70
     1
 71
     0
 10
0.0
 20
0.0
 11
12.0
 21
9.0
 12
0.0
 22
0.0
 32
0.0
 14
0.0
 24
0.0
 34
0.0
 15
0.0
 25
0.0
 35
0.0
146
0.0
 13
0.0
 23
0.0
 33
0.0
 16
1.0
 26
0.0
 36
0.0
 17
0.0
 27
1.0
 37
0.0
 76
     0
330
1F
  0
MATERIAL
  5
B3
102
{ACAD_XDICTIONARY
360
B4
102
}
102
{ACAD_REACTORS
330
AA
102
}
330
AA
100
AcDbMaterial
  1
ByBlock
 72
     0
 43
0.0208333333333333
 43
0.0
 43
0.0
 43
0.0
 43
0.0
 43
0.0208333333333333
 43
0.0
 43
0.0
 43
0.0
 43
0.0
 43
1.0
 43
0.0
 43
0.0
 43
0.0
 43
0.0
 43
1.0
 77
     0
 47
0.0208333333333333
 47
0.0
 47
0.0
 47
0.0
 47
0.0
 47
0.0208333333333333
 47
0.0
 47
0.0
 47
0.0
 47
0.0
 47
1.0
 47
0.0
 47
0.0
 47
0.0
 47
0.0
 47
1.0
171
     0
 49
0.0208333333333333
 49
0.0
 49
0.0
 49
0.0
 49
0.0
 49
0.0208333333333333
 49
0.0
 49
0.0
 49
0.0
 49
0.0
 49
1.0
 49
0.0
 49
0.0
 49
0.0
 49
0.0
 49
1.0
175
     0
142
0.0208333333333333
142
0.0
142
0.0
142
0.0
142
0.0
142
0.0208333333333333
142
0.0
142
0.0
142
0.0
142
0.0
142
1.0
142
0.0
142
0.0
142
0.0
142
0.0
142
1.0
179
     0
144
0.0208333333333333
144
0.0
144
0.0
144
0.0
144
0.0
144
0.0208333333333333
144
0.0
144
0.0
144
0.0
144
0.0
144
1.0
144
0.0
144
0.0
144
0.0
144
0.0
144
1.0
147
0.0208333333333333
147
0.0
147
0.0
147
0.0
147
0.0
147
0.0208333333333333
147
0.0
147
0.0
147
0.0
147
0.0
147
1.0
147
0.0
147
0.0
147
0.0
147
0.0
147
1.0
  0
MATERIAL
  5
AB
102
{ACAD_XDICTIONARY
360
AC
102
}
102
{ACAD_REACTORS
330
AA
102
}
330
AA
100
AcDbMaterial
  1
ByLayer
 72
     0
 43
0.0208333333333333
 43
0.0
 43
0.0
 43
0.0
 43
0.0
 43
0.0208333333333333
 43
0.0
 43
0.0
 43
0.0
 43
0.0
 43
1.0
 43
0.0
 43
0.0
 43
0.0
 43
0.0
 43
1.0
 77
     0
 47
0.0208333333333333
 47
0.0
 47
0.0
 47
0.0
 47
0.0
 47
0.0208333333333333
 47
0.0
 47
0.0
 47
0.0
 47
0.0
 47
1.0
 47
0.0
 47
0.0
 47
0.0
 47
0.0
 47
1.0
171
     0
 49
0.0208333333333333
 49
0.0
 49
0.0
 49
0.0
 49
0.0
 49
0.0208333333333333
 49
0.0
 49
0.0
 49
0.0
 49
0.0
 49
1.0
 49
0.0
 49
0.0
 49
0.0
 49
0.0
 49
1.0
175
     0
142
0.0208333333333333
142
0.0
142
0.0
142
0.0
142
0.0
142
0.0208333333333333
142
0.0
142
0.0
142
0.0
142
0.0
142
1.0
142
0.0
142
0.0
142
0.0
142
0.0
142
1.0
179
     0
144
0.0208333333333333
144
0.0
144
0.0
144
0.0
144
0.0
144
0.0208333333333333
144
0.0
144
0.0
144
0.0
144
0.0
144
1.0
144
0.0
144
0.0
144
0.0
144
0.0
144
1.0
147
0.0208333333333333
147
0.0
147
0.0
147
0.0
147
0.0
147
0.0208333333333333
147
0.0
147
0.0
147
0.0
147
0.0
147
1.0
147
0.0
147
0.0
147
0.0
147
0.0
147
1.0
  0
MATERIAL
  5
BB
102
{ACAD_XDICTIONARY
360
BC
102
}
102
{ACAD_REACTORS
330
AA
102
}
330
AA
100
AcDbMaterial
  1
Global
 72
     0
 43
0.0208333333333333
 43
0.0
 43
0.0
 43
0.0
 43
0.0
 43
0.0208333333333333
 43
0.0
 43
0.0
 43
0.0
 43
0.0
 43
1.0
 43
0.0
 43
0.0
 43
0.0
 43
0.0
 43
1.0
 77
     0
 47
0.0208333333333333
 47
0.0
 47
0.0
 47
0.0
 47
0.0
 47
0.0208333333333333
 47
0.0
 47
0.0
 47
0.0
 47
0.0
 47
1.0
 47
0.0
 47
0.0
 47
0.0
 47
0.0
 47
1.0
171
     0
 49
0.0208333333333333
 49
0.0
 49
0.0
 49
0.0
 49
0.0
 49
0.0208333333333333
 49
0.0
 49
0.0
 49
0.0
 49
0.0
 49
1.0
 49
0.0
 49
0.0
 49
0.0
 49
0.0
 49
1.0
175
     0
142
0.0208333333333333
142
0.0
142
0.0
142
0.0
142
0.0
142
0.0208333333333333
142
0.0
142
0.0
142
0.0
142
0.0
142
1.0
142
0.0
142
0.0
142
0.0
142
0.0
142
1.0
179
     0
144
0.0208333333333333
144
0.0
144
0.0
144
0.0
144
0.0
144
0.0208333333333333
144
0.0
144
0.0
144
0.0
144
0.0
144
1.0
144
0.0
144
0.0
144
0.0
144
0.0
144
1.0
147
0.0208333333333333
147
0.0
147
0.0
147
0.0
147
0.0
147
0.0208333333333333
147
0.0
147
0.0
147
0.0
147
0.0
147
1.0
147
0.0
147
0.0
147
0.0
147
0.0
147
1.0
  0
MLEADERSTYLE
  5
F2
102
{ACAD_XDICTIONARY
360
19B
102
}
102
{ACAD_REACTORS
330
F1
102
}
330
F1
100
AcDbMLeaderStyle
179
     2
170
     2
171
     1
172
     0
 90
        2
 40
0.0
 41
0.0
173
     1
 91
-1056964608
340
14
 92
       -2
290
     1
 42
0.09
291
     1
 43
0.36
  3
Standard
 44
0.18
300

342
11
174
     1
178
     6
175
     1
176
     0
 93
-1056964608
 45
0.18
292
     0
297
     0
 46
0.18
 94
-1056964608
 47
1.0
 49
1.0
140
1.0
293
     1
141
0.0
294
     1
177
     0
142
1.0
295
     0
296
     0
143
0.125
271
     0
272
     9
273
     9
  0
MLINESTYLE
  5
18
102
{ACAD_REACTORS
330
17
102
}
330
17
100
AcDbMlineStyle
  2
STANDARD
 70
     0
  3

 62
   256
 51
90.0
 52
90.0
 71
     2
 49
0.5
 62
   256
  6
BYLAYER
 49
-0.5
 62
   256
  6
BYLAYER
  0
ACDBPLACEHOLDER
  5
2D
102
{ACAD_REACTORS
330
E
102
}
330
E
  0
ACDBPLACEHOLDER
  5
F
102
{ACAD_REACTORS
330
E
102
}
330
E
  0
SCALE
  5
E0
102
{ACAD_REACTORS
330
DF
102
}
330
DF
100
AcDbScale
 70
     0
300
1:1
140
1.0
141
1.0
290
     1
  0
SCALE
  5
E1
102
{ACAD_REACTORS
330
DF
102
}
330
DF
100
AcDbScale
 70
     0
300
1/128" = 1'-0"
140
0.0078125
141
12.0
290
     0
  0
SCALE
  5
E2
102
{ACAD_REACTORS
330
DF
102
}
330
DF
100
AcDbScale
 70
     0
300
1/64" = 1'-0"
140
0.015625
141
12.0
290
     0
  0
SCALE
  5
E3
102
{ACAD_REACTORS
330
DF
102
}
330
DF
100
AcDbScale
 70
     0
300
1/32" = 1'-0"
140
0.03125
141
12.0
290
     0
  0
SCALE
  5
E4
102
{ACAD_REACTORS
330
DF
102
}
330
DF
100
AcDbScale
 70
     0
300
1/16" = 1'-0"
140
0.0625
141
12.0
290
     0
  0
SCALE
  5
E5
102
{ACAD_REACTORS
330
DF
102
}
330
DF
100
AcDbScale
 70
     0
300
3/32" = 1'-0"
140
0.09375
141
12.0
290
     0
  0
SCALE
  5
E6
102
{ACAD_REACTORS
330
DF
102
}
330
DF
100
AcDbScale
 70
     0
300
1/8" = 1'-0"
140
0.125
141
12.0
290
     0
  0
SCALE
  5
E7
102
{ACAD_REACTORS
330
DF
102
}
330
DF
100
AcDbScale
 70
     0
300
3/16" = 1'-0"
140
0.1875
141
12.0
290
     0
  0
SCALE
  5
E8
102
{ACAD_REACTORS
330
DF
102
}
330
DF
100
AcDbScale
 70
     0
300
1/4" = 1'-0"
140
0.25
141
12.0
290
     0
  0
SCALE
  5
E9
102
{ACAD_REACTORS
330
DF
102
}
330
DF
100
AcDbScale
 70
     0
300
3/8" = 1'-0"
140
0.375
141
12.0
290
     0
  0
SCALE
  5
EA
102
{ACAD_REACTORS
330
DF
102
}
330
DF
100
AcDbScale
 70
     0
300
1/2" = 1'-0"
140
0.5
141
12.0
290
     0
  0
SCALE
  5
EB
102
{ACAD_REACTORS
330
DF
102
}
330
DF
100
AcDbScale
 70
     0
300
3/4" = 1'-0"
140
0.75
141
12.0
290
     0
  0
SCALE
  5
EC
102
{ACAD_REACTORS
330
DF
102
}
330
DF
100
AcDbScale
 70
     0
300
1" = 1'-0"
140
1.0
141
12.0
290
     0
  0
SCALE
  5
ED
102
{ACAD_REACTORS
330
DF
102
}
330
DF
100
AcDbScale
 70
     0
300
1-1/2" = 1'-0"
140
1.5
141
12.0
290
     0
  0
SCALE
  5
EE
102
{ACAD_REACTORS
330
DF
102
}
330
DF
100
AcDbScale
 70
     0
300
3" = 1'-0"
140
3.0
141
12.0
290
     0
  0
SCALE
  5
EF
102
{ACAD_REACTORS
330
DF
102
}
330
DF
100
AcDbScale
 70
     0
300
6" = 1'-0"
140
6.0
141
12.0
290
     0
  0
SCALE
  5
F0
102
{ACAD_REACTORS
330
DF
102
}
330
DF
100
AcDbScale
 70
     0
300
1'-0" = 1'-0"
140
12.0
141
12.0
290
     0
  0
ACDBSECTIONVIEWSTYLE
  5
F4
102
{ACAD_XDICTIONARY
360
19D
102
}
102
{ACAD_REACTORS
330
F3
102
}
330
F3
100
AcDbModelDocViewStyle
 70
     0
  3
Imperial24
290
     0
100
AcDbSectionViewStyle
 70
     0
 71
     0
 90
       78
 71
     1
340
11
 62
   256
 40
0.24
340
0
340
0
 62
   256
 40
0.24
300
I, O, Q, S, X, Z
 40
0.48
 90
        3
 40
0.18
 90
        1
 71
     2
340
16
 90
       25
 62
   256
340
16
 90
       50
 62
   256
 40
0.24
 40
0.0
 40
0.24
 71
     3
340
11
 62
   256
 40
0.24
 90
        1
 40
0.75
 90
        1
300
%<\AcVar ViewType \f "%tc1">% %<\AcVar ViewSectionStartId>%-%<\AcVar ViewSectionEndId>%\PSCALE %<\AcVar ViewScale \f "%sn">%
 71
     4
 62
   256
 62
   257
300
ANSI31
 40
1.0
 90
        0
290
     0
290
     0
 90
        6
 40
0.0
 40
1.570796326794896
 40
0.2617993877991494
 40
1.308996938995747
 40
-0.2617993877991494
 40
1.832595714594046
  0
TABLESTYLE
  5
DE
102
{ACAD_XDICTIONARY
360
168
102
}
102
{ACAD_REACTORS
330
DD
102
}
330
DD
100
AcDbTableStyle
280
     0
  3
Standard
 70
     0
 71
     0
 40
0.06
 41
0.06
280
     0
281
     0
  7
Standard
140
0.18
170
     2
 62
     0
 63
     7
283
     0
 90
      512
 91
        0
  1

274
    -2
284
     1
 64
     0
275
    -2
285
     1
 65
     0
276
    -2
286
     1
 66
     0
277
    -2
287
     1
 67
     0
278
    -2
288
     1
 68
     0
279
    -2
289
     1
 69
     0
  7
Standard
140
0.25
170
     5
 62
     0
 63
     7
283
     0
 90
      512
 91
        0
  1

274
    -2
284
     1
 64
     0
275
    -2
285
     1
 65
     0
276
    -2
286
     1
 66
     0
277
    -2
287
     1
 67
     0
278
    -2
288
     1
 68
     0
279
    -2
289
     1
 69
     0
  7
Standard
140
0.18
170
     5
 62
     0
 63
     7
283
     0
 90
      512
 91
        0
  1

274
    -2
284
     1
 64
     0
275
    -2
285
     1
 65
     0
276
    -2
286
     1
 66
     0
277
    -2
287
     1
 67
     0
278
    -2
288
     1
 68
     0
279
    -2
289
     1
 69
     0
  0
VISUALSTYLE
  5
C9
102
{ACAD_XDICTIONARY
360
175
102
}
102
{ACAD_REACTORS
330
C3
102
}
330
C3
100
AcDbVisualStyle
  2
2dWireframe
 70
     4
177
     2
291
     0
 71
     0
176
     1
 72
     2
176
     1
 73
     0
176
     1
 90
        0
176
     1
 40
0.6
176
     1
 41
30.0
176
     1
 63
     7
421
 16777215
176
     1
 74
     1
176
     1
 91
        4
176
     1
 64
     7
176
     1
 65
   257
176
     1
 75
     1
176
     1
175
     1
176
     1
 42
1.0
176
     1
 92
        0
176
     1
 66
   257
176
     1
 43
1.0
176
     1
 76
     1
176
     1
 77
     6
176
     1
 78
     2
176
     1
 67
     7
176
     1
 79
     5
176
     1
170
     0
176
     1
171
     0
176
     1
290
     0
176
     1
 93
        1
176
     1
 44
0.0
176
     1
173
     0
176
     1
1001
ACAD
1000
AcDbSavedByObjectVersion
1070
     0
  0
VISUALSTYLE
  5
C8
102
{ACAD_XDICTIONARY
360
173
102
}
102
{ACAD_REACTORS
330
C3
102
}
330
C3
100
AcDbVisualStyle
  2
Basic
 70
     7
177
     2
291
     1
 71
     1
176
     1
 72
     0
176
     1
 73
     1
176
     1
 90
        0
176
     1
 40
0.6
176
     1
 41
30.0
176
     1
 63
     7
421
 16777215
176
     1
 74
     0
176
     1
 91
        4
176
     1
 64
     7
176
     1
 65
   257
176
     1
 75
     1
176
     1
175
     1
176
     1
 42
1.0
176
     1
 92
        8
176
     1
 66
     7
176
     1
 43
1.0
176
     1
 76
     1
176
     1
 77
     6
176
     1
 78
     2
176
     1
 67
     7
176
     1
 79
     5
176
     1
170
     0
176
     1
171
     0
176
     1
290
     0
176
     1
 93
        1
176
     1
 44
0.0
176
     1
173
     0
176
     1
1001
ACAD
1000
AcDbSavedByObjectVersion
1070
     0
  0
VISUALSTYLE
  5
CF
102
{ACAD_XDICTIONARY
360
181
102
}
102
{ACAD_REACTORS
330
C3
102
}
330
C3
100
AcDbVisualStyle
  2
Brighten
 70
    12
177
     2
291
     1
 71
     2
176
     1
 72
     2
176
     1
 73
     0
176
     1
 90
        0
176
     1
 40
0.6
176
     1
 41
30.0
176
     1
 63
     7
421
 16777215
176
     1
 74
     1
176
     1
 91
        4
176
     1
 64
     7
176
     1
 65
   257
176
     1
 75
     1
176
     1
175
     1
176
     1
 42
1.0
176
     1
 92
        8
176
     1
 66
     7
176
     1
 43
1.0
176
     1
 76
     1
176
     1
 77
     6
176
     1
 78
     2
176
     1
 67
     7
176
     1
 79
     5
176
     1
170
     0
176
     1
171
     0
176
     1
290
     0
176
     1
 93
        1
176
     1
 44
50.0
176
     1
173
     0
176
     1
1001
ACAD
1000
AcDbSavedByObjectVersion
1070
     0
  0
VISUALSTYLE
  5
D3
102
{ACAD_XDICTIONARY
360
189
102
}
102
{ACAD_REACTORS
330
C3
102
}
330
C3
100
AcDbVisualStyle
  2
ColorChange
 70
    16
177
     2
291
     1
 71
     2
176
     1
 72
     2
176
     1
 73
     3
176
     1
 90
        0
176
     1
 40
0.6
176
     1
 41
30.0
176
     1
 63
     8
421
  8421504
176
     1
 74
     1
176
     1
 91
        4
176
     1
 64
     7
176
     1
 65
   257
176
     1
 75
     1
176
     1
175
     1
176
     1
 42
1.0
176
     1
 92
        8
176
     1
 66
     8
424
  8421504
176
     1
 43
1.0
176
     1
 76
     1
176
     1
 77
     6
176
     1
 78
     2
176
     1
 67
     7
176
     1
 79
     5
176
     1
170
     0
176
     1
171
     0
176
     1
290
     0
176
     1
 93
        1
176
     1
 44
0.0
176
     1
173
     0
176
     1
1001
ACAD
1000
AcDbSavedByObjectVersion
1070
     0
  0
VISUALSTYLE
  5
CC
102
{ACAD_XDICTIONARY
360
17B
102
}
102
{ACAD_REACTORS
330
C3
102
}
330
C3
100
AcDbVisualStyle
  2
Conceptual
 70
     9
177
     2
291
     0
 71
     3
176
     1
 72
     2
176
     1
 73
     0
176
     1
 90
        0
176
     1
 40
0.6
176
     1
 41
30.0
176
     1
 63
     7
421
 16777215
176
     1
 74
     2
176
     1
 91
        2
176
     1
 64
     7
176
     1
 65
   257
176
     1
 75
     1
176
     1
175
     1
176
     1
 42
179.0
176
     1
 92
        8
176
     1
 66
     7
176
     1
 43
1.0
176
     1
 76
     1
176
     1
 77
     6
176
     1
 78
     2
176
     1
 67
     7
176
     1
 79
     3
176
     1
170
     0
176
     1
171
     0
176
     1
290
     0
176
     1
 93
        1
176
     1
 44
0.0
176
     1
173
     0
176
     1
1001
ACAD
1000
AcDbSavedByObjectVersion
1070
     0
  0
VISUALSTYLE
  5
CE
102
{ACAD_XDICTIONARY
360
17F
102
}
102
{ACAD_REACTORS
330
C3
102
}
330
C3
100
AcDbVisualStyle
  2
Dim
 70
    11
177
     2
291
     1
 71
     2
176
     1
 72
     2
176
     1
 73
     0
176
     1
 90
        0
176
     1
 40
0.6
176
     1
 41
30.0
176
     1
 63
     7
421
 16777215
176
     1
 74
     1
176
     1
 91
        4
176
     1
 64
     7
176
     1
 65
   257
176
     1
 75
     1
176
     1
175
     1
176
     1
 42
1.0
176
     1
 92
        8
176
     1
 66
     7
176
     1
 43
1.0
176
     1
 76
     1
176
     1
 77
     6
176
     1
 78
     2
176
     1
 67
     7
176
     1
 79
     5
176
     1
170
     0
176
     1
171
     0
176
     1
290
     0
176
     1
 93
        1
176
     1
 44
-50.0
176
     1
173
     0
176
     1
1001
ACAD
1000
AcDbSavedByObjectVersion
1070
     0
  0
VISUALSTYLE
  5
DB
102
{ACAD_XDICTIONARY
360
199
102
}
102
{ACAD_REACTORS
330
C3
102
}
330
C3
100
AcDbVisualStyle
  2
EdgeColorOff
 70
    22
177
     2
291
     1
 71
     2
176
     0
 72
     2
176
     0
 73
     0
176
     0
 90
        0
176
     0
 40
0.6
176
     0
 41
30.0
176
     0
 63
     7
421
 16777215
176
     0
 74
     1
176
     0
 91
        4
176
     0
 64
     7
176
     0
 65
   257
176
     0
 75
     1
176
     0
175
     1
176
     0
 42
1.0
176
     0
 92
        8
176
     2
 66
     7
176
     0
 43
1.0
176
     0
 76
     1
176
     0
 77
     6
176
     0
 78
     2
176
     0
 67
     7
176
     0
 79
     5
176
     0
170
     0
176
     0
171
     0
176
     0
290
     0
176
     0
 93
        1
176
     0
 44
0.0
176
     0
173
     0
176
     0
1001
ACAD
1000
AcDbSavedByObjectVersion
1070
     0
  0
VISUALSTYLE
  5
D2
102
{ACAD_XDICTIONARY
360
187
102
}
102
{ACAD_REACTORS
330
C3
102
}
330
C3
100
AcDbVisualStyle
  2
Facepattern
 70
    15
177
     2
291
     1
 71
     2
176
     1
 72
     2
176
     1
 73
     0
176
     1
 90
        0
176
     1
 40
0.6
176
     1
 41
30.0
176
     1
 63
     7
421
 16777215
176
     1
 74
     1
176
     1
 91
        4
176
     1
 64
     7
176
     1
 65
   257
176
     1
 75
     1
176
     1
175
     1
176
     1
 42
1.0
176
     1
 92
        8
176
     1
 66
     7
176
     1
 43
1.0
176
     1
 76
     1
176
     1
 77
     6
176
     1
 78
     2
176
     1
 67
     7
176
     1
 79
     5
176
     1
170
     0
176
     1
171
     0
176
     1
290
     0
176
     1
 93
        1
176
     1
 44
0.0
176
     1
173
     0
176
     1
1001
ACAD
1000
AcDbSavedByObjectVersion
1070
     0
  0
VISUALSTYLE
  5
C4
102
{ACAD_XDICTIONARY
360
16B
102
}
102
{ACAD_REACTORS
330
C3
102
}
330
C3
100
AcDbVisualStyle
  2
Flat
 70
     0
177
     2
291
     1
 71
     2
176
     1
 72
     1
176
     1
 73
     1
176
     1
 90
        2
176
     1
 40
0.6
176
     1
 41
30.0
176
     1
 63
     7
421
 16777215
176
     1
 74
     0
176
     1
 91
        0
176
     1
 64
     7
176
     1
 65
   257
176
     1
 75
     1
176
     1
175
     1
176
     1
 42
1.0
176
     1
 92
        8
176
     1
 66
     7
176
     1
 43
1.0
176
     1
 76
     1
176
     1
 77
     6
176
     1
 78
     2
176
     1
 67
     7
176
     1
 79
     5
176
     1
170
     0
176
     1
171
     0
176
     1
290
     0
176
     1
 93
       13
176
     1
 44
0.0
176
     1
173
     0
176
     1
1001
ACAD
1000
AcDbSavedByObjectVersion
1070
     0
  0
VISUALSTYLE
  5
C5
102
{ACAD_XDICTIONARY
360
16D
102
}
102
{ACAD_REACTORS
330
C3
102
}
330
C3
100
AcDbVisualStyle
  2
FlatWithEdges
 70
     1
177
     2
291
     1
 71
     2
176
     1
 72
     1
176
     1
 73
     1
176
     1
 90
        2
176
     1
 40
0.6
176
     1
 41
30.0
176
     1
 63
     7
421
 16777215
176
     1
 74
     1
176
     1
 91
        0
176
     1
 64
     7
176
     1
 65
   257
176
     1
 75
     1
176
     1
175
     1
176
     1
 42
1.0
176
     1
 92
        0
176
     1
 66
   257
176
     1
 43
1.0
176
     1
 76
     1
176
     1
 77
     6
176
     1
 78
     2
176
     1
 67
     7
176
     1
 79
     5
176
     1
170
     0
176
     1
171
     0
176
     1
290
     0
176
     1
 93
       13
176
     1
 44
0.0
176
     1
173
     0
176
     1
1001
ACAD
1000
AcDbSavedByObjectVersion
1070
     0
  0
VISUALSTYLE
  5
C6
102
{ACAD_XDICTIONARY
360
16F
102
}
102
{ACAD_REACTORS
330
C3
102
}
330
C3
100
AcDbVisualStyle
  2
Gouraud
 70
     2
177
     2
291
     1
 71
     2
176
     1
 72
     2
176
     1
 73
     1
176
     1
 90
        2
176
     1
 40
0.6
176
     1
 41
30.0
176
     1
 63
     7
421
 16777215
176
     1
 74
     0
176
     1
 91
        0
176
     1
 64
     7
176
     1
 65
   257
176
     1
 75
     1
176
     1
175
     1
176
     1
 42
1.0
176
     1
 92
        0
176
     1
 66
     7
176
     1
 43
1.0
176
     1
 76
     1
176
     1
 77
     6
176
     1
 78
     2
176
     1
 67
     7
176
     1
 79
     5
176
     1
170
     0
176
     1
171
     0
176
     1
290
     0
176
     1
 93
       13
176
     1
 44
0.0
176
     1
173
     0
176
     1
1001
ACAD
1000
AcDbSavedByObjectVersion
1070
     0
  0
VISUALSTYLE
  5
C7
102
{ACAD_XDICTIONARY
360
171
102
}
102
{ACAD_REACTORS
330
C3
102
}
330
C3
100
AcDbVisualStyle
  2
GouraudWithEdges
 70
     3
177
     2
291
     1
 71
     2
176
     1
 72
     2
176
     1
 73
     1
176
     1
 90
        2
176
     1
 40
0.6
176
     1
 41
30.0
176
     1
 63
     7
421
 16777215
176
     1
 74
     1
176
     1
 91
        0
176
     1
 64
     7
176
     1
 65
   257
176
     1
 75
     1
176
     1
175
     1
176
     1
 42
1.0
176
     1
 92
        0
176
     1
 66
   257
176
     1
 43
1.0
176
     1
 76
     1
176
     1
 77
     6
176
     1
 78
     2
176
     1
 67
     7
176
     1
 79
     5
176
     1
170
     0
176
     1
171
     0
176
     1
290
     0
176
     1
 93
       13
176
     1
 44
0.0
176
     1
173
     0
176
     1
1001
ACAD
1000
AcDbSavedByObjectVersion
1070
     0
  0
VISUALSTYLE
  5
CB
102
{ACAD_XDICTIONARY
360
179
102
}
102
{ACAD_REACTORS
330
C3
102
}
330
C3
100
AcDbVisualStyle
  2
Hidden
 70
     6
177
     2
291
     0
 71
     1
176
     1
 72
     2
176
     1
 73
     2
176
     1
 90
        0
176
     1
 40
0.6
176
     1
 41
30.0
176
     1
 63
     7
421
 16777215
176
     1
 74
     2
176
     1
 91
        2
176
     1
 64
     7
176
     1
 65
   257
176
     1
 75
     2
176
     1
175
     1
176
     1
 42
40.0
176
     1
 92
        0
176
     1
 66
   257
176
     1
 43
1.0
176
     1
 76
     1
176
     1
 77
     6
176
     1
 78
     2
176
     1
 67
     7
176
     1
 79
     3
176
     1
170
     0
176
     1
171
     0
176
     1
290
     0
176
     1
 93
        1
176
     1
 44
0.0
176
     1
173
     0
176
     1
1001
ACAD
1000
AcDbSavedByObjectVersion
1070
     0
  0
VISUALSTYLE
  5
D9
102
{ACAD_XDICTIONARY
360
195
102
}
102
{ACAD_REACTORS
330
C3
102
}
330
C3
100
AcDbVisualStyle
  2
JitterOff
 70
    20
177
     2
291
     1
 71
     2
176
     0
 72
     2
176
     0
 73
     0
176
     0
 90
        0
176
     0
 40
0.6
176
     0
 41
30.0
176
     0
 63
     7
421
 16777215
176
     0
 74
     1
176
     0
 91
        4
176
     0
 64
     7
176
     0
 65
   257
176
     0
 75
     1
176
     0
175
     1
176
     0
 42
1.0
176
     0
 92
       10
176
     2
 66
     7
176
     0
 43
1.0
176
     0
 76
     1
176
     0
 77
     6
176
     0
 78
     2
176
     0
 67
     7
176
     0
 79
     5
176
     0
170
     0
176
     0
171
     0
176
     0
290
     0
176
     0
 93
        1
176
     0
 44
0.0
176
     0
173
     0
176
     0
1001
ACAD
1000
AcDbSavedByObjectVersion
1070
     0
  0
VISUALSTYLE
  5
D1
102
{ACAD_XDICTIONARY
360
185
102
}
102
{ACAD_REACTORS
330
C3
102
}
330
C3
100
AcDbVisualStyle
  2
Linepattern
 70
    14
177
     2
291
     1
 71
     2
176
     1
 72
     2
176
     1
 73
     0
176
     1
 90
        0
176
     1
 40
0.6
176
     1
 41
30.0
176
     1
 63
     7
421
 16777215
176
     1
 74
     1
176
     1
 91
        4
176
     1
 64
     7
176
     1
 65
   257
176
     1
 75
     7
176
     1
175
     7
176
     1
 42
1.0
176
     1
 92
        8
176
     1
 66
     7
176
     1
 43
1.0
176
     1
 76
     1
176
     1
 77
     6
176
     1
 78
     2
176
     1
 67
     7
176
     1
 79
     5
176
     1
170
     0
176
     1
171
     0
176
     1
290
     0
176
     1
 93
        1
176
     1
 44
0.0
176
     1
173
     0
176
     1
1001
ACAD
1000
AcDbSavedByObjectVersion
1070
     0
  0
VISUALSTYLE
  5
DA
102
{ACAD_XDICTIONARY
360
197
102
}
102
{ACAD_REACTORS
330
C3
102
}
330
C3
100
AcDbVisualStyle
  2
OverhangOff
 70
    21
177
     2
291
     1
 71
     2
176
     0
 72
     2
176
     0
 73
     0
176
     0
 90
        0
176
     0
 40
0.6
176
     0
 41
30.0
176
     0
 63
     7
421
 16777215
176
     0
 74
     1
176
     0
 91
        4
176
     0
 64
     7
176
     0
 65
   257
176
     0
 75
     1
176
     0
175
     1
176
     0
 42
1.0
176
     0
 92
        9
176
     2
 66
     7
176
     0
 43
1.0
176
     0
 76
     1
176
     0
 77
     6
176
     0
 78
     2
176
     0
 67
     7
176
     0
 79
     5
176
     0
170
     0
176
     0
171
     0
176
     0
290
     0
176
     0
 93
        1
176
     0
 44
0.0
176
     0
173
     0
176
     0
1001
ACAD
1000
AcDbSavedByObjectVersion
1070
     0
  0
VISUALSTYLE
  5
CD
102
{ACAD_XDICTIONARY
360
17D
102
}
102
{ACAD_REACTORS
330
C3
102
}
330
C3
100
AcDbVisualStyle
  2
Realistic
 70
     8
177
     2
291
     0
 71
     2
176
     1
 72
     3
176
     1
 73
     0
176
     1
 90
        2
176
     1
 40
0.6
176
     1
 41
30.0
176
     1
 63
     7
421
 16777215
176
     1
 74
     0
176
     1
 91
        0
176
     1
 64
     7
176
     1
 65
   257
176
     1
 75
     1
176
     1
175
     1
176
     1
 42
1.0
176
     1
 92
        8
176
     1
 66
   257
176
     1
 43
1.0
176
     1
 76
     1
176
     1
 77
     6
176
     1
 78
     2
176
     1
 67
     7
176
     1
 79
     3
176
     1
170
     0
176
     1
171
     0
176
     1
290
     0
176
     1
 93
       13
176
     1
 44
0.0
176
     1
173
     0
176
     1
1001
ACAD
1000
AcDbSavedByObjectVersion
1070
     0
  0
VISUALSTYLE
  5
D8
102
{ACAD_XDICTIONARY
360
193
102
}
102
{ACAD_REACTORS
330
C3
102
}
330
C3
100
AcDbVisualStyle
  2
Shaded
 70
    27
177
     2
291
     0
 71
     2
176
     1
 72
     2
176
     1
 73
     1
176
     1
 90
        2
176
     1
 40
0.6
176
     1
 41
30.0
176
     1
 63
     7
421
 16777215
176
     1
 74
     0
176
     1
 91
        4
176
     1
 64
     7
176
     1
 65
   257
176
     1
 75
     1
176
     1
175
     1
176
     1
 42
1.0
176
     1
 92
        8
176
     1
 66
   257
176
     1
 43
1.0
176
     1
 76
     1
176
     1
 77
     6
176
     1
 78
     2
176
     1
 67
     8
425
  7895160
176
     1
 79
     3
176
     1
170
     0
176
     1
171
     0
176
     1
290
     0
176
     1
 93
        5
176
     1
 44
0.0
176
     1
173
     0
176
     1
1001
ACAD
1000
AcDbSavedByObjectVersion
1070
     0
  0
VISUALSTYLE
  5
D7
102
{ACAD_XDICTIONARY
360
191
102
}
102
{ACAD_REACTORS
330
C3
102
}
330
C3
100
AcDbVisualStyle
  2
Shaded with edges
 70
    26
177
     2
291
     0
 71
     2
176
     1
 72
     2
176
     1
 73
     1
176
     1
 90
        2
176
     1
 40
0.6
176
     1
 41
30.0
176
     1
 63
     7
421
 16777215
176
     1
 74
     1
176
     1
 91
       10
176
     1
 64
     7
176
     1
 65
   257
176
     1
 75
     2
176
     1
175
     1
176
     1
 42
1.0
176
     1
 92
        8
176
     1
 66
   257
176
     1
 43
1.0
176
     1
 76
     1
176
     1
 77
     6
176
     1
 78
     2
176
     1
 67
     7
176
     1
 79
     3
176
     1
170
     0
176
     1
171
     0
176
     1
290
     0
176
     1
 93
        5
176
     1
 44
0.0
176
     1
173
     0
176
     1
1001
ACAD
1000
AcDbSavedByObjectVersion
1070
     0
  0
VISUALSTYLE
  5
D4
102
{ACAD_XDICTIONARY
360
18B
102
}
102
{ACAD_REACTORS
330
C3
102
}
330
C3
100
AcDbVisualStyle
  2
Shades of Gray
 70
    23
177
     2
291
     0
 71
     2
176
     1
 72
     2
176
     1
 73
     3
176
     1
 90
        0
176
     1
 40
0.6
176
     1
 41
30.0
176
     1
 63
     7
421
 16777215
176
     1
 74
     2
176
     1
 91
        2
176
     1
 64
     7
176
     1
 65
     7
176
     1
 75
     1
176
     1
175
     1
176
     1
 42
40.0
176
     1
 92
        8
176
     1
 66
     7
176
     1
 43
1.0
176
     1
 76
     1
176
     1
 77
     6
176
     1
 78
     2
176
     1
 67
     7
176
     1
 79
     3
176
     1
170
     0
176
     1
171
     0
176
     1
290
     0
176
     1
 93
        1
176
     1
 44
0.0
176
     1
173
     0
176
     1
1001
ACAD
1000
AcDbSavedByObjectVersion
1070
     0
  0
VISUALSTYLE
  5
D5
102
{ACAD_XDICTIONARY
360
18D
102
}
102
{ACAD_REACTORS
330
C3
102
}
330
C3
100
AcDbVisualStyle
  2
Sketchy
 70
    24
177
     2
291
     0
 71
     1
176
     1
 72
     2
176
     1
 73
     2
176
     1
 90
        0
176
     1
 40
0.6
176
     1
 41
30.0
176
     1
 63
     7
421
 16777215
176
     1
 74
     2
176
     1
 91
        2
176
     1
 64
     7
176
     1
 65
     7
176
     1
 75
     1
176
     1
175
     1
176
     1
 42
40.0
176
     1
 92
       11
176
     1
 66
     7
176
     1
 43
1.0
176
     1
 76
     1
176
     1
 77
     6
176
     1
 78
     2
176
     1
 67
     7
176
     1
 79
     6
176
     1
170
     0
176
     1
171
     0
176
     1
290
     0
176
     1
 93
        1
176
     1
 44
0.0
176
     1
173
     0
176
     1
1001
ACAD
1000
AcDbSavedByObjectVersion
1070
     0
  0
VISUALSTYLE
  5
D0
102
{ACAD_XDICTIONARY
360
183
102
}
102
{ACAD_REACTORS
330
C3
102
}
330
C3
100
AcDbVisualStyle
  2
Thicken
 70
    13
177
     2
291
     1
 71
     2
176
     1
 72
     2
176
     1
 73
     0
176
     1
 90
        0
176
     1
 40
0.6
176
     1
 41
30.0
176
     1
 63
     7
421
 16777215
176
     1
 74
     1
176
     1
 91
        4
176
     1
 64
     7
176
     1
 65
   257
176
     1
 75
     1
176
     1
175
     1
176
     1
 42
1.0
176
     1
 92
       12
176
     1
 66
     7
176
     1
 43
1.0
176
     1
 76
     1
176
     1
 77
     6
176
     1
 78
     2
176
     1
 67
     7
176
     1
 79
     5
176
     1
170
     0
176
     1
171
     0
176
     1
290
     0
176
     1
 93
        1
176
     1
 44
0.0
176
     1
173
     0
176
     1
1001
ACAD
1000
AcDbSavedByObjectVersion
1070
     0
  0
VISUALSTYLE
  5
CA
102
{ACAD_XDICTIONARY
360
177
102
}
102
{ACAD_REACTORS
330
C3
102
}
330
C3
100
AcDbVisualStyle
  2
Wireframe
 70
     5
177
     2
291
     0
 71
     0
176
     1
 72
     2
176
     1
 73
     0
176
     1
 90
        0
176
     1
 40
0.6
176
     1
 41
30.0
176
     1
 63
     7
421
 16777215
176
     1
 74
     1
176
     1
 91
        4
176
     1
 64
     7
176
     1
 65
   257
176
     1
 75
     1
176
     1
175
     1
176
     1
 42
1.0
176
     1
 92
        0
176
     1
 66
   257
176
     1
 43
1.0
176
     1
 76
     1
176
     1
 77
     6
176
     1
 78
     2
176
     1
 67
     7
176
     1
 79
     3
176
     1
170
     0
176
     1
171
     0
176
     1
290
     0
176
     1
 93
        1
176
     1
 44
0.0
176
     1
173
     0
176
     1
1001
ACAD
1000
AcDbSavedByObjectVersion
1070
     0
  0
VISUALSTYLE
  5
D6
102
{ACAD_XDICTIONARY
360
18F
102
}
102
{ACAD_REACTORS
330
C3
102
}
330
C3
100
AcDbVisualStyle
  2
X-Ray
 70
    25
177
     2
291
     0
 71
     2
176
     1
 72
     2
176
     1
 73
     1
176
     1
 90
        1
176
     1
 40
0.5
176
     1
 41
30.0
176
     1
 63
     7
421
 16777215
176
     1
 74
     1
176
     1
 91
        0
176
     1
 64
     7
176
     1
 65
   257
176
     1
 75
     1
176
     1
175
     1
176
     1
 42
1.0
176
     1
 92
        8
176
     1
 66
     7
176
     1
 43
1.0
176
     1
 76
     1
176
     1
 77
     6
176
     1
 78
     2
176
     1
 67
     7
176
     1
 79
     3
176
     1
170
     0
176
     1
171
     0
176
     1
290
     0
176
     1
 93
       13
176
     1
 44
0.0
176
     1
173
     0
176
     1
1001
ACAD
1000
AcDbSavedByObjectVersion
1070
     0
  0
DICTIONARYVAR
  5
164
102
{ACAD_REACTORS
330
15E
102
}
330
15E
100
DictionaryVariables
280
     0
  1
1:1
  0
DICTIONARYVAR
  5
160
102
{ACAD_REACTORS
330
15E
102
}
330
15E
100
DictionaryVariables
280
     0
  1
STANDARD
  0
DICTIONARYVAR
  5
15F
102
{ACAD_REACTORS
330
15E
102
}
330
15E
100
DictionaryVariables
280
     0
  1
STANDARD
  0
DICTIONARYVAR
  5
161
102
{ACAD_REACTORS
330
15E
102
}
330
15E
100
DictionaryVariables
280
     0
  1
Imperial24
  0
DICTIONARYVAR
  5
162
102
{ACAD_REACTORS
330
15E
102
}
330
15E
100
DictionaryVariables
280
     0
  1
Imperial24
  0
DICTIONARYVAR
  5
166
102
{ACAD_REACTORS
330
15E
102
}
330
15E
100
DictionaryVariables
280
     0
  1
1
  0
DICTIONARYVAR
  5
167
102
{ACAD_REACTORS
330
15E
102
}
330
15E
100
DictionaryVariables
280
     0
  1
15
  0
DICTIONARYVAR
  5
165
102
{ACAD_REACTORS
330
15E
102
}
330
15E
100
DictionaryVariables
280
     0
  1
0
  0
DICTIONARYVAR
  5
163
102
{ACAD_REACTORS
330
15E
102
}
330
15E
100
DictionaryVariables
280
     0
  1
0
  0
DICTIONARY
  5
19F
330
F6
100
AcDbDictionary
280
     1
281
     1
  3
ACAD_XREC_ROUNDTRIP
360
1A0
  0
DICTIONARY
  5
B4
330
B3
100
AcDbDictionary
280
     1
281
     1
  3
BUMPTILE
360
B6
  3
DIFFUSETILE
360
B5
  3
OPACITYTILE
360
B9
  3
REFLECTIONTILE
360
B8
  3
REFRACTIONTILE
360
BA
  3
SPECULARTILE
360
B7
  0
DICTIONARY
  5
AC
330
AB
100
AcDbDictionary
280
     1
281
     1
  3
BUMPTILE
360
AE
  3
DIFFUSETILE
360
AD
  3
OPACITYTILE
360
B1
  3
REFLECTIONTILE
360
B0
  3
REFRACTIONTILE
360
B2
  3
SPECULARTILE
360
AF
  0
DICTIONARY
  5
BC
330
BB
100
AcDbDictionary
280
     1
281
     1
  3
BUMPTILE
360
BE
  3
DIFFUSETILE
360
BD
  3
OPACITYTILE
360
C1
  3
REFLECTIONTILE
360
C0
  3
REFRACTIONTILE
360
C2
  3
SPECULARTILE
360
BF
  0
DICTIONARY
  5
19B
330
F2
100
AcDbDictionary
280
     1
281
     1
  3
ACAD_XREC_ROUNDTRIP
360
19C
  0
DICTIONARY
  5
19D
330
F4
100
AcDbDictionary
280
     1
281
     1
  3
ACAD_XREC_ROUNDTRIP
360
19E
  0
DICTIONARY
  5
168
330
DE
100
AcDbDictionary
280
     1
281
     1
  3
ACAD_ROUNDTRIP_2008_TABLESTYLE_CELLSTYLEMAP
360
169
  0
DICTIONARY
  5
175
330
C9
100
AcDbDictionary
280
     1
281
     1
  3
ACAD_XREC_ROUNDTRIP
360
176
  0
DICTIONARY
  5
173
330
C8
100
AcDbDictionary
280
     1
281
     1
  3
ACAD_XREC_ROUNDTRIP
360
174
  0
DICTIONARY
  5
181
330
CF
100
AcDbDictionary
280
     1
281
     1
  3
ACAD_XREC_ROUNDTRIP
360
182
  0
DICTIONARY
  5
189
330
D3
100
AcDbDictionary
280
     1
281
     1
  3
ACAD_XREC_ROUNDTRIP
360
18A
  0
DICTIONARY
  5
17B
330
CC
100
AcDbDictionary
280
     1
281
     1
  3
ACAD_XREC_ROUNDTRIP
360
17C
  0
DICTIONARY
  5
17F
330
CE
100
AcDbDictionary
280
     1
281
     1
  3
ACAD_XREC_ROUNDTRIP
360
180
  0
DICTIONARY
  5
199
330
DB
100
AcDbDictionary
280
     1
281
     1
  3
ACAD_XREC_ROUNDTRIP
360
19A
  0
DICTIONARY
  5
187
330
D2
100
AcDbDictionary
280
     1
281
     1
  3
ACAD_XREC_ROUNDTRIP
360
188
  0
DICTIONARY
  5
16B
330
C4
100
AcDbDictionary
280
     1
281
     1
  3
ACAD_XREC_ROUNDTRIP
360
16C
  0
DICTIONARY
  5
16D
330
C5
100
AcDbDictionary
280
     1
281
     1
  3
ACAD_XREC_ROUNDTRIP
360
16E
  0
DICTIONARY
  5
16F
330
C6
100
AcDbDictionary
280
     1
281
     1
  3
ACAD_XREC_ROUNDTRIP
360
170
  0
DICTIONARY
  5
171
330
C7
100
AcDbDictionary
280
     1
281
     1
  3
ACAD_XREC_ROUNDTRIP
360
172
  0
DICTIONARY
  5
179
330
CB
100
AcDbDictionary
280
     1
281
     1
  3
ACAD_XREC_ROUNDTRIP
360
17A
  0
DICTIONARY
  5
195
330
D9
100
AcDbDictionary
280
     1
281
     1
  3
ACAD_XREC_ROUNDTRIP
360
196
  0
DICTIONARY
  5
185
330
D1
100
AcDbDictionary
280
     1
281
     1
  3
ACAD_XREC_ROUNDTRIP
360
186
  0
DICTIONARY
  5
197
330
DA
100
AcDbDictionary
280
     1
281
     1
  3
ACAD_XREC_ROUNDTRIP
360
198
  0
DICTIONARY
  5
17D
330
CD
100
AcDbDictionary
280
     1
281
     1
  3
ACAD_XREC_ROUNDTRIP
360
17E
  0
DICTIONARY
  5
193
330
D8
100
AcDbDictionary
280
     1
281
     1
  3
ACAD_XREC_ROUNDTRIP
360
194
  0
DICTIONARY
  5
191
330
D7
100
AcDbDictionary
280
     1
281
     1
  3
ACAD_XREC_ROUNDTRIP
360
192
  0
DICTIONARY
  5
18B
330
D4
100
AcDbDictionary
280
     1
281
     1
  3
ACAD_XREC_ROUNDTRIP
360
18C
  0
DICTIONARY
  5
18D
330
D5
100
AcDbDictionary
280
     1
281
     1
  3
ACAD_XREC_ROUNDTRIP
360
18E
  0
DICTIONARY
  5
183
330
D0
100
AcDbDictionary
280
     1
281
     1
  3
ACAD_XREC_ROUNDTRIP
360
184
  0
DICTIONARY
  5
177
330
CA
100
AcDbDictionary
280
     1
281
     1
  3
ACAD_XREC_ROUNDTRIP
360
178
  0
DICTIONARY
  5
18F
330
D6
100
AcDbDictionary
280
     1
281
     1
  3
ACAD_XREC_ROUNDTRIP
360
190
  0
XRECORD
  5
1A0
102
{ACAD_REACTORS
330
19F
102
}
330
19F
100
AcDbXrecord
280
     1
102
DISPLAYNAME
  1
Imperial24
102
FLAGS
 90
        0
  0
XRECORD
  5
B6
102
{ACAD_REACTORS
330
B4
102
}
330
B4
100
AcDbXrecord
280
     1
270
     1
271
     1
  0
XRECORD
  5
B5
102
{ACAD_REACTORS
330
B4
102
}
330
B4
100
AcDbXrecord
280
     1
270
     1
271
     1
  0
XRECORD
  5
B9
102
{ACAD_REACTORS
330
B4
102
}
330
B4
100
AcDbXrecord
280
     1
270
     1
271
     1
  0
XRECORD
  5
B8
102
{ACAD_REACTORS
330
B4
102
}
330
B4
100
AcDbXrecord
280
     1
270
     1
271
     1
  0
XRECORD
  5
BA
102
{ACAD_REACTORS
330
B4
102
}
330
B4
100
AcDbXrecord
280
     1
270
     1
271
     1
  0
XRECORD
  5
B7
102
{ACAD_REACTORS
330
B4
102
}
330
B4
100
AcDbXrecord
280
     1
270
     1
271
     1
  0
XRECORD
  5
AE
102
{ACAD_REACTORS
330
AC
102
}
330
AC
100
AcDbXrecord
280
     1
270
     1
271
     1
  0
XRECORD
  5
AD
102
{ACAD_REACTORS
330
AC
102
}
330
AC
100
AcDbXrecord
280
     1
270
     1
271
     1
  0
XRECORD
  5
B1
102
{ACAD_REACTORS
330
AC
102
}
330
AC
100
AcDbXrecord
280
     1
270
     1
271
     1
  0
XRECORD
  5
B0
102
{ACAD_REACTORS
330
AC
102
}
330
AC
100
AcDbXrecord
280
     1
270
     1
271
     1
  0
XRECORD
  5
B2
102
{ACAD_REACTORS
330
AC
102
}
330
AC
100
AcDbXrecord
280
     1
270
     1
271
     1
  0
XRECORD
  5
AF
102
{ACAD_REACTORS
330
AC
102
}
330
AC
100
AcDbXrecord
280
     1
270
     1
271
     1
  0
XRECORD
  5
BE
102
{ACAD_REACTORS
330
BC
102
}
330
BC
100
AcDbXrecord
280
     1
270
     1
271
     1
  0
XRECORD
  5
BD
102
{ACAD_REACTORS
330
BC
102
}
330
BC
100
AcDbXrecord
280
     1
270
     1
271
     1
  0
XRECORD
  5
C1
102
{ACAD_REACTORS
330
BC
102
}
330
BC
100
AcDbXrecord
280
     1
270
     1
271
     1
  0
XRECORD
  5
C0
102
{ACAD_REACTORS
330
BC
102
}
330
BC
100
AcDbXrecord
280
     1
270
     1
271
     1
  0
XRECORD
  5
C2
102
{ACAD_REACTORS
330
BC
102
}
330
BC
100
AcDbXrecord
280
     1
270
     1
271
     1
  0
XRECORD
  5
BF
102
{ACAD_REACTORS
330
BC
102
}
330
BC
100
AcDbXrecord
280
     1
270
     1
271
     1
  0
XRECORD
  5
19C
102
{ACAD_REACTORS
330
19B
102
}
330
19B
100
AcDbXrecord
280
     1
102
ACAD_ROUNDTRIP_2012_MLEADER_STYLE
298
     1
  0
XRECORD
  5
19E
102
{ACAD_REACTORS
330
19D
102
}
330
19D
100
AcDbXrecord
280
     1
102
DISPLAYNAME
  1
Imperial24
102
FLAGS
 90
        0
  0
CELLSTYLEMAP
  5
169
102
{ACAD_REACTORS
330
168
102
}
330
168
100
AcDbCellStyleMap
 90
        3
300
CELLSTYLE
  1
TABLEFORMAT_BEGIN
 90
        5
170
     1
 91
        0
 92
    32768
 62
   257
 93
        1
300
CONTENTFORMAT
  1
CONTENTFORMAT_BEGIN
 90
        0
 91
        0
 92
      512
 93
        0
300

 40
0.0
140
1.0
 94
        5
 62
     0
340
11
144
0.25
309
CONTENTFORMAT_END
171
     0
 94
        0
309
TABLEFORMAT_END
  1
CELLSTYLE_BEGIN
 90
        1
 91
        1
300
_TITLE
309
CELLSTYLE_END
300
CELLSTYLE
  1
TABLEFORMAT_BEGIN
 90
        5
170
     1
 91
        0
 92
        0
 62
   257
 93
        1
300
CONTENTFORMAT
  1
CONTENTFORMAT_BEGIN
 90
        0
 91
        0
 92
      512
 93
        0
300

 40
0.0
140
1.0
 94
        5
 62
     0
340
11
144
0.18
309
CONTENTFORMAT_END
171
     0
 94
        0
309
TABLEFORMAT_END
  1
CELLSTYLE_BEGIN
 90
        2
 91
        1
300
_HEADER
309
CELLSTYLE_END
300
CELLSTYLE
  1
TABLEFORMAT_BEGIN
 90
        5
170
     1
 91
        0
 92
        0
 62
   257
 93
        1
300
CONTENTFORMAT
  1
CONTENTFORMAT_BEGIN
 90
        0
 91
        0
 92
      512
 93
        0
300

 40
0.0
140
1.0
 94
        2
 62
     0
340
11
144
0.18
309
CONTENTFORMAT_END
171
     0
 94
        0
309
TABLEFORMAT_END
  1
CELLSTYLE_BEGIN
 90
        3
 91
        2
300
_DATA
309
CELLSTYLE_END
  0
XRECORD
  5
176
102
{ACAD_REACTORS
330
175
102
}
330
175
100
AcDbXrecord
280
     1
102
RTVSPost2010Prop28
280
     1
102
RTVSPost2010PropOp28
 70
     1
102
RTVSPost2010Prop29
280
     1
102
RTVSPost2010PropOp29
 70
     1
102
RTVSPost2010Prop30
280
     0
102
RTVSPost2010PropOp30
 70
     1
102
RTVSPost2010Prop31
280
     0
102
RTVSPost2010PropOp31
 70
     1
102
RTVSPost2010Prop32
280
     0
102
RTVSPost2010PropOp32
 70
     1
102
RTVSPost2010Prop33
280
     0
102
RTVSPost2010PropOp33
 70
     1
102
RTVSPost2010Prop34
280
     0
102
RTVSPost2010PropOp34
 70
     1
102
RTVSPost2010Prop35
280
     0
102
RTVSPost2010PropOp35
 70
     1
102
RTVSPost2010Prop36
280
     0
102
RTVSPost2010PropOp36
 70
     1
102
RTVSPost2010Prop37
 90
       50
102
RTVSPost2010PropOp37
 70
     1
102
RTVSPost2010Prop38
140
0.0
102
RTVSPost2010PropOp38
 70
     1
102
RTVSPost2010Prop39
140
1.0
102
RTVSPost2010PropOp39
 70
     1
102
RTVSPost2010Prop40
 90
        0
102
RTVSPost2010PropOp40
 70
     1
102
RTVSPost2010Prop41ColorIndex
 90
       18
102
RTVSPost2010Prop41ColorRGB
 90
        0
102
RTVSPost2010PropOp41
 70
     1
102
RTVSPost2010Prop42
 90
       50
102
RTVSPost2010PropOp42
 70
     1
102
RTVSPost2010Prop43
 90
        3
102
RTVSPost2010PropOp43
 70
     1
102
RTVSPost2010Prop44ColorIndex
 90
        5
102
RTVSPost2010Prop44ColorRGB
 90
      255
102
RTVSPost2010PropOp44
 70
     1
102
RTVSPost2010Prop45
280
     0
102
RTVSPost2010PropOp45
 70
     1
102
RTVSPost2010Prop46
 90
       50
102
RTVSPost2010PropOp46
 70
     1
102
RTVSPost2010Prop47
 90
       50
102
RTVSPost2010PropOp47
 70
     1
102
RTVSPost2010Prop48
 90
       50
102
RTVSPost2010PropOp48
 70
     1
102
RTVSPost2010Prop49
280
     0
102
RTVSPost2010PropOp49
 70
     1
102
RTVSPost2010Prop50
 90
       50
102
RTVSPost2010PropOp50
 70
     1
102
RTVSPost2010Prop51ColorIndex
 90
      256
102
RTVSPost2010Prop51ColorRGB
 90
-16777216
102
RTVSPost2010PropOp51
 70
     0
102
RTVSPost2010Prop52
140
1.0
102
RTVSPost2010PropOp52
 70
     0
102
RTVSPost2010Prop53
 90
        2
102
RTVSPost2010PropOp53
 70
     1
102
RTVSPost2010Prop54
  1
strokes_ogs.tif
102
RTVSPost2010PropOp54
 70
     1
102
RTVSPost2010Prop55
280
     0
102
RTVSPost2010PropOp55
 70
     1
102
RTVSPost2010Prop56
140
1.0
102
RTVSPost2010PropOp56
 70
     1
102
RTVSPost2010Prop57
140
1.0
102
RTVSPost2010PropOp57
 70
     1
  0
XRECORD
  5
174
102
{ACAD_REACTORS
330
173
102
}
330
173
100
AcDbXrecord
280
     1
102
RTVSPost2010Prop28
280
     0
102
RTVSPost2010PropOp28
 70
     1
102
RTVSPost2010Prop29
280
     1
102
RTVSPost2010PropOp29
 70
     1
102
RTVSPost2010Prop30
280
     1
102
RTVSPost2010PropOp30
 70
     1
102
RTVSPost2010Prop31
280
     0
102
RTVSPost2010PropOp31
 70
     1
102
RTVSPost2010Prop32
280
     0
102
RTVSPost2010PropOp32
 70
     1
102
RTVSPost2010Prop33
280
     0
102
RTVSPost2010PropOp33
 70
     1
102
RTVSPost2010Prop34
280
     0
102
RTVSPost2010PropOp34
 70
     1
102
RTVSPost2010Prop35
280
     0
102
RTVSPost2010PropOp35
 70
     1
102
RTVSPost2010Prop36
280
     0
102
RTVSPost2010PropOp36
 70
     1
102
RTVSPost2010Prop37
 90
       50
102
RTVSPost2010PropOp37
 70
     1
102
RTVSPost2010Prop38
140
0.0
102
RTVSPost2010PropOp38
 70
     1
102
RTVSPost2010Prop39
140
1.0
102
RTVSPost2010PropOp39
 70
     1
102
RTVSPost2010Prop40
 90
        0
102
RTVSPost2010PropOp40
 70
     1
102
RTVSPost2010Prop41ColorIndex
 90
       18
102
RTVSPost2010Prop41ColorRGB
 90
        0
102
RTVSPost2010PropOp41
 70
     1
102
RTVSPost2010Prop42
 90
       50
102
RTVSPost2010PropOp42
 70
     1
102
RTVSPost2010Prop43
 90
        3
102
RTVSPost2010PropOp43
 70
     1
102
RTVSPost2010Prop44ColorIndex
 90
        5
102
RTVSPost2010Prop44ColorRGB
 90
      255
102
RTVSPost2010PropOp44
 70
     1
102
RTVSPost2010Prop45
280
     0
102
RTVSPost2010PropOp45
 70
     1
102
RTVSPost2010Prop46
 90
       50
102
RTVSPost2010PropOp46
 70
     1
102
RTVSPost2010Prop47
 90
       50
102
RTVSPost2010PropOp47
 70
     1
102
RTVSPost2010Prop48
 90
       50
102
RTVSPost2010PropOp48
 70
     1
102
RTVSPost2010Prop49
280
     0
102
RTVSPost2010PropOp49
 70
     1
102
RTVSPost2010Prop50
 90
       50
102
RTVSPost2010PropOp50
 70
     1
102
RTVSPost2010Prop51ColorIndex
 90
      256
102
RTVSPost2010Prop51ColorRGB
 90
-16777216
102
RTVSPost2010PropOp51
 70
     0
102
RTVSPost2010Prop52
140
1.0
102
RTVSPost2010PropOp52
 70
     0
102
RTVSPost2010Prop53
 90
        2
102
RTVSPost2010PropOp53
 70
     1
102
RTVSPost2010Prop54
  1
strokes_ogs.tif
102
RTVSPost2010PropOp54
 70
     1
102
RTVSPost2010Prop55
280
     0
102
RTVSPost2010PropOp55
 70
     1
102
RTVSPost2010Prop56
140
1.0
102
RTVSPost2010PropOp56
 70
     1
102
RTVSPost2010Prop57
140
1.0
102
RTVSPost2010PropOp57
 70
     1
  0
XRECORD
  5
182
102
{ACAD_REACTORS
330
181
102
}
330
181
100
AcDbXrecord
280
     1
102
RTVSPost2010Prop28
280
     0
102
RTVSPost2010PropOp28
 70
     1
102
RTVSPost2010Prop29
280
     1
102
RTVSPost2010PropOp29
 70
     1
102
RTVSPost2010Prop30
280
     1
102
RTVSPost2010PropOp30
 70
     1
102
RTVSPost2010Prop31
280
     0
102
RTVSPost2010PropOp31
 70
     1
102
RTVSPost2010Prop32
280
     0
102
RTVSPost2010PropOp32
 70
     1
102
RTVSPost2010Prop33
280
     0
102
RTVSPost2010PropOp33
 70
     1
102
RTVSPost2010Prop34
280
     0
102
RTVSPost2010PropOp34
 70
     1
102
RTVSPost2010Prop35
280
     0
102
RTVSPost2010PropOp35
 70
     1
102
RTVSPost2010Prop36
280
     0
102
RTVSPost2010PropOp36
 70
     1
102
RTVSPost2010Prop37
 90
       50
102
RTVSPost2010PropOp37
 70
     1
102
RTVSPost2010Prop38
140
0.0
102
RTVSPost2010PropOp38
 70
     1
102
RTVSPost2010Prop39
140
1.0
102
RTVSPost2010PropOp39
 70
     1
102
RTVSPost2010Prop40
 90
        0
102
RTVSPost2010PropOp40
 70
     1
102
RTVSPost2010Prop41ColorIndex
 90
       18
102
RTVSPost2010Prop41ColorRGB
 90
        0
102
RTVSPost2010PropOp41
 70
     1
102
RTVSPost2010Prop42
 90
       50
102
RTVSPost2010PropOp42
 70
     1
102
RTVSPost2010Prop43
 90
        3
102
RTVSPost2010PropOp43
 70
     1
102
RTVSPost2010Prop44ColorIndex
 90
        5
102
RTVSPost2010Prop44ColorRGB
 90
      255
102
RTVSPost2010PropOp44
 70
     1
102
RTVSPost2010Prop45
280
     0
102
RTVSPost2010PropOp45
 70
     1
102
RTVSPost2010Prop46
 90
       50
102
RTVSPost2010PropOp46
 70
     1
102
RTVSPost2010Prop47
 90
       50
102
RTVSPost2010PropOp47
 70
     1
102
RTVSPost2010Prop48
 90
       50
102
RTVSPost2010PropOp48
 70
     1
102
RTVSPost2010Prop49
280
     0
102
RTVSPost2010PropOp49
 70
     1
102
RTVSPost2010Prop50
 90
       50
102
RTVSPost2010PropOp50
 70
     1
102
RTVSPost2010Prop51ColorIndex
 90
      256
102
RTVSPost2010Prop51ColorRGB
 90
-16777216
102
RTVSPost2010PropOp51
 70
     0
102
RTVSPost2010Prop52
140
1.0
102
RTVSPost2010PropOp52
 70
     0
102
RTVSPost2010Prop53
 90
        2
102
RTVSPost2010PropOp53
 70
     1
102
RTVSPost2010Prop54
  1
strokes_ogs.tif
102
RTVSPost2010PropOp54
 70
     1
102
RTVSPost2010Prop55
280
     0
102
RTVSPost2010PropOp55
 70
     1
102
RTVSPost2010Prop56
140
1.0
102
RTVSPost2010PropOp56
 70
     1
102
RTVSPost2010Prop57
140
1.0
102
RTVSPost2010PropOp57
 70
     1
  0
XRECORD
  5
18A
102
{ACAD_REACTORS
330
189
102
}
330
189
100
AcDbXrecord
280
     1
102
RTVSPost2010Prop28
280
     0
102
RTVSPost2010PropOp28
 70
     1
102
RTVSPost2010Prop29
280
     1
102
RTVSPost2010PropOp29
 70
     1
102
RTVSPost2010Prop30
280
     1
102
RTVSPost2010PropOp30
 70
     1
102
RTVSPost2010Prop31
280
     0
102
RTVSPost2010PropOp31
 70
     1
102
RTVSPost2010Prop32
280
     0
102
RTVSPost2010PropOp32
 70
     1
102
RTVSPost2010Prop33
280
     0
102
RTVSPost2010PropOp33
 70
     1
102
RTVSPost2010Prop34
280
     0
102
RTVSPost2010PropOp34
 70
     1
102
RTVSPost2010Prop35
280
     0
102
RTVSPost2010PropOp35
 70
     1
102
RTVSPost2010Prop36
280
     0
102
RTVSPost2010PropOp36
 70
     1
102
RTVSPost2010Prop37
 90
       50
102
RTVSPost2010PropOp37
 70
     1
102
RTVSPost2010Prop38
140
0.0
102
RTVSPost2010PropOp38
 70
     1
102
RTVSPost2010Prop39
140
1.0
102
RTVSPost2010PropOp39
 70
     1
102
RTVSPost2010Prop40
 90
        0
102
RTVSPost2010PropOp40
 70
     1
102
RTVSPost2010Prop41ColorIndex
 90
       18
102
RTVSPost2010Prop41ColorRGB
 90
        0
102
RTVSPost2010PropOp41
 70
     1
102
RTVSPost2010Prop42
 90
       50
102
RTVSPost2010PropOp42
 70
     1
102
RTVSPost2010Prop43
 90
        3
102
RTVSPost2010PropOp43
 70
     1
102
RTVSPost2010Prop44ColorIndex
 90
        5
102
RTVSPost2010Prop44ColorRGB
 90
      255
102
RTVSPost2010PropOp44
 70
     1
102
RTVSPost2010Prop45
280
     0
102
RTVSPost2010PropOp45
 70
     1
102
RTVSPost2010Prop46
 90
       50
102
RTVSPost2010PropOp46
 70
     1
102
RTVSPost2010Prop47
 90
       50
102
RTVSPost2010PropOp47
 70
     1
102
RTVSPost2010Prop48
 90
       50
102
RTVSPost2010PropOp48
 70
     1
102
RTVSPost2010Prop49
280
     0
102
RTVSPost2010PropOp49
 70
     1
102
RTVSPost2010Prop50
 90
       50
102
RTVSPost2010PropOp50
 70
     1
102
RTVSPost2010Prop51ColorIndex
 90
      256
102
RTVSPost2010Prop51ColorRGB
 90
-16777216
102
RTVSPost2010PropOp51
 70
     0
102
RTVSPost2010Prop52
140
1.0
102
RTVSPost2010PropOp52
 70
     0
102
RTVSPost2010Prop53
 90
        2
102
RTVSPost2010PropOp53
 70
     1
102
RTVSPost2010Prop54
  1
strokes_ogs.tif
102
RTVSPost2010PropOp54
 70
     1
102
RTVSPost2010Prop55
280
     0
102
RTVSPost2010PropOp55
 70
     1
102
RTVSPost2010Prop56
140
1.0
102
RTVSPost2010PropOp56
 70
     1
102
RTVSPost2010Prop57
140
1.0
102
RTVSPost2010PropOp57
 70
     1
  0
XRECORD
  5
17C
102
{ACAD_REACTORS
330
17B
102
}
330
17B
100
AcDbXrecord
280
     1
102
RTVSPost2010Prop28
280
     0
102
RTVSPost2010PropOp28
 70
     1
102
RTVSPost2010Prop29
280
     1
102
RTVSPost2010PropOp29
 70
     1
102
RTVSPost2010Prop30
280
     1
102
RTVSPost2010PropOp30
 70
     1
102
RTVSPost2010Prop31
280
     0
102
RTVSPost2010PropOp31
 70
     1
102
RTVSPost2010Prop32
280
     0
102
RTVSPost2010PropOp32
 70
     1
102
RTVSPost2010Prop33
280
     0
102
RTVSPost2010PropOp33
 70
     1
102
RTVSPost2010Prop34
280
     0
102
RTVSPost2010PropOp34
 70
     1
102
RTVSPost2010Prop35
280
     0
102
RTVSPost2010PropOp35
 70
     1
102
RTVSPost2010Prop36
280
     0
102
RTVSPost2010PropOp36
 70
     1
102
RTVSPost2010Prop37
 90
       50
102
RTVSPost2010PropOp37
 70
     1
102
RTVSPost2010Prop38
140
0.0
102
RTVSPost2010PropOp38
 70
     1
102
RTVSPost2010Prop39
140
1.0
102
RTVSPost2010PropOp39
 70
     1
102
RTVSPost2010Prop40
 90
        0
102
RTVSPost2010PropOp40
 70
     1
102
RTVSPost2010Prop41ColorIndex
 90
       18
102
RTVSPost2010Prop41ColorRGB
 90
        0
102
RTVSPost2010PropOp41
 70
     1
102
RTVSPost2010Prop42
 90
       50
102
RTVSPost2010PropOp42
 70
     1
102
RTVSPost2010Prop43
 90
        3
102
RTVSPost2010PropOp43
 70
     1
102
RTVSPost2010Prop44ColorIndex
 90
        5
102
RTVSPost2010Prop44ColorRGB
 90
      255
102
RTVSPost2010PropOp44
 70
     1
102
RTVSPost2010Prop45
280
     0
102
RTVSPost2010PropOp45
 70
     1
102
RTVSPost2010Prop46
 90
       50
102
RTVSPost2010PropOp46
 70
     1
102
RTVSPost2010Prop47
 90
       50
102
RTVSPost2010PropOp47
 70
     1
102
RTVSPost2010Prop48
 90
       50
102
RTVSPost2010PropOp48
 70
     1
102
RTVSPost2010Prop49
280
     0
102
RTVSPost2010PropOp49
 70
     1
102
RTVSPost2010Prop50
 90
       50
102
RTVSPost2010PropOp50
 70
     1
102
RTVSPost2010Prop51ColorIndex
 90
      256
102
RTVSPost2010Prop51ColorRGB
 90
-16777216
102
RTVSPost2010PropOp51
 70
     0
102
RTVSPost2010Prop52
140
1.0
102
RTVSPost2010PropOp52
 70
     0
102
RTVSPost2010Prop53
 90
        2
102
RTVSPost2010PropOp53
 70
     1
102
RTVSPost2010Prop54
  1
strokes_ogs.tif
102
RTVSPost2010PropOp54
 70
     1
102
RTVSPost2010Prop55
280
     0
102
RTVSPost2010PropOp55
 70
     1
102
RTVSPost2010Prop56
140
1.0
102
RTVSPost2010PropOp56
 70
     1
102
RTVSPost2010Prop57
140
1.0
102
RTVSPost2010PropOp57
 70
     1
  0
XRECORD
  5
180
102
{ACAD_REACTORS
330
17F
102
}
330
17F
100
AcDbXrecord
280
     1
102
RTVSPost2010Prop28
280
     0
102
RTVSPost2010PropOp28
 70
     1
102
RTVSPost2010Prop29
280
     1
102
RTVSPost2010PropOp29
 70
     1
102
RTVSPost2010Prop30
280
     1
102
RTVSPost2010PropOp30
 70
     1
102
RTVSPost2010Prop31
280
     0
102
RTVSPost2010PropOp31
 70
     1
102
RTVSPost2010Prop32
280
     0
102
RTVSPost2010PropOp32
 70
     1
102
RTVSPost2010Prop33
280
     0
102
RTVSPost2010PropOp33
 70
     1
102
RTVSPost2010Prop34
280
     0
102
RTVSPost2010PropOp34
 70
     1
102
RTVSPost2010Prop35
280
     0
102
RTVSPost2010PropOp35
 70
     1
102
RTVSPost2010Prop36
280
     0
102
RTVSPost2010PropOp36
 70
     1
102
RTVSPost2010Prop37
 90
       50
102
RTVSPost2010PropOp37
 70
     1
102
RTVSPost2010Prop38
140
0.0
102
RTVSPost2010PropOp38
 70
     1
102
RTVSPost2010Prop39
140
1.0
102
RTVSPost2010PropOp39
 70
     1
102
RTVSPost2010Prop40
 90
        0
102
RTVSPost2010PropOp40
 70
     1
102
RTVSPost2010Prop41ColorIndex
 90
       18
102
RTVSPost2010Prop41ColorRGB
 90
        0
102
RTVSPost2010PropOp41
 70
     1
102
RTVSPost2010Prop42
 90
       50
102
RTVSPost2010PropOp42
 70
     1
102
RTVSPost2010Prop43
 90
        3
102
RTVSPost2010PropOp43
 70
     1
102
RTVSPost2010Prop44ColorIndex
 90
        5
102
RTVSPost2010Prop44ColorRGB
 90
      255
102
RTVSPost2010PropOp44
 70
     1
102
RTVSPost2010Prop45
280
     0
102
RTVSPost2010PropOp45
 70
     1
102
RTVSPost2010Prop46
 90
       50
102
RTVSPost2010PropOp46
 70
     1
102
RTVSPost2010Prop47
 90
       50
102
RTVSPost2010PropOp47
 70
     1
102
RTVSPost2010Prop48
 90
       50
102
RTVSPost2010PropOp48
 70
     1
102
RTVSPost2010Prop49
280
     0
102
RTVSPost2010PropOp49
 70
     1
102
RTVSPost2010Prop50
 90
       50
102
RTVSPost2010PropOp50
 70
     1
102
RTVSPost2010Prop51ColorIndex
 90
      256
102
RTVSPost2010Prop51ColorRGB
 90
-16777216
102
RTVSPost2010PropOp51
 70
     0
102
RTVSPost2010Prop52
140
1.0
102
RTVSPost2010PropOp52
 70
     0
102
RTVSPost2010Prop53
 90
        2
102
RTVSPost2010PropOp53
 70
     1
102
RTVSPost2010Prop54
  1
strokes_ogs.tif
102
RTVSPost2010PropOp54
 70
     1
102
RTVSPost2010Prop55
280
     0
102
RTVSPost2010PropOp55
 70
     1
102
RTVSPost2010Prop56
140
1.0
102
RTVSPost2010PropOp56
 70
     1
102
RTVSPost2010Prop57
140
1.0
102
RTVSPost2010PropOp57
 70
     1
  0
XRECORD
  5
19A
102
{ACAD_REACTORS
330
199
102
}
330
199
100
AcDbXrecord
280
     1
102
RTVSPost2010Prop28
280
     0
102
RTVSPost2010PropOp28
 70
     0
102
RTVSPost2010Prop29
280
     1
102
RTVSPost2010PropOp29
 70
     0
102
RTVSPost2010Prop30
280
     1
102
RTVSPost2010PropOp30
 70
     0
102
RTVSPost2010Prop31
280
     0
102
RTVSPost2010PropOp31
 70
     0
102
RTVSPost2010Prop32
280
     0
102
RTVSPost2010PropOp32
 70
     0
102
RTVSPost2010Prop33
280
     0
102
RTVSPost2010PropOp33
 70
     0
102
RTVSPost2010Prop34
280
     0
102
RTVSPost2010PropOp34
 70
     0
102
RTVSPost2010Prop35
280
     0
102
RTVSPost2010PropOp35
 70
     0
102
RTVSPost2010Prop36
280
     0
102
RTVSPost2010PropOp36
 70
     0
102
RTVSPost2010Prop37
 90
       50
102
RTVSPost2010PropOp37
 70
     0
102
RTVSPost2010Prop38
140
0.0
102
RTVSPost2010PropOp38
 70
     0
102
RTVSPost2010Prop39
140
1.0
102
RTVSPost2010PropOp39
 70
     0
102
RTVSPost2010Prop40
 90
        0
102
RTVSPost2010PropOp40
 70
     0
102
RTVSPost2010Prop41ColorIndex
 90
       18
102
RTVSPost2010Prop41ColorRGB
 90
        0
102
RTVSPost2010PropOp41
 70
     0
102
RTVSPost2010Prop42
 90
       50
102
RTVSPost2010PropOp42
 70
     0
102
RTVSPost2010Prop43
 90
        3
102
RTVSPost2010PropOp43
 70
     0
102
RTVSPost2010Prop44ColorIndex
 90
        5
102
RTVSPost2010Prop44ColorRGB
 90
      255
102
RTVSPost2010PropOp44
 70
     0
102
RTVSPost2010Prop45
280
     0
102
RTVSPost2010PropOp45
 70
     0
102
RTVSPost2010Prop46
 90
       50
102
RTVSPost2010PropOp46
 70
     0
102
RTVSPost2010Prop47
 90
       50
102
RTVSPost2010PropOp47
 70
     0
102
RTVSPost2010Prop48
 90
       50
102
RTVSPost2010PropOp48
 70
     0
102
RTVSPost2010Prop49
280
     0
102
RTVSPost2010PropOp49
 70
     0
102
RTVSPost2010Prop50
 90
       50
102
RTVSPost2010PropOp50
 70
     0
102
RTVSPost2010Prop51ColorIndex
 90
      256
102
RTVSPost2010Prop51ColorRGB
 90
-16777216
102
RTVSPost2010PropOp51
 70
     0
102
RTVSPost2010Prop52
140
1.0
102
RTVSPost2010PropOp52
 70
     0
102
RTVSPost2010Prop53
 90
        2
102
RTVSPost2010PropOp53
 70
     0
102
RTVSPost2010Prop54
  1
strokes_ogs.tif
102
RTVSPost2010PropOp54
 70
     0
102
RTVSPost2010Prop55
280
     0
102
RTVSPost2010PropOp55
 70
     0
102
RTVSPost2010Prop56
140
1.0
102
RTVSPost2010PropOp56
 70
     0
102
RTVSPost2010Prop57
140
1.0
102
RTVSPost2010PropOp57
 70
     0
  0
XRECORD
  5
188
102
{ACAD_REACTORS
330
187
102
}
330
187
100
AcDbXrecord
280
     1
102
RTVSPost2010Prop28
280
     0
102
RTVSPost2010PropOp28
 70
     1
102
RTVSPost2010Prop29
280
     1
102
RTVSPost2010PropOp29
 70
     1
102
RTVSPost2010Prop30
280
     1
102
RTVSPost2010PropOp30
 70
     1
102
RTVSPost2010Prop31
280
     0
102
RTVSPost2010PropOp31
 70
     1
102
RTVSPost2010Prop32
280
     0
102
RTVSPost2010PropOp32
 70
     1
102
RTVSPost2010Prop33
280
     0
102
RTVSPost2010PropOp33
 70
     1
102
RTVSPost2010Prop34
280
     0
102
RTVSPost2010PropOp34
 70
     1
102
RTVSPost2010Prop35
280
     0
102
RTVSPost2010PropOp35
 70
     1
102
RTVSPost2010Prop36
280
     0
102
RTVSPost2010PropOp36
 70
     1
102
RTVSPost2010Prop37
 90
       50
102
RTVSPost2010PropOp37
 70
     1
102
RTVSPost2010Prop38
140
0.0
102
RTVSPost2010PropOp38
 70
     1
102
RTVSPost2010Prop39
140
1.0
102
RTVSPost2010PropOp39
 70
     1
102
RTVSPost2010Prop40
 90
        0
102
RTVSPost2010PropOp40
 70
     1
102
RTVSPost2010Prop41ColorIndex
 90
       18
102
RTVSPost2010Prop41ColorRGB
 90
        0
102
RTVSPost2010PropOp41
 70
     1
102
RTVSPost2010Prop42
 90
       50
102
RTVSPost2010PropOp42
 70
     1
102
RTVSPost2010Prop43
 90
        3
102
RTVSPost2010PropOp43
 70
     1
102
RTVSPost2010Prop44ColorIndex
 90
        5
102
RTVSPost2010Prop44ColorRGB
 90
      255
102
RTVSPost2010PropOp44
 70
     1
102
RTVSPost2010Prop45
280
     0
102
RTVSPost2010PropOp45
 70
     1
102
RTVSPost2010Prop46
 90
       50
102
RTVSPost2010PropOp46
 70
     1
102
RTVSPost2010Prop47
 90
       50
102
RTVSPost2010PropOp47
 70
     1
102
RTVSPost2010Prop48
 90
       50
102
RTVSPost2010PropOp48
 70
     1
102
RTVSPost2010Prop49
280
     0
102
RTVSPost2010PropOp49
 70
     1
102
RTVSPost2010Prop50
 90
       50
102
RTVSPost2010PropOp50
 70
     1
102
RTVSPost2010Prop51ColorIndex
 90
      256
102
RTVSPost2010Prop51ColorRGB
 90
-16777216
102
RTVSPost2010PropOp51
 70
     0
102
RTVSPost2010Prop52
140
1.0
102
RTVSPost2010PropOp52
 70
     0
102
RTVSPost2010Prop53
 90
        2
102
RTVSPost2010PropOp53
 70
     1
102
RTVSPost2010Prop54
  1
strokes_ogs.tif
102
RTVSPost2010PropOp54
 70
     1
102
RTVSPost2010Prop55
280
     0
102
RTVSPost2010PropOp55
 70
     1
102
RTVSPost2010Prop56
140
1.0
102
RTVSPost2010PropOp56
 70
     1
102
RTVSPost2010Prop57
140
1.0
102
RTVSPost2010PropOp57
 70
     1
  0
XRECORD
  5
16C
102
{ACAD_REACTORS
330
16B
102
}
330
16B
100
AcDbXrecord
280
     1
102
RTVSPost2010Prop28
280
     0
102
RTVSPost2010PropOp28
 70
     1
102
RTVSPost2010Prop29
280
     1
102
RTVSPost2010PropOp29
 70
     1
102
RTVSPost2010Prop30
280
     1
102
RTVSPost2010PropOp30
 70
     1
102
RTVSPost2010Prop31
280
     0
102
RTVSPost2010PropOp31
 70
     1
102
RTVSPost2010Prop32
280
     0
102
RTVSPost2010PropOp32
 70
     1
102
RTVSPost2010Prop33
280
     0
102
RTVSPost2010PropOp33
 70
     1
102
RTVSPost2010Prop34
280
     0
102
RTVSPost2010PropOp34
 70
     1
102
RTVSPost2010Prop35
280
     0
102
RTVSPost2010PropOp35
 70
     1
102
RTVSPost2010Prop36
280
     0
102
RTVSPost2010PropOp36
 70
     1
102
RTVSPost2010Prop37
 90
       50
102
RTVSPost2010PropOp37
 70
     1
102
RTVSPost2010Prop38
140
0.0
102
RTVSPost2010PropOp38
 70
     1
102
RTVSPost2010Prop39
140
1.0
102
RTVSPost2010PropOp39
 70
     1
102
RTVSPost2010Prop40
 90
        0
102
RTVSPost2010PropOp40
 70
     1
102
RTVSPost2010Prop41ColorIndex
 90
       18
102
RTVSPost2010Prop41ColorRGB
 90
        0
102
RTVSPost2010PropOp41
 70
     1
102
RTVSPost2010Prop42
 90
       50
102
RTVSPost2010PropOp42
 70
     1
102
RTVSPost2010Prop43
 90
        3
102
RTVSPost2010PropOp43
 70
     1
102
RTVSPost2010Prop44ColorIndex
 90
        5
102
RTVSPost2010Prop44ColorRGB
 90
      255
102
RTVSPost2010PropOp44
 70
     1
102
RTVSPost2010Prop45
280
     0
102
RTVSPost2010PropOp45
 70
     1
102
RTVSPost2010Prop46
 90
       50
102
RTVSPost2010PropOp46
 70
     1
102
RTVSPost2010Prop47
 90
       50
102
RTVSPost2010PropOp47
 70
     1
102
RTVSPost2010Prop48
 90
       50
102
RTVSPost2010PropOp48
 70
     1
102
RTVSPost2010Prop49
280
     0
102
RTVSPost2010PropOp49
 70
     1
102
RTVSPost2010Prop50
 90
       50
102
RTVSPost2010PropOp50
 70
     1
102
RTVSPost2010Prop51ColorIndex
 90
      256
102
RTVSPost2010Prop51ColorRGB
 90
-16777216
102
RTVSPost2010PropOp51
 70
     0
102
RTVSPost2010Prop52
140
1.0
102
RTVSPost2010PropOp52
 70
     0
102
RTVSPost2010Prop53
 90
        2
102
RTVSPost2010PropOp53
 70
     1
102
RTVSPost2010Prop54
  1
strokes_ogs.tif
102
RTVSPost2010PropOp54
 70
     1
102
RTVSPost2010Prop55
280
     0
102
RTVSPost2010PropOp55
 70
     1
102
RTVSPost2010Prop56
140
1.0
102
RTVSPost2010PropOp56
 70
     1
102
RTVSPost2010Prop57
140
1.0
102
RTVSPost2010PropOp57
 70
     1
  0
XRECORD
  5
16E
102
{ACAD_REACTORS
330
16D
102
}
330
16D
100
AcDbXrecord
280
     1
102
RTVSPost2010Prop28
280
     0
102
RTVSPost2010PropOp28
 70
     1
102
RTVSPost2010Prop29
280
     1
102
RTVSPost2010PropOp29
 70
     1
102
RTVSPost2010Prop30
280
     1
102
RTVSPost2010PropOp30
 70
     1
102
RTVSPost2010Prop31
280
     0
102
RTVSPost2010PropOp31
 70
     1
102
RTVSPost2010Prop32
280
     0
102
RTVSPost2010PropOp32
 70
     1
102
RTVSPost2010Prop33
280
     0
102
RTVSPost2010PropOp33
 70
     1
102
RTVSPost2010Prop34
280
     0
102
RTVSPost2010PropOp34
 70
     1
102
RTVSPost2010Prop35
280
     0
102
RTVSPost2010PropOp35
 70
     1
102
RTVSPost2010Prop36
280
     0
102
RTVSPost2010PropOp36
 70
     1
102
RTVSPost2010Prop37
 90
       50
102
RTVSPost2010PropOp37
 70
     1
102
RTVSPost2010Prop38
140
0.0
102
RTVSPost2010PropOp38
 70
     1
102
RTVSPost2010Prop39
140
1.0
102
RTVSPost2010PropOp39
 70
     1
102
RTVSPost2010Prop40
 90
        0
102
RTVSPost2010PropOp40
 70
     1
102
RTVSPost2010Prop41ColorIndex
 90
       18
102
RTVSPost2010Prop41ColorRGB
 90
        0
102
RTVSPost2010PropOp41
 70
     1
102
RTVSPost2010Prop42
 90
       50
102
RTVSPost2010PropOp42
 70
     1
102
RTVSPost2010Prop43
 90
        3
102
RTVSPost2010PropOp43
 70
     1
102
RTVSPost2010Prop44ColorIndex
 90
        5
102
RTVSPost2010Prop44ColorRGB
 90
      255
102
RTVSPost2010PropOp44
 70
     1
102
RTVSPost2010Prop45
280
     0
102
RTVSPost2010PropOp45
 70
     1
102
RTVSPost2010Prop46
 90
       50
102
RTVSPost2010PropOp46
 70
     1
102
RTVSPost2010Prop47
 90
       50
102
RTVSPost2010PropOp47
 70
     1
102
RTVSPost2010Prop48
 90
       50
102
RTVSPost2010PropOp48
 70
     1
102
RTVSPost2010Prop49
280
     0
102
RTVSPost2010PropOp49
 70
     1
102
RTVSPost2010Prop50
 90
       50
102
RTVSPost2010PropOp50
 70
     1
102
RTVSPost2010Prop51ColorIndex
 90
      256
102
RTVSPost2010Prop51ColorRGB
 90
-16777216
102
RTVSPost2010PropOp51
 70
     0
102
RTVSPost2010Prop52
140
1.0
102
RTVSPost2010PropOp52
 70
     0
102
RTVSPost2010Prop53
 90
        2
102
RTVSPost2010PropOp53
 70
     1
102
RTVSPost2010Prop54
  1
strokes_ogs.tif
102
RTVSPost2010PropOp54
 70
     1
102
RTVSPost2010Prop55
280
     0
102
RTVSPost2010PropOp55
 70
     1
102
RTVSPost2010Prop56
140
1.0
102
RTVSPost2010PropOp56
 70
     1
102
RTVSPost2010Prop57
140
1.0
102
RTVSPost2010PropOp57
 70
     1
  0
XRECORD
  5
170
102
{ACAD_REACTORS
330
16F
102
}
330
16F
100
AcDbXrecord
280
     1
102
RTVSPost2010Prop28
280
     0
102
RTVSPost2010PropOp28
 70
     1
102
RTVSPost2010Prop29
280
     1
102
RTVSPost2010PropOp29
 70
     1
102
RTVSPost2010Prop30
280
     1
102
RTVSPost2010PropOp30
 70
     1
102
RTVSPost2010Prop31
280
     0
102
RTVSPost2010PropOp31
 70
     1
102
RTVSPost2010Prop32
280
     0
102
RTVSPost2010PropOp32
 70
     1
102
RTVSPost2010Prop33
280
     0
102
RTVSPost2010PropOp33
 70
     1
102
RTVSPost2010Prop34
280
     0
102
RTVSPost2010PropOp34
 70
     1
102
RTVSPost2010Prop35
280
     0
102
RTVSPost2010PropOp35
 70
     1
102
RTVSPost2010Prop36
280
     0
102
RTVSPost2010PropOp36
 70
     1
102
RTVSPost2010Prop37
 90
       50
102
RTVSPost2010PropOp37
 70
     1
102
RTVSPost2010Prop38
140
0.0
102
RTVSPost2010PropOp38
 70
     1
102
RTVSPost2010Prop39
140
1.0
102
RTVSPost2010PropOp39
 70
     1
102
RTVSPost2010Prop40
 90
        0
102
RTVSPost2010PropOp40
 70
     1
102
RTVSPost2010Prop41ColorIndex
 90
       18
102
RTVSPost2010Prop41ColorRGB
 90
        0
102
RTVSPost2010PropOp41
 70
     1
102
RTVSPost2010Prop42
 90
       50
102
RTVSPost2010PropOp42
 70
     1
102
RTVSPost2010Prop43
 90
        3
102
RTVSPost2010PropOp43
 70
     1
102
RTVSPost2010Prop44ColorIndex
 90
        5
102
RTVSPost2010Prop44ColorRGB
 90
      255
102
RTVSPost2010PropOp44
 70
     1
102
RTVSPost2010Prop45
280
     0
102
RTVSPost2010PropOp45
 70
     1
102
RTVSPost2010Prop46
 90
       50
102
RTVSPost2010PropOp46
 70
     1
102
RTVSPost2010Prop47
 90
       50
102
RTVSPost2010PropOp47
 70
     1
102
RTVSPost2010Prop48
 90
       50
102
RTVSPost2010PropOp48
 70
     1
102
RTVSPost2010Prop49
280
     0
102
RTVSPost2010PropOp49
 70
     1
102
RTVSPost2010Prop50
 90
       50
102
RTVSPost2010PropOp50
 70
     1
102
RTVSPost2010Prop51ColorIndex
 90
      256
102
RTVSPost2010Prop51ColorRGB
 90
-16777216
102
RTVSPost2010PropOp51
 70
     0
102
RTVSPost2010Prop52
140
1.0
102
RTVSPost2010PropOp52
 70
     0
102
RTVSPost2010Prop53
 90
        2
102
RTVSPost2010PropOp53
 70
     1
102
RTVSPost2010Prop54
  1
strokes_ogs.tif
102
RTVSPost2010PropOp54
 70
     1
102
RTVSPost2010Prop55
280
     0
102
RTVSPost2010PropOp55
 70
     1
102
RTVSPost2010Prop56
140
1.0
102
RTVSPost2010PropOp56
 70
     1
102
RTVSPost2010Prop57
140
1.0
102
RTVSPost2010PropOp57
 70
     1
  0
XRECORD
  5
172
102
{ACAD_REACTORS
330
171
102
}
330
171
100
AcDbXrecord
280
     1
102
RTVSPost2010Prop28
280
     0
102
RTVSPost2010PropOp28
 70
     1
102
RTVSPost2010Prop29
280
     1
102
RTVSPost2010PropOp29
 70
     1
102
RTVSPost2010Prop30
280
     1
102
RTVSPost2010PropOp30
 70
     1
102
RTVSPost2010Prop31
280
     0
102
RTVSPost2010PropOp31
 70
     1
102
RTVSPost2010Prop32
280
     0
102
RTVSPost2010PropOp32
 70
     1
102
RTVSPost2010Prop33
280
     0
102
RTVSPost2010PropOp33
 70
     1
102
RTVSPost2010Prop34
280
     0
102
RTVSPost2010PropOp34
 70
     1
102
RTVSPost2010Prop35
280
     0
102
RTVSPost2010PropOp35
 70
     1
102
RTVSPost2010Prop36
280
     0
102
RTVSPost2010PropOp36
 70
     1
102
RTVSPost2010Prop37
 90
       50
102
RTVSPost2010PropOp37
 70
     1
102
RTVSPost2010Prop38
140
0.0
102
RTVSPost2010PropOp38
 70
     1
102
RTVSPost2010Prop39
140
1.0
102
RTVSPost2010PropOp39
 70
     1
102
RTVSPost2010Prop40
 90
        0
102
RTVSPost2010PropOp40
 70
     1
102
RTVSPost2010Prop41ColorIndex
 90
       18
102
RTVSPost2010Prop41ColorRGB
 90
        0
102
RTVSPost2010PropOp41
 70
     1
102
RTVSPost2010Prop42
 90
       50
102
RTVSPost2010PropOp42
 70
     1
102
RTVSPost2010Prop43
 90
        3
102
RTVSPost2010PropOp43
 70
     1
102
RTVSPost2010Prop44ColorIndex
 90
        5
102
RTVSPost2010Prop44ColorRGB
 90
      255
102
RTVSPost2010PropOp44
 70
     1
102
RTVSPost2010Prop45
280
     0
102
RTVSPost2010PropOp45
 70
     1
102
RTVSPost2010Prop46
 90
       50
102
RTVSPost2010PropOp46
 70
     1
102
RTVSPost2010Prop47
 90
       50
102
RTVSPost2010PropOp47
 70
     1
102
RTVSPost2010Prop48
 90
       50
102
RTVSPost2010PropOp48
 70
     1
102
RTVSPost2010Prop49
280
     0
102
RTVSPost2010PropOp49
 70
     1
102
RTVSPost2010Prop50
 90
       50
102
RTVSPost2010PropOp50
 70
     1
102
RTVSPost2010Prop51ColorIndex
 90
      256
102
RTVSPost2010Prop51ColorRGB
 90
-16777216
102
RTVSPost2010PropOp51
 70
     0
102
RTVSPost2010Prop52
140
1.0
102
RTVSPost2010PropOp52
 70
     0
102
RTVSPost2010Prop53
 90
        2
102
RTVSPost2010PropOp53
 70
     1
102
RTVSPost2010Prop54
  1
strokes_ogs.tif
102
RTVSPost2010PropOp54
 70
     1
102
RTVSPost2010Prop55
280
     0
102
RTVSPost2010PropOp55
 70
     1
102
RTVSPost2010Prop56
140
1.0
102
RTVSPost2010PropOp56
 70
     1
102
RTVSPost2010Prop57
140
1.0
102
RTVSPost2010PropOp57
 70
     1
  0
XRECORD
  5
17A
102
{ACAD_REACTORS
330
179
102
}
330
179
100
AcDbXrecord
280
     1
102
RTVSPost2010Prop28
280
     0
102
RTVSPost2010PropOp28
 70
     1
102
RTVSPost2010Prop29
280
     1
102
RTVSPost2010PropOp29
 70
     1
102
RTVSPost2010Prop30
280
     1
102
RTVSPost2010PropOp30
 70
     1
102
RTVSPost2010Prop31
280
     0
102
RTVSPost2010PropOp31
 70
     1
102
RTVSPost2010Prop32
280
     0
102
RTVSPost2010PropOp32
 70
     1
102
RTVSPost2010Prop33
280
     0
102
RTVSPost2010PropOp33
 70
     1
102
RTVSPost2010Prop34
280
     0
102
RTVSPost2010PropOp34
 70
     1
102
RTVSPost2010Prop35
280
     0
102
RTVSPost2010PropOp35
 70
     1
102
RTVSPost2010Prop36
280
     0
102
RTVSPost2010PropOp36
 70
     1
102
RTVSPost2010Prop37
 90
       50
102
RTVSPost2010PropOp37
 70
     1
102
RTVSPost2010Prop38
140
0.0
102
RTVSPost2010PropOp38
 70
     1
102
RTVSPost2010Prop39
140
1.0
102
RTVSPost2010PropOp39
 70
     1
102
RTVSPost2010Prop40
 90
        0
102
RTVSPost2010PropOp40
 70
     1
102
RTVSPost2010Prop41ColorIndex
 90
       18
102
RTVSPost2010Prop41ColorRGB
 90
        0
102
RTVSPost2010PropOp41
 70
     1
102
RTVSPost2010Prop42
 90
       50
102
RTVSPost2010PropOp42
 70
     1
102
RTVSPost2010Prop43
 90
        3
102
RTVSPost2010PropOp43
 70
     1
102
RTVSPost2010Prop44ColorIndex
 90
        5
102
RTVSPost2010Prop44ColorRGB
 90
      255
102
RTVSPost2010PropOp44
 70
     1
102
RTVSPost2010Prop45
280
     0
102
RTVSPost2010PropOp45
 70
     1
102
RTVSPost2010Prop46
 90
       50
102
RTVSPost2010PropOp46
 70
     1
102
RTVSPost2010Prop47
 90
       50
102
RTVSPost2010PropOp47
 70
     1
102
RTVSPost2010Prop48
 90
       50
102
RTVSPost2010PropOp48
 70
     1
102
RTVSPost2010Prop49
280
     0
102
RTVSPost2010PropOp49
 70
     1
102
RTVSPost2010Prop50
 90
       50
102
RTVSPost2010PropOp50
 70
     1
102
RTVSPost2010Prop51ColorIndex
 90
      256
102
RTVSPost2010Prop51ColorRGB
 90
-16777216
102
RTVSPost2010PropOp51
 70
     0
102
RTVSPost2010Prop52
140
1.0
102
RTVSPost2010PropOp52
 70
     0
102
RTVSPost2010Prop53
 90
        2
102
RTVSPost2010PropOp53
 70
     1
102
RTVSPost2010Prop54
  1
strokes_ogs.tif
102
RTVSPost2010PropOp54
 70
     1
102
RTVSPost2010Prop55
280
     0
102
RTVSPost2010PropOp55
 70
     1
102
RTVSPost2010Prop56
140
1.0
102
RTVSPost2010PropOp56
 70
     1
102
RTVSPost2010Prop57
140
1.0
102
RTVSPost2010PropOp57
 70
     1
  0
XRECORD
  5
196
102
{ACAD_REACTORS
330
195
102
}
330
195
100
AcDbXrecord
280
     1
102
RTVSPost2010Prop28
280
     0
102
RTVSPost2010PropOp28
 70
     0
102
RTVSPost2010Prop29
280
     1
102
RTVSPost2010PropOp29
 70
     0
102
RTVSPost2010Prop30
280
     1
102
RTVSPost2010PropOp30
 70
     0
102
RTVSPost2010Prop31
280
     0
102
RTVSPost2010PropOp31
 70
     0
102
RTVSPost2010Prop32
280
     0
102
RTVSPost2010PropOp32
 70
     0
102
RTVSPost2010Prop33
280
     0
102
RTVSPost2010PropOp33
 70
     0
102
RTVSPost2010Prop34
280
     0
102
RTVSPost2010PropOp34
 70
     0
102
RTVSPost2010Prop35
280
     0
102
RTVSPost2010PropOp35
 70
     0
102
RTVSPost2010Prop36
280
     0
102
RTVSPost2010PropOp36
 70
     0
102
RTVSPost2010Prop37
 90
       50
102
RTVSPost2010PropOp37
 70
     0
102
RTVSPost2010Prop38
140
0.0
102
RTVSPost2010PropOp38
 70
     0
102
RTVSPost2010Prop39
140
1.0
102
RTVSPost2010PropOp39
 70
     0
102
RTVSPost2010Prop40
 90
        0
102
RTVSPost2010PropOp40
 70
     0
102
RTVSPost2010Prop41ColorIndex
 90
       18
102
RTVSPost2010Prop41ColorRGB
 90
        0
102
RTVSPost2010PropOp41
 70
     0
102
RTVSPost2010Prop42
 90
       50
102
RTVSPost2010PropOp42
 70
     0
102
RTVSPost2010Prop43
 90
        3
102
RTVSPost2010PropOp43
 70
     0
102
RTVSPost2010Prop44ColorIndex
 90
        5
102
RTVSPost2010Prop44ColorRGB
 90
      255
102
RTVSPost2010PropOp44
 70
     0
102
RTVSPost2010Prop45
280
     0
102
RTVSPost2010PropOp45
 70
     0
102
RTVSPost2010Prop46
 90
       50
102
RTVSPost2010PropOp46
 70
     0
102
RTVSPost2010Prop47
 90
       50
102
RTVSPost2010PropOp47
 70
     0
102
RTVSPost2010Prop48
 90
       50
102
RTVSPost2010PropOp48
 70
     0
102
RTVSPost2010Prop49
280
     0
102
RTVSPost2010PropOp49
 70
     0
102
RTVSPost2010Prop50
 90
       50
102
RTVSPost2010PropOp50
 70
     0
102
RTVSPost2010Prop51ColorIndex
 90
      256
102
RTVSPost2010Prop51ColorRGB
 90
-16777216
102
RTVSPost2010PropOp51
 70
     0
102
RTVSPost2010Prop52
140
1.0
102
RTVSPost2010PropOp52
 70
     0
102
RTVSPost2010Prop53
 90
        2
102
RTVSPost2010PropOp53
 70
     0
102
RTVSPost2010Prop54
  1
strokes_ogs.tif
102
RTVSPost2010PropOp54
 70
     0
102
RTVSPost2010Prop55
280
     0
102
RTVSPost2010PropOp55
 70
     0
102
RTVSPost2010Prop56
140
1.0
102
RTVSPost2010PropOp56
 70
     0
102
RTVSPost2010Prop57
140
1.0
102
RTVSPost2010PropOp57
 70
     0
  0
XRECORD
  5
186
102
{ACAD_REACTORS
330
185
102
}
330
185
100
AcDbXrecord
280
     1
102
RTVSPost2010Prop28
280
     0
102
RTVSPost2010PropOp28
 70
     1
102
RTVSPost2010Prop29
280
     1
102
RTVSPost2010PropOp29
 70
     1
102
RTVSPost2010Prop30
280
     1
102
RTVSPost2010PropOp30
 70
     1
102
RTVSPost2010Prop31
280
     0
102
RTVSPost2010PropOp31
 70
     1
102
RTVSPost2010Prop32
280
     0
102
RTVSPost2010PropOp32
 70
     1
102
RTVSPost2010Prop33
280
     0
102
RTVSPost2010PropOp33
 70
     1
102
RTVSPost2010Prop34
280
     0
102
RTVSPost2010PropOp34
 70
     1
102
RTVSPost2010Prop35
280
     0
102
RTVSPost2010PropOp35
 70
     1
102
RTVSPost2010Prop36
280
     0
102
RTVSPost2010PropOp36
 70
     1
102
RTVSPost2010Prop37
 90
       50
102
RTVSPost2010PropOp37
 70
     1
102
RTVSPost2010Prop38
140
0.0
102
RTVSPost2010PropOp38
 70
     1
102
RTVSPost2010Prop39
140
1.0
102
RTVSPost2010PropOp39
 70
     1
102
RTVSPost2010Prop40
 90
        0
102
RTVSPost2010PropOp40
 70
     1
102
RTVSPost2010Prop41ColorIndex
 90
       18
102
RTVSPost2010Prop41ColorRGB
 90
        0
102
RTVSPost2010PropOp41
 70
     1
102
RTVSPost2010Prop42
 90
       50
102
RTVSPost2010PropOp42
 70
     1
102
RTVSPost2010Prop43
 90
        3
102
RTVSPost2010PropOp43
 70
     1
102
RTVSPost2010Prop44ColorIndex
 90
        5
102
RTVSPost2010Prop44ColorRGB
 90
      255
102
RTVSPost2010PropOp44
 70
     1
102
RTVSPost2010Prop45
280
     0
102
RTVSPost2010PropOp45
 70
     1
102
RTVSPost2010Prop46
 90
       50
102
RTVSPost2010PropOp46
 70
     1
102
RTVSPost2010Prop47
 90
       50
102
RTVSPost2010PropOp47
 70
     1
102
RTVSPost2010Prop48
 90
       50
102
RTVSPost2010PropOp48
 70
     1
102
RTVSPost2010Prop49
280
     0
102
RTVSPost2010PropOp49
 70
     1
102
RTVSPost2010Prop50
 90
       50
102
RTVSPost2010PropOp50
 70
     1
102
RTVSPost2010Prop51ColorIndex
 90
      256
102
RTVSPost2010Prop51ColorRGB
 90
-16777216
102
RTVSPost2010PropOp51
 70
     0
102
RTVSPost2010Prop52
140
1.0
102
RTVSPost2010PropOp52
 70
     0
102
RTVSPost2010Prop53
 90
        2
102
RTVSPost2010PropOp53
 70
     1
102
RTVSPost2010Prop54
  1
strokes_ogs.tif
102
RTVSPost2010PropOp54
 70
     1
102
RTVSPost2010Prop55
280
     0
102
RTVSPost2010PropOp55
 70
     1
102
RTVSPost2010Prop56
140
1.0
102
RTVSPost2010PropOp56
 70
     1
102
RTVSPost2010Prop57
140
1.0
102
RTVSPost2010PropOp57
 70
     1
  0
XRECORD
  5
198
102
{ACAD_REACTORS
330
197
102
}
330
197
100
AcDbXrecord
280
     1
102
RTVSPost2010Prop28
280
     0
102
RTVSPost2010PropOp28
 70
     0
102
RTVSPost2010Prop29
280
     1
102
RTVSPost2010PropOp29
 70
     0
102
RTVSPost2010Prop30
280
     1
102
RTVSPost2010PropOp30
 70
     0
102
RTVSPost2010Prop31
280
     0
102
RTVSPost2010PropOp31
 70
     0
102
RTVSPost2010Prop32
280
     0
102
RTVSPost2010PropOp32
 70
     0
102
RTVSPost2010Prop33
280
     0
102
RTVSPost2010PropOp33
 70
     0
102
RTVSPost2010Prop34
280
     0
102
RTVSPost2010PropOp34
 70
     0
102
RTVSPost2010Prop35
280
     0
102
RTVSPost2010PropOp35
 70
     0
102
RTVSPost2010Prop36
280
     0
102
RTVSPost2010PropOp36
 70
     0
102
RTVSPost2010Prop37
 90
       50
102
RTVSPost2010PropOp37
 70
     0
102
RTVSPost2010Prop38
140
0.0
102
RTVSPost2010PropOp38
 70
     0
102
RTVSPost2010Prop39
140
1.0
102
RTVSPost2010PropOp39
 70
     0
102
RTVSPost2010Prop40
 90
        0
102
RTVSPost2010PropOp40
 70
     0
102
RTVSPost2010Prop41ColorIndex
 90
       18
102
RTVSPost2010Prop41ColorRGB
 90
        0
102
RTVSPost2010PropOp41
 70
     0
102
RTVSPost2010Prop42
 90
       50
102
RTVSPost2010PropOp42
 70
     0
102
RTVSPost2010Prop43
 90
        3
102
RTVSPost2010PropOp43
 70
     0
102
RTVSPost2010Prop44ColorIndex
 90
        5
102
RTVSPost2010Prop44ColorRGB
 90
      255
102
RTVSPost2010PropOp44
 70
     0
102
RTVSPost2010Prop45
280
     0
102
RTVSPost2010PropOp45
 70
     0
102
RTVSPost2010Prop46
 90
       50
102
RTVSPost2010PropOp46
 70
     0
102
RTVSPost2010Prop47
 90
       50
102
RTVSPost2010PropOp47
 70
     0
102
RTVSPost2010Prop48
 90
       50
102
RTVSPost2010PropOp48
 70
     0
102
RTVSPost2010Prop49
280
     0
102
RTVSPost2010PropOp49
 70
     0
102
RTVSPost2010Prop50
 90
       50
102
RTVSPost2010PropOp50
 70
     0
102
RTVSPost2010Prop51ColorIndex
 90
      256
102
RTVSPost2010Prop51ColorRGB
 90
-16777216
102
RTVSPost2010PropOp51
 70
     0
102
RTVSPost2010Prop52
140
1.0
102
RTVSPost2010PropOp52
 70
     0
102
RTVSPost2010Prop53
 90
        2
102
RTVSPost2010PropOp53
 70
     0
102
RTVSPost2010Prop54
  1
strokes_ogs.tif
102
RTVSPost2010PropOp54
 70
     0
102
RTVSPost2010Prop55
280
     0
102
RTVSPost2010PropOp55
 70
     0
102
RTVSPost2010Prop56
140
1.0
102
RTVSPost2010PropOp56
 70
     0
102
RTVSPost2010Prop57
140
1.0
102
RTVSPost2010PropOp57
 70
     0
  0
XRECORD
  5
17E
102
{ACAD_REACTORS
330
17D
102
}
330
17D
100
AcDbXrecord
280
     1
102
RTVSPost2010Prop28
280
     0
102
RTVSPost2010PropOp28
 70
     1
102
RTVSPost2010Prop29
280
     1
102
RTVSPost2010PropOp29
 70
     1
102
RTVSPost2010Prop30
280
     1
102
RTVSPost2010PropOp30
 70
     1
102
RTVSPost2010Prop31
280
     0
102
RTVSPost2010PropOp31
 70
     1
102
RTVSPost2010Prop32
280
     0
102
RTVSPost2010PropOp32
 70
     1
102
RTVSPost2010Prop33
280
     0
102
RTVSPost2010PropOp33
 70
     1
102
RTVSPost2010Prop34
280
     0
102
RTVSPost2010PropOp34
 70
     1
102
RTVSPost2010Prop35
280
     0
102
RTVSPost2010PropOp35
 70
     1
102
RTVSPost2010Prop36
280
     0
102
RTVSPost2010PropOp36
 70
     1
102
RTVSPost2010Prop37
 90
       50
102
RTVSPost2010PropOp37
 70
     1
102
RTVSPost2010Prop38
140
0.0
102
RTVSPost2010PropOp38
 70
     1
102
RTVSPost2010Prop39
140
1.0
102
RTVSPost2010PropOp39
 70
     1
102
RTVSPost2010Prop40
 90
        0
102
RTVSPost2010PropOp40
 70
     1
102
RTVSPost2010Prop41ColorIndex
 90
       18
102
RTVSPost2010Prop41ColorRGB
 90
        0
102
RTVSPost2010PropOp41
 70
     1
102
RTVSPost2010Prop42
 90
       50
102
RTVSPost2010PropOp42
 70
     1
102
RTVSPost2010Prop43
 90
        3
102
RTVSPost2010PropOp43
 70
     1
102
RTVSPost2010Prop44ColorIndex
 90
        5
102
RTVSPost2010Prop44ColorRGB
 90
      255
102
RTVSPost2010PropOp44
 70
     1
102
RTVSPost2010Prop45
280
     0
102
RTVSPost2010PropOp45
 70
     1
102
RTVSPost2010Prop46
 90
       50
102
RTVSPost2010PropOp46
 70
     1
102
RTVSPost2010Prop47
 90
       50
102
RTVSPost2010PropOp47
 70
     1
102
RTVSPost2010Prop48
 90
       50
102
RTVSPost2010PropOp48
 70
     1
102
RTVSPost2010Prop49
280
     0
102
RTVSPost2010PropOp49
 70
     1
102
RTVSPost2010Prop50
 90
       50
102
RTVSPost2010PropOp50
 70
     1
102
RTVSPost2010Prop51ColorIndex
 90
      256
102
RTVSPost2010Prop51ColorRGB
 90
-16777216
102
RTVSPost2010PropOp51
 70
     0
102
RTVSPost2010Prop52
140
1.0
102
RTVSPost2010PropOp52
 70
     0
102
RTVSPost2010Prop53
 90
        2
102
RTVSPost2010PropOp53
 70
     1
102
RTVSPost2010Prop54
  1
strokes_ogs.tif
102
RTVSPost2010PropOp54
 70
     1
102
RTVSPost2010Prop55
280
     0
102
RTVSPost2010PropOp55
 70
     1
102
RTVSPost2010Prop56
140
1.0
102
RTVSPost2010PropOp56
 70
     1
102
RTVSPost2010Prop57
140
1.0
102
RTVSPost2010PropOp57
 70
     1
  0
XRECORD
  5
194
102
{ACAD_REACTORS
330
193
102
}
330
193
100
AcDbXrecord
280
     1
102
RTVSPost2010Prop28
280
     0
102
RTVSPost2010PropOp28
 70
     1
102
RTVSPost2010Prop29
280
     1
102
RTVSPost2010PropOp29
 70
     1
102
RTVSPost2010Prop30
280
     1
102
RTVSPost2010PropOp30
 70
     1
102
RTVSPost2010Prop31
280
     0
102
RTVSPost2010PropOp31
 70
     1
102
RTVSPost2010Prop32
280
     0
102
RTVSPost2010PropOp32
 70
     1
102
RTVSPost2010Prop33
280
     0
102
RTVSPost2010PropOp33
 70
     1
102
RTVSPost2010Prop34
280
     0
102
RTVSPost2010PropOp34
 70
     1
102
RTVSPost2010Prop35
280
     0
102
RTVSPost2010PropOp35
 70
     1
102
RTVSPost2010Prop36
280
     0
102
RTVSPost2010PropOp36
 70
     1
102
RTVSPost2010Prop37
 90
       50
102
RTVSPost2010PropOp37
 70
     1
102
RTVSPost2010Prop38
140
0.0
102
RTVSPost2010PropOp38
 70
     1
102
RTVSPost2010Prop39
140
1.0
102
RTVSPost2010PropOp39
 70
     1
102
RTVSPost2010Prop40
 90
        0
102
RTVSPost2010PropOp40
 70
     1
102
RTVSPost2010Prop41ColorIndex
 90
       18
102
RTVSPost2010Prop41ColorRGB
 90
        0
102
RTVSPost2010PropOp41
 70
     1
102
RTVSPost2010Prop42
 90
       50
102
RTVSPost2010PropOp42
 70
     1
102
RTVSPost2010Prop43
 90
        3
102
RTVSPost2010PropOp43
 70
     1
102
RTVSPost2010Prop44ColorIndex
 90
        5
102
RTVSPost2010Prop44ColorRGB
 90
      255
102
RTVSPost2010PropOp44
 70
     1
102
RTVSPost2010Prop45
280
     0
102
RTVSPost2010PropOp45
 70
     1
102
RTVSPost2010Prop46
 90
       50
102
RTVSPost2010PropOp46
 70
     1
102
RTVSPost2010Prop47
 90
       50
102
RTVSPost2010PropOp47
 70
     1
102
RTVSPost2010Prop48
 90
       50
102
RTVSPost2010PropOp48
 70
     1
102
RTVSPost2010Prop49
280
     0
102
RTVSPost2010PropOp49
 70
     1
102
RTVSPost2010Prop50
 90
       50
102
RTVSPost2010PropOp50
 70
     1
102
RTVSPost2010Prop51ColorIndex
 90
      256
102
RTVSPost2010Prop51ColorRGB
 90
-16777216
102
RTVSPost2010PropOp51
 70
     0
102
RTVSPost2010Prop52
140
1.0
102
RTVSPost2010PropOp52
 70
     0
102
RTVSPost2010Prop53
 90
        2
102
RTVSPost2010PropOp53
 70
     1
102
RTVSPost2010Prop54
  1
strokes_ogs.tif
102
RTVSPost2010PropOp54
 70
     1
102
RTVSPost2010Prop55
280
     0
102
RTVSPost2010PropOp55
 70
     1
102
RTVSPost2010Prop56
140
1.0
102
RTVSPost2010PropOp56
 70
     1
102
RTVSPost2010Prop57
140
1.0
102
RTVSPost2010PropOp57
 70
     1
  0
XRECORD
  5
192
102
{ACAD_REACTORS
330
191
102
}
330
191
100
AcDbXrecord
280
     1
102
RTVSPost2010Prop28
280
     0
102
RTVSPost2010PropOp28
 70
     1
102
RTVSPost2010Prop29
280
     1
102
RTVSPost2010PropOp29
 70
     1
102
RTVSPost2010Prop30
280
     1
102
RTVSPost2010PropOp30
 70
     1
102
RTVSPost2010Prop31
280
     0
102
RTVSPost2010PropOp31
 70
     1
102
RTVSPost2010Prop32
280
     0
102
RTVSPost2010PropOp32
 70
     1
102
RTVSPost2010Prop33
280
     0
102
RTVSPost2010PropOp33
 70
     1
102
RTVSPost2010Prop34
280
     0
102
RTVSPost2010PropOp34
 70
     1
102
RTVSPost2010Prop35
280
     0
102
RTVSPost2010PropOp35
 70
     1
102
RTVSPost2010Prop36
280
     0
102
RTVSPost2010PropOp36
 70
     1
102
RTVSPost2010Prop37
 90
       50
102
RTVSPost2010PropOp37
 70
     1
102
RTVSPost2010Prop38
140
0.0
102
RTVSPost2010PropOp38
 70
     1
102
RTVSPost2010Prop39
140
1.0
102
RTVSPost2010PropOp39
 70
     1
102
RTVSPost2010Prop40
 90
        0
102
RTVSPost2010PropOp40
 70
     1
102
RTVSPost2010Prop41ColorIndex
 90
       18
102
RTVSPost2010Prop41ColorRGB
 90
        0
102
RTVSPost2010PropOp41
 70
     1
102
RTVSPost2010Prop42
 90
       50
102
RTVSPost2010PropOp42
 70
     1
102
RTVSPost2010Prop43
 90
        3
102
RTVSPost2010PropOp43
 70
     1
102
RTVSPost2010Prop44ColorIndex
 90
        5
102
RTVSPost2010Prop44ColorRGB
 90
      255
102
RTVSPost2010PropOp44
 70
     1
102
RTVSPost2010Prop45
280
     0
102
RTVSPost2010PropOp45
 70
     1
102
RTVSPost2010Prop46
 90
       50
102
RTVSPost2010PropOp46
 70
     1
102
RTVSPost2010Prop47
 90
       50
102
RTVSPost2010PropOp47
 70
     1
102
RTVSPost2010Prop48
 90
       50
102
RTVSPost2010PropOp48
 70
     1
102
RTVSPost2010Prop49
280
     0
102
RTVSPost2010PropOp49
 70
     1
102
RTVSPost2010Prop50
 90
       50
102
RTVSPost2010PropOp50
 70
     1
102
RTVSPost2010Prop51ColorIndex
 90
      256
102
RTVSPost2010Prop51ColorRGB
 90
-16777216
102
RTVSPost2010PropOp51
 70
     0
102
RTVSPost2010Prop52
140
1.0
102
RTVSPost2010PropOp52
 70
     0
102
RTVSPost2010Prop53
 90
        2
102
RTVSPost2010PropOp53
 70
     1
102
RTVSPost2010Prop54
  1
strokes_ogs.tif
102
RTVSPost2010PropOp54
 70
     1
102
RTVSPost2010Prop55
280
     0
102
RTVSPost2010PropOp55
 70
     1
102
RTVSPost2010Prop56
140
1.0
102
RTVSPost2010PropOp56
 70
     1
102
RTVSPost2010Prop57
140
1.0
102
RTVSPost2010PropOp57
 70
     1
  0
XRECORD
  5
18C
102
{ACAD_REACTORS
330
18B
102
}
330
18B
100
AcDbXrecord
280
     1
102
RTVSPost2010Prop28
280
     0
102
RTVSPost2010PropOp28
 70
     1
102
RTVSPost2010Prop29
280
     1
102
RTVSPost2010PropOp29
 70
     1
102
RTVSPost2010Prop30
280
     1
102
RTVSPost2010PropOp30
 70
     1
102
RTVSPost2010Prop31
280
     0
102
RTVSPost2010PropOp31
 70
     1
102
RTVSPost2010Prop32
280
     0
102
RTVSPost2010PropOp32
 70
     1
102
RTVSPost2010Prop33
280
     0
102
RTVSPost2010PropOp33
 70
     1
102
RTVSPost2010Prop34
280
     0
102
RTVSPost2010PropOp34
 70
     1
102
RTVSPost2010Prop35
280
     0
102
RTVSPost2010PropOp35
 70
     1
102
RTVSPost2010Prop36
280
     0
102
RTVSPost2010PropOp36
 70
     1
102
RTVSPost2010Prop37
 90
       50
102
RTVSPost2010PropOp37
 70
     1
102
RTVSPost2010Prop38
140
0.0
102
RTVSPost2010PropOp38
 70
     1
102
RTVSPost2010Prop39
140
1.0
102
RTVSPost2010PropOp39
 70
     1
102
RTVSPost2010Prop40
 90
        0
102
RTVSPost2010PropOp40
 70
     1
102
RTVSPost2010Prop41ColorIndex
 90
       18
102
RTVSPost2010Prop41ColorRGB
 90
        0
102
RTVSPost2010PropOp41
 70
     1
102
RTVSPost2010Prop42
 90
       50
102
RTVSPost2010PropOp42
 70
     1
102
RTVSPost2010Prop43
 90
        3
102
RTVSPost2010PropOp43
 70
     1
102
RTVSPost2010Prop44ColorIndex
 90
        5
102
RTVSPost2010Prop44ColorRGB
 90
      255
102
RTVSPost2010PropOp44
 70
     1
102
RTVSPost2010Prop45
280
     0
102
RTVSPost2010PropOp45
 70
     1
102
RTVSPost2010Prop46
 90
       50
102
RTVSPost2010PropOp46
 70
     1
102
RTVSPost2010Prop47
 90
       50
102
RTVSPost2010PropOp47
 70
     1
102
RTVSPost2010Prop48
 90
       50
102
RTVSPost2010PropOp48
 70
     1
102
RTVSPost2010Prop49
280
     0
102
RTVSPost2010PropOp49
 70
     1
102
RTVSPost2010Prop50
 90
       50
102
RTVSPost2010PropOp50
 70
     1
102
RTVSPost2010Prop51ColorIndex
 90
      256
102
RTVSPost2010Prop51ColorRGB
 90
-16777216
102
RTVSPost2010PropOp51
 70
     0
102
RTVSPost2010Prop52
140
1.0
102
RTVSPost2010PropOp52
 70
     0
102
RTVSPost2010Prop53
 90
        2
102
RTVSPost2010PropOp53
 70
     1
102
RTVSPost2010Prop54
  1
strokes_ogs.tif
102
RTVSPost2010PropOp54
 70
     1
102
RTVSPost2010Prop55
280
     0
102
RTVSPost2010PropOp55
 70
     1
102
RTVSPost2010Prop56
140
1.0
102
RTVSPost2010PropOp56
 70
     1
102
RTVSPost2010Prop57
140
1.0
102
RTVSPost2010PropOp57
 70
     1
  0
XRECORD
  5
18E
102
{ACAD_REACTORS
330
18D
102
}
330
18D
100
AcDbXrecord
280
     1
102
RTVSPost2010Prop28
280
     0
102
RTVSPost2010PropOp28
 70
     1
102
RTVSPost2010Prop29
280
     1
102
RTVSPost2010PropOp29
 70
     1
102
RTVSPost2010Prop30
280
     1
102
RTVSPost2010PropOp30
 70
     1
102
RTVSPost2010Prop31
280
     0
102
RTVSPost2010PropOp31
 70
     1
102
RTVSPost2010Prop32
280
     0
102
RTVSPost2010PropOp32
 70
     1
102
RTVSPost2010Prop33
280
     0
102
RTVSPost2010PropOp33
 70
     1
102
RTVSPost2010Prop34
280
     0
102
RTVSPost2010PropOp34
 70
     1
102
RTVSPost2010Prop35
280
     0
102
RTVSPost2010PropOp35
 70
     1
102
RTVSPost2010Prop36
280
     0
102
RTVSPost2010PropOp36
 70
     1
102
RTVSPost2010Prop37
 90
       50
102
RTVSPost2010PropOp37
 70
     1
102
RTVSPost2010Prop38
140
0.0
102
RTVSPost2010PropOp38
 70
     1
102
RTVSPost2010Prop39
140
1.0
102
RTVSPost2010PropOp39
 70
     1
102
RTVSPost2010Prop40
 90
        0
102
RTVSPost2010PropOp40
 70
     1
102
RTVSPost2010Prop41ColorIndex
 90
       18
102
RTVSPost2010Prop41ColorRGB
 90
        0
102
RTVSPost2010PropOp41
 70
     1
102
RTVSPost2010Prop42
 90
       50
102
RTVSPost2010PropOp42
 70
     1
102
RTVSPost2010Prop43
 90
        3
102
RTVSPost2010PropOp43
 70
     1
102
RTVSPost2010Prop44ColorIndex
 90
        5
102
RTVSPost2010Prop44ColorRGB
 90
      255
102
RTVSPost2010PropOp44
 70
     1
102
RTVSPost2010Prop45
280
     0
102
RTVSPost2010PropOp45
 70
     1
102
RTVSPost2010Prop46
 90
       50
102
RTVSPost2010PropOp46
 70
     1
102
RTVSPost2010Prop47
 90
       50
102
RTVSPost2010PropOp47
 70
     1
102
RTVSPost2010Prop48
 90
       50
102
RTVSPost2010PropOp48
 70
     1
102
RTVSPost2010Prop49
280
     0
102
RTVSPost2010PropOp49
 70
     1
102
RTVSPost2010Prop50
 90
       50
102
RTVSPost2010PropOp50
 70
     1
102
RTVSPost2010Prop51ColorIndex
 90
      256
102
RTVSPost2010Prop51ColorRGB
 90
-16777216
102
RTVSPost2010PropOp51
 70
     0
102
RTVSPost2010Prop52
140
1.0
102
RTVSPost2010PropOp52
 70
     0
102
RTVSPost2010Prop53
 90
        2
102
RTVSPost2010PropOp53
 70
     1
102
RTVSPost2010Prop54
  1
strokes_ogs.tif
102
RTVSPost2010PropOp54
 70
     1
102
RTVSPost2010Prop55
280
     0
102
RTVSPost2010PropOp55
 70
     1
102
RTVSPost2010Prop56
140
1.0
102
RTVSPost2010PropOp56
 70
     1
102
RTVSPost2010Prop57
140
1.0
102
RTVSPost2010PropOp57
 70
     1
  0
XRECORD
  5
184
102
{ACAD_REACTORS
330
183
102
}
330
183
100
AcDbXrecord
280
     1
102
RTVSPost2010Prop28
280
     0
102
RTVSPost2010PropOp28
 70
     1
102
RTVSPost2010Prop29
280
     1
102
RTVSPost2010PropOp29
 70
     1
102
RTVSPost2010Prop30
280
     1
102
RTVSPost2010PropOp30
 70
     1
102
RTVSPost2010Prop31
280
     0
102
RTVSPost2010PropOp31
 70
     1
102
RTVSPost2010Prop32
280
     0
102
RTVSPost2010PropOp32
 70
     1
102
RTVSPost2010Prop33
280
     0
102
RTVSPost2010PropOp33
 70
     1
102
RTVSPost2010Prop34
280
     0
102
RTVSPost2010PropOp34
 70
     1
102
RTVSPost2010Prop35
280
     0
102
RTVSPost2010PropOp35
 70
     1
102
RTVSPost2010Prop36
280
     0
102
RTVSPost2010PropOp36
 70
     1
102
RTVSPost2010Prop37
 90
       50
102
RTVSPost2010PropOp37
 70
     1
102
RTVSPost2010Prop38
140
0.0
102
RTVSPost2010PropOp38
 70
     1
102
RTVSPost2010Prop39
140
1.0
102
RTVSPost2010PropOp39
 70
     1
102
RTVSPost2010Prop40
 90
        0
102
RTVSPost2010PropOp40
 70
     1
102
RTVSPost2010Prop41ColorIndex
 90
       18
102
RTVSPost2010Prop41ColorRGB
 90
        0
102
RTVSPost2010PropOp41
 70
     1
102
RTVSPost2010Prop42
 90
       50
102
RTVSPost2010PropOp42
 70
     1
102
RTVSPost2010Prop43
 90
        3
102
RTVSPost2010PropOp43
 70
     1
102
RTVSPost2010Prop44ColorIndex
 90
        5
102
RTVSPost2010Prop44ColorRGB
 90
      255
102
RTVSPost2010PropOp44
 70
     1
102
RTVSPost2010Prop45
280
     0
102
RTVSPost2010PropOp45
 70
     1
102
RTVSPost2010Prop46
 90
       50
102
RTVSPost2010PropOp46
 70
     1
102
RTVSPost2010Prop47
 90
       50
102
RTVSPost2010PropOp47
 70
     1
102
RTVSPost2010Prop48
 90
       50
102
RTVSPost2010PropOp48
 70
     1
102
RTVSPost2010Prop49
280
     0
102
RTVSPost2010PropOp49
 70
     1
102
RTVSPost2010Prop50
 90
       50
102
RTVSPost2010PropOp50
 70
     1
102
RTVSPost2010Prop51ColorIndex
 90
      256
102
RTVSPost2010Prop51ColorRGB
 90
-16777216
102
RTVSPost2010PropOp51
 70
     0
102
RTVSPost2010Prop52
140
1.0
102
RTVSPost2010PropOp52
 70
     0
102
RTVSPost2010Prop53
 90
        2
102
RTVSPost2010PropOp53
 70
     1
102
RTVSPost2010Prop54
  1
strokes_ogs.tif
102
RTVSPost2010PropOp54
 70
     1
102
RTVSPost2010Prop55
280
     0
102
RTVSPost2010PropOp55
 70
     1
102
RTVSPost2010Prop56
140
1.0
102
RTVSPost2010PropOp56
 70
     1
102
RTVSPost2010Prop57
140
1.0
102
RTVSPost2010PropOp57
 70
     1
  0
XRECORD
  5
178
102
{ACAD_REACTORS
330
177
102
}
330
177
100
AcDbXrecord
280
     1
102
RTVSPost2010Prop28
280
     0
102
RTVSPost2010PropOp28
 70
     1
102
RTVSPost2010Prop29
280
     1
102
RTVSPost2010PropOp29
 70
     1
102
RTVSPost2010Prop30
280
     1
102
RTVSPost2010PropOp30
 70
     1
102
RTVSPost2010Prop31
280
     0
102
RTVSPost2010PropOp31
 70
     1
102
RTVSPost2010Prop32
280
     0
102
RTVSPost2010PropOp32
 70
     1
102
RTVSPost2010Prop33
280
     0
102
RTVSPost2010PropOp33
 70
     1
102
RTVSPost2010Prop34
280
     0
102
RTVSPost2010PropOp34
 70
     1
102
RTVSPost2010Prop35
280
     0
102
RTVSPost2010PropOp35
 70
     1
102
RTVSPost2010Prop36
280
     0
102
RTVSPost2010PropOp36
 70
     1
102
RTVSPost2010Prop37
 90
       50
102
RTVSPost2010PropOp37
 70
     1
102
RTVSPost2010Prop38
140
0.0
102
RTVSPost2010PropOp38
 70
     1
102
RTVSPost2010Prop39
140
1.0
102
RTVSPost2010PropOp39
 70
     1
102
RTVSPost2010Prop40
 90
        0
102
RTVSPost2010PropOp40
 70
     1
102
RTVSPost2010Prop41ColorIndex
 90
       18
102
RTVSPost2010Prop41ColorRGB
 90
        0
102
RTVSPost2010PropOp41
 70
     1
102
RTVSPost2010Prop42
 90
       50
102
RTVSPost2010PropOp42
 70
     1
102
RTVSPost2010Prop43
 90
        3
102
RTVSPost2010PropOp43
 70
     1
102
RTVSPost2010Prop44ColorIndex
 90
        5
102
RTVSPost2010Prop44ColorRGB
 90
      255
102
RTVSPost2010PropOp44
 70
     1
102
RTVSPost2010Prop45
280
     0
102
RTVSPost2010PropOp45
 70
     1
102
RTVSPost2010Prop46
 90
       50
102
RTVSPost2010PropOp46
 70
     1
102
RTVSPost2010Prop47
 90
       50
102
RTVSPost2010PropOp47
 70
     1
102
RTVSPost2010Prop48
 90
       50
102
RTVSPost2010PropOp48
 70
     1
102
RTVSPost2010Prop49
280
     0
102
RTVSPost2010PropOp49
 70
     1
102
RTVSPost2010Prop50
 90
       50
102
RTVSPost2010PropOp50
 70
     1
102
RTVSPost2010Prop51ColorIndex
 90
      256
102
RTVSPost2010Prop51ColorRGB
 90
-16777216
102
RTVSPost2010PropOp51
 70
     0
102
RTVSPost2010Prop52
140
1.0
102
RTVSPost2010PropOp52
 70
     0
102
RTVSPost2010Prop53
 90
        2
102
RTVSPost2010PropOp53
 70
     1
102
RTVSPost2010Prop54
  1
strokes_ogs.tif
102
RTVSPost2010PropOp54
 70
     1
102
RTVSPost2010Prop55
280
     0
102
RTVSPost2010PropOp55
 70
     1
102
RTVSPost2010Prop56
140
1.0
102
RTVSPost2010PropOp56
 70
     1
102
RTVSPost2010Prop57
140
1.0
102
RTVSPost2010PropOp57
 70
     1
  0
XRECORD
  5
190
102
{ACAD_REACTORS
330
18F
102
}
330
18F
100
AcDbXrecord
280
     1
102
RTVSPost2010Prop28
280
     0
102
RTVSPost2010PropOp28
 70
     1
102
RTVSPost2010Prop29
280
     1
102
RTVSPost2010PropOp29
 70
     1
102
RTVSPost2010Prop30
280
     1
102
RTVSPost2010PropOp30
 70
     1
102
RTVSPost2010Prop31
280
     0
102
RTVSPost2010PropOp31
 70
     1
102
RTVSPost2010Prop32
280
     0
102
RTVSPost2010PropOp32
 70
     1
102
RTVSPost2010Prop33
280
     0
102
RTVSPost2010PropOp33
 70
     1
102
RTVSPost2010Prop34
280
     0
102
RTVSPost2010PropOp34
 70
     1
102
RTVSPost2010Prop35
280
     0
102
RTVSPost2010PropOp35
 70
     1
102
RTVSPost2010Prop36
280
     0
102
RTVSPost2010PropOp36
 70
     1
102
RTVSPost2010Prop37
 90
       50
102
RTVSPost2010PropOp37
 70
     1
102
RTVSPost2010Prop38
140
0.0
102
RTVSPost2010PropOp38
 70
     1
102
RTVSPost2010Prop39
140
1.0
102
RTVSPost2010PropOp39
 70
     1
102
RTVSPost2010Prop40
 90
        0
102
RTVSPost2010PropOp40
 70
     1
102
RTVSPost2010Prop41ColorIndex
 90
       18
102
RTVSPost2010Prop41ColorRGB
 90
        0
102
RTVSPost2010PropOp41
 70
     1
102
RTVSPost2010Prop42
 90
       50
102
RTVSPost2010PropOp42
 70
     1
102
RTVSPost2010Prop43
 90
        3
102
RTVSPost2010PropOp43
 70
     1
102
RTVSPost2010Prop44ColorIndex
 90
        5
102
RTVSPost2010Prop44ColorRGB
 90
      255
102
RTVSPost2010PropOp44
 70
     1
102
RTVSPost2010Prop45
280
     0
102
RTVSPost2010PropOp45
 70
     1
102
RTVSPost2010Prop46
 90
       50
102
RTVSPost2010PropOp46
 70
     1
102
RTVSPost2010Prop47
 90
       50
102
RTVSPost2010PropOp47
 70
     1
102
RTVSPost2010Prop48
 90
       50
102
RTVSPost2010PropOp48
 70
     1
102
RTVSPost2010Prop49
280
     0
102
RTVSPost2010PropOp49
 70
     1
102
RTVSPost2010Prop50
 90
       50
102
RTVSPost2010PropOp50
 70
     1
102
RTVSPost2010Prop51ColorIndex
 90
      256
102
RTVSPost2010Prop51ColorRGB
 90
-16777216
102
RTVSPost2010PropOp51
 70
     0
102
RTVSPost2010Prop52
140
1.0
102
RTVSPost2010PropOp52
 70
     0
102
RTVSPost2010Prop53
 90
        2
102
RTVSPost2010PropOp53
 70
     1
102
RTVSPost2010Prop54
  1
strokes_ogs.tif
102
RTVSPost2010PropOp54
 70
     1
102
RTVSPost2010Prop55
280
     0
102
RTVSPost2010PropOp55
 70
     1
102
RTVSPost2010Prop56
140
1.0
102
RTVSPost2010PropOp56
 70
     1
102
RTVSPost2010Prop57
140
1.0
102
RTVSPost2010PropOp57
 70
     1
  0
ENDSEC
  0
EOF
