  0
SECTION
  2
HEADER
  9
$ACADVER
  1
AC1024
  9
$ACADMAINTVER
 70
   205
  9
$DWGCODEPAGE
  3
ANSI_1251
  9
$INSBASE
 10
0.0
 20
0.0
 30
0.0
  9
$EXTMIN
 10
1.000000000000000E+20
 20
1.000000000000000E+20
 30
1.000000000000000E+20
  9
$EXTMAX
 10
-1.000000000000000E+20
 20
-1.000000000000000E+20
 30
-1.000000000000000E+20
  9
$LIMMIN
 10
0.0
 20
0.0
  9
$LIMMAX
 10
12.0
 20
9.0
  9
$ORTHOMODE
 70
     0
  9
$REGENMODE
 70
     1
  9
$FILLMODE
 70
     1
  9
$QTEXTMODE
 70
     0
  9
$MIRRTEXT
 70
     1
  9
$LTSCALE
 40
1.0
  9
$ATTMODE
 70
     1
  9
$TEXTSIZE
 40
0.2
  9
$TRACEWID
 40
0.05
  9
$TEXTSTYLE
  7
Standard
  9
$CLAYER
  8
OracDecor_panel_moldings
  9
$CELTYPE
  6
ByLayer
  9
$CECOLOR
 62
   256
  9
$CELTSCALE
 40
1.0
  9
$DISPSILH
 70
     0
  9
$DIMSCALE
 40
1.0
  9
$DIMASZ
 40
0.18
  9
$DIMEXO
 40
0.0625
  9
$DIMDLI
 40
0.38
  9
$DIMRND
 40
0.0
  9
$DIMDLE
 40
0.0
  9
$DIMEXE
 40
0.18
  9
$DIMTP
 40
0.0
  9
$DIMTM
 40
0.0
  9
$DIMTXT
 40
0.18
  9
$DIMCEN
 40
0.09
  9
$DIMTSZ
 40
0.0
  9
$DIMTOL
 70
     0
  9
$DIMLIM
 70
     0
  9
$DIMTIH
 70
     1
  9
$DIMTOH
 70
     1
  9
$DIMSE1
 70
     0
  9
$DIMSE2
 70
     0
  9
$DIMTAD
 70
     0
  9
$DIMZIN
 70
     0
  9
$DIMBLK
  1

  9
$DIMASO
 70
     1
  9
$DIMSHO
 70
     1
  9
$DIMPOST
  1

  9
$DIMAPOST
  1

  9
$DIMALT
 70
     0
  9
$DIMALTD
 70
     2
  9
$DIMALTF
 40
25.4
  9
$DIMLFAC
 40
1.0
  9
$DIMTOFL
 70
     0
  9
$DIMTVP
 40
0.0
  9
$DIMTIX
 70
     0
  9
$DIMSOXD
 70
     0
  9
$DIMSAH
 70
     0
  9
$DIMBLK1
  1

  9
$DIMBLK2
  1

  9
$DIMSTYLE
  2
Standard
  9
$DIMCLRD
 70
     0
  9
$DIMCLRE
 70
     0
  9
$DIMCLRT
 70
     0
  9
$DIMTFAC
 40
1.0
  9
$DIMGAP
 40
0.09
  9
$DIMJUST
 70
     0
  9
$DIMSD1
 70
     0
  9
$DIMSD2
 70
     0
  9
$DIMTOLJ
 70
     1
  9
$DIMTZIN
 70
     0
  9
$DIMALTZ
 70
     0
  9
$DIMALTTZ
 70
     0
  9
$DIMUPT
 70
     0
  9
$DIMDEC
 70
     4
  9
$DIMTDEC
 70
     4
  9
$DIMALTU
 70
     2
  9
$DIMALTTD
 70
     2
  9
$DIMTXSTY
  7
Standard
  9
$DIMAUNIT
 70
     0
  9
$DIMADEC
 70
     0
  9
$DIMALTRND
 40
0.0
  9
$DIMAZIN
 70
     0
  9
$DIMDSEP
 70
    46
  9
$DIMATFIT
 70
     3
  9
$DIMFRAC
 70
     0
  9
$DIMLDRBLK
  1

  9
$DIMLUNIT
 70
     2
  9
$DIMLWD
 70
    -2
  9
$DIMLWE
 70
    -2
  9
$DIMTMOVE
 70
     0
  9
$DIMFXL
 40
1.0
  9
$DIMFXLON
 70
     0
  9
$DIMJOGANG
 40
0.7853981633974483
  9
$DIMTFILL
 70
     0
  9
$DIMTFILLCLR
 70
     0
  9
$DIMARCSYM
 70
     0
  9
$DIMLTYPE
  6

  9
$DIMLTEX1
  6

  9
$DIMLTEX2
  6

  9
$DIMTXTDIRECTION
 70
     0
  9
$LUNITS
 70
     2
  9
$LUPREC
 70
     4
  9
$SKETCHINC
 40
0.1
  9
$FILLETRAD
 40
0.5
  9
$AUNITS
 70
     0
  9
$AUPREC
 70
     0
  9
$MENU
  1
.
  9
$ELEVATION
 40
0.0
  9
$PELEVATION
 40
0.0
  9
$THICKNESS
 40
0.0
  9
$LIMCHECK
 70
     0
  9
$CHAMFERA
 40
0.5
  9
$CHAMFERB
 40
0.5
  9
$CHAMFERC
 40
1.0
  9
$CHAMFERD
 40
0.0
  9
$SKPOLY
 70
     0
  9
$TDCREATE
 40
2451380.930432396
  9
$TDUCREATE
 40
2451380.805432396
  9
$TDUPDATE
 40
2451380.966180555
  9
$TDUUPDATE
 40
2451380.841180556
  9
$TDINDWG
 40
0.0075613657
  9
$TDUSRTIMER
 40
0.0075523264
  9
$USRTIMER
 70
     1
  9
$ANGBASE
 50
0.0
  9
$ANGDIR
 70
     0
  9
$PDMODE
 70
     0
  9
$PDSIZE
 40
0.0
  9
$PLINEWID
 40
0.0
  9
$SPLFRAME
 70
     0
  9
$SPLINETYPE
 70
     6
  9
$SPLINESEGS
 70
     8
  9
$HANDSEED
  5
1BD
  9
$SURFTAB1
 70
     6
  9
$SURFTAB2
 70
     6
  9
$SURFTYPE
 70
     6
  9
$SURFU
 70
     6
  9
$SURFV
 70
     6
  9
$UCSBASE
  2

  9
$UCSNAME
  2

  9
$UCSORG
 10
0.0
 20
0.0
 30
0.0
  9
$UCSXDIR
 10
1.0
 20
0.0
 30
0.0
  9
$UCSYDIR
 10
0.0
 20
1.0
 30
0.0
  9
$UCSORTHOREF
  2

  9
$UCSORTHOVIEW
 70
     0
  9
$UCSORGTOP
 10
0.0
 20
0.0
 30
0.0
  9
$UCSORGBOTTOM
 10
0.0
 20
0.0
 30
0.0
  9
$UCSORGLEFT
 10
0.0
 20
0.0
 30
0.0
  9
$UCSORGRIGHT
 10
0.0
 20
0.0
 30
0.0
  9
$UCSORGFRONT
 10
0.0
 20
0.0
 30
0.0
  9
$UCSORGBACK
 10
0.0
 20
0.0
 30
0.0
  9
$PUCSBASE
  2

  9
$PUCSNAME
  2

  9
$PUCSORG
 10
0.0
 20
0.0
 30
0.0
  9
$PUCSXDIR
 10
1.0
 20
0.0
 30
0.0
  9
$PUCSYDIR
 10
0.0
 20
1.0
 30
0.0
  9
$PUCSORTHOREF
  2

  9
$PUCSORTHOVIEW
 70
     0
  9
$PUCSORGTOP
 10
0.0
 20
0.0
 30
0.0
  9
$PUCSORGBOTTOM
 10
0.0
 20
0.0
 30
0.0
  9
$PUCSORGLEFT
 10
0.0
 20
0.0
 30
0.0
  9
$PUCSORGRIGHT
 10
0.0
 20
0.0
 30
0.0
  9
$PUCSORGFRONT
 10
0.0
 20
0.0
 30
0.0
  9
$PUCSORGBACK
 10
0.0
 20
0.0
 30
0.0
  9
$USERI1
 70
     0
  9
$USERI2
 70
     0
  9
$USERI3
 70
     0
  9
$USERI4
 70
     0
  9
$USERI5
 70
     0
  9
$USERR1
 40
0.0
  9
$USERR2
 40
0.0
  9
$USERR3
 40
0.0
  9
$USERR4
 40
0.0
  9
$USERR5
 40
0.0
  9
$WORLDVIEW
 70
     1
  9
$SHADEDGE
 70
     3
  9
$SHADEDIF
 70
    70
  9
$TILEMODE
 70
     1
  9
$MAXACTVP
 70
    64
  9
$PINSBASE
 10
0.0
 20
0.0
 30
0.0
  9
$PLIMCHECK
 70
     0
  9
$PEXTMIN
 10
1.000000000000000E+20
 20
1.000000000000000E+20
 30
1.000000000000000E+20
  9
$PEXTMAX
 10
-1.000000000000000E+20
 20
-1.000000000000000E+20
 30
-1.000000000000000E+20
  9
$PLIMMIN
 10
0.0
 20
0.0
  9
$PLIMMAX
 10
12.0
 20
9.0
  9
$UNITMODE
 70
     0
  9
$VISRETAIN
 70
     1
  9
$PLINEGEN
 70
     0
  9
$PSLTSCALE
 70
     1
  9
$TREEDEPTH
 70
  3020
  9
$CMLSTYLE
  2
Standard
  9
$CMLJUST
 70
     0
  9
$CMLSCALE
 40
1.0
  9
$PROXYGRAPHICS
 70
     1
  9
$MEASUREMENT
 70
     1
  9
$CELWEIGHT
370
    -1
  9
$ENDCAPS
280
     0
  9
$JOINSTYLE
280
     0
  9
$LWDISPLAY
290
     0
  9
$INSUNITS
 70
     4
  9
$HYPERLINKBASE
  1

  9
$STYLESHEET
  1

  9
$XEDIT
290
     1
  9
$CEPSNTYPE
380
     0
  9
$PSTYLEMODE
290
     1
  9
$FINGERPRINTGUID
  2
{12F50282-3ED8-11D3-A8B7-0060B0F84BC6}
  9
$VERSIONGUID
  2
{12F50293-3ED8-11D3-A8B7-0060B0F84BC6}
  9
$EXTNAMES
290
     1
  9
$PSVPSCALE
 40
0.0
  9
$OLESTARTUP
290
     0
  9
$SORTENTS
280
   127
  9
$INDEXCTL
280
     0
  9
$HIDETEXT
280
     0
  9
$XCLIPFRAME
280
     2
  9
$HALOGAP
280
     0
  9
$OBSCOLOR
 70
   257
  9
$OBSLTYPE
280
     0
  9
$INTERSECTIONDISPLAY
280
     0
  9
$INTERSECTIONCOLOR
 70
   257
  9
$DIMASSOC
280
     1
  9
$PROJECTNAME
  1

  9
$CAMERADISPLAY
290
     0
  9
$LENSLENGTH
 40
50.0
  9
$CAMERAHEIGHT
 40
0.0
  9
$STEPSPERSEC
 40
2.0
  9
$STEPSIZE
 40
6.0
  9
$3DDWFPREC
 40
2.0
  9
$PSOLWIDTH
 40
0.25
  9
$PSOLHEIGHT
 40
4.0
  9
$LOFTANG1
 40
1.570796326794896
  9
$LOFTANG2
 40
1.570796326794896
  9
$LOFTMAG1
 40
0.0
  9
$LOFTMAG2
 40
0.0
  9
$LOFTPARAM
 70
     7
  9
$LOFTNORMALS
280
     1
  9
$LATITUDE
 40
37.795
  9
$LONGITUDE
 40
-122.394
  9
$NORTHDIRECTION
 40
0.0
  9
$TIMEZONE
 70
 -8000
  9
$LIGHTGLYPHDISPLAY
280
     1
  9
$TILEMODELIGHTSYNCH
280
     1
  9
$CMATERIAL
347
AB
  9
$SOLIDHIST
280
     0
  9
$SHOWHIST
280
     1
  9
$DWFFRAME
280
     2
  9
$DGNFRAME
280
     0
  9
$REALWORLDSCALE
290
     1
  9
$INTERFERECOLOR
 62
     1
  9
$INTERFEREOBJVS
345
CD
  9
$INTERFEREVPVS
346
CA
  9
$CSHADOW
280
     0
  9
$SHADOWPLANELOCATION
 40
0.0
  0
ENDSEC
  0
SECTION
  2
CLASSES
  0
CLASS
  1
ACDBDICTIONARYWDFLT
  2
AcDbDictionaryWithDefault
  3
ObjectDBX Classes
 90
        0
 91
        1
280
     0
281
     0
  0
CLASS
  1
ACDBPLACEHOLDER
  2
AcDbPlaceHolder
  3
ObjectDBX Classes
 90
        0
 91
        2
280
     0
281
     0
  0
CLASS
  1
LAYOUT
  2
AcDbLayout
  3
ObjectDBX Classes
 90
        0
 91
        3
280
     0
281
     0
  0
CLASS
  1
MATERIAL
  2
AcDbMaterial
  3
ObjectDBX Classes
 90
     1153
 91
        3
280
     0
281
     0
  0
CLASS
  1
VISUALSTYLE
  2
AcDbVisualStyle
  3
ObjectDBX Classes
 90
     4095
 91
       24
280
     0
281
     0
  0
CLASS
  1
TABLESTYLE
  2
AcDbTableStyle
  3
ObjectDBX Classes
 90
     4095
 91
        1
280
     0
281
     0
  0
CLASS
  1
SCALE
  2
AcDbScale
  3
ObjectDBX Classes
 90
     1153
 91
       17
280
     0
281
     0
  0
CLASS
  1
MLEADERSTYLE
  2
AcDbMLeaderStyle
  3
ACDB_MLEADERSTYLE_CLASS
 90
     4095
 91
        1
280
     0
281
     0
  0
CLASS
  1
ACDBSECTIONVIEWSTYLE
  2
AcDbSectionViewStyle
  3
ObjectDBX Classes
 90
     1025
 91
        1
280
     0
281
     0
  0
CLASS
  1
ACDBDETAILVIEWSTYLE
  2
AcDbDetailViewStyle
  3
ObjectDBX Classes
 90
     1025
 91
        1
280
     0
281
     0
  0
CLASS
  1
MESH
  2
AcDbSubDMesh
  3
ObjectDBX Classes
 90
        0
 91
        1
280
     0
281
     1
  0
CLASS
  1
DICTIONARYVAR
  2
AcDbDictionaryVar
  3
ObjectDBX Classes
 90
        0
 91
        9
280
     0
281
     0
  0
CLASS
  1
CELLSTYLEMAP
  2
AcDbCellStyleMap
  3
ObjectDBX Classes
 90
     1152
 91
        1
280
     0
281
     0
  0
ENDSEC
  0
SECTION
  2
TABLES
  0
TABLE
  2
VPORT
  5
8
330
0
100
AcDbSymbolTable
 70
     1
  0
VPORT
  5
A8
330
8
100
AcDbSymbolTableRecord
100
AcDbViewportTableRecord
  2
*Active
 70
     0
 10
0.0
 20
0.0
 11
1.0
 21
1.0
 12
-0.0000418096751673
 22
24.49486351013184
 13
0.0
 23
0.0
 14
0.5
 24
0.5
 15
0.5
 25
0.5
 16
-1.0
 26
-1.0
 36
1.0
 17
0.0
 27
0.0
 37
0.0
 40
1081.977832767698
 41
1.63600164180282
 42
50.0
 43
0.0
 44
0.0
 50
0.0
 51
0.0
 71
     0
 72
   100
 73
     1
 74
     3
 75
     0
 76
     0
 77
     0
 78
     0
281
     0
 65
     1
110
0.0
120
0.0
130
0.0
111
1.0
121
0.0
131
0.0
112
0.0
122
1.0
132
0.0
 79
     0
146
0.0
348
C9
 60
     3
 61
     5
292
     1
282
     1
141
0.0
142
0.0
 63
   250
421
  3355443
  0
ENDTAB
  0
TABLE
  2
LTYPE
  5
5
330
0
100
AcDbSymbolTable
 70
     1
  0
LTYPE
  5
14
330
5
100
AcDbSymbolTableRecord
100
AcDbLinetypeTableRecord
  2
ByBlock
 70
     0
  3

 72
    65
 73
     0
 40
0.0
  0
LTYPE
  5
15
330
5
100
AcDbSymbolTableRecord
100
AcDbLinetypeTableRecord
  2
ByLayer
 70
     0
  3

 72
    65
 73
     0
 40
0.0
  0
LTYPE
  5
16
330
5
100
AcDbSymbolTableRecord
100
AcDbLinetypeTableRecord
  2
Continuous
 70
     0
  3
Solid line
 72
    65
 73
     0
 40
0.0
  0
ENDTAB
  0
TABLE
  2
LAYER
  5
2
330
0
100
AcDbSymbolTable
 70
     3
  0
LAYER
  5
10
330
2
100
AcDbSymbolTableRecord
100
AcDbLayerTableRecord
  2
0
 70
     0
 62
     7
  6
Continuous
370
    -3
390
F
347
BB
  0
LAYER
  5
2B
330
2
100
AcDbSymbolTableRecord
100
AcDbLayerTableRecord
  2
ASHADE
 70
     4
 62
     7
  6
Continuous
370
    -3
390
2D
347
BB
  0
LAYER
  5
F8
330
2
100
AcDbSymbolTableRecord
100
AcDbLayerTableRecord
  2
OracDecor_panel_moldings
 70
     0
 62
    36
420
  8862472
  6
Continuous
370
    -3
390
F
347
BB
  0
ENDTAB
  0
TABLE
  2
STYLE
  5
3
330
0
100
AcDbSymbolTable
 70
     2
  0
STYLE
  5
11
330
3
100
AcDbSymbolTableRecord
100
AcDbTextStyleTableRecord
  2
Standard
 70
     0
 40
0.0
 41
1.0
 50
0.0
 71
     0
 42
0.2
  3
txt
  4

  0
STYLE
  5
2C
330
3
100
AcDbSymbolTableRecord
100
AcDbTextStyleTableRecord
  2
ASHADE
 70
     0
 40
0.2
 41
1.0
 50
0.0
 71
     0
 42
0.2
  3
simplex
  4

  0
ENDTAB
  0
TABLE
  2
VIEW
  5
6
330
0
100
AcDbSymbolTable
 70
     0
  0
ENDTAB
  0
TABLE
  2
UCS
  5
7
330
0
100
AcDbSymbolTable
 70
     0
  0
ENDTAB
  0
TABLE
  2
APPID
  5
9
330
0
100
AcDbSymbolTable
 70
     6
  0
APPID
  5
12
330
9
100
AcDbSymbolTableRecord
100
AcDbRegAppTableRecord
  2
ACAD
 70
     0
  0
APPID
  5
8F
330
9
100
AcDbSymbolTableRecord
100
AcDbRegAppTableRecord
  2
AVE_RENDER
 70
     0
  0
APPID
  5
90
330
9
100
AcDbSymbolTableRecord
100
AcDbRegAppTableRecord
  2
AVE_ENTITY_MATERIAL
 70
     0
  0
APPID
  5
9C
330
9
100
AcDbSymbolTableRecord
100
AcDbRegAppTableRecord
  2
AVE_FINISH
 70
     0
  0
APPID
  5
9D
330
9
100
AcDbSymbolTableRecord
100
AcDbRegAppTableRecord
  2
AVE_MATERIAL
 70
     0
  0
APPID
  5
9E
330
9
100
AcDbSymbolTableRecord
100
AcDbRegAppTableRecord
  2
AVE_GLOBAL
 70
     0
  0
ENDTAB
  0
TABLE
  2
DIMSTYLE
  5
A
330
0
100
AcDbSymbolTable
 70
     1
100
AcDbDimStyleTable
 71
     0
  0
DIMSTYLE
105
27
330
A
100
AcDbSymbolTableRecord
100
AcDbDimStyleTableRecord
  2
Standard
 70
     0
340
11
  0
ENDTAB
  0
TABLE
  2
BLOCK_RECORD
  5
1
330
0
100
AcDbSymbolTable
 70
     6
  0
BLOCK_RECORD
  5
1F
330
1
100
AcDbSymbolTableRecord
100
AcDbBlockTableRecord
  2
*Model_Space
340
22
 70
     0
280
     1
281
     0
  0
BLOCK_RECORD
  5
1B
330
1
100
AcDbSymbolTableRecord
100
AcDbBlockTableRecord
  2
*Paper_Space
340
1E
 70
     0
280
     1
281
     0
  0
BLOCK_RECORD
  5
23
330
1
100
AcDbSymbolTableRecord
100
AcDbBlockTableRecord
  2
*Paper_Space0
340
26
 70
     0
280
     1
281
     0
  0
BLOCK_RECORD
  5
2E
330
1
100
AcDbSymbolTableRecord
100
AcDbBlockTableRecord
  2
direct
340
0
 70
     0
280
     1
281
     0
  0
BLOCK_RECORD
  5
42
330
1
100
AcDbSymbolTableRecord
100
AcDbBlockTableRecord
  2
overhead
340
0
 70
     0
280
     1
281
     0
  0
BLOCK_RECORD
  5
5F
330
1
100
AcDbSymbolTableRecord
100
AcDbBlockTableRecord
  2
sh_spot
340
0
 70
     0
280
     1
281
     0
  0
BLOCK_RECORD
  5
91
330
1
100
AcDbSymbolTableRecord
100
AcDbBlockTableRecord
  2
AVE_RENDER
340
0
102
{BLKREFS
331
94
331
95
331
96
331
97
331
98
331
99
331
9A
331
9B
102
}
 70
     0
280
     1
281
     0
  0
BLOCK_RECORD
  5
9F
330
1
100
AcDbSymbolTableRecord
100
AcDbBlockTableRecord
  2
AVE_GLOBAL
340
0
102
{BLKREFS
331
A2
102
}
 70
     0
280
     1
281
     0
  0
ENDTAB
  0
ENDSEC
  0
SECTION
  2
BLOCKS
  0
BLOCK
  5
20
330
1F
100
AcDbEntity
  8
0
100
AcDbBlockBegin
  2
*Model_Space
 70
     0
 10
0.0
 20
0.0
 30
0.0
  3
*Model_Space
  1

  0
ENDBLK
  5
21
330
1F
100
AcDbEntity
  8
0
100
AcDbBlockEnd
  0
BLOCK
  5
1C
330
1B
100
AcDbEntity
 67
     1
  8
0
100
AcDbBlockBegin
  2
*Paper_Space
 70
     0
 10
0.0
 20
0.0
 30
0.0
  3
*Paper_Space
  1

  0
ENDBLK
  5
1D
330
1B
100
AcDbEntity
 67
     1
  8
0
100
AcDbBlockEnd
  0
BLOCK
  5
24
330
23
100
AcDbEntity
 67
     1
  8
0
100
AcDbBlockBegin
  2
*Paper_Space0
 70
     0
 10
0.0
 20
0.0
 30
0.0
  3
*Paper_Space0
  1

  0
ENDBLK
  5
25
330
23
100
AcDbEntity
 67
     1
  8
0
100
AcDbBlockEnd
  0
BLOCK
  5
40
330
2E
100
AcDbEntity
  8
0
100
AcDbBlockBegin
  2
direct
 70
     2
 10
0.0
 20
0.0
 30
0.0
  3
direct
  1

  0
ATTDEF
  5
2F
330
2E
100
AcDbEntity
  8
ASHADE
  6
Continuous
 62
     1
100
AcDbText
 10
0.0
 20
-0.1
 30
0.0
 40
0.2
  1

  7
ASHADE
 72
     1
 11
0.0
 21
-0.1
 31
0.0
100
AcDbAttributeDefinition
280
     0
  3
Light Name
  2
SNAME
 70
     0
280
     0
  0
ARC
  5
30
330
2E
100
AcDbEntity
  8
ASHADE
  6
Continuous
 62
     7
100
AcDbCircle
 10
0.0
 20
0.0
 30
0.0
 40
0.3
100
AcDbArc
 50
205.6792886194569
 51
334.3207113805431
  0
ARC
  5
31
330
2E
100
AcDbEntity
  8
ASHADE
  6
Continuous
 62
     7
100
AcDbCircle
 10
0.0
 20
0.0
 30
0.0
 40
0.3
100
AcDbArc
 50
25.67928861945685
 51
154.3207113805431
  0
LINE
  5
32
330
2E
100
AcDbEntity
  8
ASHADE
  6
Continuous
 62
     7
100
AcDbLine
 10
-0.21
 20
0.2142428528562855
 30
0.0
 11
-0.21
 21
0.5
 31
0.0
  0
LINE
  5
33
330
2E
100
AcDbEntity
  8
ASHADE
  6
Continuous
 62
     7
100
AcDbLine
 10
-0.11
 20
0.2791057147390572
 30
0.0
 11
-0.11
 21
0.5
 31
0.0
  0
LINE
  5
34
330
2E
100
AcDbEntity
  8
ASHADE
  6
Continuous
 62
     7
100
AcDbLine
 10
0.21
 20
0.2142428528562855
 30
0.0
 11
0.21
 21
0.5
 31
0.0
  0
ATTDEF
  5
35
330
2E
100
AcDbEntity
  8
ASHADE
  6
Continuous
 62
     7
100
AcDbText
 10
0.0
 20
0.25
 30
0.0
 40
0.01
  1

100
AcDbAttributeDefinition
280
     0
  3
Look-at Y
  2
LAY
 70
     1
280
     0
  0
ATTDEF
  5
36
330
2E
100
AcDbEntity
  8
ASHADE
  6
Continuous
 62
     7
100
AcDbText
 10
0.0
 20
0.22
 30
0.0
 40
0.01
  1
1
100
AcDbAttributeDefinition
280
     0
  3
Light Intensity
  2
INTENSITY
 70
     1
280
     0
  0
ATTDEF
  5
37
330
2E
100
AcDbEntity
  8
ASHADE
  6
Continuous
 62
     7
100
AcDbText
 10
0.0
 20
0.16
 30
0.0
 40
0.01
  1
-1
100
AcDbAttributeDefinition
280
     0
  3
*not used*
  2
BEAMD
 70
     1
280
     0
  0
ATTDEF
  5
38
330
2E
100
AcDbEntity
  8
ASHADE
  6
Continuous
 62
     7
100
AcDbText
 10
0.0
 20
0.175
 30
0.0
 40
0.01
  1
-1
100
AcDbAttributeDefinition
280
     0
  3
*not used*
  2
CONED
 70
     1
280
     0
  0
ATTDEF
  5
39
330
2E
100
AcDbEntity
  8
ASHADE
  6
Continuous
 62
     7
100
AcDbText
 10
0.0
 20
0.19
 30
0.0
 40
0.01
  1
0
100
AcDbAttributeDefinition
280
     0
  3
Depth Map Size
  2
CONEA
 70
     1
280
     0
  0
ATTDEF
  5
3A
330
2E
100
AcDbEntity
  8
ASHADE
  6
Continuous
 62
     7
100
AcDbText
 10
0.0
 20
0.2050000000000001
 30
0.0
 40
0.01
  1
1,1,1
100
AcDbAttributeDefinition
280
     0
  3
Light Color (RGB)
  2
COLOR
 70
     1
280
     0
  0
ATTDEF
  5
3B
330
2E
100
AcDbEntity
  8
ASHADE
  6
Continuous
 62
     7
100
AcDbText
 10
0.0
 20
0.235
 30
0.0
 40
0.01
  1

100
AcDbAttributeDefinition
280
     0
  3
Look-at Z
  2
LAZ
 70
     1
280
     0
  0
LINE
  5
3C
330
2E
100
AcDbEntity
  8
ASHADE
  6
Continuous
 62
     7
100
AcDbLine
 10
0.0
 20
0.3
 30
0.0
 11
0.0
 21
0.5
 31
0.0
  0
LINE
  5
3D
330
2E
100
AcDbEntity
  8
ASHADE
  6
Continuous
 62
     7
100
AcDbLine
 10
0.11
 20
0.2791057147390572
 30
0.0
 11
0.11
 21
0.5
 31
0.0
  0
ATTDEF
  5
3E
330
2E
100
AcDbEntity
  8
ASHADE
  6
Continuous
 62
     7
100
AcDbText
 10
0.0
 20
0.265
 30
0.0
 40
0.01
  1

100
AcDbAttributeDefinition
280
     0
  3
Look-at X
  2
LAX
 70
     1
280
     0
  0
ATTDEF
  5
3F
330
2E
100
AcDbEntity
  8
ASHADE
  6
Continuous
 62
     7
100
AcDbText
 10
0.0
 20
0.28
 30
0.0
 40
0.01
  1

100
AcDbAttributeDefinition
280
     0
  3

  2
GNAME
 70
     1
280
     0
  0
ENDBLK
  5
41
330
2E
100
AcDbEntity
  8
0
100
AcDbBlockEnd
  0
BLOCK
  5
5D
330
42
100
AcDbEntity
  8
0
100
AcDbBlockBegin
  2
overhead
 70
     2
 10
0.0
 20
0.0
 30
0.0
  3
overhead
  1

  0
ATTDEF
  5
43
330
42
100
AcDbEntity
  8
ASHADE
  6
Continuous
 62
     1
100
AcDbText
 10
0.0
 20
-0.1
 30
0.0
 40
0.2
  1

  7
ASHADE
 72
     1
 11
0.0
 21
-0.1
 31
0.0
100
AcDbAttributeDefinition
280
     0
  3
Light Name
  2
SNAME
 70
     0
280
     0
  0
ARC
  5
44
330
42
100
AcDbEntity
  8
ASHADE
  6
Continuous
 62
     7
100
AcDbCircle
 10
0.0
 20
0.0
 30
0.0
 40
0.3
100
AcDbArc
 50
205.6792886194569
 51
334.3207113805431
  0
LINE
  5
45
330
42
100
AcDbEntity
  8
ASHADE
  6
Continuous
 62
     7
100
AcDbLine
 10
-0.2041413561583015
 20
-0.2198324514393848
 30
0.0
 11
-0.2721884748777353
 21
-0.2931099352525131
 31
0.0
  0
LINE
  5
46
330
42
100
AcDbEntity
  8
ASHADE
  6
Continuous
 62
     7
100
AcDbLine
 10
-0.1096591641591904
 20
-0.2792398032442862
 30
0.0
 11
-0.1279356915190555
 21
-0.3257797704516673
 31
0.0
  0
LINE
  5
47
330
42
100
AcDbEntity
  8
ASHADE
  6
Continuous
 62
     7
100
AcDbLine
 10
0.0
 20
-0.2999999999999999
 30
0.0
 11
0.0
 21
-0.4
 31
0.0
  0
LINE
  5
48
330
42
100
AcDbEntity
  8
ASHADE
  6
Continuous
 62
     7
100
AcDbLine
 10
0.1096591641591904
 20
-0.2792398032442862
 30
0.0
 11
0.1279356915190555
 21
-0.3257797704516673
 31
0.0
  0
LINE
  5
49
330
42
100
AcDbEntity
  8
ASHADE
  6
Continuous
 62
     7
100
AcDbLine
 10
0.2041413561583015
 20
-0.2198324514393848
 30
0.0
 11
0.2721884748777353
 21
-0.2931099352525131
 31
0.0
  0
ARC
  5
4A
330
42
100
AcDbEntity
  8
ASHADE
  6
Continuous
 62
     7
100
AcDbCircle
 10
0.0
 20
0.0
 30
0.0
 40
0.3
100
AcDbArc
 50
25.67928861945685
 51
154.3207113805431
  0
LINE
  5
4B
330
42
100
AcDbEntity
  8
ASHADE
  6
Continuous
 62
     7
100
AcDbLine
 10
-0.2703701166919155
 20
0.13
 30
0.0
 11
-0.3154318028072347
 21
0.1516666666666666
 31
0.0
  0
LINE
  5
4C
330
42
100
AcDbEntity
  8
ASHADE
  6
Continuous
 62
     7
100
AcDbLine
 10
-0.2703701166919155
 20
-0.13
 30
0.0
 11
-0.3154318028072347
 21
-0.1516666666666666
 31
0.0
  0
LINE
  5
4D
330
42
100
AcDbEntity
  8
ASHADE
  6
Continuous
 62
     7
100
AcDbLine
 10
-0.2041413561583015
 20
0.2198324514393849
 30
0.0
 11
-0.2721884748777353
 21
0.2931099352525131
 31
0.0
  0
LINE
  5
4E
330
42
100
AcDbEntity
  8
ASHADE
  6
Continuous
 62
     7
100
AcDbLine
 10
-0.1096591641591904
 20
0.2792398032442862
 30
0.0
 11
-0.1279356915190555
 21
0.3257797704516674
 31
0.0
  0
LINE
  5
4F
330
42
100
AcDbEntity
  8
ASHADE
  6
Continuous
 62
     7
100
AcDbLine
 10
0.2703701166919155
 20
-0.13
 30
0.0
 11
0.3154318028072347
 21
-0.1516666666666666
 31
0.0
  0
LINE
  5
50
330
42
100
AcDbEntity
  8
ASHADE
  6
Continuous
 62
     7
100
AcDbLine
 10
0.2703701166919155
 20
0.13
 30
0.0
 11
0.3154318028072347
 21
0.1516666666666666
 31
0.0
  0
LINE
  5
51
330
42
100
AcDbEntity
  8
ASHADE
  6
Continuous
 62
     7
100
AcDbLine
 10
0.0
 20
0.3
 30
0.0
 11
0.0
 21
0.4
 31
0.0
  0
ATTDEF
  5
52
330
42
100
AcDbEntity
  8
ASHADE
  6
Continuous
 62
     7
100
AcDbText
 10
0.0
 20
0.22
 30
0.0
 40
0.01
  1
1
100
AcDbAttributeDefinition
280
     0
  3
Light Intensity
  2
INTENSITY
 70
     1
280
     0
  0
ATTDEF
  5
53
330
42
100
AcDbEntity
  8
ASHADE
  6
Continuous
 62
     7
100
AcDbText
 10
0.0
 20
0.16
 30
0.0
 40
0.01
  1
-1
100
AcDbAttributeDefinition
280
     0
  3
*not used*
  2
BEAMD
 70
     1
280
     0
  0
ATTDEF
  5
54
330
42
100
AcDbEntity
  8
ASHADE
  6
Continuous
 62
     7
100
AcDbText
 10
0.0
 20
0.175
 30
0.0
 40
0.01
  1
-1
100
AcDbAttributeDefinition
280
     0
  3
*not used*
  2
CONED
 70
     1
280
     0
  0
ATTDEF
  5
55
330
42
100
AcDbEntity
  8
ASHADE
  6
Continuous
 62
     7
100
AcDbText
 10
0.0
 20
0.19
 30
0.0
 40
0.01
  1
0
100
AcDbAttributeDefinition
280
     0
  3
Depth Map Size
  2
CONEA
 70
     1
280
     0
  0
ATTDEF
  5
56
330
42
100
AcDbEntity
  8
ASHADE
  6
Continuous
 62
     7
100
AcDbText
 10
0.0
 20
0.2050000000000001
 30
0.0
 40
0.01
  1
1,1,1
100
AcDbAttributeDefinition
280
     0
  3
Light Color (RGB)
  2
COLOR
 70
     1
280
     0
  0
ATTDEF
  5
57
330
42
100
AcDbEntity
  8
ASHADE
  6
Continuous
 62
     7
100
AcDbText
 10
0.0
 20
0.235
 30
0.0
 40
0.01
  1

100
AcDbAttributeDefinition
280
     0
  3
Look-at Z
  2
LAZ
 70
     1
280
     0
  0
ATTDEF
  5
58
330
42
100
AcDbEntity
  8
ASHADE
  6
Continuous
 62
     7
100
AcDbText
 10
0.0
 20
0.25
 30
0.0
 40
0.01
  1

100
AcDbAttributeDefinition
280
     0
  3
Look-at Y
  2
LAY
 70
     1
280
     0
  0
ATTDEF
  5
59
330
42
100
AcDbEntity
  8
ASHADE
  6
Continuous
 62
     7
100
AcDbText
 10
0.0
 20
0.265
 30
0.0
 40
0.01
  1

100
AcDbAttributeDefinition
280
     0
  3
Look-at X
  2
LAX
 70
     1
280
     0
  0
ATTDEF
  5
5A
330
42
100
AcDbEntity
  8
ASHADE
  6
Continuous
 62
     7
100
AcDbText
 10
0.0
 20
0.28
 30
0.0
 40
0.01
  1

100
AcDbAttributeDefinition
280
     0
  3

  2
GNAME
 70
     1
280
     0
  0
LINE
  5
5B
330
42
100
AcDbEntity
  8
ASHADE
  6
Continuous
 62
     7
100
AcDbLine
 10
0.1096591641591904
 20
0.2792398032442862
 30
0.0
 11
0.1279356915190555
 21
0.3257797704516674
 31
0.0
  0
LINE
  5
5C
330
42
100
AcDbEntity
  8
ASHADE
  6
Continuous
 62
     7
100
AcDbLine
 10
0.2041413561583015
 20
0.2198324514393849
 30
0.0
 11
0.2721884748777353
 21
0.2931099352525131
 31
0.0
  0
ENDBLK
  5
5E
330
42
100
AcDbEntity
  8
0
100
AcDbBlockEnd
  0
BLOCK
  5
85
330
5F
100
AcDbEntity
  8
0
100
AcDbBlockBegin
  2
sh_spot
 70
     2
 10
0.0
 20
0.0
 30
0.0
  3
sh_spot
  1

  0
LINE
  5
60
330
5F
100
AcDbEntity
  8
ASHADE
  6
Continuous
 62
     7
100
AcDbLine
 10
0.25
 20
0.26
 30
0.0
 11
-0.25
 21
0.26
 31
0.0
  0
LINE
  5
61
330
5F
100
AcDbEntity
  8
ASHADE
  6
Continuous
 62
     7
100
AcDbLine
 10
-0.25
 20
-0.3399999999999999
 30
0.0
 11
0.25
 21
-0.3399999999999999
 31
0.0
  0
ATTDEF
  5
62
330
5F
100
AcDbEntity
  8
ASHADE
  6
Continuous
 62
     1
100
AcDbText
 10
0.0
 20
-0.1
 30
0.0
 40
0.2
  1

  7
ASHADE
 72
     1
 11
0.0
 21
-0.1
 31
0.0
100
AcDbAttributeDefinition
280
     0
  3
Light Name
  2
SNAME
 70
     0
280
     0
  0
LINE
  5
63
330
5F
100
AcDbEntity
  8
ASHADE
  6
Continuous
 62
     7
100
AcDbLine
 10
-0.25
 20
-0.13
 30
0.0
 11
-0.25
 21
-0.3399999999999999
 31
0.0
  0
LINE
  5
64
330
5F
100
AcDbEntity
  8
ASHADE
  6
Continuous
 62
     7
100
AcDbLine
 10
-0.25
 20
-0.18
 30
0.0
 11
-0.29
 21
-0.18
 31
0.0
  0
LINE
  5
65
330
5F
100
AcDbEntity
  8
ASHADE
  6
Continuous
 62
     7
100
AcDbLine
 10
-0.29
 20
-0.22
 30
0.0
 11
-0.25
 21
-0.22
 31
0.0
  0
LINE
  5
66
330
5F
100
AcDbEntity
  8
ASHADE
  6
Continuous
 62
     7
100
AcDbLine
 10
-0.29
 20
-0.18
 30
0.0
 11
-0.29
 21
-0.22
 31
0.0
  0
LINE
  5
67
330
5F
100
AcDbEntity
  8
ASHADE
  6
Continuous
 62
     7
100
AcDbLine
 10
-0.1045454545454545
 20
0.26
 30
0.0
 11
-0.15
 21
0.46
 31
0.0
  0
LINE
  5
68
330
5F
100
AcDbEntity
  8
ASHADE
  6
Continuous
 62
     7
100
AcDbLine
 10
-0.21
 20
0.26
 30
0.0
 11
-0.301304347826087
 21
0.46
 31
0.0
  0
LINE
  5
69
330
5F
100
AcDbEntity
  8
ASHADE
  6
Continuous
 62
     7
100
AcDbLine
 10
-0.25
 20
0.26
 30
0.0
 11
-0.25
 21
0.13
 31
0.0
  0
LINE
  5
6A
330
5F
100
AcDbEntity
  8
ASHADE
  6
Continuous
 62
     7
100
AcDbLine
 10
-0.25
 20
0.22
 30
0.0
 11
-0.29
 21
0.22
 31
0.0
  0
LINE
  5
6B
330
5F
100
AcDbEntity
  8
ASHADE
  6
Continuous
 62
     7
100
AcDbLine
 10
-0.29
 20
0.1799999999999999
 30
0.0
 11
-0.25
 21
0.1799999999999999
 31
0.0
  0
LINE
  5
6C
330
5F
100
AcDbEntity
  8
ASHADE
  6
Continuous
 62
     7
100
AcDbLine
 10
-0.29
 20
0.22
 30
0.0
 11
-0.29
 21
0.1799999999999999
 31
0.0
  0
ATTDEF
  5
6D
330
5F
100
AcDbEntity
  8
ASHADE
  6
Continuous
 62
     7
100
AcDbText
 10
0.0
 20
-0.24
 30
0.0
 40
0.01
  1
0
100
AcDbAttributeDefinition
280
     0
  3
Depth Map Size
  2
ZSIZE
 70
     1
280
     0
  0
ATTDEF
  5
6E
330
5F
100
AcDbEntity
  8
ASHADE
  6
Continuous
 62
     7
100
AcDbText
 10
0.0
 20
-0.3300000000000001
 30
0.0
 40
0.01
  1
0,0,0
100
AcDbAttributeDefinition
280
     0
  3
Look-from XYZ
  2
LFXYZ
 70
     1
280
     0
  0
ATTDEF
  5
6F
330
5F
100
AcDbEntity
  8
ASHADE
  6
Continuous
 62
     7
100
AcDbText
 10
0.0
 20
-0.315
 30
0.0
 40
0.01
  1
0.0
100
AcDbAttributeDefinition
280
     0
  3
Beam Distribution
  2
BEAMDI
 70
     1
280
     0
  0
ATTDEF
  5
70
330
5F
100
AcDbEntity
  8
ASHADE
  6
Continuous
 62
     7
100
AcDbText
 10
0.0
 20
-0.3
 30
0.0
 40
0.01
  1
0.0
100
AcDbAttributeDefinition
280
     0
  3
Cone Delta
  2
CONEDE
 70
     1
280
     0
  0
ATTDEF
  5
71
330
5F
100
AcDbEntity
  8
ASHADE
  6
Continuous
 62
     7
100
AcDbText
 10
0.0
 20
-0.2850000000000001
 30
0.0
 40
0.01
  1
10.0
100
AcDbAttributeDefinition
280
     0
  3
Cone Angle
  2
CONEAN
 70
     1
280
     0
  0
ATTDEF
  5
72
330
5F
100
AcDbEntity
  8
ASHADE
  6
Continuous
 62
     7
100
AcDbText
 10
0.0
 20
-0.27
 30
0.0
 40
0.01
  1
-1
100
AcDbAttributeDefinition
280
     0
  3
*not used*
  2
BIASMAX
 70
     1
280
     0
  0
ATTDEF
  5
73
330
5F
100
AcDbEntity
  8
ASHADE
  6
Continuous
 62
     7
100
AcDbText
 10
0.0
 20
-0.255
 30
0.0
 40
0.01
  1
-1
100
AcDbAttributeDefinition
280
     0
  3
*not used*
  2
BIASMIN
 70
     1
280
     0
  0
ATTDEF
  5
74
330
5F
100
AcDbEntity
  8
ASHADE
  6
Continuous
 62
     7
100
AcDbText
 10
0.0
 20
-0.225
 30
0.0
 40
0.01
  1
1,1,1
100
AcDbAttributeDefinition
280
     0
  3
Light Color (RGB)
  2
COLOR
 70
     1
280
     0
  0
ATTDEF
  5
75
330
5F
100
AcDbEntity
  8
ASHADE
  6
Continuous
 62
     7
100
AcDbText
 10
0.0
 20
-0.21
 30
0.0
 40
0.01
  1
1
100
AcDbAttributeDefinition
280
     0
  3
Light Intensity
  2
INTENSITY
 70
     1
280
     0
  0
ATTDEF
  5
76
330
5F
100
AcDbEntity
  8
ASHADE
  6
Continuous
 62
     7
100
AcDbText
 10
0.0
 20
-0.15
 30
0.0
 40
0.01
  1

100
AcDbAttributeDefinition
280
     0
  3

  2
GNAME
 70
     1
280
     0
  0
ATTDEF
  5
77
330
5F
100
AcDbEntity
  8
ASHADE
  6
Continuous
 62
     7
100
AcDbText
 10
0.0
 20
-0.195
 30
0.0
 40
0.01
  1

100
AcDbAttributeDefinition
280
     0
  3
Look-at Z
  2
LAZ
 70
     1
280
     0
  0
ATTDEF
  5
78
330
5F
100
AcDbEntity
  8
ASHADE
  6
Continuous
 62
     7
100
AcDbText
 10
0.0
 20
-0.18
 30
0.0
 40
0.01
  1

100
AcDbAttributeDefinition
280
     0
  3
Look-at Y
  2
LAY
 70
     1
280
     0
  0
ATTDEF
  5
79
330
5F
100
AcDbEntity
  8
ASHADE
  6
Continuous
 62
     7
100
AcDbText
 10
0.0
 20
-0.165
 30
0.0
 40
0.01
  1

100
AcDbAttributeDefinition
280
     0
  3
Look-at X
  2
LAX
 70
     1
280
     0
  0
LINE
  5
7A
330
5F
100
AcDbEntity
  8
ASHADE
  6
Continuous
 62
     7
100
AcDbLine
 10
0.25
 20
-0.3399999999999999
 30
0.0
 11
0.25
 21
-0.13
 31
0.0
  0
LINE
  5
7B
330
5F
100
AcDbEntity
  8
ASHADE
  6
Continuous
 62
     7
100
AcDbLine
 10
0.25
 20
-0.18
 30
0.0
 11
0.29
 21
-0.18
 31
0.0
  0
LINE
  5
7C
330
5F
100
AcDbEntity
  8
ASHADE
  6
Continuous
 62
     7
100
AcDbLine
 10
0.29
 20
-0.22
 30
0.0
 11
0.25
 21
-0.22
 31
0.0
  0
LINE
  5
7D
330
5F
100
AcDbEntity
  8
ASHADE
  6
Continuous
 62
     7
100
AcDbLine
 10
0.29
 20
-0.18
 30
0.0
 11
0.29
 21
-0.22
 31
0.0
  0
LINE
  5
7E
330
5F
100
AcDbEntity
  8
ASHADE
  6
Continuous
 62
     7
100
AcDbLine
 10
0.21
 20
0.26
 30
0.0
 11
0.301304347826087
 21
0.46
 31
0.0
  0
LINE
  5
7F
330
5F
100
AcDbEntity
  8
ASHADE
  6
Continuous
 62
     7
100
AcDbLine
 10
0.1045454545454545
 20
0.26
 30
0.0
 11
0.15
 21
0.46
 31
0.0
  0
LINE
  5
80
330
5F
100
AcDbEntity
  8
ASHADE
  6
Continuous
 62
     7
100
AcDbLine
 10
0.0
 20
0.26
 30
0.0
 11
0.0
 21
0.46
 31
0.0
  0
LINE
  5
81
330
5F
100
AcDbEntity
  8
ASHADE
  6
Continuous
 62
     7
100
AcDbLine
 10
0.25
 20
0.13
 30
0.0
 11
0.25
 21
0.26
 31
0.0
  0
LINE
  5
82
330
5F
100
AcDbEntity
  8
ASHADE
  6
Continuous
 62
     7
100
AcDbLine
 10
0.25
 20
0.22
 30
0.0
 11
0.29
 21
0.22
 31
0.0
  0
LINE
  5
83
330
5F
100
AcDbEntity
  8
ASHADE
  6
Continuous
 62
     7
100
AcDbLine
 10
0.29
 20
0.1799999999999999
 30
0.0
 11
0.25
 21
0.1799999999999999
 31
0.0
  0
LINE
  5
84
330
5F
100
AcDbEntity
  8
ASHADE
  6
Continuous
 62
     7
100
AcDbLine
 10
0.29
 20
0.22
 30
0.0
 11
0.29
 21
0.1799999999999999
 31
0.0
  0
ENDBLK
  5
86
330
5F
100
AcDbEntity
  8
0
100
AcDbBlockEnd
  0
BLOCK
  5
92
330
91
100
AcDbEntity
  8
ASHADE
100
AcDbBlockBegin
  2
AVE_RENDER
 70
     0
 10
0.0
 20
0.0
 30
0.0
  3
AVE_RENDER
  1
AVE_RENDER
  0
ENDBLK
  5
93
330
91
100
AcDbEntity
  8
0
100
AcDbBlockEnd
  0
BLOCK
  5
A0
330
9F
100
AcDbEntity
  8
ASHADE
100
AcDbBlockBegin
  2
AVE_GLOBAL
 70
     0
 10
0.0
 20
0.0
 30
0.0
  3
AVE_GLOBAL
  1
AVE_GLOBAL
  0
ENDBLK
  5
A1
330
9F
100
AcDbEntity
  8
0
100
AcDbBlockEnd
  0
ENDSEC
  0
SECTION
  2
ENTITIES
  0
INSERT
  5
94
330
1F
100
AcDbEntity
  8
ASHADE
 62
     1
100
AcDbBlockReference
  2
AVE_RENDER
 10
0.0
 20
0.0
 30
0.0
1001
AVE_RENDER
1002
{
1070
     7
1000
Pref
1070
    30
1070
    20
1070
     1
1070
     0
1000

1070
    10
1070
     1
1070
    10
1040
1.0
1070
     1
1040
0.3
1040
0.7
1040
0.0
1040
10.0
1010
-1.0
1020
-1.0
1030
-1.0
1040
0.3
1070
    49
1070
     0
1070
     0
1010
1.0
1020
1.0
1030
1.0
1040
45.0
1070
     1
1070
     0
1000
WCS
1040
0.0
1070
     0
1040
10.0
1002
}
  0
INSERT
  5
95
330
1F
100
AcDbEntity
  8
ASHADE
 62
     3
100
AcDbBlockReference
  2
AVE_RENDER
 10
0.0
 20
0.0
 30
0.0
1001
AVE_RENDER
1002
{
1070
     0
1000
Full Opt
1070
     0
1070
     1
1070
     1
1070
     1
1070
     0
1070
     0
1070
     0
1070
     1
1070
     1
1040
0.0001
1040
0.0001
1002
}
  0
INSERT
  5
96
330
1F
100
AcDbEntity
  8
ASHADE
 62
     4
100
AcDbBlockReference
  2
AVE_RENDER
 10
0.0
 20
0.0
 30
0.0
1001
AVE_RENDER
1002
{
1070
     0
1000
Quick Opt
1070
     0
1070
     1
1070
     1
1070
     1
1070
     0
1070
     0
1070
     1
1002
}
  0
INSERT
  5
97
330
1F
100
AcDbEntity
  8
ASHADE
 62
     5
100
AcDbBlockReference
  2
AVE_RENDER
 10
0.0
 20
0.0
 30
0.0
1001
AVE_RENDER
1002
{
1070
     1
1000
Scanl Opt
1070
     2
1070
     0
1070
     2
1040
2.0
1040
4.0
1070
     0
1070
     1
1070
     0
1040
0.03
1002
}
  0
INSERT
  5
98
330
1F
100
AcDbEntity
  8
ASHADE
 62
     6
100
AcDbBlockReference
  2
AVE_RENDER
 10
0.0
 20
0.0
 30
0.0
1001
AVE_RENDER
1002
{
1070
     2
1000
Raytr Opt
1070
     2
1070
     0
1070
     2
1040
2.0
1040
4.0
1070
     0
1070
     1
1070
     1
1040
0.03
1070
     3
1040
0.03
1002
}
  0
INSERT
  5
99
330
1F
100
AcDbEntity
  8
ASHADE
 62
     7
100
AcDbBlockReference
  2
AVE_RENDER
 10
0.0
 20
0.0
 30
0.0
1001
AVE_RENDER
1002
{
1070
     0
1000
RFile Opt
1070
     1
1070
   640
1070
   480
1070
 10000
1070
     1
1070
     8
1070
     8
1070
     0
1070
     0
1070
     0
1070
     0
1070
     0
1070
     0
1070
     0
1002
}
  0
INSERT
  5
9A
330
1F
100
AcDbEntity
  8
ASHADE
 62
     8
100
AcDbBlockReference
  2
AVE_RENDER
 10
0.0
 20
0.0
 30
0.0
1001
AVE_RENDER
1002
{
1070
     0
1000
Fog Opt
1070
     0
1070
     0
1040
0.0
1040
1.0
1040
0.0
1040
1.0
1010
0.5
1020
0.5
1030
0.5
1002
}
  0
INSERT
  5
9B
330
1F
100
AcDbEntity
  8
ASHADE
 62
     9
100
AcDbBlockReference
  2
AVE_RENDER
 10
0.0
 20
0.0
 30
0.0
1001
AVE_RENDER
1002
{
1070
     0
1000
BG Opt
1070
     0
1070
     1
1010
0.0
1020
0.0
1030
0.0
1010
1.0
1020
0.0
1030
0.0
1010
0.0
1020
1.0
1030
0.0
1010
0.0
1020
0.0
1030
1.0
1040
0.5
1040
0.33
1040
0.0
1000

1070
     1
1000

1070
     1
1070
     1
1040
1.0
1040
1.0
1040
0.0
1040
0.0
1070
     0
1002
}
  0
INSERT
  5
A2
330
1F
100
AcDbEntity
  8
ASHADE
 62
     1
100
AcDbBlockReference
  2
AVE_GLOBAL
 10
0.0
 20
0.0
 30
0.0
1001
AVE_MATERIAL
1002
{
1000
*GLOBAL*
1000
2
1000
Global finish.
1002
{
1002
}
1002
{
1070
    63
1002
{
1002
{
1010
-1.0
1020
-1.0
1030
-1.0
1002
}
1040
0.1000000014901161
1000

1040
0.0
1002
{
1002
}
1040
0.0
1002
{
1002
}
1040
0.0
1002
}
1002
{
1002
{
1010
-1.0
1020
-1.0
1030
-1.0
1002
}
1040
0.6999999880790711
1000

1040
0.0
1002
{
1002
}
1040
0.0
1002
{
1002
}
1040
0.0
1002
}
1002
{
1002
{
1010
-1.0
1020
-1.0
1030
-1.0
1002
}
1040
0.2000000029802322
1000

1040
0.0
1002
{
1002
}
1040
0.0
1002
{
1002
}
1040
0.0
1002
}
1002
{
1070
     0
1002
{
1070
     1
1002
{
1040
1.0
1040
1.0
1000

1040
0.0
1002
{
1002
}
1040
0.0
1002
{
1002
}
1040
0.0
1002
}
1002
}
1040
1.0
1040
0.0
1040
0.0
1002
}
1002
{
1040
1.0
1040
1.0
1000

1040
0.0
1002
{
1002
}
1040
0.0
1002
{
1002
}
1040
0.0
1002
}
1002
{
1040
0.5
1040
1.0
1000

1040
0.0
1002
{
1002
}
1040
0.0
1002
{
1002
}
1040
0.0
1002
}
1002
{
1070
     0
1040
0.0
1002
{
1002
}
1040
1.0
1002
{
1002
}
1040
0.0
1002
}
1002
{
1040
0.0
1002
{
1002
{
1010
0.0
1020
0.0
1030
0.0
1002
}
1040
1.0
1000

1040
0.0
1002
{
1002
}
1040
0.0
1002
{
1002
}
1040
0.0
1002
}
1002
}
1002
{
1002
{
1070
     1
1002
{
1040
0.0
1040
1.0
1000

1040
0.0
1002
{
1002
}
1040
0.0
1002
{
1002
}
1040
0.0
1002
}
1002
}
1040
0.0
1002
{
1002
}
1010
1.0
1020
0.0
1030
0.0
1010
0.0
1020
1.0
1030
0.0
1010
0.0
1020
0.0
1030
1.0
1070
     0
1002
}
1002
{
1002
{
1040
1.0
1040
1.0
1002
{
1070
     1
1002
{
1040
1.0
1040
1.0
1000

1040
0.0
1002
{
1002
}
1040
0.0
1002
{
1002
}
1040
0.0
1002
}
1002
}
1002
}
1070
     0
1040
0.0
1002
{
1002
}
1002
}
1002
{
1002
}
1002
}
1002
{
1071
        3
1070
     3
1070
     0
1002
{
1070
     2
1070
     0
1070
     0
1040
0.0
1002
}
1070
     0
1070
     2
1002
{
1002
}
1002
}
1002
{
1040
8030.0
1040
190.3000030517578
1040
0.3050000071525574
1040
228.0
1040
545.0
1040
14.0
1040
17.39999961853027
1040
0.4560000002384186
1002
}
1002
}
  0
MESH
  5
F9
330
1F
100
AcDbEntity
  8
OracDecor_panel_moldings
 62
   133
420
  5818337
160
             39392
310
E0990000460400000C00000013000000020000003C00000006000000020000000000000000408FC0000000A067E235C00000000080EE9E3F0000000000408FC00000006065C735C0000000000000F4BE0C000000130000000A0000003C00000006000000020000000000000000408FC00000006065C735C0000000000000F4
310
BE000000C0FF3F8F400000006065C735C0000000000000F0BE0C00000013000000120000003C0000000600000002000000000000C0FF3F8F40000000A067E235C00000000080EE9E3F000000C0FF3F8F400000006065C735C0000000000000F0BE0C000000130000001A0000003C0000000600000002000000000000000040
310
8FC0000000A067E235C00000000080EE9E3F000000C0FF3F8F40000000A067E235C00000000080EE9E3F0C00000013000000220000003C00000006000000020000000000000000408FC00000006065C735C0000000000000F4BE0000000000408FC0000000000000EA3E000000000000F4BE0C000000130000002A0000003C
310
00000006000000020000000000000000408FC0000000000000EA3E000000000000F4BE000000C0FF3F8F40000000000000EE3E000000000000F0BE0C00000013000000320000003C0000000600000002000000000000C0FF3F8F400000006065C735C0000000000000F0BE000000C0FF3F8F40000000000000EE3E00000000
310
0000F0BE0C000000130000003A0000003C00000006000000020000000000000000408FC0000000000000EA3E000000000000F4BE0000000000408FC0000000000000EC3E00000000146E07400C00000013000000420000003C00000006000000020000000000000000408FC0000000000000EC3E00000000146E0740000000
310
C0FF3F8F40000000000000EE3E00000000146E07400C000000130000004A0000003C0000000600000002000000000000C0FF3F8F40000000000000EE3E00000000146E0740000000C0FF3F8F40000000000000EE3E000000000000F0BE0C00000013000000520000003C00000006000000020000000000000000408FC00000
310
00000000EC3E00000000146E07400000000000408FC00000000020A1B3BF00000000348E09400C000000130000005A0000003C00000006000000020000000000000000408FC00000000020A1B3BF00000000348E0940000000C0FF3F8F400000000030A1B3BF00000000348E09400C00000013000000620000003C00000006
310
00000002000000000000C0FF3F8F400000000030A1B3BF00000000348E0940000000C0FF3F8F40000000000000EE3E00000000146E07400C000000130000006A0000003C00000006000000020000000000000000408FC00000000020A1B3BF00000000348E09400000000000408FC0000000000416D2BF000000003A080B40
310
0C00000013000000720000003C00000006000000020000000000000000408FC0000000000416D2BF000000003A080B40000000C0FF3F8F40000000000216D2BF000000003A080B400C000000130000007A0000003C0000000600000002000000000000C0FF3F8F400000000030A1B3BF00000000348E0940000000C0FF3F8F
310
40000000000216D2BF000000003A080B400C00000013000000820000003C00000006000000020000000000000000408FC0000000000416D2BF000000003A080B400000000000408FC000000000CA32EABF00000000A8330E400C000000130000008A0000003C00000006000000020000000000000000408FC000000000CA32
310
EABF00000000A8330E40000000C0FF3F8F4000000000CD32EABF00000000A8330E400C00000013000000920000003C0000000600000002000000000000C0FF3F8F40000000000216D2BF000000003A080B40000000C0FF3F8F4000000000CD32EABF00000000A8330E400C000000130000009A0000003C0000000600000002
310
0000000000000000408FC000000000CA32EABF00000000A8330E400000000000408FC000000080E1CEF2BF00000000085F11400C00000013000000A20000003C00000006000000020000000000000000408FC000000080E1CEF2BF00000000085F1140000000C0FF3F8F4000000080E2CEF2BF00000000085F11400C000000
310
13000000AA0000003C0000000600000002000000000000C0FF3F8F4000000080E2CEF2BF00000000085F1140000000C0FF3F8F4000000000CD32EABF00000000A8330E400C00000013000000B20000003C00000006000000020000000000000000408FC000000080E1CEF2BF00000000085F11400000000000408FC0000000
310
00BACCF4BF00000000FBFF13400C00000013000000BA0000003C00000006000000020000000000000000408FC000000000BACCF4BF00000000FBFF1340000000C0FF3F8F4000000000BBCCF4BF00000000FBFF13400C00000013000000C20000003C0000000600000002000000000000C0FF3F8F4000000000BBCCF4BF0000
310
0000FBFF1340000000C0FF3F8F4000000080E2CEF2BF00000000085F11400C00000013000000CA0000003C00000006000000020000000000000000408FC000000000BACCF4BF00000000FBFF13400000000000408FC000000000E2CEF2BF00000000EEA016400C00000013000000D20000003C000000060000000200000000
310
00000000408FC000000000E2CEF2BF00000000EEA01640000000C0FF3F8F4000000000E3CEF2BF00000000EEA016400C00000013000000DA0000003C0000000600000002000000000000C0FF3F8F4000000000BBCCF4BF00000000FBFF1340000000C0FF3F8F4000000000E3CEF2BF00000000EEA016400C00000013000000
310
E20000003C00000006000000020000000000000000408FC000000000E2CEF2BF00000000EEA016400000000000408FC000000000CB32EABF0000000022E618400C00000013000000EA0000003C00000006000000020000000000000000408FC000000000CB32EABF0000000022E61840000000C0FF3F8F4000000000CE32EA
310
BF0000000022E618400C00000013000000F20000003C0000000600000002000000000000C0FF3F8F4000000000CE32EABF0000000022E61840000000C0FF3F8F4000000000E3CEF2BF00000000EEA016400C00000013000000FA0000003C00000006000000020000000000000000408FC000000000CB32EABF0000000022E6
310
18400000000000408FC0000000000816D2BF00000000D97B1A400C00000013000000020100003C00000006000000020000000000000000408FC0000000000816D2BF00000000D97B1A40000000C0FF3F8F40000000000416D2BF00000000D97B1A400C000000130000000A0100003C0000000600000002000000000000C0FF
310
3F8F40000000000416D2BF00000000D97B1A40000000C0FF3F8F4000000000CE32EABF0000000022E618400C00000013000000120100003C00000006000000020000000000000000408FC0000000000816D2BF00000000D97B1A400000000000408FC00000000030A1B3BF00000000DC381B400C000000130000001A010000
310
3C00000006000000020000000000000000408FC00000000030A1B3BF00000000DC381B40000000C0FF3F8F400000000040A1B3BF00000000DC381B400C00000013000000220100003C0000000600000002000000000000C0FF3F8F400000000040A1B3BF00000000DC381B40000000C0FF3F8F40000000000416D2BF000000
310
00D97B1A400C000000130000002A0100003C00000006000000020000000000000000408FC00000000030A1B3BF00000000DC381B400000000000408FC0000000000000EC3E00000000EC481C400C00000013000000320100003C00000006000000020000000000000000408FC0000000000000EC3E00000000EC481C400000
310
00C0FF3F8F40000000000000EC3E00000000EC481C400C000000130000003A0100003C0000000600000002000000000000C0FF3F8F40000000000000EC3E00000000EC481C40000000C0FF3F8F400000000040A1B3BF00000000DC381B400C00000013000000420100003C00000006000000020000000000000000408FC000
310
0000000000EC3E00000000EC481C400000000000408FC0000000000000EE3E00000080FDFF22400C000000130000004A0100003C00000006000000020000000000000000408FC0000000000000EE3E00000080FDFF2240000000C0FF3F8F40000000000000EE3E00000080FDFF22400C00000013000000520100003C000000
310
0600000002000000000000C0FF3F8F40000000000000EE3E00000080FDFF2240000000C0FF3F8F40000000000000EC3E00000000EC481C400C000000130000005A0100003C00000006000000020000000000000000408FC0000000000000EE3E00000080FDFF22400000000000408FC000000000D024B1BF00000080C47F23
310
400C00000013000000620100003C00000006000000020000000000000000408FC000000000D024B1BF00000080C47F2340000000C0FF3F8F4000000000F024B1BF00000080C47F23400C000000130000006A0100003C0000000600000002000000000000C0FF3F8F4000000000F024B1BF00000080C47F2340000000C0FF3F
310
8F40000000000000EE3E00000080FDFF22400C00000013000000720100003C00000006000000020000000000000000408FC000000000D024B1BF00000080C47F23400000000000408FC000000000E806D0BF00000080B1DD23400C000000130000007A0100003C00000006000000020000000000000000408FC000000000E8
310
06D0BF00000080B1DD2340000000C0FF3F8F4000000000EA06D0BF00000080B1DD23400C00000013000000820100003C0000000600000002000000000000C0FF3F8F4000000000F024B1BF00000080C47F2340000000C0FF3F8F4000000000EA06D0BF00000080B1DD23400C000000130000008A0100003C00000006000000
310
020000000000000000408FC000000000E806D0BF00000080B1DD23400000000000408FC000000000C8FFDFBF00000080FDFF23400C00000013000000920100003C00000006000000020000000000000000408FC000000000C8FFDFBF00000080FDFF2340000000C0FF3F8F4000000000C2FFDFBF00000080FDFF23400C0000
310
00130000009A0100003C0000000600000002000000000000C0FF3F8F4000000000EA06D0BF00000080B1DD2340000000C0FF3F8F4000000000C2FFDFBF00000080FDFF23400C00000013000000A20100003C00000006000000020000000000000000408FC000000000C8FFDFBF00000080FDFF23400000000000408FC00000
310
00C0BA9F13C000000080FDFF23400C00000013000000AA0100003C00000006000000020000000000000000408FC0000000C0BA9F13C000000080FDFF2340000000C0FF3F8F4000000040BA9F13C000000080FDFF23400C00000013000000B20100003C0000000600000002000000000000C0FF3F8F4000000000C2FFDFBF00
310
000080FDFF2340000000C0FF3F8F4000000040BA9F13C000000080FDFF23400C00000013000000BA0100003C00000006000000020000000000000000408FC0000000C0BA9F13C000000080FDFF23400000000000408FC0000000C0152715C000000080ED2624400C00000013000000C20100003C0000000600000002000000
310
0000000000408FC0000000C0152715C000000080ED262440000000C0FF3F8F4000000040152715C000000080ED2624400C00000013000000CA0100003C0000000600000002000000000000C0FF3F8F4000000040BA9F13C000000080FDFF2340000000C0FF3F8F4000000040152715C000000080ED2624400C000000130000
310
00D20100003C00000006000000020000000000000000408FC0000000C0152715C000000080ED2624400000000000408FC0000000C0A47316C000000080089624400C00000013000000DA0100003C00000006000000020000000000000000408FC0000000C0A47316C00000008008962440000000C0FF3F8F4000000040A473
310
16C000000080089624400C00000013000000E20100003C0000000600000002000000000000C0FF3F8F4000000040152715C000000080ED262440000000C0FF3F8F4000000040A47316C000000080089624400C00000013000000EA0100003C00000006000000020000000000000000408FC0000000C0A47316C00000008008
310
9624400000000000408FC0000000C0D95117C000000000503C25400C00000013000000F20100003C00000006000000020000000000000000408FC0000000C0D95117C000000000503C2540000000C0FF3F8F4000000040D95117C000000000503C25400C00000013000000FA0100003C0000000600000002000000000000C0
310
FF3F8F4000000040D95117C000000000503C2540000000C0FF3F8F4000000040A47316C000000080089624400C00000013000000020200003C00000006000000020000000000000000408FC0000000C0D95117C000000000503C25400000000000408FC0000000C0BA9F17C000000080FDFF25400C000000130000000A0200
310
003C00000006000000020000000000000000408FC0000000C0BA9F17C000000080FDFF2540000000C0FF3F8F4000000040BA9F17C000000080FDFF25400C00000013000000120200003C0000000600000002000000000000C0FF3F8F4000000040BA9F17C000000080FDFF2540000000C0FF3F8F4000000040D95117C00000
310
0000503C25400C000000130000001A0200003C00000006000000020000000000000000408FC0000000C0BA9F17C000000080FDFF25400000000000408FC0000000C0BA9F17C000000000159927400C00000013000000220200003C00000006000000020000000000000000408FC0000000C0BA9F17C0000000001599274000
310
0000C0FF3F8F4000000040BA9F17C000000000159927400C000000130000002A0200003C0000000600000002000000000000C0FF3F8F4000000040BA9F17C00000000015992740000000C0FF3F8F4000000040BA9F17C000000080FDFF25400C00000013000000320200003C00000006000000020000000000000000408FC0
310
000000C0BA9F17C000000000159927400000000000408FC0000000C0ADBE18C00000000088382B400C000000130000003A0200003C00000006000000020000000000000000408FC0000000C0ADBE18C00000000088382B40000000C0FF3F8F4000000080ADBE18C00000000088382B400C00000013000000420200003C0000
310
000600000002000000000000C0FF3F8F4000000080ADBE18C00000000088382B40000000C0FF3F8F4000000040BA9F17C000000000159927400C000000130000004A0200003C00000006000000020000000000000000408FC0000000C0ADBE18C00000000088382B400000000000408FC0000000C0D2FF1BC0000000807E81
310
2E400C00000013000000520200003C00000006000000020000000000000000408FC0000000C0D2FF1BC0000000807E812E40000000C0FF3F8F4000000080D2FF1BC0000000807E812E400C000000130000005A0200003C0000000600000002000000000000C0FF3F8F4000000080D2FF1BC0000000807E812E40000000C0FF
310
3F8F4000000080ADBE18C00000000088382B400C00000013000000620200003C00000006000000020000000000000000408FC0000000C0D2FF1BC0000000807E812E400000000000408FC0000000201E8B20C000000080A29230400C000000130000006A0200003C00000006000000020000000000000000408FC000000020
310
1E8B20C000000080A2923040000000C0FF3F8F40000000201E8B20C000000080A29230400C00000013000000720200003C0000000600000002000000000000C0FF3F8F40000000201E8B20C000000080A2923040000000C0FF3F8F4000000080D2FF1BC0000000807E812E400C000000130000007A0200003C000000060000
310
00020000000000000000408FC0000000201E8B20C000000080A29230400000000000408FC000000040521A24C0000000C00B8231400C00000013000000820200003C00000006000000020000000000000000408FC000000040521A24C0000000C00B823140000000C0FF3F8F4000000000521A24C0000000C00B8231400C00
310
0000130000008A0200003C0000000600000002000000000000C0FF3F8F4000000000521A24C0000000C00B823140000000C0FF3F8F40000000201E8B20C000000080A29230400C00000013000000920200003C00000006000000020000000000000000408FC000000040521A24C0000000C00B8231400000000000408FC000
310
000000A33226C000000080611232400C000000130000009A0200003C00000006000000020000000000000000408FC000000000A33226C00000008061123240000000C0FF3F8F40000000A0A23226C000000080611232400C00000013000000A20200003C0000000600000002000000000000C0FF3F8F40000000A0A23226C0
310
0000008061123240000000C0FF3F8F4000000000521A24C0000000C00B8231400C00000013000000AA0200003C00000006000000020000000000000000408FC000000000A33226C000000080611232400000000000408FC000000080AA8027C0000000C041D932400C00000013000000B20200003C00000006000000020000
310
000000000000408FC000000080AA8027C0000000C041D93240000000C0FF3F8F4000000020AA8027C0000000C041D932400C00000013000000BA0200003C0000000600000002000000000000C0FF3F8F4000000020AA8027C0000000C041D93240000000C0FF3F8F40000000A0A23226C000000080611232400C0000001300
310
0000C20200003C00000006000000020000000000000000408FC000000080AA8027C0000000C041D932400000000000408FC000000080B93028C00000000011CD33400C00000013000000CA0200003C00000006000000020000000000000000408FC000000080B93028C00000000011CD3340000000C0FF3F8F4000000020B9
310
3028C00000000011CD33400C00000013000000D20200003C0000000600000002000000000000C0FF3F8F4000000020B93028C00000000011CD3340000000C0FF3F8F4000000020AA8027C0000000C041D932400C00000013000000DA0200003C00000006000000020000000000000000408FC000000080B93028C000000000
310
11CD33400000000000408FC000000080A12D28C00000008046D034400C00000013000000E20200003C00000006000000020000000000000000408FC000000080A12D28C00000008046D03440000000C0FF3F8F4000000020A12D28C00000008046D034400C00000013000000EA0200003C0000000600000002000000000000
310
C0FF3F8F4000000020A12D28C00000008046D03440000000C0FF3F8F4000000020B93028C00000000011CD33400C00000013000000F20200003C00000006000000020000000000000000408FC000000080A12D28C00000008046D034400000000000408FC000000080A07727C00000008083C335400C00000013000000FA02
310
00003C00000006000000020000000000000000408FC000000080A07727C00000008083C33540000000C0FF3F8F4000000020A07727C00000008083C335400C00000013000000020300003C0000000600000002000000000000C0FF3F8F4000000020A07727C00000008083C33540000000C0FF3F8F4000000020A12D28C000
310
00008046D034400C000000130000000A0300003C00000006000000020000000000000000408FC000000080A07727C00000008083C335400000000000408FC000000080AE2526C000000000158836400C00000013000000120300003C00000006000000020000000000000000408FC000000080AE2526C00000000015883640
310
000000C0FF3F8F40000000E0AD2526C000000000158836400C000000130000001A0300003C0000000600000002000000000000C0FF3F8F40000000E0AD2526C00000000015883640000000C0FF3F8F4000000020A07727C00000008083C335400C00000013000000220300003C00000006000000020000000000000000408F
310
C000000080AE2526C000000000158836400000000000408FC00000008050F614C000000000422E3C400C000000130000002A0300003C00000006000000020000000000000000408FC00000008050F614C000000000422E3C40000000C0FF3F8F400000004050F614C000000000422E3C400C00000013000000320300003C00
310
00000600000002000000000000C0FF3F8F400000004050F614C000000000422E3C40000000C0FF3F8F40000000E0AD2526C000000000158836400C000000130000003A0300003C00000006000000020000000000000000408FC00000008050F614C000000000422E3C400000000000408FC0000000004489DCBF000000C0AB
310
5D41400C00000013000000420300003C00000006000000020000000000000000408FC0000000004489DCBF000000C0AB5D4140000000C0FF3F8F40000000004289DCBF000000C0AB5D41400C000000130000004A0300003C0000000600000002000000000000C0FF3F8F40000000004289DCBF000000C0AB5D4140000000C0
310
FF3F8F400000004050F614C000000000422E3C400C00000013000000520300003C00000006000000020000000000000000408FC0000000004489DCBF000000C0AB5D41400000000000408FC0000000003494D5BF00000040AC7D41400C000000130000005A0300003C00000006000000020000000000000000408FC0000000
310
003494D5BF00000040AC7D4140000000C0FF3F8F40000000003A94D5BF00000040AC7D41400C00000013000000620300003C0000000600000002000000000000C0FF3F8F40000000003A94D5BF00000040AC7D4140000000C0FF3F8F40000000004289DCBF000000C0AB5D41400C000000130000006A0300003C0000000600
310
0000020000000000000000408FC0000000003494D5BF00000040AC7D41400000000000408FC000000000E432D3BF000000403EA041400C00000013000000720300003C00000006000000020000000000000000408FC000000000E432D3BF000000403EA04140000000C0FF3F8F4000000000EA32D3BF000000403EA041400C
310
000000130000007A0300003C0000000600000002000000000000C0FF3F8F4000000000EA32D3BF000000403EA04140000000C0FF3F8F40000000003A94D5BF00000040AC7D41400C00000013000000820300003C00000006000000020000000000000000408FC000000000E432D3BF000000403EA041400000000000408FC0
310
00000000E432D3BF0000004099D947400C000000130000008A0300003C00000006000000020000000000000000408FC000000000E432D3BF0000004099D94740000000C0FF3F8F4000000000E832D3BF0000000099D947400C00000013000000920300003C0000000600000002000000000000C0FF3F8F4000000000E832D3
310
BF0000000099D94740000000C0FF3F8F4000000000EA32D3BF000000403EA041400C000000130000009A0300003C00000006000000020000000000000000408FC000000000E432D3BF0000004099D947400000000000408FC0000000000000EA3E00000040FFFF47400C00000013000000A20300003C000000060000000200
310
00000000000000408FC0000000000000EA3E00000040FFFF4740000000C0FF3F8F40000000000000EC3E00000040FFFF47400C00000013000000AA0300003C0000000600000002000000000000C0FF3F8F40000000000000EC3E00000040FFFF4740000000C0FF3F8F4000000000E832D3BF0000000099D947400C00000013
310
000000B20300003C00000006000000020000000000000000408FC0000000000000EA3E00000040FFFF47400000000000408FC0000000000000EE3E00000040E1F649400C00000013000000BA0300003C00000006000000020000000000000000408FC0000000000000EE3E00000040E1F64940000000C0FF3F8F4000000000
310
0000EC3E00000040E1F649400C00000013000000C20300003C0000000600000002000000000000C0FF3F8F40000000000000EC3E00000040E1F64940000000C0FF3F8F40000000000000EC3E00000040FFFF47400C00000013000000CA0300003C00000006000000020000000000000000408FC0000000000000EE3E000000
310
40E1F649400000000000408FC00000000010A1B3BF00000040E3184A400C00000013000000D20300003C00000006000000020000000000000000408FC00000000010A1B3BF00000040E3184A40000000C0FF3F8F400000000040A1B3BF00000040E3184A400C00000013000000DA0300003C00000006000000020000000000
310
00C0FF3F8F40000000000000EC3E00000040E1F64940000000C0FF3F8F400000000040A1B3BF00000040E3184A400C00000013000000E20300003C00000006000000020000000000000000408FC00000000010A1B3BF00000040E3184A400000000000408FC0000000000616D2BF000000C083304A400C00000013000000EA
310
0300003C00000006000000020000000000000000408FC0000000000616D2BF000000C083304A40000000C0FF3F8F40000000000416D2BF000000C083304A400C00000013000000F20300003C0000000600000002000000000000C0FF3F8F400000000040A1B3BF00000040E3184A40000000C0FF3F8F40000000000416D2BF
310
000000C083304A400C00000013000000FA0300003C00000006000000020000000000000000408FC0000000000616D2BF000000C083304A400000000000408FC000000000CB32EABF000000803A634A400C00000013000000020400003C00000006000000020000000000000000408FC000000000CB32EABF000000803A634A
310
40000000C0FF3F8F4000000000CE32EABF000000803A634A400C000000130000000A0400003C0000000600000002000000000000C0FF3F8F40000000000416D2BF000000C083304A40000000C0FF3F8F4000000000CE32EABF000000803A634A400C00000013000000120400003C0000000600000002000000000000000040
310
8FC000000000CB32EABF000000803A634A400000000000408FC000000000E2CEF2BF000000C0E0AB4A400C000000130000001A0400003C00000006000000020000000000000000408FC000000000E2CEF2BF000000C0E0AB4A40000000C0FF3F8F4000000080E2CEF2BF000000C0E0AB4A400C00000013000000220400003C
310
0000000600000002000000000000C0FF3F8F4000000000CE32EABF000000803A634A40000000C0FF3F8F4000000080E2CEF2BF000000C0E0AB4A400C000000130000002A0400003C00000006000000020000000000000000408FC000000000E2CEF2BF000000C0E0AB4A400000000000408FC000000000BACCF4BF00000040
310
FFFF4A400C00000013000000320400003C00000006000000020000000000000000408FC000000000BACCF4BF00000040FFFF4A40000000C0FF3F8F4000000080BACCF4BF00000040FFFF4A400C000000130000003A0400003C0000000600000002000000000000C0FF3F8F4000000080E2CEF2BF000000C0E0AB4A40000000
310
C0FF3F8F4000000080BACCF4BF00000040FFFF4A400C00000013000000420400003C00000006000000020000000000000000408FC000000000BACCF4BF00000040FFFF4A400000000000408FC000000000E2CEF2BF000000C01D544B400C000000130000004A0400003C00000006000000020000000000000000408FC00000
310
0000E2CEF2BF000000C01D544B40000000C0FF3F8F4000000080E2CEF2BF000000C01D544B400C00000013000000520400003C0000000600000002000000000000C0FF3F8F4000000080BACCF4BF00000040FFFF4A40000000C0FF3F8F4000000080E2CEF2BF000000C01D544B400C000000130000005A0400003C00000006
310
000000020000000000000000408FC000000000E2CEF2BF000000C01D544B400000000000408FC000000000CA32EABF00000040C49C4B400C00000013000000620400003C00000006000000020000000000000000408FC000000000CA32EABF00000040C49C4B40000000C0FF3F8F4000000000CD32EABF00000040C49C4B40
310
0C000000130000006A0400003C0000000600000002000000000000C0FF3F8F4000000000CD32EABF00000040C49C4B40000000C0FF3F8F4000000080E2CEF2BF000000C01D544B400C00000013000000720400003C00000006000000020000000000000000408FC000000000CA32EABF00000040C49C4B400000000000408F
310
C0000000000816D2BF000000407BCF4B400C000000130000007A0400003C00000006000000020000000000000000408FC0000000000816D2BF000000407BCF4B40000000C0FF3F8F40000000000216D2BF000000407BCF4B400C00000013000000820400003C0000000600000002000000000000C0FF3F8F40000000000216
310
D2BF000000407BCF4B40000000C0FF3F8F4000000000CD32EABF00000040C49C4B400C000000130000008A0400003C00000006000000020000000000000000408FC0000000000816D2BF000000407BCF4B400000000000408FC00000000010A1B3BF000000801BE74B400C00000013000000920400003C0000000600000002
310
0000000000000000408FC00000000010A1B3BF000000801BE74B40000000C0FF3F8F400000000030A1B3BF000000801BE74B400C000000130000009A0400003C0000000600000002000000000000C0FF3F8F400000000030A1B3BF000000801BE74B40000000C0FF3F8F40000000000216D2BF000000407BCF4B400C000000
310
13000000A20400003C00000006000000020000000000000000408FC00000000010A1B3BF000000801BE74B400000000000408FC0000000000000EE3E000000C01D094C400C00000013000000AA0400003C00000006000000020000000000000000408FC0000000000000EE3E000000C01D094C40000000C0FF3F8F40000000
310
000000EE3E000000801D094C400C00000013000000B20400003C0000000600000002000000000000C0FF3F8F40000000000000EE3E000000801D094C40000000C0FF3F8F400000000030A1B3BF000000801BE74B400C00000013000000BA0400003C00000006000000020000000000000000408FC0000000000000EE3E0000
310
00C01D094C400000000000408FC0000000000000EE3E00000040FFFF4D400C00000013000000C20400003C00000006000000020000000000000000408FC0000000000000EE3E00000040FFFF4D40000000C0FF3F8F40000000000000F13E00000040FFFF4D400C00000013000000CA0400003C000000060000000200000000
310
0000C0FF3F8F40000000000000EE3E000000801D094C40000000C0FF3F8F40000000000000F13E00000040FFFF4D400C00000013000000D20400003C00000006000000020000000000000000408FC0000000000000EE3E00000040FFFF4D400000000000408FC000000000EEFFFFBF00000080FFFF4D400C00000013000000
310
DA0400003C00000006000000020000000000000000408FC000000000EEFFFFBF00000080FFFF4D40000000C0FF3F8F4000000000EFFFFFBF00000080FFFF4D400C00000013000000E20400003C0000000600000002000000000000C0FF3F8F4000000000EFFFFFBF00000080FFFF4D40000000C0FF3F8F40000000000000F1
310
3E00000040FFFF4D400C00000013000000EA0400003C00000006000000020000000000000000408FC000000080659019C0000000C0F34449400000000000408FC000000080CB5919C0000000C0E13F49400C00000013000000F20400003C00000006000000020000000000000000408FC000000080CB5919C0000000C0E13F
310
4940000000C0FF3F8F4000000040CB5919C0000000C0E13F49400C00000013000000FA0400003C0000000600000002000000000000C0FF3F8F4000000040CB5919C0000000C0E13F4940000000C0FF3F8F4000000040659019C0000000C0F34449400C00000013000000020500003C00000006000000020000000000000000
310
408FC000000080659019C0000000C0F3444940000000C0FF3F8F4000000040659019C0000000C0F34449400C000000130000000A0500003C00000006000000020000000000000000408FC000000080CB5919C0000000C0E13F49400000000000408FC000000080804819C0000000C0A83749400C0000001300000012050000
310
3C00000006000000020000000000000000408FC000000080804819C0000000C0A8374940000000C0FF3F8F4000000040804819C000000080A83749400C000000130000001A0500003C0000000600000002000000000000C0FF3F8F4000000040804819C000000080A8374940000000C0FF3F8F4000000040CB5919C0000000
310
C0E13F49400C00000013000000220500003C00000006000000020000000000000000408FC000000080804819C0000000C0A83749400000000000408FC000000080E9A619C000000040E7A948400C000000130000002A0500003C00000006000000020000000000000000408FC000000080E9A619C000000040E7A948400000
310
00C0FF3F8F4000000040E9A619C000000040E7A948400C00000013000000320500003C0000000600000002000000000000C0FF3F8F4000000040804819C000000080A8374940000000C0FF3F8F4000000040E9A619C000000040E7A948400C000000130000003A0500003C00000006000000020000000000000000408FC000
310
000080E9A619C000000040E7A948400000000000408FC00000000021DB21C000000040651848400C00000013000000420500003C00000006000000020000000000000000408FC00000000021DB21C00000004065184840000000C0FF3F8F40000000E020DB21C000000040651848400C000000130000004A0500003C000000
310
0600000002000000000000C0FF3F8F4000000040E9A619C000000040E7A94840000000C0FF3F8F40000000E020DB21C000000040651848400C00000013000000520500003C00000006000000020000000000000000408FC00000000021DB21C000000040651848400000000000408FC000000080C11522C0000000C0A24647
310
400C000000130000005A0500003C00000006000000020000000000000000408FC000000080C11522C0000000C0A2464740000000C0FF3F8F4000000040C11522C0000000C0A24647400C00000013000000620500003C0000000600000002000000000000C0FF3F8F40000000E020DB21C00000004065184840000000C0FF3F
310
8F4000000040C11522C0000000C0A24647400C000000130000006A0500003C00000006000000020000000000000000408FC000000080C11522C0000000C0A24647400000000000408FC000000000C70A22C000000040383947400C00000013000000720500003C00000006000000020000000000000000408FC000000000C7
310
0A22C00000004038394740000000C0FF3F8F40000000C0C60A22C000000040383947400C000000130000007A0500003C0000000600000002000000000000C0FF3F8F40000000C0C60A22C00000004038394740000000C0FF3F8F4000000040C11522C0000000C0A24647400C00000013000000820500003C00000006000000
310
020000000000000000408FC000000000C70A22C000000040383947400000000000408FC000000080C3E521C000000040202F47400C000000130000008A0500003C00000006000000020000000000000000408FC000000080C3E521C000000040202F4740000000C0FF3F8F4000000040C3E521C000000040202F47400C0000
310
0013000000920500003C0000000600000002000000000000C0FF3F8F40000000C0C60A22C00000004038394740000000C0FF3F8F4000000040C3E521C000000040202F47400C000000130000009A0500003C00000006000000020000000000000000408FC0000000C060D52CC000000000B6081D400000000000408FC00000
310
0060F6F42BC00000004018EF24400C00000013000000A20500003C00000006000000020000000000000000408FC0000000C060D52CC000000000B6081D40000000C0FF3F8F400000008060D52CC000000000B6081D400C00000013000000AA0500003C0000000600000002000000000000C0FF3F8F4000000060F6F42BC000
310
00004018EF2440000000C0FF3F8F400000008060D52CC000000000B6081D400C00000013000000B20500003C00000006000000020000000000000000408FC000000060F6F42BC00000004018EF2440000000C0FF3F8F4000000060F6F42BC00000004018EF24400C00000013000000BA0500003C0000000600000002000000
310
0000000000408FC0000000C060D52CC000000000B6081D400000000000408FC000000040F2DE2CC000000000B9D91C400C00000013000000C20500003C00000006000000020000000000000000408FC000000040F2DE2CC000000000B9D91C40000000C0FF3F8F4000000040F2DE2CC000000000B9D91C400C000000130000
310
00CA0500003C0000000600000002000000000000C0FF3F8F4000000040F2DE2CC000000000B9D91C40000000C0FF3F8F400000008060D52CC000000000B6081D400C00000013000000D20500003C00000006000000020000000000000000408FC000000040F2DE2CC000000000B9D91C400000000000408FC00000004099F2
310
2CC000000000A5B91C400C00000013000000DA0500003C00000006000000020000000000000000408FC00000004099F22CC000000000A5B91C40000000C0FF3F8F400000004099F22CC000000000A5B91C400C00000013000000E20500003C0000000600000002000000000000C0FF3F8F4000000040F2DE2CC000000000B9
310
D91C40000000C0FF3F8F400000004099F22CC000000000A5B91C400C00000013000000EA0500003C00000006000000020000000000000000408FC00000004099F22CC000000000A5B91C400000000000408FC0000000409AD231C00000008064B917400C00000013000000F20500003C000000060000000200000000000000
310
00408FC0000000409AD231C00000008064B91740000000C0FF3F8F40000000409AD231C00000008064B917400C00000013000000FA0500003C0000000600000002000000000000C0FF3F8F40000000409AD231C00000008064B91740000000C0FF3F8F400000004099F22CC000000000A5B91C400C00000013000000020600
310
003C00000006000000020000000000000000408FC0000000409AD231C00000008064B917400000000000408FC0000000406B5235C000000080ABD014400C000000130000000A0600003C00000006000000020000000000000000408FC0000000406B5235C000000080ABD01440000000C0FF3F8F40000000006B5235C00000
310
0080ABD014400C00000013000000120600003C0000000600000002000000000000C0FF3F8F40000000006B5235C000000080ABD01440000000C0FF3F8F40000000409AD231C00000008064B917400C000000130000001A0600003C00000006000000020000000000000000408FC0000000406B5235C000000080ABD0144000
310
00000000408FC000000000887035C000000080299414400C00000013000000220600003C00000006000000020000000000000000408FC000000000887035C00000008029941440000000C0FF3F8F4000000000887035C000000080299414400C000000130000002A0600003C0000000600000002000000000000C0FF3F8F40
310
00000000887035C00000008029941440000000C0FF3F8F40000000006B5235C000000080ABD014400C00000013000000320600003C00000006000000020000000000000000408FC000000080CA7E35C000000080071A14400000000000408FC000000000887035C000000080299414400C000000130000003A0600003C0000
310
0006000000020000000000000000408FC000000080CA7E35C000000080071A1440000000C0FF3F8F4000000040CA7E35C000000080071A14400C00000013000000420600003C0000000600000002000000000000C0FF3F8F4000000040CA7E35C000000080071A1440000000C0FF3F8F4000000000887035C0000000802994
310
14400C000000130000004A0600003C00000006000000020000000000000000408FC000000080CA7E35C000000080071A14400000000000408FC0000000A056FA35C000000000F027CC3F0C00000013000000520600003C00000006000000020000000000000000408FC0000000A056FA35C000000000F027CC3F000000C0FF
310
3F8F40000000A056FA35C000000000F027CC3F0C000000130000005A0600003C0000000600000002000000000000C0FF3F8F4000000040CA7E35C000000080071A1440000000C0FF3F8F40000000A056FA35C000000000F027CC3F0C00000013000000620600003C00000006000000020000000000000000408FC0000000A0
310
56FA35C000000000F027CC3F0000000000408FC0000000A056F535C000000000E0A9BC3F0C000000130000006A0600003C00000006000000020000000000000000408FC0000000A056F535C000000000E0A9BC3F000000C0FF3F8F40000000A056F535C000000000E0A9BC3F0C00000013000000720600003C000000060000
310
0002000000000000C0FF3F8F40000000A056F535C000000000E0A9BC3F000000C0FF3F8F40000000A056FA35C000000000F027CC3F0C000000130000007A0600003C00000006000000020000000000000000408FC0000000A056F535C000000000E0A9BC3F0000000000408FC0000000A067E235C00000000080EE9E3F0C00
310
000013000000820600003C0000000600000002000000000000C0FF3F8F40000000A056F535C000000000E0A9BC3F000000C0FF3F8F40000000A067E235C00000000080EE9E3F0C000000130000008A0600003C00000006000000020000000000000000408FC0000000009BDF02C0000000409DFE4D400000000000408FC000
310
000000794A08C00000004038F64D400C00000013000000920600003C00000006000000020000000000000000408FC000000000794A08C00000004038F64D40000000C0FF3F8F4000000080794A08C00000004038F64D400C000000130000009A0600003C0000000600000002000000000000C0FF3F8F40000000809BDF02C0
310
000000409DFE4D40000000C0FF3F8F4000000080794A08C00000004038F64D400C00000013000000A20600003C00000006000000020000000000000000408FC0000000009BDF02C0000000409DFE4D40000000C0FF3F8F40000000809BDF02C0000000409DFE4D400C00000013000000AA0600003C00000006000000020000
310
000000000000408FC000000000794A08C00000004038F64D400000000000408FC00000000065DD0EC0000000C033E04D400C00000013000000B20600003C00000006000000020000000000000000408FC00000000065DD0EC0000000C033E04D40000000C0FF3F8F400000008065DD0EC0000000C033E04D400C0000001300
310
0000BA0600003C0000000600000002000000000000C0FF3F8F4000000080794A08C00000004038F64D40000000C0FF3F8F400000008065DD0EC0000000C033E04D400C00000013000000C20600003C00000006000000020000000000000000408FC00000000065DD0EC0000000C033E04D400000000000408FC0000000C0FD
310
5C12C00000008088BD4D400C00000013000000CA0600003C00000006000000020000000000000000408FC0000000C0FD5C12C00000008088BD4D40000000C0FF3F8F4000000080FD5C12C00000008088BD4D400C00000013000000D20600003C0000000600000002000000000000C0FF3F8F4000000080FD5C12C000000080
310
88BD4D40000000C0FF3F8F400000008065DD0EC0000000C033E04D400C00000013000000DA0600003C00000006000000020000000000000000408FC0000000C0FD5C12C00000008088BD4D400000000000408FC0000000C0660915C0000000C05E8F4D400C00000013000000E20600003C0000000600000002000000000000
310
0000408FC0000000C0660915C0000000C05E8F4D40000000C0FF3F8F4000000080660915C0000000C05E8F4D400C00000013000000EA0600003C0000000600000002000000000000C0FF3F8F4000000080FD5C12C00000008088BD4D40000000C0FF3F8F4000000080660915C0000000C05E8F4D400C00000013000000F206
310
00003C00000006000000020000000000000000408FC0000000C0660915C0000000C05E8F4D400000000000408FC0000000C0F57717C0000000C078554D400C00000013000000FA0600003C00000006000000020000000000000000408FC0000000C0F57717C0000000C078554D40000000C0FF3F8F4000000080F57717C000
310
0000C078554D400C00000013000000020700003C0000000600000002000000000000C0FF3F8F4000000080660915C0000000C05E8F4D40000000C0FF3F8F4000000080F57717C0000000C078554D400C000000130000000A0700003C00000006000000020000000000000000408FC0000000C0F57717C0000000C078554D40
310
0000000000408FC0000000C0768019C00000008037164D400C00000013000000120700003C00000006000000020000000000000000408FC0000000C0768019C00000008037164D40000000C0FF3F8F4000000080768019C00000008037164D400C000000130000001A0700003C0000000600000002000000000000C0FF3F8F
310
4000000080768019C00000008037164D40000000C0FF3F8F4000000080F57717C0000000C078554D400C00000013000000220700003C00000006000000020000000000000000408FC0000000C0768019C00000008037164D400000000000408FC0000000C0434C1BC0000000401BCE4C400C000000130000002A0700003C00
310
000006000000020000000000000000408FC0000000C0434C1BC0000000401BCE4C40000000C0FF3F8F4000000080434C1BC0000000401BCE4C400C00000013000000320700003C0000000600000002000000000000C0FF3F8F4000000080768019C00000008037164D40000000C0FF3F8F4000000080434C1BC0000000401B
310
CE4C400C000000130000003A0700003C00000006000000020000000000000000408FC0000000C0434C1BC0000000401BCE4C400000000000408FC0000000C079C91CC000000000B1824C400C00000013000000420700003C00000006000000020000000000000000408FC0000000C079C91CC000000000B1824C40000000C0
310
FF3F8F400000008079C91CC000000000B1824C400C000000130000004A0700003C0000000600000002000000000000C0FF3F8F4000000080434C1BC0000000401BCE4C40000000C0FF3F8F400000008079C91CC000000000B1824C400C00000013000000520700003C00000006000000020000000000000000408FC0000000
310
C079C91CC000000000B1824C400000000000408FC0000000C0760B1EC0000000C06B304C400C000000130000005A0700003C00000006000000020000000000000000408FC0000000C0760B1EC0000000C06B304C40000000C0FF3F8F4000000060760B1EC0000000C06B304C400C00000013000000620700003C0000000600
310
000002000000000000C0FF3F8F4000000060760B1EC0000000C06B304C40000000C0FF3F8F400000008079C91CC000000000B1824C400C000000130000006A0700003C00000006000000020000000000000000408FC0000000C0760B1EC0000000C06B304C400000000000408FC0000000C0D0FE1EC000000080D8E04B400C
310
00000013000000720700003C00000006000000020000000000000000408FC0000000C0D0FE1EC000000080D8E04B40000000C0FF3F8F4000000060D0FE1EC000000080D8E04B400C000000130000007A0700003C0000000600000002000000000000C0FF3F8F4000000060760B1EC0000000C06B304C40000000C0FF3F8F40
310
00000060D0FE1EC000000080D8E04B400C00000013000000820700003C00000006000000020000000000000000408FC0000000C0D0FE1EC000000080D8E04B400000000000408FC000000080A8AC1FC00000008072954B400C000000130000008A0700003C00000006000000020000000000000000408FC000000080A8AC1F
310
C00000008072954B40000000C0FF3F8F4000000060A8AC1FC00000008072954B400C00000013000000920700003C0000000600000002000000000000C0FF3F8F4000000060D0FE1EC000000080D8E04B40000000C0FF3F8F4000000060A8AC1FC00000008072954B400C000000130000009A0700003C000000060000000200
310
00000000000000408FC000000080A8AC1FC00000008072954B400000000000408FC0000000A0C11320C0000000404F474B400C00000013000000A20700003C00000006000000020000000000000000408FC0000000A0C11320C0000000404F474B40000000C0FF3F8F40000000A0C11320C0000000404F474B400C00000013
310
000000AA0700003C0000000600000002000000000000C0FF3F8F40000000A0C11320C0000000404F474B40000000C0FF3F8F4000000060A8AC1FC00000008072954B400C00000013000000B20700003C00000006000000020000000000000000408FC0000000A0C11320C0000000404F474B400000000000408FC000000060
310
DD3820C000000000D6FB4A400C00000013000000BA0700003C00000006000000020000000000000000408FC000000060DD3820C000000000D6FB4A40000000C0FF3F8F4000000060DD3820C000000000D6FB4A400C00000013000000C20700003C0000000600000002000000000000C0FF3F8F40000000A0C11320C0000000
310
404F474B40000000C0FF3F8F4000000060DD3820C000000000D6FB4A400C00000013000000CA0700003C00000006000000020000000000000000408FC000000060DD3820C000000000D6FB4A400000000000408FC000000060C34320C0000000805BB94A400C00000013000000D20700003C00000006000000020000000000
310
000000408FC000000060C34320C0000000805BB94A40000000C0FF3F8F4000000060C34320C0000000805BB94A400C00000013000000DA0700003C0000000600000002000000000000C0FF3F8F4000000060C34320C0000000805BB94A40000000C0FF3F8F4000000060DD3820C000000000D6FB4A400C00000013000000E2
310
0700003C00000006000000020000000000000000408FC000000060C34320C0000000805BB94A400000000000408FC000000060543520C0000000C02C7D4A400C00000013000000EA0700003C00000006000000020000000000000000408FC000000060543520C0000000C02C7D4A40000000C0FF3F8F4000000060543520C0
310
000000C02C7D4A400C00000013000000F20700003C0000000600000002000000000000C0FF3F8F4000000060543520C0000000C02C7D4A40000000C0FF3F8F4000000060C34320C0000000805BB94A400C00000013000000FA0700003C00000006000000020000000000000000408FC000000060543520C0000000C02C7D4A
310
400000000000408FC000000060AF1320C00000008087444A400C00000013000000020800003C00000006000000020000000000000000408FC000000060AF1320C00000008087444A40000000C0FF3F8F4000000060AF1320C00000008087444A400C000000130000000A0800003C0000000600000002000000000000C0FF3F
310
8F4000000060AF1320C00000008087444A40000000C0FF3F8F4000000060543520C0000000C02C7D4A400C00000013000000120800003C00000006000000020000000000000000408FC000000060AF1320C00000008087444A400000000000408FC0000000A056BF1FC0000000004D144A400C000000130000001A0800003C
310
00000006000000020000000000000000408FC0000000A056BF1FC0000000004D144A40000000C0FF3F8F400000008056BF1FC0000000004D144A400C00000013000000220800003C0000000600000002000000000000C0FF3F8F400000008056BF1FC0000000004D144A40000000C0FF3F8F4000000060AF1320C000000080
310
87444A400C000000130000002A0800003C00000006000000020000000000000000408FC0000000A056BF1FC0000000004D144A400000000000408FC0000000A0F2391FC00000004072EA49400C00000013000000320800003C00000006000000020000000000000000408FC0000000A0F2391FC00000004072EA4940000000
310
C0FF3F8F4000000080F2391FC00000004072EA49400C000000130000003A0800003C0000000600000002000000000000C0FF3F8F4000000080F2391FC00000004072EA4940000000C0FF3F8F400000008056BF1FC0000000004D144A400C00000013000000420800003C00000006000000020000000000000000408FC00000
310
00A0F2391FC00000004072EA49400000000000408FC0000000A03B9D1EC000000040B1C549400C000000130000004A0800003C00000006000000020000000000000000408FC0000000A03B9D1EC000000040B1C54940000000C0FF3F8F40000000403B9D1EC000000040B1C549400C00000013000000520800003C00000006
310
00000002000000000000C0FF3F8F40000000403B9D1EC000000040B1C54940000000C0FF3F8F4000000080F2391FC00000004072EA49400C000000130000005A0800003C00000006000000020000000000000000408FC0000000A03B9D1EC000000040B1C549400000000000408FC0000000A0F8E81DC000000000E6A54940
310
0C00000013000000620800003C00000006000000020000000000000000408FC0000000A0F8E81DC000000000E6A54940000000C0FF3F8F4000000040F8E81DC000000000E6A549400C000000130000006A0800003C0000000600000002000000000000C0FF3F8F4000000040F8E81DC000000000E6A54940000000C0FF3F8F
310
40000000403B9D1EC000000040B1C549400C00000013000000720800003C00000006000000020000000000000000408FC0000000A0F8E81DC000000000E6A549400000000000408FC0000000A0041F1DC000000080EB8949400C000000130000007A0800003C00000006000000020000000000000000408FC0000000A0041F
310
1DC000000080EB894940000000C0FF3F8F4000000040041F1DC000000080EB8949400C00000013000000820800003C0000000600000002000000000000C0FF3F8F4000000040041F1DC000000080EB894940000000C0FF3F8F4000000040F8E81DC000000000E6A549400C000000130000008A0800003C0000000600000002
310
0000000000000000408FC0000000A0041F1DC000000080EB8949400000000000408FC000000080DD401CC000000000FE7149400C00000013000000920800003C00000006000000020000000000000000408FC000000080DD401CC000000000FE714940000000C0FF3F8F4000000040DD401CC000000000FE7149400C000000
310
130000009A0800003C0000000600000002000000000000C0FF3F8F4000000040DD401CC000000000FE714940000000C0FF3F8F4000000040041F1DC000000080EB8949400C00000013000000A20800003C00000006000000020000000000000000408FC000000080DD401CC000000000FE7149400000000000408FC0000000
310
801D721BC000000040266049400C00000013000000AA0800003C00000006000000020000000000000000408FC0000000801D721BC00000004026604940000000C0FF3F8F40000000401D721BC000000040266049400C00000013000000B20800003C0000000600000002000000000000C0FF3F8F40000000401D721BC00000
310
004026604940000000C0FF3F8F4000000040DD401CC000000000FE7149400C00000013000000BA0800003C00000006000000020000000000000000408FC0000000801D721BC000000040266049400000000000408FC000000080E8AB1AC000000040B45249400C00000013000000C20800003C000000060000000200000000
310
00000000408FC000000080E8AB1AC000000040B4524940000000C0FF3F8F4000000040E8AB1AC000000040B45249400C00000013000000CA0800003C0000000600000002000000000000C0FF3F8F4000000040E8AB1AC000000040B4524940000000C0FF3F8F40000000401D721BC000000040266049400C00000013000000
310
D20800003C00000006000000020000000000000000408FC000000080E8AB1AC000000040B45249400000000000408FC000000080F4EB19C0000000C0BE4849400C00000013000000DA0800003C00000006000000020000000000000000408FC000000080F4EB19C0000000C0BE484940000000C0FF3F8F4000000040F4EB19
310
C0000000C0BE4849400C00000013000000E20800003C0000000600000002000000000000C0FF3F8F4000000040F4EB19C0000000C0BE484940000000C0FF3F8F4000000040E8AB1AC000000040B45249400C00000013000000EA0800003C00000006000000020000000000000000408FC000000000EEFFFFBF00000080FFFF
310
4D400000000000408FC0000000009BDF02C0000000409DFE4D400C00000013000000F20800003C0000000600000002000000000000C0FF3F8F40000000809BDF02C0000000409DFE4D40000000C0FF3F8F4000000000EFFFFFBF00000080FFFF4D400C00000013000000FA0800003C00000006000000020000000000000000
310
408FC000000080659019C0000000C0F34449400000000000408FC000000080F4EB19C0000000C0BE4849400C00000013000000020900003C0000000600000002000000000000C0FF3F8F4000000040659019C0000000C0F3444940000000C0FF3F8F4000000040F4EB19C0000000C0BE4849400C000000130000000A090000
310
3C00000006000000020000000000000000408FC0000000C07E0F1DC0000000C0BD4446400000000000408FC000000080ED4F20C0000000C0E0DC46400C00000013000000120900003C00000006000000020000000000000000408FC0000000C07E0F1DC0000000C0BD444640000000C0FF3F8F40000000607E0F1DC0000000
310
C0BD4446400C000000130000001A0900003C0000000600000002000000000000C0FF3F8F4000000020ED4F20C0000000C0E0DC4640000000C0FF3F8F40000000607E0F1DC0000000C0BD4446400C00000013000000220900003C00000006000000020000000000000000408FC000000080ED4F20C0000000C0E0DC46400000
310
00C0FF3F8F4000000020ED4F20C0000000C0E0DC46400C000000130000002A0900003C00000006000000020000000000000000408FC0000000C07E0F1DC0000000C0BD4446400000000000408FC0000000A0F8531BC000000040FAA845400C00000013000000320900003C00000006000000020000000000000000408FC000
310
0000A0F8531BC000000040FAA84540000000C0FF3F8F4000000080F8531BC000000040FAA845400C000000130000003A0900003C0000000600000002000000000000C0FF3F8F40000000607E0F1DC0000000C0BD444640000000C0FF3F8F4000000080F8531BC000000040FAA845400C00000013000000420900003C000000
310
06000000020000000000000000408FC0000000A0F8531BC000000040FAA845400000000000408FC0000000A066C01AC00000008004F244400C000000130000004A0900003C00000006000000020000000000000000408FC0000000A066C01AC00000008004F24440000000C0FF3F8F400000008066C01AC00000008004F244
310
400C00000013000000520900003C0000000600000002000000000000C0FF3F8F4000000080F8531BC000000040FAA84540000000C0FF3F8F400000008066C01AC00000008004F244400C000000130000005A0900003C00000006000000020000000000000000408FC0000000A066C01AC00000008004F24440000000000040
310
8FC0000000802A531BC000000040663944400C00000013000000620900003C00000006000000020000000000000000408FC0000000802A531BC00000004066394440000000C0FF3F8F40000000402A531BC000000040663944400C000000130000006A0900003C0000000600000002000000000000C0FF3F8F400000008066
310
C01AC00000008004F24440000000C0FF3F8F40000000402A531BC000000040663944400C00000013000000720900003C00000006000000020000000000000000408FC0000000802A531BC000000040663944400000000000408FC0000000A0AA141DC000000040C66B43400C000000130000007A0900003C00000006000000
310
020000000000000000408FC0000000A0AA141DC000000040C66B4340000000C0FF3F8F4000000040AA141DC000000040C66B43400C00000013000000820900003C0000000600000002000000000000C0FF3F8F4000000040AA141DC000000040C66B4340000000C0FF3F8F40000000402A531BC000000040663944400C0000
310
00130000008A0900003C00000006000000020000000000000000408FC0000000A0AA141DC000000040C66B43400000000000408FC0000000C0B0C71FC0000000C0B1A742400C00000013000000920900003C00000006000000020000000000000000408FC0000000C0B0C71FC0000000C0B1A74240000000C0FF3F8F400000
310
0080B0C71FC0000000C0B1A742400C000000130000009A0900003C0000000600000002000000000000C0FF3F8F4000000040AA141DC000000040C66B4340000000C0FF3F8F4000000080B0C71FC0000000C0B1A742400C00000013000000A20900003C00000006000000020000000000000000408FC0000000C0B0C71FC000
310
0000C0B1A742400000000000408FC000000020E6A221C0000000C014F341400C00000013000000AA0900003C00000006000000020000000000000000408FC000000020E6A221C0000000C014F34140000000C0FF3F8F4000000020E6A221C0000000C014F341400C00000013000000B20900003C0000000600000002000000
310
000000C0FF3F8F4000000020E6A221C0000000C014F34140000000C0FF3F8F4000000080B0C71FC0000000C0B1A742400C00000013000000BA0900003C00000006000000020000000000000000408FC000000020E6A221C0000000C014F341400000000000408FC000000020CADF23C000000040FC4041400C000000130000
310
00C20900003C00000006000000020000000000000000408FC000000020CADF23C000000040FC404140000000C0FF3F8F4000000020CADF23C000000040FC4041400C00000013000000CA0900003C0000000600000002000000000000C0FF3F8F4000000020E6A221C0000000C014F34140000000C0FF3F8F4000000020CADF
310
23C000000040FC4041400C00000013000000D20900003C00000006000000020000000000000000408FC000000020CADF23C000000040FC4041400000000000408FC000000020705D26C000000040589D40400C00000013000000DA0900003C00000006000000020000000000000000408FC000000020705D26C00000004058
310
9D4040000000C0FF3F8F4000000000705D26C000000040589D40400C00000013000000E20900003C0000000600000002000000000000C0FF3F8F4000000000705D26C000000040589D4040000000C0FF3F8F4000000020CADF23C000000040FC4041400C00000013000000EA0900003C000000060000000200000000000000
310
00408FC000000020705D26C000000040589D40400000000000408FC0000000605E0D29C000000080510040400C00000013000000F20900003C00000006000000020000000000000000408FC0000000605E0D29C00000008051004040000000C0FF3F8F40000000605E0D29C000000080510040400C00000013000000FA0900
310
003C0000000600000002000000000000C0FF3F8F4000000000705D26C000000040589D4040000000C0FF3F8F40000000605E0D29C000000080510040400C00000013000000020A00003C00000006000000020000000000000000408FC0000000605E0D29C000000080510040400000000000408FC00000004014BA2BC00000
310
00A0B6D73E400C000000130000000A0A00003C00000006000000020000000000000000408FC00000004014BA2BC0000000A0B6D73E40000000C0FF3F8F400000004014BA2BC0000000A0B6D73E400C00000013000000120A00003C0000000600000002000000000000C0FF3F8F400000004014BA2BC0000000A0B6D73E4000
310
0000C0FF3F8F40000000605E0D29C000000080510040400C000000130000001A0A00003C00000006000000020000000000000000408FC00000004014BA2BC0000000A0B6D73E400000000000408FC000000040F5762EC0000000A0609E3D400C00000013000000220A00003C00000006000000020000000000000000408FC0
310
00000040F5762EC0000000A0609E3D40000000C0FF3F8F4000000040F5762EC0000000A0609E3D400C000000130000002A0A00003C0000000600000002000000000000C0FF3F8F400000004014BA2BC0000000A0B6D73E40000000C0FF3F8F4000000040F5762EC0000000A0609E3D400C00000013000000320A00003C0000
310
0006000000020000000000000000408FC000000040F5762EC0000000A0609E3D400000000000408FC0000000406F7930C000000080EC6F3C400C000000130000003A0A00003C00000006000000020000000000000000408FC0000000406F7930C000000080EC6F3C40000000C0FF3F8F40000000406F7930C000000080EC6F
310
3C400C00000013000000420A00003C0000000600000002000000000000C0FF3F8F4000000040F5762EC0000000A0609E3D40000000C0FF3F8F40000000406F7930C000000080EC6F3C400C000000130000004A0A00003C00000006000000020000000000000000408FC0000000406F7930C000000080EC6F3C400000000000
310
408FC000000080148931C00000008052423B400C00000013000000520A00003C00000006000000020000000000000000408FC000000080148931C00000008052423B40000000C0FF3F8F4000000080148931C00000008052423B400C000000130000005A0A00003C0000000600000002000000000000C0FF3F8F4000000040
310
6F7930C000000080EC6F3C40000000C0FF3F8F4000000080148931C00000008052423B400C00000013000000620A00003C00000006000000020000000000000000408FC000000080148931C00000008052423B400000000000408FC000000040EA8532C0000000C0D8FA39400C000000130000006A0A00003C000000060000
310
00020000000000000000408FC000000040EA8532C0000000C0D8FA3940000000C0FF3F8F4000000040EA8532C0000000C0D8FA39400C00000013000000720A00003C0000000600000002000000000000C0FF3F8F4000000040EA8532C0000000C0D8FA3940000000C0FF3F8F4000000080148931C00000008052423B400C00
310
0000130000007A0A00003C00000006000000020000000000000000408FC000000040EA8532C0000000C0D8FA39400000000000408FC0000000C06E5933C0000000001BB038400C00000013000000820A00003C00000006000000020000000000000000408FC0000000C06E5933C0000000001BB03840000000C0FF3F8F4000
310
0000C06E5933C0000000001BB038400C000000130000008A0A00003C0000000600000002000000000000C0FF3F8F4000000040EA8532C0000000C0D8FA3940000000C0FF3F8F40000000C06E5933C0000000001BB038400C00000013000000920A00003C00000006000000020000000000000000408FC0000000C06E5933C0
310
000000001BB038400000000000408FC0000000C0640734C000000000325737400C000000130000009A0A00003C00000006000000020000000000000000408FC0000000C0640734C00000000032573740000000C0FF3F8F40000000C0640734C000000000325737400C00000013000000A20A00003C00000006000000020000
310
00000000C0FF3F8F40000000C06E5933C0000000001BB03840000000C0FF3F8F40000000C0640734C000000000325737400C00000013000000AA0A00003C00000006000000020000000000000000408FC0000000C0640734C000000000325737400000000000408FC0000000405D8734C0000000805F0236400C0000001300
310
0000B20A00003C00000006000000020000000000000000408FC0000000405D8734C0000000805F023640000000C0FF3F8F40000000405D8734C0000000805F0236400C00000013000000BA0A00003C0000000600000002000000000000C0FF3F8F40000000C0640734C00000000032573740000000C0FF3F8F40000000405D
310
8734C0000000805F0236400C00000013000000C20A00003C00000006000000020000000000000000408FC0000000405D8734C0000000805F0236400000000000408FC000000040C7DB34C00000004007A134400C00000013000000CA0A00003C00000006000000020000000000000000408FC000000040C7DB34C000000040
310
07A13440000000C0FF3F8F4000000040C7DB34C00000004007A134400C00000013000000D20A00003C0000000600000002000000000000C0FF3F8F4000000040C7DB34C00000004007A13440000000C0FF3F8F40000000405D8734C0000000805F0236400C00000013000000DA0A00003C0000000600000002000000000000
310
0000408FC000000040C7DB34C00000004007A134400000000000408FC000000080C0FA34C0000000004E3D33400C00000013000000E20A00003C00000006000000020000000000000000408FC000000080C0FA34C0000000004E3D3340000000C0FF3F8F4000000080C0FA34C0000000004E3D33400C00000013000000EA0A
310
00003C0000000600000002000000000000C0FF3F8F4000000040C7DB34C00000004007A13440000000C0FF3F8F4000000080C0FA34C0000000004E3D33400C00000013000000F20A00003C00000006000000020000000000000000408FC000000080C0FA34C0000000004E3D33400000000000408FC00000000090DE34C000
310
000080E1D131400C00000013000000FA0A00003C00000006000000020000000000000000408FC00000000090DE34C000000080E1D13140000000C0FF3F8F400000000090DE34C000000080E1D131400C00000013000000020B00003C0000000600000002000000000000C0FF3F8F4000000080C0FA34C0000000004E3D3340
310
000000C0FF3F8F400000000090DE34C000000080E1D131400C000000130000000A0B00003C00000006000000020000000000000000408FC00000000090DE34C000000080E1D131400000000000408FC0000000006A8534C000000000EE8030400C00000013000000120B00003C00000006000000020000000000000000408F
310
C0000000006A8534C000000000EE803040000000C0FF3F8F40000000006A8534C000000000EE8030400C000000130000001A0B00003C0000000600000002000000000000C0FF3F8F400000000090DE34C000000080E1D13140000000C0FF3F8F40000000006A8534C000000000EE8030400C00000013000000220B00003C00
310
000006000000020000000000000000408FC0000000006A8534C000000000EE8030400000000000408FC000000000D7ED33C00000004054802E400C000000130000002A0B00003C00000006000000020000000000000000408FC000000000D7ED33C00000004054802E40000000C0FF3F8F4000000000D7ED33C00000004054
310
802E400C00000013000000320B00003C0000000600000002000000000000C0FF3F8F4000000000D7ED33C00000004054802E40000000C0FF3F8F40000000006A8534C000000000EE8030400C000000130000003A0B00003C00000006000000020000000000000000408FC000000000D7ED33C00000004054802E4000000000
310
00408FC0000000C0EF0B33C0000000C02C0B2C400C00000013000000420B00003C00000006000000020000000000000000408FC0000000C0EF0B33C0000000C02C0B2C40000000C0FF3F8F40000000C0EF0B33C0000000C02C0B2C400C000000130000004A0B00003C0000000600000002000000000000C0FF3F8F40000000
310
00D7ED33C00000004054802E40000000C0FF3F8F40000000C0EF0B33C0000000C02C0B2C400C00000013000000520B00003C00000006000000020000000000000000408FC0000000C0EF0B33C0000000C02C0B2C400000000000408FC0000000402DCC31C000000040C19829400C000000130000005A0B00003C0000000600
310
0000020000000000000000408FC0000000402DCC31C000000040C1982940000000C0FF3F8F40000000402DCC31C000000040C19829400C00000013000000620B00003C0000000600000002000000000000C0FF3F8F40000000C0EF0B33C0000000C02C0B2C40000000C0FF3F8F40000000402DCC31C000000040C19829400C
310
000000130000006A0B00003C00000006000000020000000000000000408FC0000000402DCC31C000000040C19829400000000000408FC000000040C92630C0000000C0663C27400C00000013000000720B00003C00000006000000020000000000000000408FC000000040C92630C0000000C0663C2740000000C0FF3F8F40
310
00000040C92630C0000000C0663C27400C000000130000007A0B00003C0000000600000002000000000000C0FF3F8F40000000402DCC31C000000040C1982940000000C0FF3F8F4000000040C92630C0000000C0663C27400C00000013000000820B00003C00000006000000020000000000000000408FC000000040C92630
310
C0000000C0663C27400000000000408FC0000000409A7C2DC0000000C023A825400C000000130000008A0B00003C00000006000000020000000000000000408FC0000000409A7C2DC0000000C023A82540000000C0FF3F8F40000000409A7C2DC0000000C023A825400C00000013000000920B00003C000000060000000200
310
0000000000C0FF3F8F40000000409A7C2DC0000000C023A82540000000C0FF3F8F4000000040C92630C0000000C0663C27400C000000130000009A0B00003C00000006000000020000000000000000408FC000000080C3E521C000000040202F47400000000000408FC000000080ED4F20C0000000C0E0DC46400C00000013
310
000000A20B00003C0000000600000002000000000000C0FF3F8F4000000020ED4F20C0000000C0E0DC4640000000C0FF3F8F4000000040C3E521C000000040202F47400C00000013000000AA0B00003C00000006000000020000000000000000408FC0000000409A7C2DC0000000C023A825400000000000408FC000000060
310
F6F42BC00000004018EF24400C00000013000000B20B00003C0000000600000002000000000000C0FF3F8F40000000409A7C2DC0000000C023A82540000000C0FF3F8F4000000060F6F42BC00000004018EF24400C00000013000000BA0B00003C00000006000000020000000000000000408FC0000000A056F535C0000000
310
00E0A9BC3F0000000000408FC000000000887035C000000080299414400C00000013000000C20B00003C00000006000000020000000000000000408FC0000000000000EE3E000000C01D094C400000000000408FC000000000EEFFFFBF00000080FFFF4D400C00000013000000CA0B00003C00000006000000020000000000
310
000000408FC0000000000000EE3E000000C01D094C400000000000408FC0000000009BDF02C0000000409DFE4D400C00000013000000D20B00003C00000006000000020000000000000000408FC0000000000000EE3E000000C01D094C400000000000408FC000000000794A08C00000004038F64D400C00000013000000DA
310
0B00003C00000006000000020000000000000000408FC00000000010A1B3BF000000801BE74B400000000000408FC00000000065DD0EC0000000C033E04D400C00000013000000E20B00003C00000006000000020000000000000000408FC00000000010A1B3BF000000801BE74B400000000000408FC0000000C0FD5C12C0
310
0000008088BD4D400C00000013000000EA0B00003C00000006000000020000000000000000408FC00000000010A1B3BF000000801BE74B400000000000408FC0000000C0660915C0000000C05E8F4D400C00000013000000F20B00003C00000006000000020000000000000000408FC0000000000000EE3E00000040E1F649
310
400000000000408FC000000080CB5919C0000000C0E13F49400C00000013000000FA0B00003C00000006000000020000000000000000408FC0000000000000EE3E00000040E1F649400000000000408FC000000080804819C0000000C0A83749400C00000013000000020C00003C0000000600000002000000000000000040
310
8FC0000000000000EE3E00000040E1F649400000000000408FC000000080659019C0000000C0F34449400C000000130000000A0C00003C00000006000000020000000000000000408FC00000000010A1B3BF00000040E3184A400000000000408FC000000080F4EB19C0000000C0BE4849400C00000013000000120C00003C
310
00000006000000020000000000000000408FC00000000010A1B3BF00000040E3184A400000000000408FC0000000801D721BC000000040266049400C000000130000001A0C00003C00000006000000020000000000000000408FC00000000010A1B3BF00000040E3184A400000000000408FC000000080E8AB1AC000000040
310
B45249400C00000013000000220C00003C00000006000000020000000000000000408FC0000000000616D2BF000000C083304A400000000000408FC000000080DD401CC000000000FE7149400C000000130000002A0C00003C00000006000000020000000000000000408FC0000000000616D2BF000000C083304A40000000
310
0000408FC0000000A0041F1DC000000080EB8949400C00000013000000320C00003C00000006000000020000000000000000408FC0000000000616D2BF000000C083304A400000000000408FC0000000A0F8E81DC000000000E6A549400C000000130000003A0C00003C00000006000000020000000000000000408FC00000
310
0000CB32EABF000000803A634A400000000000408FC0000000A03B9D1EC000000040B1C549400C00000013000000420C00003C00000006000000020000000000000000408FC000000000CB32EABF000000803A634A400000000000408FC0000000A0F2391FC00000004072EA49400C000000130000004A0C00003C00000006
310
000000020000000000000000408FC000000000CB32EABF000000803A634A400000000000408FC0000000A056BF1FC0000000004D144A400C00000013000000520C00003C00000006000000020000000000000000408FC000000000E2CEF2BF000000C0E0AB4A400000000000408FC000000060AF1320C00000008087444A40
310
0C000000130000005A0C00003C00000006000000020000000000000000408FC0000000000816D2BF000000407BCF4B400000000000408FC0000000C0F57717C0000000C078554D400C00000013000000620C00003C00000006000000020000000000000000408FC0000000000816D2BF000000407BCF4B400000000000408F
310
C0000000C0768019C00000008037164D400C000000130000006A0C00003C00000006000000020000000000000000408FC0000000000816D2BF000000407BCF4B400000000000408FC0000000C0434C1BC0000000401BCE4C400C00000013000000720C00003C00000006000000020000000000000000408FC000000000CA32
310
EABF00000040C49C4B400000000000408FC0000000C079C91CC000000000B1824C400C000000130000007A0C00003C00000006000000020000000000000000408FC000000000CA32EABF00000040C49C4B400000000000408FC0000000C0760B1EC0000000C06B304C400C00000013000000820C00003C0000000600000002
310
0000000000000000408FC000000000CA32EABF00000040C49C4B400000000000408FC0000000C0D0FE1EC000000080D8E04B400C000000130000008A0C00003C00000006000000020000000000000000408FC000000000E2CEF2BF000000C0E0AB4A400000000000408FC000000060543520C0000000C02C7D4A400C000000
310
13000000920C00003C00000006000000020000000000000000408FC000000000BACCF4BF00000040FFFF4A400000000000408FC000000060C34320C0000000805BB94A400C000000130000009A0C00003C00000006000000020000000000000000408FC000000000E2CEF2BF000000C01D544B400000000000408FC0000000
310
80A8AC1FC00000008072954B400C00000013000000A20C00003C00000006000000020000000000000000408FC000000000E2CEF2BF000000C01D544B400000000000408FC0000000A0C11320C0000000404F474B400C00000013000000AA0C00003C00000006000000020000000000000000408FC000000000BACCF4BF0000
310
0040FFFF4A400000000000408FC000000060DD3820C000000000D6FB4A400C00000013000000B20C00003C00000006000000020000000000000000408FC0000000000000EA3E00000040FFFF47400000000000408FC000000080E9A619C000000040E7A948400C00000013000000BA0C00003C000000060000000200000000
310
00000000408FC000000000E432D3BF0000004099D947400000000000408FC00000000021DB21C000000040651848400C00000013000000C20C00003C00000006000000020000000000000000408FC000000000E432D3BF0000004099D947400000000000408FC000000080C11522C0000000C0A24647400C00000013000000
310
CA0C00003C00000006000000020000000000000000408FC000000000E432D3BF0000004099D947400000000000408FC000000000C70A22C000000040383947400C00000013000000D20C00003C00000006000000020000000000000000408FC000000000E432D3BF0000004099D947400000000000408FC000000080C3E521
310
C000000040202F47400C00000013000000DA0C00003C00000006000000020000000000000000408FC000000000E432D3BF0000004099D947400000000000408FC000000080ED4F20C0000000C0E0DC46400C00000013000000E20C00003C00000006000000020000000000000000408FC000000000E432D3BF0000004099D9
310
47400000000000408FC0000000C07E0F1DC0000000C0BD4446400C00000013000000EA0C00003C00000006000000020000000000000000408FC000000000E432D3BF0000004099D947400000000000408FC0000000A0F8531BC000000040FAA845400C00000013000000F20C00003C00000006000000020000000000000000
310
408FC000000000E432D3BF0000004099D947400000000000408FC0000000A066C01AC00000008004F244400C00000013000000FA0C00003C00000006000000020000000000000000408FC000000000E432D3BF000000403EA041400000000000408FC0000000802A531BC000000040663944400C00000013000000020D0000
310
3C00000006000000020000000000000000408FC000000000E432D3BF000000403EA041400000000000408FC0000000A0AA141DC000000040C66B43400C000000130000000A0D00003C00000006000000020000000000000000408FC0000000003494D5BF00000040AC7D41400000000000408FC0000000C0B0C71FC0000000
310
C0B1A742400C00000013000000120D00003C00000006000000020000000000000000408FC0000000003494D5BF00000040AC7D41400000000000408FC000000020E6A221C0000000C014F341400C000000130000001A0D00003C00000006000000020000000000000000408FC0000000004489DCBF000000C0AB5D41400000
310
000000408FC000000020CADF23C000000040FC4041400C00000013000000220D00003C00000006000000020000000000000000408FC0000000004489DCBF000000C0AB5D41400000000000408FC000000020705D26C000000040589D40400C000000130000002A0D00003C00000006000000020000000000000000408FC000
310
00008050F614C000000000422E3C400000000000408FC0000000605E0D29C000000080510040400C00000013000000320D00003C00000006000000020000000000000000408FC00000008050F614C000000000422E3C400000000000408FC00000004014BA2BC0000000A0B6D73E400C000000130000003A0D00003C000000
310
06000000020000000000000000408FC000000080AE2526C000000000158836400000000000408FC000000040F5762EC0000000A0609E3D400C00000013000000420D00003C00000006000000020000000000000000408FC000000080AE2526C000000000158836400000000000408FC0000000406F7930C000000080EC6F3C
310
400C000000130000004A0D00003C00000006000000020000000000000000408FC000000080A07727C00000008083C335400000000000408FC000000080148931C00000008052423B400C00000013000000520D00003C00000006000000020000000000000000408FC000000080A07727C00000008083C33540000000000040
310
8FC000000040EA8532C0000000C0D8FA39400C000000130000005A0D00003C00000006000000020000000000000000408FC000000080A12D28C00000008046D034400000000000408FC0000000C06E5933C0000000001BB038400C00000013000000620D00003C00000006000000020000000000000000408FC000000080A1
310
2D28C00000008046D034400000000000408FC0000000C0640734C000000000325737400C000000130000006A0D00003C00000006000000020000000000000000408FC000000080B93028C00000000011CD33400000000000408FC0000000405D8734C0000000805F0236400C00000013000000720D00003C00000006000000
310
020000000000000000408FC000000080B93028C00000000011CD33400000000000408FC000000040C7DB34C00000004007A134400C000000130000007A0D00003C00000006000000020000000000000000408FC000000080AA8027C0000000C041D932400000000000408FC000000080C0FA34C0000000004E3D33400C0000
310
0013000000820D00003C00000006000000020000000000000000408FC000000080AA8027C0000000C041D932400000000000408FC00000000090DE34C000000080E1D131400C000000130000008A0D00003C00000006000000020000000000000000408FC000000000A33226C000000080611232400000000000408FC00000
310
00006A8534C000000000EE8030400C00000013000000920D00003C00000006000000020000000000000000408FC000000000A33226C000000080611232400000000000408FC000000000D7ED33C00000004054802E400C000000130000009A0D00003C00000006000000020000000000000000408FC000000040521A24C000
310
0000C00B8231400000000000408FC0000000C0EF0B33C0000000C02C0B2C400C00000013000000A20D00003C00000006000000020000000000000000408FC000000040521A24C0000000C00B8231400000000000408FC0000000402DCC31C000000040C19829400C00000013000000AA0D00003C0000000600000002000000
310
0000000000408FC0000000201E8B20C000000080A29230400000000000408FC000000040C92630C0000000C0663C27400C00000013000000B20D00003C00000006000000020000000000000000408FC0000000201E8B20C000000080A29230400000000000408FC0000000409A7C2DC0000000C023A825400C000000130000
310
00BA0D00003C00000006000000020000000000000000408FC0000000C0D2FF1BC0000000807E812E400000000000408FC000000060F6F42BC00000004018EF24400C00000013000000C20D00003C00000006000000020000000000000000408FC0000000C0ADBE18C00000000088382B400000000000408FC000000060F6F4
310
2BC00000004018EF24400C00000013000000CA0D00003C00000006000000020000000000000000408FC0000000A067E235C00000000080EE9E3F0000000000408FC0000000406B5235C000000080ABD014400C00000013000000D20D00003C00000006000000020000000000000000408FC00000006065C735C00000000000
310
00F4BE0000000000408FC0000000409AD231C00000008064B917400C00000013000000DA0D00003C00000006000000020000000000000000408FC000000000BACCF4BF00000000FBFF13400000000000408FC0000000409AD231C00000008064B917400C00000013000000E20D00003C000000060000000200000000000000
310
00408FC00000006065C735C0000000000000F4BE0000000000408FC000000080E1CEF2BF00000000085F11400C00000013000000EA0D00003C00000006000000020000000000000000408FC0000000C0BA9F17C000000000159927400000000000408FC000000060F6F42BC00000004018EF24400C00000013000000F20D00
310
003C00000006000000020000000000000000408FC00000000030A1B3BF00000000DC381B400000000000408FC000000000D024B1BF00000080C47F23400C00000013000000FA0D00003C00000006000000020000000000000000408FC0000000000816D2BF00000000D97B1A400000000000408FC000000000E806D0BF0000
310
0080B1DD23400C00000013000000020E00003C00000006000000020000000000000000408FC000000000CB32EABF0000000022E618400000000000408FC000000000C8FFDFBF00000080FDFF23400C000000130000000A0E00003C00000006000000020000000000000000408FC0000000000000EA3E000000000000F4BE00
310
00000000408FC00000000020A1B3BF00000000348E09400C00000013000000120E00003C00000006000000020000000000000000408FC0000000000000EA3E000000000000F4BE0000000000408FC0000000000416D2BF000000003A080B400C000000130000001A0E00003C00000006000000020000000000000000408FC0
310
000000000000EA3E000000000000F4BE0000000000408FC000000000CA32EABF00000000A8330E400C00000013000000220E00003C00000006000000020000000000000000408FC000000000CB32EABF0000000022E618400000000000408FC0000000C0BA9F13C000000080FDFF23400C000000130000002A0E00003C0000
310
0006000000020000000000000000408FC000000000E2CEF2BF00000000EEA016400000000000408FC0000000C0152715C000000080ED2624400C00000013000000320E00003C00000006000000020000000000000000408FC000000000BACCF4BF00000000FBFF13400000000000408FC0000000C060D52CC000000000B608
310
1D400C000000130000003A0E00003C00000006000000020000000000000000408FC000000000BACCF4BF00000000FBFF13400000000000408FC000000040F2DE2CC000000000B9D91C400C00000013000000420E00003C00000006000000020000000000000000408FC0000000C0152715C000000080ED2624400000000000
310
408FC0000000C060D52CC000000000B6081D400C000000130000004A0E00003C00000006000000020000000000000000408FC000000000BACCF4BF00000000FBFF13400000000000408FC00000004099F22CC000000000A5B91C400C00000013000000520E00003C00000006000000020000000000000000408FC0000000C0
310
BA9F17C000000080FDFF25400000000000408FC000000060F6F42BC00000004018EF24400C000000130000005A0E00003C00000006000000020000000000000000408FC0000000C0D95117C000000000503C25400000000000408FC0000000C060D52CC000000000B6081D400C00000013000000620E00003C000000060000
310
00020000000000000000408FC0000000C0A47316C000000080089624400000000000408FC0000000C060D52CC000000000B6081D400C000000130000006A0E00003C0000000600000002000000000000C0FF3F8F4000000000887035C00000008029941440000000C0FF3F8F40000000A056F535C000000000E0A9BC3F0C00
310
000013000000720E00003C0000000600000002000000000000C0FF3F8F40000000809BDF02C0000000409DFE4D40000000C0FF3F8F40000000000000EE3E000000801D094C400C000000130000007A0E00003C0000000600000002000000000000C0FF3F8F4000000000EFFFFFBF00000080FFFF4D40000000C0FF3F8F4000
310
0000000000EE3E000000801D094C400C00000013000000820E00003C0000000600000002000000000000C0FF3F8F40000000000000EE3E000000801D094C40000000C0FF3F8F4000000080794A08C00000004038F64D400C000000130000008A0E00003C0000000600000002000000000000C0FF3F8F4000000080FD5C12C0
310
0000008088BD4D40000000C0FF3F8F400000000030A1B3BF000000801BE74B400C00000013000000920E00003C0000000600000002000000000000C0FF3F8F400000008065DD0EC0000000C033E04D40000000C0FF3F8F400000000030A1B3BF000000801BE74B400C000000130000009A0E00003C00000006000000020000
310
00000000C0FF3F8F400000000030A1B3BF000000801BE74B40000000C0FF3F8F4000000080660915C0000000C05E8F4D400C00000013000000A20E00003C0000000600000002000000000000C0FF3F8F4000000040804819C000000080A8374940000000C0FF3F8F40000000000000EC3E00000040E1F649400C0000001300
310
0000AA0E00003C0000000600000002000000000000C0FF3F8F4000000040CB5919C0000000C0E13F4940000000C0FF3F8F40000000000000EC3E00000040E1F649400C00000013000000B20E00003C0000000600000002000000000000C0FF3F8F40000000000000EC3E00000040E1F64940000000C0FF3F8F400000004065
310
9019C0000000C0F34449400C00000013000000BA0E00003C0000000600000002000000000000C0FF3F8F4000000040F4EB19C0000000C0BE484940000000C0FF3F8F400000000040A1B3BF00000040E3184A400C00000013000000C20E00003C0000000600000002000000000000C0FF3F8F400000000040A1B3BF00000040
310
E3184A40000000C0FF3F8F4000000040E8AB1AC000000040B45249400C00000013000000CA0E00003C0000000600000002000000000000C0FF3F8F400000000040A1B3BF00000040E3184A40000000C0FF3F8F40000000401D721BC000000040266049400C00000013000000D20E00003C0000000600000002000000000000
310
C0FF3F8F4000000040DD401CC000000000FE714940000000C0FF3F8F40000000000416D2BF000000C083304A400C00000013000000DA0E00003C0000000600000002000000000000C0FF3F8F40000000000416D2BF000000C083304A40000000C0FF3F8F4000000040041F1DC000000080EB8949400C00000013000000E20E
310
00003C0000000600000002000000000000C0FF3F8F40000000000416D2BF000000C083304A40000000C0FF3F8F4000000040F8E81DC000000000E6A549400C00000013000000EA0E00003C0000000600000002000000000000C0FF3F8F40000000403B9D1EC000000040B1C54940000000C0FF3F8F4000000000CE32EABF00
310
0000803A634A400C00000013000000F20E00003C0000000600000002000000000000C0FF3F8F4000000000CE32EABF000000803A634A40000000C0FF3F8F4000000080F2391FC00000004072EA49400C00000013000000FA0E00003C0000000600000002000000000000C0FF3F8F4000000000CE32EABF000000803A634A40
310
000000C0FF3F8F400000008056BF1FC0000000004D144A400C00000013000000020F00003C0000000600000002000000000000C0FF3F8F4000000060AF1320C00000008087444A40000000C0FF3F8F4000000080E2CEF2BF000000C0E0AB4A400C000000130000000A0F00003C0000000600000002000000000000C0FF3F8F
310
4000000080768019C00000008037164D40000000C0FF3F8F40000000000216D2BF000000407BCF4B400C00000013000000120F00003C0000000600000002000000000000C0FF3F8F4000000080F57717C0000000C078554D40000000C0FF3F8F40000000000216D2BF000000407BCF4B400C000000130000001A0F00003C00
310
00000600000002000000000000C0FF3F8F40000000000216D2BF000000407BCF4B40000000C0FF3F8F4000000080434C1BC0000000401BCE4C400C00000013000000220F00003C0000000600000002000000000000C0FF3F8F4000000060760B1EC0000000C06B304C40000000C0FF3F8F4000000000CD32EABF00000040C4
310
9C4B400C000000130000002A0F00003C0000000600000002000000000000C0FF3F8F400000008079C91CC000000000B1824C40000000C0FF3F8F4000000000CD32EABF00000040C49C4B400C00000013000000320F00003C0000000600000002000000000000C0FF3F8F4000000000CD32EABF00000040C49C4B40000000C0
310
FF3F8F4000000060D0FE1EC000000080D8E04B400C000000130000003A0F00003C0000000600000002000000000000C0FF3F8F4000000080E2CEF2BF000000C0E0AB4A40000000C0FF3F8F4000000060543520C0000000C02C7D4A400C00000013000000420F00003C0000000600000002000000000000C0FF3F8F40000000
310
60C34320C0000000805BB94A40000000C0FF3F8F4000000080BACCF4BF00000040FFFF4A400C000000130000004A0F00003C0000000600000002000000000000C0FF3F8F40000000A0C11320C0000000404F474B40000000C0FF3F8F4000000080E2CEF2BF000000C01D544B400C00000013000000520F00003C0000000600
310
000002000000000000C0FF3F8F4000000060A8AC1FC00000008072954B40000000C0FF3F8F4000000080E2CEF2BF000000C01D544B400C000000130000005A0F00003C0000000600000002000000000000C0FF3F8F4000000080BACCF4BF00000040FFFF4A40000000C0FF3F8F4000000060DD3820C000000000D6FB4A400C
310
00000013000000620F00003C0000000600000002000000000000C0FF3F8F4000000040E9A619C000000040E7A94840000000C0FF3F8F40000000000000EC3E00000040FFFF47400C000000130000006A0F00003C0000000600000002000000000000C0FF3F8F40000000E020DB21C00000004065184840000000C0FF3F8F40
310
00000000E832D3BF0000000099D947400C00000013000000720F00003C0000000600000002000000000000C0FF3F8F4000000000E832D3BF0000000099D94740000000C0FF3F8F40000000C0C60A22C000000040383947400C000000130000007A0F00003C0000000600000002000000000000C0FF3F8F4000000000E832D3
310
BF0000000099D94740000000C0FF3F8F4000000040C11522C0000000C0A24647400C00000013000000820F00003C0000000600000002000000000000C0FF3F8F4000000000E832D3BF0000000099D94740000000C0FF3F8F4000000020ED4F20C0000000C0E0DC46400C000000130000008A0F00003C000000060000000200
310
0000000000C0FF3F8F4000000000E832D3BF0000000099D94740000000C0FF3F8F4000000040C3E521C000000040202F47400C00000013000000920F00003C0000000600000002000000000000C0FF3F8F4000000000E832D3BF0000000099D94740000000C0FF3F8F40000000607E0F1DC0000000C0BD4446400C00000013
310
0000009A0F00003C0000000600000002000000000000C0FF3F8F4000000000E832D3BF0000000099D94740000000C0FF3F8F4000000080F8531BC000000040FAA845400C00000013000000A20F00003C0000000600000002000000000000C0FF3F8F4000000000E832D3BF0000000099D94740000000C0FF3F8F4000000080
310
66C01AC00000008004F244400C00000013000000AA0F00003C0000000600000002000000000000C0FF3F8F4000000040AA141DC000000040C66B4340000000C0FF3F8F4000000000EA32D3BF000000403EA041400C00000013000000B20F00003C0000000600000002000000000000C0FF3F8F40000000402A531BC0000000
310
4066394440000000C0FF3F8F4000000000EA32D3BF000000403EA041400C00000013000000BA0F00003C0000000600000002000000000000C0FF3F8F4000000020E6A221C0000000C014F34140000000C0FF3F8F40000000003A94D5BF00000040AC7D41400C00000013000000C20F00003C00000006000000020000000000
310
00C0FF3F8F4000000080B0C71FC0000000C0B1A74240000000C0FF3F8F40000000003A94D5BF00000040AC7D41400C00000013000000CA0F00003C0000000600000002000000000000C0FF3F8F4000000000705D26C000000040589D4040000000C0FF3F8F40000000004289DCBF000000C0AB5D41400C00000013000000D2
310
0F00003C0000000600000002000000000000C0FF3F8F4000000020CADF23C000000040FC404140000000C0FF3F8F40000000004289DCBF000000C0AB5D41400C00000013000000DA0F00003C0000000600000002000000000000C0FF3F8F400000004014BA2BC0000000A0B6D73E40000000C0FF3F8F400000004050F614C0
310
00000000422E3C400C00000013000000E20F00003C0000000600000002000000000000C0FF3F8F40000000605E0D29C00000008051004040000000C0FF3F8F400000004050F614C000000000422E3C400C00000013000000EA0F00003C0000000600000002000000000000C0FF3F8F4000000040F5762EC0000000A0609E3D
310
40000000C0FF3F8F40000000E0AD2526C000000000158836400C00000013000000F20F00003C0000000600000002000000000000C0FF3F8F40000000E0AD2526C00000000015883640000000C0FF3F8F40000000406F7930C000000080EC6F3C400C00000013000000FA0F00003C0000000600000002000000000000C0FF3F
310
8F4000000040EA8532C0000000C0D8FA3940000000C0FF3F8F4000000020A07727C00000008083C335400C00000013000000021000003C0000000600000002000000000000C0FF3F8F4000000080148931C00000008052423B40000000C0FF3F8F4000000020A07727C00000008083C335400C000000130000000A1000003C
310
0000000600000002000000000000C0FF3F8F40000000C06E5933C0000000001BB03840000000C0FF3F8F4000000020A12D28C00000008046D034400C00000013000000121000003C0000000600000002000000000000C0FF3F8F4000000020A12D28C00000008046D03440000000C0FF3F8F40000000C0640734C000000000
310
325737400C000000130000001A1000003C0000000600000002000000000000C0FF3F8F4000000040C7DB34C00000004007A13440000000C0FF3F8F4000000020B93028C00000000011CD33400C00000013000000221000003C0000000600000002000000000000C0FF3F8F40000000405D8734C0000000805F023640000000
310
C0FF3F8F4000000020B93028C00000000011CD33400C000000130000002A1000003C0000000600000002000000000000C0FF3F8F4000000080C0FA34C0000000004E3D3340000000C0FF3F8F4000000020AA8027C0000000C041D932400C00000013000000321000003C0000000600000002000000000000C0FF3F8F400000
310
0020AA8027C0000000C041D93240000000C0FF3F8F400000000090DE34C000000080E1D131400C000000130000003A1000003C0000000600000002000000000000C0FF3F8F4000000000D7ED33C00000004054802E40000000C0FF3F8F40000000A0A23226C000000080611232400C00000013000000421000003C00000006
310
00000002000000000000C0FF3F8F40000000006A8534C000000000EE803040000000C0FF3F8F40000000A0A23226C000000080611232400C000000130000004A1000003C0000000600000002000000000000C0FF3F8F40000000C0EF0B33C0000000C02C0B2C40000000C0FF3F8F4000000000521A24C0000000C00B823140
310
0C00000013000000521000003C0000000600000002000000000000C0FF3F8F4000000000521A24C0000000C00B823140000000C0FF3F8F40000000402DCC31C000000040C19829400C000000130000005A1000003C0000000600000002000000000000C0FF3F8F40000000409A7C2DC0000000C023A82540000000C0FF3F8F
310
40000000201E8B20C000000080A29230400C00000013000000621000003C0000000600000002000000000000C0FF3F8F4000000040C92630C0000000C0663C2740000000C0FF3F8F40000000201E8B20C000000080A29230400C000000130000006A1000003C0000000600000002000000000000C0FF3F8F4000000060F6F4
310
2BC00000004018EF2440000000C0FF3F8F4000000080D2FF1BC0000000807E812E400C00000013000000721000003C0000000600000002000000000000C0FF3F8F4000000060F6F42BC00000004018EF2440000000C0FF3F8F4000000080ADBE18C00000000088382B400C000000130000007A1000003C0000000600000002
310
000000000000C0FF3F8F40000000006B5235C000000080ABD01440000000C0FF3F8F40000000A067E235C00000000080EE9E3F0C00000013000000821000003C0000000600000002000000000000C0FF3F8F40000000409AD231C00000008064B91740000000C0FF3F8F400000006065C735C0000000000000F0BE0C000000
310
130000008A1000003C0000000600000002000000000000C0FF3F8F400000006065C735C0000000000000F0BE000000C0FF3F8F4000000080E2CEF2BF00000000085F11400C00000013000000921000003C0000000600000002000000000000C0FF3F8F40000000409AD231C00000008064B91740000000C0FF3F8F40000000
310
00BBCCF4BF00000000FBFF13400C000000130000009A1000003C0000000600000002000000000000C0FF3F8F4000000060F6F42BC00000004018EF2440000000C0FF3F8F4000000040BA9F17C000000000159927400C00000013000000A21000003C0000000600000002000000000000C0FF3F8F4000000000F024B1BF0000
310
0080C47F2340000000C0FF3F8F400000000040A1B3BF00000000DC381B400C00000013000000AA1000003C0000000600000002000000000000C0FF3F8F4000000000EA06D0BF00000080B1DD2340000000C0FF3F8F40000000000416D2BF00000000D97B1A400C00000013000000B21000003C000000060000000200000000
310
0000C0FF3F8F4000000000C2FFDFBF00000080FDFF2340000000C0FF3F8F4000000000CE32EABF0000000022E618400C00000013000000BA1000003C0000000600000002000000000000C0FF3F8F400000000030A1B3BF00000000348E0940000000C0FF3F8F40000000000000EE3E000000000000F0BE0C00000013000000
310
C21000003C0000000600000002000000000000C0FF3F8F40000000000000EE3E000000000000F0BE000000C0FF3F8F40000000000216D2BF000000003A080B400C00000013000000CA1000003C0000000600000002000000000000C0FF3F8F40000000000000EE3E000000000000F0BE000000C0FF3F8F4000000000CD32EA
310
BF00000000A8330E400C00000013000000D21000003C0000000600000002000000000000C0FF3F8F4000000000CE32EABF0000000022E61840000000C0FF3F8F4000000040BA9F13C000000080FDFF23400C00000013000000DA1000003C0000000600000002000000000000C0FF3F8F4000000040152715C000000080ED26
310
2440000000C0FF3F8F4000000000E3CEF2BF00000000EEA016400C00000013000000E21000003C0000000600000002000000000000C0FF3F8F4000000000BBCCF4BF00000000FBFF1340000000C0FF3F8F4000000040F2DE2CC000000000B9D91C400C00000013000000EA1000003C0000000600000002000000000000C0FF
310
3F8F4000000000BBCCF4BF00000000FBFF1340000000C0FF3F8F400000008060D52CC000000000B6081D400C00000013000000F21000003C0000000600000002000000000000C0FF3F8F4000000040152715C000000080ED262440000000C0FF3F8F400000008060D52CC000000000B6081D400C00000013000000FA100000
310
3C0000000600000002000000000000C0FF3F8F4000000000BBCCF4BF00000000FBFF1340000000C0FF3F8F400000004099F22CC000000000A5B91C400C00000013000000021100003C0000000600000002000000000000C0FF3F8F4000000060F6F42BC00000004018EF2440000000C0FF3F8F4000000040BA9F17C0000000
310
80FDFF25400C000000130000000A1100003C0000000600000002000000000000C0FF3F8F400000008060D52CC000000000B6081D40000000C0FF3F8F4000000040D95117C000000000503C25400C00000013000000121100003C0000000600000002000000000000C0FF3F8F400000008060D52CC000000000B6081D400000
310
00C0FF3F8F4000000040A47316C00000008008962440
100
AcDbSubDMesh
 71
     2
 72
     0
 91
        0
 92
      250
 10
-1000.0
 20
-21.49527740478516
 30
5.025419235229492
 10
-1000.0
 20
-21.97788429260254
 30
0.2199687957763672
 10
-1000.0
 20
-21.95835304260254
 30
0.1119670867919922
 10
-1000.0
 20
-21.8843936920166
 30
0.0302066802978516
 10
-1000.0
 20
-21.77889060974121
 30
-0.0000190734863281
 10
-1000.0
 20
0.0000123977661133
 30
-0.0000190734863281
 10
-1000.0
 20
0.0000133514404297
 30
2.928749084472656
 10
-1000.0
 20
-0.0766773223876953
 30
3.194435119628906
 10
-1000.0
 20
-0.2825937271118164
 30
3.379016876220703
 10
-1000.0
 20
-0.818699836730957
 30
3.775222778320312
 10
-1000.0
 20
-1.175508022308349
 30
4.342803955078125
 10
-1000.0
 20
-1.299982070922851
 30
4.999980926513671
 10
-1000.0
 20
-1.175508499145507
 30
5.657157897949218
 10
-1000.0
 20
-0.8187003135681152
 30
6.224739074707031
 10
-1000.0
 20
-0.2825946807861328
 30
6.62094497680664
 10
-1000.0
 20
-0.0766782760620117
 30
6.805526733398437
 10
-1000.0
 20
0.0000133514404297
 30
7.071212768554687
 10
-1000.0
 20
0.0000143051147461
 30
9.499980926513671
 10
-1000.0
 20
-0.0669679641723633
 30
9.74954605102539
 10
-1000.0
 20
-0.2504215240478516
 30
9.932994842529296
 10
-1000.0
 20
-0.4999866485595704
 30
9.999980926513671
 10
-1000.0
 20
-4.905985832214355
 30
9.999980926513671
 10
-1000.0
 20
-5.288168907165527
 30
10.07603073120117
 10
-1000.0
 20
-5.612933158874511
 30
10.29303359985351
 10
-1000.0
 20
-5.829932212829589
 30
10.6177978515625
 10
-1000.0
 20
-5.905985832214355
 30
10.99998092651367
 10
-1000.0
 20
-5.905985832214355
 30
11.79898834228515
 10
-1000.0
 20
-6.186209678649902
 30
13.61041259765625
 10
-1000.0
 20
-6.99982738494873
 30
15.2529182434082
 10
-1000.0
 20
-8.271714210510253
 30
16.57279205322265
 10
-1000.0
 20
-10.05140876770019
 30
17.50799179077148
 10
-1000.0
 20
-11.09889984130859
 30
18.07180023193359
 10
-1000.0
 20
-11.75130081176757
 30
18.84865951538086
 10
-1000.0
 20
-12.09516525268554
 30
19.80104064941406
 10
-1000.0
 20
-12.0891227722168
 30
20.81357574462891
 10
-1000.0
 20
-11.73364639282226
 30
21.76372528076172
 10
-1000.0
 20
-11.0735969543457
 30
22.53157043457031
 10
-1000.0
 20
-5.240541458129882
 30
28.18069458007812
 10
-1000.0
 20
-0.4458780288696289
 30
34.73180389404297
 10
-1000.0
 20
-0.3371706008911133
 30
34.98181915283203
 10
-1000.0
 20
-0.2999811172485351
 30
35.25189971923828
 10
-1000.0
 20
-0.2999811172485351
 30
47.69998931884765
 10
-1000.0
 20
0.0000123977661133
 30
47.9999771118164
 10
-1000.0
 20
0.0000143051147461
 30
51.92874908447265
 10
-1000.0
 20
-0.0766763687133789
 30
52.1944351196289
 10
-1000.0
 20
-0.2825942039489746
 30
52.37902069091797
 10
-1000.0
 20
-0.8187003135681152
 30
52.77522277832031
 10
-1000.0
 20
-1.175508499145507
 30
53.34279632568359
 10
-1000.0
 20
-1.299982070922851
 30
53.9999771118164
 10
-1000.0
 20
-1.175508499145507
 30
54.65715789794922
 10
-1000.0
 20
-0.818699836730957
 30
55.22473907470703
 10
-1000.0
 20
-0.2825946807861328
 30
55.6209487915039
 10
-1000.0
 20
-0.0766763687133789
 30
55.80552673339844
 10
-1000.0
 20
0.0000143051147461
 30
56.07122039794922
 10
-1000.0
 20
0.0000143051147461
 30
59.99997711181641
 10
-1000.0
 20
-1.999982833862304
 30
59.99998474121094
 10
-1000.0
 20
-6.39101219177246
 30
50.53868865966797
 10
-1000.0
 20
-6.337690353393554
 30
50.49907684326171
 10
-1000.0
 20
-6.320802688598632
 30
50.43483734130859
 10
-1000.0
 20
-6.413000106811523
 30
49.32736968994141
 10
-1000.0
 20
-8.927986145019531
 30
48.19058990478516
 10
-1000.0
 20
-9.042491912841796
 30
46.55184173583984
 10
-1000.0
 20
-9.021049499511718
 30
46.44702911376953
 10
-1000.0
 20
-14.4167537689209
 30
7.258506774902343
 10
-1000.0
 20
-14.43544197082519
 30
7.21261978149414
 10
-1000.0
 20
-14.47382545471191
 30
7.181293487548828
 10
-1000.0
 20
-17.82266616821289
 30
5.931047439575195
 10
-1000.0
 20
-21.32194900512695
 30
5.203779220581054
 10
-1000.0
 20
-21.4395751953125
 30
5.144689559936523
 10
-1000.0
 20
-2.359182357788085
 30
59.98917388916016
 10
-1000.0
 20
-3.03636360168457
 30
59.92359161376953
 10
-1000.0
 20
-3.858102798461914
 30
59.75157928466797
 10
-1000.0
 20
-4.590811729431152
 30
59.48072814941406
 10
-1000.0
 20
-5.259181022644042
 30
59.12007904052734
 10
-1000.0
 20
-5.867148399353027
 30
58.66774749755859
 10
-1000.0
 20
-6.375452995300292
 30
58.17356872558594
 10
-1000.0
 20
-6.824477195739746
 30
57.6102066040039
 10
-1000.0
 20
-7.196753501892089
 30
57.02102661132812
 10
-1000.0
 20
-7.511195182800292
 30
56.37828826904296
 10
-1000.0
 20
-7.748843193054199
 30
55.75660705566406
 10
-1000.0
 20
-7.918611526489257
 30
55.16755676269531
 10
-1000.0
 20
-8.038586616516113
 30
54.5571060180664
 10
-1000.0
 20
-8.111063957214355
 30
53.96746826171875
 10
-1000.0
 20
-8.132349967956542
 30
53.44810485839843
 10
-1000.0
 20
-8.104159355163574
 30
52.97792816162109
 10
-1000.0
 20
-8.038447380065917
 30
52.53538513183594
 10
-1000.0
 20
-7.936853885650634
 30
52.15859985351563
 10
-1000.0
 20
-7.806589603424072
 30
51.83161163330078
 10
-1000.0
 20
-7.653547763824462
 30
51.54447174072266
 10
-1000.0
 20
-7.477510929107666
 30
51.29608154296875
 10
-1000.0
 20
-7.280291080474853
 30
51.07749938964843
 10
-1000.0
 20
-7.063344955444335
 30
50.89056396484375
 10
-1000.0
 20
-6.861440658569335
 30
50.75116729736328
 10
-1000.0
 20
-6.667879104614257
 30
50.64612579345703
 10
-1000.0
 20
-6.480424880981445
 30
50.56832122802735
 10
-1000.0
 20
-7.265131950378417
 30
44.53704071044922
 10
-1000.0
 20
-6.832003116607666
 30
43.32013702392578
 10
-1000.0
 20
-6.687891483306884
 30
41.89076232910156
 10
-1000.0
 20
-6.831216812133789
 30
40.44843292236328
 10
-1000.0
 20
-7.270182132720947
 30
38.84198760986328
 10
-1000.0
 20
-7.945010185241699
 30
37.31011199951172
 10
-1000.0
 20
-8.818161964416503
 30
35.8990707397461
 10
-1000.0
 20
-9.937088966369628
 30
34.50769805908203
 10
-1000.0
 20
-11.18249607086181
 30
33.22925567626953
 10
-1000.0
 20
-12.52611064910889
 30
32.00248718261719
 10
-1000.0
 20
-13.86343574523926
 30
30.84263038635254
 10
-1000.0
 20
-15.23233985900879
 30
29.61866188049317
 10
-1000.0
 20
-16.4743537902832
 30
28.43720245361328
 10
-1000.0
 20
-17.53546905517578
 30
27.25907135009766
 10
-1000.0
 20
-18.52310562133789
 30
25.9798698425293
 10
-1000.0
 20
-19.34934616088867
 30
24.68791198730469
 10
-1000.0
 20
-20.02888107299805
 30
23.34060668945312
 10
-1000.0
 20
-20.52876663208008
 30
22.00926971435547
 10
-1000.0
 20
-20.8585090637207
 30
20.6290168762207
 10
-1000.0
 20
-20.97949981689453
 30
19.23947143554687
 10
-1000.0
 20
-20.869384765625
 30
17.81984710693359
 10
-1000.0
 20
-20.52114868164062
 30
16.50363159179687
 10
-1000.0
 20
-19.92906188964844
 30
15.25064277648926
 10
-1000.0
 20
-19.04662704467773
 30
14.02182579040527
 10
-1000.0
 20
-17.79756546020507
 30
12.79834938049316
 10
-1000.0
 20
-16.15150833129883
 30
11.61797142028808
 10
-1000.0
 20
-14.74336433410644
 30
10.82839775085449
 10
-1000.0
 20
-8.948757171630859
 30
46.36817169189453
 10
-1000.0
 20
-8.156108856201171
 30
45.72560882568359
 10
-1000.0
 20
-13.97844219207764
 30
10.46698188781738
 10
999.9998779296875
 20
-21.49527359008789
 30
5.025419235229492
 10
999.9998779296875
 20
-21.4395751953125
 30
5.144689559936523
 10
999.9998779296875
 20
-21.95835304260254
 30
0.1119670867919922
 10
999.9998779296875
 20
-21.97788429260254
 30
0.2199687957763672
 10
999.9998779296875
 20
-2.359183311462402
 30
59.98917388916016
 10
999.9998779296875
 20
-1.999983787536621
 30
59.99998474121094
 10
999.9998779296875
 20
0.0000143051147461
 30
56.07121276855469
 10
999.9998779296875
 20
0.0000162124633789
 30
59.99997711181641
 10
999.9998779296875
 20
-3.036364555358886
 30
59.92359161376953
 10
999.9998779296875
 20
-4.590810775756835
 30
59.48072814941406
 10
999.9998779296875
 20
-3.85810375213623
 30
59.75157928466797
 10
999.9998779296875
 20
-0.0766782760620117
 30
55.80552673339844
 10
999.9998779296875
 20
-5.259180068969726
 30
59.12007904052734
 10
999.9998779296875
 20
-6.320801734924316
 30
50.43482971191406
 10
999.9998779296875
 20
-6.337689399719238
 30
50.49907684326171
 10
999.9998779296875
 20
0.0000133514404297
 30
51.92874908447265
 10
999.9998779296875
 20
-6.391011238098144
 30
50.53868865966797
 10
999.9998779296875
 20
-6.480423927307128
 30
50.56832122802735
 10
999.9998779296875
 20
-0.0766792297363281
 30
52.1944351196289
 10
999.9998779296875
 20
-6.667878150939941
 30
50.64612579345703
 10
999.9998779296875
 20
-6.861439704895019
 30
50.75116729736328
 10
999.9998779296875
 20
-7.063344001770019
 30
50.89056396484375
 10
999.9998779296875
 20
-0.2825937271118164
 30
52.37902069091797
 10
999.9998779296875
 20
-7.280289649963378
 30
51.07749938964843
 10
999.9998779296875
 20
-7.477509498596191
 30
51.29608154296875
 10
999.9998779296875
 20
-7.653546333312988
 30
51.54447174072266
 10
999.9998779296875
 20
-0.8187017440795898
 30
52.77522277832031
 10
999.9998779296875
 20
-7.806589126586914
 30
51.83161163330078
 10
999.9998779296875
 20
-7.936853408813476
 30
52.15859985351563
 10
999.9998779296875
 20
-8.038447380065917
 30
52.53538513183594
 10
999.9998779296875
 20
-1.175508975982666
 30
53.34279632568359
 10
999.9998779296875
 20
-6.375452041625976
 30
58.17356872558594
 10
999.9998779296875
 20
-5.86714744567871
 30
58.66774749755859
 10
999.9998779296875
 20
-0.2825932502746582
 30
55.6209487915039
 10
999.9998779296875
 20
-6.824476242065429
 30
57.6102066040039
 10
999.9998779296875
 20
-7.511193752288818
 30
56.37828826904296
 10
999.9998779296875
 20
-7.196752548217773
 30
57.02102661132812
 10
999.9998779296875
 20
-0.8187012672424316
 30
55.22473907470703
 10
999.9998779296875
 20
-7.748841762542724
 30
55.75660705566406
 10
999.9998779296875
 20
-8.104159355163574
 30
52.97792816162109
 10
999.9998779296875
 20
-8.132349967956542
 30
53.44810485839843
 10
999.9998779296875
 20
-1.299982547760009
 30
53.9999771118164
 10
999.9998779296875
 20
-8.038586616516113
 30
54.5571060180664
 10
999.9998779296875
 20
-7.918611049652099
 30
55.16755676269531
 10
999.9998779296875
 20
-1.175508975982666
 30
54.65715789794922
 10
999.9998779296875
 20
-8.111063957214355
 30
53.96746826171875
 10
999.9998779296875
 20
-6.412999153137207
 30
49.32736968994141
 10
999.9998779296875
 20
0.0000133514404297
 30
47.9999771118164
 10
999.9998779296875
 20
-8.927985191345214
 30
48.19058990478516
 10
999.9998779296875
 20
-0.2999820709228515
 30
47.69998168945313
 10
999.9998779296875
 20
-9.021047592163085
 30
46.44702911376953
 10
999.9998779296875
 20
-9.042490005493164
 30
46.55184173583984
 10
999.9998779296875
 20
-8.156105995178222
 30
45.72560882568359
 10
999.9998779296875
 20
-8.948755264282226
 30
46.36817169189453
 10
999.9998779296875
 20
-7.265130519866943
 30
44.53704071044922
 10
999.9998779296875
 20
-6.832002639770507
 30
43.32013702392578
 10
999.9998779296875
 20
-6.687891006469726
 30
41.89076232910156
 10
999.9998779296875
 20
-7.270180702209472
 30
38.84198760986328
 10
999.9998779296875
 20
-6.831215858459472
 30
40.44843292236328
 10
999.9998779296875
 20
-0.2999825477600098
 30
35.25189971923828
 10
999.9998779296875
 20
-8.818161964416503
 30
35.8990707397461
 10
999.9998779296875
 20
-7.945009231567382
 30
37.31011199951172
 10
999.9998779296875
 20
-0.3371720314025879
 30
34.98181915283203
 10
999.9998779296875
 20
-11.1824951171875
 30
33.22925567626953
 10
999.9998779296875
 20
-9.937088966369628
 30
34.50769805908203
 10
999.9998779296875
 20
-0.4458775520324707
 30
34.73180389404297
 10
999.9998779296875
 20
-13.86343574523926
 30
30.84263038635254
 10
999.9998779296875
 20
-12.52611064910889
 30
32.00248718261719
 10
999.9998779296875
 20
-5.240540504455566
 30
28.18069458007812
 10
999.9998779296875
 20
-15.23233985900879
 30
29.61866188049317
 10
999.9998779296875
 20
-11.07359218597412
 30
22.53157043457031
 10
999.9998779296875
 20
-16.4743537902832
 30
28.43720245361328
 10
999.9998779296875
 20
-18.52310562133789
 30
25.9798698425293
 10
999.9998779296875
 20
-17.53546905517578
 30
27.25907135009766
 10
999.9998779296875
 20
-11.73364353179931
 30
21.76372528076172
 10
999.9998779296875
 20
-19.34934616088867
 30
24.68791198730469
 10
999.9998779296875
 20
-12.08911991119385
 30
20.81357574462891
 10
999.9998779296875
 20
-20.02888107299805
 30
23.34060668945312
 10
999.9998779296875
 20
-20.8585090637207
 30
20.6290168762207
 10
999.9998779296875
 20
-20.52876663208008
 30
22.00926971435547
 10
999.9998779296875
 20
-12.0951623916626
 30
19.80104064941406
 10
999.9998779296875
 20
-20.97949981689453
 30
19.23947143554687
 10
999.9998779296875
 20
-11.75129795074463
 30
18.84865951538086
 10
999.9998779296875
 20
-20.869384765625
 30
17.81984710693359
 10
999.9998779296875
 20
-19.92906188964844
 30
15.25064277648926
 10
999.9998779296875
 20
-20.52114868164062
 30
16.50363159179687
 10
999.9998779296875
 20
-11.09889698028564
 30
18.07180023193359
 10
999.9998779296875
 20
-19.04662704467773
 30
14.02182579040527
 10
999.9998779296875
 20
-10.05140686035156
 30
17.50799179077148
 10
999.9998779296875
 20
-17.79756546020507
 30
12.79834938049316
 10
999.9998779296875
 20
-14.74336433410644
 30
10.82839775085449
 10
999.9998779296875
 20
-16.15150833129883
 30
11.61797142028808
 10
999.9998779296875
 20
-8.271714210510253
 30
16.57279205322265
 10
999.9998779296875
 20
-13.97844219207764
 30
10.46698188781738
 10
999.9998779296875
 20
-6.999826431274414
 30
15.2529182434082
 10
999.9998779296875
 20
-6.186208724975585
 30
13.61041259765625
 10
999.9998779296875
 20
-21.32194519042969
 30
5.203779220581054
 10
999.9998779296875
 20
-21.8843936920166
 30
0.0302066802978516
 10
999.9998779296875
 20
-17.82266616821289
 30
5.931047439575195
 10
999.9998779296875
 20
-21.77889060974121
 30
-0.0000152587890625
 10
999.9998779296875
 20
-1.299983024597167
 30
4.999980926513671
 10
999.9998779296875
 20
-1.175508975982666
 30
4.342803955078125
 10
999.9998779296875
 20
-5.905983924865722
 30
11.79898834228515
 10
999.9998779296875
 20
-0.0669698715209961
 30
9.74954605102539
 10
999.9998779296875
 20
0.0000143051147461
 30
9.499980926513671
 10
999.9998779296875
 20
0.0000133514404297
 30
7.071212768554687
 10
999.9998779296875
 20
-0.0766792297363281
 30
6.805526733398437
 10
999.9998779296875
 20
-0.2504220008850098
 30
9.932994842529296
 10
999.9998779296875
 20
-0.2825937271118164
 30
6.62094497680664
 10
999.9998779296875
 20
-0.4999852180480957
 30
9.999980926513671
 10
999.9998779296875
 20
-0.8187017440795898
 30
6.224739074707031
 10
999.9998779296875
 20
-0.0766782760620117
 30
3.194435119628906
 10
999.9998779296875
 20
0.0000143051147461
 30
2.928749084472656
 10
999.9998779296875
 20
0.0000143051147461
 30
-0.0000152587890625
 10
999.9998779296875
 20
-0.2825932502746582
 30
3.379016876220703
 10
999.9998779296875
 20
-0.8187012672424316
 30
3.775222778320312
 10
999.9998779296875
 20
-4.905983924865722
 30
9.999980926513671
 10
999.9998779296875
 20
-5.288166999816894
 30
10.07603073120117
 10
999.9998779296875
 20
-1.175509452819824
 30
5.657157897949218
 10
999.9998779296875
 20
-14.43544197082519
 30
7.21261978149414
 10
999.9998779296875
 20
-14.41675186157226
 30
7.258506774902343
 10
999.9998779296875
 20
-14.47382545471191
 30
7.181293487548828
 10
999.9998779296875
 20
-5.905983924865722
 30
10.99998092651367
 10
999.9998779296875
 20
-5.829930305480957
 30
10.6177978515625
 10
999.9998779296875
 20
-5.612931251525878
 30
10.29303359985351
 93
     1393
 90
        4
 90
        3
 90
        4
 90
      224
 90
      222
 90
        4
 90
        4
 90
        5
 90
      238
 90
      224
 90
        4
 90
        5
 90
        6
 90
      237
 90
      238
 90
        4
 90
        6
 90
        7
 90
      236
 90
      237
 90
        4
 90
        7
 90
        8
 90
      239
 90
      236
 90
        4
 90
        8
 90
        9
 90
      240
 90
      239
 90
        4
 90
        9
 90
       10
 90
      226
 90
      240
 90
        4
 90
       10
 90
       11
 90
      225
 90
      226
 90
        4
 90
       11
 90
       12
 90
      243
 90
      225
 90
        4
 90
       12
 90
       13
 90
      235
 90
      243
 90
        4
 90
       13
 90
       14
 90
      233
 90
      235
 90
        4
 90
       14
 90
       15
 90
      231
 90
      233
 90
        4
 90
       15
 90
       16
 90
      230
 90
      231
 90
        4
 90
       16
 90
       17
 90
      229
 90
      230
 90
        4
 90
       17
 90
       18
 90
      228
 90
      229
 90
        4
 90
       18
 90
       19
 90
      232
 90
      228
 90
        4
 90
       19
 90
       20
 90
      234
 90
      232
 90
        4
 90
       20
 90
       21
 90
      241
 90
      234
 90
        4
 90
       21
 90
       22
 90
      242
 90
      241
 90
        4
 90
       22
 90
       23
 90
      249
 90
      242
 90
        4
 90
       23
 90
       24
 90
      248
 90
      249
 90
        4
 90
       24
 90
       25
 90
      247
 90
      248
 90
        4
 90
       25
 90
       26
 90
      227
 90
      247
 90
        4
 90
       26
 90
       27
 90
      220
 90
      227
 90
        4
 90
       27
 90
       28
 90
      219
 90
      220
 90
        4
 90
       28
 90
       29
 90
      217
 90
      219
 90
        4
 90
       29
 90
       30
 90
      213
 90
      217
 90
        4
 90
       30
 90
       31
 90
      211
 90
      213
 90
        4
 90
       31
 90
       32
 90
      207
 90
      211
 90
        4
 90
       32
 90
       33
 90
      205
 90
      207
 90
        4
 90
       33
 90
       34
 90
      201
 90
      205
 90
        4
 90
       34
 90
       35
 90
      199
 90
      201
 90
        4
 90
       35
 90
       36
 90
      195
 90
      199
 90
        4
 90
       36
 90
       37
 90
      193
 90
      195
 90
        4
 90
       37
 90
       38
 90
      190
 90
      193
 90
        4
 90
       38
 90
       39
 90
      187
 90
      190
 90
        4
 90
       39
 90
       40
 90
      184
 90
      187
 90
        4
 90
       40
 90
       41
 90
      174
 90
      184
 90
        4
 90
       41
 90
       42
 90
      172
 90
      174
 90
        4
 90
       42
 90
       43
 90
      140
 90
      172
 90
        4
 90
       43
 90
       44
 90
      143
 90
      140
 90
        4
 90
       44
 90
       45
 90
      147
 90
      143
 90
        4
 90
       45
 90
       46
 90
      151
 90
      147
 90
        4
 90
       46
 90
       47
 90
      155
 90
      151
 90
        4
 90
       47
 90
       48
 90
      166
 90
      155
 90
        4
 90
       48
 90
       49
 90
      169
 90
      166
 90
        4
 90
       49
 90
       50
 90
      162
 90
      169
 90
        4
 90
       50
 90
       51
 90
      158
 90
      162
 90
        4
 90
       51
 90
       52
 90
      136
 90
      158
 90
        4
 90
       52
 90
       53
 90
      131
 90
      136
 90
        4
 90
       53
 90
       54
 90
      132
 90
      131
 90
        4
 90
       54
 90
       55
 90
      130
 90
      132
 90
        4
 90
       56
 90
       57
 90
      139
 90
      141
 90
        4
 90
       57
 90
       58
 90
      138
 90
      139
 90
        4
 90
       58
 90
       59
 90
      171
 90
      138
 90
        4
 90
       59
 90
       60
 90
      173
 90
      171
 90
        4
 90
       60
 90
       61
 90
      176
 90
      173
 90
        4
 90
       61
 90
       62
 90
      175
 90
      176
 90
        4
 90
       62
 90
      122
 90
      178
 90
      175
 90
        4
 90
      124
 90
       63
 90
      245
 90
      218
 90
        4
 90
       63
 90
       64
 90
      244
 90
      245
 90
        4
 90
       64
 90
       65
 90
      246
 90
      244
 90
        4
 90
       65
 90
       66
 90
      223
 90
      246
 90
        4
 90
       66
 90
       67
 90
      221
 90
      223
 90
        4
 90
       67
 90
       68
 90
      126
 90
      221
 90
        4
 90
       68
 90
        0
 90
      125
 90
      126
 90
        4
 90
        0
 90
        1
 90
      128
 90
      125
 90
        4
 90
        1
 90
        2
 90
      127
 90
      128
 90
        4
 90
        2
 90
        3
 90
      222
 90
      127
 90
        4
 90
       69
 90
       70
 90
      133
 90
      129
 90
        4
 90
       70
 90
       71
 90
      135
 90
      133
 90
        4
 90
       71
 90
       72
 90
      134
 90
      135
 90
        4
 90
       72
 90
       73
 90
      137
 90
      134
 90
        4
 90
       73
 90
       74
 90
      157
 90
      137
 90
        4
 90
       74
 90
       75
 90
      156
 90
      157
 90
        4
 90
       75
 90
       76
 90
      159
 90
      156
 90
        4
 90
       76
 90
       77
 90
      161
 90
      159
 90
        4
 90
       77
 90
       78
 90
      160
 90
      161
 90
        4
 90
       78
 90
       79
 90
      163
 90
      160
 90
        4
 90
       79
 90
       80
 90
      168
 90
      163
 90
        4
 90
       80
 90
       81
 90
      167
 90
      168
 90
        4
 90
       81
 90
       82
 90
      170
 90
      167
 90
        4
 90
       82
 90
       83
 90
      165
 90
      170
 90
        4
 90
       83
 90
       84
 90
      164
 90
      165
 90
        4
 90
       84
 90
       85
 90
      154
 90
      164
 90
        4
 90
       85
 90
       86
 90
      153
 90
      154
 90
        4
 90
       86
 90
       87
 90
      152
 90
      153
 90
        4
 90
       87
 90
       88
 90
      150
 90
      152
 90
        4
 90
       88
 90
       89
 90
      149
 90
      150
 90
        4
 90
       89
 90
       90
 90
      148
 90
      149
 90
        4
 90
       90
 90
       91
 90
      146
 90
      148
 90
        4
 90
       91
 90
       92
 90
      145
 90
      146
 90
        4
 90
       92
 90
       93
 90
      144
 90
      145
 90
        4
 90
       93
 90
       94
 90
      142
 90
      144
 90
        4
 90
       55
 90
       69
 90
      129
 90
      130
 90
        4
 90
       94
 90
       56
 90
      141
 90
      142
 90
        4
 90
      123
 90
       95
 90
      179
 90
      177
 90
        4
 90
       95
 90
       96
 90
      180
 90
      179
 90
        4
 90
       96
 90
       97
 90
      181
 90
      180
 90
        4
 90
       97
 90
       98
 90
      183
 90
      181
 90
        4
 90
       98
 90
       99
 90
      182
 90
      183
 90
        4
 90
       99
 90
      100
 90
      186
 90
      182
 90
        4
 90
      100
 90
      101
 90
      185
 90
      186
 90
        4
 90
      101
 90
      102
 90
      189
 90
      185
 90
        4
 90
      102
 90
      103
 90
      188
 90
      189
 90
        4
 90
      103
 90
      104
 90
      192
 90
      188
 90
        4
 90
      104
 90
      105
 90
      191
 90
      192
 90
        4
 90
      105
 90
      106
 90
      194
 90
      191
 90
        4
 90
      106
 90
      107
 90
      196
 90
      194
 90
        4
 90
      107
 90
      108
 90
      198
 90
      196
 90
        4
 90
      108
 90
      109
 90
      197
 90
      198
 90
        4
 90
      109
 90
      110
 90
      200
 90
      197
 90
        4
 90
      110
 90
      111
 90
      202
 90
      200
 90
        4
 90
      111
 90
      112
 90
      204
 90
      202
 90
        4
 90
      112
 90
      113
 90
      203
 90
      204
 90
        4
 90
      113
 90
      114
 90
      206
 90
      203
 90
        4
 90
      114
 90
      115
 90
      208
 90
      206
 90
        4
 90
      115
 90
      116
 90
      210
 90
      208
 90
        4
 90
      116
 90
      117
 90
      209
 90
      210
 90
        4
 90
      117
 90
      118
 90
      212
 90
      209
 90
        4
 90
      118
 90
      119
 90
      214
 90
      212
 90
        4
 90
      119
 90
      120
 90
      216
 90
      214
 90
        4
 90
      120
 90
      121
 90
      215
 90
      216
 90
        4
 90
      122
 90
      123
 90
      177
 90
      178
 90
        4
 90
      121
 90
      124
 90
      218
 90
      215
 90
        4
 90
        0
 90
       68
 90
        2
 90
        1
 90
        3
 90
       69
 90
       55
 90
       53
 90
        3
 90
       55
 90
       54
 90
       53
 90
        3
 90
       70
 90
       69
 90
       53
 90
        3
 90
       72
 90
       71
 90
       52
 90
        4
 90
       71
 90
       70
 90
       53
 90
       52
 90
        3
 90
       73
 90
       72
 90
       52
 90
        3
 90
       58
 90
       57
 90
       43
 90
        3
 90
       57
 90
       56
 90
       43
 90
        4
 90
       56
 90
       94
 90
       44
 90
       43
 90
        3
 90
       93
 90
       92
 90
       44
 90
        3
 90
       94
 90
       93
 90
       44
 90
        4
 90
       92
 90
       91
 90
       45
 90
       44
 90
        3
 90
       91
 90
       90
 90
       45
 90
        3
 90
       90
 90
       89
 90
       45
 90
        4
 90
       89
 90
       88
 90
       46
 90
       45
 90
        3
 90
       88
 90
       87
 90
       46
 90
        3
 90
       87
 90
       86
 90
       46
 90
        4
 90
       86
 90
       85
 90
       47
 90
       46
 90
        3
 90
       75
 90
       74
 90
       51
 90
        4
 90
       74
 90
       73
 90
       52
 90
       51
 90
        3
 90
       76
 90
       75
 90
       51
 90
        3
 90
       78
 90
       77
 90
       50
 90
        4
 90
       77
 90
       76
 90
       51
 90
       50
 90
        3
 90
       79
 90
       78
 90
       50
 90
        3
 90
       85
 90
       84
 90
       47
 90
        4
 90
       84
 90
       83
 90
       48
 90
       47
 90
        3
 90
       81
 90
       80
 90
       49
 90
        4
 90
       80
 90
       79
 90
       50
 90
       49
 90
        3
 90
       83
 90
       82
 90
       48
 90
        4
 90
       82
 90
       81
 90
       49
 90
       48
 90
        4
 90
       59
 90
       58
 90
       43
 90
       42
 90
        4
 90
       60
 90
       59
 90
       42
 90
       41
 90
        3
 90
       62
 90
       61
 90
       41
 90
        3
 90
       61
 90
       60
 90
       41
 90
        3
 90
      123
 90
      122
 90
       41
 90
        3
 90
      122
 90
       62
 90
       41
 90
        3
 90
       95
 90
      123
 90
       41
 90
        3
 90
       96
 90
       95
 90
       41
 90
        3
 90
       97
 90
       96
 90
       41
 90
        3
 90
       99
 90
       98
 90
       40
 90
        4
 90
       98
 90
       97
 90
       41
 90
       40
 90
        3
 90
      101
 90
      100
 90
       39
 90
        4
 90
      100
 90
       99
 90
       40
 90
       39
 90
        3
 90
      103
 90
      102
 90
       38
 90
        4
 90
      102
 90
      101
 90
       39
 90
       38
 90
        3
 90
      105
 90
      104
 90
       37
 90
        4
 90
      104
 90
      103
 90
       38
 90
       37
 90
        4
 90
      106
 90
      105
 90
       37
 90
       36
 90
        3
 90
      107
 90
      106
 90
       36
 90
        3
 90
      109
 90
      108
 90
       35
 90
        4
 90
      108
 90
      107
 90
       36
 90
       35
 90
        4
 90
      110
 90
      109
 90
       35
 90
       34
 90
        3
 90
      111
 90
      110
 90
       34
 90
        3
 90
      113
 90
      112
 90
       33
 90
        4
 90
      112
 90
      111
 90
       34
 90
       33
 90
        4
 90
      114
 90
      113
 90
       33
 90
       32
 90
        3
 90
      115
 90
      114
 90
       32
 90
        3
 90
      117
 90
      116
 90
       31
 90
        4
 90
      116
 90
      115
 90
       32
 90
       31
 90
        4
 90
      118
 90
      117
 90
       31
 90
       30
 90
        3
 90
      119
 90
      118
 90
       30
 90
        3
 90
      121
 90
      120
 90
       29
 90
        4
 90
      120
 90
      119
 90
       30
 90
       29
 90
        4
 90
      124
 90
      121
 90
       29
 90
       28
 90
        3
 90
      124
 90
       28
 90
       27
 90
        4
 90
       68
 90
       67
 90
        3
 90
        2
 90
        4
 90
       67
 90
       66
 90
        4
 90
        3
 90
        4
 90
       66
 90
       11
 90
       10
 90
        4
 90
        3
 90
      124
 90
       27
 90
       26
 90
        4
 90
       18
 90
       17
 90
       16
 90
       15
 90
        4
 90
       19
 90
       18
 90
       15
 90
       14
 90
        4
 90
       20
 90
       19
 90
       14
 90
       13
 90
        3
 90
        7
 90
        6
 90
        5
 90
        3
 90
        8
 90
        7
 90
        5
 90
        3
 90
        9
 90
        8
 90
        5
 90
        4
 90
       10
 90
        9
 90
        5
 90
        4
 90
        3
 90
       21
 90
       20
 90
       13
 90
        4
 90
       22
 90
       21
 90
       13
 90
       12
 90
        3
 90
       64
 90
       63
 90
       11
 90
        4
 90
       63
 90
       22
 90
       12
 90
       11
 90
        3
 90
       65
 90
       64
 90
       11
 90
        3
 90
       66
 90
       65
 90
       11
 90
        3
 90
      124
 90
       26
 90
       25
 90
        4
 90
       63
 90
      124
 90
       25
 90
       24
 90
        3
 90
       63
 90
       24
 90
       23
 90
        3
 90
       63
 90
       23
 90
       22
 90
        4
 90
      125
 90
      128
 90
      127
 90
      126
 90
        3
 90
      129
 90
      131
 90
      130
 90
        3
 90
      130
 90
      131
 90
      132
 90
        3
 90
      133
 90
      131
 90
      129
 90
        3
 90
      134
 90
      136
 90
      135
 90
        4
 90
      135
 90
      136
 90
      131
 90
      133
 90
        3
 90
      137
 90
      136
 90
      134
 90
        3
 90
      138
 90
      140
 90
      139
 90
        3
 90
      139
 90
      140
 90
      141
 90
        4
 90
      141
 90
      140
 90
      143
 90
      142
 90
        3
 90
      144
 90
      143
 90
      145
 90
        3
 90
      142
 90
      143
 90
      144
 90
        4
 90
      145
 90
      143
 90
      147
 90
      146
 90
        3
 90
      146
 90
      147
 90
      148
 90
        3
 90
      148
 90
      147
 90
      149
 90
        4
 90
      149
 90
      147
 90
      151
 90
      150
 90
        3
 90
      150
 90
      151
 90
      152
 90
        3
 90
      152
 90
      151
 90
      153
 90
        4
 90
      153
 90
      151
 90
      155
 90
      154
 90
        3
 90
      156
 90
      158
 90
      157
 90
        4
 90
      157
 90
      158
 90
      136
 90
      137
 90
        3
 90
      159
 90
      158
 90
      156
 90
        3
 90
      160
 90
      162
 90
      161
 90
        4
 90
      161
 90
      162
 90
      158
 90
      159
 90
        3
 90
      163
 90
      162
 90
      160
 90
        3
 90
      154
 90
      155
 90
      164
 90
        4
 90
      164
 90
      155
 90
      166
 90
      165
 90
        3
 90
      167
 90
      169
 90
      168
 90
        4
 90
      168
 90
      169
 90
      162
 90
      163
 90
        3
 90
      165
 90
      166
 90
      170
 90
        4
 90
      170
 90
      166
 90
      169
 90
      167
 90
        4
 90
      171
 90
      172
 90
      140
 90
      138
 90
        4
 90
      173
 90
      174
 90
      172
 90
      171
 90
        3
 90
      175
 90
      174
 90
      176
 90
        3
 90
      176
 90
      174
 90
      173
 90
        3
 90
      177
 90
      174
 90
      178
 90
        3
 90
      178
 90
      174
 90
      175
 90
        3
 90
      179
 90
      174
 90
      177
 90
        3
 90
      180
 90
      174
 90
      179
 90
        3
 90
      181
 90
      174
 90
      180
 90
        3
 90
      182
 90
      184
 90
      183
 90
        4
 90
      183
 90
      184
 90
      174
 90
      181
 90
        3
 90
      185
 90
      187
 90
      186
 90
        4
 90
      186
 90
      187
 90
      184
 90
      182
 90
        3
 90
      188
 90
      190
 90
      189
 90
        4
 90
      189
 90
      190
 90
      187
 90
      185
 90
        3
 90
      191
 90
      193
 90
      192
 90
        4
 90
      192
 90
      193
 90
      190
 90
      188
 90
        4
 90
      194
 90
      195
 90
      193
 90
      191
 90
        3
 90
      196
 90
      195
 90
      194
 90
        3
 90
      197
 90
      199
 90
      198
 90
        4
 90
      198
 90
      199
 90
      195
 90
      196
 90
        4
 90
      200
 90
      201
 90
      199
 90
      197
 90
        3
 90
      202
 90
      201
 90
      200
 90
        3
 90
      203
 90
      205
 90
      204
 90
        4
 90
      204
 90
      205
 90
      201
 90
      202
 90
        4
 90
      206
 90
      207
 90
      205
 90
      203
 90
        3
 90
      208
 90
      207
 90
      206
 90
        3
 90
      209
 90
      211
 90
      210
 90
        4
 90
      210
 90
      211
 90
      207
 90
      208
 90
        4
 90
      212
 90
      213
 90
      211
 90
      209
 90
        3
 90
      214
 90
      213
 90
      212
 90
        3
 90
      215
 90
      217
 90
      216
 90
        4
 90
      216
 90
      217
 90
      213
 90
      214
 90
        4
 90
      218
 90
      219
 90
      217
 90
      215
 90
        3
 90
      218
 90
      220
 90
      219
 90
        4
 90
      126
 90
      127
 90
      222
 90
      221
 90
        4
 90
      221
 90
      222
 90
      224
 90
      223
 90
        4
 90
      223
 90
      224
 90
      226
 90
      225
 90
        3
 90
      218
 90
      227
 90
      220
 90
        4
 90
      228
 90
      231
 90
      230
 90
      229
 90
        4
 90
      232
 90
      233
 90
      231
 90
      228
 90
        4
 90
      234
 90
      235
 90
      233
 90
      232
 90
        3
 90
      236
 90
      238
 90
      237
 90
        3
 90
      239
 90
      238
 90
      236
 90
        3
 90
      240
 90
      238
 90
      239
 90
        4
 90
      226
 90
      224
 90
      238
 90
      240
 90
        3
 90
      241
 90
      235
 90
      234
 90
        4
 90
      242
 90
      243
 90
      235
 90
      241
 90
        3
 90
      244
 90
      225
 90
      245
 90
        4
 90
      245
 90
      225
 90
      243
 90
      242
 90
        3
 90
      246
 90
      225
 90
      244
 90
        3
 90
      223
 90
      225
 90
      246
 90
        3
 90
      218
 90
      247
 90
      227
 90
        4
 90
      245
 90
      248
 90
      247
 90
      218
 90
        3
 90
      245
 90
      249
 90
      248
 90
        3
 90
      245
 90
      242
 90
      249
 94
      547
 90
        3
 90
        4
 90
        4
 90
      224
 90
      222
 90
      224
 90
        3
 90
      222
 90
        4
 90
        5
 90
        5
 90
      238
 90
      224
 90
      238
 90
        5
 90
        6
 90
        6
 90
      237
 90
      237
 90
      238
 90
        6
 90
        7
 90
        7
 90
      236
 90
      236
 90
      237
 90
        7
 90
        8
 90
        8
 90
      239
 90
      236
 90
      239
 90
        8
 90
        9
 90
        9
 90
      240
 90
      239
 90
      240
 90
        9
 90
       10
 90
       10
 90
      226
 90
      226
 90
      240
 90
       10
 90
       11
 90
       11
 90
      225
 90
      225
 90
      226
 90
       11
 90
       12
 90
       12
 90
      243
 90
      225
 90
      243
 90
       12
 90
       13
 90
       13
 90
      235
 90
      235
 90
      243
 90
       13
 90
       14
 90
       14
 90
      233
 90
      233
 90
      235
 90
       14
 90
       15
 90
       15
 90
      231
 90
      231
 90
      233
 90
       15
 90
       16
 90
       16
 90
      230
 90
      230
 90
      231
 90
       16
 90
       17
 90
       17
 90
      229
 90
      229
 90
      230
 90
       17
 90
       18
 90
       18
 90
      228
 90
      228
 90
      229
 90
       18
 90
       19
 90
       19
 90
      232
 90
      228
 90
      232
 90
       19
 90
       20
 90
       20
 90
      234
 90
      232
 90
      234
 90
       20
 90
       21
 90
       21
 90
      241
 90
      234
 90
      241
 90
       21
 90
       22
 90
       22
 90
      242
 90
      241
 90
      242
 90
       22
 90
       23
 90
       23
 90
      249
 90
      242
 90
      249
 90
       23
 90
       24
 90
       24
 90
      248
 90
      248
 90
      249
 90
       24
 90
       25
 90
       25
 90
      247
 90
      247
 90
      248
 90
       25
 90
       26
 90
       26
 90
      227
 90
      227
 90
      247
 90
       26
 90
       27
 90
       27
 90
      220
 90
      220
 90
      227
 90
       27
 90
       28
 90
       28
 90
      219
 90
      219
 90
      220
 90
       28
 90
       29
 90
       29
 90
      217
 90
      217
 90
      219
 90
       29
 90
       30
 90
       30
 90
      213
 90
      213
 90
      217
 90
       30
 90
       31
 90
       31
 90
      211
 90
      211
 90
      213
 90
       31
 90
       32
 90
       32
 90
      207
 90
      207
 90
      211
 90
       32
 90
       33
 90
       33
 90
      205
 90
      205
 90
      207
 90
       33
 90
       34
 90
       34
 90
      201
 90
      201
 90
      205
 90
       34
 90
       35
 90
       35
 90
      199
 90
      199
 90
      201
 90
       35
 90
       36
 90
       36
 90
      195
 90
      195
 90
      199
 90
       36
 90
       37
 90
       37
 90
      193
 90
      193
 90
      195
 90
       37
 90
       38
 90
       38
 90
      190
 90
      190
 90
      193
 90
       38
 90
       39
 90
       39
 90
      187
 90
      187
 90
      190
 90
       39
 90
       40
 90
       40
 90
      184
 90
      184
 90
      187
 90
       40
 90
       41
 90
       41
 90
      174
 90
      174
 90
      184
 90
       41
 90
       42
 90
       42
 90
      172
 90
      172
 90
      174
 90
       42
 90
       43
 90
       43
 90
      140
 90
      140
 90
      172
 90
       43
 90
       44
 90
       44
 90
      143
 90
      140
 90
      143
 90
       44
 90
       45
 90
       45
 90
      147
 90
      143
 90
      147
 90
       45
 90
       46
 90
       46
 90
      151
 90
      147
 90
      151
 90
       46
 90
       47
 90
       47
 90
      155
 90
      151
 90
      155
 90
       47
 90
       48
 90
       48
 90
      166
 90
      155
 90
      166
 90
       48
 90
       49
 90
       49
 90
      169
 90
      166
 90
      169
 90
       49
 90
       50
 90
       50
 90
      162
 90
      162
 90
      169
 90
       50
 90
       51
 90
       51
 90
      158
 90
      158
 90
      162
 90
       51
 90
       52
 90
       52
 90
      136
 90
      136
 90
      158
 90
       52
 90
       53
 90
       53
 90
      131
 90
      131
 90
      136
 90
       53
 90
       54
 90
       54
 90
      132
 90
      131
 90
      132
 90
       54
 90
       55
 90
       55
 90
      130
 90
      130
 90
      132
 90
       56
 90
       57
 90
       57
 90
      139
 90
      139
 90
      141
 90
       56
 90
      141
 90
       57
 90
       58
 90
       58
 90
      138
 90
      138
 90
      139
 90
       58
 90
       59
 90
       59
 90
      171
 90
      138
 90
      171
 90
       59
 90
       60
 90
       60
 90
      173
 90
      171
 90
      173
 90
       60
 90
       61
 90
       61
 90
      176
 90
      173
 90
      176
 90
       61
 90
       62
 90
       62
 90
      175
 90
      175
 90
      176
 90
       62
 90
      122
 90
      122
 90
      178
 90
      175
 90
      178
 90
       63
 90
      124
 90
       63
 90
      245
 90
      218
 90
      245
 90
      124
 90
      218
 90
       63
 90
       64
 90
       64
 90
      244
 90
      244
 90
      245
 90
       64
 90
       65
 90
       65
 90
      246
 90
      244
 90
      246
 90
       65
 90
       66
 90
       66
 90
      223
 90
      223
 90
      246
 90
       66
 90
       67
 90
       67
 90
      221
 90
      221
 90
      223
 90
       67
 90
       68
 90
       68
 90
      126
 90
      126
 90
      221
 90
        0
 90
       68
 90
        0
 90
      125
 90
      125
 90
      126
 90
        0
 90
        1
 90
        1
 90
      128
 90
      125
 90
      128
 90
        1
 90
        2
 90
        2
 90
      127
 90
      127
 90
      128
 90
        2
 90
        3
 90
      127
 90
      222
 90
       69
 90
       70
 90
       70
 90
      133
 90
      129
 90
      133
 90
       69
 90
      129
 90
       70
 90
       71
 90
       71
 90
      135
 90
      133
 90
      135
 90
       71
 90
       72
 90
       72
 90
      134
 90
      134
 90
      135
 90
       72
 90
       73
 90
       73
 90
      137
 90
      134
 90
      137
 90
       73
 90
       74
 90
       74
 90
      157
 90
      137
 90
      157
 90
       74
 90
       75
 90
       75
 90
      156
 90
      156
 90
      157
 90
       75
 90
       76
 90
       76
 90
      159
 90
      156
 90
      159
 90
       76
 90
       77
 90
       77
 90
      161
 90
      159
 90
      161
 90
       77
 90
       78
 90
       78
 90
      160
 90
      160
 90
      161
 90
       78
 90
       79
 90
       79
 90
      163
 90
      160
 90
      163
 90
       79
 90
       80
 90
       80
 90
      168
 90
      163
 90
      168
 90
       80
 90
       81
 90
       81
 90
      167
 90
      167
 90
      168
 90
       81
 90
       82
 90
       82
 90
      170
 90
      167
 90
      170
 90
       82
 90
       83
 90
       83
 90
      165
 90
      165
 90
      170
 90
       83
 90
       84
 90
       84
 90
      164
 90
      164
 90
      165
 90
       84
 90
       85
 90
       85
 90
      154
 90
      154
 90
      164
 90
       85
 90
       86
 90
       86
 90
      153
 90
      153
 90
      154
 90
       86
 90
       87
 90
       87
 90
      152
 90
      152
 90
      153
 90
       87
 90
       88
 90
       88
 90
      150
 90
      150
 90
      152
 90
       88
 90
       89
 90
       89
 90
      149
 90
      149
 90
      150
 90
       89
 90
       90
 90
       90
 90
      148
 90
      148
 90
      149
 90
       90
 90
       91
 90
       91
 90
      146
 90
      146
 90
      148
 90
       91
 90
       92
 90
       92
 90
      145
 90
      145
 90
      146
 90
       92
 90
       93
 90
       93
 90
      144
 90
      144
 90
      145
 90
       93
 90
       94
 90
       94
 90
      142
 90
      142
 90
      144
 90
       55
 90
       69
 90
      129
 90
      130
 90
       56
 90
       94
 90
      141
 90
      142
 90
       95
 90
      123
 90
       95
 90
      179
 90
      177
 90
      179
 90
      123
 90
      177
 90
       95
 90
       96
 90
       96
 90
      180
 90
      179
 90
      180
 90
       96
 90
       97
 90
       97
 90
      181
 90
      180
 90
      181
 90
       97
 90
       98
 90
       98
 90
      183
 90
      181
 90
      183
 90
       98
 90
       99
 90
       99
 90
      182
 90
      182
 90
      183
 90
       99
 90
      100
 90
      100
 90
      186
 90
      182
 90
      186
 90
      100
 90
      101
 90
      101
 90
      185
 90
      185
 90
      186
 90
      101
 90
      102
 90
      102
 90
      189
 90
      185
 90
      189
 90
      102
 90
      103
 90
      103
 90
      188
 90
      188
 90
      189
 90
      103
 90
      104
 90
      104
 90
      192
 90
      188
 90
      192
 90
      104
 90
      105
 90
      105
 90
      191
 90
      191
 90
      192
 90
      105
 90
      106
 90
      106
 90
      194
 90
      191
 90
      194
 90
      106
 90
      107
 90
      107
 90
      196
 90
      194
 90
      196
 90
      107
 90
      108
 90
      108
 90
      198
 90
      196
 90
      198
 90
      108
 90
      109
 90
      109
 90
      197
 90
      197
 90
      198
 90
      109
 90
      110
 90
      110
 90
      200
 90
      197
 90
      200
 90
      110
 90
      111
 90
      111
 90
      202
 90
      200
 90
      202
 90
      111
 90
      112
 90
      112
 90
      204
 90
      202
 90
      204
 90
      112
 90
      113
 90
      113
 90
      203
 90
      203
 90
      204
 90
      113
 90
      114
 90
      114
 90
      206
 90
      203
 90
      206
 90
      114
 90
      115
 90
      115
 90
      208
 90
      206
 90
      208
 90
      115
 90
      116
 90
      116
 90
      210
 90
      208
 90
      210
 90
      116
 90
      117
 90
      117
 90
      209
 90
      209
 90
      210
 90
      117
 90
      118
 90
      118
 90
      212
 90
      209
 90
      212
 90
      118
 90
      119
 90
      119
 90
      214
 90
      212
 90
      214
 90
      119
 90
      120
 90
      120
 90
      216
 90
      214
 90
      216
 90
      120
 90
      121
 90
      121
 90
      215
 90
      215
 90
      216
 90
      122
 90
      123
 90
      177
 90
      178
 90
      121
 90
      124
 90
      215
 90
      218
 90
        2
 90
       68
 90
       53
 90
       55
 90
       53
 90
       69
 90
       53
 90
       70
 90
       52
 90
       71
 90
       52
 90
       72
 90
       52
 90
       73
 90
       43
 90
       57
 90
       43
 90
       58
 90
       43
 90
       56
 90
       44
 90
       94
 90
       44
 90
       92
 90
       44
 90
       93
 90
       45
 90
       91
 90
       45
 90
       90
 90
       45
 90
       89
 90
       46
 90
       88
 90
       46
 90
       87
 90
       46
 90
       86
 90
       47
 90
       85
 90
       51
 90
       74
 90
       51
 90
       75
 90
       51
 90
       76
 90
       50
 90
       77
 90
       50
 90
       78
 90
       50
 90
       79
 90
       47
 90
       84
 90
       48
 90
       83
 90
       49
 90
       80
 90
       49
 90
       81
 90
       48
 90
       82
 90
       42
 90
       59
 90
       41
 90
       60
 90
       41
 90
       61
 90
       41
 90
       62
 90
       41
 90
      122
 90
       41
 90
      123
 90
       41
 90
       95
 90
       41
 90
       96
 90
       41
 90
       97
 90
       40
 90
       98
 90
       40
 90
       99
 90
       39
 90
      100
 90
       39
 90
      101
 90
       38
 90
      102
 90
       38
 90
      103
 90
       37
 90
      104
 90
       37
 90
      105
 90
       36
 90
      106
 90
       36
 90
      107
 90
       35
 90
      108
 90
       35
 90
      109
 90
       34
 90
      110
 90
       34
 90
      111
 90
       33
 90
      112
 90
       33
 90
      113
 90
       32
 90
      114
 90
       32
 90
      115
 90
       31
 90
      116
 90
       31
 90
      117
 90
       30
 90
      118
 90
       30
 90
      119
 90
       29
 90
      120
 90
       29
 90
      121
 90
       28
 90
      124
 90
       27
 90
      124
 90
        3
 90
       67
 90
        4
 90
       66
 90
       11
 90
       66
 90
        4
 90
       10
 90
       26
 90
      124
 90
       15
 90
       18
 90
       14
 90
       19
 90
       13
 90
       20
 90
        5
 90
        7
 90
        5
 90
        8
 90
        5
 90
        9
 90
       13
 90
       21
 90
       12
 90
       22
 90
       11
 90
       63
 90
       11
 90
       64
 90
       22
 90
       63
 90
       11
 90
       65
 90
       25
 90
      124
 90
       24
 90
       63
 90
       23
 90
       63
 90
      126
 90
      127
 90
      129
 90
      131
 90
      130
 90
      131
 90
      131
 90
      133
 90
      134
 90
      136
 90
      135
 90
      136
 90
      136
 90
      137
 90
      138
 90
      140
 90
      139
 90
      140
 90
      140
 90
      141
 90
      142
 90
      143
 90
      143
 90
      144
 90
      143
 90
      145
 90
      146
 90
      147
 90
      147
 90
      148
 90
      147
 90
      149
 90
      150
 90
      151
 90
      151
 90
      152
 90
      151
 90
      153
 90
      154
 90
      155
 90
      156
 90
      158
 90
      157
 90
      158
 90
      158
 90
      159
 90
      160
 90
      162
 90
      161
 90
      162
 90
      162
 90
      163
 90
      155
 90
      164
 90
      165
 90
      166
 90
      167
 90
      169
 90
      168
 90
      169
 90
      166
 90
      170
 90
      171
 90
      172
 90
      173
 90
      174
 90
      174
 90
      175
 90
      174
 90
      176
 90
      174
 90
      177
 90
      174
 90
      178
 90
      174
 90
      179
 90
      174
 90
      180
 90
      174
 90
      181
 90
      182
 90
      184
 90
      183
 90
      184
 90
      185
 90
      187
 90
      186
 90
      187
 90
      188
 90
      190
 90
      189
 90
      190
 90
      191
 90
      193
 90
      192
 90
      193
 90
      194
 90
      195
 90
      195
 90
      196
 90
      197
 90
      199
 90
      198
 90
      199
 90
      200
 90
      201
 90
      201
 90
      202
 90
      203
 90
      205
 90
      204
 90
      205
 90
      206
 90
      207
 90
      207
 90
      208
 90
      209
 90
      211
 90
      210
 90
      211
 90
      212
 90
      213
 90
      213
 90
      214
 90
      215
 90
      217
 90
      216
 90
      217
 90
      218
 90
      219
 90
      218
 90
      220
 90
      221
 90
      222
 90
      223
 90
      224
 90
      224
 90
      226
 90
      223
 90
      225
 90
      218
 90
      227
 90
      228
 90
      231
 90
      232
 90
      233
 90
      234
 90
      235
 90
      236
 90
      238
 90
      238
 90
      239
 90
      238
 90
      240
 90
      235
 90
      241
 90
      242
 90
      243
 90
      225
 90
      244
 90
      225
 90
      245
 90
      242
 90
      245
 90
      225
 90
      246
 90
      218
 90
      247
 90
      245
 90
      248
 90
      245
 90
      249
 95
      547
140
0.0
140
0.0
140
0.0
140
0.0
140
0.0
140
0.0
140
0.0
140
0.0
140
0.0
140
0.0
140
0.0
140
0.0
140
0.0
140
0.0
140
0.0
140
0.0
140
0.0
140
0.0
140
0.0
140
0.0
140
0.0
140
0.0
140
0.0
140
0.0
140
0.0
140
0.0
140
0.0
140
0.0
140
0.0
140
0.0
140
0.0
140
0.0
140
0.0
140
0.0
140
0.0
140
0.0
140
0.0
140
0.0
140
0.0
140
0.0
140
0.0
140
0.0
140
0.0
140
0.0
140
0.0
140
0.0
140
0.0
140
0.0
140
0.0
140
0.0
140
0.0
140
0.0
140
0.0
140
0.0
140
0.0
140
0.0
140
0.0
140
0.0
140
0.0
140
0.0
140
0.0
140
0.0
140
0.0
140
0.0
140
0.0
140
0.0
140
0.0
140
0.0
140
0.0
140
0.0
140
0.0
140
0.0
140
0.0
140
0.0
140
0.0
140
0.0
140
0.0
140
0.0
140
0.0
140
0.0
140
0.0
140
0.0
140
0.0
140
0.0
140
0.0
140
0.0
140
0.0
140
0.0
140
0.0
140
0.0
140
0.0
140
0.0
140
0.0
140
0.0
140
0.0
140
0.0
140
0.0
140
0.0
140
0.0
140
0.0
140
0.0
140
0.0
140
0.0
140
0.0
140
0.0
140
0.0
140
0.0
140
0.0
140
0.0
140
0.0
140
0.0
140
0.0
140
0.0
140
0.0
140
0.0
140
0.0
140
0.0
140
0.0
140
0.0
140
0.0
140
0.0
140
0.0
140
0.0
140
0.0
140
0.0
140
0.0
140
0.0
140
0.0
140
0.0
140
0.0
140
0.0
140
0.0
140
0.0
140
0.0
140
0.0
140
0.0
140
0.0
140
0.0
140
0.0
140
0.0
140
0.0
140
0.0
140
0.0
140
0.0
140
0.0
140
0.0
140
0.0
140
0.0
140
0.0
140
0.0
140
0.0
140
0.0
140
0.0
140
0.0
140
0.0
140
0.0
140
0.0
140
0.0
140
0.0
140
0.0
140
0.0
140
0.0
140
0.0
140
0.0
140
0.0
140
0.0
140
0.0
140
0.0
140
0.0
140
0.0
140
0.0
140
0.0
140
0.0
140
0.0
140
0.0
140
0.0
140
0.0
140
0.0
140
0.0
140
0.0
140
0.0
140
0.0
140
0.0
140
0.0
140
0.0
140
0.0
140
0.0
140
0.0
140
0.0
140
0.0
140
0.0
140
0.0
140
0.0
140
0.0
140
0.0
140
0.0
140
0.0
140
0.0
140
0.0
140
0.0
140
0.0
140
0.0
140
0.0
140
0.0
140
0.0
140
0.0
140
0.0
140
0.0
140
0.0
140
0.0
140
0.0
140
0.0
140
0.0
140
0.0
140
0.0
140
0.0
140
0.0
140
0.0
140
0.0
140
0.0
140
0.0
140
0.0
140
0.0
140
0.0
140
0.0
140
0.0
140
0.0
140
0.0
140
0.0
140
0.0
140
0.0
140
0.0
140
0.0
140
0.0
140
0.0
140
0.0
140
0.0
140
0.0
140
0.0
140
0.0
140
0.0
140
0.0
140
0.0
140
0.0
140
0.0
140
0.0
140
0.0
140
0.0
140
0.0
140
0.0
140
0.0
140
0.0
140
0.0
140
0.0
140
0.0
140
0.0
140
0.0
140
0.0
140
0.0
140
0.0
140
0.0
140
0.0
140
0.0
140
0.0
140
0.0
140
0.0
140
0.0
140
0.0
140
0.0
140
0.0
140
0.0
140
0.0
140
0.0
140
0.0
140
0.0
140
0.0
140
0.0
140
0.0
140
0.0
140
0.0
140
0.0
140
0.0
140
0.0
140
0.0
140
0.0
140
0.0
140
0.0
140
0.0
140
0.0
140
0.0
140
0.0
140
0.0
140
0.0
140
0.0
140
0.0
140
0.0
140
0.0
140
0.0
140
0.0
140
0.0
140
0.0
140
0.0
140
0.0
140
0.0
140
0.0
140
0.0
140
0.0
140
0.0
140
0.0
140
0.0
140
0.0
140
0.0
140
0.0
140
0.0
140
0.0
140
0.0
140
0.0
140
0.0
140
0.0
140
0.0
140
0.0
140
0.0
140
0.0
140
0.0
140
0.0
140
0.0
140
0.0
140
0.0
140
0.0
140
0.0
140
0.0
140
0.0
140
0.0
140
0.0
140
0.0
140
0.0
140
0.0
140
0.0
140
0.0
140
0.0
140
0.0
140
0.0
140
0.0
140
0.0
140
0.0
140
0.0
140
0.0
140
0.0
140
0.0
140
0.0
140
0.0
140
0.0
140
0.0
140
0.0
140
0.0
140
0.0
140
0.0
140
0.0
140
0.0
140
0.0
140
0.0
140
0.0
140
0.0
140
0.0
140
0.0
140
0.0
140
0.0
140
0.0
140
0.0
140
0.0
140
0.0
140
0.0
140
0.0
140
0.0
140
0.0
140
0.0
140
0.0
140
0.0
140
0.0
140
0.0
140
0.0
140
0.0
140
0.0
140
0.0
140
0.0
140
0.0
140
0.0
140
0.0
140
0.0
140
0.0
140
0.0
140
0.0
140
0.0
140
0.0
140
0.0
140
0.0
140
0.0
140
0.0
140
0.0
140
0.0
140
0.0
140
0.0
140
0.0
140
0.0
140
0.0
140
0.0
140
0.0
140
0.0
140
0.0
140
0.0
140
0.0
140
0.0
140
0.0
140
0.0
140
0.0
140
0.0
140
0.0
140
0.0
140
0.0
140
0.0
140
0.0
140
0.0
140
0.0
140
0.0
140
0.0
140
0.0
140
0.0
140
0.0
140
0.0
140
0.0
140
0.0
140
0.0
140
0.0
140
0.0
140
0.0
140
0.0
140
0.0
140
0.0
140
0.0
140
0.0
140
0.0
140
0.0
140
0.0
140
0.0
140
0.0
140
0.0
140
0.0
140
0.0
140
0.0
140
0.0
140
0.0
140
0.0
140
0.0
140
0.0
140
0.0
140
0.0
140
0.0
140
0.0
140
0.0
140
0.0
140
0.0
140
0.0
140
0.0
140
0.0
140
0.0
140
0.0
140
0.0
140
0.0
140
0.0
140
0.0
140
0.0
140
0.0
140
0.0
140
0.0
140
0.0
140
0.0
140
0.0
140
0.0
140
0.0
140
0.0
140
0.0
140
0.0
140
0.0
140
0.0
140
0.0
140
0.0
140
0.0
140
0.0
140
0.0
140
0.0
140
0.0
140
0.0
140
0.0
140
0.0
140
0.0
140
0.0
140
0.0
140
0.0
140
0.0
140
0.0
140
0.0
140
0.0
140
0.0
140
0.0
140
0.0
140
0.0
140
0.0
140
0.0
140
0.0
140
0.0
140
0.0
140
0.0
140
0.0
140
0.0
140
0.0
140
0.0
140
0.0
140
0.0
140
0.0
140
0.0
140
0.0
140
0.0
140
0.0
140
0.0
140
0.0
140
0.0
140
0.0
140
0.0
140
0.0
140
0.0
140
0.0
140
0.0
140
0.0
140
0.0
140
0.0
140
0.0
140
0.0
140
0.0
140
0.0
140
0.0
140
0.0
140
0.0
140
0.0
140
0.0
140
0.0
140
0.0
140
0.0
 90
        0
  0
POLYLINE
  5
FA
330
1F
100
AcDbEntity
  8
OracDecor_panel_moldings
 62
   221
420
 15047383
100
AcDb3dPolyline
 66
     1
 10
0.0
 20
0.0
 30
0.0
 70
     9
  0
VERTEX
  5
FB
330
FA
100
AcDbEntity
  8
OracDecor_panel_moldings
 62
   221
420
 15047383
100
AcDbVertex
100
AcDb3dPolylineVertex
 10
0.0000038146972656
 20
21.49527168273926
 30
5.025426864624023
 70
    32
  0
VERTEX
  5
FC
330
FA
100
AcDbEntity
  8
OracDecor_panel_moldings
 62
   221
420
 15047383
100
AcDbVertex
100
AcDb3dPolylineVertex
 10
0.0000038146972656
 20
21.97788047790528
 30
0.2199764251708984
 70
    32
  0
VERTEX
  5
FD
330
FA
100
AcDbEntity
  8
OracDecor_panel_moldings
 62
   221
420
 15047383
100
AcDbVertex
100
AcDb3dPolylineVertex
 10
-0.0000038146972656
 20
21.95834922790528
 30
0.1119747161865234
 70
    32
  0
VERTEX
  5
FE
330
FA
100
AcDbEntity
  8
OracDecor_panel_moldings
 62
   221
420
 15047383
100
AcDbVertex
100
AcDb3dPolylineVertex
 10
-0.0000038146972656
 20
21.88438987731934
 30
0.0302143096923828
 70
    32
  0
VERTEX
  5
FF
330
FA
100
AcDbEntity
  8
OracDecor_panel_moldings
 62
   221
420
 15047383
100
AcDbVertex
100
AcDb3dPolylineVertex
 10
0.0000038146972656
 20
21.77888679504395
 30
-0.0000095367431641
 70
    32
  0
VERTEX
  5
100
330
FA
100
AcDbEntity
  8
OracDecor_panel_moldings
 62
   221
420
 15047383
100
AcDbVertex
100
AcDb3dPolylineVertex
 10
0.0000038146972656
 20
-0.0000178814734682
 30
-0.0000095367431641
 70
    32
  0
VERTEX
  5
101
330
FA
100
AcDbEntity
  8
OracDecor_panel_moldings
 62
   221
420
 15047383
100
AcDbVertex
100
AcDb3dPolylineVertex
 10
0.0000038146972656
 20
-0.0000178814734682
 30
2.92875862121582
 70
    32
  0
VERTEX
  5
102
330
FA
100
AcDbEntity
  8
OracDecor_panel_moldings
 62
   221
420
 15047383
100
AcDbVertex
100
AcDb3dPolylineVertex
 10
-0.0000038146972656
 20
0.0766727924346924
 30
3.19444465637207
 70
    32
  0
VERTEX
  5
103
330
FA
100
AcDbEntity
  8
OracDecor_panel_moldings
 62
   221
420
 15047383
100
AcDbVertex
100
AcDb3dPolylineVertex
 10
0.0000038146972656
 20
0.2825901508331299
 30
3.379026412963867
 70
    32
  0
VERTEX
  5
104
330
FA
100
AcDbEntity
  8
OracDecor_panel_moldings
 62
   221
420
 15047383
100
AcDbVertex
100
AcDb3dPolylineVertex
 10
-0.0000038146972656
 20
0.8186962604522705
 30
3.775232315063476
 70
    32
  0
VERTEX
  5
105
330
FA
100
AcDbEntity
  8
OracDecor_panel_moldings
 62
   221
420
 15047383
100
AcDbVertex
100
AcDb3dPolylineVertex
 10
-0.0000038146972656
 20
1.175503969192504
 30
4.342813491821289
 70
    32
  0
VERTEX
  5
106
330
FA
100
AcDbEntity
  8
OracDecor_panel_moldings
 62
   221
420
 15047383
100
AcDbVertex
100
AcDb3dPolylineVertex
 10
-0.0000038146972656
 20
1.299977540969848
 30
4.999990463256835
 70
    32
  0
VERTEX
  5
107
330
FA
100
AcDbEntity
  8
OracDecor_panel_moldings
 62
   221
420
 15047383
100
AcDbVertex
100
AcDb3dPolylineVertex
 10
-0.0000038146972656
 20
1.175503969192504
 30
5.657167434692382
 70
    32
  0
VERTEX
  5
108
330
FA
100
AcDbEntity
  8
OracDecor_panel_moldings
 62
   221
420
 15047383
100
AcDbVertex
100
AcDb3dPolylineVertex
 10
-0.0000038146972656
 20
0.8186962604522705
 30
6.224748611450195
 70
    32
  0
VERTEX
  5
109
330
FA
100
AcDbEntity
  8
OracDecor_panel_moldings
 62
   221
420
 15047383
100
AcDbVertex
100
AcDb3dPolylineVertex
 10
0.0000038146972656
 20
0.2825901508331299
 30
6.620954513549804
 70
    32
  0
VERTEX
  5
10A
330
FA
100
AcDbEntity
  8
OracDecor_panel_moldings
 62
   221
420
 15047383
100
AcDbVertex
100
AcDb3dPolylineVertex
 10
-0.0000038146972656
 20
0.0766727924346924
 30
6.805536270141601
 70
    32
  0
VERTEX
  5
10B
330
FA
100
AcDbEntity
  8
OracDecor_panel_moldings
 62
   221
420
 15047383
100
AcDbVertex
100
AcDb3dPolylineVertex
 10
0.0000038146972656
 20
-0.0000178814734682
 30
7.071222305297851
 70
    32
  0
VERTEX
  5
10C
330
FA
100
AcDbEntity
  8
OracDecor_panel_moldings
 62
   221
420
 15047383
100
AcDbVertex
100
AcDb3dPolylineVertex
 10
0.0000038146972656
 20
-0.0000178814734682
 30
9.499990463256835
 70
    32
  0
VERTEX
  5
10D
330
FA
100
AcDbEntity
  8
OracDecor_panel_moldings
 62
   221
420
 15047383
100
AcDbVertex
100
AcDb3dPolylineVertex
 10
-0.0000038146972656
 20
0.0669643878936768
 30
9.749555587768554
 70
    32
  0
VERTEX
  5
10E
330
FA
100
AcDbEntity
  8
OracDecor_panel_moldings
 62
   221
420
 15047383
100
AcDbVertex
100
AcDb3dPolylineVertex
 10
-0.0000038146972656
 20
0.2504169940948486
 30
9.93300437927246
 70
    32
  0
VERTEX
  5
10F
330
FA
100
AcDbEntity
  8
OracDecor_panel_moldings
 62
   221
420
 15047383
100
AcDbVertex
100
AcDb3dPolylineVertex
 10
0.0000038146972656
 20
0.4999821186065674
 30
9.999990463256835
 70
    32
  0
VERTEX
  5
110
330
FA
100
AcDbEntity
  8
OracDecor_panel_moldings
 62
   221
420
 15047383
100
AcDbVertex
100
AcDb3dPolylineVertex
 10
0.0000038146972656
 20
4.905980110168457
 30
9.999990463256835
 70
    32
  0
VERTEX
  5
111
330
FA
100
AcDbEntity
  8
OracDecor_panel_moldings
 62
   221
420
 15047383
100
AcDbVertex
100
AcDb3dPolylineVertex
 10
-0.0000038146972656
 20
5.288163185119628
 30
10.07604026794433
 70
    32
  0
VERTEX
  5
112
330
FA
100
AcDbEntity
  8
OracDecor_panel_moldings
 62
   221
420
 15047383
100
AcDbVertex
100
AcDb3dPolylineVertex
 10
-0.0000038146972656
 20
5.612927436828613
 30
10.29304313659668
 70
    32
  0
VERTEX
  5
113
330
FA
100
AcDbEntity
  8
OracDecor_panel_moldings
 62
   221
420
 15047383
100
AcDbVertex
100
AcDb3dPolylineVertex
 10
-0.0000038146972656
 20
5.829926490783691
 30
10.61780738830566
 70
    32
  0
VERTEX
  5
114
330
FA
100
AcDbEntity
  8
OracDecor_panel_moldings
 62
   221
420
 15047383
100
AcDbVertex
100
AcDb3dPolylineVertex
 10
0.0000038146972656
 20
5.905980110168457
 30
10.99999046325683
 70
    32
  0
VERTEX
  5
115
330
FA
100
AcDbEntity
  8
OracDecor_panel_moldings
 62
   221
420
 15047383
100
AcDbVertex
100
AcDb3dPolylineVertex
 10
0.0000038146972656
 20
5.905980110168457
 30
11.79899787902832
 70
    32
  0
VERTEX
  5
116
330
FA
100
AcDbEntity
  8
OracDecor_panel_moldings
 62
   221
420
 15047383
100
AcDbVertex
100
AcDb3dPolylineVertex
 10
-0.0000038146972656
 20
6.186203956604003
 30
13.61042213439941
 70
    32
  0
VERTEX
  5
117
330
FA
100
AcDbEntity
  8
OracDecor_panel_moldings
 62
   221
420
 15047383
100
AcDbVertex
100
AcDb3dPolylineVertex
 10
-0.0000038146972656
 20
6.999821662902832
 30
15.25292778015137
 70
    32
  0
VERTEX
  5
118
330
FA
100
AcDbEntity
  8
OracDecor_panel_moldings
 62
   221
420
 15047383
100
AcDbVertex
100
AcDb3dPolylineVertex
 10
-0.0000038146972656
 20
8.271710395812988
 30
16.57280158996582
 70
    32
  0
VERTEX
  5
119
330
FA
100
AcDbEntity
  8
OracDecor_panel_moldings
 62
   221
420
 15047383
100
AcDbVertex
100
AcDb3dPolylineVertex
 10
0.0000038146972656
 20
9.882519721984863
 30
17.4475040435791
 70
    32
  0
VERTEX
  5
11A
330
FA
100
AcDbEntity
  8
OracDecor_panel_moldings
 62
   221
420
 15047383
100
AcDbVertex
100
AcDb3dPolylineVertex
 10
0.0000038146972656
 20
10.22028827667236
 30
17.56849861145019
 70
    32
  0
VERTEX
  5
11B
330
FA
100
AcDbEntity
  8
OracDecor_panel_moldings
 62
   221
420
 15047383
100
AcDbVertex
100
AcDb3dPolylineVertex
 10
-0.0000038146972656
 20
11.09889316558838
 30
18.07180976867676
 70
    32
  0
VERTEX
  5
11C
330
FA
100
AcDbEntity
  8
OracDecor_panel_moldings
 62
   221
420
 15047383
100
AcDbVertex
100
AcDb3dPolylineVertex
 10
-0.0000038146972656
 20
11.75129413604736
 30
18.84866905212402
 70
    32
  0
VERTEX
  5
11D
330
FA
100
AcDbEntity
  8
OracDecor_panel_moldings
 62
   221
420
 15047383
100
AcDbVertex
100
AcDb3dPolylineVertex
 10
-0.0000038146972656
 20
12.09515857696533
 30
19.80105018615723
 70
    32
  0
VERTEX
  5
11E
330
FA
100
AcDbEntity
  8
OracDecor_panel_moldings
 62
   221
420
 15047383
100
AcDbVertex
100
AcDb3dPolylineVertex
 10
-0.0000038146972656
 20
12.08911609649658
 30
20.81358528137207
 70
    32
  0
VERTEX
  5
11F
330
FA
100
AcDbEntity
  8
OracDecor_panel_moldings
 62
   221
420
 15047383
100
AcDbVertex
100
AcDb3dPolylineVertex
 10
-0.0000038146972656
 20
11.73363971710205
 30
21.76373481750488
 70
    32
  0
VERTEX
  5
120
330
FA
100
AcDbEntity
  8
OracDecor_panel_moldings
 62
   221
420
 15047383
100
AcDbVertex
100
AcDb3dPolylineVertex
 10
0.0000038146972656
 20
11.07359027862549
 30
22.53157997131348
 70
    32
  0
VERTEX
  5
121
330
FA
100
AcDbEntity
  8
OracDecor_panel_moldings
 62
   221
420
 15047383
100
AcDbVertex
100
AcDb3dPolylineVertex
 10
-0.0000038146972656
 20
5.2405366897583
 30
28.18070411682129
 70
    32
  0
VERTEX
  5
122
330
FA
100
AcDbEntity
  8
OracDecor_panel_moldings
 62
   221
420
 15047383
100
AcDbVertex
100
AcDb3dPolylineVertex
 10
0.0000038146972656
 20
0.4458744525909424
 30
34.7318115234375
 70
    32
  0
VERTEX
  5
123
330
FA
100
AcDbEntity
  8
OracDecor_panel_moldings
 62
   221
420
 15047383
100
AcDbVertex
100
AcDb3dPolylineVertex
 10
-0.0000038146972656
 20
0.3371670246124268
 30
34.98182678222657
 70
    32
  0
VERTEX
  5
124
330
FA
100
AcDbEntity
  8
OracDecor_panel_moldings
 62
   221
420
 15047383
100
AcDbVertex
100
AcDb3dPolylineVertex
 10
0.0000038146972656
 20
0.2999775409698486
 30
35.25190734863282
 70
    32
  0
VERTEX
  5
125
330
FA
100
AcDbEntity
  8
OracDecor_panel_moldings
 62
   221
420
 15047383
100
AcDbVertex
100
AcDb3dPolylineVertex
 10
0.0000038146972656
 20
0.2999775409698486
 30
47.69999694824218
 70
    32
  0
VERTEX
  5
126
330
FA
100
AcDbEntity
  8
OracDecor_panel_moldings
 62
   221
420
 15047383
100
AcDbVertex
100
AcDb3dPolylineVertex
 10
0.0000038146972656
 20
-0.0000178814734682
 30
47.99999237060546
 70
    32
  0
VERTEX
  5
127
330
FA
100
AcDbEntity
  8
OracDecor_panel_moldings
 62
   221
420
 15047383
100
AcDbVertex
100
AcDb3dPolylineVertex
 10
0.0000038146972656
 20
-0.0000178814734682
 30
51.92875671386719
 70
    32
  0
VERTEX
  5
128
330
FA
100
AcDbEntity
  8
OracDecor_panel_moldings
 62
   221
420
 15047383
100
AcDbVertex
100
AcDb3dPolylineVertex
 10
-0.0000038146972656
 20
0.0766727924346924
 30
52.19444274902343
 70
    32
  0
VERTEX
  5
129
330
FA
100
AcDbEntity
  8
OracDecor_panel_moldings
 62
   221
420
 15047383
100
AcDbVertex
100
AcDb3dPolylineVertex
 10
0.0000038146972656
 20
0.2825901508331299
 30
52.3790283203125
 70
    32
  0
VERTEX
  5
12A
330
FA
100
AcDbEntity
  8
OracDecor_panel_moldings
 62
   221
420
 15047383
100
AcDbVertex
100
AcDb3dPolylineVertex
 10
-0.0000038146972656
 20
0.8186962604522705
 30
52.77523040771484
 70
    32
  0
VERTEX
  5
12B
330
FA
100
AcDbEntity
  8
OracDecor_panel_moldings
 62
   221
420
 15047383
100
AcDbVertex
100
AcDb3dPolylineVertex
 10
-0.0000038146972656
 20
1.175503969192504
 30
53.34281158447265
 70
    32
  0
VERTEX
  5
12C
330
FA
100
AcDbEntity
  8
OracDecor_panel_moldings
 62
   221
420
 15047383
100
AcDbVertex
100
AcDb3dPolylineVertex
 10
-0.0000038146972656
 20
1.299977540969848
 30
53.99999237060547
 70
    32
  0
VERTEX
  5
12D
330
FA
100
AcDbEntity
  8
OracDecor_panel_moldings
 62
   221
420
 15047383
100
AcDbVertex
100
AcDb3dPolylineVertex
 10
-0.0000038146972656
 20
1.175503969192504
 30
54.65717315673828
 70
    32
  0
VERTEX
  5
12E
330
FA
100
AcDbEntity
  8
OracDecor_panel_moldings
 62
   221
420
 15047383
100
AcDbVertex
100
AcDb3dPolylineVertex
 10
-0.0000038146972656
 20
0.8186962604522705
 30
55.22474670410156
 70
    32
  0
VERTEX
  5
12F
330
FA
100
AcDbEntity
  8
OracDecor_panel_moldings
 62
   221
420
 15047383
100
AcDbVertex
100
AcDb3dPolylineVertex
 10
0.0000038146972656
 20
0.2825901508331299
 30
55.62095642089843
 70
    32
  0
VERTEX
  5
130
330
FA
100
AcDbEntity
  8
OracDecor_panel_moldings
 62
   221
420
 15047383
100
AcDbVertex
100
AcDb3dPolylineVertex
 10
-0.0000038146972656
 20
0.0766727924346924
 30
55.80553436279297
 70
    32
  0
VERTEX
  5
131
330
FA
100
AcDbEntity
  8
OracDecor_panel_moldings
 62
   221
420
 15047383
100
AcDbVertex
100
AcDb3dPolylineVertex
 10
0.0000038146972656
 20
-0.0000178814734682
 30
56.07122802734375
 70
    32
  0
VERTEX
  5
132
330
FA
100
AcDbEntity
  8
OracDecor_panel_moldings
 62
   221
420
 15047383
100
AcDbVertex
100
AcDb3dPolylineVertex
 10
0.0000038146972656
 20
-0.0000178814734682
 30
59.99999237060547
 70
    32
  0
VERTEX
  5
133
330
FA
100
AcDbEntity
  8
OracDecor_panel_moldings
 62
   221
420
 15047383
100
AcDbVertex
100
AcDb3dPolylineVertex
 10
-0.0000038146972656
 20
1.999978303909301
 30
59.99999237060547
 70
    32
  0
VERTEX
  5
134
330
FA
100
AcDbEntity
  8
OracDecor_panel_moldings
 62
   221
420
 15047383
100
AcDbVertex
100
AcDb3dPolylineVertex
 10
-0.0000038146972656
 20
2.359177827835083
 30
59.98918151855469
 70
    32
  0
VERTEX
  5
135
330
FA
100
AcDbEntity
  8
OracDecor_panel_moldings
 62
   221
420
 15047383
100
AcDbVertex
100
AcDb3dPolylineVertex
 10
-0.0000038146972656
 20
3.036359071731567
 30
59.92359924316406
 70
    32
  0
VERTEX
  5
136
330
FA
100
AcDbEntity
  8
OracDecor_panel_moldings
 62
   221
420
 15047383
100
AcDbVertex
100
AcDb3dPolylineVertex
 10
-0.0000038146972656
 20
3.858098268508911
 30
59.7515869140625
 70
    32
  0
VERTEX
  5
137
330
FA
100
AcDbEntity
  8
OracDecor_panel_moldings
 62
   221
420
 15047383
100
AcDbVertex
100
AcDb3dPolylineVertex
 10
-0.0000038146972656
 20
4.590806007385253
 30
59.48073577880859
 70
    32
  0
VERTEX
  5
138
330
FA
100
AcDbEntity
  8
OracDecor_panel_moldings
 62
   221
420
 15047383
100
AcDbVertex
100
AcDb3dPolylineVertex
 10
-0.0000038146972656
 20
5.259175300598144
 30
59.12008666992187
 70
    32
  0
VERTEX
  5
139
330
FA
100
AcDbEntity
  8
OracDecor_panel_moldings
 62
   221
420
 15047383
100
AcDbVertex
100
AcDb3dPolylineVertex
 10
-0.0000038146972656
 20
5.867142677307128
 30
58.66775512695312
 70
    32
  0
VERTEX
  5
13A
330
FA
100
AcDbEntity
  8
OracDecor_panel_moldings
 62
   221
420
 15047383
100
AcDbVertex
100
AcDb3dPolylineVertex
 10
-0.0000038146972656
 20
6.375447273254394
 30
58.17357635498047
 70
    32
  0
VERTEX
  5
13B
330
FA
100
AcDbEntity
  8
OracDecor_panel_moldings
 62
   221
420
 15047383
100
AcDbVertex
100
AcDb3dPolylineVertex
 10
-0.0000038146972656
 20
6.824471473693847
 30
57.61021423339844
 70
    32
  0
VERTEX
  5
13C
330
FA
100
AcDbEntity
  8
OracDecor_panel_moldings
 62
   221
420
 15047383
100
AcDbVertex
100
AcDb3dPolylineVertex
 10
-0.0000038146972656
 20
7.196747779846191
 30
57.02103424072266
 70
    32
  0
VERTEX
  5
13D
330
FA
100
AcDbEntity
  8
OracDecor_panel_moldings
 62
   221
420
 15047383
100
AcDbVertex
100
AcDb3dPolylineVertex
 10
-0.0000038146972656
 20
7.511189460754394
 30
56.3782958984375
 70
    32
  0
VERTEX
  5
13E
330
FA
100
AcDbEntity
  8
OracDecor_panel_moldings
 62
   221
420
 15047383
100
AcDbVertex
100
AcDb3dPolylineVertex
 10
-0.0000038146972656
 20
7.7488374710083
 30
55.7566146850586
 70
    32
  0
VERTEX
  5
13F
330
FA
100
AcDbEntity
  8
OracDecor_panel_moldings
 62
   221
420
 15047383
100
AcDbVertex
100
AcDb3dPolylineVertex
 10
-0.0000038146972656
 20
7.918606758117675
 30
55.16756439208984
 70
    32
  0
VERTEX
  5
140
330
FA
100
AcDbEntity
  8
OracDecor_panel_moldings
 62
   221
420
 15047383
100
AcDbVertex
100
AcDb3dPolylineVertex
 10
-0.0000038146972656
 20
8.038582801818847
 30
54.55711364746093
 70
    32
  0
VERTEX
  5
141
330
FA
100
AcDbEntity
  8
OracDecor_panel_moldings
 62
   221
420
 15047383
100
AcDbVertex
100
AcDb3dPolylineVertex
 10
-0.0000038146972656
 20
8.111058235168457
 30
53.96747589111328
 70
    32
  0
VERTEX
  5
142
330
FA
100
AcDbEntity
  8
OracDecor_panel_moldings
 62
   221
420
 15047383
100
AcDbVertex
100
AcDb3dPolylineVertex
 10
-0.0000038146972656
 20
8.132344245910644
 30
53.44811248779297
 70
    32
  0
VERTEX
  5
143
330
FA
100
AcDbEntity
  8
OracDecor_panel_moldings
 62
   221
420
 15047383
100
AcDbVertex
100
AcDb3dPolylineVertex
 10
-0.0000038146972656
 20
8.104153633117675
 30
52.97793579101562
 70
    32
  0
VERTEX
  5
144
330
FA
100
AcDbEntity
  8
OracDecor_panel_moldings
 62
   221
420
 15047383
100
AcDbVertex
100
AcDb3dPolylineVertex
 10
-0.0000038146972656
 20
8.038441658020019
 30
52.53539276123047
 70
    32
  0
VERTEX
  5
145
330
FA
100
AcDbEntity
  8
OracDecor_panel_moldings
 62
   221
420
 15047383
100
AcDbVertex
100
AcDb3dPolylineVertex
 10
-0.0000038146972656
 20
7.936848640441894
 30
52.15860748291015
 70
    32
  0
VERTEX
  5
146
330
FA
100
AcDbEntity
  8
OracDecor_panel_moldings
 62
   221
420
 15047383
100
AcDbVertex
100
AcDb3dPolylineVertex
 10
-0.0000038146972656
 20
7.806584358215332
 30
51.83162689208984
 70
    32
  0
VERTEX
  5
147
330
FA
100
AcDbEntity
  8
OracDecor_panel_moldings
 62
   221
420
 15047383
100
AcDbVertex
100
AcDb3dPolylineVertex
 10
-0.0000038146972656
 20
7.653542518615722
 30
51.54447937011719
 70
    32
  0
VERTEX
  5
148
330
FA
100
AcDbEntity
  8
OracDecor_panel_moldings
 62
   221
420
 15047383
100
AcDbVertex
100
AcDb3dPolylineVertex
 10
-0.0000038146972656
 20
7.477505683898925
 30
51.29608917236328
 70
    32
  0
VERTEX
  5
149
330
FA
100
AcDbEntity
  8
OracDecor_panel_moldings
 62
   221
420
 15047383
100
AcDbVertex
100
AcDb3dPolylineVertex
 10
-0.0000038146972656
 20
7.280285835266113
 30
51.07750701904297
 70
    32
  0
VERTEX
  5
14A
330
FA
100
AcDbEntity
  8
OracDecor_panel_moldings
 62
   221
420
 15047383
100
AcDbVertex
100
AcDb3dPolylineVertex
 10
-0.0000038146972656
 20
7.063340187072753
 30
50.89057159423828
 70
    32
  0
VERTEX
  5
14B
330
FA
100
AcDbEntity
  8
OracDecor_panel_moldings
 62
   221
420
 15047383
100
AcDbVertex
100
AcDb3dPolylineVertex
 10
-0.0000038146972656
 20
6.861435890197753
 30
50.75118255615234
 70
    32
  0
VERTEX
  5
14C
330
FA
100
AcDbEntity
  8
OracDecor_panel_moldings
 62
   221
420
 15047383
100
AcDbVertex
100
AcDb3dPolylineVertex
 10
-0.0000038146972656
 20
6.667874336242675
 30
50.64613342285156
 70
    32
  0
VERTEX
  5
14D
330
FA
100
AcDbEntity
  8
OracDecor_panel_moldings
 62
   221
420
 15047383
100
AcDbVertex
100
AcDb3dPolylineVertex
 10
-0.0000038146972656
 20
6.480420112609863
 30
50.56832885742188
 70
    32
  0
VERTEX
  5
14E
330
FA
100
AcDbEntity
  8
OracDecor_panel_moldings
 62
   221
420
 15047383
100
AcDbVertex
100
AcDb3dPolylineVertex
 10
-0.0000038146972656
 20
6.391007423400878
 30
50.53870391845703
 70
    32
  0
VERTEX
  5
14F
330
FA
100
AcDbEntity
  8
OracDecor_panel_moldings
 62
   221
420
 15047383
100
AcDbVertex
100
AcDb3dPolylineVertex
 10
-0.0000038146972656
 20
6.337685585021972
 30
50.49908447265625
 70
    32
  0
VERTEX
  5
150
330
FA
100
AcDbEntity
  8
OracDecor_panel_moldings
 62
   221
420
 15047383
100
AcDbVertex
100
AcDb3dPolylineVertex
 10
0.0000038146972656
 20
6.32079792022705
 30
50.43484497070313
 70
    32
  0
VERTEX
  5
151
330
FA
100
AcDbEntity
  8
OracDecor_panel_moldings
 62
   221
420
 15047383
100
AcDbVertex
100
AcDb3dPolylineVertex
 10
0.0000038146972656
 20
6.412995338439941
 30
49.32737731933594
 70
    32
  0
VERTEX
  5
152
330
FA
100
AcDbEntity
  8
OracDecor_panel_moldings
 62
   221
420
 15047383
100
AcDbVertex
100
AcDb3dPolylineVertex
 10
0.0000038146972656
 20
8.927979469299316
 30
48.19059753417969
 70
    32
  0
VERTEX
  5
153
330
FA
100
AcDbEntity
  8
OracDecor_panel_moldings
 62
   221
420
 15047383
100
AcDbVertex
100
AcDb3dPolylineVertex
 10
0.0000038146972656
 20
9.042485237121582
 30
46.5518569946289
 70
    32
  0
VERTEX
  5
154
330
FA
100
AcDbEntity
  8
OracDecor_panel_moldings
 62
   221
420
 15047383
100
AcDbVertex
100
AcDb3dPolylineVertex
 10
-0.0000038146972656
 20
9.021042823791503
 30
46.44703674316406
 70
    32
  0
VERTEX
  5
155
330
FA
100
AcDbEntity
  8
OracDecor_panel_moldings
 62
   221
420
 15047383
100
AcDbVertex
100
AcDb3dPolylineVertex
 10
0.0000038146972656
 20
8.948750495910644
 30
46.36817932128906
 70
    32
  0
VERTEX
  5
156
330
FA
100
AcDbEntity
  8
OracDecor_panel_moldings
 62
   221
420
 15047383
100
AcDbVertex
100
AcDb3dPolylineVertex
 10
-0.0000038146972656
 20
8.156102180480957
 30
45.72562408447265
 70
    32
  0
VERTEX
  5
157
330
FA
100
AcDbEntity
  8
OracDecor_panel_moldings
 62
   221
420
 15047383
100
AcDbVertex
100
AcDb3dPolylineVertex
 10
-0.0000038146972656
 20
7.265126228332519
 30
44.53704833984375
 70
    32
  0
VERTEX
  5
158
330
FA
100
AcDbEntity
  8
OracDecor_panel_moldings
 62
   221
420
 15047383
100
AcDbVertex
100
AcDb3dPolylineVertex
 10
-0.0000038146972656
 20
6.831997871398925
 30
43.32015228271484
 70
    32
  0
VERTEX
  5
159
330
FA
100
AcDbEntity
  8
OracDecor_panel_moldings
 62
   221
420
 15047383
100
AcDbVertex
100
AcDb3dPolylineVertex
 10
-0.0000038146972656
 20
6.687886238098144
 30
41.89076995849609
 70
    32
  0
VERTEX
  5
15A
330
FA
100
AcDbEntity
  8
OracDecor_panel_moldings
 62
   221
420
 15047383
100
AcDbVertex
100
AcDb3dPolylineVertex
 10
-0.0000038146972656
 20
6.831212043762207
 30
40.44844055175781
 70
    32
  0
VERTEX
  5
15B
330
FA
100
AcDbEntity
  8
OracDecor_panel_moldings
 62
   221
420
 15047383
100
AcDbVertex
100
AcDb3dPolylineVertex
 10
-0.0000038146972656
 20
7.270176887512207
 30
38.84199523925781
 70
    32
  0
VERTEX
  5
15C
330
FA
100
AcDbEntity
  8
OracDecor_panel_moldings
 62
   221
420
 15047383
100
AcDbVertex
100
AcDb3dPolylineVertex
 10
-0.0000038146972656
 20
7.9450044631958
 30
37.31012725830078
 70
    32
  0
VERTEX
  5
15D
330
FA
100
AcDbEntity
  8
OracDecor_panel_moldings
 62
   221
420
 15047383
100
AcDbVertex
100
AcDb3dPolylineVertex
 10
-0.0000038146972656
 20
8.818158149719238
 30
35.89908599853516
 70
    32
  0
VERTEX
  5
15E
330
FA
100
AcDbEntity
  8
OracDecor_panel_moldings
 62
   221
420
 15047383
100
AcDbVertex
100
AcDb3dPolylineVertex
 10
-0.0000038146972656
 20
9.937085151672363
 30
34.50770568847656
 70
    32
  0
VERTEX
  5
15F
330
FA
100
AcDbEntity
  8
OracDecor_panel_moldings
 62
   221
420
 15047383
100
AcDbVertex
100
AcDb3dPolylineVertex
 10
-0.0000038146972656
 20
11.18249225616455
 30
33.22926330566406
 70
    32
  0
VERTEX
  5
160
330
FA
100
AcDbEntity
  8
OracDecor_panel_moldings
 62
   221
420
 15047383
100
AcDbVertex
100
AcDb3dPolylineVertex
 10
-0.0000038146972656
 20
12.52610492706299
 30
32.00249481201172
 70
    32
  0
VERTEX
  5
161
330
FA
100
AcDbEntity
  8
OracDecor_panel_moldings
 62
   221
420
 15047383
100
AcDbVertex
100
AcDb3dPolylineVertex
 10
-0.0000038146972656
 20
13.86343097686767
 30
30.8426399230957
 70
    32
  0
VERTEX
  5
162
330
FA
100
AcDbEntity
  8
OracDecor_panel_moldings
 62
   221
420
 15047383
100
AcDbVertex
100
AcDb3dPolylineVertex
 10
-0.0000038146972656
 20
15.23233509063721
 30
29.61866760253906
 70
    32
  0
VERTEX
  5
163
330
FA
100
AcDbEntity
  8
OracDecor_panel_moldings
 62
   221
420
 15047383
100
AcDbVertex
100
AcDb3dPolylineVertex
 10
-0.0000038146972656
 20
16.4743480682373
 30
28.43721199035645
 70
    32
  0
VERTEX
  5
164
330
FA
100
AcDbEntity
  8
OracDecor_panel_moldings
 62
   221
420
 15047383
100
AcDbVertex
100
AcDb3dPolylineVertex
 10
-0.0000038146972656
 20
17.53546333312988
 30
27.25908088684082
 70
    32
  0
VERTEX
  5
165
330
FA
100
AcDbEntity
  8
OracDecor_panel_moldings
 62
   221
420
 15047383
100
AcDbVertex
100
AcDb3dPolylineVertex
 10
-0.0000038146972656
 20
18.52309989929199
 30
25.97987937927246
 70
    32
  0
VERTEX
  5
166
330
FA
100
AcDbEntity
  8
OracDecor_panel_moldings
 62
   221
420
 15047383
100
AcDbVertex
100
AcDb3dPolylineVertex
 10
-0.0000038146972656
 20
19.34934043884277
 30
24.68792152404785
 70
    32
  0
VERTEX
  5
167
330
FA
100
AcDbEntity
  8
OracDecor_panel_moldings
 62
   221
420
 15047383
100
AcDbVertex
100
AcDb3dPolylineVertex
 10
-0.0000038146972656
 20
20.02887535095215
 30
23.34061622619629
 70
    32
  0
VERTEX
  5
168
330
FA
100
AcDbEntity
  8
OracDecor_panel_moldings
 62
   221
420
 15047383
100
AcDbVertex
100
AcDb3dPolylineVertex
 10
-0.0000038146972656
 20
20.52876091003418
 30
22.00927925109863
 70
    32
  0
VERTEX
  5
169
330
FA
100
AcDbEntity
  8
OracDecor_panel_moldings
 62
   221
420
 15047383
100
AcDbVertex
100
AcDb3dPolylineVertex
 10
-0.0000038146972656
 20
20.85850334167481
 30
20.62902641296387
 70
    32
  0
VERTEX
  5
16A
330
FA
100
AcDbEntity
  8
OracDecor_panel_moldings
 62
   221
420
 15047383
100
AcDbVertex
100
AcDb3dPolylineVertex
 10
-0.0000038146972656
 20
20.97949409484863
 30
19.23948097229004
 70
    32
  0
VERTEX
  5
16B
330
FA
100
AcDbEntity
  8
OracDecor_panel_moldings
 62
   221
420
 15047383
100
AcDbVertex
100
AcDb3dPolylineVertex
 10
-0.0000038146972656
 20
20.8693790435791
 30
17.81985664367676
 70
    32
  0
VERTEX
  5
16C
330
FA
100
AcDbEntity
  8
OracDecor_panel_moldings
 62
   221
420
 15047383
100
AcDbVertex
100
AcDb3dPolylineVertex
 10
-0.0000038146972656
 20
20.52114295959473
 30
16.50364112854004
 70
    32
  0
VERTEX
  5
16D
330
FA
100
AcDbEntity
  8
OracDecor_panel_moldings
 62
   221
420
 15047383
100
AcDbVertex
100
AcDb3dPolylineVertex
 10
-0.0000038146972656
 20
19.92905616760254
 30
15.25065040588379
 70
    32
  0
VERTEX
  5
16E
330
FA
100
AcDbEntity
  8
OracDecor_panel_moldings
 62
   221
420
 15047383
100
AcDbVertex
100
AcDb3dPolylineVertex
 10
-0.0000038146972656
 20
19.04662132263183
 30
14.0218334197998
 70
    32
  0
VERTEX
  5
16F
330
FA
100
AcDbEntity
  8
OracDecor_panel_moldings
 62
   221
420
 15047383
100
AcDbVertex
100
AcDb3dPolylineVertex
 10
-0.0000038146972656
 20
17.79755973815918
 30
12.79835700988769
 70
    32
  0
VERTEX
  5
170
330
FA
100
AcDbEntity
  8
OracDecor_panel_moldings
 62
   221
420
 15047383
100
AcDbVertex
100
AcDb3dPolylineVertex
 10
-0.0000038146972656
 20
16.15150260925293
 30
11.61797904968262
 70
    32
  0
VERTEX
  5
171
330
FA
100
AcDbEntity
  8
OracDecor_panel_moldings
 62
   221
420
 15047383
100
AcDbVertex
100
AcDb3dPolylineVertex
 10
-0.0000038146972656
 20
14.74335956573486
 30
10.82840538024902
 70
    32
  0
VERTEX
  5
172
330
FA
100
AcDbEntity
  8
OracDecor_panel_moldings
 62
   221
420
 15047383
100
AcDbVertex
100
AcDb3dPolylineVertex
 10
0.0000038146972656
 20
13.97843647003174
 30
10.46698951721191
 70
    32
  0
VERTEX
  5
173
330
FA
100
AcDbEntity
  8
OracDecor_panel_moldings
 62
   221
420
 15047383
100
AcDbVertex
100
AcDb3dPolylineVertex
 10
0.0000038146972656
 20
14.41674900054931
 30
7.258516311645507
 70
    32
  0
VERTEX
  5
174
330
FA
100
AcDbEntity
  8
OracDecor_panel_moldings
 62
   221
420
 15047383
100
AcDbVertex
100
AcDb3dPolylineVertex
 10
-0.0000038146972656
 20
14.43543720245361
 30
7.212629318237304
 70
    32
  0
VERTEX
  5
175
330
FA
100
AcDbEntity
  8
OracDecor_panel_moldings
 62
   221
420
 15047383
100
AcDbVertex
100
AcDb3dPolylineVertex
 10
0.0000038146972656
 20
14.47382068634033
 30
7.181303024291992
 70
    32
  0
VERTEX
  5
176
330
FA
100
AcDbEntity
  8
OracDecor_panel_moldings
 62
   221
420
 15047383
100
AcDbVertex
100
AcDb3dPolylineVertex
 10
-0.0000038146972656
 20
17.82266044616699
 30
5.931055068969726
 70
    32
  0
VERTEX
  5
177
330
FA
100
AcDbEntity
  8
OracDecor_panel_moldings
 62
   221
420
 15047383
100
AcDbVertex
100
AcDb3dPolylineVertex
 10
0.0000038146972656
 20
21.32194328308106
 30
5.203786849975585
 70
    32
  0
VERTEX
  5
178
330
FA
100
AcDbEntity
  8
OracDecor_panel_moldings
 62
   221
420
 15047383
100
AcDbVertex
100
AcDb3dPolylineVertex
 10
-0.0000038146972656
 20
21.4395694732666
 30
5.144697189331054
 70
    32
  0
SEQEND
  5
179
330
FA
100
AcDbEntity
  8
OracDecor_panel_moldings
 62
   221
420
 15047383
  0
ENDSEC
  0
SECTION
  2
OBJECTS
  0
DICTIONARY
  5
C
330
0
100
AcDbDictionary
281
     1
  3
ACAD_COLOR
350
DC
  3
ACAD_DETAILVIEWSTYLE
350
F5
  3
ACAD_GROUP
350
D
  3
ACAD_LAYOUT
350
1A
  3
ACAD_MATERIAL
350
AA
  3
ACAD_MLEADERSTYLE
350
F1
  3
ACAD_MLINESTYLE
350
17
  3
ACAD_PLOTSETTINGS
350
19
  3
ACAD_PLOTSTYLENAME
350
E
  3
ACAD_SCALELIST
350
DF
  3
ACAD_SECTIONVIEWSTYLE
350
F3
  3
ACAD_TABLESTYLE
350
DD
  3
ACAD_VISUALSTYLE
350
C3
  3
ACDB_RECOMPOSE_DATA
350
186
  3
AcDbVariableDictionary
350
17A
  0
DICTIONARY
  5
DC
102
{ACAD_REACTORS
330
C
102
}
330
C
100
AcDbDictionary
281
     1
  0
DICTIONARY
  5
F5
102
{ACAD_REACTORS
330
C
102
}
330
C
100
AcDbDictionary
281
     1
  3
Imperial24
350
F6
  0
DICTIONARY
  5
D
102
{ACAD_REACTORS
330
C
102
}
330
C
100
AcDbDictionary
281
     1
  0
DICTIONARY
  5
1A
102
{ACAD_REACTORS
330
C
102
}
330
C
100
AcDbDictionary
281
     1
  3
Layout1
350
1E
  3
Layout2
350
26
  3
Model
350
22
  0
DICTIONARY
  5
AA
102
{ACAD_REACTORS
330
C
102
}
330
C
100
AcDbDictionary
281
     1
  3
ByBlock
350
B3
  3
ByLayer
350
AB
  3
Global
350
BB
  0
DICTIONARY
  5
F1
102
{ACAD_REACTORS
330
C
102
}
330
C
100
AcDbDictionary
281
     1
  3
Standard
350
F2
  0
DICTIONARY
  5
17
102
{ACAD_REACTORS
330
C
102
}
330
C
100
AcDbDictionary
281
     1
  3
Standard
350
18
  0
DICTIONARY
  5
19
102
{ACAD_REACTORS
330
C
102
}
330
C
100
AcDbDictionary
281
     1
  0
ACDBDICTIONARYWDFLT
  5
E
102
{ACAD_REACTORS
330
C
102
}
330
C
100
AcDbDictionary
281
     1
  3
ByLayer
350
2D
  3
Normal
350
F
100
AcDbDictionaryWithDefault
340
F
  0
DICTIONARY
  5
DF
102
{ACAD_REACTORS
330
C
102
}
330
C
100
AcDbDictionary
281
     1
  3
A0
350
E0
  3
A1
350
E1
  3
A2
350
E2
  3
A3
350
E3
  3
A4
350
E4
  3
A5
350
E5
  3
A6
350
E6
  3
A7
350
E7
  3
A8
350
E8
  3
A9
350
E9
  3
B0
350
EA
  3
B1
350
EB
  3
B2
350
EC
  3
B3
350
ED
  3
B4
350
EE
  3
B5
350
EF
  3
B6
350
F0
  0
DICTIONARY
  5
F3
102
{ACAD_REACTORS
330
C
102
}
330
C
100
AcDbDictionary
281
     1
  3
Imperial24
350
F4
  0
DICTIONARY
  5
DD
102
{ACAD_REACTORS
330
C
102
}
330
C
100
AcDbDictionary
281
     1
  3
Standard
350
DE
  0
DICTIONARY
  5
C3
102
{ACAD_REACTORS
330
C
102
}
330
C
100
AcDbDictionary
281
     1
  3
2dWireframe
350
C9
  3
Basic
350
C8
  3
Brighten
350
CF
  3
ColorChange
350
D3
  3
Conceptual
350
CC
  3
Dim
350
CE
  3
EdgeColorOff
350
DB
  3
Facepattern
350
D2
  3
Flat
350
C4
  3
FlatWithEdges
350
C5
  3
Gouraud
350
C6
  3
GouraudWithEdges
350
C7
  3
Hidden
350
CB
  3
JitterOff
350
D9
  3
Linepattern
350
D1
  3
OverhangOff
350
DA
  3
Realistic
350
CD
  3
Shaded
350
D8
  3
Shaded with edges
350
D7
  3
Shades of Gray
350
D4
  3
Sketchy
350
D5
  3
Thicken
350
D0
  3
Wireframe
350
CA
  3
X-Ray
350
D6
  0
XRECORD
  5
186
102
{ACAD_REACTORS
330
C
102
}
330
C
100
AcDbXrecord
280
     1
 90
        1
330
DE
  0
DICTIONARY
  5
17A
102
{ACAD_REACTORS
330
C
102
}
330
C
100
AcDbDictionary
281
     1
  3
CANNOSCALE
350
180
  3
CMLEADERSTYLE
350
17C
  3
CTABLESTYLE
350
17B
  3
CVIEWDETAILSTYLE
350
17D
  3
CVIEWSECTIONSTYLE
350
17E
  3
LAYEREVAL
350
182
  3
LAYERNOTIFY
350
183
  3
LIGHTINGUNITS
350
181
  3
MSLTSCALE
350
17F
  0
ACDBDETAILVIEWSTYLE
  5
F6
102
{ACAD_XDICTIONARY
360
1BB
102
}
102
{ACAD_REACTORS
330
F5
102
}
330
F5
100
AcDbModelDocViewStyle
 70
     0
  3
Imperial24
290
     0
100
AcDbDetailViewStyle
 70
     0
 71
     0
 90
        3
 71
     1
340
11
 62
   256
 40
0.24
340
0
 62
   256
 40
0.24
300

 40
0.36
280
     3
 71
     2
340
16
 90
       25
 62
   256
 71
     3
340
11
 62
   256
 40
0.24
 90
        1
 40
0.75
 90
        1
300
%<\AcVar ViewType \f "%tc1">% %<\AcVar ViewDetailId>%\PSCALE %<\AcVar ViewScale \f "%sn">%
 71
     4
340
16
 90
       25
 62
   256
340
16
 90
       25
 62
   256
280
     0
  0
LAYOUT
  5
1E
102
{ACAD_REACTORS
330
1A
102
}
330
1A
100
AcDbPlotSettings
  1

  2
\\KTXNTBDC\CASF2PN1
  4

  6

 40
0.0
 41
0.0
 42
0.0
 43
0.0
 44
0.0
 45
0.0
 46
0.0
 47
0.0
 48
0.0
 49
0.0
140
0.0
141
0.0
142
1.0
143
1.0
 70
   688
 72
     0
 73
     0
 74
     5
  7

 75
    16
147
1.0
 76
     0
 77
     2
 78
   300
148
0.0
149
0.0
100
AcDbLayout
  1
Layout1
 70
     1
 71
     1
 10
0.0
 20
0.0
 11
12.0
 21
9.0
 12
0.0
 22
0.0
 32
0.0
 14
1.000000000000000E+20
 24
1.000000000000000E+20
 34
1.000000000000000E+20
 15
-1.000000000000000E+20
 25
-1.000000000000000E+20
 35
-1.000000000000000E+20
146
0.0
 13
0.0
 23
0.0
 33
0.0
 16
1.0
 26
0.0
 36
0.0
 17
0.0
 27
1.0
 37
0.0
 76
     0
330
1B
  0
LAYOUT
  5
26
102
{ACAD_REACTORS
330
1A
102
}
330
1A
100
AcDbPlotSettings
  1

  2
\\KTXNTBDC\CASF2PN1
  4

  6

 40
0.0
 41
0.0
 42
0.0
 43
0.0
 44
0.0
 45
0.0
 46
0.0
 47
0.0
 48
0.0
 49
0.0
140
0.0
141
0.0
142
1.0
143
1.0
 70
   688
 72
     0
 73
     0
 74
     5
  7

 75
    16
147
1.0
 76
     0
 77
     2
 78
   300
148
0.0
149
0.0
100
AcDbLayout
  1
Layout2
 70
     1
 71
     2
 10
0.0
 20
0.0
 11
12.0
 21
9.0
 12
0.0
 22
0.0
 32
0.0
 14
0.0
 24
0.0
 34
0.0
 15
0.0
 25
0.0
 35
0.0
146
0.0
 13
0.0
 23
0.0
 33
0.0
 16
1.0
 26
0.0
 36
0.0
 17
0.0
 27
1.0
 37
0.0
 76
     0
330
23
  0
LAYOUT
  5
22
102
{ACAD_REACTORS
330
1A
102
}
330
1A
100
AcDbPlotSettings
  1

  2
\\KTXNTBDC\CASF2PN1
  4

  6

 40
0.0
 41
0.0
 42
0.0
 43
0.0
 44
0.0
 45
0.0
 46
0.0
 47
0.0
 48
0.0
 49
0.0
140
0.0
141
0.0
142
1.0
143
1.0
 70
  1712
 72
     0
 73
     0
 74
     0
  7

 75
     0
147
1.0
 76
     0
 77
     2
 78
   300
148
0.0
149
0.0
100
AcDbLayout
  1
Model
 70
     1
 71
     0
 10
0.0
 20
0.0
 11
12.0
 21
9.0
 12
0.0
 22
0.0
 32
0.0
 14
0.0
 24
0.0
 34
0.0
 15
0.0
 25
0.0
 35
0.0
146
0.0
 13
0.0
 23
0.0
 33
0.0
 16
1.0
 26
0.0
 36
0.0
 17
0.0
 27
1.0
 37
0.0
 76
     0
330
1F
  0
MATERIAL
  5
B3
102
{ACAD_XDICTIONARY
360
B4
102
}
102
{ACAD_REACTORS
330
AA
102
}
330
AA
100
AcDbMaterial
  1
ByBlock
 72
     0
 43
0.0208333333333333
 43
0.0
 43
0.0
 43
0.0
 43
0.0
 43
0.0208333333333333
 43
0.0
 43
0.0
 43
0.0
 43
0.0
 43
1.0
 43
0.0
 43
0.0
 43
0.0
 43
0.0
 43
1.0
 77
     0
 47
0.0208333333333333
 47
0.0
 47
0.0
 47
0.0
 47
0.0
 47
0.0208333333333333
 47
0.0
 47
0.0
 47
0.0
 47
0.0
 47
1.0
 47
0.0
 47
0.0
 47
0.0
 47
0.0
 47
1.0
171
     0
 49
0.0208333333333333
 49
0.0
 49
0.0
 49
0.0
 49
0.0
 49
0.0208333333333333
 49
0.0
 49
0.0
 49
0.0
 49
0.0
 49
1.0
 49
0.0
 49
0.0
 49
0.0
 49
0.0
 49
1.0
175
     0
142
0.0208333333333333
142
0.0
142
0.0
142
0.0
142
0.0
142
0.0208333333333333
142
0.0
142
0.0
142
0.0
142
0.0
142
1.0
142
0.0
142
0.0
142
0.0
142
0.0
142
1.0
179
     0
144
0.0208333333333333
144
0.0
144
0.0
144
0.0
144
0.0
144
0.0208333333333333
144
0.0
144
0.0
144
0.0
144
0.0
144
1.0
144
0.0
144
0.0
144
0.0
144
0.0
144
1.0
147
0.0208333333333333
147
0.0
147
0.0
147
0.0
147
0.0
147
0.0208333333333333
147
0.0
147
0.0
147
0.0
147
0.0
147
1.0
147
0.0
147
0.0
147
0.0
147
0.0
147
1.0
  0
MATERIAL
  5
AB
102
{ACAD_XDICTIONARY
360
AC
102
}
102
{ACAD_REACTORS
330
AA
102
}
330
AA
100
AcDbMaterial
  1
ByLayer
 72
     0
 43
0.0208333333333333
 43
0.0
 43
0.0
 43
0.0
 43
0.0
 43
0.0208333333333333
 43
0.0
 43
0.0
 43
0.0
 43
0.0
 43
1.0
 43
0.0
 43
0.0
 43
0.0
 43
0.0
 43
1.0
 77
     0
 47
0.0208333333333333
 47
0.0
 47
0.0
 47
0.0
 47
0.0
 47
0.0208333333333333
 47
0.0
 47
0.0
 47
0.0
 47
0.0
 47
1.0
 47
0.0
 47
0.0
 47
0.0
 47
0.0
 47
1.0
171
     0
 49
0.0208333333333333
 49
0.0
 49
0.0
 49
0.0
 49
0.0
 49
0.0208333333333333
 49
0.0
 49
0.0
 49
0.0
 49
0.0
 49
1.0
 49
0.0
 49
0.0
 49
0.0
 49
0.0
 49
1.0
175
     0
142
0.0208333333333333
142
0.0
142
0.0
142
0.0
142
0.0
142
0.0208333333333333
142
0.0
142
0.0
142
0.0
142
0.0
142
1.0
142
0.0
142
0.0
142
0.0
142
0.0
142
1.0
179
     0
144
0.0208333333333333
144
0.0
144
0.0
144
0.0
144
0.0
144
0.0208333333333333
144
0.0
144
0.0
144
0.0
144
0.0
144
1.0
144
0.0
144
0.0
144
0.0
144
0.0
144
1.0
147
0.0208333333333333
147
0.0
147
0.0
147
0.0
147
0.0
147
0.0208333333333333
147
0.0
147
0.0
147
0.0
147
0.0
147
1.0
147
0.0
147
0.0
147
0.0
147
0.0
147
1.0
  0
MATERIAL
  5
BB
102
{ACAD_XDICTIONARY
360
BC
102
}
102
{ACAD_REACTORS
330
AA
102
}
330
AA
100
AcDbMaterial
  1
Global
 72
     0
 43
0.0208333333333333
 43
0.0
 43
0.0
 43
0.0
 43
0.0
 43
0.0208333333333333
 43
0.0
 43
0.0
 43
0.0
 43
0.0
 43
1.0
 43
0.0
 43
0.0
 43
0.0
 43
0.0
 43
1.0
 77
     0
 47
0.0208333333333333
 47
0.0
 47
0.0
 47
0.0
 47
0.0
 47
0.0208333333333333
 47
0.0
 47
0.0
 47
0.0
 47
0.0
 47
1.0
 47
0.0
 47
0.0
 47
0.0
 47
0.0
 47
1.0
171
     0
 49
0.0208333333333333
 49
0.0
 49
0.0
 49
0.0
 49
0.0
 49
0.0208333333333333
 49
0.0
 49
0.0
 49
0.0
 49
0.0
 49
1.0
 49
0.0
 49
0.0
 49
0.0
 49
0.0
 49
1.0
175
     0
142
0.0208333333333333
142
0.0
142
0.0
142
0.0
142
0.0
142
0.0208333333333333
142
0.0
142
0.0
142
0.0
142
0.0
142
1.0
142
0.0
142
0.0
142
0.0
142
0.0
142
1.0
179
     0
144
0.0208333333333333
144
0.0
144
0.0
144
0.0
144
0.0
144
0.0208333333333333
144
0.0
144
0.0
144
0.0
144
0.0
144
1.0
144
0.0
144
0.0
144
0.0
144
0.0
144
1.0
147
0.0208333333333333
147
0.0
147
0.0
147
0.0
147
0.0
147
0.0208333333333333
147
0.0
147
0.0
147
0.0
147
0.0
147
1.0
147
0.0
147
0.0
147
0.0
147
0.0
147
1.0
  0
MLEADERSTYLE
  5
F2
102
{ACAD_XDICTIONARY
360
1B7
102
}
102
{ACAD_REACTORS
330
F1
102
}
330
F1
100
AcDbMLeaderStyle
179
     2
170
     2
171
     1
172
     0
 90
        2
 40
0.0
 41
0.0
173
     1
 91
-1056964608
340
14
 92
       -2
290
     1
 42
0.09
291
     1
 43
0.36
  3
Standard
 44
0.18
300

342
11
174
     1
178
     6
175
     1
176
     0
 93
-1056964608
 45
0.18
292
     0
297
     0
 46
0.18
 94
-1056964608
 47
1.0
 49
1.0
140
1.0
293
     1
141
0.0
294
     1
177
     0
142
1.0
295
     0
296
     0
143
0.125
271
     0
272
     9
273
     9
  0
MLINESTYLE
  5
18
102
{ACAD_REACTORS
330
17
102
}
330
17
100
AcDbMlineStyle
  2
STANDARD
 70
     0
  3

 62
   256
 51
90.0
 52
90.0
 71
     2
 49
0.5
 62
   256
  6
BYLAYER
 49
-0.5
 62
   256
  6
BYLAYER
  0
ACDBPLACEHOLDER
  5
2D
102
{ACAD_REACTORS
330
E
102
}
330
E
  0
ACDBPLACEHOLDER
  5
F
102
{ACAD_REACTORS
330
E
102
}
330
E
  0
SCALE
  5
E0
102
{ACAD_REACTORS
330
DF
102
}
330
DF
100
AcDbScale
 70
     0
300
1:1
140
1.0
141
1.0
290
     1
  0
SCALE
  5
E1
102
{ACAD_REACTORS
330
DF
102
}
330
DF
100
AcDbScale
 70
     0
300
1/128" = 1'-0"
140
0.0078125
141
12.0
290
     0
  0
SCALE
  5
E2
102
{ACAD_REACTORS
330
DF
102
}
330
DF
100
AcDbScale
 70
     0
300
1/64" = 1'-0"
140
0.015625
141
12.0
290
     0
  0
SCALE
  5
E3
102
{ACAD_REACTORS
330
DF
102
}
330
DF
100
AcDbScale
 70
     0
300
1/32" = 1'-0"
140
0.03125
141
12.0
290
     0
  0
SCALE
  5
E4
102
{ACAD_REACTORS
330
DF
102
}
330
DF
100
AcDbScale
 70
     0
300
1/16" = 1'-0"
140
0.0625
141
12.0
290
     0
  0
SCALE
  5
E5
102
{ACAD_REACTORS
330
DF
102
}
330
DF
100
AcDbScale
 70
     0
300
3/32" = 1'-0"
140
0.09375
141
12.0
290
     0
  0
SCALE
  5
E6
102
{ACAD_REACTORS
330
DF
102
}
330
DF
100
AcDbScale
 70
     0
300
1/8" = 1'-0"
140
0.125
141
12.0
290
     0
  0
SCALE
  5
E7
102
{ACAD_REACTORS
330
DF
102
}
330
DF
100
AcDbScale
 70
     0
300
3/16" = 1'-0"
140
0.1875
141
12.0
290
     0
  0
SCALE
  5
E8
102
{ACAD_REACTORS
330
DF
102
}
330
DF
100
AcDbScale
 70
     0
300
1/4" = 1'-0"
140
0.25
141
12.0
290
     0
  0
SCALE
  5
E9
102
{ACAD_REACTORS
330
DF
102
}
330
DF
100
AcDbScale
 70
     0
300
3/8" = 1'-0"
140
0.375
141
12.0
290
     0
  0
SCALE
  5
EA
102
{ACAD_REACTORS
330
DF
102
}
330
DF
100
AcDbScale
 70
     0
300
1/2" = 1'-0"
140
0.5
141
12.0
290
     0
  0
SCALE
  5
EB
102
{ACAD_REACTORS
330
DF
102
}
330
DF
100
AcDbScale
 70
     0
300
3/4" = 1'-0"
140
0.75
141
12.0
290
     0
  0
SCALE
  5
EC
102
{ACAD_REACTORS
330
DF
102
}
330
DF
100
AcDbScale
 70
     0
300
1" = 1'-0"
140
1.0
141
12.0
290
     0
  0
SCALE
  5
ED
102
{ACAD_REACTORS
330
DF
102
}
330
DF
100
AcDbScale
 70
     0
300
1-1/2" = 1'-0"
140
1.5
141
12.0
290
     0
  0
SCALE
  5
EE
102
{ACAD_REACTORS
330
DF
102
}
330
DF
100
AcDbScale
 70
     0
300
3" = 1'-0"
140
3.0
141
12.0
290
     0
  0
SCALE
  5
EF
102
{ACAD_REACTORS
330
DF
102
}
330
DF
100
AcDbScale
 70
     0
300
6" = 1'-0"
140
6.0
141
12.0
290
     0
  0
SCALE
  5
F0
102
{ACAD_REACTORS
330
DF
102
}
330
DF
100
AcDbScale
 70
     0
300
1'-0" = 1'-0"
140
12.0
141
12.0
290
     0
  0
ACDBSECTIONVIEWSTYLE
  5
F4
102
{ACAD_XDICTIONARY
360
1B9
102
}
102
{ACAD_REACTORS
330
F3
102
}
330
F3
100
AcDbModelDocViewStyle
 70
     0
  3
Imperial24
290
     0
100
AcDbSectionViewStyle
 70
     0
 71
     0
 90
       78
 71
     1
340
11
 62
   256
 40
0.24
340
0
340
0
 62
   256
 40
0.24
300
I, O, Q, S, X, Z
 40
0.48
 90
        3
 40
0.18
 90
        1
 71
     2
340
16
 90
       25
 62
   256
340
16
 90
       50
 62
   256
 40
0.24
 40
0.0
 40
0.24
 71
     3
340
11
 62
   256
 40
0.24
 90
        1
 40
0.75
 90
        1
300
%<\AcVar ViewType \f "%tc1">% %<\AcVar ViewSectionStartId>%-%<\AcVar ViewSectionEndId>%\PSCALE %<\AcVar ViewScale \f "%sn">%
 71
     4
 62
   256
 62
   257
300
ANSI31
 40
1.0
 90
        0
290
     0
290
     0
 90
        6
 40
0.0
 40
1.570796326794896
 40
0.2617993877991494
 40
1.308996938995747
 40
-0.2617993877991494
 40
1.832595714594046
  0
TABLESTYLE
  5
DE
102
{ACAD_XDICTIONARY
360
184
102
}
102
{ACAD_REACTORS
330
DD
102
}
330
DD
100
AcDbTableStyle
280
     0
  3
Standard
 70
     0
 71
     0
 40
0.06
 41
0.06
280
     0
281
     0
  7
Standard
140
0.18
170
     2
 62
     0
 63
     7
283
     0
 90
      512
 91
        0
  1

274
    -2
284
     1
 64
     0
275
    -2
285
     1
 65
     0
276
    -2
286
     1
 66
     0
277
    -2
287
     1
 67
     0
278
    -2
288
     1
 68
     0
279
    -2
289
     1
 69
     0
  7
Standard
140
0.25
170
     5
 62
     0
 63
     7
283
     0
 90
      512
 91
        0
  1

274
    -2
284
     1
 64
     0
275
    -2
285
     1
 65
     0
276
    -2
286
     1
 66
     0
277
    -2
287
     1
 67
     0
278
    -2
288
     1
 68
     0
279
    -2
289
     1
 69
     0
  7
Standard
140
0.18
170
     5
 62
     0
 63
     7
283
     0
 90
      512
 91
        0
  1

274
    -2
284
     1
 64
     0
275
    -2
285
     1
 65
     0
276
    -2
286
     1
 66
     0
277
    -2
287
     1
 67
     0
278
    -2
288
     1
 68
     0
279
    -2
289
     1
 69
     0
  0
VISUALSTYLE
  5
C9
102
{ACAD_XDICTIONARY
360
191
102
}
102
{ACAD_REACTORS
330
C3
102
}
330
C3
100
AcDbVisualStyle
  2
2dWireframe
 70
     4
177
     2
291
     0
 71
     0
176
     1
 72
     2
176
     1
 73
     0
176
     1
 90
        0
176
     1
 40
0.6
176
     1
 41
30.0
176
     1
 63
     7
421
 16777215
176
     1
 74
     1
176
     1
 91
        4
176
     1
 64
     7
176
     1
 65
   257
176
     1
 75
     1
176
     1
175
     1
176
     1
 42
1.0
176
     1
 92
        0
176
     1
 66
   257
176
     1
 43
1.0
176
     1
 76
     1
176
     1
 77
     6
176
     1
 78
     2
176
     1
 67
     7
176
     1
 79
     5
176
     1
170
     0
176
     1
171
     0
176
     1
290
     0
176
     1
 93
        1
176
     1
 44
0.0
176
     1
173
     0
176
     1
1001
ACAD
1000
AcDbSavedByObjectVersion
1070
     0
  0
VISUALSTYLE
  5
C8
102
{ACAD_XDICTIONARY
360
18F
102
}
102
{ACAD_REACTORS
330
C3
102
}
330
C3
100
AcDbVisualStyle
  2
Basic
 70
     7
177
     2
291
     1
 71
     1
176
     1
 72
     0
176
     1
 73
     1
176
     1
 90
        0
176
     1
 40
0.6
176
     1
 41
30.0
176
     1
 63
     7
421
 16777215
176
     1
 74
     0
176
     1
 91
        4
176
     1
 64
     7
176
     1
 65
   257
176
     1
 75
     1
176
     1
175
     1
176
     1
 42
1.0
176
     1
 92
        8
176
     1
 66
     7
176
     1
 43
1.0
176
     1
 76
     1
176
     1
 77
     6
176
     1
 78
     2
176
     1
 67
     7
176
     1
 79
     5
176
     1
170
     0
176
     1
171
     0
176
     1
290
     0
176
     1
 93
        1
176
     1
 44
0.0
176
     1
173
     0
176
     1
1001
ACAD
1000
AcDbSavedByObjectVersion
1070
     0
  0
VISUALSTYLE
  5
CF
102
{ACAD_XDICTIONARY
360
19D
102
}
102
{ACAD_REACTORS
330
C3
102
}
330
C3
100
AcDbVisualStyle
  2
Brighten
 70
    12
177
     2
291
     1
 71
     2
176
     1
 72
     2
176
     1
 73
     0
176
     1
 90
        0
176
     1
 40
0.6
176
     1
 41
30.0
176
     1
 63
     7
421
 16777215
176
     1
 74
     1
176
     1
 91
        4
176
     1
 64
     7
176
     1
 65
   257
176
     1
 75
     1
176
     1
175
     1
176
     1
 42
1.0
176
     1
 92
        8
176
     1
 66
     7
176
     1
 43
1.0
176
     1
 76
     1
176
     1
 77
     6
176
     1
 78
     2
176
     1
 67
     7
176
     1
 79
     5
176
     1
170
     0
176
     1
171
     0
176
     1
290
     0
176
     1
 93
        1
176
     1
 44
50.0
176
     1
173
     0
176
     1
1001
ACAD
1000
AcDbSavedByObjectVersion
1070
     0
  0
VISUALSTYLE
  5
D3
102
{ACAD_XDICTIONARY
360
1A5
102
}
102
{ACAD_REACTORS
330
C3
102
}
330
C3
100
AcDbVisualStyle
  2
ColorChange
 70
    16
177
     2
291
     1
 71
     2
176
     1
 72
     2
176
     1
 73
     3
176
     1
 90
        0
176
     1
 40
0.6
176
     1
 41
30.0
176
     1
 63
     8
421
  8421504
176
     1
 74
     1
176
     1
 91
        4
176
     1
 64
     7
176
     1
 65
   257
176
     1
 75
     1
176
     1
175
     1
176
     1
 42
1.0
176
     1
 92
        8
176
     1
 66
     8
424
  8421504
176
     1
 43
1.0
176
     1
 76
     1
176
     1
 77
     6
176
     1
 78
     2
176
     1
 67
     7
176
     1
 79
     5
176
     1
170
     0
176
     1
171
     0
176
     1
290
     0
176
     1
 93
        1
176
     1
 44
0.0
176
     1
173
     0
176
     1
1001
ACAD
1000
AcDbSavedByObjectVersion
1070
     0
  0
VISUALSTYLE
  5
CC
102
{ACAD_XDICTIONARY
360
197
102
}
102
{ACAD_REACTORS
330
C3
102
}
330
C3
100
AcDbVisualStyle
  2
Conceptual
 70
     9
177
     2
291
     0
 71
     3
176
     1
 72
     2
176
     1
 73
     0
176
     1
 90
        0
176
     1
 40
0.6
176
     1
 41
30.0
176
     1
 63
     7
421
 16777215
176
     1
 74
     2
176
     1
 91
        2
176
     1
 64
     7
176
     1
 65
   257
176
     1
 75
     1
176
     1
175
     1
176
     1
 42
179.0
176
     1
 92
        8
176
     1
 66
     7
176
     1
 43
1.0
176
     1
 76
     1
176
     1
 77
     6
176
     1
 78
     2
176
     1
 67
     7
176
     1
 79
     3
176
     1
170
     0
176
     1
171
     0
176
     1
290
     0
176
     1
 93
        1
176
     1
 44
0.0
176
     1
173
     0
176
     1
1001
ACAD
1000
AcDbSavedByObjectVersion
1070
     0
  0
VISUALSTYLE
  5
CE
102
{ACAD_XDICTIONARY
360
19B
102
}
102
{ACAD_REACTORS
330
C3
102
}
330
C3
100
AcDbVisualStyle
  2
Dim
 70
    11
177
     2
291
     1
 71
     2
176
     1
 72
     2
176
     1
 73
     0
176
     1
 90
        0
176
     1
 40
0.6
176
     1
 41
30.0
176
     1
 63
     7
421
 16777215
176
     1
 74
     1
176
     1
 91
        4
176
     1
 64
     7
176
     1
 65
   257
176
     1
 75
     1
176
     1
175
     1
176
     1
 42
1.0
176
     1
 92
        8
176
     1
 66
     7
176
     1
 43
1.0
176
     1
 76
     1
176
     1
 77
     6
176
     1
 78
     2
176
     1
 67
     7
176
     1
 79
     5
176
     1
170
     0
176
     1
171
     0
176
     1
290
     0
176
     1
 93
        1
176
     1
 44
-50.0
176
     1
173
     0
176
     1
1001
ACAD
1000
AcDbSavedByObjectVersion
1070
     0
  0
VISUALSTYLE
  5
DB
102
{ACAD_XDICTIONARY
360
1B5
102
}
102
{ACAD_REACTORS
330
C3
102
}
330
C3
100
AcDbVisualStyle
  2
EdgeColorOff
 70
    22
177
     2
291
     1
 71
     2
176
     0
 72
     2
176
     0
 73
     0
176
     0
 90
        0
176
     0
 40
0.6
176
     0
 41
30.0
176
     0
 63
     7
421
 16777215
176
     0
 74
     1
176
     0
 91
        4
176
     0
 64
     7
176
     0
 65
   257
176
     0
 75
     1
176
     0
175
     1
176
     0
 42
1.0
176
     0
 92
        8
176
     2
 66
     7
176
     0
 43
1.0
176
     0
 76
     1
176
     0
 77
     6
176
     0
 78
     2
176
     0
 67
     7
176
     0
 79
     5
176
     0
170
     0
176
     0
171
     0
176
     0
290
     0
176
     0
 93
        1
176
     0
 44
0.0
176
     0
173
     0
176
     0
1001
ACAD
1000
AcDbSavedByObjectVersion
1070
     0
  0
VISUALSTYLE
  5
D2
102
{ACAD_XDICTIONARY
360
1A3
102
}
102
{ACAD_REACTORS
330
C3
102
}
330
C3
100
AcDbVisualStyle
  2
Facepattern
 70
    15
177
     2
291
     1
 71
     2
176
     1
 72
     2
176
     1
 73
     0
176
     1
 90
        0
176
     1
 40
0.6
176
     1
 41
30.0
176
     1
 63
     7
421
 16777215
176
     1
 74
     1
176
     1
 91
        4
176
     1
 64
     7
176
     1
 65
   257
176
     1
 75
     1
176
     1
175
     1
176
     1
 42
1.0
176
     1
 92
        8
176
     1
 66
     7
176
     1
 43
1.0
176
     1
 76
     1
176
     1
 77
     6
176
     1
 78
     2
176
     1
 67
     7
176
     1
 79
     5
176
     1
170
     0
176
     1
171
     0
176
     1
290
     0
176
     1
 93
        1
176
     1
 44
0.0
176
     1
173
     0
176
     1
1001
ACAD
1000
AcDbSavedByObjectVersion
1070
     0
  0
VISUALSTYLE
  5
C4
102
{ACAD_XDICTIONARY
360
187
102
}
102
{ACAD_REACTORS
330
C3
102
}
330
C3
100
AcDbVisualStyle
  2
Flat
 70
     0
177
     2
291
     1
 71
     2
176
     1
 72
     1
176
     1
 73
     1
176
     1
 90
        2
176
     1
 40
0.6
176
     1
 41
30.0
176
     1
 63
     7
421
 16777215
176
     1
 74
     0
176
     1
 91
        0
176
     1
 64
     7
176
     1
 65
   257
176
     1
 75
     1
176
     1
175
     1
176
     1
 42
1.0
176
     1
 92
        8
176
     1
 66
     7
176
     1
 43
1.0
176
     1
 76
     1
176
     1
 77
     6
176
     1
 78
     2
176
     1
 67
     7
176
     1
 79
     5
176
     1
170
     0
176
     1
171
     0
176
     1
290
     0
176
     1
 93
       13
176
     1
 44
0.0
176
     1
173
     0
176
     1
1001
ACAD
1000
AcDbSavedByObjectVersion
1070
     0
  0
VISUALSTYLE
  5
C5
102
{ACAD_XDICTIONARY
360
189
102
}
102
{ACAD_REACTORS
330
C3
102
}
330
C3
100
AcDbVisualStyle
  2
FlatWithEdges
 70
     1
177
     2
291
     1
 71
     2
176
     1
 72
     1
176
     1
 73
     1
176
     1
 90
        2
176
     1
 40
0.6
176
     1
 41
30.0
176
     1
 63
     7
421
 16777215
176
     1
 74
     1
176
     1
 91
        0
176
     1
 64
     7
176
     1
 65
   257
176
     1
 75
     1
176
     1
175
     1
176
     1
 42
1.0
176
     1
 92
        0
176
     1
 66
   257
176
     1
 43
1.0
176
     1
 76
     1
176
     1
 77
     6
176
     1
 78
     2
176
     1
 67
     7
176
     1
 79
     5
176
     1
170
     0
176
     1
171
     0
176
     1
290
     0
176
     1
 93
       13
176
     1
 44
0.0
176
     1
173
     0
176
     1
1001
ACAD
1000
AcDbSavedByObjectVersion
1070
     0
  0
VISUALSTYLE
  5
C6
102
{ACAD_XDICTIONARY
360
18B
102
}
102
{ACAD_REACTORS
330
C3
102
}
330
C3
100
AcDbVisualStyle
  2
Gouraud
 70
     2
177
     2
291
     1
 71
     2
176
     1
 72
     2
176
     1
 73
     1
176
     1
 90
        2
176
     1
 40
0.6
176
     1
 41
30.0
176
     1
 63
     7
421
 16777215
176
     1
 74
     0
176
     1
 91
        0
176
     1
 64
     7
176
     1
 65
   257
176
     1
 75
     1
176
     1
175
     1
176
     1
 42
1.0
176
     1
 92
        0
176
     1
 66
     7
176
     1
 43
1.0
176
     1
 76
     1
176
     1
 77
     6
176
     1
 78
     2
176
     1
 67
     7
176
     1
 79
     5
176
     1
170
     0
176
     1
171
     0
176
     1
290
     0
176
     1
 93
       13
176
     1
 44
0.0
176
     1
173
     0
176
     1
1001
ACAD
1000
AcDbSavedByObjectVersion
1070
     0
  0
VISUALSTYLE
  5
C7
102
{ACAD_XDICTIONARY
360
18D
102
}
102
{ACAD_REACTORS
330
C3
102
}
330
C3
100
AcDbVisualStyle
  2
GouraudWithEdges
 70
     3
177
     2
291
     1
 71
     2
176
     1
 72
     2
176
     1
 73
     1
176
     1
 90
        2
176
     1
 40
0.6
176
     1
 41
30.0
176
     1
 63
     7
421
 16777215
176
     1
 74
     1
176
     1
 91
        0
176
     1
 64
     7
176
     1
 65
   257
176
     1
 75
     1
176
     1
175
     1
176
     1
 42
1.0
176
     1
 92
        0
176
     1
 66
   257
176
     1
 43
1.0
176
     1
 76
     1
176
     1
 77
     6
176
     1
 78
     2
176
     1
 67
     7
176
     1
 79
     5
176
     1
170
     0
176
     1
171
     0
176
     1
290
     0
176
     1
 93
       13
176
     1
 44
0.0
176
     1
173
     0
176
     1
1001
ACAD
1000
AcDbSavedByObjectVersion
1070
     0
  0
VISUALSTYLE
  5
CB
102
{ACAD_XDICTIONARY
360
195
102
}
102
{ACAD_REACTORS
330
C3
102
}
330
C3
100
AcDbVisualStyle
  2
Hidden
 70
     6
177
     2
291
     0
 71
     1
176
     1
 72
     2
176
     1
 73
     2
176
     1
 90
        0
176
     1
 40
0.6
176
     1
 41
30.0
176
     1
 63
     7
421
 16777215
176
     1
 74
     2
176
     1
 91
        2
176
     1
 64
     7
176
     1
 65
   257
176
     1
 75
     2
176
     1
175
     1
176
     1
 42
40.0
176
     1
 92
        0
176
     1
 66
   257
176
     1
 43
1.0
176
     1
 76
     1
176
     1
 77
     6
176
     1
 78
     2
176
     1
 67
     7
176
     1
 79
     3
176
     1
170
     0
176
     1
171
     0
176
     1
290
     0
176
     1
 93
        1
176
     1
 44
0.0
176
     1
173
     0
176
     1
1001
ACAD
1000
AcDbSavedByObjectVersion
1070
     0
  0
VISUALSTYLE
  5
D9
102
{ACAD_XDICTIONARY
360
1B1
102
}
102
{ACAD_REACTORS
330
C3
102
}
330
C3
100
AcDbVisualStyle
  2
JitterOff
 70
    20
177
     2
291
     1
 71
     2
176
     0
 72
     2
176
     0
 73
     0
176
     0
 90
        0
176
     0
 40
0.6
176
     0
 41
30.0
176
     0
 63
     7
421
 16777215
176
     0
 74
     1
176
     0
 91
        4
176
     0
 64
     7
176
     0
 65
   257
176
     0
 75
     1
176
     0
175
     1
176
     0
 42
1.0
176
     0
 92
       10
176
     2
 66
     7
176
     0
 43
1.0
176
     0
 76
     1
176
     0
 77
     6
176
     0
 78
     2
176
     0
 67
     7
176
     0
 79
     5
176
     0
170
     0
176
     0
171
     0
176
     0
290
     0
176
     0
 93
        1
176
     0
 44
0.0
176
     0
173
     0
176
     0
1001
ACAD
1000
AcDbSavedByObjectVersion
1070
     0
  0
VISUALSTYLE
  5
D1
102
{ACAD_XDICTIONARY
360
1A1
102
}
102
{ACAD_REACTORS
330
C3
102
}
330
C3
100
AcDbVisualStyle
  2
Linepattern
 70
    14
177
     2
291
     1
 71
     2
176
     1
 72
     2
176
     1
 73
     0
176
     1
 90
        0
176
     1
 40
0.6
176
     1
 41
30.0
176
     1
 63
     7
421
 16777215
176
     1
 74
     1
176
     1
 91
        4
176
     1
 64
     7
176
     1
 65
   257
176
     1
 75
     7
176
     1
175
     7
176
     1
 42
1.0
176
     1
 92
        8
176
     1
 66
     7
176
     1
 43
1.0
176
     1
 76
     1
176
     1
 77
     6
176
     1
 78
     2
176
     1
 67
     7
176
     1
 79
     5
176
     1
170
     0
176
     1
171
     0
176
     1
290
     0
176
     1
 93
        1
176
     1
 44
0.0
176
     1
173
     0
176
     1
1001
ACAD
1000
AcDbSavedByObjectVersion
1070
     0
  0
VISUALSTYLE
  5
DA
102
{ACAD_XDICTIONARY
360
1B3
102
}
102
{ACAD_REACTORS
330
C3
102
}
330
C3
100
AcDbVisualStyle
  2
OverhangOff
 70
    21
177
     2
291
     1
 71
     2
176
     0
 72
     2
176
     0
 73
     0
176
     0
 90
        0
176
     0
 40
0.6
176
     0
 41
30.0
176
     0
 63
     7
421
 16777215
176
     0
 74
     1
176
     0
 91
        4
176
     0
 64
     7
176
     0
 65
   257
176
     0
 75
     1
176
     0
175
     1
176
     0
 42
1.0
176
     0
 92
        9
176
     2
 66
     7
176
     0
 43
1.0
176
     0
 76
     1
176
     0
 77
     6
176
     0
 78
     2
176
     0
 67
     7
176
     0
 79
     5
176
     0
170
     0
176
     0
171
     0
176
     0
290
     0
176
     0
 93
        1
176
     0
 44
0.0
176
     0
173
     0
176
     0
1001
ACAD
1000
AcDbSavedByObjectVersion
1070
     0
  0
VISUALSTYLE
  5
CD
102
{ACAD_XDICTIONARY
360
199
102
}
102
{ACAD_REACTORS
330
C3
102
}
330
C3
100
AcDbVisualStyle
  2
Realistic
 70
     8
177
     2
291
     0
 71
     2
176
     1
 72
     3
176
     1
 73
     0
176
     1
 90
        2
176
     1
 40
0.6
176
     1
 41
30.0
176
     1
 63
     7
421
 16777215
176
     1
 74
     0
176
     1
 91
        0
176
     1
 64
     7
176
     1
 65
   257
176
     1
 75
     1
176
     1
175
     1
176
     1
 42
1.0
176
     1
 92
        8
176
     1
 66
   257
176
     1
 43
1.0
176
     1
 76
     1
176
     1
 77
     6
176
     1
 78
     2
176
     1
 67
     7
176
     1
 79
     3
176
     1
170
     0
176
     1
171
     0
176
     1
290
     0
176
     1
 93
       13
176
     1
 44
0.0
176
     1
173
     0
176
     1
1001
ACAD
1000
AcDbSavedByObjectVersion
1070
     0
  0
VISUALSTYLE
  5
D8
102
{ACAD_XDICTIONARY
360
1AF
102
}
102
{ACAD_REACTORS
330
C3
102
}
330
C3
100
AcDbVisualStyle
  2
Shaded
 70
    27
177
     2
291
     0
 71
     2
176
     1
 72
     2
176
     1
 73
     1
176
     1
 90
        2
176
     1
 40
0.6
176
     1
 41
30.0
176
     1
 63
     7
421
 16777215
176
     1
 74
     0
176
     1
 91
        4
176
     1
 64
     7
176
     1
 65
   257
176
     1
 75
     1
176
     1
175
     1
176
     1
 42
1.0
176
     1
 92
        8
176
     1
 66
   257
176
     1
 43
1.0
176
     1
 76
     1
176
     1
 77
     6
176
     1
 78
     2
176
     1
 67
     8
425
  7895160
176
     1
 79
     3
176
     1
170
     0
176
     1
171
     0
176
     1
290
     0
176
     1
 93
        5
176
     1
 44
0.0
176
     1
173
     0
176
     1
1001
ACAD
1000
AcDbSavedByObjectVersion
1070
     0
  0
VISUALSTYLE
  5
D7
102
{ACAD_XDICTIONARY
360
1AD
102
}
102
{ACAD_REACTORS
330
C3
102
}
330
C3
100
AcDbVisualStyle
  2
Shaded with edges
 70
    26
177
     2
291
     0
 71
     2
176
     1
 72
     2
176
     1
 73
     1
176
     1
 90
        2
176
     1
 40
0.6
176
     1
 41
30.0
176
     1
 63
     7
421
 16777215
176
     1
 74
     1
176
     1
 91
       10
176
     1
 64
     7
176
     1
 65
   257
176
     1
 75
     2
176
     1
175
     1
176
     1
 42
1.0
176
     1
 92
        8
176
     1
 66
   257
176
     1
 43
1.0
176
     1
 76
     1
176
     1
 77
     6
176
     1
 78
     2
176
     1
 67
     7
176
     1
 79
     3
176
     1
170
     0
176
     1
171
     0
176
     1
290
     0
176
     1
 93
        5
176
     1
 44
0.0
176
     1
173
     0
176
     1
1001
ACAD
1000
AcDbSavedByObjectVersion
1070
     0
  0
VISUALSTYLE
  5
D4
102
{ACAD_XDICTIONARY
360
1A7
102
}
102
{ACAD_REACTORS
330
C3
102
}
330
C3
100
AcDbVisualStyle
  2
Shades of Gray
 70
    23
177
     2
291
     0
 71
     2
176
     1
 72
     2
176
     1
 73
     3
176
     1
 90
        0
176
     1
 40
0.6
176
     1
 41
30.0
176
     1
 63
     7
421
 16777215
176
     1
 74
     2
176
     1
 91
        2
176
     1
 64
     7
176
     1
 65
     7
176
     1
 75
     1
176
     1
175
     1
176
     1
 42
40.0
176
     1
 92
        8
176
     1
 66
     7
176
     1
 43
1.0
176
     1
 76
     1
176
     1
 77
     6
176
     1
 78
     2
176
     1
 67
     7
176
     1
 79
     3
176
     1
170
     0
176
     1
171
     0
176
     1
290
     0
176
     1
 93
        1
176
     1
 44
0.0
176
     1
173
     0
176
     1
1001
ACAD
1000
AcDbSavedByObjectVersion
1070
     0
  0
VISUALSTYLE
  5
D5
102
{ACAD_XDICTIONARY
360
1A9
102
}
102
{ACAD_REACTORS
330
C3
102
}
330
C3
100
AcDbVisualStyle
  2
Sketchy
 70
    24
177
     2
291
     0
 71
     1
176
     1
 72
     2
176
     1
 73
     2
176
     1
 90
        0
176
     1
 40
0.6
176
     1
 41
30.0
176
     1
 63
     7
421
 16777215
176
     1
 74
     2
176
     1
 91
        2
176
     1
 64
     7
176
     1
 65
     7
176
     1
 75
     1
176
     1
175
     1
176
     1
 42
40.0
176
     1
 92
       11
176
     1
 66
     7
176
     1
 43
1.0
176
     1
 76
     1
176
     1
 77
     6
176
     1
 78
     2
176
     1
 67
     7
176
     1
 79
     6
176
     1
170
     0
176
     1
171
     0
176
     1
290
     0
176
     1
 93
        1
176
     1
 44
0.0
176
     1
173
     0
176
     1
1001
ACAD
1000
AcDbSavedByObjectVersion
1070
     0
  0
VISUALSTYLE
  5
D0
102
{ACAD_XDICTIONARY
360
19F
102
}
102
{ACAD_REACTORS
330
C3
102
}
330
C3
100
AcDbVisualStyle
  2
Thicken
 70
    13
177
     2
291
     1
 71
     2
176
     1
 72
     2
176
     1
 73
     0
176
     1
 90
        0
176
     1
 40
0.6
176
     1
 41
30.0
176
     1
 63
     7
421
 16777215
176
     1
 74
     1
176
     1
 91
        4
176
     1
 64
     7
176
     1
 65
   257
176
     1
 75
     1
176
     1
175
     1
176
     1
 42
1.0
176
     1
 92
       12
176
     1
 66
     7
176
     1
 43
1.0
176
     1
 76
     1
176
     1
 77
     6
176
     1
 78
     2
176
     1
 67
     7
176
     1
 79
     5
176
     1
170
     0
176
     1
171
     0
176
     1
290
     0
176
     1
 93
        1
176
     1
 44
0.0
176
     1
173
     0
176
     1
1001
ACAD
1000
AcDbSavedByObjectVersion
1070
     0
  0
VISUALSTYLE
  5
CA
102
{ACAD_XDICTIONARY
360
193
102
}
102
{ACAD_REACTORS
330
C3
102
}
330
C3
100
AcDbVisualStyle
  2
Wireframe
 70
     5
177
     2
291
     0
 71
     0
176
     1
 72
     2
176
     1
 73
     0
176
     1
 90
        0
176
     1
 40
0.6
176
     1
 41
30.0
176
     1
 63
     7
421
 16777215
176
     1
 74
     1
176
     1
 91
        4
176
     1
 64
     7
176
     1
 65
   257
176
     1
 75
     1
176
     1
175
     1
176
     1
 42
1.0
176
     1
 92
        0
176
     1
 66
   257
176
     1
 43
1.0
176
     1
 76
     1
176
     1
 77
     6
176
     1
 78
     2
176
     1
 67
     7
176
     1
 79
     3
176
     1
170
     0
176
     1
171
     0
176
     1
290
     0
176
     1
 93
        1
176
     1
 44
0.0
176
     1
173
     0
176
     1
1001
ACAD
1000
AcDbSavedByObjectVersion
1070
     0
  0
VISUALSTYLE
  5
D6
102
{ACAD_XDICTIONARY
360
1AB
102
}
102
{ACAD_REACTORS
330
C3
102
}
330
C3
100
AcDbVisualStyle
  2
X-Ray
 70
    25
177
     2
291
     0
 71
     2
176
     1
 72
     2
176
     1
 73
     1
176
     1
 90
        1
176
     1
 40
0.5
176
     1
 41
30.0
176
     1
 63
     7
421
 16777215
176
     1
 74
     1
176
     1
 91
        0
176
     1
 64
     7
176
     1
 65
   257
176
     1
 75
     1
176
     1
175
     1
176
     1
 42
1.0
176
     1
 92
        8
176
     1
 66
     7
176
     1
 43
1.0
176
     1
 76
     1
176
     1
 77
     6
176
     1
 78
     2
176
     1
 67
     7
176
     1
 79
     3
176
     1
170
     0
176
     1
171
     0
176
     1
290
     0
176
     1
 93
       13
176
     1
 44
0.0
176
     1
173
     0
176
     1
1001
ACAD
1000
AcDbSavedByObjectVersion
1070
     0
  0
DICTIONARYVAR
  5
180
102
{ACAD_REACTORS
330
17A
102
}
330
17A
100
DictionaryVariables
280
     0
  1
1:1
  0
DICTIONARYVAR
  5
17C
102
{ACAD_REACTORS
330
17A
102
}
330
17A
100
DictionaryVariables
280
     0
  1
STANDARD
  0
DICTIONARYVAR
  5
17B
102
{ACAD_REACTORS
330
17A
102
}
330
17A
100
DictionaryVariables
280
     0
  1
STANDARD
  0
DICTIONARYVAR
  5
17D
102
{ACAD_REACTORS
330
17A
102
}
330
17A
100
DictionaryVariables
280
     0
  1
Imperial24
  0
DICTIONARYVAR
  5
17E
102
{ACAD_REACTORS
330
17A
102
}
330
17A
100
DictionaryVariables
280
     0
  1
Imperial24
  0
DICTIONARYVAR
  5
182
102
{ACAD_REACTORS
330
17A
102
}
330
17A
100
DictionaryVariables
280
     0
  1
1
  0
DICTIONARYVAR
  5
183
102
{ACAD_REACTORS
330
17A
102
}
330
17A
100
DictionaryVariables
280
     0
  1
15
  0
DICTIONARYVAR
  5
181
102
{ACAD_REACTORS
330
17A
102
}
330
17A
100
DictionaryVariables
280
     0
  1
0
  0
DICTIONARYVAR
  5
17F
102
{ACAD_REACTORS
330
17A
102
}
330
17A
100
DictionaryVariables
280
     0
  1
0
  0
DICTIONARY
  5
1BB
330
F6
100
AcDbDictionary
280
     1
281
     1
  3
ACAD_XREC_ROUNDTRIP
360
1BC
  0
DICTIONARY
  5
B4
330
B3
100
AcDbDictionary
280
     1
281
     1
  3
BUMPTILE
360
B6
  3
DIFFUSETILE
360
B5
  3
OPACITYTILE
360
B9
  3
REFLECTIONTILE
360
B8
  3
REFRACTIONTILE
360
BA
  3
SPECULARTILE
360
B7
  0
DICTIONARY
  5
AC
330
AB
100
AcDbDictionary
280
     1
281
     1
  3
BUMPTILE
360
AE
  3
DIFFUSETILE
360
AD
  3
OPACITYTILE
360
B1
  3
REFLECTIONTILE
360
B0
  3
REFRACTIONTILE
360
B2
  3
SPECULARTILE
360
AF
  0
DICTIONARY
  5
BC
330
BB
100
AcDbDictionary
280
     1
281
     1
  3
BUMPTILE
360
BE
  3
DIFFUSETILE
360
BD
  3
OPACITYTILE
360
C1
  3
REFLECTIONTILE
360
C0
  3
REFRACTIONTILE
360
C2
  3
SPECULARTILE
360
BF
  0
DICTIONARY
  5
1B7
330
F2
100
AcDbDictionary
280
     1
281
     1
  3
ACAD_XREC_ROUNDTRIP
360
1B8
  0
DICTIONARY
  5
1B9
330
F4
100
AcDbDictionary
280
     1
281
     1
  3
ACAD_XREC_ROUNDTRIP
360
1BA
  0
DICTIONARY
  5
184
330
DE
100
AcDbDictionary
280
     1
281
     1
  3
ACAD_ROUNDTRIP_2008_TABLESTYLE_CELLSTYLEMAP
360
185
  0
DICTIONARY
  5
191
330
C9
100
AcDbDictionary
280
     1
281
     1
  3
ACAD_XREC_ROUNDTRIP
360
192
  0
DICTIONARY
  5
18F
330
C8
100
AcDbDictionary
280
     1
281
     1
  3
ACAD_XREC_ROUNDTRIP
360
190
  0
DICTIONARY
  5
19D
330
CF
100
AcDbDictionary
280
     1
281
     1
  3
ACAD_XREC_ROUNDTRIP
360
19E
  0
DICTIONARY
  5
1A5
330
D3
100
AcDbDictionary
280
     1
281
     1
  3
ACAD_XREC_ROUNDTRIP
360
1A6
  0
DICTIONARY
  5
197
330
CC
100
AcDbDictionary
280
     1
281
     1
  3
ACAD_XREC_ROUNDTRIP
360
198
  0
DICTIONARY
  5
19B
330
CE
100
AcDbDictionary
280
     1
281
     1
  3
ACAD_XREC_ROUNDTRIP
360
19C
  0
DICTIONARY
  5
1B5
330
DB
100
AcDbDictionary
280
     1
281
     1
  3
ACAD_XREC_ROUNDTRIP
360
1B6
  0
DICTIONARY
  5
1A3
330
D2
100
AcDbDictionary
280
     1
281
     1
  3
ACAD_XREC_ROUNDTRIP
360
1A4
  0
DICTIONARY
  5
187
330
C4
100
AcDbDictionary
280
     1
281
     1
  3
ACAD_XREC_ROUNDTRIP
360
188
  0
DICTIONARY
  5
189
330
C5
100
AcDbDictionary
280
     1
281
     1
  3
ACAD_XREC_ROUNDTRIP
360
18A
  0
DICTIONARY
  5
18B
330
C6
100
AcDbDictionary
280
     1
281
     1
  3
ACAD_XREC_ROUNDTRIP
360
18C
  0
DICTIONARY
  5
18D
330
C7
100
AcDbDictionary
280
     1
281
     1
  3
ACAD_XREC_ROUNDTRIP
360
18E
  0
DICTIONARY
  5
195
330
CB
100
AcDbDictionary
280
     1
281
     1
  3
ACAD_XREC_ROUNDTRIP
360
196
  0
DICTIONARY
  5
1B1
330
D9
100
AcDbDictionary
280
     1
281
     1
  3
ACAD_XREC_ROUNDTRIP
360
1B2
  0
DICTIONARY
  5
1A1
330
D1
100
AcDbDictionary
280
     1
281
     1
  3
ACAD_XREC_ROUNDTRIP
360
1A2
  0
DICTIONARY
  5
1B3
330
DA
100
AcDbDictionary
280
     1
281
     1
  3
ACAD_XREC_ROUNDTRIP
360
1B4
  0
DICTIONARY
  5
199
330
CD
100
AcDbDictionary
280
     1
281
     1
  3
ACAD_XREC_ROUNDTRIP
360
19A
  0
DICTIONARY
  5
1AF
330
D8
100
AcDbDictionary
280
     1
281
     1
  3
ACAD_XREC_ROUNDTRIP
360
1B0
  0
DICTIONARY
  5
1AD
330
D7
100
AcDbDictionary
280
     1
281
     1
  3
ACAD_XREC_ROUNDTRIP
360
1AE
  0
DICTIONARY
  5
1A7
330
D4
100
AcDbDictionary
280
     1
281
     1
  3
ACAD_XREC_ROUNDTRIP
360
1A8
  0
DICTIONARY
  5
1A9
330
D5
100
AcDbDictionary
280
     1
281
     1
  3
ACAD_XREC_ROUNDTRIP
360
1AA
  0
DICTIONARY
  5
19F
330
D0
100
AcDbDictionary
280
     1
281
     1
  3
ACAD_XREC_ROUNDTRIP
360
1A0
  0
DICTIONARY
  5
193
330
CA
100
AcDbDictionary
280
     1
281
     1
  3
ACAD_XREC_ROUNDTRIP
360
194
  0
DICTIONARY
  5
1AB
330
D6
100
AcDbDictionary
280
     1
281
     1
  3
ACAD_XREC_ROUNDTRIP
360
1AC
  0
XRECORD
  5
1BC
102
{ACAD_REACTORS
330
1BB
102
}
330
1BB
100
AcDbXrecord
280
     1
102
DISPLAYNAME
  1
Imperial24
102
FLAGS
 90
        0
  0
XRECORD
  5
B6
102
{ACAD_REACTORS
330
B4
102
}
330
B4
100
AcDbXrecord
280
     1
270
     1
271
     1
  0
XRECORD
  5
B5
102
{ACAD_REACTORS
330
B4
102
}
330
B4
100
AcDbXrecord
280
     1
270
     1
271
     1
  0
XRECORD
  5
B9
102
{ACAD_REACTORS
330
B4
102
}
330
B4
100
AcDbXrecord
280
     1
270
     1
271
     1
  0
XRECORD
  5
B8
102
{ACAD_REACTORS
330
B4
102
}
330
B4
100
AcDbXrecord
280
     1
270
     1
271
     1
  0
XRECORD
  5
BA
102
{ACAD_REACTORS
330
B4
102
}
330
B4
100
AcDbXrecord
280
     1
270
     1
271
     1
  0
XRECORD
  5
B7
102
{ACAD_REACTORS
330
B4
102
}
330
B4
100
AcDbXrecord
280
     1
270
     1
271
     1
  0
XRECORD
  5
AE
102
{ACAD_REACTORS
330
AC
102
}
330
AC
100
AcDbXrecord
280
     1
270
     1
271
     1
  0
XRECORD
  5
AD
102
{ACAD_REACTORS
330
AC
102
}
330
AC
100
AcDbXrecord
280
     1
270
     1
271
     1
  0
XRECORD
  5
B1
102
{ACAD_REACTORS
330
AC
102
}
330
AC
100
AcDbXrecord
280
     1
270
     1
271
     1
  0
XRECORD
  5
B0
102
{ACAD_REACTORS
330
AC
102
}
330
AC
100
AcDbXrecord
280
     1
270
     1
271
     1
  0
XRECORD
  5
B2
102
{ACAD_REACTORS
330
AC
102
}
330
AC
100
AcDbXrecord
280
     1
270
     1
271
     1
  0
XRECORD
  5
AF
102
{ACAD_REACTORS
330
AC
102
}
330
AC
100
AcDbXrecord
280
     1
270
     1
271
     1
  0
XRECORD
  5
BE
102
{ACAD_REACTORS
330
BC
102
}
330
BC
100
AcDbXrecord
280
     1
270
     1
271
     1
  0
XRECORD
  5
BD
102
{ACAD_REACTORS
330
BC
102
}
330
BC
100
AcDbXrecord
280
     1
270
     1
271
     1
  0
XRECORD
  5
C1
102
{ACAD_REACTORS
330
BC
102
}
330
BC
100
AcDbXrecord
280
     1
270
     1
271
     1
  0
XRECORD
  5
C0
102
{ACAD_REACTORS
330
BC
102
}
330
BC
100
AcDbXrecord
280
     1
270
     1
271
     1
  0
XRECORD
  5
C2
102
{ACAD_REACTORS
330
BC
102
}
330
BC
100
AcDbXrecord
280
     1
270
     1
271
     1
  0
XRECORD
  5
BF
102
{ACAD_REACTORS
330
BC
102
}
330
BC
100
AcDbXrecord
280
     1
270
     1
271
     1
  0
XRECORD
  5
1B8
102
{ACAD_REACTORS
330
1B7
102
}
330
1B7
100
AcDbXrecord
280
     1
102
ACAD_ROUNDTRIP_2012_MLEADER_STYLE
298
     1
  0
XRECORD
  5
1BA
102
{ACAD_REACTORS
330
1B9
102
}
330
1B9
100
AcDbXrecord
280
     1
102
DISPLAYNAME
  1
Imperial24
102
FLAGS
 90
        0
  0
CELLSTYLEMAP
  5
185
102
{ACAD_REACTORS
330
184
102
}
330
184
100
AcDbCellStyleMap
 90
        3
300
CELLSTYLE
  1
TABLEFORMAT_BEGIN
 90
        5
170
     1
 91
        0
 92
    32768
 62
   257
 93
        1
300
CONTENTFORMAT
  1
CONTENTFORMAT_BEGIN
 90
        0
 91
        0
 92
      512
 93
        0
300

 40
0.0
140
1.0
 94
        5
 62
     0
340
11
144
0.25
309
CONTENTFORMAT_END
171
     0
 94
        0
309
TABLEFORMAT_END
  1
CELLSTYLE_BEGIN
 90
        1
 91
        1
300
_TITLE
309
CELLSTYLE_END
300
CELLSTYLE
  1
TABLEFORMAT_BEGIN
 90
        5
170
     1
 91
        0
 92
        0
 62
   257
 93
        1
300
CONTENTFORMAT
  1
CONTENTFORMAT_BEGIN
 90
        0
 91
        0
 92
      512
 93
        0
300

 40
0.0
140
1.0
 94
        5
 62
     0
340
11
144
0.18
309
CONTENTFORMAT_END
171
     0
 94
        0
309
TABLEFORMAT_END
  1
CELLSTYLE_BEGIN
 90
        2
 91
        1
300
_HEADER
309
CELLSTYLE_END
300
CELLSTYLE
  1
TABLEFORMAT_BEGIN
 90
        5
170
     1
 91
        0
 92
        0
 62
   257
 93
        1
300
CONTENTFORMAT
  1
CONTENTFORMAT_BEGIN
 90
        0
 91
        0
 92
      512
 93
        0
300

 40
0.0
140
1.0
 94
        2
 62
     0
340
11
144
0.18
309
CONTENTFORMAT_END
171
     0
 94
        0
309
TABLEFORMAT_END
  1
CELLSTYLE_BEGIN
 90
        3
 91
        2
300
_DATA
309
CELLSTYLE_END
  0
XRECORD
  5
192
102
{ACAD_REACTORS
330
191
102
}
330
191
100
AcDbXrecord
280
     1
102
RTVSPost2010Prop28
280
     1
102
RTVSPost2010PropOp28
 70
     1
102
RTVSPost2010Prop29
280
     1
102
RTVSPost2010PropOp29
 70
     1
102
RTVSPost2010Prop30
280
     0
102
RTVSPost2010PropOp30
 70
     1
102
RTVSPost2010Prop31
280
     0
102
RTVSPost2010PropOp31
 70
     1
102
RTVSPost2010Prop32
280
     0
102
RTVSPost2010PropOp32
 70
     1
102
RTVSPost2010Prop33
280
     0
102
RTVSPost2010PropOp33
 70
     1
102
RTVSPost2010Prop34
280
     0
102
RTVSPost2010PropOp34
 70
     1
102
RTVSPost2010Prop35
280
     0
102
RTVSPost2010PropOp35
 70
     1
102
RTVSPost2010Prop36
280
     0
102
RTVSPost2010PropOp36
 70
     1
102
RTVSPost2010Prop37
 90
       50
102
RTVSPost2010PropOp37
 70
     1
102
RTVSPost2010Prop38
140
0.0
102
RTVSPost2010PropOp38
 70
     1
102
RTVSPost2010Prop39
140
1.0
102
RTVSPost2010PropOp39
 70
     1
102
RTVSPost2010Prop40
 90
        0
102
RTVSPost2010PropOp40
 70
     1
102
RTVSPost2010Prop41ColorIndex
 90
       18
102
RTVSPost2010Prop41ColorRGB
 90
        0
102
RTVSPost2010PropOp41
 70
     1
102
RTVSPost2010Prop42
 90
       50
102
RTVSPost2010PropOp42
 70
     1
102
RTVSPost2010Prop43
 90
        3
102
RTVSPost2010PropOp43
 70
     1
102
RTVSPost2010Prop44ColorIndex
 90
        5
102
RTVSPost2010Prop44ColorRGB
 90
      255
102
RTVSPost2010PropOp44
 70
     1
102
RTVSPost2010Prop45
280
     0
102
RTVSPost2010PropOp45
 70
     1
102
RTVSPost2010Prop46
 90
       50
102
RTVSPost2010PropOp46
 70
     1
102
RTVSPost2010Prop47
 90
       50
102
RTVSPost2010PropOp47
 70
     1
102
RTVSPost2010Prop48
 90
       50
102
RTVSPost2010PropOp48
 70
     1
102
RTVSPost2010Prop49
280
     0
102
RTVSPost2010PropOp49
 70
     1
102
RTVSPost2010Prop50
 90
       50
102
RTVSPost2010PropOp50
 70
     1
102
RTVSPost2010Prop51ColorIndex
 90
      256
102
RTVSPost2010Prop51ColorRGB
 90
-16777216
102
RTVSPost2010PropOp51
 70
     0
102
RTVSPost2010Prop52
140
1.0
102
RTVSPost2010PropOp52
 70
     0
102
RTVSPost2010Prop53
 90
        2
102
RTVSPost2010PropOp53
 70
     1
102
RTVSPost2010Prop54
  1
strokes_ogs.tif
102
RTVSPost2010PropOp54
 70
     1
102
RTVSPost2010Prop55
280
     0
102
RTVSPost2010PropOp55
 70
     1
102
RTVSPost2010Prop56
140
1.0
102
RTVSPost2010PropOp56
 70
     1
102
RTVSPost2010Prop57
140
1.0
102
RTVSPost2010PropOp57
 70
     1
  0
XRECORD
  5
190
102
{ACAD_REACTORS
330
18F
102
}
330
18F
100
AcDbXrecord
280
     1
102
RTVSPost2010Prop28
280
     0
102
RTVSPost2010PropOp28
 70
     1
102
RTVSPost2010Prop29
280
     1
102
RTVSPost2010PropOp29
 70
     1
102
RTVSPost2010Prop30
280
     1
102
RTVSPost2010PropOp30
 70
     1
102
RTVSPost2010Prop31
280
     0
102
RTVSPost2010PropOp31
 70
     1
102
RTVSPost2010Prop32
280
     0
102
RTVSPost2010PropOp32
 70
     1
102
RTVSPost2010Prop33
280
     0
102
RTVSPost2010PropOp33
 70
     1
102
RTVSPost2010Prop34
280
     0
102
RTVSPost2010PropOp34
 70
     1
102
RTVSPost2010Prop35
280
     0
102
RTVSPost2010PropOp35
 70
     1
102
RTVSPost2010Prop36
280
     0
102
RTVSPost2010PropOp36
 70
     1
102
RTVSPost2010Prop37
 90
       50
102
RTVSPost2010PropOp37
 70
     1
102
RTVSPost2010Prop38
140
0.0
102
RTVSPost2010PropOp38
 70
     1
102
RTVSPost2010Prop39
140
1.0
102
RTVSPost2010PropOp39
 70
     1
102
RTVSPost2010Prop40
 90
        0
102
RTVSPost2010PropOp40
 70
     1
102
RTVSPost2010Prop41ColorIndex
 90
       18
102
RTVSPost2010Prop41ColorRGB
 90
        0
102
RTVSPost2010PropOp41
 70
     1
102
RTVSPost2010Prop42
 90
       50
102
RTVSPost2010PropOp42
 70
     1
102
RTVSPost2010Prop43
 90
        3
102
RTVSPost2010PropOp43
 70
     1
102
RTVSPost2010Prop44ColorIndex
 90
        5
102
RTVSPost2010Prop44ColorRGB
 90
      255
102
RTVSPost2010PropOp44
 70
     1
102
RTVSPost2010Prop45
280
     0
102
RTVSPost2010PropOp45
 70
     1
102
RTVSPost2010Prop46
 90
       50
102
RTVSPost2010PropOp46
 70
     1
102
RTVSPost2010Prop47
 90
       50
102
RTVSPost2010PropOp47
 70
     1
102
RTVSPost2010Prop48
 90
       50
102
RTVSPost2010PropOp48
 70
     1
102
RTVSPost2010Prop49
280
     0
102
RTVSPost2010PropOp49
 70
     1
102
RTVSPost2010Prop50
 90
       50
102
RTVSPost2010PropOp50
 70
     1
102
RTVSPost2010Prop51ColorIndex
 90
      256
102
RTVSPost2010Prop51ColorRGB
 90
-16777216
102
RTVSPost2010PropOp51
 70
     0
102
RTVSPost2010Prop52
140
1.0
102
RTVSPost2010PropOp52
 70
     0
102
RTVSPost2010Prop53
 90
        2
102
RTVSPost2010PropOp53
 70
     1
102
RTVSPost2010Prop54
  1
strokes_ogs.tif
102
RTVSPost2010PropOp54
 70
     1
102
RTVSPost2010Prop55
280
     0
102
RTVSPost2010PropOp55
 70
     1
102
RTVSPost2010Prop56
140
1.0
102
RTVSPost2010PropOp56
 70
     1
102
RTVSPost2010Prop57
140
1.0
102
RTVSPost2010PropOp57
 70
     1
  0
XRECORD
  5
19E
102
{ACAD_REACTORS
330
19D
102
}
330
19D
100
AcDbXrecord
280
     1
102
RTVSPost2010Prop28
280
     0
102
RTVSPost2010PropOp28
 70
     1
102
RTVSPost2010Prop29
280
     1
102
RTVSPost2010PropOp29
 70
     1
102
RTVSPost2010Prop30
280
     1
102
RTVSPost2010PropOp30
 70
     1
102
RTVSPost2010Prop31
280
     0
102
RTVSPost2010PropOp31
 70
     1
102
RTVSPost2010Prop32
280
     0
102
RTVSPost2010PropOp32
 70
     1
102
RTVSPost2010Prop33
280
     0
102
RTVSPost2010PropOp33
 70
     1
102
RTVSPost2010Prop34
280
     0
102
RTVSPost2010PropOp34
 70
     1
102
RTVSPost2010Prop35
280
     0
102
RTVSPost2010PropOp35
 70
     1
102
RTVSPost2010Prop36
280
     0
102
RTVSPost2010PropOp36
 70
     1
102
RTVSPost2010Prop37
 90
       50
102
RTVSPost2010PropOp37
 70
     1
102
RTVSPost2010Prop38
140
0.0
102
RTVSPost2010PropOp38
 70
     1
102
RTVSPost2010Prop39
140
1.0
102
RTVSPost2010PropOp39
 70
     1
102
RTVSPost2010Prop40
 90
        0
102
RTVSPost2010PropOp40
 70
     1
102
RTVSPost2010Prop41ColorIndex
 90
       18
102
RTVSPost2010Prop41ColorRGB
 90
        0
102
RTVSPost2010PropOp41
 70
     1
102
RTVSPost2010Prop42
 90
       50
102
RTVSPost2010PropOp42
 70
     1
102
RTVSPost2010Prop43
 90
        3
102
RTVSPost2010PropOp43
 70
     1
102
RTVSPost2010Prop44ColorIndex
 90
        5
102
RTVSPost2010Prop44ColorRGB
 90
      255
102
RTVSPost2010PropOp44
 70
     1
102
RTVSPost2010Prop45
280
     0
102
RTVSPost2010PropOp45
 70
     1
102
RTVSPost2010Prop46
 90
       50
102
RTVSPost2010PropOp46
 70
     1
102
RTVSPost2010Prop47
 90
       50
102
RTVSPost2010PropOp47
 70
     1
102
RTVSPost2010Prop48
 90
       50
102
RTVSPost2010PropOp48
 70
     1
102
RTVSPost2010Prop49
280
     0
102
RTVSPost2010PropOp49
 70
     1
102
RTVSPost2010Prop50
 90
       50
102
RTVSPost2010PropOp50
 70
     1
102
RTVSPost2010Prop51ColorIndex
 90
      256
102
RTVSPost2010Prop51ColorRGB
 90
-16777216
102
RTVSPost2010PropOp51
 70
     0
102
RTVSPost2010Prop52
140
1.0
102
RTVSPost2010PropOp52
 70
     0
102
RTVSPost2010Prop53
 90
        2
102
RTVSPost2010PropOp53
 70
     1
102
RTVSPost2010Prop54
  1
strokes_ogs.tif
102
RTVSPost2010PropOp54
 70
     1
102
RTVSPost2010Prop55
280
     0
102
RTVSPost2010PropOp55
 70
     1
102
RTVSPost2010Prop56
140
1.0
102
RTVSPost2010PropOp56
 70
     1
102
RTVSPost2010Prop57
140
1.0
102
RTVSPost2010PropOp57
 70
     1
  0
XRECORD
  5
1A6
102
{ACAD_REACTORS
330
1A5
102
}
330
1A5
100
AcDbXrecord
280
     1
102
RTVSPost2010Prop28
280
     0
102
RTVSPost2010PropOp28
 70
     1
102
RTVSPost2010Prop29
280
     1
102
RTVSPost2010PropOp29
 70
     1
102
RTVSPost2010Prop30
280
     1
102
RTVSPost2010PropOp30
 70
     1
102
RTVSPost2010Prop31
280
     0
102
RTVSPost2010PropOp31
 70
     1
102
RTVSPost2010Prop32
280
     0
102
RTVSPost2010PropOp32
 70
     1
102
RTVSPost2010Prop33
280
     0
102
RTVSPost2010PropOp33
 70
     1
102
RTVSPost2010Prop34
280
     0
102
RTVSPost2010PropOp34
 70
     1
102
RTVSPost2010Prop35
280
     0
102
RTVSPost2010PropOp35
 70
     1
102
RTVSPost2010Prop36
280
     0
102
RTVSPost2010PropOp36
 70
     1
102
RTVSPost2010Prop37
 90
       50
102
RTVSPost2010PropOp37
 70
     1
102
RTVSPost2010Prop38
140
0.0
102
RTVSPost2010PropOp38
 70
     1
102
RTVSPost2010Prop39
140
1.0
102
RTVSPost2010PropOp39
 70
     1
102
RTVSPost2010Prop40
 90
        0
102
RTVSPost2010PropOp40
 70
     1
102
RTVSPost2010Prop41ColorIndex
 90
       18
102
RTVSPost2010Prop41ColorRGB
 90
        0
102
RTVSPost2010PropOp41
 70
     1
102
RTVSPost2010Prop42
 90
       50
102
RTVSPost2010PropOp42
 70
     1
102
RTVSPost2010Prop43
 90
        3
102
RTVSPost2010PropOp43
 70
     1
102
RTVSPost2010Prop44ColorIndex
 90
        5
102
RTVSPost2010Prop44ColorRGB
 90
      255
102
RTVSPost2010PropOp44
 70
     1
102
RTVSPost2010Prop45
280
     0
102
RTVSPost2010PropOp45
 70
     1
102
RTVSPost2010Prop46
 90
       50
102
RTVSPost2010PropOp46
 70
     1
102
RTVSPost2010Prop47
 90
       50
102
RTVSPost2010PropOp47
 70
     1
102
RTVSPost2010Prop48
 90
       50
102
RTVSPost2010PropOp48
 70
     1
102
RTVSPost2010Prop49
280
     0
102
RTVSPost2010PropOp49
 70
     1
102
RTVSPost2010Prop50
 90
       50
102
RTVSPost2010PropOp50
 70
     1
102
RTVSPost2010Prop51ColorIndex
 90
      256
102
RTVSPost2010Prop51ColorRGB
 90
-16777216
102
RTVSPost2010PropOp51
 70
     0
102
RTVSPost2010Prop52
140
1.0
102
RTVSPost2010PropOp52
 70
     0
102
RTVSPost2010Prop53
 90
        2
102
RTVSPost2010PropOp53
 70
     1
102
RTVSPost2010Prop54
  1
strokes_ogs.tif
102
RTVSPost2010PropOp54
 70
     1
102
RTVSPost2010Prop55
280
     0
102
RTVSPost2010PropOp55
 70
     1
102
RTVSPost2010Prop56
140
1.0
102
RTVSPost2010PropOp56
 70
     1
102
RTVSPost2010Prop57
140
1.0
102
RTVSPost2010PropOp57
 70
     1
  0
XRECORD
  5
198
102
{ACAD_REACTORS
330
197
102
}
330
197
100
AcDbXrecord
280
     1
102
RTVSPost2010Prop28
280
     0
102
RTVSPost2010PropOp28
 70
     1
102
RTVSPost2010Prop29
280
     1
102
RTVSPost2010PropOp29
 70
     1
102
RTVSPost2010Prop30
280
     1
102
RTVSPost2010PropOp30
 70
     1
102
RTVSPost2010Prop31
280
     0
102
RTVSPost2010PropOp31
 70
     1
102
RTVSPost2010Prop32
280
     0
102
RTVSPost2010PropOp32
 70
     1
102
RTVSPost2010Prop33
280
     0
102
RTVSPost2010PropOp33
 70
     1
102
RTVSPost2010Prop34
280
     0
102
RTVSPost2010PropOp34
 70
     1
102
RTVSPost2010Prop35
280
     0
102
RTVSPost2010PropOp35
 70
     1
102
RTVSPost2010Prop36
280
     0
102
RTVSPost2010PropOp36
 70
     1
102
RTVSPost2010Prop37
 90
       50
102
RTVSPost2010PropOp37
 70
     1
102
RTVSPost2010Prop38
140
0.0
102
RTVSPost2010PropOp38
 70
     1
102
RTVSPost2010Prop39
140
1.0
102
RTVSPost2010PropOp39
 70
     1
102
RTVSPost2010Prop40
 90
        0
102
RTVSPost2010PropOp40
 70
     1
102
RTVSPost2010Prop41ColorIndex
 90
       18
102
RTVSPost2010Prop41ColorRGB
 90
        0
102
RTVSPost2010PropOp41
 70
     1
102
RTVSPost2010Prop42
 90
       50
102
RTVSPost2010PropOp42
 70
     1
102
RTVSPost2010Prop43
 90
        3
102
RTVSPost2010PropOp43
 70
     1
102
RTVSPost2010Prop44ColorIndex
 90
        5
102
RTVSPost2010Prop44ColorRGB
 90
      255
102
RTVSPost2010PropOp44
 70
     1
102
RTVSPost2010Prop45
280
     0
102
RTVSPost2010PropOp45
 70
     1
102
RTVSPost2010Prop46
 90
       50
102
RTVSPost2010PropOp46
 70
     1
102
RTVSPost2010Prop47
 90
       50
102
RTVSPost2010PropOp47
 70
     1
102
RTVSPost2010Prop48
 90
       50
102
RTVSPost2010PropOp48
 70
     1
102
RTVSPost2010Prop49
280
     0
102
RTVSPost2010PropOp49
 70
     1
102
RTVSPost2010Prop50
 90
       50
102
RTVSPost2010PropOp50
 70
     1
102
RTVSPost2010Prop51ColorIndex
 90
      256
102
RTVSPost2010Prop51ColorRGB
 90
-16777216
102
RTVSPost2010PropOp51
 70
     0
102
RTVSPost2010Prop52
140
1.0
102
RTVSPost2010PropOp52
 70
     0
102
RTVSPost2010Prop53
 90
        2
102
RTVSPost2010PropOp53
 70
     1
102
RTVSPost2010Prop54
  1
strokes_ogs.tif
102
RTVSPost2010PropOp54
 70
     1
102
RTVSPost2010Prop55
280
     0
102
RTVSPost2010PropOp55
 70
     1
102
RTVSPost2010Prop56
140
1.0
102
RTVSPost2010PropOp56
 70
     1
102
RTVSPost2010Prop57
140
1.0
102
RTVSPost2010PropOp57
 70
     1
  0
XRECORD
  5
19C
102
{ACAD_REACTORS
330
19B
102
}
330
19B
100
AcDbXrecord
280
     1
102
RTVSPost2010Prop28
280
     0
102
RTVSPost2010PropOp28
 70
     1
102
RTVSPost2010Prop29
280
     1
102
RTVSPost2010PropOp29
 70
     1
102
RTVSPost2010Prop30
280
     1
102
RTVSPost2010PropOp30
 70
     1
102
RTVSPost2010Prop31
280
     0
102
RTVSPost2010PropOp31
 70
     1
102
RTVSPost2010Prop32
280
     0
102
RTVSPost2010PropOp32
 70
     1
102
RTVSPost2010Prop33
280
     0
102
RTVSPost2010PropOp33
 70
     1
102
RTVSPost2010Prop34
280
     0
102
RTVSPost2010PropOp34
 70
     1
102
RTVSPost2010Prop35
280
     0
102
RTVSPost2010PropOp35
 70
     1
102
RTVSPost2010Prop36
280
     0
102
RTVSPost2010PropOp36
 70
     1
102
RTVSPost2010Prop37
 90
       50
102
RTVSPost2010PropOp37
 70
     1
102
RTVSPost2010Prop38
140
0.0
102
RTVSPost2010PropOp38
 70
     1
102
RTVSPost2010Prop39
140
1.0
102
RTVSPost2010PropOp39
 70
     1
102
RTVSPost2010Prop40
 90
        0
102
RTVSPost2010PropOp40
 70
     1
102
RTVSPost2010Prop41ColorIndex
 90
       18
102
RTVSPost2010Prop41ColorRGB
 90
        0
102
RTVSPost2010PropOp41
 70
     1
102
RTVSPost2010Prop42
 90
       50
102
RTVSPost2010PropOp42
 70
     1
102
RTVSPost2010Prop43
 90
        3
102
RTVSPost2010PropOp43
 70
     1
102
RTVSPost2010Prop44ColorIndex
 90
        5
102
RTVSPost2010Prop44ColorRGB
 90
      255
102
RTVSPost2010PropOp44
 70
     1
102
RTVSPost2010Prop45
280
     0
102
RTVSPost2010PropOp45
 70
     1
102
RTVSPost2010Prop46
 90
       50
102
RTVSPost2010PropOp46
 70
     1
102
RTVSPost2010Prop47
 90
       50
102
RTVSPost2010PropOp47
 70
     1
102
RTVSPost2010Prop48
 90
       50
102
RTVSPost2010PropOp48
 70
     1
102
RTVSPost2010Prop49
280
     0
102
RTVSPost2010PropOp49
 70
     1
102
RTVSPost2010Prop50
 90
       50
102
RTVSPost2010PropOp50
 70
     1
102
RTVSPost2010Prop51ColorIndex
 90
      256
102
RTVSPost2010Prop51ColorRGB
 90
-16777216
102
RTVSPost2010PropOp51
 70
     0
102
RTVSPost2010Prop52
140
1.0
102
RTVSPost2010PropOp52
 70
     0
102
RTVSPost2010Prop53
 90
        2
102
RTVSPost2010PropOp53
 70
     1
102
RTVSPost2010Prop54
  1
strokes_ogs.tif
102
RTVSPost2010PropOp54
 70
     1
102
RTVSPost2010Prop55
280
     0
102
RTVSPost2010PropOp55
 70
     1
102
RTVSPost2010Prop56
140
1.0
102
RTVSPost2010PropOp56
 70
     1
102
RTVSPost2010Prop57
140
1.0
102
RTVSPost2010PropOp57
 70
     1
  0
XRECORD
  5
1B6
102
{ACAD_REACTORS
330
1B5
102
}
330
1B5
100
AcDbXrecord
280
     1
102
RTVSPost2010Prop28
280
     0
102
RTVSPost2010PropOp28
 70
     0
102
RTVSPost2010Prop29
280
     1
102
RTVSPost2010PropOp29
 70
     0
102
RTVSPost2010Prop30
280
     1
102
RTVSPost2010PropOp30
 70
     0
102
RTVSPost2010Prop31
280
     0
102
RTVSPost2010PropOp31
 70
     0
102
RTVSPost2010Prop32
280
     0
102
RTVSPost2010PropOp32
 70
     0
102
RTVSPost2010Prop33
280
     0
102
RTVSPost2010PropOp33
 70
     0
102
RTVSPost2010Prop34
280
     0
102
RTVSPost2010PropOp34
 70
     0
102
RTVSPost2010Prop35
280
     0
102
RTVSPost2010PropOp35
 70
     0
102
RTVSPost2010Prop36
280
     0
102
RTVSPost2010PropOp36
 70
     0
102
RTVSPost2010Prop37
 90
       50
102
RTVSPost2010PropOp37
 70
     0
102
RTVSPost2010Prop38
140
0.0
102
RTVSPost2010PropOp38
 70
     0
102
RTVSPost2010Prop39
140
1.0
102
RTVSPost2010PropOp39
 70
     0
102
RTVSPost2010Prop40
 90
        0
102
RTVSPost2010PropOp40
 70
     0
102
RTVSPost2010Prop41ColorIndex
 90
       18
102
RTVSPost2010Prop41ColorRGB
 90
        0
102
RTVSPost2010PropOp41
 70
     0
102
RTVSPost2010Prop42
 90
       50
102
RTVSPost2010PropOp42
 70
     0
102
RTVSPost2010Prop43
 90
        3
102
RTVSPost2010PropOp43
 70
     0
102
RTVSPost2010Prop44ColorIndex
 90
        5
102
RTVSPost2010Prop44ColorRGB
 90
      255
102
RTVSPost2010PropOp44
 70
     0
102
RTVSPost2010Prop45
280
     0
102
RTVSPost2010PropOp45
 70
     0
102
RTVSPost2010Prop46
 90
       50
102
RTVSPost2010PropOp46
 70
     0
102
RTVSPost2010Prop47
 90
       50
102
RTVSPost2010PropOp47
 70
     0
102
RTVSPost2010Prop48
 90
       50
102
RTVSPost2010PropOp48
 70
     0
102
RTVSPost2010Prop49
280
     0
102
RTVSPost2010PropOp49
 70
     0
102
RTVSPost2010Prop50
 90
       50
102
RTVSPost2010PropOp50
 70
     0
102
RTVSPost2010Prop51ColorIndex
 90
      256
102
RTVSPost2010Prop51ColorRGB
 90
-16777216
102
RTVSPost2010PropOp51
 70
     0
102
RTVSPost2010Prop52
140
1.0
102
RTVSPost2010PropOp52
 70
     0
102
RTVSPost2010Prop53
 90
        2
102
RTVSPost2010PropOp53
 70
     0
102
RTVSPost2010Prop54
  1
strokes_ogs.tif
102
RTVSPost2010PropOp54
 70
     0
102
RTVSPost2010Prop55
280
     0
102
RTVSPost2010PropOp55
 70
     0
102
RTVSPost2010Prop56
140
1.0
102
RTVSPost2010PropOp56
 70
     0
102
RTVSPost2010Prop57
140
1.0
102
RTVSPost2010PropOp57
 70
     0
  0
XRECORD
  5
1A4
102
{ACAD_REACTORS
330
1A3
102
}
330
1A3
100
AcDbXrecord
280
     1
102
RTVSPost2010Prop28
280
     0
102
RTVSPost2010PropOp28
 70
     1
102
RTVSPost2010Prop29
280
     1
102
RTVSPost2010PropOp29
 70
     1
102
RTVSPost2010Prop30
280
     1
102
RTVSPost2010PropOp30
 70
     1
102
RTVSPost2010Prop31
280
     0
102
RTVSPost2010PropOp31
 70
     1
102
RTVSPost2010Prop32
280
     0
102
RTVSPost2010PropOp32
 70
     1
102
RTVSPost2010Prop33
280
     0
102
RTVSPost2010PropOp33
 70
     1
102
RTVSPost2010Prop34
280
     0
102
RTVSPost2010PropOp34
 70
     1
102
RTVSPost2010Prop35
280
     0
102
RTVSPost2010PropOp35
 70
     1
102
RTVSPost2010Prop36
280
     0
102
RTVSPost2010PropOp36
 70
     1
102
RTVSPost2010Prop37
 90
       50
102
RTVSPost2010PropOp37
 70
     1
102
RTVSPost2010Prop38
140
0.0
102
RTVSPost2010PropOp38
 70
     1
102
RTVSPost2010Prop39
140
1.0
102
RTVSPost2010PropOp39
 70
     1
102
RTVSPost2010Prop40
 90
        0
102
RTVSPost2010PropOp40
 70
     1
102
RTVSPost2010Prop41ColorIndex
 90
       18
102
RTVSPost2010Prop41ColorRGB
 90
        0
102
RTVSPost2010PropOp41
 70
     1
102
RTVSPost2010Prop42
 90
       50
102
RTVSPost2010PropOp42
 70
     1
102
RTVSPost2010Prop43
 90
        3
102
RTVSPost2010PropOp43
 70
     1
102
RTVSPost2010Prop44ColorIndex
 90
        5
102
RTVSPost2010Prop44ColorRGB
 90
      255
102
RTVSPost2010PropOp44
 70
     1
102
RTVSPost2010Prop45
280
     0
102
RTVSPost2010PropOp45
 70
     1
102
RTVSPost2010Prop46
 90
       50
102
RTVSPost2010PropOp46
 70
     1
102
RTVSPost2010Prop47
 90
       50
102
RTVSPost2010PropOp47
 70
     1
102
RTVSPost2010Prop48
 90
       50
102
RTVSPost2010PropOp48
 70
     1
102
RTVSPost2010Prop49
280
     0
102
RTVSPost2010PropOp49
 70
     1
102
RTVSPost2010Prop50
 90
       50
102
RTVSPost2010PropOp50
 70
     1
102
RTVSPost2010Prop51ColorIndex
 90
      256
102
RTVSPost2010Prop51ColorRGB
 90
-16777216
102
RTVSPost2010PropOp51
 70
     0
102
RTVSPost2010Prop52
140
1.0
102
RTVSPost2010PropOp52
 70
     0
102
RTVSPost2010Prop53
 90
        2
102
RTVSPost2010PropOp53
 70
     1
102
RTVSPost2010Prop54
  1
strokes_ogs.tif
102
RTVSPost2010PropOp54
 70
     1
102
RTVSPost2010Prop55
280
     0
102
RTVSPost2010PropOp55
 70
     1
102
RTVSPost2010Prop56
140
1.0
102
RTVSPost2010PropOp56
 70
     1
102
RTVSPost2010Prop57
140
1.0
102
RTVSPost2010PropOp57
 70
     1
  0
XRECORD
  5
188
102
{ACAD_REACTORS
330
187
102
}
330
187
100
AcDbXrecord
280
     1
102
RTVSPost2010Prop28
280
     0
102
RTVSPost2010PropOp28
 70
     1
102
RTVSPost2010Prop29
280
     1
102
RTVSPost2010PropOp29
 70
     1
102
RTVSPost2010Prop30
280
     1
102
RTVSPost2010PropOp30
 70
     1
102
RTVSPost2010Prop31
280
     0
102
RTVSPost2010PropOp31
 70
     1
102
RTVSPost2010Prop32
280
     0
102
RTVSPost2010PropOp32
 70
     1
102
RTVSPost2010Prop33
280
     0
102
RTVSPost2010PropOp33
 70
     1
102
RTVSPost2010Prop34
280
     0
102
RTVSPost2010PropOp34
 70
     1
102
RTVSPost2010Prop35
280
     0
102
RTVSPost2010PropOp35
 70
     1
102
RTVSPost2010Prop36
280
     0
102
RTVSPost2010PropOp36
 70
     1
102
RTVSPost2010Prop37
 90
       50
102
RTVSPost2010PropOp37
 70
     1
102
RTVSPost2010Prop38
140
0.0
102
RTVSPost2010PropOp38
 70
     1
102
RTVSPost2010Prop39
140
1.0
102
RTVSPost2010PropOp39
 70
     1
102
RTVSPost2010Prop40
 90
        0
102
RTVSPost2010PropOp40
 70
     1
102
RTVSPost2010Prop41ColorIndex
 90
       18
102
RTVSPost2010Prop41ColorRGB
 90
        0
102
RTVSPost2010PropOp41
 70
     1
102
RTVSPost2010Prop42
 90
       50
102
RTVSPost2010PropOp42
 70
     1
102
RTVSPost2010Prop43
 90
        3
102
RTVSPost2010PropOp43
 70
     1
102
RTVSPost2010Prop44ColorIndex
 90
        5
102
RTVSPost2010Prop44ColorRGB
 90
      255
102
RTVSPost2010PropOp44
 70
     1
102
RTVSPost2010Prop45
280
     0
102
RTVSPost2010PropOp45
 70
     1
102
RTVSPost2010Prop46
 90
       50
102
RTVSPost2010PropOp46
 70
     1
102
RTVSPost2010Prop47
 90
       50
102
RTVSPost2010PropOp47
 70
     1
102
RTVSPost2010Prop48
 90
       50
102
RTVSPost2010PropOp48
 70
     1
102
RTVSPost2010Prop49
280
     0
102
RTVSPost2010PropOp49
 70
     1
102
RTVSPost2010Prop50
 90
       50
102
RTVSPost2010PropOp50
 70
     1
102
RTVSPost2010Prop51ColorIndex
 90
      256
102
RTVSPost2010Prop51ColorRGB
 90
-16777216
102
RTVSPost2010PropOp51
 70
     0
102
RTVSPost2010Prop52
140
1.0
102
RTVSPost2010PropOp52
 70
     0
102
RTVSPost2010Prop53
 90
        2
102
RTVSPost2010PropOp53
 70
     1
102
RTVSPost2010Prop54
  1
strokes_ogs.tif
102
RTVSPost2010PropOp54
 70
     1
102
RTVSPost2010Prop55
280
     0
102
RTVSPost2010PropOp55
 70
     1
102
RTVSPost2010Prop56
140
1.0
102
RTVSPost2010PropOp56
 70
     1
102
RTVSPost2010Prop57
140
1.0
102
RTVSPost2010PropOp57
 70
     1
  0
XRECORD
  5
18A
102
{ACAD_REACTORS
330
189
102
}
330
189
100
AcDbXrecord
280
     1
102
RTVSPost2010Prop28
280
     0
102
RTVSPost2010PropOp28
 70
     1
102
RTVSPost2010Prop29
280
     1
102
RTVSPost2010PropOp29
 70
     1
102
RTVSPost2010Prop30
280
     1
102
RTVSPost2010PropOp30
 70
     1
102
RTVSPost2010Prop31
280
     0
102
RTVSPost2010PropOp31
 70
     1
102
RTVSPost2010Prop32
280
     0
102
RTVSPost2010PropOp32
 70
     1
102
RTVSPost2010Prop33
280
     0
102
RTVSPost2010PropOp33
 70
     1
102
RTVSPost2010Prop34
280
     0
102
RTVSPost2010PropOp34
 70
     1
102
RTVSPost2010Prop35
280
     0
102
RTVSPost2010PropOp35
 70
     1
102
RTVSPost2010Prop36
280
     0
102
RTVSPost2010PropOp36
 70
     1
102
RTVSPost2010Prop37
 90
       50
102
RTVSPost2010PropOp37
 70
     1
102
RTVSPost2010Prop38
140
0.0
102
RTVSPost2010PropOp38
 70
     1
102
RTVSPost2010Prop39
140
1.0
102
RTVSPost2010PropOp39
 70
     1
102
RTVSPost2010Prop40
 90
        0
102
RTVSPost2010PropOp40
 70
     1
102
RTVSPost2010Prop41ColorIndex
 90
       18
102
RTVSPost2010Prop41ColorRGB
 90
        0
102
RTVSPost2010PropOp41
 70
     1
102
RTVSPost2010Prop42
 90
       50
102
RTVSPost2010PropOp42
 70
     1
102
RTVSPost2010Prop43
 90
        3
102
RTVSPost2010PropOp43
 70
     1
102
RTVSPost2010Prop44ColorIndex
 90
        5
102
RTVSPost2010Prop44ColorRGB
 90
      255
102
RTVSPost2010PropOp44
 70
     1
102
RTVSPost2010Prop45
280
     0
102
RTVSPost2010PropOp45
 70
     1
102
RTVSPost2010Prop46
 90
       50
102
RTVSPost2010PropOp46
 70
     1
102
RTVSPost2010Prop47
 90
       50
102
RTVSPost2010PropOp47
 70
     1
102
RTVSPost2010Prop48
 90
       50
102
RTVSPost2010PropOp48
 70
     1
102
RTVSPost2010Prop49
280
     0
102
RTVSPost2010PropOp49
 70
     1
102
RTVSPost2010Prop50
 90
       50
102
RTVSPost2010PropOp50
 70
     1
102
RTVSPost2010Prop51ColorIndex
 90
      256
102
RTVSPost2010Prop51ColorRGB
 90
-16777216
102
RTVSPost2010PropOp51
 70
     0
102
RTVSPost2010Prop52
140
1.0
102
RTVSPost2010PropOp52
 70
     0
102
RTVSPost2010Prop53
 90
        2
102
RTVSPost2010PropOp53
 70
     1
102
RTVSPost2010Prop54
  1
strokes_ogs.tif
102
RTVSPost2010PropOp54
 70
     1
102
RTVSPost2010Prop55
280
     0
102
RTVSPost2010PropOp55
 70
     1
102
RTVSPost2010Prop56
140
1.0
102
RTVSPost2010PropOp56
 70
     1
102
RTVSPost2010Prop57
140
1.0
102
RTVSPost2010PropOp57
 70
     1
  0
XRECORD
  5
18C
102
{ACAD_REACTORS
330
18B
102
}
330
18B
100
AcDbXrecord
280
     1
102
RTVSPost2010Prop28
280
     0
102
RTVSPost2010PropOp28
 70
     1
102
RTVSPost2010Prop29
280
     1
102
RTVSPost2010PropOp29
 70
     1
102
RTVSPost2010Prop30
280
     1
102
RTVSPost2010PropOp30
 70
     1
102
RTVSPost2010Prop31
280
     0
102
RTVSPost2010PropOp31
 70
     1
102
RTVSPost2010Prop32
280
     0
102
RTVSPost2010PropOp32
 70
     1
102
RTVSPost2010Prop33
280
     0
102
RTVSPost2010PropOp33
 70
     1
102
RTVSPost2010Prop34
280
     0
102
RTVSPost2010PropOp34
 70
     1
102
RTVSPost2010Prop35
280
     0
102
RTVSPost2010PropOp35
 70
     1
102
RTVSPost2010Prop36
280
     0
102
RTVSPost2010PropOp36
 70
     1
102
RTVSPost2010Prop37
 90
       50
102
RTVSPost2010PropOp37
 70
     1
102
RTVSPost2010Prop38
140
0.0
102
RTVSPost2010PropOp38
 70
     1
102
RTVSPost2010Prop39
140
1.0
102
RTVSPost2010PropOp39
 70
     1
102
RTVSPost2010Prop40
 90
        0
102
RTVSPost2010PropOp40
 70
     1
102
RTVSPost2010Prop41ColorIndex
 90
       18
102
RTVSPost2010Prop41ColorRGB
 90
        0
102
RTVSPost2010PropOp41
 70
     1
102
RTVSPost2010Prop42
 90
       50
102
RTVSPost2010PropOp42
 70
     1
102
RTVSPost2010Prop43
 90
        3
102
RTVSPost2010PropOp43
 70
     1
102
RTVSPost2010Prop44ColorIndex
 90
        5
102
RTVSPost2010Prop44ColorRGB
 90
      255
102
RTVSPost2010PropOp44
 70
     1
102
RTVSPost2010Prop45
280
     0
102
RTVSPost2010PropOp45
 70
     1
102
RTVSPost2010Prop46
 90
       50
102
RTVSPost2010PropOp46
 70
     1
102
RTVSPost2010Prop47
 90
       50
102
RTVSPost2010PropOp47
 70
     1
102
RTVSPost2010Prop48
 90
       50
102
RTVSPost2010PropOp48
 70
     1
102
RTVSPost2010Prop49
280
     0
102
RTVSPost2010PropOp49
 70
     1
102
RTVSPost2010Prop50
 90
       50
102
RTVSPost2010PropOp50
 70
     1
102
RTVSPost2010Prop51ColorIndex
 90
      256
102
RTVSPost2010Prop51ColorRGB
 90
-16777216
102
RTVSPost2010PropOp51
 70
     0
102
RTVSPost2010Prop52
140
1.0
102
RTVSPost2010PropOp52
 70
     0
102
RTVSPost2010Prop53
 90
        2
102
RTVSPost2010PropOp53
 70
     1
102
RTVSPost2010Prop54
  1
strokes_ogs.tif
102
RTVSPost2010PropOp54
 70
     1
102
RTVSPost2010Prop55
280
     0
102
RTVSPost2010PropOp55
 70
     1
102
RTVSPost2010Prop56
140
1.0
102
RTVSPost2010PropOp56
 70
     1
102
RTVSPost2010Prop57
140
1.0
102
RTVSPost2010PropOp57
 70
     1
  0
XRECORD
  5
18E
102
{ACAD_REACTORS
330
18D
102
}
330
18D
100
AcDbXrecord
280
     1
102
RTVSPost2010Prop28
280
     0
102
RTVSPost2010PropOp28
 70
     1
102
RTVSPost2010Prop29
280
     1
102
RTVSPost2010PropOp29
 70
     1
102
RTVSPost2010Prop30
280
     1
102
RTVSPost2010PropOp30
 70
     1
102
RTVSPost2010Prop31
280
     0
102
RTVSPost2010PropOp31
 70
     1
102
RTVSPost2010Prop32
280
     0
102
RTVSPost2010PropOp32
 70
     1
102
RTVSPost2010Prop33
280
     0
102
RTVSPost2010PropOp33
 70
     1
102
RTVSPost2010Prop34
280
     0
102
RTVSPost2010PropOp34
 70
     1
102
RTVSPost2010Prop35
280
     0
102
RTVSPost2010PropOp35
 70
     1
102
RTVSPost2010Prop36
280
     0
102
RTVSPost2010PropOp36
 70
     1
102
RTVSPost2010Prop37
 90
       50
102
RTVSPost2010PropOp37
 70
     1
102
RTVSPost2010Prop38
140
0.0
102
RTVSPost2010PropOp38
 70
     1
102
RTVSPost2010Prop39
140
1.0
102
RTVSPost2010PropOp39
 70
     1
102
RTVSPost2010Prop40
 90
        0
102
RTVSPost2010PropOp40
 70
     1
102
RTVSPost2010Prop41ColorIndex
 90
       18
102
RTVSPost2010Prop41ColorRGB
 90
        0
102
RTVSPost2010PropOp41
 70
     1
102
RTVSPost2010Prop42
 90
       50
102
RTVSPost2010PropOp42
 70
     1
102
RTVSPost2010Prop43
 90
        3
102
RTVSPost2010PropOp43
 70
     1
102
RTVSPost2010Prop44ColorIndex
 90
        5
102
RTVSPost2010Prop44ColorRGB
 90
      255
102
RTVSPost2010PropOp44
 70
     1
102
RTVSPost2010Prop45
280
     0
102
RTVSPost2010PropOp45
 70
     1
102
RTVSPost2010Prop46
 90
       50
102
RTVSPost2010PropOp46
 70
     1
102
RTVSPost2010Prop47
 90
       50
102
RTVSPost2010PropOp47
 70
     1
102
RTVSPost2010Prop48
 90
       50
102
RTVSPost2010PropOp48
 70
     1
102
RTVSPost2010Prop49
280
     0
102
RTVSPost2010PropOp49
 70
     1
102
RTVSPost2010Prop50
 90
       50
102
RTVSPost2010PropOp50
 70
     1
102
RTVSPost2010Prop51ColorIndex
 90
      256
102
RTVSPost2010Prop51ColorRGB
 90
-16777216
102
RTVSPost2010PropOp51
 70
     0
102
RTVSPost2010Prop52
140
1.0
102
RTVSPost2010PropOp52
 70
     0
102
RTVSPost2010Prop53
 90
        2
102
RTVSPost2010PropOp53
 70
     1
102
RTVSPost2010Prop54
  1
strokes_ogs.tif
102
RTVSPost2010PropOp54
 70
     1
102
RTVSPost2010Prop55
280
     0
102
RTVSPost2010PropOp55
 70
     1
102
RTVSPost2010Prop56
140
1.0
102
RTVSPost2010PropOp56
 70
     1
102
RTVSPost2010Prop57
140
1.0
102
RTVSPost2010PropOp57
 70
     1
  0
XRECORD
  5
196
102
{ACAD_REACTORS
330
195
102
}
330
195
100
AcDbXrecord
280
     1
102
RTVSPost2010Prop28
280
     0
102
RTVSPost2010PropOp28
 70
     1
102
RTVSPost2010Prop29
280
     1
102
RTVSPost2010PropOp29
 70
     1
102
RTVSPost2010Prop30
280
     1
102
RTVSPost2010PropOp30
 70
     1
102
RTVSPost2010Prop31
280
     0
102
RTVSPost2010PropOp31
 70
     1
102
RTVSPost2010Prop32
280
     0
102
RTVSPost2010PropOp32
 70
     1
102
RTVSPost2010Prop33
280
     0
102
RTVSPost2010PropOp33
 70
     1
102
RTVSPost2010Prop34
280
     0
102
RTVSPost2010PropOp34
 70
     1
102
RTVSPost2010Prop35
280
     0
102
RTVSPost2010PropOp35
 70
     1
102
RTVSPost2010Prop36
280
     0
102
RTVSPost2010PropOp36
 70
     1
102
RTVSPost2010Prop37
 90
       50
102
RTVSPost2010PropOp37
 70
     1
102
RTVSPost2010Prop38
140
0.0
102
RTVSPost2010PropOp38
 70
     1
102
RTVSPost2010Prop39
140
1.0
102
RTVSPost2010PropOp39
 70
     1
102
RTVSPost2010Prop40
 90
        0
102
RTVSPost2010PropOp40
 70
     1
102
RTVSPost2010Prop41ColorIndex
 90
       18
102
RTVSPost2010Prop41ColorRGB
 90
        0
102
RTVSPost2010PropOp41
 70
     1
102
RTVSPost2010Prop42
 90
       50
102
RTVSPost2010PropOp42
 70
     1
102
RTVSPost2010Prop43
 90
        3
102
RTVSPost2010PropOp43
 70
     1
102
RTVSPost2010Prop44ColorIndex
 90
        5
102
RTVSPost2010Prop44ColorRGB
 90
      255
102
RTVSPost2010PropOp44
 70
     1
102
RTVSPost2010Prop45
280
     0
102
RTVSPost2010PropOp45
 70
     1
102
RTVSPost2010Prop46
 90
       50
102
RTVSPost2010PropOp46
 70
     1
102
RTVSPost2010Prop47
 90
       50
102
RTVSPost2010PropOp47
 70
     1
102
RTVSPost2010Prop48
 90
       50
102
RTVSPost2010PropOp48
 70
     1
102
RTVSPost2010Prop49
280
     0
102
RTVSPost2010PropOp49
 70
     1
102
RTVSPost2010Prop50
 90
       50
102
RTVSPost2010PropOp50
 70
     1
102
RTVSPost2010Prop51ColorIndex
 90
      256
102
RTVSPost2010Prop51ColorRGB
 90
-16777216
102
RTVSPost2010PropOp51
 70
     0
102
RTVSPost2010Prop52
140
1.0
102
RTVSPost2010PropOp52
 70
     0
102
RTVSPost2010Prop53
 90
        2
102
RTVSPost2010PropOp53
 70
     1
102
RTVSPost2010Prop54
  1
strokes_ogs.tif
102
RTVSPost2010PropOp54
 70
     1
102
RTVSPost2010Prop55
280
     0
102
RTVSPost2010PropOp55
 70
     1
102
RTVSPost2010Prop56
140
1.0
102
RTVSPost2010PropOp56
 70
     1
102
RTVSPost2010Prop57
140
1.0
102
RTVSPost2010PropOp57
 70
     1
  0
XRECORD
  5
1B2
102
{ACAD_REACTORS
330
1B1
102
}
330
1B1
100
AcDbXrecord
280
     1
102
RTVSPost2010Prop28
280
     0
102
RTVSPost2010PropOp28
 70
     0
102
RTVSPost2010Prop29
280
     1
102
RTVSPost2010PropOp29
 70
     0
102
RTVSPost2010Prop30
280
     1
102
RTVSPost2010PropOp30
 70
     0
102
RTVSPost2010Prop31
280
     0
102
RTVSPost2010PropOp31
 70
     0
102
RTVSPost2010Prop32
280
     0
102
RTVSPost2010PropOp32
 70
     0
102
RTVSPost2010Prop33
280
     0
102
RTVSPost2010PropOp33
 70
     0
102
RTVSPost2010Prop34
280
     0
102
RTVSPost2010PropOp34
 70
     0
102
RTVSPost2010Prop35
280
     0
102
RTVSPost2010PropOp35
 70
     0
102
RTVSPost2010Prop36
280
     0
102
RTVSPost2010PropOp36
 70
     0
102
RTVSPost2010Prop37
 90
       50
102
RTVSPost2010PropOp37
 70
     0
102
RTVSPost2010Prop38
140
0.0
102
RTVSPost2010PropOp38
 70
     0
102
RTVSPost2010Prop39
140
1.0
102
RTVSPost2010PropOp39
 70
     0
102
RTVSPost2010Prop40
 90
        0
102
RTVSPost2010PropOp40
 70
     0
102
RTVSPost2010Prop41ColorIndex
 90
       18
102
RTVSPost2010Prop41ColorRGB
 90
        0
102
RTVSPost2010PropOp41
 70
     0
102
RTVSPost2010Prop42
 90
       50
102
RTVSPost2010PropOp42
 70
     0
102
RTVSPost2010Prop43
 90
        3
102
RTVSPost2010PropOp43
 70
     0
102
RTVSPost2010Prop44ColorIndex
 90
        5
102
RTVSPost2010Prop44ColorRGB
 90
      255
102
RTVSPost2010PropOp44
 70
     0
102
RTVSPost2010Prop45
280
     0
102
RTVSPost2010PropOp45
 70
     0
102
RTVSPost2010Prop46
 90
       50
102
RTVSPost2010PropOp46
 70
     0
102
RTVSPost2010Prop47
 90
       50
102
RTVSPost2010PropOp47
 70
     0
102
RTVSPost2010Prop48
 90
       50
102
RTVSPost2010PropOp48
 70
     0
102
RTVSPost2010Prop49
280
     0
102
RTVSPost2010PropOp49
 70
     0
102
RTVSPost2010Prop50
 90
       50
102
RTVSPost2010PropOp50
 70
     0
102
RTVSPost2010Prop51ColorIndex
 90
      256
102
RTVSPost2010Prop51ColorRGB
 90
-16777216
102
RTVSPost2010PropOp51
 70
     0
102
RTVSPost2010Prop52
140
1.0
102
RTVSPost2010PropOp52
 70
     0
102
RTVSPost2010Prop53
 90
        2
102
RTVSPost2010PropOp53
 70
     0
102
RTVSPost2010Prop54
  1
strokes_ogs.tif
102
RTVSPost2010PropOp54
 70
     0
102
RTVSPost2010Prop55
280
     0
102
RTVSPost2010PropOp55
 70
     0
102
RTVSPost2010Prop56
140
1.0
102
RTVSPost2010PropOp56
 70
     0
102
RTVSPost2010Prop57
140
1.0
102
RTVSPost2010PropOp57
 70
     0
  0
XRECORD
  5
1A2
102
{ACAD_REACTORS
330
1A1
102
}
330
1A1
100
AcDbXrecord
280
     1
102
RTVSPost2010Prop28
280
     0
102
RTVSPost2010PropOp28
 70
     1
102
RTVSPost2010Prop29
280
     1
102
RTVSPost2010PropOp29
 70
     1
102
RTVSPost2010Prop30
280
     1
102
RTVSPost2010PropOp30
 70
     1
102
RTVSPost2010Prop31
280
     0
102
RTVSPost2010PropOp31
 70
     1
102
RTVSPost2010Prop32
280
     0
102
RTVSPost2010PropOp32
 70
     1
102
RTVSPost2010Prop33
280
     0
102
RTVSPost2010PropOp33
 70
     1
102
RTVSPost2010Prop34
280
     0
102
RTVSPost2010PropOp34
 70
     1
102
RTVSPost2010Prop35
280
     0
102
RTVSPost2010PropOp35
 70
     1
102
RTVSPost2010Prop36
280
     0
102
RTVSPost2010PropOp36
 70
     1
102
RTVSPost2010Prop37
 90
       50
102
RTVSPost2010PropOp37
 70
     1
102
RTVSPost2010Prop38
140
0.0
102
RTVSPost2010PropOp38
 70
     1
102
RTVSPost2010Prop39
140
1.0
102
RTVSPost2010PropOp39
 70
     1
102
RTVSPost2010Prop40
 90
        0
102
RTVSPost2010PropOp40
 70
     1
102
RTVSPost2010Prop41ColorIndex
 90
       18
102
RTVSPost2010Prop41ColorRGB
 90
        0
102
RTVSPost2010PropOp41
 70
     1
102
RTVSPost2010Prop42
 90
       50
102
RTVSPost2010PropOp42
 70
     1
102
RTVSPost2010Prop43
 90
        3
102
RTVSPost2010PropOp43
 70
     1
102
RTVSPost2010Prop44ColorIndex
 90
        5
102
RTVSPost2010Prop44ColorRGB
 90
      255
102
RTVSPost2010PropOp44
 70
     1
102
RTVSPost2010Prop45
280
     0
102
RTVSPost2010PropOp45
 70
     1
102
RTVSPost2010Prop46
 90
       50
102
RTVSPost2010PropOp46
 70
     1
102
RTVSPost2010Prop47
 90
       50
102
RTVSPost2010PropOp47
 70
     1
102
RTVSPost2010Prop48
 90
       50
102
RTVSPost2010PropOp48
 70
     1
102
RTVSPost2010Prop49
280
     0
102
RTVSPost2010PropOp49
 70
     1
102
RTVSPost2010Prop50
 90
       50
102
RTVSPost2010PropOp50
 70
     1
102
RTVSPost2010Prop51ColorIndex
 90
      256
102
RTVSPost2010Prop51ColorRGB
 90
-16777216
102
RTVSPost2010PropOp51
 70
     0
102
RTVSPost2010Prop52
140
1.0
102
RTVSPost2010PropOp52
 70
     0
102
RTVSPost2010Prop53
 90
        2
102
RTVSPost2010PropOp53
 70
     1
102
RTVSPost2010Prop54
  1
strokes_ogs.tif
102
RTVSPost2010PropOp54
 70
     1
102
RTVSPost2010Prop55
280
     0
102
RTVSPost2010PropOp55
 70
     1
102
RTVSPost2010Prop56
140
1.0
102
RTVSPost2010PropOp56
 70
     1
102
RTVSPost2010Prop57
140
1.0
102
RTVSPost2010PropOp57
 70
     1
  0
XRECORD
  5
1B4
102
{ACAD_REACTORS
330
1B3
102
}
330
1B3
100
AcDbXrecord
280
     1
102
RTVSPost2010Prop28
280
     0
102
RTVSPost2010PropOp28
 70
     0
102
RTVSPost2010Prop29
280
     1
102
RTVSPost2010PropOp29
 70
     0
102
RTVSPost2010Prop30
280
     1
102
RTVSPost2010PropOp30
 70
     0
102
RTVSPost2010Prop31
280
     0
102
RTVSPost2010PropOp31
 70
     0
102
RTVSPost2010Prop32
280
     0
102
RTVSPost2010PropOp32
 70
     0
102
RTVSPost2010Prop33
280
     0
102
RTVSPost2010PropOp33
 70
     0
102
RTVSPost2010Prop34
280
     0
102
RTVSPost2010PropOp34
 70
     0
102
RTVSPost2010Prop35
280
     0
102
RTVSPost2010PropOp35
 70
     0
102
RTVSPost2010Prop36
280
     0
102
RTVSPost2010PropOp36
 70
     0
102
RTVSPost2010Prop37
 90
       50
102
RTVSPost2010PropOp37
 70
     0
102
RTVSPost2010Prop38
140
0.0
102
RTVSPost2010PropOp38
 70
     0
102
RTVSPost2010Prop39
140
1.0
102
RTVSPost2010PropOp39
 70
     0
102
RTVSPost2010Prop40
 90
        0
102
RTVSPost2010PropOp40
 70
     0
102
RTVSPost2010Prop41ColorIndex
 90
       18
102
RTVSPost2010Prop41ColorRGB
 90
        0
102
RTVSPost2010PropOp41
 70
     0
102
RTVSPost2010Prop42
 90
       50
102
RTVSPost2010PropOp42
 70
     0
102
RTVSPost2010Prop43
 90
        3
102
RTVSPost2010PropOp43
 70
     0
102
RTVSPost2010Prop44ColorIndex
 90
        5
102
RTVSPost2010Prop44ColorRGB
 90
      255
102
RTVSPost2010PropOp44
 70
     0
102
RTVSPost2010Prop45
280
     0
102
RTVSPost2010PropOp45
 70
     0
102
RTVSPost2010Prop46
 90
       50
102
RTVSPost2010PropOp46
 70
     0
102
RTVSPost2010Prop47
 90
       50
102
RTVSPost2010PropOp47
 70
     0
102
RTVSPost2010Prop48
 90
       50
102
RTVSPost2010PropOp48
 70
     0
102
RTVSPost2010Prop49
280
     0
102
RTVSPost2010PropOp49
 70
     0
102
RTVSPost2010Prop50
 90
       50
102
RTVSPost2010PropOp50
 70
     0
102
RTVSPost2010Prop51ColorIndex
 90
      256
102
RTVSPost2010Prop51ColorRGB
 90
-16777216
102
RTVSPost2010PropOp51
 70
     0
102
RTVSPost2010Prop52
140
1.0
102
RTVSPost2010PropOp52
 70
     0
102
RTVSPost2010Prop53
 90
        2
102
RTVSPost2010PropOp53
 70
     0
102
RTVSPost2010Prop54
  1
strokes_ogs.tif
102
RTVSPost2010PropOp54
 70
     0
102
RTVSPost2010Prop55
280
     0
102
RTVSPost2010PropOp55
 70
     0
102
RTVSPost2010Prop56
140
1.0
102
RTVSPost2010PropOp56
 70
     0
102
RTVSPost2010Prop57
140
1.0
102
RTVSPost2010PropOp57
 70
     0
  0
XRECORD
  5
19A
102
{ACAD_REACTORS
330
199
102
}
330
199
100
AcDbXrecord
280
     1
102
RTVSPost2010Prop28
280
     0
102
RTVSPost2010PropOp28
 70
     1
102
RTVSPost2010Prop29
280
     1
102
RTVSPost2010PropOp29
 70
     1
102
RTVSPost2010Prop30
280
     1
102
RTVSPost2010PropOp30
 70
     1
102
RTVSPost2010Prop31
280
     0
102
RTVSPost2010PropOp31
 70
     1
102
RTVSPost2010Prop32
280
     0
102
RTVSPost2010PropOp32
 70
     1
102
RTVSPost2010Prop33
280
     0
102
RTVSPost2010PropOp33
 70
     1
102
RTVSPost2010Prop34
280
     0
102
RTVSPost2010PropOp34
 70
     1
102
RTVSPost2010Prop35
280
     0
102
RTVSPost2010PropOp35
 70
     1
102
RTVSPost2010Prop36
280
     0
102
RTVSPost2010PropOp36
 70
     1
102
RTVSPost2010Prop37
 90
       50
102
RTVSPost2010PropOp37
 70
     1
102
RTVSPost2010Prop38
140
0.0
102
RTVSPost2010PropOp38
 70
     1
102
RTVSPost2010Prop39
140
1.0
102
RTVSPost2010PropOp39
 70
     1
102
RTVSPost2010Prop40
 90
        0
102
RTVSPost2010PropOp40
 70
     1
102
RTVSPost2010Prop41ColorIndex
 90
       18
102
RTVSPost2010Prop41ColorRGB
 90
        0
102
RTVSPost2010PropOp41
 70
     1
102
RTVSPost2010Prop42
 90
       50
102
RTVSPost2010PropOp42
 70
     1
102
RTVSPost2010Prop43
 90
        3
102
RTVSPost2010PropOp43
 70
     1
102
RTVSPost2010Prop44ColorIndex
 90
        5
102
RTVSPost2010Prop44ColorRGB
 90
      255
102
RTVSPost2010PropOp44
 70
     1
102
RTVSPost2010Prop45
280
     0
102
RTVSPost2010PropOp45
 70
     1
102
RTVSPost2010Prop46
 90
       50
102
RTVSPost2010PropOp46
 70
     1
102
RTVSPost2010Prop47
 90
       50
102
RTVSPost2010PropOp47
 70
     1
102
RTVSPost2010Prop48
 90
       50
102
RTVSPost2010PropOp48
 70
     1
102
RTVSPost2010Prop49
280
     0
102
RTVSPost2010PropOp49
 70
     1
102
RTVSPost2010Prop50
 90
       50
102
RTVSPost2010PropOp50
 70
     1
102
RTVSPost2010Prop51ColorIndex
 90
      256
102
RTVSPost2010Prop51ColorRGB
 90
-16777216
102
RTVSPost2010PropOp51
 70
     0
102
RTVSPost2010Prop52
140
1.0
102
RTVSPost2010PropOp52
 70
     0
102
RTVSPost2010Prop53
 90
        2
102
RTVSPost2010PropOp53
 70
     1
102
RTVSPost2010Prop54
  1
strokes_ogs.tif
102
RTVSPost2010PropOp54
 70
     1
102
RTVSPost2010Prop55
280
     0
102
RTVSPost2010PropOp55
 70
     1
102
RTVSPost2010Prop56
140
1.0
102
RTVSPost2010PropOp56
 70
     1
102
RTVSPost2010Prop57
140
1.0
102
RTVSPost2010PropOp57
 70
     1
  0
XRECORD
  5
1B0
102
{ACAD_REACTORS
330
1AF
102
}
330
1AF
100
AcDbXrecord
280
     1
102
RTVSPost2010Prop28
280
     0
102
RTVSPost2010PropOp28
 70
     1
102
RTVSPost2010Prop29
280
     1
102
RTVSPost2010PropOp29
 70
     1
102
RTVSPost2010Prop30
280
     1
102
RTVSPost2010PropOp30
 70
     1
102
RTVSPost2010Prop31
280
     0
102
RTVSPost2010PropOp31
 70
     1
102
RTVSPost2010Prop32
280
     0
102
RTVSPost2010PropOp32
 70
     1
102
RTVSPost2010Prop33
280
     0
102
RTVSPost2010PropOp33
 70
     1
102
RTVSPost2010Prop34
280
     0
102
RTVSPost2010PropOp34
 70
     1
102
RTVSPost2010Prop35
280
     0
102
RTVSPost2010PropOp35
 70
     1
102
RTVSPost2010Prop36
280
     0
102
RTVSPost2010PropOp36
 70
     1
102
RTVSPost2010Prop37
 90
       50
102
RTVSPost2010PropOp37
 70
     1
102
RTVSPost2010Prop38
140
0.0
102
RTVSPost2010PropOp38
 70
     1
102
RTVSPost2010Prop39
140
1.0
102
RTVSPost2010PropOp39
 70
     1
102
RTVSPost2010Prop40
 90
        0
102
RTVSPost2010PropOp40
 70
     1
102
RTVSPost2010Prop41ColorIndex
 90
       18
102
RTVSPost2010Prop41ColorRGB
 90
        0
102
RTVSPost2010PropOp41
 70
     1
102
RTVSPost2010Prop42
 90
       50
102
RTVSPost2010PropOp42
 70
     1
102
RTVSPost2010Prop43
 90
        3
102
RTVSPost2010PropOp43
 70
     1
102
RTVSPost2010Prop44ColorIndex
 90
        5
102
RTVSPost2010Prop44ColorRGB
 90
      255
102
RTVSPost2010PropOp44
 70
     1
102
RTVSPost2010Prop45
280
     0
102
RTVSPost2010PropOp45
 70
     1
102
RTVSPost2010Prop46
 90
       50
102
RTVSPost2010PropOp46
 70
     1
102
RTVSPost2010Prop47
 90
       50
102
RTVSPost2010PropOp47
 70
     1
102
RTVSPost2010Prop48
 90
       50
102
RTVSPost2010PropOp48
 70
     1
102
RTVSPost2010Prop49
280
     0
102
RTVSPost2010PropOp49
 70
     1
102
RTVSPost2010Prop50
 90
       50
102
RTVSPost2010PropOp50
 70
     1
102
RTVSPost2010Prop51ColorIndex
 90
      256
102
RTVSPost2010Prop51ColorRGB
 90
-16777216
102
RTVSPost2010PropOp51
 70
     0
102
RTVSPost2010Prop52
140
1.0
102
RTVSPost2010PropOp52
 70
     0
102
RTVSPost2010Prop53
 90
        2
102
RTVSPost2010PropOp53
 70
     1
102
RTVSPost2010Prop54
  1
strokes_ogs.tif
102
RTVSPost2010PropOp54
 70
     1
102
RTVSPost2010Prop55
280
     0
102
RTVSPost2010PropOp55
 70
     1
102
RTVSPost2010Prop56
140
1.0
102
RTVSPost2010PropOp56
 70
     1
102
RTVSPost2010Prop57
140
1.0
102
RTVSPost2010PropOp57
 70
     1
  0
XRECORD
  5
1AE
102
{ACAD_REACTORS
330
1AD
102
}
330
1AD
100
AcDbXrecord
280
     1
102
RTVSPost2010Prop28
280
     0
102
RTVSPost2010PropOp28
 70
     1
102
RTVSPost2010Prop29
280
     1
102
RTVSPost2010PropOp29
 70
     1
102
RTVSPost2010Prop30
280
     1
102
RTVSPost2010PropOp30
 70
     1
102
RTVSPost2010Prop31
280
     0
102
RTVSPost2010PropOp31
 70
     1
102
RTVSPost2010Prop32
280
     0
102
RTVSPost2010PropOp32
 70
     1
102
RTVSPost2010Prop33
280
     0
102
RTVSPost2010PropOp33
 70
     1
102
RTVSPost2010Prop34
280
     0
102
RTVSPost2010PropOp34
 70
     1
102
RTVSPost2010Prop35
280
     0
102
RTVSPost2010PropOp35
 70
     1
102
RTVSPost2010Prop36
280
     0
102
RTVSPost2010PropOp36
 70
     1
102
RTVSPost2010Prop37
 90
       50
102
RTVSPost2010PropOp37
 70
     1
102
RTVSPost2010Prop38
140
0.0
102
RTVSPost2010PropOp38
 70
     1
102
RTVSPost2010Prop39
140
1.0
102
RTVSPost2010PropOp39
 70
     1
102
RTVSPost2010Prop40
 90
        0
102
RTVSPost2010PropOp40
 70
     1
102
RTVSPost2010Prop41ColorIndex
 90
       18
102
RTVSPost2010Prop41ColorRGB
 90
        0
102
RTVSPost2010PropOp41
 70
     1
102
RTVSPost2010Prop42
 90
       50
102
RTVSPost2010PropOp42
 70
     1
102
RTVSPost2010Prop43
 90
        3
102
RTVSPost2010PropOp43
 70
     1
102
RTVSPost2010Prop44ColorIndex
 90
        5
102
RTVSPost2010Prop44ColorRGB
 90
      255
102
RTVSPost2010PropOp44
 70
     1
102
RTVSPost2010Prop45
280
     0
102
RTVSPost2010PropOp45
 70
     1
102
RTVSPost2010Prop46
 90
       50
102
RTVSPost2010PropOp46
 70
     1
102
RTVSPost2010Prop47
 90
       50
102
RTVSPost2010PropOp47
 70
     1
102
RTVSPost2010Prop48
 90
       50
102
RTVSPost2010PropOp48
 70
     1
102
RTVSPost2010Prop49
280
     0
102
RTVSPost2010PropOp49
 70
     1
102
RTVSPost2010Prop50
 90
       50
102
RTVSPost2010PropOp50
 70
     1
102
RTVSPost2010Prop51ColorIndex
 90
      256
102
RTVSPost2010Prop51ColorRGB
 90
-16777216
102
RTVSPost2010PropOp51
 70
     0
102
RTVSPost2010Prop52
140
1.0
102
RTVSPost2010PropOp52
 70
     0
102
RTVSPost2010Prop53
 90
        2
102
RTVSPost2010PropOp53
 70
     1
102
RTVSPost2010Prop54
  1
strokes_ogs.tif
102
RTVSPost2010PropOp54
 70
     1
102
RTVSPost2010Prop55
280
     0
102
RTVSPost2010PropOp55
 70
     1
102
RTVSPost2010Prop56
140
1.0
102
RTVSPost2010PropOp56
 70
     1
102
RTVSPost2010Prop57
140
1.0
102
RTVSPost2010PropOp57
 70
     1
  0
XRECORD
  5
1A8
102
{ACAD_REACTORS
330
1A7
102
}
330
1A7
100
AcDbXrecord
280
     1
102
RTVSPost2010Prop28
280
     0
102
RTVSPost2010PropOp28
 70
     1
102
RTVSPost2010Prop29
280
     1
102
RTVSPost2010PropOp29
 70
     1
102
RTVSPost2010Prop30
280
     1
102
RTVSPost2010PropOp30
 70
     1
102
RTVSPost2010Prop31
280
     0
102
RTVSPost2010PropOp31
 70
     1
102
RTVSPost2010Prop32
280
     0
102
RTVSPost2010PropOp32
 70
     1
102
RTVSPost2010Prop33
280
     0
102
RTVSPost2010PropOp33
 70
     1
102
RTVSPost2010Prop34
280
     0
102
RTVSPost2010PropOp34
 70
     1
102
RTVSPost2010Prop35
280
     0
102
RTVSPost2010PropOp35
 70
     1
102
RTVSPost2010Prop36
280
     0
102
RTVSPost2010PropOp36
 70
     1
102
RTVSPost2010Prop37
 90
       50
102
RTVSPost2010PropOp37
 70
     1
102
RTVSPost2010Prop38
140
0.0
102
RTVSPost2010PropOp38
 70
     1
102
RTVSPost2010Prop39
140
1.0
102
RTVSPost2010PropOp39
 70
     1
102
RTVSPost2010Prop40
 90
        0
102
RTVSPost2010PropOp40
 70
     1
102
RTVSPost2010Prop41ColorIndex
 90
       18
102
RTVSPost2010Prop41ColorRGB
 90
        0
102
RTVSPost2010PropOp41
 70
     1
102
RTVSPost2010Prop42
 90
       50
102
RTVSPost2010PropOp42
 70
     1
102
RTVSPost2010Prop43
 90
        3
102
RTVSPost2010PropOp43
 70
     1
102
RTVSPost2010Prop44ColorIndex
 90
        5
102
RTVSPost2010Prop44ColorRGB
 90
      255
102
RTVSPost2010PropOp44
 70
     1
102
RTVSPost2010Prop45
280
     0
102
RTVSPost2010PropOp45
 70
     1
102
RTVSPost2010Prop46
 90
       50
102
RTVSPost2010PropOp46
 70
     1
102
RTVSPost2010Prop47
 90
       50
102
RTVSPost2010PropOp47
 70
     1
102
RTVSPost2010Prop48
 90
       50
102
RTVSPost2010PropOp48
 70
     1
102
RTVSPost2010Prop49
280
     0
102
RTVSPost2010PropOp49
 70
     1
102
RTVSPost2010Prop50
 90
       50
102
RTVSPost2010PropOp50
 70
     1
102
RTVSPost2010Prop51ColorIndex
 90
      256
102
RTVSPost2010Prop51ColorRGB
 90
-16777216
102
RTVSPost2010PropOp51
 70
     0
102
RTVSPost2010Prop52
140
1.0
102
RTVSPost2010PropOp52
 70
     0
102
RTVSPost2010Prop53
 90
        2
102
RTVSPost2010PropOp53
 70
     1
102
RTVSPost2010Prop54
  1
strokes_ogs.tif
102
RTVSPost2010PropOp54
 70
     1
102
RTVSPost2010Prop55
280
     0
102
RTVSPost2010PropOp55
 70
     1
102
RTVSPost2010Prop56
140
1.0
102
RTVSPost2010PropOp56
 70
     1
102
RTVSPost2010Prop57
140
1.0
102
RTVSPost2010PropOp57
 70
     1
  0
XRECORD
  5
1AA
102
{ACAD_REACTORS
330
1A9
102
}
330
1A9
100
AcDbXrecord
280
     1
102
RTVSPost2010Prop28
280
     0
102
RTVSPost2010PropOp28
 70
     1
102
RTVSPost2010Prop29
280
     1
102
RTVSPost2010PropOp29
 70
     1
102
RTVSPost2010Prop30
280
     1
102
RTVSPost2010PropOp30
 70
     1
102
RTVSPost2010Prop31
280
     0
102
RTVSPost2010PropOp31
 70
     1
102
RTVSPost2010Prop32
280
     0
102
RTVSPost2010PropOp32
 70
     1
102
RTVSPost2010Prop33
280
     0
102
RTVSPost2010PropOp33
 70
     1
102
RTVSPost2010Prop34
280
     0
102
RTVSPost2010PropOp34
 70
     1
102
RTVSPost2010Prop35
280
     0
102
RTVSPost2010PropOp35
 70
     1
102
RTVSPost2010Prop36
280
     0
102
RTVSPost2010PropOp36
 70
     1
102
RTVSPost2010Prop37
 90
       50
102
RTVSPost2010PropOp37
 70
     1
102
RTVSPost2010Prop38
140
0.0
102
RTVSPost2010PropOp38
 70
     1
102
RTVSPost2010Prop39
140
1.0
102
RTVSPost2010PropOp39
 70
     1
102
RTVSPost2010Prop40
 90
        0
102
RTVSPost2010PropOp40
 70
     1
102
RTVSPost2010Prop41ColorIndex
 90
       18
102
RTVSPost2010Prop41ColorRGB
 90
        0
102
RTVSPost2010PropOp41
 70
     1
102
RTVSPost2010Prop42
 90
       50
102
RTVSPost2010PropOp42
 70
     1
102
RTVSPost2010Prop43
 90
        3
102
RTVSPost2010PropOp43
 70
     1
102
RTVSPost2010Prop44ColorIndex
 90
        5
102
RTVSPost2010Prop44ColorRGB
 90
      255
102
RTVSPost2010PropOp44
 70
     1
102
RTVSPost2010Prop45
280
     0
102
RTVSPost2010PropOp45
 70
     1
102
RTVSPost2010Prop46
 90
       50
102
RTVSPost2010PropOp46
 70
     1
102
RTVSPost2010Prop47
 90
       50
102
RTVSPost2010PropOp47
 70
     1
102
RTVSPost2010Prop48
 90
       50
102
RTVSPost2010PropOp48
 70
     1
102
RTVSPost2010Prop49
280
     0
102
RTVSPost2010PropOp49
 70
     1
102
RTVSPost2010Prop50
 90
       50
102
RTVSPost2010PropOp50
 70
     1
102
RTVSPost2010Prop51ColorIndex
 90
      256
102
RTVSPost2010Prop51ColorRGB
 90
-16777216
102
RTVSPost2010PropOp51
 70
     0
102
RTVSPost2010Prop52
140
1.0
102
RTVSPost2010PropOp52
 70
     0
102
RTVSPost2010Prop53
 90
        2
102
RTVSPost2010PropOp53
 70
     1
102
RTVSPost2010Prop54
  1
strokes_ogs.tif
102
RTVSPost2010PropOp54
 70
     1
102
RTVSPost2010Prop55
280
     0
102
RTVSPost2010PropOp55
 70
     1
102
RTVSPost2010Prop56
140
1.0
102
RTVSPost2010PropOp56
 70
     1
102
RTVSPost2010Prop57
140
1.0
102
RTVSPost2010PropOp57
 70
     1
  0
XRECORD
  5
1A0
102
{ACAD_REACTORS
330
19F
102
}
330
19F
100
AcDbXrecord
280
     1
102
RTVSPost2010Prop28
280
     0
102
RTVSPost2010PropOp28
 70
     1
102
RTVSPost2010Prop29
280
     1
102
RTVSPost2010PropOp29
 70
     1
102
RTVSPost2010Prop30
280
     1
102
RTVSPost2010PropOp30
 70
     1
102
RTVSPost2010Prop31
280
     0
102
RTVSPost2010PropOp31
 70
     1
102
RTVSPost2010Prop32
280
     0
102
RTVSPost2010PropOp32
 70
     1
102
RTVSPost2010Prop33
280
     0
102
RTVSPost2010PropOp33
 70
     1
102
RTVSPost2010Prop34
280
     0
102
RTVSPost2010PropOp34
 70
     1
102
RTVSPost2010Prop35
280
     0
102
RTVSPost2010PropOp35
 70
     1
102
RTVSPost2010Prop36
280
     0
102
RTVSPost2010PropOp36
 70
     1
102
RTVSPost2010Prop37
 90
       50
102
RTVSPost2010PropOp37
 70
     1
102
RTVSPost2010Prop38
140
0.0
102
RTVSPost2010PropOp38
 70
     1
102
RTVSPost2010Prop39
140
1.0
102
RTVSPost2010PropOp39
 70
     1
102
RTVSPost2010Prop40
 90
        0
102
RTVSPost2010PropOp40
 70
     1
102
RTVSPost2010Prop41ColorIndex
 90
       18
102
RTVSPost2010Prop41ColorRGB
 90
        0
102
RTVSPost2010PropOp41
 70
     1
102
RTVSPost2010Prop42
 90
       50
102
RTVSPost2010PropOp42
 70
     1
102
RTVSPost2010Prop43
 90
        3
102
RTVSPost2010PropOp43
 70
     1
102
RTVSPost2010Prop44ColorIndex
 90
        5
102
RTVSPost2010Prop44ColorRGB
 90
      255
102
RTVSPost2010PropOp44
 70
     1
102
RTVSPost2010Prop45
280
     0
102
RTVSPost2010PropOp45
 70
     1
102
RTVSPost2010Prop46
 90
       50
102
RTVSPost2010PropOp46
 70
     1
102
RTVSPost2010Prop47
 90
       50
102
RTVSPost2010PropOp47
 70
     1
102
RTVSPost2010Prop48
 90
       50
102
RTVSPost2010PropOp48
 70
     1
102
RTVSPost2010Prop49
280
     0
102
RTVSPost2010PropOp49
 70
     1
102
RTVSPost2010Prop50
 90
       50
102
RTVSPost2010PropOp50
 70
     1
102
RTVSPost2010Prop51ColorIndex
 90
      256
102
RTVSPost2010Prop51ColorRGB
 90
-16777216
102
RTVSPost2010PropOp51
 70
     0
102
RTVSPost2010Prop52
140
1.0
102
RTVSPost2010PropOp52
 70
     0
102
RTVSPost2010Prop53
 90
        2
102
RTVSPost2010PropOp53
 70
     1
102
RTVSPost2010Prop54
  1
strokes_ogs.tif
102
RTVSPost2010PropOp54
 70
     1
102
RTVSPost2010Prop55
280
     0
102
RTVSPost2010PropOp55
 70
     1
102
RTVSPost2010Prop56
140
1.0
102
RTVSPost2010PropOp56
 70
     1
102
RTVSPost2010Prop57
140
1.0
102
RTVSPost2010PropOp57
 70
     1
  0
XRECORD
  5
194
102
{ACAD_REACTORS
330
193
102
}
330
193
100
AcDbXrecord
280
     1
102
RTVSPost2010Prop28
280
     0
102
RTVSPost2010PropOp28
 70
     1
102
RTVSPost2010Prop29
280
     1
102
RTVSPost2010PropOp29
 70
     1
102
RTVSPost2010Prop30
280
     1
102
RTVSPost2010PropOp30
 70
     1
102
RTVSPost2010Prop31
280
     0
102
RTVSPost2010PropOp31
 70
     1
102
RTVSPost2010Prop32
280
     0
102
RTVSPost2010PropOp32
 70
     1
102
RTVSPost2010Prop33
280
     0
102
RTVSPost2010PropOp33
 70
     1
102
RTVSPost2010Prop34
280
     0
102
RTVSPost2010PropOp34
 70
     1
102
RTVSPost2010Prop35
280
     0
102
RTVSPost2010PropOp35
 70
     1
102
RTVSPost2010Prop36
280
     0
102
RTVSPost2010PropOp36
 70
     1
102
RTVSPost2010Prop37
 90
       50
102
RTVSPost2010PropOp37
 70
     1
102
RTVSPost2010Prop38
140
0.0
102
RTVSPost2010PropOp38
 70
     1
102
RTVSPost2010Prop39
140
1.0
102
RTVSPost2010PropOp39
 70
     1
102
RTVSPost2010Prop40
 90
        0
102
RTVSPost2010PropOp40
 70
     1
102
RTVSPost2010Prop41ColorIndex
 90
       18
102
RTVSPost2010Prop41ColorRGB
 90
        0
102
RTVSPost2010PropOp41
 70
     1
102
RTVSPost2010Prop42
 90
       50
102
RTVSPost2010PropOp42
 70
     1
102
RTVSPost2010Prop43
 90
        3
102
RTVSPost2010PropOp43
 70
     1
102
RTVSPost2010Prop44ColorIndex
 90
        5
102
RTVSPost2010Prop44ColorRGB
 90
      255
102
RTVSPost2010PropOp44
 70
     1
102
RTVSPost2010Prop45
280
     0
102
RTVSPost2010PropOp45
 70
     1
102
RTVSPost2010Prop46
 90
       50
102
RTVSPost2010PropOp46
 70
     1
102
RTVSPost2010Prop47
 90
       50
102
RTVSPost2010PropOp47
 70
     1
102
RTVSPost2010Prop48
 90
       50
102
RTVSPost2010PropOp48
 70
     1
102
RTVSPost2010Prop49
280
     0
102
RTVSPost2010PropOp49
 70
     1
102
RTVSPost2010Prop50
 90
       50
102
RTVSPost2010PropOp50
 70
     1
102
RTVSPost2010Prop51ColorIndex
 90
      256
102
RTVSPost2010Prop51ColorRGB
 90
-16777216
102
RTVSPost2010PropOp51
 70
     0
102
RTVSPost2010Prop52
140
1.0
102
RTVSPost2010PropOp52
 70
     0
102
RTVSPost2010Prop53
 90
        2
102
RTVSPost2010PropOp53
 70
     1
102
RTVSPost2010Prop54
  1
strokes_ogs.tif
102
RTVSPost2010PropOp54
 70
     1
102
RTVSPost2010Prop55
280
     0
102
RTVSPost2010PropOp55
 70
     1
102
RTVSPost2010Prop56
140
1.0
102
RTVSPost2010PropOp56
 70
     1
102
RTVSPost2010Prop57
140
1.0
102
RTVSPost2010PropOp57
 70
     1
  0
XRECORD
  5
1AC
102
{ACAD_REACTORS
330
1AB
102
}
330
1AB
100
AcDbXrecord
280
     1
102
RTVSPost2010Prop28
280
     0
102
RTVSPost2010PropOp28
 70
     1
102
RTVSPost2010Prop29
280
     1
102
RTVSPost2010PropOp29
 70
     1
102
RTVSPost2010Prop30
280
     1
102
RTVSPost2010PropOp30
 70
     1
102
RTVSPost2010Prop31
280
     0
102
RTVSPost2010PropOp31
 70
     1
102
RTVSPost2010Prop32
280
     0
102
RTVSPost2010PropOp32
 70
     1
102
RTVSPost2010Prop33
280
     0
102
RTVSPost2010PropOp33
 70
     1
102
RTVSPost2010Prop34
280
     0
102
RTVSPost2010PropOp34
 70
     1
102
RTVSPost2010Prop35
280
     0
102
RTVSPost2010PropOp35
 70
     1
102
RTVSPost2010Prop36
280
     0
102
RTVSPost2010PropOp36
 70
     1
102
RTVSPost2010Prop37
 90
       50
102
RTVSPost2010PropOp37
 70
     1
102
RTVSPost2010Prop38
140
0.0
102
RTVSPost2010PropOp38
 70
     1
102
RTVSPost2010Prop39
140
1.0
102
RTVSPost2010PropOp39
 70
     1
102
RTVSPost2010Prop40
 90
        0
102
RTVSPost2010PropOp40
 70
     1
102
RTVSPost2010Prop41ColorIndex
 90
       18
102
RTVSPost2010Prop41ColorRGB
 90
        0
102
RTVSPost2010PropOp41
 70
     1
102
RTVSPost2010Prop42
 90
       50
102
RTVSPost2010PropOp42
 70
     1
102
RTVSPost2010Prop43
 90
        3
102
RTVSPost2010PropOp43
 70
     1
102
RTVSPost2010Prop44ColorIndex
 90
        5
102
RTVSPost2010Prop44ColorRGB
 90
      255
102
RTVSPost2010PropOp44
 70
     1
102
RTVSPost2010Prop45
280
     0
102
RTVSPost2010PropOp45
 70
     1
102
RTVSPost2010Prop46
 90
       50
102
RTVSPost2010PropOp46
 70
     1
102
RTVSPost2010Prop47
 90
       50
102
RTVSPost2010PropOp47
 70
     1
102
RTVSPost2010Prop48
 90
       50
102
RTVSPost2010PropOp48
 70
     1
102
RTVSPost2010Prop49
280
     0
102
RTVSPost2010PropOp49
 70
     1
102
RTVSPost2010Prop50
 90
       50
102
RTVSPost2010PropOp50
 70
     1
102
RTVSPost2010Prop51ColorIndex
 90
      256
102
RTVSPost2010Prop51ColorRGB
 90
-16777216
102
RTVSPost2010PropOp51
 70
     0
102
RTVSPost2010Prop52
140
1.0
102
RTVSPost2010PropOp52
 70
     0
102
RTVSPost2010Prop53
 90
        2
102
RTVSPost2010PropOp53
 70
     1
102
RTVSPost2010Prop54
  1
strokes_ogs.tif
102
RTVSPost2010PropOp54
 70
     1
102
RTVSPost2010Prop55
280
     0
102
RTVSPost2010PropOp55
 70
     1
102
RTVSPost2010Prop56
140
1.0
102
RTVSPost2010PropOp56
 70
     1
102
RTVSPost2010Prop57
140
1.0
102
RTVSPost2010PropOp57
 70
     1
  0
ENDSEC
  0
EOF
