  0
SECTION
  2
HEADER
  9
$ACADVER
  1
AC1024
  9
$ACADMAINTVER
 70
   205
  9
$DWGCODEPAGE
  3
ANSI_1251
  9
$INSBASE
 10
0.0
 20
0.0
 30
0.0
  9
$EXTMIN
 10
1.000000000000000E+20
 20
1.000000000000000E+20
 30
1.000000000000000E+20
  9
$EXTMAX
 10
-1.000000000000000E+20
 20
-1.000000000000000E+20
 30
-1.000000000000000E+20
  9
$LIMMIN
 10
0.0
 20
0.0
  9
$LIMMAX
 10
12.0
 20
9.0
  9
$ORTHOMODE
 70
     0
  9
$REGENMODE
 70
     1
  9
$FILLMODE
 70
     1
  9
$QTEXTMODE
 70
     0
  9
$MIRRTEXT
 70
     1
  9
$LTSCALE
 40
1.0
  9
$ATTMODE
 70
     1
  9
$TEXTSIZE
 40
0.2
  9
$TRACEWID
 40
0.05
  9
$TEXTSTYLE
  7
Standard
  9
$CLAYER
  8
OracDecor_decorative_elements
  9
$CELTYPE
  6
ByLayer
  9
$CECOLOR
 62
   256
  9
$CELTSCALE
 40
1.0
  9
$DISPSILH
 70
     0
  9
$DIMSCALE
 40
1.0
  9
$DIMASZ
 40
0.18
  9
$DIMEXO
 40
0.0625
  9
$DIMDLI
 40
0.38
  9
$DIMRND
 40
0.0
  9
$DIMDLE
 40
0.0
  9
$DIMEXE
 40
0.18
  9
$DIMTP
 40
0.0
  9
$DIMTM
 40
0.0
  9
$DIMTXT
 40
0.18
  9
$DIMCEN
 40
0.09
  9
$DIMTSZ
 40
0.0
  9
$DIMTOL
 70
     0
  9
$DIMLIM
 70
     0
  9
$DIMTIH
 70
     1
  9
$DIMTOH
 70
     1
  9
$DIMSE1
 70
     0
  9
$DIMSE2
 70
     0
  9
$DIMTAD
 70
     0
  9
$DIMZIN
 70
     0
  9
$DIMBLK
  1

  9
$DIMASO
 70
     1
  9
$DIMSHO
 70
     1
  9
$DIMPOST
  1

  9
$DIMAPOST
  1

  9
$DIMALT
 70
     0
  9
$DIMALTD
 70
     2
  9
$DIMALTF
 40
25.4
  9
$DIMLFAC
 40
1.0
  9
$DIMTOFL
 70
     0
  9
$DIMTVP
 40
0.0
  9
$DIMTIX
 70
     0
  9
$DIMSOXD
 70
     0
  9
$DIMSAH
 70
     0
  9
$DIMBLK1
  1

  9
$DIMBLK2
  1

  9
$DIMSTYLE
  2
Standard
  9
$DIMCLRD
 70
     0
  9
$DIMCLRE
 70
     0
  9
$DIMCLRT
 70
     0
  9
$DIMTFAC
 40
1.0
  9
$DIMGAP
 40
0.09
  9
$DIMJUST
 70
     0
  9
$DIMSD1
 70
     0
  9
$DIMSD2
 70
     0
  9
$DIMTOLJ
 70
     1
  9
$DIMTZIN
 70
     0
  9
$DIMALTZ
 70
     0
  9
$DIMALTTZ
 70
     0
  9
$DIMUPT
 70
     0
  9
$DIMDEC
 70
     4
  9
$DIMTDEC
 70
     4
  9
$DIMALTU
 70
     2
  9
$DIMALTTD
 70
     2
  9
$DIMTXSTY
  7
Standard
  9
$DIMAUNIT
 70
     0
  9
$DIMADEC
 70
     0
  9
$DIMALTRND
 40
0.0
  9
$DIMAZIN
 70
     0
  9
$DIMDSEP
 70
    46
  9
$DIMATFIT
 70
     3
  9
$DIMFRAC
 70
     0
  9
$DIMLDRBLK
  1

  9
$DIMLUNIT
 70
     2
  9
$DIMLWD
 70
    -2
  9
$DIMLWE
 70
    -2
  9
$DIMTMOVE
 70
     0
  9
$DIMFXL
 40
1.0
  9
$DIMFXLON
 70
     0
  9
$DIMJOGANG
 40
0.7853981633974483
  9
$DIMTFILL
 70
     0
  9
$DIMTFILLCLR
 70
     0
  9
$DIMARCSYM
 70
     0
  9
$DIMLTYPE
  6

  9
$DIMLTEX1
  6

  9
$DIMLTEX2
  6

  9
$DIMTXTDIRECTION
 70
     0
  9
$LUNITS
 70
     2
  9
$LUPREC
 70
     4
  9
$SKETCHINC
 40
0.1
  9
$FILLETRAD
 40
0.5
  9
$AUNITS
 70
     0
  9
$AUPREC
 70
     0
  9
$MENU
  1
.
  9
$ELEVATION
 40
0.0
  9
$PELEVATION
 40
0.0
  9
$THICKNESS
 40
0.0
  9
$LIMCHECK
 70
     0
  9
$CHAMFERA
 40
0.5
  9
$CHAMFERB
 40
0.5
  9
$CHAMFERC
 40
1.0
  9
$CHAMFERD
 40
0.0
  9
$SKPOLY
 70
     0
  9
$TDCREATE
 40
2451380.930432396
  9
$TDUCREATE
 40
2451380.805432396
  9
$TDUPDATE
 40
2451380.966180555
  9
$TDUUPDATE
 40
2451380.841180556
  9
$TDINDWG
 40
0.0075613773
  9
$TDUSRTIMER
 40
0.0075523380
  9
$USRTIMER
 70
     1
  9
$ANGBASE
 50
0.0
  9
$ANGDIR
 70
     0
  9
$PDMODE
 70
     0
  9
$PDSIZE
 40
0.0
  9
$PLINEWID
 40
0.0
  9
$SPLFRAME
 70
     0
  9
$SPLINETYPE
 70
     6
  9
$SPLINESEGS
 70
     8
  9
$HANDSEED
  5
13D
  9
$SURFTAB1
 70
     6
  9
$SURFTAB2
 70
     6
  9
$SURFTYPE
 70
     6
  9
$SURFU
 70
     6
  9
$SURFV
 70
     6
  9
$UCSBASE
  2

  9
$UCSNAME
  2

  9
$UCSORG
 10
0.0
 20
0.0
 30
0.0
  9
$UCSXDIR
 10
1.0
 20
0.0
 30
0.0
  9
$UCSYDIR
 10
0.0
 20
1.0
 30
0.0
  9
$UCSORTHOREF
  2

  9
$UCSORTHOVIEW
 70
     0
  9
$UCSORGTOP
 10
0.0
 20
0.0
 30
0.0
  9
$UCSORGBOTTOM
 10
0.0
 20
0.0
 30
0.0
  9
$UCSORGLEFT
 10
0.0
 20
0.0
 30
0.0
  9
$UCSORGRIGHT
 10
0.0
 20
0.0
 30
0.0
  9
$UCSORGFRONT
 10
0.0
 20
0.0
 30
0.0
  9
$UCSORGBACK
 10
0.0
 20
0.0
 30
0.0
  9
$PUCSBASE
  2

  9
$PUCSNAME
  2

  9
$PUCSORG
 10
0.0
 20
0.0
 30
0.0
  9
$PUCSXDIR
 10
1.0
 20
0.0
 30
0.0
  9
$PUCSYDIR
 10
0.0
 20
1.0
 30
0.0
  9
$PUCSORTHOREF
  2

  9
$PUCSORTHOVIEW
 70
     0
  9
$PUCSORGTOP
 10
0.0
 20
0.0
 30
0.0
  9
$PUCSORGBOTTOM
 10
0.0
 20
0.0
 30
0.0
  9
$PUCSORGLEFT
 10
0.0
 20
0.0
 30
0.0
  9
$PUCSORGRIGHT
 10
0.0
 20
0.0
 30
0.0
  9
$PUCSORGFRONT
 10
0.0
 20
0.0
 30
0.0
  9
$PUCSORGBACK
 10
0.0
 20
0.0
 30
0.0
  9
$USERI1
 70
     0
  9
$USERI2
 70
     0
  9
$USERI3
 70
     0
  9
$USERI4
 70
     0
  9
$USERI5
 70
     0
  9
$USERR1
 40
0.0
  9
$USERR2
 40
0.0
  9
$USERR3
 40
0.0
  9
$USERR4
 40
0.0
  9
$USERR5
 40
0.0
  9
$WORLDVIEW
 70
     1
  9
$SHADEDGE
 70
     3
  9
$SHADEDIF
 70
    70
  9
$TILEMODE
 70
     1
  9
$MAXACTVP
 70
    64
  9
$PINSBASE
 10
0.0
 20
0.0
 30
0.0
  9
$PLIMCHECK
 70
     0
  9
$PEXTMIN
 10
1.000000000000000E+20
 20
1.000000000000000E+20
 30
1.000000000000000E+20
  9
$PEXTMAX
 10
-1.000000000000000E+20
 20
-1.000000000000000E+20
 30
-1.000000000000000E+20
  9
$PLIMMIN
 10
0.0
 20
0.0
  9
$PLIMMAX
 10
12.0
 20
9.0
  9
$UNITMODE
 70
     0
  9
$VISRETAIN
 70
     1
  9
$PLINEGEN
 70
     0
  9
$PSLTSCALE
 70
     1
  9
$TREEDEPTH
 70
  3020
  9
$CMLSTYLE
  2
Standard
  9
$CMLJUST
 70
     0
  9
$CMLSCALE
 40
1.0
  9
$PROXYGRAPHICS
 70
     1
  9
$MEASUREMENT
 70
     1
  9
$CELWEIGHT
370
    -1
  9
$ENDCAPS
280
     0
  9
$JOINSTYLE
280
     0
  9
$LWDISPLAY
290
     0
  9
$INSUNITS
 70
     4
  9
$HYPERLINKBASE
  1

  9
$STYLESHEET
  1

  9
$XEDIT
290
     1
  9
$CEPSNTYPE
380
     0
  9
$PSTYLEMODE
290
     1
  9
$FINGERPRINTGUID
  2
{12F50282-3ED8-11D3-A8B7-0060B0F84BC6}
  9
$VERSIONGUID
  2
{12F50293-3ED8-11D3-A8B7-0060B0F84BC6}
  9
$EXTNAMES
290
     1
  9
$PSVPSCALE
 40
0.0
  9
$OLESTARTUP
290
     0
  9
$SORTENTS
280
   127
  9
$INDEXCTL
280
     0
  9
$HIDETEXT
280
     0
  9
$XCLIPFRAME
280
     2
  9
$HALOGAP
280
     0
  9
$OBSCOLOR
 70
   257
  9
$OBSLTYPE
280
     0
  9
$INTERSECTIONDISPLAY
280
     0
  9
$INTERSECTIONCOLOR
 70
   257
  9
$DIMASSOC
280
     1
  9
$PROJECTNAME
  1

  9
$CAMERADISPLAY
290
     0
  9
$LENSLENGTH
 40
50.0
  9
$CAMERAHEIGHT
 40
0.0
  9
$STEPSPERSEC
 40
2.0
  9
$STEPSIZE
 40
6.0
  9
$3DDWFPREC
 40
2.0
  9
$PSOLWIDTH
 40
0.25
  9
$PSOLHEIGHT
 40
4.0
  9
$LOFTANG1
 40
1.570796326794896
  9
$LOFTANG2
 40
1.570796326794896
  9
$LOFTMAG1
 40
0.0
  9
$LOFTMAG2
 40
0.0
  9
$LOFTPARAM
 70
     7
  9
$LOFTNORMALS
280
     1
  9
$LATITUDE
 40
37.795
  9
$LONGITUDE
 40
-122.394
  9
$NORTHDIRECTION
 40
0.0
  9
$TIMEZONE
 70
 -8000
  9
$LIGHTGLYPHDISPLAY
280
     1
  9
$TILEMODELIGHTSYNCH
280
     1
  9
$CMATERIAL
347
AB
  9
$SOLIDHIST
280
     0
  9
$SHOWHIST
280
     1
  9
$DWFFRAME
280
     2
  9
$DGNFRAME
280
     0
  9
$REALWORLDSCALE
290
     1
  9
$INTERFERECOLOR
 62
     1
  9
$INTERFEREOBJVS
345
CD
  9
$INTERFEREVPVS
346
CA
  9
$CSHADOW
280
     0
  9
$SHADOWPLANELOCATION
 40
0.0
  0
ENDSEC
  0
SECTION
  2
CLASSES
  0
CLASS
  1
ACDBDICTIONARYWDFLT
  2
AcDbDictionaryWithDefault
  3
ObjectDBX Classes
 90
        0
 91
        1
280
     0
281
     0
  0
CLASS
  1
ACDBPLACEHOLDER
  2
AcDbPlaceHolder
  3
ObjectDBX Classes
 90
        0
 91
        2
280
     0
281
     0
  0
CLASS
  1
LAYOUT
  2
AcDbLayout
  3
ObjectDBX Classes
 90
        0
 91
        3
280
     0
281
     0
  0
CLASS
  1
MATERIAL
  2
AcDbMaterial
  3
ObjectDBX Classes
 90
     1153
 91
        3
280
     0
281
     0
  0
CLASS
  1
VISUALSTYLE
  2
AcDbVisualStyle
  3
ObjectDBX Classes
 90
     4095
 91
       24
280
     0
281
     0
  0
CLASS
  1
TABLESTYLE
  2
AcDbTableStyle
  3
ObjectDBX Classes
 90
     4095
 91
        1
280
     0
281
     0
  0
CLASS
  1
SCALE
  2
AcDbScale
  3
ObjectDBX Classes
 90
     1153
 91
       17
280
     0
281
     0
  0
CLASS
  1
MLEADERSTYLE
  2
AcDbMLeaderStyle
  3
ACDB_MLEADERSTYLE_CLASS
 90
     4095
 91
        1
280
     0
281
     0
  0
CLASS
  1
ACDBSECTIONVIEWSTYLE
  2
AcDbSectionViewStyle
  3
ObjectDBX Classes
 90
     1025
 91
        1
280
     0
281
     0
  0
CLASS
  1
ACDBDETAILVIEWSTYLE
  2
AcDbDetailViewStyle
  3
ObjectDBX Classes
 90
     1025
 91
        1
280
     0
281
     0
  0
CLASS
  1
MESH
  2
AcDbSubDMesh
  3
ObjectDBX Classes
 90
        0
 91
        1
280
     0
281
     1
  0
CLASS
  1
DICTIONARYVAR
  2
AcDbDictionaryVar
  3
ObjectDBX Classes
 90
        0
 91
        9
280
     0
281
     0
  0
CLASS
  1
CELLSTYLEMAP
  2
AcDbCellStyleMap
  3
ObjectDBX Classes
 90
     1152
 91
        1
280
     0
281
     0
  0
ENDSEC
  0
SECTION
  2
TABLES
  0
TABLE
  2
VPORT
  5
8
330
0
100
AcDbSymbolTable
 70
     1
  0
VPORT
  5
A8
330
8
100
AcDbSymbolTableRecord
100
AcDbViewportTableRecord
  2
*Active
 70
     0
 10
0.0
 20
0.0
 11
1.0
 21
1.0
 12
5.909102439880371
 22
-3.411622047424316
 13
0.0
 23
0.0
 14
0.5
 24
0.5
 15
0.5
 25
0.5
 16
-1.0
 26
-1.0
 36
1.0
 17
0.0
 27
0.0
 37
0.0
 40
653.3567436585065
 41
0.5921194385731273
 42
50.0
 43
0.0
 44
0.0
 50
0.0
 51
0.0
 71
     0
 72
   100
 73
     1
 74
     3
 75
     0
 76
     0
 77
     0
 78
     0
281
     0
 65
     1
110
0.0
120
0.0
130
0.0
111
1.0
121
0.0
131
0.0
112
0.0
122
1.0
132
0.0
 79
     0
146
0.0
348
C9
 60
     3
 61
     5
292
     1
282
     1
141
0.0
142
0.0
 63
   250
421
  3355443
  0
ENDTAB
  0
TABLE
  2
LTYPE
  5
5
330
0
100
AcDbSymbolTable
 70
     1
  0
LTYPE
  5
14
330
5
100
AcDbSymbolTableRecord
100
AcDbLinetypeTableRecord
  2
ByBlock
 70
     0
  3

 72
    65
 73
     0
 40
0.0
  0
LTYPE
  5
15
330
5
100
AcDbSymbolTableRecord
100
AcDbLinetypeTableRecord
  2
ByLayer
 70
     0
  3

 72
    65
 73
     0
 40
0.0
  0
LTYPE
  5
16
330
5
100
AcDbSymbolTableRecord
100
AcDbLinetypeTableRecord
  2
Continuous
 70
     0
  3
Solid line
 72
    65
 73
     0
 40
0.0
  0
ENDTAB
  0
TABLE
  2
LAYER
  5
2
330
0
100
AcDbSymbolTable
 70
     3
  0
LAYER
  5
10
330
2
100
AcDbSymbolTableRecord
100
AcDbLayerTableRecord
  2
0
 70
     0
 62
     7
  6
Continuous
370
    -3
390
F
347
BB
  0
LAYER
  5
2B
330
2
100
AcDbSymbolTableRecord
100
AcDbLayerTableRecord
  2
ASHADE
 70
     4
 62
     7
  6
Continuous
370
    -3
390
2D
347
BB
  0
LAYER
  5
F8
330
2
100
AcDbSymbolTableRecord
100
AcDbLayerTableRecord
  2
OracDecor_decorative_elements
 70
     0
 62
   134
420
  1873329
  6
Continuous
370
    -3
390
F
347
BB
  0
ENDTAB
  0
TABLE
  2
STYLE
  5
3
330
0
100
AcDbSymbolTable
 70
     2
  0
STYLE
  5
11
330
3
100
AcDbSymbolTableRecord
100
AcDbTextStyleTableRecord
  2
Standard
 70
     0
 40
0.0
 41
1.0
 50
0.0
 71
     0
 42
0.2
  3
txt
  4

  0
STYLE
  5
2C
330
3
100
AcDbSymbolTableRecord
100
AcDbTextStyleTableRecord
  2
ASHADE
 70
     0
 40
0.2
 41
1.0
 50
0.0
 71
     0
 42
0.2
  3
simplex
  4

  0
ENDTAB
  0
TABLE
  2
VIEW
  5
6
330
0
100
AcDbSymbolTable
 70
     0
  0
ENDTAB
  0
TABLE
  2
UCS
  5
7
330
0
100
AcDbSymbolTable
 70
     0
  0
ENDTAB
  0
TABLE
  2
APPID
  5
9
330
0
100
AcDbSymbolTable
 70
     6
  0
APPID
  5
12
330
9
100
AcDbSymbolTableRecord
100
AcDbRegAppTableRecord
  2
ACAD
 70
     0
  0
APPID
  5
8F
330
9
100
AcDbSymbolTableRecord
100
AcDbRegAppTableRecord
  2
AVE_RENDER
 70
     0
  0
APPID
  5
90
330
9
100
AcDbSymbolTableRecord
100
AcDbRegAppTableRecord
  2
AVE_ENTITY_MATERIAL
 70
     0
  0
APPID
  5
9C
330
9
100
AcDbSymbolTableRecord
100
AcDbRegAppTableRecord
  2
AVE_FINISH
 70
     0
  0
APPID
  5
9D
330
9
100
AcDbSymbolTableRecord
100
AcDbRegAppTableRecord
  2
AVE_MATERIAL
 70
     0
  0
APPID
  5
9E
330
9
100
AcDbSymbolTableRecord
100
AcDbRegAppTableRecord
  2
AVE_GLOBAL
 70
     0
  0
ENDTAB
  0
TABLE
  2
DIMSTYLE
  5
A
330
0
100
AcDbSymbolTable
 70
     1
100
AcDbDimStyleTable
 71
     0
  0
DIMSTYLE
105
27
330
A
100
AcDbSymbolTableRecord
100
AcDbDimStyleTableRecord
  2
Standard
 70
     0
340
11
  0
ENDTAB
  0
TABLE
  2
BLOCK_RECORD
  5
1
330
0
100
AcDbSymbolTable
 70
     6
  0
BLOCK_RECORD
  5
1F
330
1
100
AcDbSymbolTableRecord
100
AcDbBlockTableRecord
  2
*Model_Space
340
22
 70
     0
280
     1
281
     0
  0
BLOCK_RECORD
  5
1B
330
1
100
AcDbSymbolTableRecord
100
AcDbBlockTableRecord
  2
*Paper_Space
340
1E
 70
     0
280
     1
281
     0
  0
BLOCK_RECORD
  5
23
330
1
100
AcDbSymbolTableRecord
100
AcDbBlockTableRecord
  2
*Paper_Space0
340
26
 70
     0
280
     1
281
     0
  0
BLOCK_RECORD
  5
2E
330
1
100
AcDbSymbolTableRecord
100
AcDbBlockTableRecord
  2
direct
340
0
 70
     0
280
     1
281
     0
  0
BLOCK_RECORD
  5
42
330
1
100
AcDbSymbolTableRecord
100
AcDbBlockTableRecord
  2
overhead
340
0
 70
     0
280
     1
281
     0
  0
BLOCK_RECORD
  5
5F
330
1
100
AcDbSymbolTableRecord
100
AcDbBlockTableRecord
  2
sh_spot
340
0
 70
     0
280
     1
281
     0
  0
BLOCK_RECORD
  5
91
330
1
100
AcDbSymbolTableRecord
100
AcDbBlockTableRecord
  2
AVE_RENDER
340
0
102
{BLKREFS
331
94
331
95
331
96
331
97
331
98
331
99
331
9A
331
9B
102
}
 70
     0
280
     1
281
     0
  0
BLOCK_RECORD
  5
9F
330
1
100
AcDbSymbolTableRecord
100
AcDbBlockTableRecord
  2
AVE_GLOBAL
340
0
102
{BLKREFS
331
A2
102
}
 70
     0
280
     1
281
     0
  0
ENDTAB
  0
ENDSEC
  0
SECTION
  2
BLOCKS
  0
BLOCK
  5
20
330
1F
100
AcDbEntity
  8
0
100
AcDbBlockBegin
  2
*Model_Space
 70
     0
 10
0.0
 20
0.0
 30
0.0
  3
*Model_Space
  1

  0
ENDBLK
  5
21
330
1F
100
AcDbEntity
  8
0
100
AcDbBlockEnd
  0
BLOCK
  5
1C
330
1B
100
AcDbEntity
 67
     1
  8
0
100
AcDbBlockBegin
  2
*Paper_Space
 70
     0
 10
0.0
 20
0.0
 30
0.0
  3
*Paper_Space
  1

  0
ENDBLK
  5
1D
330
1B
100
AcDbEntity
 67
     1
  8
0
100
AcDbBlockEnd
  0
BLOCK
  5
24
330
23
100
AcDbEntity
 67
     1
  8
0
100
AcDbBlockBegin
  2
*Paper_Space0
 70
     0
 10
0.0
 20
0.0
 30
0.0
  3
*Paper_Space0
  1

  0
ENDBLK
  5
25
330
23
100
AcDbEntity
 67
     1
  8
0
100
AcDbBlockEnd
  0
BLOCK
  5
40
330
2E
100
AcDbEntity
  8
0
100
AcDbBlockBegin
  2
direct
 70
     2
 10
0.0
 20
0.0
 30
0.0
  3
direct
  1

  0
ATTDEF
  5
2F
330
2E
100
AcDbEntity
  8
ASHADE
  6
Continuous
 62
     1
100
AcDbText
 10
0.0
 20
-0.1
 30
0.0
 40
0.2
  1

  7
ASHADE
 72
     1
 11
0.0
 21
-0.1
 31
0.0
100
AcDbAttributeDefinition
280
     0
  3
Light Name
  2
SNAME
 70
     0
280
     0
  0
ARC
  5
30
330
2E
100
AcDbEntity
  8
ASHADE
  6
Continuous
 62
     7
100
AcDbCircle
 10
0.0
 20
0.0
 30
0.0
 40
0.3
100
AcDbArc
 50
205.6792886194569
 51
334.3207113805431
  0
ARC
  5
31
330
2E
100
AcDbEntity
  8
ASHADE
  6
Continuous
 62
     7
100
AcDbCircle
 10
0.0
 20
0.0
 30
0.0
 40
0.3
100
AcDbArc
 50
25.67928861945685
 51
154.3207113805431
  0
LINE
  5
32
330
2E
100
AcDbEntity
  8
ASHADE
  6
Continuous
 62
     7
100
AcDbLine
 10
-0.21
 20
0.2142428528562855
 30
0.0
 11
-0.21
 21
0.5
 31
0.0
  0
LINE
  5
33
330
2E
100
AcDbEntity
  8
ASHADE
  6
Continuous
 62
     7
100
AcDbLine
 10
-0.11
 20
0.2791057147390572
 30
0.0
 11
-0.11
 21
0.5
 31
0.0
  0
LINE
  5
34
330
2E
100
AcDbEntity
  8
ASHADE
  6
Continuous
 62
     7
100
AcDbLine
 10
0.21
 20
0.2142428528562855
 30
0.0
 11
0.21
 21
0.5
 31
0.0
  0
ATTDEF
  5
35
330
2E
100
AcDbEntity
  8
ASHADE
  6
Continuous
 62
     7
100
AcDbText
 10
0.0
 20
0.25
 30
0.0
 40
0.01
  1

100
AcDbAttributeDefinition
280
     0
  3
Look-at Y
  2
LAY
 70
     1
280
     0
  0
ATTDEF
  5
36
330
2E
100
AcDbEntity
  8
ASHADE
  6
Continuous
 62
     7
100
AcDbText
 10
0.0
 20
0.22
 30
0.0
 40
0.01
  1
1
100
AcDbAttributeDefinition
280
     0
  3
Light Intensity
  2
INTENSITY
 70
     1
280
     0
  0
ATTDEF
  5
37
330
2E
100
AcDbEntity
  8
ASHADE
  6
Continuous
 62
     7
100
AcDbText
 10
0.0
 20
0.16
 30
0.0
 40
0.01
  1
-1
100
AcDbAttributeDefinition
280
     0
  3
*not used*
  2
BEAMD
 70
     1
280
     0
  0
ATTDEF
  5
38
330
2E
100
AcDbEntity
  8
ASHADE
  6
Continuous
 62
     7
100
AcDbText
 10
0.0
 20
0.175
 30
0.0
 40
0.01
  1
-1
100
AcDbAttributeDefinition
280
     0
  3
*not used*
  2
CONED
 70
     1
280
     0
  0
ATTDEF
  5
39
330
2E
100
AcDbEntity
  8
ASHADE
  6
Continuous
 62
     7
100
AcDbText
 10
0.0
 20
0.19
 30
0.0
 40
0.01
  1
0
100
AcDbAttributeDefinition
280
     0
  3
Depth Map Size
  2
CONEA
 70
     1
280
     0
  0
ATTDEF
  5
3A
330
2E
100
AcDbEntity
  8
ASHADE
  6
Continuous
 62
     7
100
AcDbText
 10
0.0
 20
0.2050000000000001
 30
0.0
 40
0.01
  1
1,1,1
100
AcDbAttributeDefinition
280
     0
  3
Light Color (RGB)
  2
COLOR
 70
     1
280
     0
  0
ATTDEF
  5
3B
330
2E
100
AcDbEntity
  8
ASHADE
  6
Continuous
 62
     7
100
AcDbText
 10
0.0
 20
0.235
 30
0.0
 40
0.01
  1

100
AcDbAttributeDefinition
280
     0
  3
Look-at Z
  2
LAZ
 70
     1
280
     0
  0
LINE
  5
3C
330
2E
100
AcDbEntity
  8
ASHADE
  6
Continuous
 62
     7
100
AcDbLine
 10
0.0
 20
0.3
 30
0.0
 11
0.0
 21
0.5
 31
0.0
  0
LINE
  5
3D
330
2E
100
AcDbEntity
  8
ASHADE
  6
Continuous
 62
     7
100
AcDbLine
 10
0.11
 20
0.2791057147390572
 30
0.0
 11
0.11
 21
0.5
 31
0.0
  0
ATTDEF
  5
3E
330
2E
100
AcDbEntity
  8
ASHADE
  6
Continuous
 62
     7
100
AcDbText
 10
0.0
 20
0.265
 30
0.0
 40
0.01
  1

100
AcDbAttributeDefinition
280
     0
  3
Look-at X
  2
LAX
 70
     1
280
     0
  0
ATTDEF
  5
3F
330
2E
100
AcDbEntity
  8
ASHADE
  6
Continuous
 62
     7
100
AcDbText
 10
0.0
 20
0.28
 30
0.0
 40
0.01
  1

100
AcDbAttributeDefinition
280
     0
  3

  2
GNAME
 70
     1
280
     0
  0
ENDBLK
  5
41
330
2E
100
AcDbEntity
  8
0
100
AcDbBlockEnd
  0
BLOCK
  5
5D
330
42
100
AcDbEntity
  8
0
100
AcDbBlockBegin
  2
overhead
 70
     2
 10
0.0
 20
0.0
 30
0.0
  3
overhead
  1

  0
ATTDEF
  5
43
330
42
100
AcDbEntity
  8
ASHADE
  6
Continuous
 62
     1
100
AcDbText
 10
0.0
 20
-0.1
 30
0.0
 40
0.2
  1

  7
ASHADE
 72
     1
 11
0.0
 21
-0.1
 31
0.0
100
AcDbAttributeDefinition
280
     0
  3
Light Name
  2
SNAME
 70
     0
280
     0
  0
ARC
  5
44
330
42
100
AcDbEntity
  8
ASHADE
  6
Continuous
 62
     7
100
AcDbCircle
 10
0.0
 20
0.0
 30
0.0
 40
0.3
100
AcDbArc
 50
205.6792886194569
 51
334.3207113805431
  0
LINE
  5
45
330
42
100
AcDbEntity
  8
ASHADE
  6
Continuous
 62
     7
100
AcDbLine
 10
-0.2041413561583015
 20
-0.2198324514393848
 30
0.0
 11
-0.2721884748777353
 21
-0.2931099352525131
 31
0.0
  0
LINE
  5
46
330
42
100
AcDbEntity
  8
ASHADE
  6
Continuous
 62
     7
100
AcDbLine
 10
-0.1096591641591904
 20
-0.2792398032442862
 30
0.0
 11
-0.1279356915190555
 21
-0.3257797704516673
 31
0.0
  0
LINE
  5
47
330
42
100
AcDbEntity
  8
ASHADE
  6
Continuous
 62
     7
100
AcDbLine
 10
0.0
 20
-0.2999999999999999
 30
0.0
 11
0.0
 21
-0.4
 31
0.0
  0
LINE
  5
48
330
42
100
AcDbEntity
  8
ASHADE
  6
Continuous
 62
     7
100
AcDbLine
 10
0.1096591641591904
 20
-0.2792398032442862
 30
0.0
 11
0.1279356915190555
 21
-0.3257797704516673
 31
0.0
  0
LINE
  5
49
330
42
100
AcDbEntity
  8
ASHADE
  6
Continuous
 62
     7
100
AcDbLine
 10
0.2041413561583015
 20
-0.2198324514393848
 30
0.0
 11
0.2721884748777353
 21
-0.2931099352525131
 31
0.0
  0
ARC
  5
4A
330
42
100
AcDbEntity
  8
ASHADE
  6
Continuous
 62
     7
100
AcDbCircle
 10
0.0
 20
0.0
 30
0.0
 40
0.3
100
AcDbArc
 50
25.67928861945685
 51
154.3207113805431
  0
LINE
  5
4B
330
42
100
AcDbEntity
  8
ASHADE
  6
Continuous
 62
     7
100
AcDbLine
 10
-0.2703701166919155
 20
0.13
 30
0.0
 11
-0.3154318028072347
 21
0.1516666666666666
 31
0.0
  0
LINE
  5
4C
330
42
100
AcDbEntity
  8
ASHADE
  6
Continuous
 62
     7
100
AcDbLine
 10
-0.2703701166919155
 20
-0.13
 30
0.0
 11
-0.3154318028072347
 21
-0.1516666666666666
 31
0.0
  0
LINE
  5
4D
330
42
100
AcDbEntity
  8
ASHADE
  6
Continuous
 62
     7
100
AcDbLine
 10
-0.2041413561583015
 20
0.2198324514393849
 30
0.0
 11
-0.2721884748777353
 21
0.2931099352525131
 31
0.0
  0
LINE
  5
4E
330
42
100
AcDbEntity
  8
ASHADE
  6
Continuous
 62
     7
100
AcDbLine
 10
-0.1096591641591904
 20
0.2792398032442862
 30
0.0
 11
-0.1279356915190555
 21
0.3257797704516674
 31
0.0
  0
LINE
  5
4F
330
42
100
AcDbEntity
  8
ASHADE
  6
Continuous
 62
     7
100
AcDbLine
 10
0.2703701166919155
 20
-0.13
 30
0.0
 11
0.3154318028072347
 21
-0.1516666666666666
 31
0.0
  0
LINE
  5
50
330
42
100
AcDbEntity
  8
ASHADE
  6
Continuous
 62
     7
100
AcDbLine
 10
0.2703701166919155
 20
0.13
 30
0.0
 11
0.3154318028072347
 21
0.1516666666666666
 31
0.0
  0
LINE
  5
51
330
42
100
AcDbEntity
  8
ASHADE
  6
Continuous
 62
     7
100
AcDbLine
 10
0.0
 20
0.3
 30
0.0
 11
0.0
 21
0.4
 31
0.0
  0
ATTDEF
  5
52
330
42
100
AcDbEntity
  8
ASHADE
  6
Continuous
 62
     7
100
AcDbText
 10
0.0
 20
0.22
 30
0.0
 40
0.01
  1
1
100
AcDbAttributeDefinition
280
     0
  3
Light Intensity
  2
INTENSITY
 70
     1
280
     0
  0
ATTDEF
  5
53
330
42
100
AcDbEntity
  8
ASHADE
  6
Continuous
 62
     7
100
AcDbText
 10
0.0
 20
0.16
 30
0.0
 40
0.01
  1
-1
100
AcDbAttributeDefinition
280
     0
  3
*not used*
  2
BEAMD
 70
     1
280
     0
  0
ATTDEF
  5
54
330
42
100
AcDbEntity
  8
ASHADE
  6
Continuous
 62
     7
100
AcDbText
 10
0.0
 20
0.175
 30
0.0
 40
0.01
  1
-1
100
AcDbAttributeDefinition
280
     0
  3
*not used*
  2
CONED
 70
     1
280
     0
  0
ATTDEF
  5
55
330
42
100
AcDbEntity
  8
ASHADE
  6
Continuous
 62
     7
100
AcDbText
 10
0.0
 20
0.19
 30
0.0
 40
0.01
  1
0
100
AcDbAttributeDefinition
280
     0
  3
Depth Map Size
  2
CONEA
 70
     1
280
     0
  0
ATTDEF
  5
56
330
42
100
AcDbEntity
  8
ASHADE
  6
Continuous
 62
     7
100
AcDbText
 10
0.0
 20
0.2050000000000001
 30
0.0
 40
0.01
  1
1,1,1
100
AcDbAttributeDefinition
280
     0
  3
Light Color (RGB)
  2
COLOR
 70
     1
280
     0
  0
ATTDEF
  5
57
330
42
100
AcDbEntity
  8
ASHADE
  6
Continuous
 62
     7
100
AcDbText
 10
0.0
 20
0.235
 30
0.0
 40
0.01
  1

100
AcDbAttributeDefinition
280
     0
  3
Look-at Z
  2
LAZ
 70
     1
280
     0
  0
ATTDEF
  5
58
330
42
100
AcDbEntity
  8
ASHADE
  6
Continuous
 62
     7
100
AcDbText
 10
0.0
 20
0.25
 30
0.0
 40
0.01
  1

100
AcDbAttributeDefinition
280
     0
  3
Look-at Y
  2
LAY
 70
     1
280
     0
  0
ATTDEF
  5
59
330
42
100
AcDbEntity
  8
ASHADE
  6
Continuous
 62
     7
100
AcDbText
 10
0.0
 20
0.265
 30
0.0
 40
0.01
  1

100
AcDbAttributeDefinition
280
     0
  3
Look-at X
  2
LAX
 70
     1
280
     0
  0
ATTDEF
  5
5A
330
42
100
AcDbEntity
  8
ASHADE
  6
Continuous
 62
     7
100
AcDbText
 10
0.0
 20
0.28
 30
0.0
 40
0.01
  1

100
AcDbAttributeDefinition
280
     0
  3

  2
GNAME
 70
     1
280
     0
  0
LINE
  5
5B
330
42
100
AcDbEntity
  8
ASHADE
  6
Continuous
 62
     7
100
AcDbLine
 10
0.1096591641591904
 20
0.2792398032442862
 30
0.0
 11
0.1279356915190555
 21
0.3257797704516674
 31
0.0
  0
LINE
  5
5C
330
42
100
AcDbEntity
  8
ASHADE
  6
Continuous
 62
     7
100
AcDbLine
 10
0.2041413561583015
 20
0.2198324514393849
 30
0.0
 11
0.2721884748777353
 21
0.2931099352525131
 31
0.0
  0
ENDBLK
  5
5E
330
42
100
AcDbEntity
  8
0
100
AcDbBlockEnd
  0
BLOCK
  5
85
330
5F
100
AcDbEntity
  8
0
100
AcDbBlockBegin
  2
sh_spot
 70
     2
 10
0.0
 20
0.0
 30
0.0
  3
sh_spot
  1

  0
LINE
  5
60
330
5F
100
AcDbEntity
  8
ASHADE
  6
Continuous
 62
     7
100
AcDbLine
 10
0.25
 20
0.26
 30
0.0
 11
-0.25
 21
0.26
 31
0.0
  0
LINE
  5
61
330
5F
100
AcDbEntity
  8
ASHADE
  6
Continuous
 62
     7
100
AcDbLine
 10
-0.25
 20
-0.3399999999999999
 30
0.0
 11
0.25
 21
-0.3399999999999999
 31
0.0
  0
ATTDEF
  5
62
330
5F
100
AcDbEntity
  8
ASHADE
  6
Continuous
 62
     1
100
AcDbText
 10
0.0
 20
-0.1
 30
0.0
 40
0.2
  1

  7
ASHADE
 72
     1
 11
0.0
 21
-0.1
 31
0.0
100
AcDbAttributeDefinition
280
     0
  3
Light Name
  2
SNAME
 70
     0
280
     0
  0
LINE
  5
63
330
5F
100
AcDbEntity
  8
ASHADE
  6
Continuous
 62
     7
100
AcDbLine
 10
-0.25
 20
-0.13
 30
0.0
 11
-0.25
 21
-0.3399999999999999
 31
0.0
  0
LINE
  5
64
330
5F
100
AcDbEntity
  8
ASHADE
  6
Continuous
 62
     7
100
AcDbLine
 10
-0.25
 20
-0.18
 30
0.0
 11
-0.29
 21
-0.18
 31
0.0
  0
LINE
  5
65
330
5F
100
AcDbEntity
  8
ASHADE
  6
Continuous
 62
     7
100
AcDbLine
 10
-0.29
 20
-0.22
 30
0.0
 11
-0.25
 21
-0.22
 31
0.0
  0
LINE
  5
66
330
5F
100
AcDbEntity
  8
ASHADE
  6
Continuous
 62
     7
100
AcDbLine
 10
-0.29
 20
-0.18
 30
0.0
 11
-0.29
 21
-0.22
 31
0.0
  0
LINE
  5
67
330
5F
100
AcDbEntity
  8
ASHADE
  6
Continuous
 62
     7
100
AcDbLine
 10
-0.1045454545454545
 20
0.26
 30
0.0
 11
-0.15
 21
0.46
 31
0.0
  0
LINE
  5
68
330
5F
100
AcDbEntity
  8
ASHADE
  6
Continuous
 62
     7
100
AcDbLine
 10
-0.21
 20
0.26
 30
0.0
 11
-0.301304347826087
 21
0.46
 31
0.0
  0
LINE
  5
69
330
5F
100
AcDbEntity
  8
ASHADE
  6
Continuous
 62
     7
100
AcDbLine
 10
-0.25
 20
0.26
 30
0.0
 11
-0.25
 21
0.13
 31
0.0
  0
LINE
  5
6A
330
5F
100
AcDbEntity
  8
ASHADE
  6
Continuous
 62
     7
100
AcDbLine
 10
-0.25
 20
0.22
 30
0.0
 11
-0.29
 21
0.22
 31
0.0
  0
LINE
  5
6B
330
5F
100
AcDbEntity
  8
ASHADE
  6
Continuous
 62
     7
100
AcDbLine
 10
-0.29
 20
0.1799999999999999
 30
0.0
 11
-0.25
 21
0.1799999999999999
 31
0.0
  0
LINE
  5
6C
330
5F
100
AcDbEntity
  8
ASHADE
  6
Continuous
 62
     7
100
AcDbLine
 10
-0.29
 20
0.22
 30
0.0
 11
-0.29
 21
0.1799999999999999
 31
0.0
  0
ATTDEF
  5
6D
330
5F
100
AcDbEntity
  8
ASHADE
  6
Continuous
 62
     7
100
AcDbText
 10
0.0
 20
-0.24
 30
0.0
 40
0.01
  1
0
100
AcDbAttributeDefinition
280
     0
  3
Depth Map Size
  2
ZSIZE
 70
     1
280
     0
  0
ATTDEF
  5
6E
330
5F
100
AcDbEntity
  8
ASHADE
  6
Continuous
 62
     7
100
AcDbText
 10
0.0
 20
-0.3300000000000001
 30
0.0
 40
0.01
  1
0,0,0
100
AcDbAttributeDefinition
280
     0
  3
Look-from XYZ
  2
LFXYZ
 70
     1
280
     0
  0
ATTDEF
  5
6F
330
5F
100
AcDbEntity
  8
ASHADE
  6
Continuous
 62
     7
100
AcDbText
 10
0.0
 20
-0.315
 30
0.0
 40
0.01
  1
0.0
100
AcDbAttributeDefinition
280
     0
  3
Beam Distribution
  2
BEAMDI
 70
     1
280
     0
  0
ATTDEF
  5
70
330
5F
100
AcDbEntity
  8
ASHADE
  6
Continuous
 62
     7
100
AcDbText
 10
0.0
 20
-0.3
 30
0.0
 40
0.01
  1
0.0
100
AcDbAttributeDefinition
280
     0
  3
Cone Delta
  2
CONEDE
 70
     1
280
     0
  0
ATTDEF
  5
71
330
5F
100
AcDbEntity
  8
ASHADE
  6
Continuous
 62
     7
100
AcDbText
 10
0.0
 20
-0.2850000000000001
 30
0.0
 40
0.01
  1
10.0
100
AcDbAttributeDefinition
280
     0
  3
Cone Angle
  2
CONEAN
 70
     1
280
     0
  0
ATTDEF
  5
72
330
5F
100
AcDbEntity
  8
ASHADE
  6
Continuous
 62
     7
100
AcDbText
 10
0.0
 20
-0.27
 30
0.0
 40
0.01
  1
-1
100
AcDbAttributeDefinition
280
     0
  3
*not used*
  2
BIASMAX
 70
     1
280
     0
  0
ATTDEF
  5
73
330
5F
100
AcDbEntity
  8
ASHADE
  6
Continuous
 62
     7
100
AcDbText
 10
0.0
 20
-0.255
 30
0.0
 40
0.01
  1
-1
100
AcDbAttributeDefinition
280
     0
  3
*not used*
  2
BIASMIN
 70
     1
280
     0
  0
ATTDEF
  5
74
330
5F
100
AcDbEntity
  8
ASHADE
  6
Continuous
 62
     7
100
AcDbText
 10
0.0
 20
-0.225
 30
0.0
 40
0.01
  1
1,1,1
100
AcDbAttributeDefinition
280
     0
  3
Light Color (RGB)
  2
COLOR
 70
     1
280
     0
  0
ATTDEF
  5
75
330
5F
100
AcDbEntity
  8
ASHADE
  6
Continuous
 62
     7
100
AcDbText
 10
0.0
 20
-0.21
 30
0.0
 40
0.01
  1
1
100
AcDbAttributeDefinition
280
     0
  3
Light Intensity
  2
INTENSITY
 70
     1
280
     0
  0
ATTDEF
  5
76
330
5F
100
AcDbEntity
  8
ASHADE
  6
Continuous
 62
     7
100
AcDbText
 10
0.0
 20
-0.15
 30
0.0
 40
0.01
  1

100
AcDbAttributeDefinition
280
     0
  3

  2
GNAME
 70
     1
280
     0
  0
ATTDEF
  5
77
330
5F
100
AcDbEntity
  8
ASHADE
  6
Continuous
 62
     7
100
AcDbText
 10
0.0
 20
-0.195
 30
0.0
 40
0.01
  1

100
AcDbAttributeDefinition
280
     0
  3
Look-at Z
  2
LAZ
 70
     1
280
     0
  0
ATTDEF
  5
78
330
5F
100
AcDbEntity
  8
ASHADE
  6
Continuous
 62
     7
100
AcDbText
 10
0.0
 20
-0.18
 30
0.0
 40
0.01
  1

100
AcDbAttributeDefinition
280
     0
  3
Look-at Y
  2
LAY
 70
     1
280
     0
  0
ATTDEF
  5
79
330
5F
100
AcDbEntity
  8
ASHADE
  6
Continuous
 62
     7
100
AcDbText
 10
0.0
 20
-0.165
 30
0.0
 40
0.01
  1

100
AcDbAttributeDefinition
280
     0
  3
Look-at X
  2
LAX
 70
     1
280
     0
  0
LINE
  5
7A
330
5F
100
AcDbEntity
  8
ASHADE
  6
Continuous
 62
     7
100
AcDbLine
 10
0.25
 20
-0.3399999999999999
 30
0.0
 11
0.25
 21
-0.13
 31
0.0
  0
LINE
  5
7B
330
5F
100
AcDbEntity
  8
ASHADE
  6
Continuous
 62
     7
100
AcDbLine
 10
0.25
 20
-0.18
 30
0.0
 11
0.29
 21
-0.18
 31
0.0
  0
LINE
  5
7C
330
5F
100
AcDbEntity
  8
ASHADE
  6
Continuous
 62
     7
100
AcDbLine
 10
0.29
 20
-0.22
 30
0.0
 11
0.25
 21
-0.22
 31
0.0
  0
LINE
  5
7D
330
5F
100
AcDbEntity
  8
ASHADE
  6
Continuous
 62
     7
100
AcDbLine
 10
0.29
 20
-0.18
 30
0.0
 11
0.29
 21
-0.22
 31
0.0
  0
LINE
  5
7E
330
5F
100
AcDbEntity
  8
ASHADE
  6
Continuous
 62
     7
100
AcDbLine
 10
0.21
 20
0.26
 30
0.0
 11
0.301304347826087
 21
0.46
 31
0.0
  0
LINE
  5
7F
330
5F
100
AcDbEntity
  8
ASHADE
  6
Continuous
 62
     7
100
AcDbLine
 10
0.1045454545454545
 20
0.26
 30
0.0
 11
0.15
 21
0.46
 31
0.0
  0
LINE
  5
80
330
5F
100
AcDbEntity
  8
ASHADE
  6
Continuous
 62
     7
100
AcDbLine
 10
0.0
 20
0.26
 30
0.0
 11
0.0
 21
0.46
 31
0.0
  0
LINE
  5
81
330
5F
100
AcDbEntity
  8
ASHADE
  6
Continuous
 62
     7
100
AcDbLine
 10
0.25
 20
0.13
 30
0.0
 11
0.25
 21
0.26
 31
0.0
  0
LINE
  5
82
330
5F
100
AcDbEntity
  8
ASHADE
  6
Continuous
 62
     7
100
AcDbLine
 10
0.25
 20
0.22
 30
0.0
 11
0.29
 21
0.22
 31
0.0
  0
LINE
  5
83
330
5F
100
AcDbEntity
  8
ASHADE
  6
Continuous
 62
     7
100
AcDbLine
 10
0.29
 20
0.1799999999999999
 30
0.0
 11
0.25
 21
0.1799999999999999
 31
0.0
  0
LINE
  5
84
330
5F
100
AcDbEntity
  8
ASHADE
  6
Continuous
 62
     7
100
AcDbLine
 10
0.29
 20
0.22
 30
0.0
 11
0.29
 21
0.1799999999999999
 31
0.0
  0
ENDBLK
  5
86
330
5F
100
AcDbEntity
  8
0
100
AcDbBlockEnd
  0
BLOCK
  5
92
330
91
100
AcDbEntity
  8
ASHADE
100
AcDbBlockBegin
  2
AVE_RENDER
 70
     0
 10
0.0
 20
0.0
 30
0.0
  3
AVE_RENDER
  1
AVE_RENDER
  0
ENDBLK
  5
93
330
91
100
AcDbEntity
  8
0
100
AcDbBlockEnd
  0
BLOCK
  5
A0
330
9F
100
AcDbEntity
  8
ASHADE
100
AcDbBlockBegin
  2
AVE_GLOBAL
 70
     0
 10
0.0
 20
0.0
 30
0.0
  3
AVE_GLOBAL
  1
AVE_GLOBAL
  0
ENDBLK
  5
A1
330
9F
100
AcDbEntity
  8
0
100
AcDbBlockEnd
  0
ENDSEC
  0
SECTION
  2
ENTITIES
  0
INSERT
  5
94
330
1F
100
AcDbEntity
  8
ASHADE
 62
     1
100
AcDbBlockReference
  2
AVE_RENDER
 10
0.0
 20
0.0
 30
0.0
1001
AVE_RENDER
1002
{
1070
     7
1000
Pref
1070
    30
1070
    20
1070
     1
1070
     0
1000

1070
    10
1070
     1
1070
    10
1040
1.0
1070
     1
1040
0.3
1040
0.7
1040
0.0
1040
10.0
1010
-1.0
1020
-1.0
1030
-1.0
1040
0.3
1070
    49
1070
     0
1070
     0
1010
1.0
1020
1.0
1030
1.0
1040
45.0
1070
     1
1070
     0
1000
WCS
1040
0.0
1070
     0
1040
10.0
1002
}
  0
INSERT
  5
95
330
1F
100
AcDbEntity
  8
ASHADE
 62
     3
100
AcDbBlockReference
  2
AVE_RENDER
 10
0.0
 20
0.0
 30
0.0
1001
AVE_RENDER
1002
{
1070
     0
1000
Full Opt
1070
     0
1070
     1
1070
     1
1070
     1
1070
     0
1070
     0
1070
     0
1070
     1
1070
     1
1040
0.0001
1040
0.0001
1002
}
  0
INSERT
  5
96
330
1F
100
AcDbEntity
  8
ASHADE
 62
     4
100
AcDbBlockReference
  2
AVE_RENDER
 10
0.0
 20
0.0
 30
0.0
1001
AVE_RENDER
1002
{
1070
     0
1000
Quick Opt
1070
     0
1070
     1
1070
     1
1070
     1
1070
     0
1070
     0
1070
     1
1002
}
  0
INSERT
  5
97
330
1F
100
AcDbEntity
  8
ASHADE
 62
     5
100
AcDbBlockReference
  2
AVE_RENDER
 10
0.0
 20
0.0
 30
0.0
1001
AVE_RENDER
1002
{
1070
     1
1000
Scanl Opt
1070
     2
1070
     0
1070
     2
1040
2.0
1040
4.0
1070
     0
1070
     1
1070
     0
1040
0.03
1002
}
  0
INSERT
  5
98
330
1F
100
AcDbEntity
  8
ASHADE
 62
     6
100
AcDbBlockReference
  2
AVE_RENDER
 10
0.0
 20
0.0
 30
0.0
1001
AVE_RENDER
1002
{
1070
     2
1000
Raytr Opt
1070
     2
1070
     0
1070
     2
1040
2.0
1040
4.0
1070
     0
1070
     1
1070
     1
1040
0.03
1070
     3
1040
0.03
1002
}
  0
INSERT
  5
99
330
1F
100
AcDbEntity
  8
ASHADE
 62
     7
100
AcDbBlockReference
  2
AVE_RENDER
 10
0.0
 20
0.0
 30
0.0
1001
AVE_RENDER
1002
{
1070
     0
1000
RFile Opt
1070
     1
1070
   640
1070
   480
1070
 10000
1070
     1
1070
     8
1070
     8
1070
     0
1070
     0
1070
     0
1070
     0
1070
     0
1070
     0
1070
     0
1002
}
  0
INSERT
  5
9A
330
1F
100
AcDbEntity
  8
ASHADE
 62
     8
100
AcDbBlockReference
  2
AVE_RENDER
 10
0.0
 20
0.0
 30
0.0
1001
AVE_RENDER
1002
{
1070
     0
1000
Fog Opt
1070
     0
1070
     0
1040
0.0
1040
1.0
1040
0.0
1040
1.0
1010
0.5
1020
0.5
1030
0.5
1002
}
  0
INSERT
  5
9B
330
1F
100
AcDbEntity
  8
ASHADE
 62
     9
100
AcDbBlockReference
  2
AVE_RENDER
 10
0.0
 20
0.0
 30
0.0
1001
AVE_RENDER
1002
{
1070
     0
1000
BG Opt
1070
     0
1070
     1
1010
0.0
1020
0.0
1030
0.0
1010
1.0
1020
0.0
1030
0.0
1010
0.0
1020
1.0
1030
0.0
1010
0.0
1020
0.0
1030
1.0
1040
0.5
1040
0.33
1040
0.0
1000

1070
     1
1000

1070
     1
1070
     1
1040
1.0
1040
1.0
1040
0.0
1040
0.0
1070
     0
1002
}
  0
INSERT
  5
A2
330
1F
100
AcDbEntity
  8
ASHADE
 62
     1
100
AcDbBlockReference
  2
AVE_GLOBAL
 10
0.0
 20
0.0
 30
0.0
1001
AVE_MATERIAL
1002
{
1000
*GLOBAL*
1000
2
1000
Global finish.
1002
{
1002
}
1002
{
1070
    63
1002
{
1002
{
1010
-1.0
1020
-1.0
1030
-1.0
1002
}
1040
0.1000000014901161
1000

1040
0.0
1002
{
1002
}
1040
0.0
1002
{
1002
}
1040
0.0
1002
}
1002
{
1002
{
1010
-1.0
1020
-1.0
1030
-1.0
1002
}
1040
0.6999999880790711
1000

1040
0.0
1002
{
1002
}
1040
0.0
1002
{
1002
}
1040
0.0
1002
}
1002
{
1002
{
1010
-1.0
1020
-1.0
1030
-1.0
1002
}
1040
0.2000000029802322
1000

1040
0.0
1002
{
1002
}
1040
0.0
1002
{
1002
}
1040
0.0
1002
}
1002
{
1070
     0
1002
{
1070
     1
1002
{
1040
1.0
1040
1.0
1000

1040
0.0
1002
{
1002
}
1040
0.0
1002
{
1002
}
1040
0.0
1002
}
1002
}
1040
1.0
1040
0.0
1040
0.0
1002
}
1002
{
1040
1.0
1040
1.0
1000

1040
0.0
1002
{
1002
}
1040
0.0
1002
{
1002
}
1040
0.0
1002
}
1002
{
1040
0.5
1040
1.0
1000

1040
0.0
1002
{
1002
}
1040
0.0
1002
{
1002
}
1040
0.0
1002
}
1002
{
1070
     0
1040
0.0
1002
{
1002
}
1040
1.0
1002
{
1002
}
1040
0.0
1002
}
1002
{
1040
0.0
1002
{
1002
{
1010
0.0
1020
0.0
1030
0.0
1002
}
1040
1.0
1000

1040
0.0
1002
{
1002
}
1040
0.0
1002
{
1002
}
1040
0.0
1002
}
1002
}
1002
{
1002
{
1070
     1
1002
{
1040
0.0
1040
1.0
1000

1040
0.0
1002
{
1002
}
1040
0.0
1002
{
1002
}
1040
0.0
1002
}
1002
}
1040
0.0
1002
{
1002
}
1010
1.0
1020
0.0
1030
0.0
1010
0.0
1020
1.0
1030
0.0
1010
0.0
1020
0.0
1030
1.0
1070
     0
1002
}
1002
{
1002
{
1040
1.0
1040
1.0
1002
{
1070
     1
1002
{
1040
1.0
1040
1.0
1000

1040
0.0
1002
{
1002
}
1040
0.0
1002
{
1002
}
1040
0.0
1002
}
1002
}
1002
}
1070
     0
1040
0.0
1002
{
1002
}
1002
}
1002
{
1002
}
1002
}
1002
{
1071
        3
1070
     3
1070
     0
1002
{
1070
     2
1070
     0
1070
     0
1040
0.0
1002
}
1070
     0
1070
     2
1002
{
1002
}
1002
}
1002
{
1040
8030.0
1040
190.3000030517578
1040
0.3050000071525574
1040
228.0
1040
545.0
1040
14.0
1040
17.39999961853027
1040
0.4560000002384186
1002
}
1002
}
  0
MESH
  5
F9
330
1F
100
AcDbEntity
  8
OracDecor_decorative_elements
 62
   116
420
   427834
160
             47528
310
A8B90000280500000C00000013000000020000003C0000000600000002000000000000C0DF1E614000000080000029C0000000C0DF1E6140000000404C27614000000020F1ED28C0000000804C2761400C000000130000000A0000003C0000000600000002000000000000C0DF1E614000000080000029C0000000C0DF1E61
310
C0000000C0DF1E614000000080000029C0000000C0DF1E61400C00000013000000120000003C0000000600000002000000000000C0DF1E614000000080000029C0000000C0DF1E61C0000000404C27614000000020F1ED28C0000000604C2761C00C000000130000001A0000003C0000000600000002000000000000404C27
310
614000000020F1ED28C0000000604C2761C0000000404C27614000000020F1ED28C0000000804C2761400C00000013000000220000003C0000000600000002000000000000404C27614000000020F1ED28C0000000804C27614000000020C62E61400000004058BC28C0000000C0C52E61400C000000130000002A0000003C
310
0000000600000002000000000000404C27614000000020F1ED28C0000000604C2761C000000020C62E61400000004058BC28C0000000C0C52E61C00C00000013000000320000003C000000060000000200000000000020C62E61400000004058BC28C0000000C0C52E61C000000020C62E61400000004058BC28C0000000C0
310
C52E61400C000000130000003A0000003C0000000600000002000000000000008039614000000020021C28C0000000008039614000000020C62E61400000004058BC28C0000000C0C52E61400C00000013000000420000003C0000000600000002000000000000008039614000000020021C28C000000000803961C0000000
310
20C62E61400000004058BC28C0000000C0C52E61C00C000000130000004A0000003C0000000600000002000000000000008039614000000020021C28C000000000803961C0000000008039614000000020021C28C000000000803961400C00000013000000520000003C000000060000000200000000000000804661400000
310
00E0FEE326C00000000080466140000000008039614000000020021C28C000000000803961400C000000130000005A0000003C00000006000000020000000000000080466140000000E0FEE326C000000000804661C0000000008039614000000020021C28C000000000803961C00C00000013000000620000003C00000006
310
000000020000000000000080466140000000E0FEE326C000000000804661C00000000080466140000000E0FEE326C000000000804661400C000000130000006A0000003C0000000600000002000000000000E039516140000000C0A84326C0000000403A5161400000000080466140000000E0FEE326C00000000080466140
310
0C00000013000000720000003C00000006000000020000000000000080466140000000E0FEE326C000000000804661C0000000E039516140000000C0A84326C0000000403A5161C00C000000130000007A0000003C0000000600000002000000000000E039516140000000C0A84326C0000000403A5161C0000000E0395161
310
40000000C0A84326C0000000403A5161400C00000013000000820000003C0000000600000002000000000000C0B358614000000000101226C000000080B3586140000000E039516140000000C0A84326C0000000403A5161400C000000130000008A0000003C0000000600000002000000000000E039516140000000C0A843
310
26C0000000403A5161C0000000C0B358614000000000101226C0000000A0B35861C00C00000013000000920000003C0000000600000002000000000000C0B358614000000000101226C0000000A0B35861C0000000C0B358614000000000101226C000000080B35861400C000000130000009A0000003C0000000600000002
310
0000000000004020616140000000A0000026C00000004020616140000000C0B358614000000000101226C000000080B35861400C00000013000000A20000003C00000006000000020000000000004020616140000000A0000026C000000040206161C0000000C0B358614000000000101226C0000000A0B35861C00C000000
310
13000000AA0000003C00000006000000020000000000004020616140000000A0000026C000000040206161C00000004020616140000000A0000026C000000040206161400C00000013000000B20000003C00000006000000020000000000000000906140000000A0000026C000000000009061400000004020616140000000
310
A0000026C000000040206161400C00000013000000BA0000003C00000006000000020000000000000000906140000000A0000026C000000000009061C00000004020616140000000A0000026C000000040206161C00C00000013000000C20000003C00000006000000020000000000000000906140000000A0000026C00000
310
0000009061C00000000000906140000000A0000026C000000000009061400C00000013000000CA0000003C00000006000000020000000000002083A06140000000A09A3526C00000000083A061400000000000906140000000A0000026C000000000009061400C00000013000000D20000003C000000060000000200000000
310
00000000906140000000A0000026C000000000009061C00000002083A06140000000A09A3526C00000002083A061C00C00000013000000DA0000003C00000006000000020000000000002083A06140000000A09A3526C00000002083A061C00000002083A06140000000A09A3526C00000000083A061400C00000013000000
310
E20000003C00000006000000020000000000008065B16140000000C0AE4726C00000008065B161400000002083A06140000000A09A3526C00000000083A061400C00000013000000EA0000003C00000006000000020000000000002083A06140000000A09A3526C00000002083A061C00000008065B16140000000C0AE4726
310
C00000008065B161C00C00000013000000F20000003C00000006000000020000000000008065B16140000000C0AE4726C00000008065B161C00000008065B16140000000C0AE4726C00000008065B161400C00000013000000FA0000003C00000006000000020000000000008018D2614000000080040326C00000008018D2
310
61400000008065B16140000000C0AE4726C00000008065B161400C00000013000000020100003C00000006000000020000000000008065B16140000000C0AE4726C00000008065B161C00000008018D2614000000080040326C00000008018D261C00C000000130000000A0100003C00000006000000020000000000008018
310
D2614000000080040326C00000008018D261C00000008018D2614000000080040326C00000008018D261400C00000013000000120100003C0000000600000002000000000000C081EF6140000000C0714325C0000000C081EF61400000008018D2614000000080040326C00000008018D261400C000000130000001A010000
310
3C0000000600000002000000000000C081EF6140000000C0714325C0000000C081EF61C00000008018D2614000000080040326C00000008018D261C00C00000013000000220100003C0000000600000002000000000000C081EF6140000000C0714325C0000000C081EF61C0000000C081EF6140000000C0714325C0000000
310
C081EF61400C000000130000002A0100003C00000006000000020000000000002016F76140000000E04B4E25C00000000016F76140000000C081EF6140000000C0714325C0000000C081EF61400C00000013000000320100003C0000000600000002000000000000C081EF6140000000C0714325C0000000C081EF61C00000
310
002016F76140000000E04B4E25C00000002016F761C00C000000130000003A0100003C00000006000000020000000000002016F76140000000E04B4E25C00000002016F761C00000002016F76140000000E04B4E25C00000000016F761400C00000013000000420100003C00000006000000020000000000002016F7614000
310
0000E04B4E25C00000000016F7614000000020B3FE614000000020EC5125C000000000B3FE61400C000000130000004A0100003C00000006000000020000000000002016F76140000000E04B4E25C00000002016F761C000000020B3FE614000000020EC5125C000000020B3FE61C00C00000013000000520100003C000000
310
060000000200000000000020B3FE614000000020EC5125C000000020B3FE61C000000020B3FE614000000020EC5125C000000000B3FE61400C000000130000005A0100003C000000060000000200000000000020B3FE614000000020EC5125C000000000B3FE6140000000C095196240000000E03C2425C0000000C0951962
310
400C00000013000000620100003C000000060000000200000000000020B3FE614000000020EC5125C000000020B3FE61C0000000C095196240000000E03C2425C0000000C0951962C00C000000130000006A0100003C0000000600000002000000000000C095196240000000E03C2425C0000000C0951962C0000000C09519
310
6240000000E03C2425C0000000C0951962400C00000013000000720100003C0000000600000002000000000000C095196240000000E03C2425C0000000C095196240000000E0A232624000000080C2A124C0000000C0A23262400C000000130000007A0100003C0000000600000002000000000000C095196240000000E03C
310
2425C0000000C0951962C0000000E0A232624000000080C2A124C0000000C0A23262C00C00000013000000820100003C0000000600000002000000000000E0A232624000000080C2A124C0000000C0A23262C0000000E0A232624000000080C2A124C0000000C0A23262400C000000130000008A0100003C00000006000000
310
02000000000000E0A232624000000080C2A124C0000000C0A2326240000000605A5A6240000000608DE722C0000000405A5A62400C00000013000000920100003C0000000600000002000000000000E0A232624000000080C2A124C0000000C0A23262C0000000605A5A6240000000608DE722C0000000405A5A62C00C0000
310
00130000009A0100003C0000000600000002000000000000605A5A6240000000608DE722C0000000405A5A62C0000000605A5A6240000000608DE722C0000000405A5A62400C00000013000000A20100003C0000000600000002000000000000C064726240000000801DBE20C0000000C064726240000000605A5A62400000
310
00608DE722C0000000405A5A62400C00000013000000AA0100003C0000000600000002000000000000605A5A6240000000608DE722C0000000405A5A62C0000000C064726240000000801DBE20C0000000C0647262C00C00000013000000B20100003C0000000600000002000000000000C064726240000000801DBE20C000
310
0000C0647262C0000000C064726240000000801DBE20C0000000C0647262400C00000013000000BA0100003C0000000600000002000000000000E0457D624000000060BB051DC000000000467D6240000000C064726240000000801DBE20C0000000C0647262400C00000013000000C20100003C0000000600000002000000
310
000000E0457D624000000060BB051DC0000000E0457D62C0000000C064726240000000801DBE20C0000000C0647262C00C00000013000000CA0100003C0000000600000002000000000000E0457D624000000060BB051DC0000000E0457D62C0000000E0457D624000000060BB051DC000000000467D62400C000000130000
310
00D20100003C000000060000000200000000000040BC896240000000C000251BC000000040BC896240000000E0457D624000000060BB051DC000000000467D62400C00000013000000DA0100003C0000000600000002000000000000E0457D624000000060BB051DC0000000E0457D62C000000040BC896240000000C00025
310
1BC000000040BC8962C00C00000013000000E20100003C000000060000000200000000000040BC896240000000C000251BC000000040BC8962C000000040BC896240000000C000251BC000000040BC8962400C00000013000000EA0100003C00000006000000020000000000008032936240000000006F2F19C00000008032
310
93624000000040BC896240000000C000251BC000000040BC8962400C00000013000000F20100003C000000060000000200000000000040BC896240000000C000251BC000000040BC8962C00000008032936240000000006F2F19C000000080329362C00C00000013000000FA0100003C000000060000000200000000000080
310
32936240000000006F2F19C000000080329362C00000008032936240000000006F2F19C000000080329362400C00000013000000020200003C000000060000000200000000000000629E6240000000A08D3115C000000000629E62400000008032936240000000006F2F19C000000080329362400C000000130000000A0200
310
003C000000060000000200000000000000629E6240000000A08D3115C000000000629E62C00000008032936240000000006F2F19C000000080329362C00C00000013000000120200003C000000060000000200000000000000629E6240000000A08D3115C000000000629E62C000000000629E6240000000A08D3115C00000
310
0000629E62400C000000130000001A0200003C00000006000000020000000000004025A3624000000060D0C513C00000004025A3624000000000629E6240000000A08D3115C000000000629E62400C00000013000000220200003C000000060000000200000000000000629E6240000000A08D3115C000000000629E62C000
310
00004025A3624000000060D0C513C00000004025A362C00C000000130000002A0200003C00000006000000020000000000004025A3624000000060D0C513C00000004025A362C00000004025A3624000000060D0C513C00000004025A362400C00000013000000320200003C000000060000000200000000000040C5AD6240
310
000000005B8812C000000080C5AD62400000004025A3624000000060D0C513C00000004025A362400C000000130000003A0200003C00000006000000020000000000004025A3624000000060D0C513C00000004025A362C000000040C5AD6240000000005B8812C000000080C5AD62C00C00000013000000420200003C0000
310
00060000000200000000000040C5AD6240000000005B8812C000000080C5AD62C000000040C5AD6240000000005B8812C000000080C5AD62400C000000130000004A0200003C0000000600000002000000000000C0B9BD624000000040010012C0000000C0B9BD624000000040C5AD6240000000005B8812C000000080C5AD
310
62400C00000013000000520200003C0000000600000002000000000000C0B9BD624000000040010012C0000000C0B9BD62C000000040C5AD6240000000005B8812C000000080C5AD62C00C000000130000005A0200003C0000000600000002000000000000C0B9BD624000000040010012C0000000C0B9BD62C0000000C0B9
310
BD624000000040010012C0000000C0B9BD62400C00000013000000620200003C0000000600000002000000000000C0B9BD624000000040010012C0000000C0B9BD62400000000000F0654000000080010012C00000000000F065400C000000130000006A0200003C00000006000000020000000000000000F0654000000080
310
010012C00000000000F065C0000000C0B9BD624000000040010012C0000000C0B9BD62C00C00000013000000720200003C00000006000000020000000000000000F0654000000080010012C00000000000F065C00000000000F0654000000080010012C00000000000F065400C000000130000007A0200003C000000060000
310
0002000000000000E072036640000000808EC91FC000000000730366400000000000F0654000000080010012C00000000000F065400C00000013000000820200003C0000000600000002000000000000E072036640000000808EC91FC0000000E0720366C00000000000F0654000000080010012C00000000000F065C00C00
310
0000130000008A0200003C0000000600000002000000000000E072036640000000808EC91FC0000000E0720366C0000000E072036640000000808EC91FC000000000730366400C00000013000000920200003C0000000600000002000000000000000F08664000000000BBC920C00000008010086640000000E07203664000
310
0000808EC91FC000000000730366400C000000130000009A0200003C0000000600000002000000000000E072036640000000808EC91FC0000000E0720366C0000000000F08664000000000BBC920C0000000A0100866C00C00000013000000A20200003C0000000600000002000000000000000F08664000000000BBC920C0
310
000000A0100866C0000000000F08664000000000BBC920C000000080100866400C00000013000000AA0200003C000000060000000200000000000060A71D664000000080CA2A22C000000000A71D6640000000000F08664000000000BBC920C000000080100866400C00000013000000B20200003C00000006000000020000
310
00000000000F08664000000000BBC920C0000000A0100866C000000060A71D664000000080CA2A22C000000020A71D66C00C00000013000000BA0200003C000000060000000200000000000060A71D664000000080CA2A22C000000020A71D66C000000060A71D664000000080CA2A22C000000000A71D66400C0000001300
310
0000C20200003C000000060000000200000000000000E4436640000000E048F222C000000080E443664000000060A71D664000000080CA2A22C000000000A71D66400C00000013000000CA0200003C000000060000000200000000000060A71D664000000080CA2A22C000000020A71D66C000000000E4436640000000E048
310
F222C000000080E44366C00C00000013000000D20200003C000000060000000200000000000000E4436640000000E048F222C000000080E44366C000000000E4436640000000E048F222C000000080E44366400C00000013000000DA0200003C0000000600000002000000000000C0BF576640000000E060AD24C000000000
310
BF57664000000000E4436640000000E048F222C000000080E44366400C00000013000000E20200003C000000060000000200000000000000E4436640000000E048F222C000000080E44366C0000000C0BF576640000000E060AD24C000000040BF5766C00C00000013000000EA0200003C0000000600000002000000000000
310
C0BF576640000000E060AD24C000000040BF5766C0000000C0BF576640000000E060AD24C000000000BF5766400C00000013000000F20200003C0000000600000002000000000000406D646640000000808A1227C0000000806D646640000000C0BF576640000000E060AD24C000000000BF5766400C00000013000000FA02
310
00003C0000000600000002000000000000C0BF576640000000E060AD24C000000040BF5766C0000000406D646640000000808A1227C0000000406D6466C00C00000013000000020300003C0000000600000002000000000000406D646640000000808A1227C0000000406D6466C0000000406D646640000000808A1227C000
310
0000806D6466400C000000130000000A0300003C000000060000000200000000000080717A664000000020F45B29C000000080717A6640000000406D646640000000808A1227C0000000806D6466400C00000013000000120300003C0000000600000002000000000000406D646640000000808A1227C0000000406D6466C0
310
00000080717A664000000020F45B29C000000080717A66C00C000000130000001A0300003C000000060000000200000000000080717A664000000020F45B29C000000080717A66C000000080717A664000000020F45B29C000000080717A66400C00000013000000220300003C0000000600000002000000000000C0019B66
310
4000000040B2D72AC000000000029B664000000080717A664000000020F45B29C000000080717A66400C000000130000002A0300003C000000060000000200000000000080717A664000000020F45B29C000000080717A66C0000000C0019B664000000040B2D72AC0000000E0019B66C00C00000013000000320300003C00
310
00000600000002000000000000C0019B664000000040B2D72AC0000000E0019B66C0000000C0019B664000000040B2D72AC000000000029B66400C000000130000003A0300003C0000000600000002000000000000E0D8C66640000000A09E4F2BC000000000D9C66640000000C0019B664000000040B2D72AC00000000002
310
9B66400C00000013000000420300003C0000000600000002000000000000C0019B664000000040B2D72AC0000000E0019B66C0000000E0D8C66640000000A09E4F2BC0000000C0D8C666C00C000000130000004A0300003C0000000600000002000000000000E0D8C66640000000A09E4F2BC0000000C0D8C666C0000000E0
310
D8C66640000000A09E4F2BC000000000D9C666400C00000013000000520300003C0000000600000002000000000000E0E3F46640000000205AB62AC000000000E4F46640000000E0D8C66640000000A09E4F2BC000000000D9C666400C000000130000005A0300003C0000000600000002000000000000E0D8C66640000000
310
A09E4F2BC0000000C0D8C666C0000000E0E3F46640000000205AB62AC000000000E4F466C00C00000013000000620300003C0000000600000002000000000000E0E3F46640000000205AB62AC000000000E4F466C0000000E0E3F46640000000205AB62AC000000000E4F466400C000000130000006A0300003C0000000600
310
000002000000000000209E1B674000000020E83329C0000000009E1B6740000000E0E3F46640000000205AB62AC000000000E4F466400C00000013000000720300003C0000000600000002000000000000E0E3F46640000000205AB62AC000000000E4F466C0000000209E1B674000000020E83329C0000000409E1B67C00C
310
000000130000007A0300003C0000000600000002000000000000209E1B674000000020E83329C0000000409E1B67C0000000209E1B674000000020E83329C0000000009E1B67400C00000013000000820300003C0000000600000002000000000000006D366740000000C0F68627C0000000C06D366740000000209E1B6740
310
00000020E83329C0000000009E1B67400C000000130000008A0300003C0000000600000002000000000000209E1B674000000020E83329C0000000409E1B67C0000000006D366740000000C0F68627C0000000C06D3667C00C00000013000000920300003C0000000600000002000000000000006D366740000000C0F68627
310
C0000000C06D3667C0000000006D366740000000C0F68627C0000000C06D3667400C000000130000009A0300003C000000060000000200000000000020BA476740000000E0B63726C000000000B9476740000000006D366740000000C0F68627C0000000C06D3667400C00000013000000A20300003C000000060000000200
310
0000000000006D366740000000C0F68627C0000000C06D3667C000000020BA476740000000E0B63726C000000020B94767C00C00000013000000AA0300003C000000060000000200000000000020BA476740000000E0B63726C000000020B94767C000000020BA476740000000E0B63726C000000000B94767400C00000013
310
000000B20300003C00000006000000020000000000002044566740000000E0B17626C0000000C04156674000000020BA476740000000E0B63726C000000000B94767400C00000013000000BA0300003C00000006000000020000000000002044566740000000E0B17626C0000000C0415667C000000020BA476740000000E0
310
B63726C000000020B94767C00C00000013000000C20300003C00000006000000020000000000002044566740000000E0B17626C0000000C0415667C00000002044566740000000E0B17626C0000000C0415667400C00000013000000CA0300003C0000000600000002000000000000A00962674000000080D9BF27C0000000
310
80096267400000002044566740000000E0B17626C0000000C0415667400C00000013000000D20300003C00000006000000020000000000002044566740000000E0B17626C0000000C0415667C0000000A00962674000000080D9BF27C0000000A0096267C00C00000013000000DA0300003C00000006000000020000000000
310
00A00962674000000080D9BF27C0000000A0096267C0000000A00962674000000080D9BF27C000000080096267400C00000013000000E20300003C0000000600000002000000000000603577674000000060584129C00000008035776740000000A00962674000000080D9BF27C000000080096267400C00000013000000EA
310
0300003C0000000600000002000000000000A00962674000000080D9BF27C0000000A0096267C0000000603577674000000060584129C000000060357767C00C00000013000000F20300003C0000000600000002000000000000603577674000000060584129C000000060357767C0000000603577674000000060584129C0
310
00000080357767400C00000013000000FA0300003C0000000600000002000000000000A0818F6740000000E0869229C000000080818F6740000000603577674000000060584129C000000080357767400C00000013000000020400003C0000000600000002000000000000603577674000000060584129C000000060357767
310
C0000000A0818F6740000000E0869229C000000080818F67C00C000000130000000A0400003C0000000600000002000000000000A0818F6740000000E0869229C000000080818F67C0000000A0818F6740000000E0869229C000000080818F67400C00000013000000120400003C000000060000000200000000000020DEA6
310
67400000000032B428C000000040DEA66740000000A0818F6740000000E0869229C000000080818F67400C000000130000001A0400003C0000000600000002000000000000A0818F6740000000E0869229C000000080818F67C000000020DEA667400000000032B428C000000060DEA667C00C00000013000000220400003C
310
000000060000000200000000000020DEA667400000000032B428C000000060DEA667C000000020DEA667400000000032B428C000000040DEA667400C000000130000002A0400003C0000000600000002000000000000601BC06740000000A0622527C0000000801BC0674000000020DEA667400000000032B428C000000040
310
DEA667400C00000013000000320400003C000000060000000200000000000020DEA667400000000032B428C000000060DEA667C0000000601BC06740000000A0622527C0000000801BC067C00C000000130000003A0400003C0000000600000002000000000000601BC06740000000A0622527C0000000801BC067C0000000
310
601BC06740000000A0622527C0000000801BC067400C00000013000000420400003C00000006000000020000000000004076D36740000000C067C625C00000008076D36740000000601BC06740000000A0622527C0000000801BC067400C000000130000004A0400003C0000000600000002000000000000601BC067400000
310
00A0622527C0000000801BC067C00000004076D36740000000C067C625C00000006076D367C00C00000013000000520400003C00000006000000020000000000004076D36740000000C067C625C00000006076D367C00000004076D36740000000C067C625C00000008076D367400C000000130000005A0400003C00000006
310
000000020000000000008087EF6740000000A016DD23C00000004087EF67400000004076D36740000000C067C625C00000008076D367400C00000013000000620400003C00000006000000020000000000004076D36740000000C067C625C00000006076D367C00000008087EF6740000000A016DD23C00000004087EF67C0
310
0C000000130000006A0400003C00000006000000020000000000008087EF6740000000A016DD23C00000004087EF67C00000008087EF6740000000A016DD23C00000004087EF67400C00000013000000720400003C000000060000000200000000000020790B684000000040B24222C000000000790B68400000008087EF67
310
40000000A016DD23C00000004087EF67400C000000130000007A0400003C00000006000000020000000000008087EF6740000000A016DD23C00000004087EF67C000000020790B684000000040B24222C000000020790B68C00C00000013000000820400003C000000060000000200000000000020790B684000000040B242
310
22C000000020790B68C000000020790B684000000040B24222C000000000790B68400C000000130000008A0400003C0000000600000002000000000000A023216840000000A0EC5E21C0000000C02321684000000020790B684000000040B24222C000000000790B68400C00000013000000920400003C0000000600000002
310
00000000000020790B684000000040B24222C000000020790B68C0000000A023216840000000A0EC5E21C0000000C0232168C00C000000130000009A0400003C0000000600000002000000000000A023216840000000A0EC5E21C0000000C0232168C0000000A023216840000000A0EC5E21C0000000C0232168400C000000
310
13000000A20400003C0000000600000002000000000000605D3D684000000020B6A020C0000000805D3D6840000000A023216840000000A0EC5E21C0000000C0232168400C00000013000000AA0400003C0000000600000002000000000000A023216840000000A0EC5E21C0000000C0232168C0000000605D3D6840000000
310
20B6A020C0000000805D3D68C00C00000013000000B20400003C0000000600000002000000000000605D3D684000000020B6A020C0000000805D3D68C0000000605D3D684000000020B6A020C0000000805D3D68400C00000013000000BA0400003C00000006000000020000000000008077706840000000E0728820C00000
310
004077706840000000605D3D684000000020B6A020C0000000805D3D68400C00000013000000C20400003C00000006000000020000000000008077706840000000E0728820C000000040777068C0000000605D3D684000000020B6A020C0000000805D3D68C00C00000013000000CA0400003C000000060000000200000000
310
00008077706840000000E0728820C000000040777068C00000008077706840000000E0728820C000000040777068400C00000013000000D20400003C000000060000000200000000000000579E684000000020ABC422C0000000805A9E68400000008077706840000000E0728820C000000040777068400C00000013000000
310
DA0400003C00000006000000020000000000008077706840000000E0728820C000000040777068C000000000579E684000000020ABC422C0000000805A9E68C00C00000013000000E20400003C000000060000000200000000000000579E684000000020ABC422C0000000805A9E68C000000000579E684000000020ABC422
310
C0000000805A9E68400C00000013000000EA0400003C00000006000000020000000000004083B86840000000C093E325C0000000C07FB8684000000000579E684000000020ABC422C0000000805A9E68400C00000013000000F20400003C000000060000000200000000000000579E684000000020ABC422C0000000805A9E
310
68C00000004083B86840000000C093E325C00000000080B868C00C00000013000000FA0400003C00000006000000020000000000004083B86840000000C093E325C00000000080B868C00000004083B86840000000C093E325C0000000C07FB868400C00000013000000020500003C0000000600000002000000000000003F
310
C868400000002082A928C0000000003DC868400000004083B86840000000C093E325C0000000C07FB868400C000000130000000A0500003C00000006000000020000000000004083B86840000000C093E325C00000000080B868C0000000003FC868400000002082A928C0000000003DC868C00C0000001300000012050000
310
3C0000000600000002000000000000003FC868400000002082A928C0000000003DC868C0000000003FC868400000002082A928C0000000003DC868400C000000130000001A0500003C0000000600000002000000000000C053DC684000000040097B2BC00000008054DC6840000000003FC868400000002082A928C0000000
310
003DC868400C00000013000000220500003C0000000600000002000000000000003FC868400000002082A928C0000000003DC868C0000000C053DC684000000040097B2BC00000008054DC68C00C000000130000002A0500003C0000000600000002000000000000C053DC684000000040097B2BC00000008054DC68C00000
310
00C053DC684000000040097B2BC00000008054DC68400C00000013000000320500003C0000000600000002000000000000607204694000000080F2C42EC00000004072046940000000C053DC684000000040097B2BC00000008054DC68400C000000130000003A0500003C0000000600000002000000000000C053DC684000
310
000040097B2BC00000008054DC68C0000000607204694000000080F2C42EC000000040720469C00C00000013000000420500003C0000000600000002000000000000607204694000000080F2C42EC000000040720469C0000000607204694000000080F2C42EC000000040720469400C000000130000004A0500003C000000
310
060000000200000000000080DC3A6940000000804A7030C000000080DC3A6940000000607204694000000080F2C42EC000000040720469400C00000013000000520500003C0000000600000002000000000000607204694000000080F2C42EC000000040720469C000000080DC3A6940000000804A7030C0000000C0DC3A69
310
C00C000000130000005A0500003C000000060000000200000000000080DC3A6940000000804A7030C0000000C0DC3A69C000000080DC3A6940000000804A7030C000000080DC3A69400C00000013000000620500003C0000000600000002000000000000E09679694000000060A6B630C0000000009779694000000080DC3A
310
6940000000804A7030C000000080DC3A69400C000000130000006A0500003C000000060000000200000000000080DC3A6940000000804A7030C0000000C0DC3A69C0000000E09679694000000060A6B630C0000000E0967969C00C00000013000000720500003C0000000600000002000000000000E09679694000000060A6
310
B630C0000000E0967969C0000000E09679694000000060A6B630C000000000977969400C000000130000007A0500003C0000000600000002000000000000C077B5694000000000CC1630C00000000078B56940000000E09679694000000060A6B630C000000000977969400C00000013000000820500003C00000006000000
310
02000000000000E09679694000000060A6B630C0000000E0967969C0000000C077B5694000000000CC1630C0000000C077B569C00C000000130000008A0500003C0000000600000002000000000000C077B5694000000000CC1630C0000000C077B569C0000000C077B5694000000000CC1630C00000000078B569400C0000
310
0013000000920500003C00000006000000020000000000002040E76940000000C0BE892DC00000004040E76940000000C077B5694000000000CC1630C00000000078B569400C000000130000009A0500003C0000000600000002000000000000C077B5694000000000CC1630C0000000C077B569C00000000040E769400000
310
00C0BE892DC00000002040E769C00C00000013000000A20500003C00000006000000020000000000000040E76940000000C0BE892DC00000002040E769C00000002040E76940000000C0BE892DC00000004040E769400C00000013000000AA0500003C0000000600000002000000000000408F086A40000000C0E5AF2AC000
310
0000C08F086A400000002040E76940000000C0BE892DC00000004040E769400C00000013000000B20500003C00000006000000020000000000000040E76940000000C0BE892DC00000002040E769C0000000408F086A40000000C0E5AF2AC0000000A08F086AC00C00000013000000BA0500003C0000000600000002000000
310
000000408F086A40000000C0E5AF2AC0000000A08F086AC0000000408F086A40000000C0E5AF2AC0000000C08F086A400C00000013000000C20500003C0000000600000002000000000000605B1C6A4000000080E23C28C0000000405B1C6A40000000408F086A40000000C0E5AF2AC0000000C08F086A400C000000130000
310
00CA0500003C0000000600000002000000000000408F086A40000000C0E5AF2AC0000000A08F086AC0000000605B1C6A4000000080E23C28C0000000405B1C6AC00C00000013000000D20500003C0000000600000002000000000000605B1C6A4000000080E23C28C0000000405B1C6AC0000000605B1C6A4000000080E23C
310
28C0000000405B1C6A400C00000013000000DA0500003C0000000600000002000000000000002F296A40000000A0E9F526C0000000002F296A40000000605B1C6A4000000080E23C28C0000000405B1C6A400C00000013000000E20500003C0000000600000002000000000000605B1C6A4000000080E23C28C0000000405B
310
1C6AC0000000002F296A40000000A0E9F526C0000000E02E296AC00C00000013000000EA0500003C0000000600000002000000000000002F296A40000000A0E9F526C0000000E02E296AC0000000002F296A40000000A0E9F526C0000000002F296A400C00000013000000F20500003C000000060000000200000000000000
310
BF3B6A4000000020A95726C000000000BF3B6A40000000002F296A40000000A0E9F526C0000000002F296A400C00000013000000FA0500003C0000000600000002000000000000002F296A40000000A0E9F526C0000000E02E296AC000000000BF3B6A4000000020A95726C000000000BF3B6AC00C00000013000000020600
310
003C000000060000000200000000000000BF3B6A4000000020A95726C000000000BF3B6AC000000000BF3B6A4000000020A95726C000000000BF3B6A400C000000130000000A0600003C000000060000000200000000000060824D6A40000000A0A61F25C000000080824D6A4000000000BF3B6A4000000020A95726C00000
310
0000BF3B6A400C00000013000000120600003C000000060000000200000000000000BF3B6A4000000020A95726C000000000BF3B6AC000000060824D6A40000000A0A61F25C000000080824D6AC00C000000130000001A0600003C000000060000000200000000000060824D6A40000000A0A61F25C000000080824D6AC000
310
000060824D6A40000000A0A61F25C000000080824D6A400C00000013000000220600003C0000000600000002000000000000C0AE566A4000000000ED2623C000000000AE566A4000000060824D6A40000000A0A61F25C000000080824D6A400C000000130000002A0600003C000000060000000200000000000060824D6A40
310
000000A0A61F25C000000080824D6AC0000000C0AE566A4000000000ED2623C000000000AE566AC00C00000013000000320600003C0000000600000002000000000000C0AE566A4000000000ED2623C000000000AE566AC0000000C0AE566A4000000000ED2623C000000000AE566A400C000000130000003A0600003C0000
310
00060000000200000000000080EE676A40000000C00A6821C000000000EF676A40000000C0AE566A4000000000ED2623C000000000AE566A400C00000013000000420600003C0000000600000002000000000000C0AE566A4000000000ED2623C000000000AE566AC000000080EE676A40000000C00A6821C000000020EF67
310
6AC00C000000130000004A0600003C000000060000000200000000000080EE676A40000000C00A6821C000000020EF676AC000000080EE676A40000000C00A6821C000000000EF676A400C00000013000000520600003C0000000600000002000000000000005C8D6A4000000040B7491FC0000000005C8D6A4000000080EE
310
676A40000000C00A6821C000000000EF676A400C000000130000005A0600003C000000060000000200000000000080EE676A40000000C00A6821C000000020EF676AC0000000005C8D6A4000000040B7491FC0000000205C8D6AC00C00000013000000620600003C0000000600000002000000000000005C8D6A4000000040
310
B7491FC0000000205C8D6AC0000000005C8D6A4000000040B7491FC0000000005C8D6A400C000000130000006A0600003C000000060000000200000000000040E2B26A40000000606A601DC000000080E2B26A40000000005C8D6A4000000040B7491FC0000000005C8D6A400C00000013000000720600003C000000060000
310
0002000000000000005C8D6A4000000040B7491FC0000000205C8D6AC000000040E2B26A40000000606A601DC000000060E2B26AC00C000000130000007A0600003C000000060000000200000000000040E2B26A40000000606A601DC000000060E2B26AC000000040E2B26A40000000606A601DC000000080E2B26A400C00
310
000013000000820600003C0000000600000002000000000000A0E1BB6A4000000000B0AB1BC000000080E1BB6A4000000040E2B26A40000000606A601DC000000080E2B26A400C000000130000008A0600003C0000000600000002000000000000A0E1BB6A4000000000B0AB1BC0000000A0E1BB6AC000000040E2B26A4000
310
0000606A601DC000000060E2B26AC00C00000013000000920600003C0000000600000002000000000000A0E1BB6A4000000000B0AB1BC0000000A0E1BB6AC0000000A0E1BB6A4000000000B0AB1BC000000080E1BB6A400C000000130000009A0600003C00000006000000020000000000000000E06A40000000007486E0BF
310
0000000000E06A40000000A0E1BB6A4000000000B0AB1BC000000080E1BB6A400C00000013000000A20600003C00000006000000020000000000000000E06A40000000C07386E0BF0000000000E06AC0000000A0E1BB6A4000000000B0AB1BC0000000A0E1BB6AC00C00000013000000AA0600003C00000006000000020000
310
000000000000E06A40000000C07386E0BF0000000000E06AC00000000000E06A40000000007486E0BF0000000000E06A400C00000013000000B20600003C0000000600000002000000000000806BDF6A40000000002CC9D2BF0000000069DF6A400000000000E06A40000000007486E0BF0000000000E06A400C0000001300
310
0000BA0600003C00000006000000020000000000000000E06A40000000C07386E0BF0000000000E06AC0000000806BDF6A40000000402CC9D2BF0000002069DF6AC00C00000013000000C20600003C0000000600000002000000000000806BDF6A40000000402CC9D2BF0000002069DF6AC0000000806BDF6A40000000002C
310
C9D2BF0000000069DF6A400C00000013000000CA0600003C00000006000000020000000000004008D96A40000000E04731B0BF0000000008D96A40000000806BDF6A40000000002CC9D2BF0000000069DF6A400C00000013000000D20600003C0000000600000002000000000000806BDF6A40000000402CC9D2BF00000020
310
69DF6AC00000004008D96A40000000804A31B0BF0000000008D96AC00C00000013000000DA0600003C00000006000000020000000000004008D96A40000000804A31B0BF0000000008D96AC00000004008D96A40000000E04731B0BF0000000008D96A400C00000013000000E20600003C0000000600000002000000000000
310
4022D26A40000000A0A9EBDFBE0000004022D26A400000004008D96A40000000E04731B0BF0000000008D96A400C00000013000000EA0600003C00000006000000020000000000004022D26A40000000A0A9EBDFBE0000004022D26AC00000004008D96A40000000804A31B0BF0000000008D96AC00C00000013000000F206
310
00003C00000006000000020000000000004022D26A40000000A0A9EBDFBE0000004022D26AC00000004022D26A40000000A0A9EBDFBE0000004022D26A400C00000013000000FA0600003C00000006000000020000000000000000806A40000000203273DFBE0000000000806A400000004022D26A40000000A0A9EBDFBE00
310
00004022D26A400C00000013000000020700003C00000006000000020000000000000000806A40000000203273DFBE0000000000806AC00000004022D26A40000000A0A9EBDFBE0000004022D26AC00C000000130000000A0700003C00000006000000020000000000000000806A40000000203273DFBE0000000000806AC0
310
0000000000806A40000000203273DFBE0000000000806A400C00000013000000120700003C00000006000000020000000000000000806A40000000C00F00E0BF0000000000806A400000000000806A40000000203273DFBE0000000000806A400C000000130000001A0700003C00000006000000020000000000000000806A
310
40000000C00F00E0BF0000000000806AC00000000000806A40000000203273DFBE0000000000806AC00C00000013000000220700003C00000006000000020000000000000000806A40000000C00F00E0BF0000000000806AC00000000000806A40000000C00F00E0BF0000000000806A400C000000130000002A0700003C00
310
0000060000000200000000000000E82B6940000000C06308E6BF00000000E82B69400000000000806A40000000C00F00E0BF0000000000806A400C00000013000000320700003C000000060000000200000000000000E82B6940000000206408E6BF00000000E82B69C00000000000806A40000000C00F00E0BF0000000000
310
806AC00C000000130000003A0700003C000000060000000200000000000000E82B6940000000206408E6BF00000000E82B69C000000000E82B6940000000C06308E6BF00000000E82B69400C00000013000000420700003C0000000600000002000000000000606626694000000060F92806C0000000806626694000000000
310
E82B6940000000C06308E6BF00000000E82B69400C000000130000004A0700003C0000000600000002000000000000606626694000000060F92806C000000060662669C000000000E82B6940000000206408E6BF00000000E82B69C00C00000013000000520700003C00000006000000020000000000006066266940000000
310
60F92806C000000060662669C0000000606626694000000060F92806C000000080662669400C000000130000005A0700003C0000000600000002000000000000606696664000000000F92806C00000008066966640000000606626694000000060F92806C000000080662669400C00000013000000620700003C0000000600
310
000002000000000000606696664000000000F92806C000000060669666C0000000606626694000000060F92806C000000060662669C00C000000130000006A0700003C0000000600000002000000000000606696664000000000F92806C000000060669666C0000000606696664000000000F92806C000000080669666400C
310
00000013000000720700003C000000060000000200000000000080AF8F664000000000FDADF3BF00000080AF8F6640000000606696664000000000F92806C000000080669666400C000000130000007A0700003C000000060000000200000000000080AF8F664000000000FDADF3BF00000080AF8F66C00000006066966640
310
00000000F92806C000000060669666C00C00000013000000820700003C000000060000000200000000000080AF8F664000000000FDADF3BF00000080AF8F66C000000080AF8F664000000000FDADF3BF00000080AF8F66400C000000130000008A0700003C0000000600000002000000000000006EAB624000000040C44FF1
310
BF000000006EAB624000000080AF8F664000000000FDADF3BF00000080AF8F66400C00000013000000920700003C0000000600000002000000000000006EAB624000000040C44FF1BF000000006EAB62C000000080AF8F664000000000FDADF3BF00000080AF8F66C00C000000130000009A0700003C000000060000000200
310
0000000000006EAB624000000040C44FF1BF000000006EAB62C0000000006EAB624000000040C44FF1BF000000006EAB62400C00000013000000A20700003C0000000600000002000000000000C02AA561400000006011AC1BC0000000C02AA56140000000006EAB624000000040C44FF1BF000000006EAB62400C00000013
310
000000AA0700003C0000000600000002000000000000C02AA561400000008011AC1BC0000000C02AA561C0000000006EAB624000000040C44FF1BF000000006EAB62C00C00000013000000B20700003C0000000600000002000000000000C02AA561400000008011AC1BC0000000C02AA561C0000000C02AA5614000000060
310
11AC1BC0000000C02AA561400C00000013000000BA0700003C0000000600000002000000000000404C2761C0000000A0EFED28C0000000604C2761C0000000404C2761C0000000A0EFED28C0000000804C2761400C00000013000000C20700003C0000000600000002000000000000404C2761C0000000A0EFED28C0000000
310
604C2761C0000000C0DF1E61C000000000FFFF28C0000000C0DF1E61C00C00000013000000CA0700003C0000000600000002000000000000C0DF1E61C000000000FFFF28C0000000C0DF1E61C0000000C0DF1E61C000000000FFFF28C0000000C0DF1E61400C00000013000000D20700003C00000006000000020000000000
310
00404C2761C0000000A0EFED28C0000000804C276140000000C0DF1E61C000000000FFFF28C0000000C0DF1E61400C00000013000000DA0700003C000000060000000200000000000000C62E61C0000000C056BC28C0000000C0C52E61C000000000C62E61C0000000C056BC28C0000000C0C52E61400C00000013000000E2
310
0700003C0000000600000002000000000000404C2761C0000000A0EFED28C0000000604C2761C000000000C62E61C0000000C056BC28C0000000C0C52E61C00C00000013000000EA0700003C0000000600000002000000000000404C2761C0000000A0EFED28C0000000804C27614000000000C62E61C0000000C056BC28C0
310
000000C0C52E61400C00000013000000F20700003C000000060000000200000000000000803961C0000000A0001C28C000000000803961C000000000803961C0000000A0001C28C000000000803961400C00000013000000FA0700003C000000060000000200000000000000C62E61C0000000C056BC28C0000000C0C52E61
310
C000000000803961C0000000A0001C28C000000000803961C00C00000013000000020800003C000000060000000200000000000000C62E61C0000000C056BC28C0000000C0C52E614000000000803961C0000000A0001C28C000000000803961400C000000130000000A0800003C0000000600000002000000000000008046
310
61C000000060FDE326C000000000804661C000000000804661C000000060FDE326C000000000804661400C00000013000000120800003C000000060000000200000000000000804661C000000060FDE326C000000000804661C000000000803961C0000000A0001C28C000000000803961C00C000000130000001A0800003C
310
000000060000000200000000000000804661C000000060FDE326C0000000008046614000000000803961C0000000A0001C28C000000000803961400C00000013000000220800003C0000000600000002000000000000003A5161C000000040A74326C0000000403A5161C0000000003A5161C000000040A74326C000000040
310
3A5161400C000000130000002A0800003C0000000600000002000000000000003A5161C000000040A74326C0000000403A5161C000000000804661C000000060FDE326C000000000804661C00C00000013000000320800003C0000000600000002000000000000003A5161C000000040A74326C0000000403A516140000000
310
00804661C000000060FDE326C000000000804661400C000000130000003A0800003C0000000600000002000000000000C0B35861C0000000600E1226C0000000A0B35861C0000000C0B35861C0000000600E1226C000000080B35861400C00000013000000420800003C0000000600000002000000000000C0B35861C00000
310
00600E1226C0000000A0B35861C0000000003A5161C000000040A74326C0000000403A5161C00C000000130000004A0800003C0000000600000002000000000000C0B35861C0000000600E1226C000000080B3586140000000003A5161C000000040A74326C0000000403A5161400C00000013000000520800003C00000006
310
0000000200000000000040206161C000000000FFFF25C000000040206161C000000040206161C000000000FFFF25C000000040206161400C000000130000005A0800003C000000060000000200000000000040206161C000000000FFFF25C000000040206161C0000000C0B35861C0000000600E1226C0000000A0B35861C0
310
0C00000013000000620800003C000000060000000200000000000040206161C000000000FFFF25C00000004020616140000000C0B35861C0000000600E1226C000000080B35861400C000000130000006A0800003C000000060000000200000000000000009061C000000000FFFF25C000000000009061C000000000009061
310
C000000000FFFF25C000000000009061400C00000013000000720800003C000000060000000200000000000000009061C000000000FFFF25C000000000009061C000000040206161C000000000FFFF25C000000040206161C00C000000130000007A0800003C000000060000000200000000000000009061C000000000FFFF
310
25C0000000000090614000000040206161C000000000FFFF25C000000040206161400C00000013000000820800003C00000006000000020000000000000083A061C000000000993526C00000002083A061C00000000083A061C000000000993526C00000000083A061400C000000130000008A0800003C0000000600000002
310
0000000000000083A061C000000000993526C00000002083A061C000000000009061C000000000FFFF25C000000000009061C00C00000013000000920800003C00000006000000020000000000000083A061C000000000993526C00000000083A0614000000000009061C000000000FFFF25C000000000009061400C000000
310
130000009A0800003C00000006000000020000000000008065B161C000000020AD4726C00000008065B161C00000008065B161C000000020AD4726C00000008065B161400C00000013000000A20800003C00000006000000020000000000008065B161C000000020AD4726C00000008065B161C00000000083A061C0000000
310
00993526C00000002083A061C00C00000013000000AA0800003C00000006000000020000000000008065B161C000000020AD4726C00000008065B161400000000083A061C000000000993526C00000000083A061400C00000013000000B20800003C00000006000000020000000000008018D261C0000000E0020326C00000
310
008018D261C00000008018D261C0000000E0020326C00000008018D261400C00000013000000BA0800003C00000006000000020000000000008018D261C0000000E0020326C00000008018D261C00000008065B161C000000020AD4726C00000008065B161C00C00000013000000C20800003C000000060000000200000000
310
00008018D261C0000000E0020326C00000008018D261400000008065B161C000000020AD4726C00000008065B161400C00000013000000CA0800003C0000000600000002000000000000C081EF61C000000020704325C0000000C081EF61C0000000C081EF61C000000020704325C0000000C081EF61400C00000013000000
310
D20800003C00000006000000020000000000008018D261C0000000E0020326C00000008018D261C0000000C081EF61C000000020704325C0000000C081EF61C00C00000013000000DA0800003C00000006000000020000000000008018D261C0000000E0020326C00000008018D26140000000C081EF61C000000020704325
310
C0000000C081EF61400C00000013000000E20800003C00000006000000020000000000000016F761C0000000404A4E25C00000000016F761400000000016F761C0000000404A4E25C00000002016F761C00C00000013000000EA0800003C0000000600000002000000000000C081EF61C000000020704325C0000000C081EF
310
61C00000000016F761C0000000404A4E25C00000002016F761C00C00000013000000F20800003C0000000600000002000000000000C081EF61C000000020704325C0000000C081EF61400000000016F761C0000000404A4E25C00000000016F761400C00000013000000FA0800003C000000060000000200000000000000B3
310
FE61C000000080EA5125C000000000B3FE614000000000B3FE61C000000080EA5125C000000020B3FE61C00C00000013000000020900003C00000006000000020000000000000016F761C0000000404A4E25C00000002016F761C000000000B3FE61C000000080EA5125C000000020B3FE61C00C000000130000000A090000
310
3C00000006000000020000000000000016F761C0000000404A4E25C00000000016F7614000000000B3FE61C000000080EA5125C000000000B3FE61400C00000013000000120900003C0000000600000002000000000000C0951962C0000000403B2425C0000000C095196240000000C0951962C0000000403B2425C0000000
310
C0951962C00C000000130000001A0900003C000000060000000200000000000000B3FE61C000000080EA5125C000000020B3FE61C0000000C0951962C0000000403B2425C0000000C0951962C00C00000013000000220900003C000000060000000200000000000000B3FE61C000000080EA5125C000000000B3FE61400000
310
00C0951962C0000000403B2425C0000000C0951962400C000000130000002A0900003C000000060000000200000000000000A33262C0000000C0C0A124C0000000C0A232624000000000A33262C0000000C0C0A124C0000000C0A23262C00C00000013000000320900003C0000000600000002000000000000C0951962C000
310
0000403B2425C0000000C0951962C000000000A33262C0000000C0C0A124C0000000C0A23262C00C000000130000003A0900003C0000000600000002000000000000C0951962C0000000403B2425C0000000C09519624000000000A33262C0000000C0C0A124C0000000C0A23262400C00000013000000420900003C000000
310
0600000002000000000000805A5A62C0000000A08BE722C0000000405A5A6240000000805A5A62C0000000A08BE722C0000000405A5A62C00C000000130000004A0900003C000000060000000200000000000000A33262C0000000C0C0A124C0000000C0A23262C0000000805A5A62C0000000A08BE722C0000000405A5A62
310
C00C00000013000000520900003C000000060000000200000000000000A33262C0000000C0C0A124C0000000C0A2326240000000805A5A62C0000000A08BE722C0000000405A5A62400C000000130000005A0900003C0000000600000002000000000000C0647262C0000000C01BBE20C0000000C0647262C0000000C06472
310
62C0000000C01BBE20C0000000C0647262400C00000013000000620900003C0000000600000002000000000000C0647262C0000000C01BBE20C0000000C0647262C0000000805A5A62C0000000A08BE722C0000000405A5A62C00C000000130000006A0900003C0000000600000002000000000000C0647262C0000000C01B
310
BE20C0000000C064726240000000805A5A62C0000000A08BE722C0000000405A5A62400C00000013000000720900003C000000060000000200000000000000467D62C000000000B8051DC0000000E0457D62C000000000467D62C000000000B8051DC000000000467D62400C000000130000007A0900003C00000006000000
310
0200000000000000467D62C000000000B8051DC0000000E0457D62C0000000C0647262C0000000C01BBE20C0000000C0647262C00C00000013000000820900003C000000060000000200000000000000467D62C000000000B8051DC000000000467D6240000000C0647262C0000000C01BBE20C0000000C0647262400C0000
310
00130000008A0900003C000000060000000200000000000040BC8962C000000060FD241BC000000040BC8962C000000040BC8962C000000060FD241BC000000040BC8962400C00000013000000920900003C000000060000000200000000000040BC8962C000000060FD241BC000000040BC8962C000000000467D62C00000
310
0000B8051DC0000000E0457D62C00C000000130000009A0900003C000000060000000200000000000040BC8962C000000060FD241BC000000040BC89624000000000467D62C000000000B8051DC000000000467D62400C00000013000000A20900003C000000060000000200000000000080329362C0000000A06B2F19C000
310
000080329362C000000080329362C0000000A06B2F19C000000080329362400C00000013000000AA0900003C000000060000000200000000000080329362C0000000A06B2F19C000000080329362C000000040BC8962C000000060FD241BC000000040BC8962C00C00000013000000B20900003C0000000600000002000000
310
00000080329362C0000000A06B2F19C0000000803293624000000040BC8962C000000060FD241BC000000040BC8962400C00000013000000BA0900003C000000060000000200000000000000629E62C0000000408A3115C000000000629E62C000000000629E62C0000000408A3115C000000000629E62400C000000130000
310
00C20900003C000000060000000200000000000000629E62C0000000408A3115C000000000629E62C000000080329362C0000000A06B2F19C000000080329362C00C00000013000000CA0900003C000000060000000200000000000000629E62C0000000408A3115C000000000629E624000000080329362C0000000A06B2F
310
19C000000080329362400C00000013000000D20900003C00000006000000020000000000004025A362C000000000CDC513C00000004025A362C00000004025A362C000000000CDC513C00000004025A362400C00000013000000DA0900003C00000006000000020000000000004025A362C000000000CDC513C00000004025
310
A362C000000000629E62C0000000408A3115C000000000629E62C00C00000013000000E20900003C00000006000000020000000000004025A362C000000000CDC513C00000004025A3624000000000629E62C0000000408A3115C000000000629E62400C00000013000000EA0900003C000000060000000200000000000040
310
C5AD62C0000000A0578812C000000080C5AD62C000000040C5AD62C0000000A0578812C000000080C5AD62400C00000013000000F20900003C000000060000000200000000000040C5AD62C0000000A0578812C000000080C5AD62C00000004025A362C000000000CDC513C00000004025A362C00C00000013000000FA0900
310
003C000000060000000200000000000040C5AD62C0000000A0578812C000000080C5AD62400000004025A362C000000000CDC513C00000004025A362400C00000013000000020A00003C0000000600000002000000000000C0B9BD62C0000000E0FDFF11C0000000C0B9BD62C0000000C0B9BD62C0000000E0FDFF11C00000
310
00C0B9BD62400C000000130000000A0A00003C0000000600000002000000000000C0B9BD62C0000000E0FDFF11C0000000C0B9BD62C000000040C5AD62C0000000A0578812C000000080C5AD62C00C00000013000000120A00003C0000000600000002000000000000C0B9BD62C0000000E0FDFF11C0000000C0B9BD624000
310
000040C5AD62C0000000A0578812C000000080C5AD62400C000000130000001A0A00003C00000006000000020000000000000000F065C000000080FDFF11C00000000000F065C00000000000F065C000000080FDFF11C00000000000F065400C00000013000000220A00003C0000000600000002000000000000C0B9BD62C0
310
000000E0FDFF11C0000000C0B9BD62C00000000000F065C000000080FDFF11C00000000000F065C00C000000130000002A0A00003C0000000600000002000000000000C0B9BD62C0000000E0FDFF11C0000000C0B9BD62400000000000F065C000000080FDFF11C00000000000F065400C00000013000000320A00003C0000
310
00060000000200000000000000730366C0000000808AC91FC0000000E0720366C000000000730366C0000000808AC91FC000000000730366400C000000130000003A0A00003C000000060000000200000000000000730366C0000000808AC91FC0000000E0720366C00000000000F065C000000080FDFF11C00000000000F0
310
65C00C00000013000000420A00003C000000060000000200000000000000730366C0000000808AC91FC000000000730366400000000000F065C000000080FDFF11C00000000000F065400C000000130000004A0A00003C0000000600000002000000000000000F0866C000000000B9C920C0000000A0100866C0000000000F
310
0866C000000000B9C920C000000080100866400C00000013000000520A00003C0000000600000002000000000000000F0866C000000000B9C920C0000000A0100866C000000000730366C0000000808AC91FC0000000E0720366C00C000000130000005A0A00003C0000000600000002000000000000000F0866C000000000
310
B9C920C0000000801008664000000000730366C0000000808AC91FC000000000730366400C00000013000000620A00003C000000060000000200000000000080A71D66C000000080C82A22C000000040A71D66C000000080A71D66C000000080C82A22C000000000A71D66400C000000130000006A0A00003C000000060000
310
000200000000000080A71D66C000000080C82A22C000000040A71D66C0000000000F0866C000000000B9C920C0000000A0100866C00C00000013000000720A00003C000000060000000200000000000080A71D66C000000080C82A22C000000000A71D6640000000000F0866C000000000B9C920C000000080100866400C00
310
0000130000007A0A00003C000000060000000200000000000000E44366C0000000E046F222C000000080E44366C000000000E44366C0000000E046F222C000000080E44366400C00000013000000820A00003C000000060000000200000000000000E44366C0000000E046F222C000000080E44366C000000080A71D66C000
310
000080C82A22C000000040A71D66C00C000000130000008A0A00003C000000060000000200000000000000E44366C0000000E046F222C000000080E443664000000080A71D66C000000080C82A22C000000000A71D66400C00000013000000920A00003C0000000600000002000000000000C0BF5766C0000000E05EAD24C0
310
00000040BF5766C0000000C0BF5766C0000000E05EAD24C000000000BF5766400C000000130000009A0A00003C0000000600000002000000000000C0BF5766C0000000E05EAD24C000000040BF5766C000000000E44366C0000000E046F222C000000080E44366C00C00000013000000A20A00003C00000006000000020000
310
00000000C0BF5766C0000000E05EAD24C000000000BF57664000000000E44366C0000000E046F222C000000080E44366400C00000013000000AA0A00003C0000000600000002000000000000806D6466C000000080881227C0000000606D6466C0000000806D6466C000000080881227C0000000806D6466400C0000001300
310
0000B20A00003C0000000600000002000000000000806D6466C000000080881227C0000000606D6466C0000000C0BF5766C0000000E05EAD24C000000040BF5766C00C00000013000000BA0A00003C0000000600000002000000000000806D6466C000000080881227C0000000806D646640000000C0BF5766C0000000E05E
310
AD24C000000000BF5766400C00000013000000C20A00003C000000060000000200000000000080717A66C000000020F25B29C000000080717A66C000000080717A66C000000020F25B29C000000080717A66400C00000013000000CA0A00003C000000060000000200000000000080717A66C000000020F25B29C000000080
310
717A66C0000000806D6466C000000080881227C0000000606D6466C00C00000013000000D20A00003C000000060000000200000000000080717A66C000000020F25B29C000000080717A6640000000806D6466C000000080881227C0000000806D6466400C00000013000000DA0A00003C0000000600000002000000000000
310
00029B66C000000040B0D72AC000000000029B66C000000000029B66C000000040B0D72AC000000000029B66400C00000013000000E20A00003C000000060000000200000000000000029B66C000000040B0D72AC000000000029B66C000000080717A66C000000020F25B29C000000080717A66C00C00000013000000EA0A
310
00003C000000060000000200000000000000029B66C000000040B0D72AC000000000029B664000000080717A66C000000020F25B29C000000080717A66400C00000013000000F20A00003C0000000600000002000000000000C0D8C666C0000000A09C4F2BC0000000C0D8C666C0000000C0D8C666C0000000A09C4F2BC000
310
000000D9C666400C00000013000000FA0A00003C0000000600000002000000000000C0D8C666C0000000A09C4F2BC0000000C0D8C666C000000000029B66C000000040B0D72AC000000000029B66C00C00000013000000020B00003C0000000600000002000000000000C0D8C666C0000000A09C4F2BC000000000D9C66640
310
00000000029B66C000000040B0D72AC000000000029B66400C000000130000000A0B00003C000000060000000200000000000000E4F466C00000000058B62AC000000000E4F466C000000000E4F466C00000000058B62AC000000000E4F466400C00000013000000120B00003C000000060000000200000000000000E4F466
310
C00000000058B62AC000000000E4F466C0000000C0D8C666C0000000A09C4F2BC0000000C0D8C666C00C000000130000001A0B00003C000000060000000200000000000000E4F466C00000000058B62AC000000000E4F46640000000C0D8C666C0000000A09C4F2BC000000000D9C666400C00000013000000220B00003C00
310
00000600000002000000000000409E1B67C000000000E63329C0000000409E1B67C0000000409E1B67C000000000E63329C0000000009E1B67400C000000130000002A0B00003C0000000600000002000000000000409E1B67C000000000E63329C0000000409E1B67C000000000E4F466C00000000058B62AC000000000E4
310
F466C00C00000013000000320B00003C0000000600000002000000000000409E1B67C000000000E63329C0000000009E1B674000000000E4F466C00000000058B62AC000000000E4F466400C000000130000003A0B00003C0000000600000002000000000000006D3667C0000000A0F48627C0000000C06D3667C000000000
310
6D3667C0000000A0F48627C0000000C06D3667400C00000013000000420B00003C0000000600000002000000000000006D3667C0000000A0F48627C0000000C06D3667C0000000409E1B67C000000000E63329C0000000409E1B67C00C000000130000004A0B00003C0000000600000002000000000000006D3667C0000000
310
A0F48627C0000000C06D366740000000409E1B67C000000000E63329C0000000009E1B67400C00000013000000520B00003C000000060000000200000000000000BA4767C0000000C0B43726C000000020B94767C000000000BA4767C0000000C0B43726C000000000B94767400C000000130000005A0B00003C0000000600
310
00000200000000000000BA4767C0000000C0B43726C000000020B94767C0000000006D3667C0000000A0F48627C0000000C06D3667C00C00000013000000620B00003C000000060000000200000000000000BA4767C0000000C0B43726C000000000B9476740000000006D3667C0000000A0F48627C0000000C06D3667400C
310
000000130000006A0B00003C000000060000000200000000000000445667C0000000C0AF7626C0000000C0415667C000000000445667C0000000C0AF7626C0000000C0415667400C00000013000000720B00003C000000060000000200000000000000445667C0000000C0AF7626C0000000C0415667C000000000BA4767C0
310
000000C0B43726C000000020B94767C00C000000130000007A0B00003C000000060000000200000000000000445667C0000000C0AF7626C0000000C04156674000000000BA4767C0000000C0B43726C000000000B94767400C00000013000000820B00003C000000060000000200000000000080096267C000000060D7BF27
310
C0000000A0096267C000000080096267C000000060D7BF27C000000080096267400C000000130000008A0B00003C000000060000000200000000000080096267C000000060D7BF27C0000000A0096267C000000000445667C0000000C0AF7626C0000000C0415667C00C00000013000000920B00003C000000060000000200
310
000000000080096267C000000060D7BF27C0000000800962674000000000445667C0000000C0AF7626C0000000C0415667400C000000130000009A0B00003C000000060000000200000000000080357767C000000040564129C000000060357767C000000080357767C000000040564129C000000080357767400C00000013
310
000000A20B00003C000000060000000200000000000080357767C000000040564129C000000060357767C000000080096267C000000060D7BF27C0000000A0096267C00C00000013000000AA0B00003C000000060000000200000000000080357767C000000040564129C0000000803577674000000080096267C000000060
310
D7BF27C000000080096267400C00000013000000B20B00003C000000060000000200000000000080818F67C0000000C0849229C000000080818F67C000000080818F67C0000000C0849229C000000080818F67400C00000013000000BA0B00003C000000060000000200000000000080818F67C0000000C0849229C0000000
310
80818F67C000000080357767C000000040564129C000000060357767C00C00000013000000C20B00003C000000060000000200000000000080818F67C0000000C0849229C000000080818F674000000080357767C000000040564129C000000080357767400C00000013000000CA0B00003C00000006000000020000000000
310
0000DEA667C0000000C02FB428C000000060DEA667C000000000DEA667C0000000C02FB428C000000040DEA667400C00000013000000D20B00003C000000060000000200000000000000DEA667C0000000C02FB428C000000060DEA667C000000080818F67C0000000C0849229C000000080818F67C00C00000013000000DA
310
0B00003C000000060000000200000000000000DEA667C0000000C02FB428C000000040DEA6674000000080818F67C0000000C0849229C000000080818F67400C00000013000000E20B00003C0000000600000002000000000000401BC067C000000060602527C0000000801BC067C0000000401BC067C000000060602527C0
310
000000801BC067400C00000013000000EA0B00003C0000000600000002000000000000401BC067C000000060602527C0000000801BC067C000000000DEA667C0000000C02FB428C000000060DEA667C00C00000013000000F20B00003C0000000600000002000000000000401BC067C000000060602527C0000000801BC067
310
4000000000DEA667C0000000C02FB428C000000040DEA667400C00000013000000FA0B00003C00000006000000020000000000004076D367C00000008065C625C00000006076D367C00000004076D367C00000008065C625C00000008076D367400C00000013000000020C00003C00000006000000020000000000004076D3
310
67C00000008065C625C00000006076D367C0000000401BC067C000000060602527C0000000801BC067C00C000000130000000A0C00003C00000006000000020000000000004076D367C00000008065C625C00000008076D36740000000401BC067C000000060602527C0000000801BC067400C00000013000000120C00003C
310
00000006000000020000000000008087EF67C00000006014DD23C00000004087EF67C00000008087EF67C00000006014DD23C00000004087EF67400C000000130000001A0C00003C00000006000000020000000000008087EF67C00000006014DD23C00000004087EF67C00000004076D367C00000008065C625C000000060
310
76D367C00C00000013000000220C00003C00000006000000020000000000008087EF67C00000006014DD23C00000004087EF67400000004076D367C00000008065C625C00000008076D367400C000000130000002A0C00003C000000060000000200000000000000790B68C000000000B04222C000000020790B68C0000000
310
00790B68C000000000B04222C000000000790B68400C00000013000000320C00003C000000060000000200000000000000790B68C000000000B04222C000000020790B68C00000008087EF67C00000006014DD23C00000004087EF67C00C000000130000003A0C00003C000000060000000200000000000000790B68C00000
310
0000B04222C000000000790B68400000008087EF67C00000006014DD23C00000004087EF67400C00000013000000420C00003C000000060000000200000000000080232168C000000060EA5E21C0000000C0232168C000000080232168C000000060EA5E21C0000000C0232168400C000000130000004A0C00003C00000006
310
0000000200000000000080232168C000000060EA5E21C0000000C0232168C000000000790B68C000000000B04222C000000020790B68C00C00000013000000520C00003C000000060000000200000000000080232168C000000060EA5E21C0000000C02321684000000000790B68C000000000B04222C000000000790B6840
310
0C000000130000005A0C00003C0000000600000002000000000000805D3D68C0000000E0B3A020C0000000805D3D68C0000000805D3D68C0000000E0B3A020C0000000805D3D68400C00000013000000620C00003C0000000600000002000000000000805D3D68C0000000E0B3A020C0000000805D3D68C000000080232168
310
C000000060EA5E21C0000000C0232168C00C000000130000006A0C00003C0000000600000002000000000000805D3D68C0000000E0B3A020C0000000805D3D684000000080232168C000000060EA5E21C0000000C0232168400C00000013000000720C00003C000000060000000200000000000080777068C0000000A07088
310
20C000000040777068C000000080777068C0000000A0708820C000000040777068400C000000130000007A0C00003C000000060000000200000000000080777068C0000000A0708820C000000040777068C0000000805D3D68C0000000E0B3A020C0000000805D3D68C00C00000013000000820C00003C0000000600000002
310
00000000000080777068C0000000A0708820C00000004077706840000000805D3D68C0000000E0B3A020C0000000805D3D68400C000000130000008A0C00003C000000060000000200000000000000579E68C0000000E0A8C422C0000000805A9E68C000000000579E68C0000000E0A8C422C0000000805A9E68400C000000
310
13000000920C00003C000000060000000200000000000000579E68C0000000E0A8C422C0000000805A9E68C000000080777068C0000000A0708820C000000040777068C00C000000130000009A0C00003C000000060000000200000000000000579E68C0000000E0A8C422C0000000805A9E684000000080777068C0000000
310
A0708820C000000040777068400C00000013000000A20C00003C00000006000000020000000000000083B868C00000008091E325C00000000080B868C00000000083B868C00000008091E325C0000000C07FB868400C00000013000000AA0C00003C00000006000000020000000000000083B868C00000008091E325C00000
310
000080B868C000000000579E68C0000000E0A8C422C0000000805A9E68C00C00000013000000B20C00003C00000006000000020000000000000083B868C00000008091E325C0000000C07FB8684000000000579E68C0000000E0A8C422C0000000805A9E68400C00000013000000BA0C00003C000000060000000200000000
310
0000003FC868C0000000E07FA928C0000000003DC868C0000000003FC868C0000000E07FA928C0000000003DC868400C00000013000000C20C00003C0000000600000002000000000000003FC868C0000000E07FA928C0000000003DC868C00000000083B868C00000008091E325C00000000080B868C00C00000013000000
310
CA0C00003C0000000600000002000000000000003FC868C0000000E07FA928C0000000003DC868400000000083B868C00000008091E325C0000000C07FB868400C00000013000000D20C00003C0000000600000002000000000000C053DC68C000000000077B2BC00000008054DC68C0000000C053DC68C000000000077B2B
310
C00000008054DC68400C00000013000000DA0C00003C0000000600000002000000000000C053DC68C000000000077B2BC00000008054DC68C0000000003FC868C0000000E07FA928C0000000003DC868C00C00000013000000E20C00003C0000000600000002000000000000C053DC68C000000000077B2BC00000008054DC
310
6840000000003FC868C0000000E07FA928C0000000003DC868400C00000013000000EA0C00003C000000060000000200000000000080720469C000000040F0C42EC000000040720469C000000080720469C000000040F0C42EC000000040720469400C00000013000000F20C00003C00000006000000020000000000008072
310
0469C000000040F0C42EC000000040720469C0000000C053DC68C000000000077B2BC00000008054DC68C00C00000013000000FA0C00003C000000060000000200000000000080720469C000000040F0C42EC00000004072046940000000C053DC68C000000000077B2BC00000008054DC68400C00000013000000020D0000
310
3C000000060000000200000000000080DC3A69C000000040497030C0000000C0DC3A69C000000080DC3A69C000000040497030C000000080DC3A69400C000000130000000A0D00003C000000060000000200000000000080DC3A69C000000040497030C0000000C0DC3A69C000000080720469C000000040F0C42EC0000000
310
40720469C00C00000013000000120D00003C000000060000000200000000000080DC3A69C000000040497030C000000080DC3A694000000080720469C000000040F0C42EC000000040720469400C000000130000001A0D00003C0000000600000002000000000000C0967969C000000020A5B630C0000000E0967969C00000
310
00C0967969C000000020A5B630C000000000977969400C00000013000000220D00003C0000000600000002000000000000C0967969C000000020A5B630C0000000E0967969C000000080DC3A69C000000040497030C0000000C0DC3A69C00C000000130000002A0D00003C0000000600000002000000000000C0967969C000
310
000020A5B630C0000000009779694000000080DC3A69C000000040497030C000000080DC3A69400C00000013000000320D00003C0000000600000002000000000000C077B569C0000000C0CA1630C0000000C077B569C0000000C077B569C0000000C0CA1630C00000000078B569400C000000130000003A0D00003C000000
310
0600000002000000000000C077B569C0000000C0CA1630C0000000C077B569C0000000C0967969C000000020A5B630C0000000E0967969C00C00000013000000420D00003C0000000600000002000000000000C077B569C0000000C0CA1630C00000000078B56940000000C0967969C000000020A5B630C000000000977969
310
400C000000130000004A0D00003C00000006000000020000000000000040E769C000000060BC892DC00000002040E769C00000000040E769C000000060BC892DC00000004040E769400C00000013000000520D00003C00000006000000020000000000000040E769C000000060BC892DC00000002040E769C0000000C077B5
310
69C0000000C0CA1630C0000000C077B569C00C000000130000005A0D00003C00000006000000020000000000000040E769C000000060BC892DC00000004040E76940000000C077B569C0000000C0CA1630C00000000078B569400C00000013000000620D00003C0000000600000002000000000000408F086AC000000060E3
310
AF2AC0000000A08F086AC0000000408F086AC000000060E3AF2AC0000000C08F086A400C000000130000006A0D00003C0000000600000002000000000000408F086AC000000060E3AF2AC0000000A08F086AC00000000040E769C000000060BC892DC00000002040E769C00C00000013000000720D00003C00000006000000
310
02000000000000408F086AC000000060E3AF2AC0000000C08F086A400000000040E769C000000060BC892DC00000004040E769400C000000130000007A0D00003C0000000600000002000000000000805B1C6AC000000020E03C28C0000000405B1C6AC0000000805B1C6AC000000020E03C28C0000000405B1C6A400C0000
310
0013000000820D00003C0000000600000002000000000000805B1C6AC000000020E03C28C0000000405B1C6AC0000000408F086AC000000060E3AF2AC0000000A08F086AC00C000000130000008A0D00003C0000000600000002000000000000805B1C6AC000000020E03C28C0000000405B1C6A40000000408F086AC00000
310
0060E3AF2AC0000000C08F086A400C00000013000000920D00003C0000000600000002000000000000002F296AC000000040E7F526C0000000E02E296AC0000000002F296AC000000040E7F526C0000000002F296A400C000000130000009A0D00003C0000000600000002000000000000002F296AC000000040E7F526C000
310
0000E02E296AC0000000805B1C6AC000000020E03C28C0000000405B1C6AC00C00000013000000A20D00003C0000000600000002000000000000002F296AC000000040E7F526C0000000002F296A40000000805B1C6AC000000020E03C28C0000000405B1C6A400C00000013000000AA0D00003C0000000600000002000000
310
00000000BF3B6AC0000000C0A65726C000000000BF3B6AC000000000BF3B6AC0000000C0A65726C000000000BF3B6A400C00000013000000B20D00003C000000060000000200000000000000BF3B6AC0000000C0A65726C000000000BF3B6AC0000000002F296AC000000040E7F526C0000000E02E296AC00C000000130000
310
00BA0D00003C000000060000000200000000000000BF3B6AC0000000C0A65726C000000000BF3B6A40000000002F296AC000000040E7F526C0000000002F296A400C00000013000000C20D00003C000000060000000200000000000080824D6AC000000040A41F25C000000080824D6AC000000080824D6AC000000040A41F
310
25C000000080824D6A400C00000013000000CA0D00003C000000060000000200000000000080824D6AC000000040A41F25C000000080824D6AC000000000BF3B6AC0000000C0A65726C000000000BF3B6AC00C00000013000000D20D00003C000000060000000200000000000080824D6AC000000040A41F25C00000008082
310
4D6A4000000000BF3B6AC0000000C0A65726C000000000BF3B6A400C00000013000000DA0D00003C0000000600000002000000000000C0AE566AC000000080EA2623C000000000AE566AC0000000C0AE566AC000000080EA2623C000000000AE566A400C00000013000000E20D00003C0000000600000002000000000000C0
310
AE566AC000000080EA2623C000000000AE566AC000000080824D6AC000000040A41F25C000000080824D6AC00C00000013000000EA0D00003C0000000600000002000000000000C0AE566AC000000080EA2623C000000000AE566A4000000080824D6AC000000040A41F25C000000080824D6A400C00000013000000F20D00
310
003C000000060000000200000000000080EE676AC000000040086821C000000020EF676AC000000080EE676AC000000040086821C000000000EF676A400C00000013000000FA0D00003C000000060000000200000000000080EE676AC000000040086821C000000020EF676AC0000000C0AE566AC000000080EA2623C00000
310
0000AE566AC00C00000013000000020E00003C000000060000000200000000000080EE676AC000000040086821C000000000EF676A40000000C0AE566AC000000080EA2623C000000000AE566A400C000000130000000A0E00003C0000000600000002000000000000005C8D6AC000000060B2491FC0000000005C8D6AC000
310
0000005C8D6AC000000060B2491FC0000000005C8D6A400C00000013000000120E00003C0000000600000002000000000000005C8D6AC000000060B2491FC0000000005C8D6AC000000080EE676AC000000040086821C000000020EF676AC00C000000130000001A0E00003C0000000600000002000000000000005C8D6AC0
310
00000060B2491FC0000000005C8D6A4000000080EE676AC000000040086821C000000000EF676A400C00000013000000220E00003C000000060000000200000000000040E2B26AC00000008065601DC000000080E2B26AC000000040E2B26AC00000008065601DC000000080E2B26A400C000000130000002A0E00003C0000
310
00060000000200000000000040E2B26AC00000008065601DC000000080E2B26AC0000000005C8D6AC000000060B2491FC0000000005C8D6AC00C00000013000000320E00003C000000060000000200000000000040E2B26AC00000008065601DC000000080E2B26A40000000005C8D6AC000000060B2491FC0000000005C8D
310
6A400C000000130000003A0E00003C000000060000000200000000000080E1BB6AC000000020ABAB1BC0000000A0E1BB6AC000000080E1BB6AC000000020ABAB1BC000000080E1BB6A400C00000013000000420E00003C000000060000000200000000000080E1BB6AC000000020ABAB1BC0000000A0E1BB6AC000000040E2
310
B26AC00000008065601DC000000080E2B26AC00C000000130000004A0E00003C000000060000000200000000000080E1BB6AC000000020ABAB1BC000000080E1BB6A4000000040E2B26AC00000008065601DC000000080E2B26A400C00000013000000520E00003C00000006000000020000000000000000E06AC0000000A0
310
4C86E0BF0000000000E06AC00000000000E06AC0000000A04C86E0BF0000000000E06A400C000000130000005A0E00003C00000006000000020000000000000000E06AC0000000A04C86E0BF0000000000E06AC000000080E1BB6AC000000020ABAB1BC0000000A0E1BB6AC00C00000013000000620E00003C000000060000
310
00020000000000000000E06AC0000000A04C86E0BF0000000000E06A4000000080E1BB6AC000000020ABAB1BC000000080E1BB6A400C000000130000006A0E00003C0000000600000002000000000000806BDF6AC000000020DDC8D2BF0000002069DF6AC0000000806BDF6AC000000020DDC8D2BF0000000069DF6A400C00
310
000013000000720E00003C0000000600000002000000000000806BDF6AC000000020DDC8D2BF0000002069DF6AC00000000000E06AC0000000A04C86E0BF0000000000E06AC00C000000130000007A0E00003C0000000600000002000000000000806BDF6AC000000020DDC8D2BF0000000069DF6A400000000000E06AC000
310
0000A04C86E0BF0000000000E06A400C00000013000000820E00003C00000006000000020000000000008008D96AC0000000E00C30B0BF0000000008D96AC00000008008D96AC0000000E00C30B0BF0000000008D96A400C000000130000008A0E00003C00000006000000020000000000008008D96AC0000000E00C30B0BF
310
0000000008D96AC0000000806BDF6AC000000020DDC8D2BF0000002069DF6AC00C00000013000000920E00003C00000006000000020000000000008008D96AC0000000E00C30B0BF0000000008D96A40000000806BDF6AC000000020DDC8D2BF0000000069DF6A400C000000130000009A0E00003C00000006000000020000
310
000000004022D26AC000000040CD60E73E0000004022D26AC00000004022D26AC000000040CD60E73E0000004022D26A400C00000013000000A20E00003C00000006000000020000000000004022D26AC000000040CD60E73E0000004022D26AC00000008008D96AC0000000E00C30B0BF0000000008D96AC00C0000001300
310
0000AA0E00003C00000006000000020000000000004022D26AC000000040CD60E73E0000004022D26A400000008008D96AC0000000E00C30B0BF0000000008D96A400C00000013000000B20E00003C00000006000000020000000000000000806AC0000000809124E73E0000000000806AC00000000000806AC00000008091
310
24E73E0000000000806A400C00000013000000BA0E00003C00000006000000020000000000000000806AC0000000809124E73E0000000000806AC00000004022D26AC000000040CD60E73E0000004022D26AC00C00000013000000C20E00003C00000006000000020000000000000000806AC0000000809124E73E00000000
310
00806A400000004022D26AC000000040CD60E73E0000004022D26A400C00000013000000CA0E00003C00000006000000020000000000000000806AC0000000C0D1FFDFBF0000000000806AC00000000000806AC0000000C0D1FFDFBF0000000000806A400C00000013000000D20E00003C0000000600000002000000000000
310
0000806AC0000000C0D1FFDFBF0000000000806AC00000000000806AC0000000809124E73E0000000000806AC00C00000013000000DA0E00003C00000006000000020000000000000000806AC0000000C0D1FFDFBF0000000000806A400000000000806AC0000000809124E73E0000000000806A400C00000013000000E20E
310
00003C000000060000000200000000000000E82B69C0000000E03E08E6BF00000000E82B69C000000000E82B69C0000000E03E08E6BF00000000E82B69400C00000013000000EA0E00003C000000060000000200000000000000E82B69C0000000E03E08E6BF00000000E82B69C00000000000806AC0000000C0D1FFDFBF00
310
00000000806AC00C00000013000000F20E00003C00000006000000020000000000000000806AC0000000C0D1FFDFBF0000000000806A4000000000E82B69C0000000E03E08E6BF00000000E82B69400C00000013000000FA0E00003C000000060000000200000000000080662669C000000040F02806C000000060662669C0
310
00000080662669C000000040F02806C000000080662669400C00000013000000020F00003C000000060000000200000000000080662669C000000040F02806C000000060662669C000000000E82B69C0000000E03E08E6BF00000000E82B69C00C000000130000000A0F00003C000000060000000200000000000080662669
310
C000000040F02806C0000000806626694000000000E82B69C0000000E03E08E6BF00000000E82B69400C00000013000000120F00003C000000060000000200000000000080669666C0000000A0F02806C000000060669666C000000080669666C0000000A0F02806C000000080669666400C000000130000001A0F00003C00
310
0000060000000200000000000080669666C0000000A0F02806C000000060669666C000000080662669C000000040F02806C000000060662669C00C00000013000000220F00003C000000060000000200000000000080662669C000000040F02806C0000000806626694000000080669666C0000000A0F02806C00000008066
310
9666400C000000130000002A0F00003C0000000600000002000000000000C0AF8F66C000000080ECADF3BF00000080AF8F66C0000000C0AF8F66C000000080ECADF3BF000000C0AF8F66400C00000013000000320F00003C0000000600000002000000000000C0AF8F66C000000080ECADF3BF00000080AF8F66C000000080
310
669666C0000000A0F02806C000000060669666C00C000000130000003A0F00003C0000000600000002000000000000C0AF8F66C000000080ECADF3BF000000C0AF8F664000000080669666C0000000A0F02806C000000080669666400C00000013000000420F00003C0000000600000002000000000000006EAB62C0000000
310
80B64FF1BF000000006EAB62C0000000006EAB62C000000080B64FF1BF000000006EAB62400C000000130000004A0F00003C0000000600000002000000000000006EAB62C000000080B64FF1BF000000006EAB62C0000000C0AF8F66C000000080ECADF3BF00000080AF8F66C00C00000013000000520F00003C0000000600
310
000002000000000000006EAB62C000000080B64FF1BF000000006EAB6240000000C0AF8F66C000000080ECADF3BF000000C0AF8F66400C000000130000005A0F00003C0000000600000002000000000000C02AA561C0000000200EAC1BC0000000E02AA561C0000000C02AA561C0000000400EAC1BC0000000C02AA561400C
310
00000013000000620F00003C0000000600000002000000000000C02AA561C0000000200EAC1BC0000000E02AA561C0000000006EAB62C000000080B64FF1BF000000006EAB62C00C000000130000006A0F00003C0000000600000002000000000000006EAB62C000000080B64FF1BF000000006EAB6240000000C02AA561C0
310
000000400EAC1BC0000000C02AA561400C00000013000000720F00003C00000006000000020000000000004076D36740000000C067C625C00000008076D367400000004076D367C00000008065C625C00000008076D367400C000000130000007A0F00003C0000000600000002000000000000601BC06740000000A0622527
310
C0000000801BC06740000000401BC067C000000060602527C0000000801BC067400C00000013000000820F00003C00000006000000020000000000008087EF6740000000A016DD23C00000004087EF67400000008087EF67C00000006014DD23C00000004087EF67400C000000130000008A0F00003C000000060000000200
310
000000000020790B684000000040B24222C000000000790B684000000000790B68C000000000B04222C000000000790B68400C00000013000000920F00003C0000000600000002000000000000A023216840000000A0EC5E21C0000000C02321684000000080232168C000000060EA5E21C0000000C0232168400C00000013
310
0000009A0F00003C0000000600000002000000000000605D3D684000000020B6A020C0000000805D3D6840000000805D3D68C0000000E0B3A020C0000000805D3D68400C00000013000000A20F00003C00000006000000020000000000008077706840000000E0728820C0000000407770684000000080777068C0000000A0
310
708820C000000040777068400C00000013000000AA0F00003C000000060000000200000000000000579E684000000020ABC422C0000000805A9E684000000000579E68C0000000E0A8C422C0000000805A9E68400C00000013000000B20F00003C00000006000000020000000000004083B86840000000C093E325C0000000
310
C07FB868400000000083B868C00000008091E325C0000000C07FB868400C00000013000000BA0F00003C0000000600000002000000000000003FC868400000002082A928C0000000003DC86840000000003FC868C0000000E07FA928C0000000003DC868400C00000013000000C20F00003C00000006000000020000000000
310
00C053DC684000000040097B2BC00000008054DC6840000000C053DC68C000000000077B2BC00000008054DC68400C00000013000000CA0F00003C0000000600000002000000000000607204694000000080F2C42EC0000000407204694000000080720469C000000040F0C42EC000000040720469400C00000013000000D2
310
0F00003C000000060000000200000000000080DC3A6940000000804A7030C000000080DC3A694000000080DC3A69C000000040497030C000000080DC3A69400C00000013000000DA0F00003C0000000600000002000000000000E09679694000000060A6B630C00000000097796940000000C0967969C000000020A5B630C0
310
00000000977969400C00000013000000E20F00003C0000000600000002000000000000C077B5694000000000CC1630C00000000078B56940000000C077B569C0000000C0CA1630C00000000078B569400C00000013000000EA0F00003C00000006000000020000000000002040E76940000000C0BE892DC00000004040E769
310
400000000040E769C000000060BC892DC00000004040E769400C00000013000000F20F00003C0000000600000002000000000000408F086A40000000C0E5AF2AC0000000C08F086A40000000408F086AC000000060E3AF2AC0000000C08F086A400C00000013000000FA0F00003C0000000600000002000000000000605B1C
310
6A4000000080E23C28C0000000405B1C6A40000000805B1C6AC000000020E03C28C0000000405B1C6A400C00000013000000021000003C0000000600000002000000000000002F296A40000000A0E9F526C0000000002F296A40000000002F296AC000000040E7F526C0000000002F296A400C000000130000000A1000003C
310
000000060000000200000000000000BF3B6A4000000020A95726C000000000BF3B6A4000000000BF3B6AC0000000C0A65726C000000000BF3B6A400C00000013000000121000003C000000060000000200000000000060824D6A40000000A0A61F25C000000080824D6A4000000080824D6AC000000040A41F25C000000080
310
824D6A400C000000130000001A1000003C0000000600000002000000000000C0AE566A4000000000ED2623C000000000AE566A40000000C0AE566AC000000080EA2623C000000000AE566A400C00000013000000221000003C000000060000000200000000000080EE676A40000000C00A6821C000000000EF676A40000000
310
80EE676AC000000040086821C000000000EF676A400C000000130000002A1000003C0000000600000002000000000000005C8D6A4000000040B7491FC0000000005C8D6A40000000005C8D6AC000000060B2491FC0000000005C8D6A400C00000013000000321000003C000000060000000200000000000040E2B26A400000
310
00606A601DC000000080E2B26A4000000040E2B26AC00000008065601DC000000080E2B26A400C000000130000003A1000003C0000000600000002000000000000A0E1BB6A4000000000B0AB1BC000000080E1BB6A4000000080E1BB6AC000000020ABAB1BC000000080E1BB6A400C00000013000000421000003C00000006
310
000000020000000000000000E06A40000000007486E0BF0000000000E06A400000000000E06AC0000000A04C86E0BF0000000000E06A400C000000130000004A1000003C0000000600000002000000000000806BDF6A40000000002CC9D2BF0000000069DF6A40000000806BDF6AC000000020DDC8D2BF0000000069DF6A40
310
0C00000013000000521000003C00000006000000020000000000004008D96A40000000E04731B0BF0000000008D96A400000008008D96AC0000000E00C30B0BF0000000008D96A400C000000130000005A1000003C00000006000000020000000000004022D26A40000000A0A9EBDFBE0000004022D26A400000004022D26A
310
C000000040CD60E73E0000004022D26A400C00000013000000621000003C00000006000000020000000000000000806A40000000203273DFBE0000000000806A400000000000806AC0000000809124E73E0000000000806A400C000000130000006A1000003C00000006000000020000000000000000806A40000000C00F00
310
E0BF0000000000806A400000000000806AC0000000C0D1FFDFBF0000000000806A400C00000013000000721000003C000000060000000200000000000000E82B6940000000C06308E6BF00000000E82B694000000000E82B69C0000000E03E08E6BF00000000E82B69400C000000130000007A1000003C0000000600000002
310
000000000000606626694000000060F92806C0000000806626694000000080662669C000000040F02806C000000080662669400C00000013000000821000003C0000000600000002000000000000606696664000000000F92806C0000000806696664000000080669666C0000000A0F02806C000000080669666400C000000
310
130000008A1000003C000000060000000200000000000080AF8F664000000000FDADF3BF00000080AF8F6640000000C0AF8F66C000000080ECADF3BF000000C0AF8F66400C00000013000000921000003C0000000600000002000000000000006EAB624000000040C44FF1BF000000006EAB6240000000006EAB62C0000000
310
80B64FF1BF000000006EAB62400C000000130000009A1000003C0000000600000002000000000000C02AA561400000006011AC1BC0000000C02AA56140000000C02AA561C0000000400EAC1BC0000000C02AA561400C00000013000000A21000003C0000000600000002000000000000C02AA561400000008011AC1BC00000
310
00C02AA561C0000000C02AA561C0000000200EAC1BC0000000E02AA561C00C00000013000000AA1000003C0000000600000002000000000000006EAB624000000040C44FF1BF000000006EAB62C0000000006EAB62C000000080B64FF1BF000000006EAB62C00C00000013000000B21000003C000000060000000200000000
310
000080AF8F664000000000FDADF3BF00000080AF8F66C0000000C0AF8F66C000000080ECADF3BF00000080AF8F66C00C00000013000000BA1000003C0000000600000002000000000000606696664000000000F92806C000000060669666C000000080669666C0000000A0F02806C000000060669666C00C00000013000000
310
C21000003C0000000600000002000000000000606626694000000060F92806C000000060662669C000000080662669C000000040F02806C000000060662669C00C00000013000000CA1000003C000000060000000200000000000000E82B6940000000206408E6BF00000000E82B69C000000000E82B69C0000000E03E08E6
310
BF00000000E82B69C00C00000013000000D21000003C00000006000000020000000000000000806A40000000C00F00E0BF0000000000806AC00000000000806AC0000000C0D1FFDFBF0000000000806AC00C00000013000000DA1000003C00000006000000020000000000000000806A40000000203273DFBE000000000080
310
6AC00000000000806AC0000000809124E73E0000000000806AC00C00000013000000E21000003C00000006000000020000000000004022D26A40000000A0A9EBDFBE0000004022D26AC00000004022D26AC000000040CD60E73E0000004022D26AC00C00000013000000EA1000003C00000006000000020000000000004008
310
D96A40000000804A31B0BF0000000008D96AC00000008008D96AC0000000E00C30B0BF0000000008D96AC00C00000013000000F21000003C0000000600000002000000000000806BDF6A40000000402CC9D2BF0000002069DF6AC0000000806BDF6AC000000020DDC8D2BF0000002069DF6AC00C00000013000000FA100000
310
3C00000006000000020000000000000000E06A40000000C07386E0BF0000000000E06AC00000000000E06AC0000000A04C86E0BF0000000000E06AC00C00000013000000021100003C0000000600000002000000000000A0E1BB6A4000000000B0AB1BC0000000A0E1BB6AC000000080E1BB6AC000000020ABAB1BC0000000
310
A0E1BB6AC00C000000130000000A1100003C000000060000000200000000000040E2B26A40000000606A601DC000000060E2B26AC000000040E2B26AC00000008065601DC000000080E2B26AC00C00000013000000121100003C0000000600000002000000000000005C8D6A4000000040B7491FC0000000205C8D6AC00000
310
00005C8D6AC000000060B2491FC0000000005C8D6AC00C000000130000001A1100003C000000060000000200000000000080EE676A40000000C00A6821C000000020EF676AC000000080EE676AC000000040086821C000000020EF676AC00C00000013000000221100003C0000000600000002000000000000C0AE566A4000
310
000000ED2623C000000000AE566AC0000000C0AE566AC000000080EA2623C000000000AE566AC00C000000130000002A1100003C000000060000000200000000000060824D6A40000000A0A61F25C000000080824D6AC000000080824D6AC000000040A41F25C000000080824D6AC00C00000013000000321100003C000000
310
060000000200000000000000BF3B6A4000000020A95726C000000000BF3B6AC000000000BF3B6AC0000000C0A65726C000000000BF3B6AC00C000000130000003A1100003C0000000600000002000000000000002F296A40000000A0E9F526C0000000E02E296AC0000000002F296AC000000040E7F526C0000000E02E296A
310
C00C00000013000000421100003C0000000600000002000000000000605B1C6A4000000080E23C28C0000000405B1C6AC0000000805B1C6AC000000020E03C28C0000000405B1C6AC00C000000130000004A1100003C0000000600000002000000000000408F086A40000000C0E5AF2AC0000000A08F086AC0000000408F08
310
6AC000000060E3AF2AC0000000A08F086AC00C00000013000000521100003C00000006000000020000000000000040E76940000000C0BE892DC00000002040E769C00000000040E769C000000060BC892DC00000002040E769C00C000000130000005A1100003C0000000600000002000000000000C077B5694000000000CC
310
1630C0000000C077B569C0000000C077B569C0000000C0CA1630C0000000C077B569C00C00000013000000621100003C0000000600000002000000000000E09679694000000060A6B630C0000000E0967969C0000000C0967969C000000020A5B630C0000000E0967969C00C000000130000006A1100003C00000006000000
310
0200000000000080DC3A6940000000804A7030C0000000C0DC3A69C000000080DC3A69C000000040497030C0000000C0DC3A69C00C00000013000000721100003C0000000600000002000000000000607204694000000080F2C42EC000000040720469C000000080720469C000000040F0C42EC000000040720469C00C0000
310
00130000007A1100003C0000000600000002000000000000C053DC684000000040097B2BC00000008054DC68C0000000C053DC68C000000000077B2BC00000008054DC68C00C00000013000000821100003C0000000600000002000000000000003FC868400000002082A928C0000000003DC868C0000000003FC868C00000
310
00E07FA928C0000000003DC868C00C000000130000008A1100003C00000006000000020000000000004083B86840000000C093E325C00000000080B868C00000000083B868C00000008091E325C00000000080B868C00C00000013000000921100003C000000060000000200000000000000579E684000000020ABC422C000
310
0000805A9E68C000000000579E68C0000000E0A8C422C0000000805A9E68C00C000000130000009A1100003C00000006000000020000000000008077706840000000E0728820C000000040777068C000000080777068C0000000A0708820C000000040777068C00C00000013000000A21100003C0000000600000002000000
310
000000605D3D684000000020B6A020C0000000805D3D68C0000000805D3D68C0000000E0B3A020C0000000805D3D68C00C00000013000000AA1100003C0000000600000002000000000000A023216840000000A0EC5E21C0000000C0232168C000000080232168C000000060EA5E21C0000000C0232168C00C000000130000
310
00B21100003C000000060000000200000000000020790B684000000040B24222C000000020790B68C000000000790B68C000000000B04222C000000020790B68C00C00000013000000BA1100003C00000006000000020000000000008087EF6740000000A016DD23C00000004087EF67C00000008087EF67C00000006014DD
310
23C00000004087EF67C00C00000013000000C21100003C00000006000000020000000000004076D36740000000C067C625C00000006076D367C00000004076D367C00000008065C625C00000006076D367C00C00000013000000CA1100003C0000000600000002000000000000601BC06740000000A0622527C0000000801B
310
C067C0000000401BC067C000000060602527C0000000801BC067C00C00000013000000D21100003C000000060000000200000000000020DEA667400000000032B428C000000060DEA667C000000000DEA667C0000000C02FB428C000000060DEA667C00C00000013000000DA1100003C0000000600000002000000000000A0
310
818F6740000000E0869229C000000080818F67C000000080818F67C0000000C0849229C000000080818F67C00C00000013000000E21100003C0000000600000002000000000000603577674000000060584129C000000060357767C000000080357767C000000040564129C000000060357767C00C00000013000000EA1100
310
003C0000000600000002000000000000A00962674000000080D9BF27C0000000A0096267C000000080096267C000000060D7BF27C0000000A0096267C00C00000013000000F21100003C00000006000000020000000000002044566740000000E0B17626C0000000C0415667C000000000445667C0000000C0AF7626C00000
310
00C0415667C00C00000013000000FA1100003C000000060000000200000000000020BA476740000000E0B63726C000000020B94767C000000000BA4767C0000000C0B43726C000000020B94767C00C00000013000000021200003C0000000600000002000000000000006D366740000000C0F68627C0000000C06D3667C000
310
0000006D3667C0000000A0F48627C0000000C06D3667C00C000000130000000A1200003C0000000600000002000000000000209E1B674000000020E83329C0000000409E1B67C0000000409E1B67C000000000E63329C0000000409E1B67C00C00000013000000121200003C0000000600000002000000000000E0E3F46640
310
000000205AB62AC000000000E4F466C000000000E4F466C00000000058B62AC000000000E4F466C00C000000130000001A1200003C0000000600000002000000000000E0D8C66640000000A09E4F2BC0000000C0D8C666C0000000C0D8C666C0000000A09C4F2BC0000000C0D8C666C00C00000013000000221200003C0000
310
000600000002000000000000C0019B664000000040B2D72AC0000000E0019B66C000000000029B66C000000040B0D72AC000000000029B66C00C000000130000002A1200003C000000060000000200000000000080717A664000000020F45B29C000000080717A66C000000080717A66C000000020F25B29C000000080717A
310
66C00C00000013000000321200003C0000000600000002000000000000406D646640000000808A1227C0000000406D6466C0000000806D6466C000000080881227C0000000606D6466C00C000000130000003A1200003C0000000600000002000000000000C0BF576640000000E060AD24C000000040BF5766C0000000C0BF
310
5766C0000000E05EAD24C000000040BF5766C00C00000013000000421200003C000000060000000200000000000000E4436640000000E048F222C000000080E44366C000000000E44366C0000000E046F222C000000080E44366C00C000000130000004A1200003C000000060000000200000000000060A71D664000000080
310
CA2A22C000000020A71D66C000000080A71D66C000000080C82A22C000000040A71D66C00C00000013000000521200003C0000000600000002000000000000000F08664000000000BBC920C0000000A0100866C0000000000F0866C000000000B9C920C0000000A0100866C00C000000130000005A1200003C000000060000
310
0002000000000000E072036640000000808EC91FC0000000E0720366C000000000730366C0000000808AC91FC0000000E0720366C00C00000013000000621200003C00000006000000020000000000000000F0654000000080010012C00000000000F065C00000000000F065C000000080FDFF11C00000000000F065C00C00
310
0000130000006A1200003C0000000600000002000000000000C0B9BD624000000040010012C0000000C0B9BD62C0000000C0B9BD62C0000000E0FDFF11C0000000C0B9BD62C00C00000013000000721200003C000000060000000200000000000040C5AD6240000000005B8812C000000080C5AD62C000000040C5AD62C000
310
0000A0578812C000000080C5AD62C00C000000130000007A1200003C00000006000000020000000000004025A3624000000060D0C513C00000004025A362C00000004025A362C000000000CDC513C00000004025A362C00C00000013000000821200003C000000060000000200000000000000629E6240000000A08D3115C0
310
00000000629E62C000000000629E62C0000000408A3115C000000000629E62C00C000000130000008A1200003C00000006000000020000000000008032936240000000006F2F19C000000080329362C000000080329362C0000000A06B2F19C000000080329362C00C00000013000000921200003C00000006000000020000
310
0000000040BC896240000000C000251BC000000040BC8962C000000040BC8962C000000060FD241BC000000040BC8962C00C000000130000009A1200003C0000000600000002000000000000E0457D624000000060BB051DC0000000E0457D62C000000000467D62C000000000B8051DC0000000E0457D62C00C0000001300
310
0000A21200003C0000000600000002000000000000C064726240000000801DBE20C0000000C0647262C0000000C0647262C0000000C01BBE20C0000000C0647262C00C00000013000000AA1200003C0000000600000002000000000000605A5A6240000000608DE722C0000000405A5A62C0000000805A5A62C0000000A08B
310
E722C0000000405A5A62C00C00000013000000B21200003C0000000600000002000000000000E0A232624000000080C2A124C0000000C0A23262C000000000A33262C0000000C0C0A124C0000000C0A23262C00C00000013000000BA1200003C0000000600000002000000000000C095196240000000E03C2425C0000000C0
310
951962C0000000C0951962C0000000403B2425C0000000C0951962C00C00000013000000C21200003C000000060000000200000000000020B3FE614000000020EC5125C000000020B3FE61C000000000B3FE61C000000080EA5125C000000020B3FE61C00C00000013000000CA1200003C0000000600000002000000000000
310
2016F76140000000E04B4E25C00000002016F761C00000000016F761C0000000404A4E25C00000002016F761C00C00000013000000D21200003C0000000600000002000000000000C081EF6140000000C0714325C0000000C081EF61C0000000C081EF61C000000020704325C0000000C081EF61C00C00000013000000DA12
310
00003C00000006000000020000000000008018D2614000000080040326C00000008018D261C00000008018D261C0000000E0020326C00000008018D261C00C00000013000000E21200003C00000006000000020000000000008065B16140000000C0AE4726C00000008065B161C00000008065B161C000000020AD4726C000
310
00008065B161C00C00000013000000EA1200003C00000006000000020000000000002083A06140000000A09A3526C00000002083A061C00000000083A061C000000000993526C00000002083A061C00C00000013000000F21200003C00000006000000020000000000000000906140000000A0000026C000000000009061C0
310
00000000009061C000000000FFFF25C000000000009061C00C00000013000000FA1200003C00000006000000020000000000004020616140000000A0000026C000000040206161C000000040206161C000000000FFFF25C000000040206161C00C00000013000000021300003C0000000600000002000000000000C0B35861
310
4000000000101226C0000000A0B35861C0000000C0B35861C0000000600E1226C0000000A0B35861C00C000000130000000A1300003C0000000600000002000000000000E039516140000000C0A84326C0000000403A5161C0000000003A5161C000000040A74326C0000000403A5161C00C00000013000000121300003C00
310
000006000000020000000000000080466140000000E0FEE326C000000000804661C000000000804661C000000060FDE326C000000000804661C00C000000130000001A1300003C0000000600000002000000000000008039614000000020021C28C000000000803961C000000000803961C0000000A0001C28C00000000080
310
3961C00C00000013000000221300003C000000060000000200000000000020C62E61400000004058BC28C0000000C0C52E61C000000000C62E61C0000000C056BC28C0000000C0C52E61C00C000000130000002A1300003C0000000600000002000000000000404C27614000000020F1ED28C0000000604C2761C000000040
310
4C2761C0000000A0EFED28C0000000604C2761C00C00000013000000321300003C0000000600000002000000000000C0DF1E614000000080000029C0000000C0DF1E61C0000000C0DF1E61C000000000FFFF28C0000000C0DF1E61C00C000000130000003A1300003C0000000600000002000000000000C0DF1E6140000000
310
80000029C0000000C0DF1E6140000000C0DF1E61C000000000FFFF28C0000000C0DF1E61400C00000013000000421300003C0000000600000002000000000000404C27614000000020F1ED28C0000000804C276140000000404C2761C0000000A0EFED28C0000000804C2761400C000000130000004A1300003C0000000600
310
00000200000000000020C62E61400000004058BC28C0000000C0C52E614000000000C62E61C0000000C056BC28C0000000C0C52E61400C00000013000000521300003C0000000600000002000000000000008039614000000020021C28C0000000008039614000000000803961C0000000A0001C28C000000000803961400C
310
000000130000005A1300003C00000006000000020000000000000080466140000000E0FEE326C0000000008046614000000000804661C000000060FDE326C000000000804661400C00000013000000621300003C0000000600000002000000000000E039516140000000C0A84326C0000000403A516140000000003A5161C0
310
00000040A74326C0000000403A5161400C000000130000006A1300003C0000000600000002000000000000C0B358614000000000101226C000000080B3586140000000C0B35861C0000000600E1226C000000080B35861400C00000013000000721300003C00000006000000020000000000004020616140000000A0000026
310
C0000000402061614000000040206161C000000000FFFF25C000000040206161400C000000130000007A1300003C00000006000000020000000000000000906140000000A0000026C0000000000090614000000000009061C000000000FFFF25C000000000009061400C00000013000000821300003C000000060000000200
310
00000000002083A06140000000A09A3526C00000000083A061400000000083A061C000000000993526C00000000083A061400C000000130000008A1300003C00000006000000020000000000008065B16140000000C0AE4726C00000008065B161400000008065B161C000000020AD4726C00000008065B161400C00000013
310
000000921300003C00000006000000020000000000008018D2614000000080040326C00000008018D261400000008018D261C0000000E0020326C00000008018D261400C000000130000009A1300003C0000000600000002000000000000C081EF6140000000C0714325C0000000C081EF6140000000C081EF61C000000020
310
704325C0000000C081EF61400C00000013000000A21300003C00000006000000020000000000002016F76140000000E04B4E25C00000000016F761400000000016F761C0000000404A4E25C00000000016F761400C00000013000000AA1300003C000000060000000200000000000020B3FE614000000020EC5125C0000000
310
00B3FE614000000000B3FE61C000000080EA5125C000000000B3FE61400C00000013000000B21300003C0000000600000002000000000000C095196240000000E03C2425C0000000C095196240000000C0951962C0000000403B2425C0000000C0951962400C00000013000000BA1300003C00000006000000020000000000
310
00E0A232624000000080C2A124C0000000C0A232624000000000A33262C0000000C0C0A124C0000000C0A23262400C00000013000000C21300003C0000000600000002000000000000605A5A6240000000608DE722C0000000405A5A6240000000805A5A62C0000000A08BE722C0000000405A5A62400C00000013000000CA
310
1300003C0000000600000002000000000000C064726240000000801DBE20C0000000C064726240000000C0647262C0000000C01BBE20C0000000C0647262400C00000013000000D21300003C0000000600000002000000000000E0457D624000000060BB051DC000000000467D624000000000467D62C000000000B8051DC0
310
00000000467D62400C00000013000000DA1300003C000000060000000200000000000040BC896240000000C000251BC000000040BC89624000000040BC8962C000000060FD241BC000000040BC8962400C00000013000000E21300003C00000006000000020000000000008032936240000000006F2F19C000000080329362
310
4000000080329362C0000000A06B2F19C000000080329362400C00000013000000EA1300003C000000060000000200000000000000629E6240000000A08D3115C000000000629E624000000000629E62C0000000408A3115C000000000629E62400C00000013000000F21300003C00000006000000020000000000004025A3
310
624000000060D0C513C00000004025A362400000004025A362C000000000CDC513C00000004025A362400C00000013000000FA1300003C000000060000000200000000000040C5AD6240000000005B8812C000000080C5AD624000000040C5AD62C0000000A0578812C000000080C5AD62400C00000013000000021400003C
310
0000000600000002000000000000C0B9BD624000000040010012C0000000C0B9BD6240000000C0B9BD62C0000000E0FDFF11C0000000C0B9BD62400C000000130000000A1400003C00000006000000020000000000000000F0654000000080010012C00000000000F065400000000000F065C000000080FDFF11C000000000
310
00F065400C00000013000000121400003C0000000600000002000000000000E072036640000000808EC91FC0000000007303664000000000730366C0000000808AC91FC000000000730366400C000000130000001A1400003C0000000600000002000000000000000F08664000000000BBC920C00000008010086640000000
310
000F0866C000000000B9C920C000000080100866400C00000013000000221400003C000000060000000200000000000060A71D664000000080CA2A22C000000000A71D664000000080A71D66C000000080C82A22C000000000A71D66400C000000130000002A1400003C000000060000000200000000000000E44366400000
310
00E048F222C000000080E443664000000000E44366C0000000E046F222C000000080E44366400C00000013000000321400003C0000000600000002000000000000C0BF576640000000E060AD24C000000000BF576640000000C0BF5766C0000000E05EAD24C000000000BF5766400C000000130000003A1400003C00000006
310
00000002000000000000406D646640000000808A1227C0000000806D646640000000806D6466C000000080881227C0000000806D6466400C00000013000000421400003C000000060000000200000000000080717A664000000020F45B29C000000080717A664000000080717A66C000000020F25B29C000000080717A6640
310
0C000000130000004A1400003C0000000600000002000000000000C0019B664000000040B2D72AC000000000029B664000000000029B66C000000040B0D72AC000000000029B66400C00000013000000521400003C0000000600000002000000000000E0D8C66640000000A09E4F2BC000000000D9C66640000000C0D8C666
310
C0000000A09C4F2BC000000000D9C666400C000000130000005A1400003C0000000600000002000000000000E0E3F46640000000205AB62AC000000000E4F4664000000000E4F466C00000000058B62AC000000000E4F466400C00000013000000621400003C0000000600000002000000000000209E1B674000000020E833
310
29C0000000009E1B6740000000409E1B67C000000000E63329C0000000009E1B67400C000000130000006A1400003C0000000600000002000000000000006D366740000000C0F68627C0000000C06D366740000000006D3667C0000000A0F48627C0000000C06D3667400C00000013000000721400003C0000000600000002
310
00000000000020BA476740000000E0B63726C000000000B947674000000000BA4767C0000000C0B43726C000000000B94767400C000000130000007A1400003C00000006000000020000000000002044566740000000E0B17626C0000000C04156674000000000445667C0000000C0AF7626C0000000C0415667400C000000
310
13000000821400003C0000000600000002000000000000A00962674000000080D9BF27C0000000800962674000000080096267C000000060D7BF27C000000080096267400C000000130000008A1400003C0000000600000002000000000000603577674000000060584129C0000000803577674000000080357767C0000000
310
40564129C000000080357767400C00000013000000921400003C0000000600000002000000000000A0818F6740000000E0869229C000000080818F674000000080818F67C0000000C0849229C000000080818F67400C000000130000009A1400003C000000060000000200000000000020DEA667400000000032B428C00000
310
0040DEA6674000000000DEA667C0000000C02FB428C000000040DEA66740
100
AcDbSubDMesh
 71
     2
 72
     0
 91
        0
 92
      332
 10
136.9648132324218
 20
-12.50000381469726
 30
-136.9648132324218
 10
141.1614685058593
 20
-6.918035507202148
 30
-141.1614685058593
 10
149.357177734375
 20
-1.081974267959594
 30
-149.357177734375
 10
180.4901733398437
 20
-1.22997760772705
 30
-180.4901733398437
 10
180.6999969482422
 20
-2.77000617980957
 30
-180.6999969482422
 10
201.1999969482422
 20
-2.770006895065307
 30
-201.1999969482422
 10
201.3720703125
 20
-0.6885243058204651
 30
-201.3720703125
 10
212.0
 20
-0.5000075101852417
 30
-212.0
 10
212.0
 20
-0.0000074982604019
 30
-212.0
 10
214.5666809082031
 20
-0.0000076104538493
 30
-214.5666809082031
 10
215.0
 20
-0.5164126157760621
 30
-215.0
 10
214.9818725585937
 20
-0.2935286164283752
 30
-214.9815826416016
 10
214.7822570800781
 20
-0.0632521212100983
 30
-214.7822265625
 10
213.8712921142578
 20
-6.91766357421875
 30
-213.8712921142578
 10
195.5145874023437
 20
-8.266501426696777
 30
-195.5145568847656
 10
196.9481201171875
 20
-9.38411808013916
 30
-196.9485473632812
 10
197.7660217285156
 20
-10.94448661804199
 30
-197.765625
 10
198.2576904296875
 20
-12.33107089996338
 30
-198.2574462890625
 10
198.8852233886719
 20
-13.74030494689941
 30
-198.8853149414062
 10
200.1389617919922
 20
-15.38466262817383
 30
-200.1389465332031
 10
201.8394165039063
 20
-16.43863677978515
 30
-201.8394470214844
 10
203.7996673583984
 20
-16.71347618103027
 30
-203.7996673583984
 10
205.6708679199219
 20
-16.08905029296875
 30
-205.6708679199219
 10
207.2265625
 20
-14.76903343200683
 30
-207.2265777587891
 10
208.2674865722656
 20
-13.34354972839355
 30
-208.2675323486328
 10
208.8861541748047
 20
-12.11891555786133
 30
-208.8861389160156
 10
209.2869873046875
 20
-11.48029804229736
 30
-209.2869720458984
 10
209.8670654296875
 20
-11.17121219635009
 30
-209.8670654296875
 10
210.4221649169922
 20
-10.56181812286377
 30
-210.4221801757812
 10
210.7088317871094
 20
-9.576026916503906
 30
-210.708740234375
 10
211.2478637695312
 20
-8.70320701599121
 30
-211.2479400634766
 10
212.41748046875
 20
-7.821988105773925
 30
-212.417495727539
 10
213.5901184082031
 20
-7.34415578842163
 30
-213.5901336669922
 10
186.695816040039
 20
-11.23182582855224
 30
-186.6955261230468
 10
187.0636749267578
 20
-11.87470626831054
 30
-187.0636749267578
 10
187.7252655029297
 20
-12.6276273727417
 30
-187.7252655029297
 10
188.4845733642578
 20
-12.7861852645874
 30
-188.4845581054687
 10
189.214614868164
 20
-12.35194396972656
 30
-189.2146453857422
 10
190.0033416748047
 20
-11.57301807403564
 30
-190.0033569335937
 10
190.6081848144531
 20
-10.88751029968261
 30
-190.6082000732422
 10
191.4852905273437
 20
-9.931813240051269
 30
-191.4852600097656
 10
192.3585357666015
 20
-9.130266189575195
 30
-192.3585357666015
 10
193.0355987548828
 20
-8.685399055480957
 30
-193.0356140136719
 10
193.9176483154297
 20
-8.313889503479003
 30
-193.9176635742187
 10
176.1077728271484
 20
-7.946832656860351
 30
-176.1077728271484
 10
176.2518310546875
 20
-8.394004821777343
 30
-176.2520294189453
 10
176.9266815185547
 20
-9.083576202392578
 30
-176.9266510009765
 10
178.12158203125
 20
-9.473212242126464
 30
-178.1216430664062
 10
178.7421569824219
 20
-10.33862972259521
 30
-178.7420959472656
 10
179.1383361816406
 20
-11.53621292114258
 30
-179.1383361816406
 10
179.8263549804687
 20
-12.67959690093994
 30
-179.8263549804687
 10
180.8439636230469
 20
-13.42128181457519
 30
-180.8439788818359
 10
182.2139739990234
 20
-13.65550708770752
 30
-182.2139587402343
 10
183.6528167724609
 20
-13.35615634918213
 30
-183.65283203125
 10
184.863052368164
 20
-12.60138034820556
 30
-184.8630676269531
 10
185.7008056640625
 20
-11.76360130310058
 30
-185.7008972167968
 10
186.241470336914
 20
-11.1088171005249
 30
-186.2413482666015
 10
175.5
 20
-4.500005722045898
 30
-175.5
 10
149.9289245605468
 20
-4.500004768371582
 30
-149.9289245605468
 10
148.949462890625
 20
-5.298391819000244
 30
-148.949462890625
 10
149.0982971191406
 20
-4.943177700042724
 30
-149.0982971191406
 10
149.4303283691406
 20
-4.633159637451171
 30
-149.4303588867187
 10
147.9147796630859
 20
-7.255597591400146
 30
-147.9147796630859
 10
148.3042297363281
 20
-6.786135673522949
 30
-148.3042297363281
 10
148.5999145507812
 20
-6.296321868896484
 30
-148.5999145507812
 10
143.4845886230468
 20
-10.63172721862793
 30
-143.4845886230468
 10
143.7214508056641
 20
-10.65292263031006
 30
-143.7214508056641
 10
143.9593658447265
 20
-10.66000461578369
 30
-143.9593658447265
 10
144.7995300292969
 20
-10.57077693939209
 30
-144.7995300292969
 10
145.5823822021484
 20
-10.31593704223633
 30
-145.5823669433593
 10
146.8235321044922
 20
-9.452250480651855
 30
-146.8235168457031
 10
147.5747985839843
 20
-8.371318817138671
 30
-147.5747985839843
 10
140.5
 20
-11.00000476837158
 30
-140.5
 10
141.0160064697265
 20
-11.10469532012939
 30
-141.0160064697265
 10
141.5436401367187
 20
-11.14000511169433
 30
-141.5436401367187
 10
142.5654907226562
 20
-11.00589370727539
 30
-142.5654907226562
 10
139.0351867675781
 20
-11.00000476837158
 30
-139.0351867675781
 10
138.203125
 20
-11.44530391693115
 30
-138.203125
 10
138.5383148193359
 20
-11.13214683532715
 30
-138.5383605957031
 10
138.7719421386718
 20
-11.0352783203125
 30
-138.7719268798828
 10
137.796875
 20
-12.05470371246338
 30
-137.796875
 10
137.2280578613281
 20
-12.46473026275635
 30
-137.2280731201172
 10
137.461685180664
 20
-12.36786079406738
 30
-137.4616394042968
 10
136.9648132324218
 20
-12.50000381469726
 30
136.9648132324218
 10
137.2280578613281
 20
-12.46473026275635
 30
137.2280883789062
 10
141.1614685058593
 20
-6.91803503036499
 30
141.1614685058593
 10
149.357177734375
 20
-1.081974267959594
 30
149.357177734375
 10
180.4901733398437
 20
-1.22997760772705
 30
180.4901733398437
 10
180.6999969482422
 20
-2.77000617980957
 30
180.7000122070312
 10
201.1999969482422
 20
-2.770006895065307
 30
201.2000122070312
 10
201.3720703125
 20
-0.6885241270065308
 30
201.3720703125
 10
212.0
 20
-0.5000075101852417
 30
212.0
 10
212.0
 20
-0.0000074982604019
 30
212.0
 10
214.5666809082031
 20
-0.0000076104538493
 30
214.5666809082031
 10
214.7822570800781
 20
-0.0632519647479057
 30
214.7822265625
 10
214.9818725585937
 20
-0.2935285568237305
 30
214.9815673828125
 10
215.0
 20
-0.5164127349853516
 30
215.0
 10
213.8712921142578
 20
-6.91766357421875
 30
213.8712768554687
 10
213.5901184082031
 20
-7.34415578842163
 30
213.5901489257812
 10
212.41748046875
 20
-7.821988105773925
 30
212.41748046875
 10
211.2478637695312
 20
-8.70320701599121
 30
211.2479248046875
 10
210.7088317871094
 20
-9.576026916503906
 30
210.708740234375
 10
210.4221649169922
 20
-10.56181812286377
 30
210.4221801757812
 10
209.8670654296875
 20
-11.17121219635009
 30
209.8670654296875
 10
209.2869873046875
 20
-11.48029804229736
 30
209.2869873046875
 10
208.8861541748047
 20
-12.11891555786133
 30
208.8861389160156
 10
208.2674865722656
 20
-13.34354972839355
 30
208.2675476074219
 10
207.2265777587891
 20
-14.76903343200683
 30
207.2265930175781
 10
205.6708679199219
 20
-16.08905029296875
 30
205.6708984375
 10
203.7996673583984
 20
-16.71347618103027
 30
203.7996826171875
 10
201.8394165039063
 20
-16.43863677978515
 30
201.8394165039063
 10
200.1389617919922
 20
-15.38466262817383
 30
200.1389465332031
 10
198.8852233886719
 20
-13.74030494689941
 30
198.8853149414062
 10
198.2576904296875
 20
-12.33107089996338
 30
198.2574462890625
 10
197.7660217285156
 20
-10.94448661804199
 30
197.7655944824219
 10
196.9481201171875
 20
-9.38411808013916
 30
196.9485473632812
 10
195.5145874023437
 20
-8.266501426696777
 30
195.5145568847656
 10
193.9176483154297
 20
-8.313889503479003
 30
193.9176635742187
 10
193.0355987548828
 20
-8.685399055480957
 30
193.0356140136719
 10
192.3585357666015
 20
-9.130266189575195
 30
192.3585205078125
 10
191.4852905273437
 20
-9.931813240051269
 30
191.4852600097656
 10
190.6081848144531
 20
-10.88751029968261
 30
190.6082153320312
 10
190.0033416748047
 20
-11.57301807403564
 30
190.0033569335937
 10
189.214614868164
 20
-12.35194396972656
 30
189.2146301269531
 10
188.4845733642578
 20
-12.7861852645874
 30
188.4845581054687
 10
187.7252655029297
 20
-12.6276273727417
 30
187.7252807617187
 10
187.0636749267578
 20
-11.87470626831054
 30
187.0636596679687
 10
186.695816040039
 20
-11.23182582855224
 30
186.6955261230468
 10
186.241470336914
 20
-11.1088171005249
 30
186.2413330078125
 10
185.7008056640625
 20
-11.76360130310058
 30
185.7008972167968
 10
184.863052368164
 20
-12.60138034820556
 30
184.863037109375
 10
183.6528167724609
 20
-13.35615634918213
 30
183.65283203125
 10
182.2139739990234
 20
-13.65550708770752
 30
182.2139892578125
 10
180.8439636230469
 20
-13.42128181457519
 30
180.843994140625
 10
179.8263549804687
 20
-12.67959690093994
 30
179.8263549804687
 10
179.1383361816406
 20
-11.53621292114258
 30
179.1383666992187
 10
178.7421569824219
 20
-10.33862972259521
 30
178.7420654296875
 10
178.12158203125
 20
-9.473212242126464
 30
178.1216430664062
 10
176.9266815185547
 20
-9.083576202392578
 30
176.9266357421875
 10
176.2518310546875
 20
-8.394004821777343
 30
176.2520141601562
 10
176.1077728271484
 20
-7.946832656860351
 30
176.1077880859375
 10
149.9289245605468
 20
-4.500004768371582
 30
149.9289245605468
 10
175.5
 20
-4.500005722045898
 30
175.5
 10
149.4303283691406
 20
-4.633159637451171
 30
149.4303588867187
 10
149.0982971191406
 20
-4.943177700042724
 30
149.0982971191406
 10
148.949462890625
 20
-5.298391819000244
 30
148.949462890625
 10
148.5999145507812
 20
-6.296321868896484
 30
148.5999145507812
 10
148.3042297363281
 20
-6.786135673522949
 30
148.3042297363281
 10
147.9147796630859
 20
-7.255597591400146
 30
147.914794921875
 10
147.5747985839843
 20
-8.371318817138671
 30
147.5747985839843
 10
143.7214508056641
 20
-10.65292263031006
 30
143.721435546875
 10
143.4845886230468
 20
-10.63172721862793
 30
143.4845886230468
 10
142.5654907226562
 20
-11.00589370727539
 30
142.5654907226562
 10
143.9593658447265
 20
-10.66000461578369
 30
143.9593505859375
 10
144.7995300292969
 20
-10.57077693939209
 30
144.7995300292969
 10
145.5823822021484
 20
-10.31593704223633
 30
145.5823669433593
 10
146.8235321044922
 20
-9.452250480651855
 30
146.8235168457031
 10
141.5436401367187
 20
-11.14000511169433
 30
141.5436401367187
 10
141.0160064697265
 20
-11.10469532012939
 30
141.0159912109375
 10
140.5
 20
-11.00000476837158
 30
140.5
 10
139.0351867675781
 20
-11.00000476837158
 30
139.0351867675781
 10
138.7719421386718
 20
-11.0352783203125
 30
138.7719116210937
 10
138.5383148193359
 20
-11.13214683532715
 30
138.5383605957031
 10
138.203125
 20
-11.44530391693115
 30
138.203125
 10
137.796875
 20
-12.05470371246338
 30
137.796875
 10
137.461685180664
 20
-12.36786079406738
 30
137.4616394042968
 10
-137.2280578613281
 20
-12.46471881866455
 30
-137.2280731201172
 10
-136.9648132324218
 20
-12.49999237060547
 30
-136.9648132324218
 10
-141.1614685058593
 20
-6.918022632598876
 30
-141.1614837646484
 10
-149.357177734375
 20
-1.081961154937744
 30
-149.357177734375
 10
-180.4902038574218
 20
-1.22996187210083
 30
-180.4901733398437
 10
-180.7000122070312
 20
-2.76999020576477
 30
-180.6999969482422
 10
-201.2000122070312
 20
-2.769989490509033
 30
-201.1999969482422
 10
-201.3720703125
 20
-0.6885065436363221
 30
-201.3720703125
 10
-212.0
 20
-0.4999889731407166
 30
-212.0
 10
-212.0
 20
0.0000110353685159
 30
-212.0
 10
-214.5666809082031
 20
0.0000111475619633
 30
-214.5666809082031
 10
-214.7822875976562
 20
-0.0632331892848015
 30
-214.7822265625
 10
-214.9818725585937
 20
-0.2935097515583038
 30
-214.9815826416016
 10
-215.0
 20
-0.5163939595222474
 30
-215.0
 10
-213.8712768554687
 20
-6.91764497756958
 30
-213.8712921142578
 10
-213.5901184082031
 20
-7.34413719177246
 30
-213.5901489257812
 10
-212.41748046875
 20
-7.821969509124755
 30
-212.41748046875
 10
-211.2478637695312
 20
-8.703187942504882
 30
-211.2479400634766
 10
-210.7088317871094
 20
-9.576007843017578
 30
-210.708740234375
 10
-210.4221801757812
 20
-10.56180000305176
 30
-210.4221801757812
 10
-209.8670654296875
 20
-11.17119407653808
 30
-209.8670654296875
 10
-209.2869873046875
 20
-11.48027992248535
 30
-209.2869720458984
 10
-208.8861694335938
 20
-12.11889743804931
 30
-208.8861389160156
 10
-208.2674865722656
 20
-13.34353160858154
 30
-208.2675323486328
 10
-207.2265625
 20
-14.76901531219482
 30
-207.2265777587891
 10
-205.6708679199219
 20
-16.08903121948242
 30
-205.6708679199219
 10
-203.7996520996094
 20
-16.71345710754394
 30
-203.7996673583984
 10
-201.8394165039063
 20
-16.43861770629882
 30
-201.8394470214844
 10
-200.1389770507813
 20
-15.38464546203613
 30
-200.1389465332031
 10
-198.8852233886719
 20
-13.74028778076172
 30
-198.8853149414062
 10
-198.2576904296875
 20
-12.33105373382568
 30
-198.2574462890625
 10
-197.7659912109375
 20
-10.94446945190429
 30
-197.765625
 10
-196.9481201171875
 20
-9.384100914001464
 30
-196.9485473632812
 10
-195.5145874023437
 20
-8.266484260559082
 30
-195.5145568847656
 10
-193.9176635742187
 20
-8.313872337341308
 30
-193.9176635742187
 10
-193.0355834960937
 20
-8.685381889343261
 30
-193.0356140136719
 10
-192.3585205078125
 20
-9.1302490234375
 30
-192.3585357666015
 10
-191.4852905273437
 20
-9.931796073913574
 30
-191.4852600097656
 10
-190.6081848144531
 20
-10.88749313354492
 30
-190.6082000732422
 10
-190.0033264160156
 20
-11.57300090789795
 30
-190.0033569335937
 10
-189.214599609375
 20
-12.35192680358887
 30
-189.2146453857422
 10
-188.4845581054687
 20
-12.78616905212402
 30
-188.4845581054687
 10
-187.7252807617187
 20
-12.62761116027832
 30
-187.7252655029297
 10
-187.0636596679687
 20
-11.87469005584717
 30
-187.0636749267578
 10
-186.69580078125
 20
-11.23180961608887
 30
-186.6955261230468
 10
-186.241455078125
 20
-11.10880088806152
 30
-186.2413482666015
 10
-185.7008056640625
 20
-11.7635850906372
 30
-185.7008972167968
 10
-184.8630676269531
 20
-12.60136413574219
 30
-184.8630676269531
 10
-183.65283203125
 20
-13.35614013671875
 30
-183.65283203125
 10
-182.2139587402343
 20
-13.65549182891846
 30
-182.2139587402343
 10
-180.843994140625
 20
-13.42126655578613
 30
-180.843994140625
 10
-179.8263549804687
 20
-12.67958164215088
 30
-179.8263549804687
 10
-179.1383666992187
 20
-11.53619766235351
 30
-179.1383514404297
 10
-178.7421569824219
 20
-10.33861446380615
 30
-178.7420959472656
 10
-178.12158203125
 20
-9.473196983337402
 30
-178.1216430664062
 10
-176.9266967773437
 20
-9.083560943603515
 30
-176.9266662597656
 10
-176.2518310546875
 20
-8.393989562988281
 30
-176.2520294189453
 10
-176.1077880859375
 20
-7.946817398071289
 30
-176.1077728271484
 10
-149.9289245605468
 20
-4.49999189376831
 30
-149.9289245605468
 10
-175.5
 20
-4.499990463256835
 30
-175.5
 10
-149.4303283691406
 20
-4.6331467628479
 30
-149.4303588867187
 10
-149.0982971191406
 20
-4.943164825439453
 30
-149.0982971191406
 10
-148.949462890625
 20
-5.298378944396972
 30
-148.949462890625
 10
-148.5999145507812
 20
-6.296308994293212
 30
-148.5999145507812
 10
-148.3042297363281
 20
-6.786122798919677
 30
-148.3042297363281
 10
-147.914794921875
 20
-7.255584716796875
 30
-147.9147796630859
 10
-147.5747985839843
 20
-8.371305465698242
 30
-147.5747985839843
 10
-142.5654907226562
 20
-11.00588130950928
 30
-142.5654907226562
 10
-143.4845886230468
 20
-10.63171482086181
 30
-143.4845886230468
 10
-141.5436401367187
 20
-11.13999271392822
 30
-141.5436401367187
 10
-141.0159912109375
 20
-11.10468292236328
 30
-141.0160064697265
 10
-140.5
 20
-10.99999237060547
 30
-140.5
 10
-139.0351867675781
 20
-10.99999237060547
 30
-139.0351867675781
 10
-138.7719421386718
 20
-11.03526592254638
 30
-138.7719268798828
 10
-138.538330078125
 20
-11.13213539123535
 30
-138.5383605957031
 10
-138.203125
 20
-11.44529247283935
 30
-138.203125
 10
-137.461669921875
 20
-12.36784934997558
 30
-137.4616394042968
 10
-137.796875
 20
-12.05469226837158
 30
-137.796875
 10
-137.2280578613281
 20
-12.46471881866455
 30
137.2280883789062
 10
-136.9648132324218
 20
-12.49999237060547
 30
136.9648132324218
 10
-149.357177734375
 20
-1.081961154937744
 30
149.357177734375
 10
-180.4902038574218
 20
-1.22996187210083
 30
180.4902038574218
 10
-201.2000122070312
 20
-2.769989490509033
 30
201.2000122070312
 10
-180.7000122070312
 20
-2.76999020576477
 30
180.7000122070312
 10
-212.0
 20
-0.4999889731407166
 30
212.0
 10
-201.3720703125
 20
-0.6885065436363221
 30
201.3720703125
 10
-212.0
 20
0.0000110353685159
 30
212.0
 10
-214.5666809082031
 20
0.0000111475619633
 30
214.5666809082031
 10
-214.7822875976562
 20
-0.0632331892848015
 30
214.7822265625
 10
-214.9818725585937
 20
-0.2935097515583038
 30
214.9815673828125
 10
-215.0
 20
-0.5163939595222474
 30
215.0
 10
-213.8712768554687
 20
-6.91764497756958
 30
213.8712768554687
 10
-213.5901184082031
 20
-7.34413719177246
 30
213.5901489257812
 10
-212.41748046875
 20
-7.821969509124755
 30
212.41748046875
 10
-211.2478637695312
 20
-8.703187942504882
 30
211.2479248046875
 10
-210.7088317871094
 20
-9.576007843017578
 30
210.708740234375
 10
-210.4221801757812
 20
-10.56180000305176
 30
210.4221801757812
 10
-209.8670654296875
 20
-11.17119407653808
 30
209.8670654296875
 10
-209.2869873046875
 20
-11.48027992248535
 30
209.2869873046875
 10
-208.8861694335938
 20
-12.11889743804931
 30
208.8861389160156
 10
-208.2674865722656
 20
-13.34353160858154
 30
208.2675476074219
 10
-207.2265625
 20
-14.76901531219482
 30
207.2265930175781
 10
-205.6708679199219
 20
-16.08903121948242
 30
205.6708984375
 10
-203.7996520996094
 20
-16.71345710754394
 30
203.7996826171875
 10
-201.8394165039063
 20
-16.43861770629882
 30
201.8394165039063
 10
-200.1389770507813
 20
-15.38464546203613
 30
200.1389465332031
 10
-198.8852233886719
 20
-13.74028778076172
 30
198.8853149414062
 10
-198.2576904296875
 20
-12.33105373382568
 30
198.2574462890625
 10
-197.7659912109375
 20
-10.94446945190429
 30
197.7655944824219
 10
-196.9481201171875
 20
-9.384100914001464
 30
196.9485473632812
 10
-195.5145874023437
 20
-8.266484260559082
 30
195.5145568847656
 10
-193.9176635742187
 20
-8.313872337341308
 30
193.9176635742187
 10
-193.0355834960937
 20
-8.685381889343261
 30
193.0356140136719
 10
-192.3585205078125
 20
-9.1302490234375
 30
192.3585205078125
 10
-191.4852905273437
 20
-9.931796073913574
 30
191.4852600097656
 10
-190.6081848144531
 20
-10.88749313354492
 30
190.6082153320312
 10
-190.0033264160156
 20
-11.57300090789795
 30
190.0033569335937
 10
-189.214599609375
 20
-12.35192680358887
 30
189.2146301269531
 10
-188.4845581054687
 20
-12.78616905212402
 30
188.4845581054687
 10
-187.7252807617187
 20
-12.62761116027832
 30
187.7252807617187
 10
-187.0636596679687
 20
-11.87469005584717
 30
187.0636596679687
 10
-186.69580078125
 20
-11.23180961608887
 30
186.6955261230468
 10
-186.241455078125
 20
-11.10880088806152
 30
186.2413330078125
 10
-185.7008056640625
 20
-11.7635850906372
 30
185.7008972167968
 10
-184.8630676269531
 20
-12.60136413574219
 30
184.863037109375
 10
-183.65283203125
 20
-13.35614013671875
 30
183.65283203125
 10
-182.2139587402343
 20
-13.65549182891846
 30
182.2139892578125
 10
-180.843994140625
 20
-13.42126655578613
 30
180.843994140625
 10
-179.8263549804687
 20
-12.67958164215088
 30
179.8263549804687
 10
-179.1383666992187
 20
-11.53619766235351
 30
179.1383666992187
 10
-178.7421569824219
 20
-10.33861446380615
 30
178.7420654296875
 10
-178.12158203125
 20
-9.473196983337402
 30
178.1216430664062
 10
-176.9266967773437
 20
-9.083560943603515
 30
176.9266357421875
 10
-176.2518310546875
 20
-8.393989562988281
 30
176.2520141601562
 10
-176.1077880859375
 20
-7.946817398071289
 30
176.1077880859375
 10
-149.9289245605468
 20
-4.49999189376831
 30
149.9289245605468
 10
-175.5
 20
-4.499990463256835
 30
175.5
 10
-149.4303283691406
 20
-4.6331467628479
 30
149.4303588867187
 10
-149.0982971191406
 20
-4.943164825439453
 30
149.0982971191406
 10
-148.949462890625
 20
-5.298378944396972
 30
148.949462890625
 10
-148.5999145507812
 20
-6.296308994293212
 30
148.5999145507812
 10
-148.3042297363281
 20
-6.786122798919677
 30
148.3042297363281
 10
-147.914794921875
 20
-7.255584716796875
 30
147.914794921875
 10
-147.5747985839843
 20
-8.371305465698242
 30
147.5747985839843
 10
-142.5654907226562
 20
-11.00588130950928
 30
142.5654907226562
 10
-143.4845886230468
 20
-10.63171482086181
 30
143.4845886230468
 10
-141.5436401367187
 20
-11.13999271392822
 30
141.5436401367187
 10
-141.0159912109375
 20
-11.10468292236328
 30
141.0159912109375
 10
-140.5
 20
-10.99999237060547
 30
140.5
 10
-139.0351867675781
 20
-10.99999237060547
 30
139.0351867675781
 10
-138.7719421386718
 20
-11.03526592254638
 30
138.7719116210937
 10
-138.538330078125
 20
-11.13213539123535
 30
138.5383605957031
 10
-138.203125
 20
-11.44529247283935
 30
138.203125
 10
-137.461669921875
 20
-12.36784934997558
 30
137.4616394042968
 10
-137.796875
 20
-12.05469226837158
 30
137.796875
 10
-143.721435546875
 20
-10.65291023254394
 30
143.721435546875
 10
-143.721435546875
 20
-10.65291023254394
 30
-143.7214508056641
 10
-143.9593505859375
 20
-10.65999221801757
 30
143.9593505859375
 10
-143.9593505859375
 20
-10.65999221801757
 30
-143.9593658447265
 10
-144.7995300292969
 20
-10.57076454162597
 30
144.7995300292969
 10
-144.7995300292969
 20
-10.57076454162597
 30
-144.7995300292969
 10
-145.5823974609375
 20
-10.3159236907959
 30
145.5823669433593
 10
-145.5823974609375
 20
-10.3159236907959
 30
-145.5823669433593
 10
-146.8235473632812
 20
-9.452237129211425
 30
146.8235168457031
 10
-146.8235473632812
 20
-9.452237129211425
 30
-146.8235168457031
 10
-141.1614685058593
 20
-6.918023109436035
 30
141.1614685058593
 93
     1650
 90
        4
 90
       84
 90
       83
 90
        0
 90
       81
 90
        4
 90
      165
 90
       84
 90
       81
 90
       82
 90
        4
 90
      164
 90
      165
 90
       82
 90
       80
 90
        4
 90
      163
 90
      164
 90
       80
 90
       77
 90
        4
 90
      162
 90
      163
 90
       77
 90
       78
 90
        4
 90
      161
 90
      162
 90
       78
 90
       79
 90
        4
 90
      160
 90
      161
 90
       79
 90
       76
 90
        4
 90
      159
 90
      160
 90
       76
 90
       72
 90
        4
 90
      158
 90
      159
 90
       72
 90
       73
 90
        4
 90
      157
 90
      158
 90
       73
 90
       74
 90
        4
 90
      152
 90
      157
 90
       74
 90
       75
 90
        4
 90
      151
 90
      152
 90
       75
 90
       65
 90
        4
 90
      150
 90
      151
 90
       65
 90
       66
 90
        4
 90
      153
 90
      150
 90
       66
 90
       67
 90
        4
 90
      154
 90
      153
 90
       67
 90
       68
 90
        4
 90
      155
 90
      154
 90
       68
 90
       69
 90
        4
 90
      156
 90
      155
 90
       69
 90
       70
 90
        4
 90
      149
 90
      156
 90
       70
 90
       71
 90
        4
 90
      148
 90
      149
 90
       71
 90
       62
 90
        4
 90
      147
 90
      148
 90
       62
 90
       63
 90
        4
 90
      146
 90
      147
 90
       63
 90
       64
 90
        4
 90
      145
 90
      146
 90
       64
 90
       59
 90
        4
 90
      144
 90
      145
 90
       59
 90
       60
 90
        4
 90
      143
 90
      144
 90
       60
 90
       61
 90
        4
 90
      141
 90
      143
 90
       61
 90
       58
 90
        4
 90
      142
 90
      141
 90
       58
 90
       57
 90
        4
 90
      140
 90
      142
 90
       57
 90
       44
 90
        4
 90
      139
 90
      140
 90
       44
 90
       45
 90
        4
 90
      138
 90
      139
 90
       45
 90
       46
 90
        4
 90
      137
 90
      138
 90
       46
 90
       47
 90
        4
 90
      136
 90
      137
 90
       47
 90
       48
 90
        4
 90
      135
 90
      136
 90
       48
 90
       49
 90
        4
 90
      134
 90
      135
 90
       49
 90
       50
 90
        4
 90
      133
 90
      134
 90
       50
 90
       51
 90
        4
 90
      132
 90
      133
 90
       51
 90
       52
 90
        4
 90
      131
 90
      132
 90
       52
 90
       53
 90
        4
 90
      130
 90
      131
 90
       53
 90
       54
 90
        4
 90
      129
 90
      130
 90
       54
 90
       55
 90
        4
 90
      128
 90
      129
 90
       55
 90
       56
 90
        4
 90
      127
 90
      128
 90
       56
 90
       33
 90
        4
 90
      126
 90
      127
 90
       33
 90
       34
 90
        4
 90
      125
 90
      126
 90
       34
 90
       35
 90
        4
 90
      124
 90
      125
 90
       35
 90
       36
 90
        4
 90
      123
 90
      124
 90
       36
 90
       37
 90
        4
 90
      122
 90
      123
 90
       37
 90
       38
 90
        4
 90
      121
 90
      122
 90
       38
 90
       39
 90
        4
 90
      120
 90
      121
 90
       39
 90
       40
 90
        4
 90
      119
 90
      120
 90
       40
 90
       41
 90
        4
 90
      118
 90
      119
 90
       41
 90
       42
 90
        4
 90
      117
 90
      118
 90
       42
 90
       43
 90
        4
 90
      116
 90
      117
 90
       43
 90
       14
 90
        4
 90
      115
 90
      116
 90
       14
 90
       15
 90
        4
 90
      114
 90
      115
 90
       15
 90
       16
 90
        4
 90
      113
 90
      114
 90
       16
 90
       17
 90
        4
 90
      112
 90
      113
 90
       17
 90
       18
 90
        4
 90
      111
 90
      112
 90
       18
 90
       19
 90
        4
 90
      110
 90
      111
 90
       19
 90
       20
 90
        4
 90
      109
 90
      110
 90
       20
 90
       21
 90
        4
 90
      108
 90
      109
 90
       21
 90
       22
 90
        4
 90
      107
 90
      108
 90
       22
 90
       23
 90
        4
 90
      106
 90
      107
 90
       23
 90
       24
 90
        4
 90
      105
 90
      106
 90
       24
 90
       25
 90
        4
 90
      104
 90
      105
 90
       25
 90
       26
 90
        4
 90
      103
 90
      104
 90
       26
 90
       27
 90
        4
 90
      102
 90
      103
 90
       27
 90
       28
 90
        4
 90
      101
 90
      102
 90
       28
 90
       29
 90
        4
 90
      100
 90
      101
 90
       29
 90
       30
 90
        4
 90
       99
 90
      100
 90
       30
 90
       31
 90
        4
 90
       98
 90
       99
 90
       31
 90
       32
 90
        4
 90
       97
 90
       98
 90
       32
 90
       13
 90
        4
 90
       96
 90
       97
 90
       13
 90
       10
 90
        4
 90
       95
 90
       96
 90
       10
 90
       11
 90
        4
 90
       94
 90
       95
 90
       11
 90
       12
 90
        4
 90
       93
 90
       94
 90
       12
 90
        9
 90
        4
 90
       92
 90
       93
 90
        9
 90
        8
 90
        4
 90
       91
 90
       92
 90
        8
 90
        7
 90
        4
 90
       90
 90
       91
 90
        7
 90
        6
 90
        4
 90
       89
 90
       90
 90
        6
 90
        5
 90
        4
 90
       88
 90
       89
 90
        5
 90
        4
 90
        4
 90
       87
 90
       88
 90
        4
 90
        3
 90
        4
 90
       86
 90
       87
 90
        3
 90
        2
 90
        4
 90
       85
 90
       86
 90
        2
 90
        1
 90
        4
 90
      244
 90
      166
 90
      167
 90
      245
 90
        4
 90
      319
 90
      242
 90
      166
 90
      244
 90
        4
 90
      320
 90
      243
 90
      242
 90
      319
 90
        4
 90
      318
 90
      241
 90
      243
 90
      320
 90
        4
 90
      317
 90
      240
 90
      241
 90
      318
 90
        4
 90
      316
 90
      239
 90
      240
 90
      317
 90
        4
 90
      315
 90
      238
 90
      239
 90
      316
 90
        4
 90
      314
 90
      237
 90
      238
 90
      315
 90
        4
 90
      313
 90
      236
 90
      237
 90
      314
 90
        4
 90
      312
 90
      235
 90
      236
 90
      313
 90
        4
 90
      310
 90
      233
 90
      235
 90
      312
 90
        4
 90
      311
 90
      234
 90
      233
 90
      310
 90
        4
 90
      321
 90
      322
 90
      234
 90
      311
 90
        4
 90
      323
 90
      324
 90
      322
 90
      321
 90
        4
 90
      325
 90
      326
 90
      324
 90
      323
 90
        4
 90
      327
 90
      328
 90
      326
 90
      325
 90
        4
 90
      329
 90
      330
 90
      328
 90
      327
 90
        4
 90
      309
 90
      232
 90
      330
 90
      329
 90
        4
 90
      308
 90
      231
 90
      232
 90
      309
 90
        4
 90
      307
 90
      230
 90
      231
 90
      308
 90
        4
 90
      306
 90
      229
 90
      230
 90
      307
 90
        4
 90
      305
 90
      228
 90
      229
 90
      306
 90
        4
 90
      304
 90
      227
 90
      228
 90
      305
 90
        4
 90
      303
 90
      226
 90
      227
 90
      304
 90
        4
 90
      301
 90
      224
 90
      226
 90
      303
 90
        4
 90
      302
 90
      225
 90
      224
 90
      301
 90
        4
 90
      300
 90
      223
 90
      225
 90
      302
 90
        4
 90
      299
 90
      222
 90
      223
 90
      300
 90
        4
 90
      298
 90
      221
 90
      222
 90
      299
 90
        4
 90
      297
 90
      220
 90
      221
 90
      298
 90
        4
 90
      296
 90
      219
 90
      220
 90
      297
 90
        4
 90
      295
 90
      218
 90
      219
 90
      296
 90
        4
 90
      294
 90
      217
 90
      218
 90
      295
 90
        4
 90
      293
 90
      216
 90
      217
 90
      294
 90
        4
 90
      292
 90
      215
 90
      216
 90
      293
 90
        4
 90
      291
 90
      214
 90
      215
 90
      292
 90
        4
 90
      290
 90
      213
 90
      214
 90
      291
 90
        4
 90
      289
 90
      212
 90
      213
 90
      290
 90
        4
 90
      288
 90
      211
 90
      212
 90
      289
 90
        4
 90
      287
 90
      210
 90
      211
 90
      288
 90
        4
 90
      286
 90
      209
 90
      210
 90
      287
 90
        4
 90
      285
 90
      208
 90
      209
 90
      286
 90
        4
 90
      284
 90
      207
 90
      208
 90
      285
 90
        4
 90
      283
 90
      206
 90
      207
 90
      284
 90
        4
 90
      282
 90
      205
 90
      206
 90
      283
 90
        4
 90
      281
 90
      204
 90
      205
 90
      282
 90
        4
 90
      280
 90
      203
 90
      204
 90
      281
 90
        4
 90
      279
 90
      202
 90
      203
 90
      280
 90
        4
 90
      278
 90
      201
 90
      202
 90
      279
 90
        4
 90
      277
 90
      200
 90
      201
 90
      278
 90
        4
 90
      276
 90
      199
 90
      200
 90
      277
 90
        4
 90
      275
 90
      198
 90
      199
 90
      276
 90
        4
 90
      274
 90
      197
 90
      198
 90
      275
 90
        4
 90
      273
 90
      196
 90
      197
 90
      274
 90
        4
 90
      272
 90
      195
 90
      196
 90
      273
 90
        4
 90
      271
 90
      194
 90
      195
 90
      272
 90
        4
 90
      270
 90
      193
 90
      194
 90
      271
 90
        4
 90
      269
 90
      192
 90
      193
 90
      270
 90
        4
 90
      268
 90
      191
 90
      192
 90
      269
 90
        4
 90
      267
 90
      190
 90
      191
 90
      268
 90
        4
 90
      266
 90
      189
 90
      190
 90
      267
 90
        4
 90
      265
 90
      188
 90
      189
 90
      266
 90
        4
 90
      264
 90
      187
 90
      188
 90
      265
 90
        4
 90
      263
 90
      186
 90
      187
 90
      264
 90
        4
 90
      262
 90
      185
 90
      186
 90
      263
 90
        4
 90
      261
 90
      184
 90
      185
 90
      262
 90
        4
 90
      260
 90
      183
 90
      184
 90
      261
 90
        4
 90
      259
 90
      182
 90
      183
 90
      260
 90
        4
 90
      258
 90
      181
 90
      182
 90
      259
 90
        4
 90
      257
 90
      180
 90
      181
 90
      258
 90
        4
 90
      256
 90
      179
 90
      180
 90
      257
 90
        4
 90
      255
 90
      178
 90
      179
 90
      256
 90
        4
 90
      254
 90
      177
 90
      178
 90
      255
 90
        4
 90
      253
 90
      176
 90
      177
 90
      254
 90
        4
 90
      252
 90
      175
 90
      176
 90
      253
 90
        4
 90
      250
 90
      174
 90
      175
 90
      252
 90
        4
 90
      251
 90
      173
 90
      174
 90
      250
 90
        4
 90
      248
 90
      172
 90
      173
 90
      251
 90
        4
 90
      249
 90
      171
 90
      172
 90
      248
 90
        4
 90
      247
 90
      170
 90
      171
 90
      249
 90
        4
 90
      246
 90
      169
 90
      170
 90
      247
 90
        4
 90
      331
 90
      168
 90
      169
 90
      246
 90
        4
 90
      122
 90
      121
 90
      281
 90
      282
 90
        4
 90
      121
 90
      120
 90
      280
 90
      281
 90
        4
 90
      120
 90
      119
 90
      279
 90
      280
 90
        4
 90
      119
 90
      118
 90
      278
 90
      279
 90
        4
 90
      118
 90
      117
 90
      277
 90
      278
 90
        4
 90
      117
 90
      116
 90
      276
 90
      277
 90
        4
 90
      116
 90
      115
 90
      275
 90
      276
 90
        4
 90
      115
 90
      114
 90
      274
 90
      275
 90
        4
 90
      114
 90
      113
 90
      273
 90
      274
 90
        4
 90
      113
 90
      112
 90
      272
 90
      273
 90
        4
 90
      112
 90
      111
 90
      271
 90
      272
 90
        4
 90
      111
 90
      110
 90
      270
 90
      271
 90
        4
 90
      110
 90
      109
 90
      269
 90
      270
 90
        4
 90
      109
 90
      108
 90
      268
 90
      269
 90
        4
 90
      108
 90
      107
 90
      267
 90
      268
 90
        4
 90
      107
 90
      106
 90
      266
 90
      267
 90
        4
 90
      106
 90
      105
 90
      265
 90
      266
 90
        4
 90
      105
 90
      104
 90
      264
 90
      265
 90
        4
 90
      104
 90
      103
 90
      263
 90
      264
 90
        4
 90
      103
 90
      102
 90
      262
 90
      263
 90
        4
 90
      102
 90
      101
 90
      261
 90
      262
 90
        4
 90
      101
 90
      100
 90
      260
 90
      261
 90
        4
 90
      100
 90
       99
 90
      259
 90
      260
 90
        4
 90
       99
 90
       98
 90
      258
 90
      259
 90
        4
 90
       98
 90
       97
 90
      257
 90
      258
 90
        4
 90
       97
 90
       96
 90
      256
 90
      257
 90
        4
 90
       96
 90
       95
 90
      255
 90
      256
 90
        4
 90
       95
 90
       94
 90
      254
 90
      255
 90
        4
 90
       94
 90
       93
 90
      253
 90
      254
 90
        4
 90
       93
 90
       92
 90
      252
 90
      253
 90
        4
 90
       92
 90
       91
 90
      250
 90
      252
 90
        4
 90
       91
 90
       90
 90
      251
 90
      250
 90
        4
 90
       90
 90
       89
 90
      248
 90
      251
 90
        4
 90
       89
 90
       88
 90
      249
 90
      248
 90
        4
 90
       88
 90
       87
 90
      247
 90
      249
 90
        4
 90
       87
 90
       86
 90
      246
 90
      247
 90
        4
 90
       86
 90
       85
 90
      331
 90
      246
 90
        4
 90
       85
 90
        1
 90
      168
 90
      331
 90
        4
 90
        1
 90
        2
 90
      169
 90
      168
 90
        4
 90
        2
 90
        3
 90
      170
 90
      169
 90
        4
 90
        3
 90
        4
 90
      171
 90
      170
 90
        4
 90
        4
 90
        5
 90
      172
 90
      171
 90
        4
 90
        5
 90
        6
 90
      173
 90
      172
 90
        4
 90
        6
 90
        7
 90
      174
 90
      173
 90
        4
 90
        7
 90
        8
 90
      175
 90
      174
 90
        4
 90
        8
 90
        9
 90
      176
 90
      175
 90
        4
 90
        9
 90
       12
 90
      177
 90
      176
 90
        4
 90
       12
 90
       11
 90
      178
 90
      177
 90
        4
 90
       11
 90
       10
 90
      179
 90
      178
 90
        4
 90
       10
 90
       13
 90
      180
 90
      179
 90
        4
 90
       13
 90
       32
 90
      181
 90
      180
 90
        4
 90
       32
 90
       31
 90
      182
 90
      181
 90
        4
 90
       31
 90
       30
 90
      183
 90
      182
 90
        4
 90
       30
 90
       29
 90
      184
 90
      183
 90
        4
 90
       29
 90
       28
 90
      185
 90
      184
 90
        4
 90
       28
 90
       27
 90
      186
 90
      185
 90
        4
 90
       27
 90
       26
 90
      187
 90
      186
 90
        4
 90
       26
 90
       25
 90
      188
 90
      187
 90
        4
 90
       25
 90
       24
 90
      189
 90
      188
 90
        4
 90
       24
 90
       23
 90
      190
 90
      189
 90
        4
 90
       23
 90
       22
 90
      191
 90
      190
 90
        4
 90
       22
 90
       21
 90
      192
 90
      191
 90
        4
 90
       21
 90
       20
 90
      193
 90
      192
 90
        4
 90
       20
 90
       19
 90
      194
 90
      193
 90
        4
 90
       19
 90
       18
 90
      195
 90
      194
 90
        4
 90
       18
 90
       17
 90
      196
 90
      195
 90
        4
 90
       17
 90
       16
 90
      197
 90
      196
 90
        4
 90
       16
 90
       15
 90
      198
 90
      197
 90
        4
 90
       15
 90
       14
 90
      199
 90
      198
 90
        4
 90
       14
 90
       43
 90
      200
 90
      199
 90
        4
 90
       43
 90
       42
 90
      201
 90
      200
 90
        4
 90
       42
 90
       41
 90
      202
 90
      201
 90
        4
 90
       41
 90
       40
 90
      203
 90
      202
 90
        4
 90
       40
 90
       39
 90
      204
 90
      203
 90
        4
 90
       39
 90
       38
 90
      205
 90
      204
 90
        4
 90
       38
 90
       37
 90
      206
 90
      205
 90
        4
 90
       37
 90
       36
 90
      207
 90
      206
 90
        4
 90
       36
 90
       35
 90
      208
 90
      207
 90
        4
 90
       35
 90
       34
 90
      209
 90
      208
 90
        4
 90
       34
 90
       33
 90
      210
 90
      209
 90
        4
 90
       33
 90
       56
 90
      211
 90
      210
 90
        4
 90
       56
 90
       55
 90
      212
 90
      211
 90
        4
 90
       55
 90
       54
 90
      213
 90
      212
 90
        4
 90
       54
 90
       53
 90
      214
 90
      213
 90
        4
 90
       53
 90
       52
 90
      215
 90
      214
 90
        4
 90
       52
 90
       51
 90
      216
 90
      215
 90
        4
 90
       51
 90
       50
 90
      217
 90
      216
 90
        4
 90
       50
 90
       49
 90
      218
 90
      217
 90
        4
 90
       49
 90
       48
 90
      219
 90
      218
 90
        4
 90
       48
 90
       47
 90
      220
 90
      219
 90
        4
 90
       47
 90
       46
 90
      221
 90
      220
 90
        4
 90
       46
 90
       45
 90
      222
 90
      221
 90
        4
 90
       45
 90
       44
 90
      223
 90
      222
 90
        4
 90
       44
 90
       57
 90
      225
 90
      223
 90
        4
 90
       57
 90
       58
 90
      224
 90
      225
 90
        4
 90
       58
 90
       61
 90
      226
 90
      224
 90
        4
 90
       61
 90
       60
 90
      227
 90
      226
 90
        4
 90
       60
 90
       59
 90
      228
 90
      227
 90
        4
 90
       59
 90
       64
 90
      229
 90
      228
 90
        4
 90
       64
 90
       63
 90
      230
 90
      229
 90
        4
 90
       63
 90
       62
 90
      231
 90
      230
 90
        4
 90
       62
 90
       71
 90
      232
 90
      231
 90
        4
 90
       71
 90
       70
 90
      330
 90
      232
 90
        4
 90
       70
 90
       69
 90
      328
 90
      330
 90
        4
 90
       69
 90
       68
 90
      326
 90
      328
 90
        4
 90
       68
 90
       67
 90
      324
 90
      326
 90
        4
 90
       67
 90
       66
 90
      322
 90
      324
 90
        4
 90
       66
 90
       65
 90
      234
 90
      322
 90
        4
 90
       65
 90
       75
 90
      233
 90
      234
 90
        4
 90
       75
 90
       74
 90
      235
 90
      233
 90
        4
 90
       74
 90
       73
 90
      236
 90
      235
 90
        4
 90
       73
 90
       72
 90
      237
 90
      236
 90
        4
 90
       72
 90
       76
 90
      238
 90
      237
 90
        4
 90
       76
 90
       79
 90
      239
 90
      238
 90
        4
 90
       79
 90
       78
 90
      240
 90
      239
 90
        4
 90
       78
 90
       77
 90
      241
 90
      240
 90
        4
 90
       77
 90
       80
 90
      243
 90
      241
 90
        4
 90
       80
 90
       82
 90
      242
 90
      243
 90
        4
 90
       82
 90
       81
 90
      166
 90
      242
 90
        4
 90
       81
 90
        0
 90
      167
 90
      166
 90
        4
 90
        0
 90
       83
 90
      245
 90
      167
 90
        4
 90
       83
 90
       84
 90
      244
 90
      245
 90
        4
 90
       84
 90
      165
 90
      319
 90
      244
 90
        4
 90
      165
 90
      164
 90
      320
 90
      319
 90
        4
 90
      164
 90
      163
 90
      318
 90
      320
 90
        4
 90
      163
 90
      162
 90
      317
 90
      318
 90
        4
 90
      162
 90
      161
 90
      316
 90
      317
 90
        4
 90
      161
 90
      160
 90
      315
 90
      316
 90
        4
 90
      160
 90
      159
 90
      314
 90
      315
 90
        4
 90
      159
 90
      158
 90
      313
 90
      314
 90
        4
 90
      158
 90
      157
 90
      312
 90
      313
 90
        4
 90
      157
 90
      152
 90
      310
 90
      312
 90
        4
 90
      152
 90
      151
 90
      311
 90
      310
 90
        4
 90
      151
 90
      150
 90
      321
 90
      311
 90
        4
 90
      150
 90
      153
 90
      323
 90
      321
 90
        4
 90
      153
 90
      154
 90
      325
 90
      323
 90
        4
 90
      154
 90
      155
 90
      327
 90
      325
 90
        4
 90
      155
 90
      156
 90
      329
 90
      327
 90
        4
 90
      156
 90
      149
 90
      309
 90
      329
 90
        4
 90
      149
 90
      148
 90
      308
 90
      309
 90
        4
 90
      148
 90
      147
 90
      307
 90
      308
 90
        4
 90
      147
 90
      146
 90
      306
 90
      307
 90
        4
 90
      146
 90
      145
 90
      305
 90
      306
 90
        4
 90
      145
 90
      144
 90
      304
 90
      305
 90
        4
 90
      144
 90
      143
 90
      303
 90
      304
 90
        4
 90
      143
 90
      141
 90
      301
 90
      303
 90
        4
 90
      141
 90
      142
 90
      302
 90
      301
 90
        4
 90
      142
 90
      140
 90
      300
 90
      302
 90
        4
 90
      140
 90
      139
 90
      299
 90
      300
 90
        4
 90
      139
 90
      138
 90
      298
 90
      299
 90
        4
 90
      138
 90
      137
 90
      297
 90
      298
 90
        4
 90
      137
 90
      136
 90
      296
 90
      297
 90
        4
 90
      136
 90
      135
 90
      295
 90
      296
 90
        4
 90
      135
 90
      134
 90
      294
 90
      295
 90
        4
 90
      134
 90
      133
 90
      293
 90
      294
 90
        4
 90
      133
 90
      132
 90
      292
 90
      293
 90
        4
 90
      132
 90
      131
 90
      291
 90
      292
 90
        4
 90
      131
 90
      130
 90
      290
 90
      291
 90
        4
 90
      130
 90
      129
 90
      289
 90
      290
 90
        4
 90
      129
 90
      128
 90
      288
 90
      289
 90
        4
 90
      128
 90
      127
 90
      287
 90
      288
 90
        4
 90
      127
 90
      126
 90
      286
 90
      287
 90
        4
 90
      126
 90
      125
 90
      285
 90
      286
 90
        4
 90
      125
 90
      124
 90
      284
 90
      285
 90
        4
 90
      124
 90
      123
 90
      283
 90
      284
 90
        4
 90
      123
 90
      122
 90
      282
 90
      283
 94
      660
 90
       83
 90
       84
 90
        0
 90
       83
 90
        0
 90
       81
 90
       81
 90
       84
 90
       84
 90
      165
 90
       81
 90
       82
 90
       82
 90
      165
 90
      164
 90
      165
 90
       80
 90
       82
 90
       80
 90
      164
 90
      163
 90
      164
 90
       77
 90
       80
 90
       77
 90
      163
 90
      162
 90
      163
 90
       77
 90
       78
 90
       78
 90
      162
 90
      161
 90
      162
 90
       78
 90
       79
 90
       79
 90
      161
 90
      160
 90
      161
 90
       76
 90
       79
 90
       76
 90
      160
 90
      159
 90
      160
 90
       72
 90
       76
 90
       72
 90
      159
 90
      158
 90
      159
 90
       72
 90
       73
 90
       73
 90
      158
 90
      157
 90
      158
 90
       73
 90
       74
 90
       74
 90
      157
 90
      152
 90
      157
 90
       74
 90
       75
 90
       75
 90
      152
 90
      151
 90
      152
 90
       65
 90
       75
 90
       65
 90
      151
 90
      150
 90
      151
 90
       65
 90
       66
 90
       66
 90
      150
 90
      150
 90
      153
 90
       66
 90
       67
 90
       67
 90
      153
 90
      153
 90
      154
 90
       67
 90
       68
 90
       68
 90
      154
 90
      154
 90
      155
 90
       68
 90
       69
 90
       69
 90
      155
 90
      155
 90
      156
 90
       69
 90
       70
 90
       70
 90
      156
 90
      149
 90
      156
 90
       70
 90
       71
 90
       71
 90
      149
 90
      148
 90
      149
 90
       62
 90
       71
 90
       62
 90
      148
 90
      147
 90
      148
 90
       62
 90
       63
 90
       63
 90
      147
 90
      146
 90
      147
 90
       63
 90
       64
 90
       64
 90
      146
 90
      145
 90
      146
 90
       59
 90
       64
 90
       59
 90
      145
 90
      144
 90
      145
 90
       59
 90
       60
 90
       60
 90
      144
 90
      143
 90
      144
 90
       60
 90
       61
 90
       61
 90
      143
 90
      141
 90
      143
 90
       58
 90
       61
 90
       58
 90
      141
 90
      141
 90
      142
 90
       57
 90
       58
 90
       57
 90
      142
 90
      140
 90
      142
 90
       44
 90
       57
 90
       44
 90
      140
 90
      139
 90
      140
 90
       44
 90
       45
 90
       45
 90
      139
 90
      138
 90
      139
 90
       45
 90
       46
 90
       46
 90
      138
 90
      137
 90
      138
 90
       46
 90
       47
 90
       47
 90
      137
 90
      136
 90
      137
 90
       47
 90
       48
 90
       48
 90
      136
 90
      135
 90
      136
 90
       48
 90
       49
 90
       49
 90
      135
 90
      134
 90
      135
 90
       49
 90
       50
 90
       50
 90
      134
 90
      133
 90
      134
 90
       50
 90
       51
 90
       51
 90
      133
 90
      132
 90
      133
 90
       51
 90
       52
 90
       52
 90
      132
 90
      131
 90
      132
 90
       52
 90
       53
 90
       53
 90
      131
 90
      130
 90
      131
 90
       53
 90
       54
 90
       54
 90
      130
 90
      129
 90
      130
 90
       54
 90
       55
 90
       55
 90
      129
 90
      128
 90
      129
 90
       55
 90
       56
 90
       56
 90
      128
 90
      127
 90
      128
 90
       33
 90
       56
 90
       33
 90
      127
 90
      126
 90
      127
 90
       33
 90
       34
 90
       34
 90
      126
 90
      125
 90
      126
 90
       34
 90
       35
 90
       35
 90
      125
 90
      124
 90
      125
 90
       35
 90
       36
 90
       36
 90
      124
 90
      123
 90
      124
 90
       36
 90
       37
 90
       37
 90
      123
 90
      122
 90
      123
 90
       37
 90
       38
 90
       38
 90
      122
 90
      121
 90
      122
 90
       38
 90
       39
 90
       39
 90
      121
 90
      120
 90
      121
 90
       39
 90
       40
 90
       40
 90
      120
 90
      119
 90
      120
 90
       40
 90
       41
 90
       41
 90
      119
 90
      118
 90
      119
 90
       41
 90
       42
 90
       42
 90
      118
 90
      117
 90
      118
 90
       42
 90
       43
 90
       43
 90
      117
 90
      116
 90
      117
 90
       14
 90
       43
 90
       14
 90
      116
 90
      115
 90
      116
 90
       14
 90
       15
 90
       15
 90
      115
 90
      114
 90
      115
 90
       15
 90
       16
 90
       16
 90
      114
 90
      113
 90
      114
 90
       16
 90
       17
 90
       17
 90
      113
 90
      112
 90
      113
 90
       17
 90
       18
 90
       18
 90
      112
 90
      111
 90
      112
 90
       18
 90
       19
 90
       19
 90
      111
 90
      110
 90
      111
 90
       19
 90
       20
 90
       20
 90
      110
 90
      109
 90
      110
 90
       20
 90
       21
 90
       21
 90
      109
 90
      108
 90
      109
 90
       21
 90
       22
 90
       22
 90
      108
 90
      107
 90
      108
 90
       22
 90
       23
 90
       23
 90
      107
 90
      106
 90
      107
 90
       23
 90
       24
 90
       24
 90
      106
 90
      105
 90
      106
 90
       24
 90
       25
 90
       25
 90
      105
 90
      104
 90
      105
 90
       25
 90
       26
 90
       26
 90
      104
 90
      103
 90
      104
 90
       26
 90
       27
 90
       27
 90
      103
 90
      102
 90
      103
 90
       27
 90
       28
 90
       28
 90
      102
 90
      101
 90
      102
 90
       28
 90
       29
 90
       29
 90
      101
 90
      100
 90
      101
 90
       29
 90
       30
 90
       30
 90
      100
 90
       99
 90
      100
 90
       30
 90
       31
 90
       31
 90
       99
 90
       98
 90
       99
 90
       31
 90
       32
 90
       32
 90
       98
 90
       97
 90
       98
 90
       13
 90
       32
 90
       13
 90
       97
 90
       96
 90
       97
 90
       10
 90
       13
 90
       10
 90
       96
 90
       95
 90
       96
 90
       10
 90
       11
 90
       11
 90
       95
 90
       94
 90
       95
 90
       11
 90
       12
 90
       12
 90
       94
 90
       93
 90
       94
 90
        9
 90
       12
 90
        9
 90
       93
 90
       92
 90
       93
 90
        8
 90
        9
 90
        8
 90
       92
 90
       91
 90
       92
 90
        7
 90
        8
 90
        7
 90
       91
 90
       90
 90
       91
 90
        6
 90
        7
 90
        6
 90
       90
 90
       89
 90
       90
 90
        5
 90
        6
 90
        5
 90
       89
 90
       88
 90
       89
 90
        4
 90
        5
 90
        4
 90
       88
 90
       87
 90
       88
 90
        3
 90
        4
 90
        3
 90
       87
 90
       86
 90
       87
 90
        2
 90
        3
 90
        2
 90
       86
 90
       85
 90
       86
 90
        1
 90
        2
 90
        1
 90
       85
 90
      166
 90
      244
 90
      166
 90
      167
 90
      167
 90
      245
 90
      244
 90
      245
 90
      242
 90
      319
 90
      166
 90
      242
 90
      244
 90
      319
 90
      243
 90
      320
 90
      242
 90
      243
 90
      319
 90
      320
 90
      241
 90
      318
 90
      241
 90
      243
 90
      318
 90
      320
 90
      240
 90
      317
 90
      240
 90
      241
 90
      317
 90
      318
 90
      239
 90
      316
 90
      239
 90
      240
 90
      316
 90
      317
 90
      238
 90
      315
 90
      238
 90
      239
 90
      315
 90
      316
 90
      237
 90
      314
 90
      237
 90
      238
 90
      314
 90
      315
 90
      236
 90
      313
 90
      236
 90
      237
 90
      313
 90
      314
 90
      235
 90
      312
 90
      235
 90
      236
 90
      312
 90
      313
 90
      233
 90
      310
 90
      233
 90
      235
 90
      310
 90
      312
 90
      234
 90
      311
 90
      233
 90
      234
 90
      310
 90
      311
 90
      321
 90
      322
 90
      234
 90
      322
 90
      311
 90
      321
 90
      323
 90
      324
 90
      322
 90
      324
 90
      321
 90
      323
 90
      325
 90
      326
 90
      324
 90
      326
 90
      323
 90
      325
 90
      327
 90
      328
 90
      326
 90
      328
 90
      325
 90
      327
 90
      329
 90
      330
 90
      328
 90
      330
 90
      327
 90
      329
 90
      232
 90
      309
 90
      232
 90
      330
 90
      309
 90
      329
 90
      231
 90
      308
 90
      231
 90
      232
 90
      308
 90
      309
 90
      230
 90
      307
 90
      230
 90
      231
 90
      307
 90
      308
 90
      229
 90
      306
 90
      229
 90
      230
 90
      306
 90
      307
 90
      228
 90
      305
 90
      228
 90
      229
 90
      305
 90
      306
 90
      227
 90
      304
 90
      227
 90
      228
 90
      304
 90
      305
 90
      226
 90
      303
 90
      226
 90
      227
 90
      303
 90
      304
 90
      224
 90
      301
 90
      224
 90
      226
 90
      301
 90
      303
 90
      225
 90
      302
 90
      224
 90
      225
 90
      301
 90
      302
 90
      223
 90
      300
 90
      223
 90
      225
 90
      300
 90
      302
 90
      222
 90
      299
 90
      222
 90
      223
 90
      299
 90
      300
 90
      221
 90
      298
 90
      221
 90
      222
 90
      298
 90
      299
 90
      220
 90
      297
 90
      220
 90
      221
 90
      297
 90
      298
 90
      219
 90
      296
 90
      219
 90
      220
 90
      296
 90
      297
 90
      218
 90
      295
 90
      218
 90
      219
 90
      295
 90
      296
 90
      217
 90
      294
 90
      217
 90
      218
 90
      294
 90
      295
 90
      216
 90
      293
 90
      216
 90
      217
 90
      293
 90
      294
 90
      215
 90
      292
 90
      215
 90
      216
 90
      292
 90
      293
 90
      214
 90
      291
 90
      214
 90
      215
 90
      291
 90
      292
 90
      213
 90
      290
 90
      213
 90
      214
 90
      290
 90
      291
 90
      212
 90
      289
 90
      212
 90
      213
 90
      289
 90
      290
 90
      211
 90
      288
 90
      211
 90
      212
 90
      288
 90
      289
 90
      210
 90
      287
 90
      210
 90
      211
 90
      287
 90
      288
 90
      209
 90
      286
 90
      209
 90
      210
 90
      286
 90
      287
 90
      208
 90
      285
 90
      208
 90
      209
 90
      285
 90
      286
 90
      207
 90
      284
 90
      207
 90
      208
 90
      284
 90
      285
 90
      206
 90
      283
 90
      206
 90
      207
 90
      283
 90
      284
 90
      205
 90
      282
 90
      205
 90
      206
 90
      282
 90
      283
 90
      204
 90
      281
 90
      204
 90
      205
 90
      281
 90
      282
 90
      203
 90
      280
 90
      203
 90
      204
 90
      280
 90
      281
 90
      202
 90
      279
 90
      202
 90
      203
 90
      279
 90
      280
 90
      201
 90
      278
 90
      201
 90
      202
 90
      278
 90
      279
 90
      200
 90
      277
 90
      200
 90
      201
 90
      277
 90
      278
 90
      199
 90
      276
 90
      199
 90
      200
 90
      276
 90
      277
 90
      198
 90
      275
 90
      198
 90
      199
 90
      275
 90
      276
 90
      197
 90
      274
 90
      197
 90
      198
 90
      274
 90
      275
 90
      196
 90
      273
 90
      196
 90
      197
 90
      273
 90
      274
 90
      195
 90
      272
 90
      195
 90
      196
 90
      272
 90
      273
 90
      194
 90
      271
 90
      194
 90
      195
 90
      271
 90
      272
 90
      193
 90
      270
 90
      193
 90
      194
 90
      270
 90
      271
 90
      192
 90
      269
 90
      192
 90
      193
 90
      269
 90
      270
 90
      191
 90
      268
 90
      191
 90
      192
 90
      268
 90
      269
 90
      190
 90
      267
 90
      190
 90
      191
 90
      267
 90
      268
 90
      189
 90
      266
 90
      189
 90
      190
 90
      266
 90
      267
 90
      188
 90
      265
 90
      188
 90
      189
 90
      265
 90
      266
 90
      187
 90
      264
 90
      187
 90
      188
 90
      264
 90
      265
 90
      186
 90
      263
 90
      186
 90
      187
 90
      263
 90
      264
 90
      185
 90
      262
 90
      185
 90
      186
 90
      262
 90
      263
 90
      184
 90
      261
 90
      184
 90
      185
 90
      261
 90
      262
 90
      183
 90
      260
 90
      183
 90
      184
 90
      260
 90
      261
 90
      182
 90
      259
 90
      182
 90
      183
 90
      259
 90
      260
 90
      181
 90
      258
 90
      181
 90
      182
 90
      258
 90
      259
 90
      180
 90
      257
 90
      180
 90
      181
 90
      257
 90
      258
 90
      179
 90
      256
 90
      179
 90
      180
 90
      256
 90
      257
 90
      178
 90
      255
 90
      178
 90
      179
 90
      255
 90
      256
 90
      177
 90
      254
 90
      177
 90
      178
 90
      254
 90
      255
 90
      176
 90
      253
 90
      176
 90
      177
 90
      253
 90
      254
 90
      175
 90
      252
 90
      175
 90
      176
 90
      252
 90
      253
 90
      174
 90
      250
 90
      174
 90
      175
 90
      250
 90
      252
 90
      173
 90
      251
 90
      173
 90
      174
 90
      250
 90
      251
 90
      172
 90
      248
 90
      172
 90
      173
 90
      248
 90
      251
 90
      171
 90
      249
 90
      171
 90
      172
 90
      248
 90
      249
 90
      170
 90
      247
 90
      170
 90
      171
 90
      247
 90
      249
 90
      169
 90
      246
 90
      169
 90
      170
 90
      246
 90
      247
 90
      168
 90
      331
 90
      168
 90
      169
 90
      246
 90
      331
 90
      121
 90
      281
 90
      122
 90
      282
 90
      120
 90
      280
 90
      119
 90
      279
 90
      118
 90
      278
 90
      117
 90
      277
 90
      116
 90
      276
 90
      115
 90
      275
 90
      114
 90
      274
 90
      113
 90
      273
 90
      112
 90
      272
 90
      111
 90
      271
 90
      110
 90
      270
 90
      109
 90
      269
 90
      108
 90
      268
 90
      107
 90
      267
 90
      106
 90
      266
 90
      105
 90
      265
 90
      104
 90
      264
 90
      103
 90
      263
 90
      102
 90
      262
 90
      101
 90
      261
 90
      100
 90
      260
 90
       99
 90
      259
 90
       98
 90
      258
 90
       97
 90
      257
 90
       96
 90
      256
 90
       95
 90
      255
 90
       94
 90
      254
 90
       93
 90
      253
 90
       92
 90
      252
 90
       91
 90
      250
 90
       90
 90
      251
 90
       89
 90
      248
 90
       88
 90
      249
 90
       87
 90
      247
 90
       86
 90
      246
 90
       85
 90
      331
 90
        1
 90
      168
 90
        2
 90
      169
 90
        3
 90
      170
 90
        4
 90
      171
 90
        5
 90
      172
 90
        6
 90
      173
 90
        7
 90
      174
 90
        8
 90
      175
 90
        9
 90
      176
 90
       12
 90
      177
 90
       11
 90
      178
 90
       10
 90
      179
 90
       13
 90
      180
 90
       32
 90
      181
 90
       31
 90
      182
 90
       30
 90
      183
 90
       29
 90
      184
 90
       28
 90
      185
 90
       27
 90
      186
 90
       26
 90
      187
 90
       25
 90
      188
 90
       24
 90
      189
 90
       23
 90
      190
 90
       22
 90
      191
 90
       21
 90
      192
 90
       20
 90
      193
 90
       19
 90
      194
 90
       18
 90
      195
 90
       17
 90
      196
 90
       16
 90
      197
 90
       15
 90
      198
 90
       14
 90
      199
 90
       43
 90
      200
 90
       42
 90
      201
 90
       41
 90
      202
 90
       40
 90
      203
 90
       39
 90
      204
 90
       38
 90
      205
 90
       37
 90
      206
 90
       36
 90
      207
 90
       35
 90
      208
 90
       34
 90
      209
 90
       33
 90
      210
 90
       56
 90
      211
 90
       55
 90
      212
 90
       54
 90
      213
 90
       53
 90
      214
 90
       52
 90
      215
 90
       51
 90
      216
 90
       50
 90
      217
 90
       49
 90
      218
 90
       48
 90
      219
 90
       47
 90
      220
 90
       46
 90
      221
 90
       45
 90
      222
 90
       44
 90
      223
 90
       57
 90
      225
 90
       58
 90
      224
 90
       61
 90
      226
 90
       60
 90
      227
 90
       59
 90
      228
 90
       64
 90
      229
 90
       63
 90
      230
 90
       62
 90
      231
 90
       71
 90
      232
 90
       70
 90
      330
 90
       69
 90
      328
 90
       68
 90
      326
 90
       67
 90
      324
 90
       66
 90
      322
 90
       65
 90
      234
 90
       75
 90
      233
 90
       74
 90
      235
 90
       73
 90
      236
 90
       72
 90
      237
 90
       76
 90
      238
 90
       79
 90
      239
 90
       78
 90
      240
 90
       77
 90
      241
 90
       80
 90
      243
 90
       82
 90
      242
 90
       81
 90
      166
 90
        0
 90
      167
 90
       83
 90
      245
 90
       84
 90
      244
 90
      165
 90
      319
 90
      164
 90
      320
 90
      163
 90
      318
 90
      162
 90
      317
 90
      161
 90
      316
 90
      160
 90
      315
 90
      159
 90
      314
 90
      158
 90
      313
 90
      157
 90
      312
 90
      152
 90
      310
 90
      151
 90
      311
 90
      150
 90
      321
 90
      153
 90
      323
 90
      154
 90
      325
 90
      155
 90
      327
 90
      156
 90
      329
 90
      149
 90
      309
 90
      148
 90
      308
 90
      147
 90
      307
 90
      146
 90
      306
 90
      145
 90
      305
 90
      144
 90
      304
 90
      143
 90
      303
 90
      141
 90
      301
 90
      142
 90
      302
 90
      140
 90
      300
 90
      139
 90
      299
 90
      138
 90
      298
 90
      137
 90
      297
 90
      136
 90
      296
 90
      135
 90
      295
 90
      134
 90
      294
 90
      133
 90
      293
 90
      132
 90
      292
 90
      131
 90
      291
 90
      130
 90
      290
 90
      129
 90
      289
 90
      128
 90
      288
 90
      127
 90
      287
 90
      126
 90
      286
 90
      125
 90
      285
 90
      124
 90
      284
 90
      123
 90
      283
 95
      660
140
0.0
140
0.0
140
0.0
140
0.0
140
0.0
140
0.0
140
0.0
140
0.0
140
0.0
140
0.0
140
0.0
140
0.0
140
0.0
140
0.0
140
0.0
140
0.0
140
0.0
140
0.0
140
0.0
140
0.0
140
0.0
140
0.0
140
0.0
140
0.0
140
0.0
140
0.0
140
0.0
140
0.0
140
0.0
140
0.0
140
0.0
140
0.0
140
0.0
140
0.0
140
0.0
140
0.0
140
0.0
140
0.0
140
0.0
140
0.0
140
0.0
140
0.0
140
0.0
140
0.0
140
0.0
140
0.0
140
0.0
140
0.0
140
0.0
140
0.0
140
0.0
140
0.0
140
0.0
140
0.0
140
0.0
140
0.0
140
0.0
140
0.0
140
0.0
140
0.0
140
0.0
140
0.0
140
0.0
140
0.0
140
0.0
140
0.0
140
0.0
140
0.0
140
0.0
140
0.0
140
0.0
140
0.0
140
0.0
140
0.0
140
0.0
140
0.0
140
0.0
140
0.0
140
0.0
140
0.0
140
0.0
140
0.0
140
0.0
140
0.0
140
0.0
140
0.0
140
0.0
140
0.0
140
0.0
140
0.0
140
0.0
140
0.0
140
0.0
140
0.0
140
0.0
140
0.0
140
0.0
140
0.0
140
0.0
140
0.0
140
0.0
140
0.0
140
0.0
140
0.0
140
0.0
140
0.0
140
0.0
140
0.0
140
0.0
140
0.0
140
0.0
140
0.0
140
0.0
140
0.0
140
0.0
140
0.0
140
0.0
140
0.0
140
0.0
140
0.0
140
0.0
140
0.0
140
0.0
140
0.0
140
0.0
140
0.0
140
0.0
140
0.0
140
0.0
140
0.0
140
0.0
140
0.0
140
0.0
140
0.0
140
0.0
140
0.0
140
0.0
140
0.0
140
0.0
140
0.0
140
0.0
140
0.0
140
0.0
140
0.0
140
0.0
140
0.0
140
0.0
140
0.0
140
0.0
140
0.0
140
0.0
140
0.0
140
0.0
140
0.0
140
0.0
140
0.0
140
0.0
140
0.0
140
0.0
140
0.0
140
0.0
140
0.0
140
0.0
140
0.0
140
0.0
140
0.0
140
0.0
140
0.0
140
0.0
140
0.0
140
0.0
140
0.0
140
0.0
140
0.0
140
0.0
140
0.0
140
0.0
140
0.0
140
0.0
140
0.0
140
0.0
140
0.0
140
0.0
140
0.0
140
0.0
140
0.0
140
0.0
140
0.0
140
0.0
140
0.0
140
0.0
140
0.0
140
0.0
140
0.0
140
0.0
140
0.0
140
0.0
140
0.0
140
0.0
140
0.0
140
0.0
140
0.0
140
0.0
140
0.0
140
0.0
140
0.0
140
0.0
140
0.0
140
0.0
140
0.0
140
0.0
140
0.0
140
0.0
140
0.0
140
0.0
140
0.0
140
0.0
140
0.0
140
0.0
140
0.0
140
0.0
140
0.0
140
0.0
140
0.0
140
0.0
140
0.0
140
0.0
140
0.0
140
0.0
140
0.0
140
0.0
140
0.0
140
0.0
140
0.0
140
0.0
140
0.0
140
0.0
140
0.0
140
0.0
140
0.0
140
0.0
140
0.0
140
0.0
140
0.0
140
0.0
140
0.0
140
0.0
140
0.0
140
0.0
140
0.0
140
0.0
140
0.0
140
0.0
140
0.0
140
0.0
140
0.0
140
0.0
140
0.0
140
0.0
140
0.0
140
0.0
140
0.0
140
0.0
140
0.0
140
0.0
140
0.0
140
0.0
140
0.0
140
0.0
140
0.0
140
0.0
140
0.0
140
0.0
140
0.0
140
0.0
140
0.0
140
0.0
140
0.0
140
0.0
140
0.0
140
0.0
140
0.0
140
0.0
140
0.0
140
0.0
140
0.0
140
0.0
140
0.0
140
0.0
140
0.0
140
0.0
140
0.0
140
0.0
140
0.0
140
0.0
140
0.0
140
0.0
140
0.0
140
0.0
140
0.0
140
0.0
140
0.0
140
0.0
140
0.0
140
0.0
140
0.0
140
0.0
140
0.0
140
0.0
140
0.0
140
0.0
140
0.0
140
0.0
140
0.0
140
0.0
140
0.0
140
0.0
140
0.0
140
0.0
140
0.0
140
0.0
140
0.0
140
0.0
140
0.0
140
0.0
140
0.0
140
0.0
140
0.0
140
0.0
140
0.0
140
0.0
140
0.0
140
0.0
140
0.0
140
0.0
140
0.0
140
0.0
140
0.0
140
0.0
140
0.0
140
0.0
140
0.0
140
0.0
140
0.0
140
0.0
140
0.0
140
0.0
140
0.0
140
0.0
140
0.0
140
0.0
140
0.0
140
0.0
140
0.0
140
0.0
140
0.0
140
0.0
140
0.0
140
0.0
140
0.0
140
0.0
140
0.0
140
0.0
140
0.0
140
0.0
140
0.0
140
0.0
140
0.0
140
0.0
140
0.0
140
0.0
140
0.0
140
0.0
140
0.0
140
0.0
140
0.0
140
0.0
140
0.0
140
0.0
140
0.0
140
0.0
140
0.0
140
0.0
140
0.0
140
0.0
140
0.0
140
0.0
140
0.0
140
0.0
140
0.0
140
0.0
140
0.0
140
0.0
140
0.0
140
0.0
140
0.0
140
0.0
140
0.0
140
0.0
140
0.0
140
0.0
140
0.0
140
0.0
140
0.0
140
0.0
140
0.0
140
0.0
140
0.0
140
0.0
140
0.0
140
0.0
140
0.0
140
0.0
140
0.0
140
0.0
140
0.0
140
0.0
140
0.0
140
0.0
140
0.0
140
0.0
140
0.0
140
0.0
140
0.0
140
0.0
140
0.0
140
0.0
140
0.0
140
0.0
140
0.0
140
0.0
140
0.0
140
0.0
140
0.0
140
0.0
140
0.0
140
0.0
140
0.0
140
0.0
140
0.0
140
0.0
140
0.0
140
0.0
140
0.0
140
0.0
140
0.0
140
0.0
140
0.0
140
0.0
140
0.0
140
0.0
140
0.0
140
0.0
140
0.0
140
0.0
140
0.0
140
0.0
140
0.0
140
0.0
140
0.0
140
0.0
140
0.0
140
0.0
140
0.0
140
0.0
140
0.0
140
0.0
140
0.0
140
0.0
140
0.0
140
0.0
140
0.0
140
0.0
140
0.0
140
0.0
140
0.0
140
0.0
140
0.0
140
0.0
140
0.0
140
0.0
140
0.0
140
0.0
140
0.0
140
0.0
140
0.0
140
0.0
140
0.0
140
0.0
140
0.0
140
0.0
140
0.0
140
0.0
140
0.0
140
0.0
140
0.0
140
0.0
140
0.0
140
0.0
140
0.0
140
0.0
140
0.0
140
0.0
140
0.0
140
0.0
140
0.0
140
0.0
140
0.0
140
0.0
140
0.0
140
0.0
140
0.0
140
0.0
140
0.0
140
0.0
140
0.0
140
0.0
140
0.0
140
0.0
140
0.0
140
0.0
140
0.0
140
0.0
140
0.0
140
0.0
140
0.0
140
0.0
140
0.0
140
0.0
140
0.0
140
0.0
140
0.0
140
0.0
140
0.0
140
0.0
140
0.0
140
0.0
140
0.0
140
0.0
140
0.0
140
0.0
140
0.0
140
0.0
140
0.0
140
0.0
140
0.0
140
0.0
140
0.0
140
0.0
140
0.0
140
0.0
140
0.0
140
0.0
140
0.0
140
0.0
140
0.0
140
0.0
140
0.0
140
0.0
140
0.0
140
0.0
140
0.0
140
0.0
140
0.0
140
0.0
140
0.0
140
0.0
140
0.0
140
0.0
140
0.0
140
0.0
140
0.0
140
0.0
140
0.0
140
0.0
140
0.0
140
0.0
140
0.0
140
0.0
140
0.0
140
0.0
140
0.0
140
0.0
140
0.0
140
0.0
140
0.0
140
0.0
140
0.0
140
0.0
140
0.0
140
0.0
140
0.0
140
0.0
140
0.0
140
0.0
140
0.0
140
0.0
140
0.0
140
0.0
140
0.0
140
0.0
140
0.0
140
0.0
140
0.0
140
0.0
140
0.0
140
0.0
140
0.0
140
0.0
140
0.0
140
0.0
140
0.0
140
0.0
140
0.0
140
0.0
140
0.0
140
0.0
140
0.0
140
0.0
140
0.0
140
0.0
140
0.0
140
0.0
140
0.0
140
0.0
140
0.0
140
0.0
140
0.0
140
0.0
140
0.0
140
0.0
140
0.0
140
0.0
140
0.0
140
0.0
140
0.0
140
0.0
140
0.0
140
0.0
140
0.0
140
0.0
140
0.0
140
0.0
140
0.0
140
0.0
140
0.0
140
0.0
140
0.0
140
0.0
140
0.0
140
0.0
140
0.0
140
0.0
140
0.0
140
0.0
140
0.0
140
0.0
140
0.0
140
0.0
140
0.0
 90
        0
  0
ENDSEC
  0
SECTION
  2
OBJECTS
  0
DICTIONARY
  5
C
330
0
100
AcDbDictionary
281
     1
  3
ACAD_COLOR
350
DC
  3
ACAD_DETAILVIEWSTYLE
350
F5
  3
ACAD_GROUP
350
D
  3
ACAD_LAYOUT
350
1A
  3
ACAD_MATERIAL
350
AA
  3
ACAD_MLEADERSTYLE
350
F1
  3
ACAD_MLINESTYLE
350
17
  3
ACAD_PLOTSETTINGS
350
19
  3
ACAD_PLOTSTYLENAME
350
E
  3
ACAD_SCALELIST
350
DF
  3
ACAD_SECTIONVIEWSTYLE
350
F3
  3
ACAD_TABLESTYLE
350
DD
  3
ACAD_VISUALSTYLE
350
C3
  3
ACDB_RECOMPOSE_DATA
350
106
  3
AcDbVariableDictionary
350
FA
  0
DICTIONARY
  5
DC
102
{ACAD_REACTORS
330
C
102
}
330
C
100
AcDbDictionary
281
     1
  0
DICTIONARY
  5
F5
102
{ACAD_REACTORS
330
C
102
}
330
C
100
AcDbDictionary
281
     1
  3
Imperial24
350
F6
  0
DICTIONARY
  5
D
102
{ACAD_REACTORS
330
C
102
}
330
C
100
AcDbDictionary
281
     1
  0
DICTIONARY
  5
1A
102
{ACAD_REACTORS
330
C
102
}
330
C
100
AcDbDictionary
281
     1
  3
Layout1
350
1E
  3
Layout2
350
26
  3
Model
350
22
  0
DICTIONARY
  5
AA
102
{ACAD_REACTORS
330
C
102
}
330
C
100
AcDbDictionary
281
     1
  3
ByBlock
350
B3
  3
ByLayer
350
AB
  3
Global
350
BB
  0
DICTIONARY
  5
F1
102
{ACAD_REACTORS
330
C
102
}
330
C
100
AcDbDictionary
281
     1
  3
Standard
350
F2
  0
DICTIONARY
  5
17
102
{ACAD_REACTORS
330
C
102
}
330
C
100
AcDbDictionary
281
     1
  3
Standard
350
18
  0
DICTIONARY
  5
19
102
{ACAD_REACTORS
330
C
102
}
330
C
100
AcDbDictionary
281
     1
  0
ACDBDICTIONARYWDFLT
  5
E
102
{ACAD_REACTORS
330
C
102
}
330
C
100
AcDbDictionary
281
     1
  3
ByLayer
350
2D
  3
Normal
350
F
100
AcDbDictionaryWithDefault
340
F
  0
DICTIONARY
  5
DF
102
{ACAD_REACTORS
330
C
102
}
330
C
100
AcDbDictionary
281
     1
  3
A0
350
E0
  3
A1
350
E1
  3
A2
350
E2
  3
A3
350
E3
  3
A4
350
E4
  3
A5
350
E5
  3
A6
350
E6
  3
A7
350
E7
  3
A8
350
E8
  3
A9
350
E9
  3
B0
350
EA
  3
B1
350
EB
  3
B2
350
EC
  3
B3
350
ED
  3
B4
350
EE
  3
B5
350
EF
  3
B6
350
F0
  0
DICTIONARY
  5
F3
102
{ACAD_REACTORS
330
C
102
}
330
C
100
AcDbDictionary
281
     1
  3
Imperial24
350
F4
  0
DICTIONARY
  5
DD
102
{ACAD_REACTORS
330
C
102
}
330
C
100
AcDbDictionary
281
     1
  3
Standard
350
DE
  0
DICTIONARY
  5
C3
102
{ACAD_REACTORS
330
C
102
}
330
C
100
AcDbDictionary
281
     1
  3
2dWireframe
350
C9
  3
Basic
350
C8
  3
Brighten
350
CF
  3
ColorChange
350
D3
  3
Conceptual
350
CC
  3
Dim
350
CE
  3
EdgeColorOff
350
DB
  3
Facepattern
350
D2
  3
Flat
350
C4
  3
FlatWithEdges
350
C5
  3
Gouraud
350
C6
  3
GouraudWithEdges
350
C7
  3
Hidden
350
CB
  3
JitterOff
350
D9
  3
Linepattern
350
D1
  3
OverhangOff
350
DA
  3
Realistic
350
CD
  3
Shaded
350
D8
  3
Shaded with edges
350
D7
  3
Shades of Gray
350
D4
  3
Sketchy
350
D5
  3
Thicken
350
D0
  3
Wireframe
350
CA
  3
X-Ray
350
D6
  0
XRECORD
  5
106
102
{ACAD_REACTORS
330
C
102
}
330
C
100
AcDbXrecord
280
     1
 90
        1
330
DE
  0
DICTIONARY
  5
FA
102
{ACAD_REACTORS
330
C
102
}
330
C
100
AcDbDictionary
281
     1
  3
CANNOSCALE
350
100
  3
CMLEADERSTYLE
350
FC
  3
CTABLESTYLE
350
FB
  3
CVIEWDETAILSTYLE
350
FD
  3
CVIEWSECTIONSTYLE
350
FE
  3
LAYEREVAL
350
102
  3
LAYERNOTIFY
350
103
  3
LIGHTINGUNITS
350
101
  3
MSLTSCALE
350
FF
  0
ACDBDETAILVIEWSTYLE
  5
F6
102
{ACAD_XDICTIONARY
360
13B
102
}
102
{ACAD_REACTORS
330
F5
102
}
330
F5
100
AcDbModelDocViewStyle
 70
     0
  3
Imperial24
290
     0
100
AcDbDetailViewStyle
 70
     0
 71
     0
 90
        3
 71
     1
340
11
 62
   256
 40
0.24
340
0
 62
   256
 40
0.24
300

 40
0.36
280
     3
 71
     2
340
16
 90
       25
 62
   256
 71
     3
340
11
 62
   256
 40
0.24
 90
        1
 40
0.75
 90
        1
300
%<\AcVar ViewType \f "%tc1">% %<\AcVar ViewDetailId>%\PSCALE %<\AcVar ViewScale \f "%sn">%
 71
     4
340
16
 90
       25
 62
   256
340
16
 90
       25
 62
   256
280
     0
  0
LAYOUT
  5
1E
102
{ACAD_REACTORS
330
1A
102
}
330
1A
100
AcDbPlotSettings
  1

  2
\\KTXNTBDC\CASF2PN1
  4

  6

 40
0.0
 41
0.0
 42
0.0
 43
0.0
 44
0.0
 45
0.0
 46
0.0
 47
0.0
 48
0.0
 49
0.0
140
0.0
141
0.0
142
1.0
143
1.0
 70
   688
 72
     0
 73
     0
 74
     5
  7

 75
    16
147
1.0
 76
     0
 77
     2
 78
   300
148
0.0
149
0.0
100
AcDbLayout
  1
Layout1
 70
     1
 71
     1
 10
0.0
 20
0.0
 11
12.0
 21
9.0
 12
0.0
 22
0.0
 32
0.0
 14
1.000000000000000E+20
 24
1.000000000000000E+20
 34
1.000000000000000E+20
 15
-1.000000000000000E+20
 25
-1.000000000000000E+20
 35
-1.000000000000000E+20
146
0.0
 13
0.0
 23
0.0
 33
0.0
 16
1.0
 26
0.0
 36
0.0
 17
0.0
 27
1.0
 37
0.0
 76
     0
330
1B
  0
LAYOUT
  5
26
102
{ACAD_REACTORS
330
1A
102
}
330
1A
100
AcDbPlotSettings
  1

  2
\\KTXNTBDC\CASF2PN1
  4

  6

 40
0.0
 41
0.0
 42
0.0
 43
0.0
 44
0.0
 45
0.0
 46
0.0
 47
0.0
 48
0.0
 49
0.0
140
0.0
141
0.0
142
1.0
143
1.0
 70
   688
 72
     0
 73
     0
 74
     5
  7

 75
    16
147
1.0
 76
     0
 77
     2
 78
   300
148
0.0
149
0.0
100
AcDbLayout
  1
Layout2
 70
     1
 71
     2
 10
0.0
 20
0.0
 11
12.0
 21
9.0
 12
0.0
 22
0.0
 32
0.0
 14
0.0
 24
0.0
 34
0.0
 15
0.0
 25
0.0
 35
0.0
146
0.0
 13
0.0
 23
0.0
 33
0.0
 16
1.0
 26
0.0
 36
0.0
 17
0.0
 27
1.0
 37
0.0
 76
     0
330
23
  0
LAYOUT
  5
22
102
{ACAD_REACTORS
330
1A
102
}
330
1A
100
AcDbPlotSettings
  1

  2
\\KTXNTBDC\CASF2PN1
  4

  6

 40
0.0
 41
0.0
 42
0.0
 43
0.0
 44
0.0
 45
0.0
 46
0.0
 47
0.0
 48
0.0
 49
0.0
140
0.0
141
0.0
142
1.0
143
1.0
 70
  1712
 72
     0
 73
     0
 74
     0
  7

 75
     0
147
1.0
 76
     0
 77
     2
 78
   300
148
0.0
149
0.0
100
AcDbLayout
  1
Model
 70
     1
 71
     0
 10
0.0
 20
0.0
 11
12.0
 21
9.0
 12
0.0
 22
0.0
 32
0.0
 14
0.0
 24
0.0
 34
0.0
 15
0.0
 25
0.0
 35
0.0
146
0.0
 13
0.0
 23
0.0
 33
0.0
 16
1.0
 26
0.0
 36
0.0
 17
0.0
 27
1.0
 37
0.0
 76
     0
330
1F
  0
MATERIAL
  5
B3
102
{ACAD_XDICTIONARY
360
B4
102
}
102
{ACAD_REACTORS
330
AA
102
}
330
AA
100
AcDbMaterial
  1
ByBlock
 72
     0
 43
0.0208333333333333
 43
0.0
 43
0.0
 43
0.0
 43
0.0
 43
0.0208333333333333
 43
0.0
 43
0.0
 43
0.0
 43
0.0
 43
1.0
 43
0.0
 43
0.0
 43
0.0
 43
0.0
 43
1.0
 77
     0
 47
0.0208333333333333
 47
0.0
 47
0.0
 47
0.0
 47
0.0
 47
0.0208333333333333
 47
0.0
 47
0.0
 47
0.0
 47
0.0
 47
1.0
 47
0.0
 47
0.0
 47
0.0
 47
0.0
 47
1.0
171
     0
 49
0.0208333333333333
 49
0.0
 49
0.0
 49
0.0
 49
0.0
 49
0.0208333333333333
 49
0.0
 49
0.0
 49
0.0
 49
0.0
 49
1.0
 49
0.0
 49
0.0
 49
0.0
 49
0.0
 49
1.0
175
     0
142
0.0208333333333333
142
0.0
142
0.0
142
0.0
142
0.0
142
0.0208333333333333
142
0.0
142
0.0
142
0.0
142
0.0
142
1.0
142
0.0
142
0.0
142
0.0
142
0.0
142
1.0
179
     0
144
0.0208333333333333
144
0.0
144
0.0
144
0.0
144
0.0
144
0.0208333333333333
144
0.0
144
0.0
144
0.0
144
0.0
144
1.0
144
0.0
144
0.0
144
0.0
144
0.0
144
1.0
147
0.0208333333333333
147
0.0
147
0.0
147
0.0
147
0.0
147
0.0208333333333333
147
0.0
147
0.0
147
0.0
147
0.0
147
1.0
147
0.0
147
0.0
147
0.0
147
0.0
147
1.0
  0
MATERIAL
  5
AB
102
{ACAD_XDICTIONARY
360
AC
102
}
102
{ACAD_REACTORS
330
AA
102
}
330
AA
100
AcDbMaterial
  1
ByLayer
 72
     0
 43
0.0208333333333333
 43
0.0
 43
0.0
 43
0.0
 43
0.0
 43
0.0208333333333333
 43
0.0
 43
0.0
 43
0.0
 43
0.0
 43
1.0
 43
0.0
 43
0.0
 43
0.0
 43
0.0
 43
1.0
 77
     0
 47
0.0208333333333333
 47
0.0
 47
0.0
 47
0.0
 47
0.0
 47
0.0208333333333333
 47
0.0
 47
0.0
 47
0.0
 47
0.0
 47
1.0
 47
0.0
 47
0.0
 47
0.0
 47
0.0
 47
1.0
171
     0
 49
0.0208333333333333
 49
0.0
 49
0.0
 49
0.0
 49
0.0
 49
0.0208333333333333
 49
0.0
 49
0.0
 49
0.0
 49
0.0
 49
1.0
 49
0.0
 49
0.0
 49
0.0
 49
0.0
 49
1.0
175
     0
142
0.0208333333333333
142
0.0
142
0.0
142
0.0
142
0.0
142
0.0208333333333333
142
0.0
142
0.0
142
0.0
142
0.0
142
1.0
142
0.0
142
0.0
142
0.0
142
0.0
142
1.0
179
     0
144
0.0208333333333333
144
0.0
144
0.0
144
0.0
144
0.0
144
0.0208333333333333
144
0.0
144
0.0
144
0.0
144
0.0
144
1.0
144
0.0
144
0.0
144
0.0
144
0.0
144
1.0
147
0.0208333333333333
147
0.0
147
0.0
147
0.0
147
0.0
147
0.0208333333333333
147
0.0
147
0.0
147
0.0
147
0.0
147
1.0
147
0.0
147
0.0
147
0.0
147
0.0
147
1.0
  0
MATERIAL
  5
BB
102
{ACAD_XDICTIONARY
360
BC
102
}
102
{ACAD_REACTORS
330
AA
102
}
330
AA
100
AcDbMaterial
  1
Global
 72
     0
 43
0.0208333333333333
 43
0.0
 43
0.0
 43
0.0
 43
0.0
 43
0.0208333333333333
 43
0.0
 43
0.0
 43
0.0
 43
0.0
 43
1.0
 43
0.0
 43
0.0
 43
0.0
 43
0.0
 43
1.0
 77
     0
 47
0.0208333333333333
 47
0.0
 47
0.0
 47
0.0
 47
0.0
 47
0.0208333333333333
 47
0.0
 47
0.0
 47
0.0
 47
0.0
 47
1.0
 47
0.0
 47
0.0
 47
0.0
 47
0.0
 47
1.0
171
     0
 49
0.0208333333333333
 49
0.0
 49
0.0
 49
0.0
 49
0.0
 49
0.0208333333333333
 49
0.0
 49
0.0
 49
0.0
 49
0.0
 49
1.0
 49
0.0
 49
0.0
 49
0.0
 49
0.0
 49
1.0
175
     0
142
0.0208333333333333
142
0.0
142
0.0
142
0.0
142
0.0
142
0.0208333333333333
142
0.0
142
0.0
142
0.0
142
0.0
142
1.0
142
0.0
142
0.0
142
0.0
142
0.0
142
1.0
179
     0
144
0.0208333333333333
144
0.0
144
0.0
144
0.0
144
0.0
144
0.0208333333333333
144
0.0
144
0.0
144
0.0
144
0.0
144
1.0
144
0.0
144
0.0
144
0.0
144
0.0
144
1.0
147
0.0208333333333333
147
0.0
147
0.0
147
0.0
147
0.0
147
0.0208333333333333
147
0.0
147
0.0
147
0.0
147
0.0
147
1.0
147
0.0
147
0.0
147
0.0
147
0.0
147
1.0
  0
MLEADERSTYLE
  5
F2
102
{ACAD_XDICTIONARY
360
137
102
}
102
{ACAD_REACTORS
330
F1
102
}
330
F1
100
AcDbMLeaderStyle
179
     2
170
     2
171
     1
172
     0
 90
        2
 40
0.0
 41
0.0
173
     1
 91
-1056964608
340
14
 92
       -2
290
     1
 42
0.09
291
     1
 43
0.36
  3
Standard
 44
0.18
300

342
11
174
     1
178
     6
175
     1
176
     0
 93
-1056964608
 45
0.18
292
     0
297
     0
 46
0.18
 94
-1056964608
 47
1.0
 49
1.0
140
1.0
293
     1
141
0.0
294
     1
177
     0
142
1.0
295
     0
296
     0
143
0.125
271
     0
272
     9
273
     9
  0
MLINESTYLE
  5
18
102
{ACAD_REACTORS
330
17
102
}
330
17
100
AcDbMlineStyle
  2
STANDARD
 70
     0
  3

 62
   256
 51
90.0
 52
90.0
 71
     2
 49
0.5
 62
   256
  6
BYLAYER
 49
-0.5
 62
   256
  6
BYLAYER
  0
ACDBPLACEHOLDER
  5
2D
102
{ACAD_REACTORS
330
E
102
}
330
E
  0
ACDBPLACEHOLDER
  5
F
102
{ACAD_REACTORS
330
E
102
}
330
E
  0
SCALE
  5
E0
102
{ACAD_REACTORS
330
DF
102
}
330
DF
100
AcDbScale
 70
     0
300
1:1
140
1.0
141
1.0
290
     1
  0
SCALE
  5
E1
102
{ACAD_REACTORS
330
DF
102
}
330
DF
100
AcDbScale
 70
     0
300
1/128" = 1'-0"
140
0.0078125
141
12.0
290
     0
  0
SCALE
  5
E2
102
{ACAD_REACTORS
330
DF
102
}
330
DF
100
AcDbScale
 70
     0
300
1/64" = 1'-0"
140
0.015625
141
12.0
290
     0
  0
SCALE
  5
E3
102
{ACAD_REACTORS
330
DF
102
}
330
DF
100
AcDbScale
 70
     0
300
1/32" = 1'-0"
140
0.03125
141
12.0
290
     0
  0
SCALE
  5
E4
102
{ACAD_REACTORS
330
DF
102
}
330
DF
100
AcDbScale
 70
     0
300
1/16" = 1'-0"
140
0.0625
141
12.0
290
     0
  0
SCALE
  5
E5
102
{ACAD_REACTORS
330
DF
102
}
330
DF
100
AcDbScale
 70
     0
300
3/32" = 1'-0"
140
0.09375
141
12.0
290
     0
  0
SCALE
  5
E6
102
{ACAD_REACTORS
330
DF
102
}
330
DF
100
AcDbScale
 70
     0
300
1/8" = 1'-0"
140
0.125
141
12.0
290
     0
  0
SCALE
  5
E7
102
{ACAD_REACTORS
330
DF
102
}
330
DF
100
AcDbScale
 70
     0
300
3/16" = 1'-0"
140
0.1875
141
12.0
290
     0
  0
SCALE
  5
E8
102
{ACAD_REACTORS
330
DF
102
}
330
DF
100
AcDbScale
 70
     0
300
1/4" = 1'-0"
140
0.25
141
12.0
290
     0
  0
SCALE
  5
E9
102
{ACAD_REACTORS
330
DF
102
}
330
DF
100
AcDbScale
 70
     0
300
3/8" = 1'-0"
140
0.375
141
12.0
290
     0
  0
SCALE
  5
EA
102
{ACAD_REACTORS
330
DF
102
}
330
DF
100
AcDbScale
 70
     0
300
1/2" = 1'-0"
140
0.5
141
12.0
290
     0
  0
SCALE
  5
EB
102
{ACAD_REACTORS
330
DF
102
}
330
DF
100
AcDbScale
 70
     0
300
3/4" = 1'-0"
140
0.75
141
12.0
290
     0
  0
SCALE
  5
EC
102
{ACAD_REACTORS
330
DF
102
}
330
DF
100
AcDbScale
 70
     0
300
1" = 1'-0"
140
1.0
141
12.0
290
     0
  0
SCALE
  5
ED
102
{ACAD_REACTORS
330
DF
102
}
330
DF
100
AcDbScale
 70
     0
300
1-1/2" = 1'-0"
140
1.5
141
12.0
290
     0
  0
SCALE
  5
EE
102
{ACAD_REACTORS
330
DF
102
}
330
DF
100
AcDbScale
 70
     0
300
3" = 1'-0"
140
3.0
141
12.0
290
     0
  0
SCALE
  5
EF
102
{ACAD_REACTORS
330
DF
102
}
330
DF
100
AcDbScale
 70
     0
300
6" = 1'-0"
140
6.0
141
12.0
290
     0
  0
SCALE
  5
F0
102
{ACAD_REACTORS
330
DF
102
}
330
DF
100
AcDbScale
 70
     0
300
1'-0" = 1'-0"
140
12.0
141
12.0
290
     0
  0
ACDBSECTIONVIEWSTYLE
  5
F4
102
{ACAD_XDICTIONARY
360
139
102
}
102
{ACAD_REACTORS
330
F3
102
}
330
F3
100
AcDbModelDocViewStyle
 70
     0
  3
Imperial24
290
     0
100
AcDbSectionViewStyle
 70
     0
 71
     0
 90
       78
 71
     1
340
11
 62
   256
 40
0.24
340
0
340
0
 62
   256
 40
0.24
300
I, O, Q, S, X, Z
 40
0.48
 90
        3
 40
0.18
 90
        1
 71
     2
340
16
 90
       25
 62
   256
340
16
 90
       50
 62
   256
 40
0.24
 40
0.0
 40
0.24
 71
     3
340
11
 62
   256
 40
0.24
 90
        1
 40
0.75
 90
        1
300
%<\AcVar ViewType \f "%tc1">% %<\AcVar ViewSectionStartId>%-%<\AcVar ViewSectionEndId>%\PSCALE %<\AcVar ViewScale \f "%sn">%
 71
     4
 62
   256
 62
   257
300
ANSI31
 40
1.0
 90
        0
290
     0
290
     0
 90
        6
 40
0.0
 40
1.570796326794896
 40
0.2617993877991494
 40
1.308996938995747
 40
-0.2617993877991494
 40
1.832595714594046
  0
TABLESTYLE
  5
DE
102
{ACAD_XDICTIONARY
360
104
102
}
102
{ACAD_REACTORS
330
DD
102
}
330
DD
100
AcDbTableStyle
280
     0
  3
Standard
 70
     0
 71
     0
 40
0.06
 41
0.06
280
     0
281
     0
  7
Standard
140
0.18
170
     2
 62
     0
 63
     7
283
     0
 90
      512
 91
        0
  1

274
    -2
284
     1
 64
     0
275
    -2
285
     1
 65
     0
276
    -2
286
     1
 66
     0
277
    -2
287
     1
 67
     0
278
    -2
288
     1
 68
     0
279
    -2
289
     1
 69
     0
  7
Standard
140
0.25
170
     5
 62
     0
 63
     7
283
     0
 90
      512
 91
        0
  1

274
    -2
284
     1
 64
     0
275
    -2
285
     1
 65
     0
276
    -2
286
     1
 66
     0
277
    -2
287
     1
 67
     0
278
    -2
288
     1
 68
     0
279
    -2
289
     1
 69
     0
  7
Standard
140
0.18
170
     5
 62
     0
 63
     7
283
     0
 90
      512
 91
        0
  1

274
    -2
284
     1
 64
     0
275
    -2
285
     1
 65
     0
276
    -2
286
     1
 66
     0
277
    -2
287
     1
 67
     0
278
    -2
288
     1
 68
     0
279
    -2
289
     1
 69
     0
  0
VISUALSTYLE
  5
C9
102
{ACAD_XDICTIONARY
360
111
102
}
102
{ACAD_REACTORS
330
C3
102
}
330
C3
100
AcDbVisualStyle
  2
2dWireframe
 70
     4
177
     2
291
     0
 71
     0
176
     1
 72
     2
176
     1
 73
     0
176
     1
 90
        0
176
     1
 40
0.6
176
     1
 41
30.0
176
     1
 63
     7
421
 16777215
176
     1
 74
     1
176
     1
 91
        4
176
     1
 64
     7
176
     1
 65
   257
176
     1
 75
     1
176
     1
175
     1
176
     1
 42
1.0
176
     1
 92
        0
176
     1
 66
   257
176
     1
 43
1.0
176
     1
 76
     1
176
     1
 77
     6
176
     1
 78
     2
176
     1
 67
     7
176
     1
 79
     5
176
     1
170
     0
176
     1
171
     0
176
     1
290
     0
176
     1
 93
        1
176
     1
 44
0.0
176
     1
173
     0
176
     1
1001
ACAD
1000
AcDbSavedByObjectVersion
1070
     0
  0
VISUALSTYLE
  5
C8
102
{ACAD_XDICTIONARY
360
10F
102
}
102
{ACAD_REACTORS
330
C3
102
}
330
C3
100
AcDbVisualStyle
  2
Basic
 70
     7
177
     2
291
     1
 71
     1
176
     1
 72
     0
176
     1
 73
     1
176
     1
 90
        0
176
     1
 40
0.6
176
     1
 41
30.0
176
     1
 63
     7
421
 16777215
176
     1
 74
     0
176
     1
 91
        4
176
     1
 64
     7
176
     1
 65
   257
176
     1
 75
     1
176
     1
175
     1
176
     1
 42
1.0
176
     1
 92
        8
176
     1
 66
     7
176
     1
 43
1.0
176
     1
 76
     1
176
     1
 77
     6
176
     1
 78
     2
176
     1
 67
     7
176
     1
 79
     5
176
     1
170
     0
176
     1
171
     0
176
     1
290
     0
176
     1
 93
        1
176
     1
 44
0.0
176
     1
173
     0
176
     1
1001
ACAD
1000
AcDbSavedByObjectVersion
1070
     0
  0
VISUALSTYLE
  5
CF
102
{ACAD_XDICTIONARY
360
11D
102
}
102
{ACAD_REACTORS
330
C3
102
}
330
C3
100
AcDbVisualStyle
  2
Brighten
 70
    12
177
     2
291
     1
 71
     2
176
     1
 72
     2
176
     1
 73
     0
176
     1
 90
        0
176
     1
 40
0.6
176
     1
 41
30.0
176
     1
 63
     7
421
 16777215
176
     1
 74
     1
176
     1
 91
        4
176
     1
 64
     7
176
     1
 65
   257
176
     1
 75
     1
176
     1
175
     1
176
     1
 42
1.0
176
     1
 92
        8
176
     1
 66
     7
176
     1
 43
1.0
176
     1
 76
     1
176
     1
 77
     6
176
     1
 78
     2
176
     1
 67
     7
176
     1
 79
     5
176
     1
170
     0
176
     1
171
     0
176
     1
290
     0
176
     1
 93
        1
176
     1
 44
50.0
176
     1
173
     0
176
     1
1001
ACAD
1000
AcDbSavedByObjectVersion
1070
     0
  0
VISUALSTYLE
  5
D3
102
{ACAD_XDICTIONARY
360
125
102
}
102
{ACAD_REACTORS
330
C3
102
}
330
C3
100
AcDbVisualStyle
  2
ColorChange
 70
    16
177
     2
291
     1
 71
     2
176
     1
 72
     2
176
     1
 73
     3
176
     1
 90
        0
176
     1
 40
0.6
176
     1
 41
30.0
176
     1
 63
     8
421
  8421504
176
     1
 74
     1
176
     1
 91
        4
176
     1
 64
     7
176
     1
 65
   257
176
     1
 75
     1
176
     1
175
     1
176
     1
 42
1.0
176
     1
 92
        8
176
     1
 66
     8
424
  8421504
176
     1
 43
1.0
176
     1
 76
     1
176
     1
 77
     6
176
     1
 78
     2
176
     1
 67
     7
176
     1
 79
     5
176
     1
170
     0
176
     1
171
     0
176
     1
290
     0
176
     1
 93
        1
176
     1
 44
0.0
176
     1
173
     0
176
     1
1001
ACAD
1000
AcDbSavedByObjectVersion
1070
     0
  0
VISUALSTYLE
  5
CC
102
{ACAD_XDICTIONARY
360
117
102
}
102
{ACAD_REACTORS
330
C3
102
}
330
C3
100
AcDbVisualStyle
  2
Conceptual
 70
     9
177
     2
291
     0
 71
     3
176
     1
 72
     2
176
     1
 73
     0
176
     1
 90
        0
176
     1
 40
0.6
176
     1
 41
30.0
176
     1
 63
     7
421
 16777215
176
     1
 74
     2
176
     1
 91
        2
176
     1
 64
     7
176
     1
 65
   257
176
     1
 75
     1
176
     1
175
     1
176
     1
 42
179.0
176
     1
 92
        8
176
     1
 66
     7
176
     1
 43
1.0
176
     1
 76
     1
176
     1
 77
     6
176
     1
 78
     2
176
     1
 67
     7
176
     1
 79
     3
176
     1
170
     0
176
     1
171
     0
176
     1
290
     0
176
     1
 93
        1
176
     1
 44
0.0
176
     1
173
     0
176
     1
1001
ACAD
1000
AcDbSavedByObjectVersion
1070
     0
  0
VISUALSTYLE
  5
CE
102
{ACAD_XDICTIONARY
360
11B
102
}
102
{ACAD_REACTORS
330
C3
102
}
330
C3
100
AcDbVisualStyle
  2
Dim
 70
    11
177
     2
291
     1
 71
     2
176
     1
 72
     2
176
     1
 73
     0
176
     1
 90
        0
176
     1
 40
0.6
176
     1
 41
30.0
176
     1
 63
     7
421
 16777215
176
     1
 74
     1
176
     1
 91
        4
176
     1
 64
     7
176
     1
 65
   257
176
     1
 75
     1
176
     1
175
     1
176
     1
 42
1.0
176
     1
 92
        8
176
     1
 66
     7
176
     1
 43
1.0
176
     1
 76
     1
176
     1
 77
     6
176
     1
 78
     2
176
     1
 67
     7
176
     1
 79
     5
176
     1
170
     0
176
     1
171
     0
176
     1
290
     0
176
     1
 93
        1
176
     1
 44
-50.0
176
     1
173
     0
176
     1
1001
ACAD
1000
AcDbSavedByObjectVersion
1070
     0
  0
VISUALSTYLE
  5
DB
102
{ACAD_XDICTIONARY
360
135
102
}
102
{ACAD_REACTORS
330
C3
102
}
330
C3
100
AcDbVisualStyle
  2
EdgeColorOff
 70
    22
177
     2
291
     1
 71
     2
176
     0
 72
     2
176
     0
 73
     0
176
     0
 90
        0
176
     0
 40
0.6
176
     0
 41
30.0
176
     0
 63
     7
421
 16777215
176
     0
 74
     1
176
     0
 91
        4
176
     0
 64
     7
176
     0
 65
   257
176
     0
 75
     1
176
     0
175
     1
176
     0
 42
1.0
176
     0
 92
        8
176
     2
 66
     7
176
     0
 43
1.0
176
     0
 76
     1
176
     0
 77
     6
176
     0
 78
     2
176
     0
 67
     7
176
     0
 79
     5
176
     0
170
     0
176
     0
171
     0
176
     0
290
     0
176
     0
 93
        1
176
     0
 44
0.0
176
     0
173
     0
176
     0
1001
ACAD
1000
AcDbSavedByObjectVersion
1070
     0
  0
VISUALSTYLE
  5
D2
102
{ACAD_XDICTIONARY
360
123
102
}
102
{ACAD_REACTORS
330
C3
102
}
330
C3
100
AcDbVisualStyle
  2
Facepattern
 70
    15
177
     2
291
     1
 71
     2
176
     1
 72
     2
176
     1
 73
     0
176
     1
 90
        0
176
     1
 40
0.6
176
     1
 41
30.0
176
     1
 63
     7
421
 16777215
176
     1
 74
     1
176
     1
 91
        4
176
     1
 64
     7
176
     1
 65
   257
176
     1
 75
     1
176
     1
175
     1
176
     1
 42
1.0
176
     1
 92
        8
176
     1
 66
     7
176
     1
 43
1.0
176
     1
 76
     1
176
     1
 77
     6
176
     1
 78
     2
176
     1
 67
     7
176
     1
 79
     5
176
     1
170
     0
176
     1
171
     0
176
     1
290
     0
176
     1
 93
        1
176
     1
 44
0.0
176
     1
173
     0
176
     1
1001
ACAD
1000
AcDbSavedByObjectVersion
1070
     0
  0
VISUALSTYLE
  5
C4
102
{ACAD_XDICTIONARY
360
107
102
}
102
{ACAD_REACTORS
330
C3
102
}
330
C3
100
AcDbVisualStyle
  2
Flat
 70
     0
177
     2
291
     1
 71
     2
176
     1
 72
     1
176
     1
 73
     1
176
     1
 90
        2
176
     1
 40
0.6
176
     1
 41
30.0
176
     1
 63
     7
421
 16777215
176
     1
 74
     0
176
     1
 91
        0
176
     1
 64
     7
176
     1
 65
   257
176
     1
 75
     1
176
     1
175
     1
176
     1
 42
1.0
176
     1
 92
        8
176
     1
 66
     7
176
     1
 43
1.0
176
     1
 76
     1
176
     1
 77
     6
176
     1
 78
     2
176
     1
 67
     7
176
     1
 79
     5
176
     1
170
     0
176
     1
171
     0
176
     1
290
     0
176
     1
 93
       13
176
     1
 44
0.0
176
     1
173
     0
176
     1
1001
ACAD
1000
AcDbSavedByObjectVersion
1070
     0
  0
VISUALSTYLE
  5
C5
102
{ACAD_XDICTIONARY
360
109
102
}
102
{ACAD_REACTORS
330
C3
102
}
330
C3
100
AcDbVisualStyle
  2
FlatWithEdges
 70
     1
177
     2
291
     1
 71
     2
176
     1
 72
     1
176
     1
 73
     1
176
     1
 90
        2
176
     1
 40
0.6
176
     1
 41
30.0
176
     1
 63
     7
421
 16777215
176
     1
 74
     1
176
     1
 91
        0
176
     1
 64
     7
176
     1
 65
   257
176
     1
 75
     1
176
     1
175
     1
176
     1
 42
1.0
176
     1
 92
        0
176
     1
 66
   257
176
     1
 43
1.0
176
     1
 76
     1
176
     1
 77
     6
176
     1
 78
     2
176
     1
 67
     7
176
     1
 79
     5
176
     1
170
     0
176
     1
171
     0
176
     1
290
     0
176
     1
 93
       13
176
     1
 44
0.0
176
     1
173
     0
176
     1
1001
ACAD
1000
AcDbSavedByObjectVersion
1070
     0
  0
VISUALSTYLE
  5
C6
102
{ACAD_XDICTIONARY
360
10B
102
}
102
{ACAD_REACTORS
330
C3
102
}
330
C3
100
AcDbVisualStyle
  2
Gouraud
 70
     2
177
     2
291
     1
 71
     2
176
     1
 72
     2
176
     1
 73
     1
176
     1
 90
        2
176
     1
 40
0.6
176
     1
 41
30.0
176
     1
 63
     7
421
 16777215
176
     1
 74
     0
176
     1
 91
        0
176
     1
 64
     7
176
     1
 65
   257
176
     1
 75
     1
176
     1
175
     1
176
     1
 42
1.0
176
     1
 92
        0
176
     1
 66
     7
176
     1
 43
1.0
176
     1
 76
     1
176
     1
 77
     6
176
     1
 78
     2
176
     1
 67
     7
176
     1
 79
     5
176
     1
170
     0
176
     1
171
     0
176
     1
290
     0
176
     1
 93
       13
176
     1
 44
0.0
176
     1
173
     0
176
     1
1001
ACAD
1000
AcDbSavedByObjectVersion
1070
     0
  0
VISUALSTYLE
  5
C7
102
{ACAD_XDICTIONARY
360
10D
102
}
102
{ACAD_REACTORS
330
C3
102
}
330
C3
100
AcDbVisualStyle
  2
GouraudWithEdges
 70
     3
177
     2
291
     1
 71
     2
176
     1
 72
     2
176
     1
 73
     1
176
     1
 90
        2
176
     1
 40
0.6
176
     1
 41
30.0
176
     1
 63
     7
421
 16777215
176
     1
 74
     1
176
     1
 91
        0
176
     1
 64
     7
176
     1
 65
   257
176
     1
 75
     1
176
     1
175
     1
176
     1
 42
1.0
176
     1
 92
        0
176
     1
 66
   257
176
     1
 43
1.0
176
     1
 76
     1
176
     1
 77
     6
176
     1
 78
     2
176
     1
 67
     7
176
     1
 79
     5
176
     1
170
     0
176
     1
171
     0
176
     1
290
     0
176
     1
 93
       13
176
     1
 44
0.0
176
     1
173
     0
176
     1
1001
ACAD
1000
AcDbSavedByObjectVersion
1070
     0
  0
VISUALSTYLE
  5
CB
102
{ACAD_XDICTIONARY
360
115
102
}
102
{ACAD_REACTORS
330
C3
102
}
330
C3
100
AcDbVisualStyle
  2
Hidden
 70
     6
177
     2
291
     0
 71
     1
176
     1
 72
     2
176
     1
 73
     2
176
     1
 90
        0
176
     1
 40
0.6
176
     1
 41
30.0
176
     1
 63
     7
421
 16777215
176
     1
 74
     2
176
     1
 91
        2
176
     1
 64
     7
176
     1
 65
   257
176
     1
 75
     2
176
     1
175
     1
176
     1
 42
40.0
176
     1
 92
        0
176
     1
 66
   257
176
     1
 43
1.0
176
     1
 76
     1
176
     1
 77
     6
176
     1
 78
     2
176
     1
 67
     7
176
     1
 79
     3
176
     1
170
     0
176
     1
171
     0
176
     1
290
     0
176
     1
 93
        1
176
     1
 44
0.0
176
     1
173
     0
176
     1
1001
ACAD
1000
AcDbSavedByObjectVersion
1070
     0
  0
VISUALSTYLE
  5
D9
102
{ACAD_XDICTIONARY
360
131
102
}
102
{ACAD_REACTORS
330
C3
102
}
330
C3
100
AcDbVisualStyle
  2
JitterOff
 70
    20
177
     2
291
     1
 71
     2
176
     0
 72
     2
176
     0
 73
     0
176
     0
 90
        0
176
     0
 40
0.6
176
     0
 41
30.0
176
     0
 63
     7
421
 16777215
176
     0
 74
     1
176
     0
 91
        4
176
     0
 64
     7
176
     0
 65
   257
176
     0
 75
     1
176
     0
175
     1
176
     0
 42
1.0
176
     0
 92
       10
176
     2
 66
     7
176
     0
 43
1.0
176
     0
 76
     1
176
     0
 77
     6
176
     0
 78
     2
176
     0
 67
     7
176
     0
 79
     5
176
     0
170
     0
176
     0
171
     0
176
     0
290
     0
176
     0
 93
        1
176
     0
 44
0.0
176
     0
173
     0
176
     0
1001
ACAD
1000
AcDbSavedByObjectVersion
1070
     0
  0
VISUALSTYLE
  5
D1
102
{ACAD_XDICTIONARY
360
121
102
}
102
{ACAD_REACTORS
330
C3
102
}
330
C3
100
AcDbVisualStyle
  2
Linepattern
 70
    14
177
     2
291
     1
 71
     2
176
     1
 72
     2
176
     1
 73
     0
176
     1
 90
        0
176
     1
 40
0.6
176
     1
 41
30.0
176
     1
 63
     7
421
 16777215
176
     1
 74
     1
176
     1
 91
        4
176
     1
 64
     7
176
     1
 65
   257
176
     1
 75
     7
176
     1
175
     7
176
     1
 42
1.0
176
     1
 92
        8
176
     1
 66
     7
176
     1
 43
1.0
176
     1
 76
     1
176
     1
 77
     6
176
     1
 78
     2
176
     1
 67
     7
176
     1
 79
     5
176
     1
170
     0
176
     1
171
     0
176
     1
290
     0
176
     1
 93
        1
176
     1
 44
0.0
176
     1
173
     0
176
     1
1001
ACAD
1000
AcDbSavedByObjectVersion
1070
     0
  0
VISUALSTYLE
  5
DA
102
{ACAD_XDICTIONARY
360
133
102
}
102
{ACAD_REACTORS
330
C3
102
}
330
C3
100
AcDbVisualStyle
  2
OverhangOff
 70
    21
177
     2
291
     1
 71
     2
176
     0
 72
     2
176
     0
 73
     0
176
     0
 90
        0
176
     0
 40
0.6
176
     0
 41
30.0
176
     0
 63
     7
421
 16777215
176
     0
 74
     1
176
     0
 91
        4
176
     0
 64
     7
176
     0
 65
   257
176
     0
 75
     1
176
     0
175
     1
176
     0
 42
1.0
176
     0
 92
        9
176
     2
 66
     7
176
     0
 43
1.0
176
     0
 76
     1
176
     0
 77
     6
176
     0
 78
     2
176
     0
 67
     7
176
     0
 79
     5
176
     0
170
     0
176
     0
171
     0
176
     0
290
     0
176
     0
 93
        1
176
     0
 44
0.0
176
     0
173
     0
176
     0
1001
ACAD
1000
AcDbSavedByObjectVersion
1070
     0
  0
VISUALSTYLE
  5
CD
102
{ACAD_XDICTIONARY
360
119
102
}
102
{ACAD_REACTORS
330
C3
102
}
330
C3
100
AcDbVisualStyle
  2
Realistic
 70
     8
177
     2
291
     0
 71
     2
176
     1
 72
     3
176
     1
 73
     0
176
     1
 90
        2
176
     1
 40
0.6
176
     1
 41
30.0
176
     1
 63
     7
421
 16777215
176
     1
 74
     0
176
     1
 91
        0
176
     1
 64
     7
176
     1
 65
   257
176
     1
 75
     1
176
     1
175
     1
176
     1
 42
1.0
176
     1
 92
        8
176
     1
 66
   257
176
     1
 43
1.0
176
     1
 76
     1
176
     1
 77
     6
176
     1
 78
     2
176
     1
 67
     7
176
     1
 79
     3
176
     1
170
     0
176
     1
171
     0
176
     1
290
     0
176
     1
 93
       13
176
     1
 44
0.0
176
     1
173
     0
176
     1
1001
ACAD
1000
AcDbSavedByObjectVersion
1070
     0
  0
VISUALSTYLE
  5
D8
102
{ACAD_XDICTIONARY
360
12F
102
}
102
{ACAD_REACTORS
330
C3
102
}
330
C3
100
AcDbVisualStyle
  2
Shaded
 70
    27
177
     2
291
     0
 71
     2
176
     1
 72
     2
176
     1
 73
     1
176
     1
 90
        2
176
     1
 40
0.6
176
     1
 41
30.0
176
     1
 63
     7
421
 16777215
176
     1
 74
     0
176
     1
 91
        4
176
     1
 64
     7
176
     1
 65
   257
176
     1
 75
     1
176
     1
175
     1
176
     1
 42
1.0
176
     1
 92
        8
176
     1
 66
   257
176
     1
 43
1.0
176
     1
 76
     1
176
     1
 77
     6
176
     1
 78
     2
176
     1
 67
     8
425
  7895160
176
     1
 79
     3
176
     1
170
     0
176
     1
171
     0
176
     1
290
     0
176
     1
 93
        5
176
     1
 44
0.0
176
     1
173
     0
176
     1
1001
ACAD
1000
AcDbSavedByObjectVersion
1070
     0
  0
VISUALSTYLE
  5
D7
102
{ACAD_XDICTIONARY
360
12D
102
}
102
{ACAD_REACTORS
330
C3
102
}
330
C3
100
AcDbVisualStyle
  2
Shaded with edges
 70
    26
177
     2
291
     0
 71
     2
176
     1
 72
     2
176
     1
 73
     1
176
     1
 90
        2
176
     1
 40
0.6
176
     1
 41
30.0
176
     1
 63
     7
421
 16777215
176
     1
 74
     1
176
     1
 91
       10
176
     1
 64
     7
176
     1
 65
   257
176
     1
 75
     2
176
     1
175
     1
176
     1
 42
1.0
176
     1
 92
        8
176
     1
 66
   257
176
     1
 43
1.0
176
     1
 76
     1
176
     1
 77
     6
176
     1
 78
     2
176
     1
 67
     7
176
     1
 79
     3
176
     1
170
     0
176
     1
171
     0
176
     1
290
     0
176
     1
 93
        5
176
     1
 44
0.0
176
     1
173
     0
176
     1
1001
ACAD
1000
AcDbSavedByObjectVersion
1070
     0
  0
VISUALSTYLE
  5
D4
102
{ACAD_XDICTIONARY
360
127
102
}
102
{ACAD_REACTORS
330
C3
102
}
330
C3
100
AcDbVisualStyle
  2
Shades of Gray
 70
    23
177
     2
291
     0
 71
     2
176
     1
 72
     2
176
     1
 73
     3
176
     1
 90
        0
176
     1
 40
0.6
176
     1
 41
30.0
176
     1
 63
     7
421
 16777215
176
     1
 74
     2
176
     1
 91
        2
176
     1
 64
     7
176
     1
 65
     7
176
     1
 75
     1
176
     1
175
     1
176
     1
 42
40.0
176
     1
 92
        8
176
     1
 66
     7
176
     1
 43
1.0
176
     1
 76
     1
176
     1
 77
     6
176
     1
 78
     2
176
     1
 67
     7
176
     1
 79
     3
176
     1
170
     0
176
     1
171
     0
176
     1
290
     0
176
     1
 93
        1
176
     1
 44
0.0
176
     1
173
     0
176
     1
1001
ACAD
1000
AcDbSavedByObjectVersion
1070
     0
  0
VISUALSTYLE
  5
D5
102
{ACAD_XDICTIONARY
360
129
102
}
102
{ACAD_REACTORS
330
C3
102
}
330
C3
100
AcDbVisualStyle
  2
Sketchy
 70
    24
177
     2
291
     0
 71
     1
176
     1
 72
     2
176
     1
 73
     2
176
     1
 90
        0
176
     1
 40
0.6
176
     1
 41
30.0
176
     1
 63
     7
421
 16777215
176
     1
 74
     2
176
     1
 91
        2
176
     1
 64
     7
176
     1
 65
     7
176
     1
 75
     1
176
     1
175
     1
176
     1
 42
40.0
176
     1
 92
       11
176
     1
 66
     7
176
     1
 43
1.0
176
     1
 76
     1
176
     1
 77
     6
176
     1
 78
     2
176
     1
 67
     7
176
     1
 79
     6
176
     1
170
     0
176
     1
171
     0
176
     1
290
     0
176
     1
 93
        1
176
     1
 44
0.0
176
     1
173
     0
176
     1
1001
ACAD
1000
AcDbSavedByObjectVersion
1070
     0
  0
VISUALSTYLE
  5
D0
102
{ACAD_XDICTIONARY
360
11F
102
}
102
{ACAD_REACTORS
330
C3
102
}
330
C3
100
AcDbVisualStyle
  2
Thicken
 70
    13
177
     2
291
     1
 71
     2
176
     1
 72
     2
176
     1
 73
     0
176
     1
 90
        0
176
     1
 40
0.6
176
     1
 41
30.0
176
     1
 63
     7
421
 16777215
176
     1
 74
     1
176
     1
 91
        4
176
     1
 64
     7
176
     1
 65
   257
176
     1
 75
     1
176
     1
175
     1
176
     1
 42
1.0
176
     1
 92
       12
176
     1
 66
     7
176
     1
 43
1.0
176
     1
 76
     1
176
     1
 77
     6
176
     1
 78
     2
176
     1
 67
     7
176
     1
 79
     5
176
     1
170
     0
176
     1
171
     0
176
     1
290
     0
176
     1
 93
        1
176
     1
 44
0.0
176
     1
173
     0
176
     1
1001
ACAD
1000
AcDbSavedByObjectVersion
1070
     0
  0
VISUALSTYLE
  5
CA
102
{ACAD_XDICTIONARY
360
113
102
}
102
{ACAD_REACTORS
330
C3
102
}
330
C3
100
AcDbVisualStyle
  2
Wireframe
 70
     5
177
     2
291
     0
 71
     0
176
     1
 72
     2
176
     1
 73
     0
176
     1
 90
        0
176
     1
 40
0.6
176
     1
 41
30.0
176
     1
 63
     7
421
 16777215
176
     1
 74
     1
176
     1
 91
        4
176
     1
 64
     7
176
     1
 65
   257
176
     1
 75
     1
176
     1
175
     1
176
     1
 42
1.0
176
     1
 92
        0
176
     1
 66
   257
176
     1
 43
1.0
176
     1
 76
     1
176
     1
 77
     6
176
     1
 78
     2
176
     1
 67
     7
176
     1
 79
     3
176
     1
170
     0
176
     1
171
     0
176
     1
290
     0
176
     1
 93
        1
176
     1
 44
0.0
176
     1
173
     0
176
     1
1001
ACAD
1000
AcDbSavedByObjectVersion
1070
     0
  0
VISUALSTYLE
  5
D6
102
{ACAD_XDICTIONARY
360
12B
102
}
102
{ACAD_REACTORS
330
C3
102
}
330
C3
100
AcDbVisualStyle
  2
X-Ray
 70
    25
177
     2
291
     0
 71
     2
176
     1
 72
     2
176
     1
 73
     1
176
     1
 90
        1
176
     1
 40
0.5
176
     1
 41
30.0
176
     1
 63
     7
421
 16777215
176
     1
 74
     1
176
     1
 91
        0
176
     1
 64
     7
176
     1
 65
   257
176
     1
 75
     1
176
     1
175
     1
176
     1
 42
1.0
176
     1
 92
        8
176
     1
 66
     7
176
     1
 43
1.0
176
     1
 76
     1
176
     1
 77
     6
176
     1
 78
     2
176
     1
 67
     7
176
     1
 79
     3
176
     1
170
     0
176
     1
171
     0
176
     1
290
     0
176
     1
 93
       13
176
     1
 44
0.0
176
     1
173
     0
176
     1
1001
ACAD
1000
AcDbSavedByObjectVersion
1070
     0
  0
DICTIONARYVAR
  5
100
102
{ACAD_REACTORS
330
FA
102
}
330
FA
100
DictionaryVariables
280
     0
  1
1:1
  0
DICTIONARYVAR
  5
FC
102
{ACAD_REACTORS
330
FA
102
}
330
FA
100
DictionaryVariables
280
     0
  1
STANDARD
  0
DICTIONARYVAR
  5
FB
102
{ACAD_REACTORS
330
FA
102
}
330
FA
100
DictionaryVariables
280
     0
  1
STANDARD
  0
DICTIONARYVAR
  5
FD
102
{ACAD_REACTORS
330
FA
102
}
330
FA
100
DictionaryVariables
280
     0
  1
Imperial24
  0
DICTIONARYVAR
  5
FE
102
{ACAD_REACTORS
330
FA
102
}
330
FA
100
DictionaryVariables
280
     0
  1
Imperial24
  0
DICTIONARYVAR
  5
102
102
{ACAD_REACTORS
330
FA
102
}
330
FA
100
DictionaryVariables
280
     0
  1
1
  0
DICTIONARYVAR
  5
103
102
{ACAD_REACTORS
330
FA
102
}
330
FA
100
DictionaryVariables
280
     0
  1
15
  0
DICTIONARYVAR
  5
101
102
{ACAD_REACTORS
330
FA
102
}
330
FA
100
DictionaryVariables
280
     0
  1
0
  0
DICTIONARYVAR
  5
FF
102
{ACAD_REACTORS
330
FA
102
}
330
FA
100
DictionaryVariables
280
     0
  1
0
  0
DICTIONARY
  5
13B
330
F6
100
AcDbDictionary
280
     1
281
     1
  3
ACAD_XREC_ROUNDTRIP
360
13C
  0
DICTIONARY
  5
B4
330
B3
100
AcDbDictionary
280
     1
281
     1
  3
BUMPTILE
360
B6
  3
DIFFUSETILE
360
B5
  3
OPACITYTILE
360
B9
  3
REFLECTIONTILE
360
B8
  3
REFRACTIONTILE
360
BA
  3
SPECULARTILE
360
B7
  0
DICTIONARY
  5
AC
330
AB
100
AcDbDictionary
280
     1
281
     1
  3
BUMPTILE
360
AE
  3
DIFFUSETILE
360
AD
  3
OPACITYTILE
360
B1
  3
REFLECTIONTILE
360
B0
  3
REFRACTIONTILE
360
B2
  3
SPECULARTILE
360
AF
  0
DICTIONARY
  5
BC
330
BB
100
AcDbDictionary
280
     1
281
     1
  3
BUMPTILE
360
BE
  3
DIFFUSETILE
360
BD
  3
OPACITYTILE
360
C1
  3
REFLECTIONTILE
360
C0
  3
REFRACTIONTILE
360
C2
  3
SPECULARTILE
360
BF
  0
DICTIONARY
  5
137
330
F2
100
AcDbDictionary
280
     1
281
     1
  3
ACAD_XREC_ROUNDTRIP
360
138
  0
DICTIONARY
  5
139
330
F4
100
AcDbDictionary
280
     1
281
     1
  3
ACAD_XREC_ROUNDTRIP
360
13A
  0
DICTIONARY
  5
104
330
DE
100
AcDbDictionary
280
     1
281
     1
  3
ACAD_ROUNDTRIP_2008_TABLESTYLE_CELLSTYLEMAP
360
105
  0
DICTIONARY
  5
111
330
C9
100
AcDbDictionary
280
     1
281
     1
  3
ACAD_XREC_ROUNDTRIP
360
112
  0
DICTIONARY
  5
10F
330
C8
100
AcDbDictionary
280
     1
281
     1
  3
ACAD_XREC_ROUNDTRIP
360
110
  0
DICTIONARY
  5
11D
330
CF
100
AcDbDictionary
280
     1
281
     1
  3
ACAD_XREC_ROUNDTRIP
360
11E
  0
DICTIONARY
  5
125
330
D3
100
AcDbDictionary
280
     1
281
     1
  3
ACAD_XREC_ROUNDTRIP
360
126
  0
DICTIONARY
  5
117
330
CC
100
AcDbDictionary
280
     1
281
     1
  3
ACAD_XREC_ROUNDTRIP
360
118
  0
DICTIONARY
  5
11B
330
CE
100
AcDbDictionary
280
     1
281
     1
  3
ACAD_XREC_ROUNDTRIP
360
11C
  0
DICTIONARY
  5
135
330
DB
100
AcDbDictionary
280
     1
281
     1
  3
ACAD_XREC_ROUNDTRIP
360
136
  0
DICTIONARY
  5
123
330
D2
100
AcDbDictionary
280
     1
281
     1
  3
ACAD_XREC_ROUNDTRIP
360
124
  0
DICTIONARY
  5
107
330
C4
100
AcDbDictionary
280
     1
281
     1
  3
ACAD_XREC_ROUNDTRIP
360
108
  0
DICTIONARY
  5
109
330
C5
100
AcDbDictionary
280
     1
281
     1
  3
ACAD_XREC_ROUNDTRIP
360
10A
  0
DICTIONARY
  5
10B
330
C6
100
AcDbDictionary
280
     1
281
     1
  3
ACAD_XREC_ROUNDTRIP
360
10C
  0
DICTIONARY
  5
10D
330
C7
100
AcDbDictionary
280
     1
281
     1
  3
ACAD_XREC_ROUNDTRIP
360
10E
  0
DICTIONARY
  5
115
330
CB
100
AcDbDictionary
280
     1
281
     1
  3
ACAD_XREC_ROUNDTRIP
360
116
  0
DICTIONARY
  5
131
330
D9
100
AcDbDictionary
280
     1
281
     1
  3
ACAD_XREC_ROUNDTRIP
360
132
  0
DICTIONARY
  5
121
330
D1
100
AcDbDictionary
280
     1
281
     1
  3
ACAD_XREC_ROUNDTRIP
360
122
  0
DICTIONARY
  5
133
330
DA
100
AcDbDictionary
280
     1
281
     1
  3
ACAD_XREC_ROUNDTRIP
360
134
  0
DICTIONARY
  5
119
330
CD
100
AcDbDictionary
280
     1
281
     1
  3
ACAD_XREC_ROUNDTRIP
360
11A
  0
DICTIONARY
  5
12F
330
D8
100
AcDbDictionary
280
     1
281
     1
  3
ACAD_XREC_ROUNDTRIP
360
130
  0
DICTIONARY
  5
12D
330
D7
100
AcDbDictionary
280
     1
281
     1
  3
ACAD_XREC_ROUNDTRIP
360
12E
  0
DICTIONARY
  5
127
330
D4
100
AcDbDictionary
280
     1
281
     1
  3
ACAD_XREC_ROUNDTRIP
360
128
  0
DICTIONARY
  5
129
330
D5
100
AcDbDictionary
280
     1
281
     1
  3
ACAD_XREC_ROUNDTRIP
360
12A
  0
DICTIONARY
  5
11F
330
D0
100
AcDbDictionary
280
     1
281
     1
  3
ACAD_XREC_ROUNDTRIP
360
120
  0
DICTIONARY
  5
113
330
CA
100
AcDbDictionary
280
     1
281
     1
  3
ACAD_XREC_ROUNDTRIP
360
114
  0
DICTIONARY
  5
12B
330
D6
100
AcDbDictionary
280
     1
281
     1
  3
ACAD_XREC_ROUNDTRIP
360
12C
  0
XRECORD
  5
13C
102
{ACAD_REACTORS
330
13B
102
}
330
13B
100
AcDbXrecord
280
     1
102
DISPLAYNAME
  1
Imperial24
102
FLAGS
 90
        0
  0
XRECORD
  5
B6
102
{ACAD_REACTORS
330
B4
102
}
330
B4
100
AcDbXrecord
280
     1
270
     1
271
     1
  0
XRECORD
  5
B5
102
{ACAD_REACTORS
330
B4
102
}
330
B4
100
AcDbXrecord
280
     1
270
     1
271
     1
  0
XRECORD
  5
B9
102
{ACAD_REACTORS
330
B4
102
}
330
B4
100
AcDbXrecord
280
     1
270
     1
271
     1
  0
XRECORD
  5
B8
102
{ACAD_REACTORS
330
B4
102
}
330
B4
100
AcDbXrecord
280
     1
270
     1
271
     1
  0
XRECORD
  5
BA
102
{ACAD_REACTORS
330
B4
102
}
330
B4
100
AcDbXrecord
280
     1
270
     1
271
     1
  0
XRECORD
  5
B7
102
{ACAD_REACTORS
330
B4
102
}
330
B4
100
AcDbXrecord
280
     1
270
     1
271
     1
  0
XRECORD
  5
AE
102
{ACAD_REACTORS
330
AC
102
}
330
AC
100
AcDbXrecord
280
     1
270
     1
271
     1
  0
XRECORD
  5
AD
102
{ACAD_REACTORS
330
AC
102
}
330
AC
100
AcDbXrecord
280
     1
270
     1
271
     1
  0
XRECORD
  5
B1
102
{ACAD_REACTORS
330
AC
102
}
330
AC
100
AcDbXrecord
280
     1
270
     1
271
     1
  0
XRECORD
  5
B0
102
{ACAD_REACTORS
330
AC
102
}
330
AC
100
AcDbXrecord
280
     1
270
     1
271
     1
  0
XRECORD
  5
B2
102
{ACAD_REACTORS
330
AC
102
}
330
AC
100
AcDbXrecord
280
     1
270
     1
271
     1
  0
XRECORD
  5
AF
102
{ACAD_REACTORS
330
AC
102
}
330
AC
100
AcDbXrecord
280
     1
270
     1
271
     1
  0
XRECORD
  5
BE
102
{ACAD_REACTORS
330
BC
102
}
330
BC
100
AcDbXrecord
280
     1
270
     1
271
     1
  0
XRECORD
  5
BD
102
{ACAD_REACTORS
330
BC
102
}
330
BC
100
AcDbXrecord
280
     1
270
     1
271
     1
  0
XRECORD
  5
C1
102
{ACAD_REACTORS
330
BC
102
}
330
BC
100
AcDbXrecord
280
     1
270
     1
271
     1
  0
XRECORD
  5
C0
102
{ACAD_REACTORS
330
BC
102
}
330
BC
100
AcDbXrecord
280
     1
270
     1
271
     1
  0
XRECORD
  5
C2
102
{ACAD_REACTORS
330
BC
102
}
330
BC
100
AcDbXrecord
280
     1
270
     1
271
     1
  0
XRECORD
  5
BF
102
{ACAD_REACTORS
330
BC
102
}
330
BC
100
AcDbXrecord
280
     1
270
     1
271
     1
  0
XRECORD
  5
138
102
{ACAD_REACTORS
330
137
102
}
330
137
100
AcDbXrecord
280
     1
102
ACAD_ROUNDTRIP_2012_MLEADER_STYLE
298
     1
  0
XRECORD
  5
13A
102
{ACAD_REACTORS
330
139
102
}
330
139
100
AcDbXrecord
280
     1
102
DISPLAYNAME
  1
Imperial24
102
FLAGS
 90
        0
  0
CELLSTYLEMAP
  5
105
102
{ACAD_REACTORS
330
104
102
}
330
104
100
AcDbCellStyleMap
 90
        3
300
CELLSTYLE
  1
TABLEFORMAT_BEGIN
 90
        5
170
     1
 91
        0
 92
    32768
 62
   257
 93
        1
300
CONTENTFORMAT
  1
CONTENTFORMAT_BEGIN
 90
        0
 91
        0
 92
      512
 93
        0
300

 40
0.0
140
1.0
 94
        5
 62
     0
340
11
144
0.25
309
CONTENTFORMAT_END
171
     0
 94
        0
309
TABLEFORMAT_END
  1
CELLSTYLE_BEGIN
 90
        1
 91
        1
300
_TITLE
309
CELLSTYLE_END
300
CELLSTYLE
  1
TABLEFORMAT_BEGIN
 90
        5
170
     1
 91
        0
 92
        0
 62
   257
 93
        1
300
CONTENTFORMAT
  1
CONTENTFORMAT_BEGIN
 90
        0
 91
        0
 92
      512
 93
        0
300

 40
0.0
140
1.0
 94
        5
 62
     0
340
11
144
0.18
309
CONTENTFORMAT_END
171
     0
 94
        0
309
TABLEFORMAT_END
  1
CELLSTYLE_BEGIN
 90
        2
 91
        1
300
_HEADER
309
CELLSTYLE_END
300
CELLSTYLE
  1
TABLEFORMAT_BEGIN
 90
        5
170
     1
 91
        0
 92
        0
 62
   257
 93
        1
300
CONTENTFORMAT
  1
CONTENTFORMAT_BEGIN
 90
        0
 91
        0
 92
      512
 93
        0
300

 40
0.0
140
1.0
 94
        2
 62
     0
340
11
144
0.18
309
CONTENTFORMAT_END
171
     0
 94
        0
309
TABLEFORMAT_END
  1
CELLSTYLE_BEGIN
 90
        3
 91
        2
300
_DATA
309
CELLSTYLE_END
  0
XRECORD
  5
112
102
{ACAD_REACTORS
330
111
102
}
330
111
100
AcDbXrecord
280
     1
102
RTVSPost2010Prop28
280
     1
102
RTVSPost2010PropOp28
 70
     1
102
RTVSPost2010Prop29
280
     1
102
RTVSPost2010PropOp29
 70
     1
102
RTVSPost2010Prop30
280
     0
102
RTVSPost2010PropOp30
 70
     1
102
RTVSPost2010Prop31
280
     0
102
RTVSPost2010PropOp31
 70
     1
102
RTVSPost2010Prop32
280
     0
102
RTVSPost2010PropOp32
 70
     1
102
RTVSPost2010Prop33
280
     0
102
RTVSPost2010PropOp33
 70
     1
102
RTVSPost2010Prop34
280
     0
102
RTVSPost2010PropOp34
 70
     1
102
RTVSPost2010Prop35
280
     0
102
RTVSPost2010PropOp35
 70
     1
102
RTVSPost2010Prop36
280
     0
102
RTVSPost2010PropOp36
 70
     1
102
RTVSPost2010Prop37
 90
       50
102
RTVSPost2010PropOp37
 70
     1
102
RTVSPost2010Prop38
140
0.0
102
RTVSPost2010PropOp38
 70
     1
102
RTVSPost2010Prop39
140
1.0
102
RTVSPost2010PropOp39
 70
     1
102
RTVSPost2010Prop40
 90
        0
102
RTVSPost2010PropOp40
 70
     1
102
RTVSPost2010Prop41ColorIndex
 90
       18
102
RTVSPost2010Prop41ColorRGB
 90
        0
102
RTVSPost2010PropOp41
 70
     1
102
RTVSPost2010Prop42
 90
       50
102
RTVSPost2010PropOp42
 70
     1
102
RTVSPost2010Prop43
 90
        3
102
RTVSPost2010PropOp43
 70
     1
102
RTVSPost2010Prop44ColorIndex
 90
        5
102
RTVSPost2010Prop44ColorRGB
 90
      255
102
RTVSPost2010PropOp44
 70
     1
102
RTVSPost2010Prop45
280
     0
102
RTVSPost2010PropOp45
 70
     1
102
RTVSPost2010Prop46
 90
       50
102
RTVSPost2010PropOp46
 70
     1
102
RTVSPost2010Prop47
 90
       50
102
RTVSPost2010PropOp47
 70
     1
102
RTVSPost2010Prop48
 90
       50
102
RTVSPost2010PropOp48
 70
     1
102
RTVSPost2010Prop49
280
     0
102
RTVSPost2010PropOp49
 70
     1
102
RTVSPost2010Prop50
 90
       50
102
RTVSPost2010PropOp50
 70
     1
102
RTVSPost2010Prop51ColorIndex
 90
      256
102
RTVSPost2010Prop51ColorRGB
 90
-16777216
102
RTVSPost2010PropOp51
 70
     0
102
RTVSPost2010Prop52
140
1.0
102
RTVSPost2010PropOp52
 70
     0
102
RTVSPost2010Prop53
 90
        2
102
RTVSPost2010PropOp53
 70
     1
102
RTVSPost2010Prop54
  1
strokes_ogs.tif
102
RTVSPost2010PropOp54
 70
     1
102
RTVSPost2010Prop55
280
     0
102
RTVSPost2010PropOp55
 70
     1
102
RTVSPost2010Prop56
140
1.0
102
RTVSPost2010PropOp56
 70
     1
102
RTVSPost2010Prop57
140
1.0
102
RTVSPost2010PropOp57
 70
     1
  0
XRECORD
  5
110
102
{ACAD_REACTORS
330
10F
102
}
330
10F
100
AcDbXrecord
280
     1
102
RTVSPost2010Prop28
280
     0
102
RTVSPost2010PropOp28
 70
     1
102
RTVSPost2010Prop29
280
     1
102
RTVSPost2010PropOp29
 70
     1
102
RTVSPost2010Prop30
280
     1
102
RTVSPost2010PropOp30
 70
     1
102
RTVSPost2010Prop31
280
     0
102
RTVSPost2010PropOp31
 70
     1
102
RTVSPost2010Prop32
280
     0
102
RTVSPost2010PropOp32
 70
     1
102
RTVSPost2010Prop33
280
     0
102
RTVSPost2010PropOp33
 70
     1
102
RTVSPost2010Prop34
280
     0
102
RTVSPost2010PropOp34
 70
     1
102
RTVSPost2010Prop35
280
     0
102
RTVSPost2010PropOp35
 70
     1
102
RTVSPost2010Prop36
280
     0
102
RTVSPost2010PropOp36
 70
     1
102
RTVSPost2010Prop37
 90
       50
102
RTVSPost2010PropOp37
 70
     1
102
RTVSPost2010Prop38
140
0.0
102
RTVSPost2010PropOp38
 70
     1
102
RTVSPost2010Prop39
140
1.0
102
RTVSPost2010PropOp39
 70
     1
102
RTVSPost2010Prop40
 90
        0
102
RTVSPost2010PropOp40
 70
     1
102
RTVSPost2010Prop41ColorIndex
 90
       18
102
RTVSPost2010Prop41ColorRGB
 90
        0
102
RTVSPost2010PropOp41
 70
     1
102
RTVSPost2010Prop42
 90
       50
102
RTVSPost2010PropOp42
 70
     1
102
RTVSPost2010Prop43
 90
        3
102
RTVSPost2010PropOp43
 70
     1
102
RTVSPost2010Prop44ColorIndex
 90
        5
102
RTVSPost2010Prop44ColorRGB
 90
      255
102
RTVSPost2010PropOp44
 70
     1
102
RTVSPost2010Prop45
280
     0
102
RTVSPost2010PropOp45
 70
     1
102
RTVSPost2010Prop46
 90
       50
102
RTVSPost2010PropOp46
 70
     1
102
RTVSPost2010Prop47
 90
       50
102
RTVSPost2010PropOp47
 70
     1
102
RTVSPost2010Prop48
 90
       50
102
RTVSPost2010PropOp48
 70
     1
102
RTVSPost2010Prop49
280
     0
102
RTVSPost2010PropOp49
 70
     1
102
RTVSPost2010Prop50
 90
       50
102
RTVSPost2010PropOp50
 70
     1
102
RTVSPost2010Prop51ColorIndex
 90
      256
102
RTVSPost2010Prop51ColorRGB
 90
-16777216
102
RTVSPost2010PropOp51
 70
     0
102
RTVSPost2010Prop52
140
1.0
102
RTVSPost2010PropOp52
 70
     0
102
RTVSPost2010Prop53
 90
        2
102
RTVSPost2010PropOp53
 70
     1
102
RTVSPost2010Prop54
  1
strokes_ogs.tif
102
RTVSPost2010PropOp54
 70
     1
102
RTVSPost2010Prop55
280
     0
102
RTVSPost2010PropOp55
 70
     1
102
RTVSPost2010Prop56
140
1.0
102
RTVSPost2010PropOp56
 70
     1
102
RTVSPost2010Prop57
140
1.0
102
RTVSPost2010PropOp57
 70
     1
  0
XRECORD
  5
11E
102
{ACAD_REACTORS
330
11D
102
}
330
11D
100
AcDbXrecord
280
     1
102
RTVSPost2010Prop28
280
     0
102
RTVSPost2010PropOp28
 70
     1
102
RTVSPost2010Prop29
280
     1
102
RTVSPost2010PropOp29
 70
     1
102
RTVSPost2010Prop30
280
     1
102
RTVSPost2010PropOp30
 70
     1
102
RTVSPost2010Prop31
280
     0
102
RTVSPost2010PropOp31
 70
     1
102
RTVSPost2010Prop32
280
     0
102
RTVSPost2010PropOp32
 70
     1
102
RTVSPost2010Prop33
280
     0
102
RTVSPost2010PropOp33
 70
     1
102
RTVSPost2010Prop34
280
     0
102
RTVSPost2010PropOp34
 70
     1
102
RTVSPost2010Prop35
280
     0
102
RTVSPost2010PropOp35
 70
     1
102
RTVSPost2010Prop36
280
     0
102
RTVSPost2010PropOp36
 70
     1
102
RTVSPost2010Prop37
 90
       50
102
RTVSPost2010PropOp37
 70
     1
102
RTVSPost2010Prop38
140
0.0
102
RTVSPost2010PropOp38
 70
     1
102
RTVSPost2010Prop39
140
1.0
102
RTVSPost2010PropOp39
 70
     1
102
RTVSPost2010Prop40
 90
        0
102
RTVSPost2010PropOp40
 70
     1
102
RTVSPost2010Prop41ColorIndex
 90
       18
102
RTVSPost2010Prop41ColorRGB
 90
        0
102
RTVSPost2010PropOp41
 70
     1
102
RTVSPost2010Prop42
 90
       50
102
RTVSPost2010PropOp42
 70
     1
102
RTVSPost2010Prop43
 90
        3
102
RTVSPost2010PropOp43
 70
     1
102
RTVSPost2010Prop44ColorIndex
 90
        5
102
RTVSPost2010Prop44ColorRGB
 90
      255
102
RTVSPost2010PropOp44
 70
     1
102
RTVSPost2010Prop45
280
     0
102
RTVSPost2010PropOp45
 70
     1
102
RTVSPost2010Prop46
 90
       50
102
RTVSPost2010PropOp46
 70
     1
102
RTVSPost2010Prop47
 90
       50
102
RTVSPost2010PropOp47
 70
     1
102
RTVSPost2010Prop48
 90
       50
102
RTVSPost2010PropOp48
 70
     1
102
RTVSPost2010Prop49
280
     0
102
RTVSPost2010PropOp49
 70
     1
102
RTVSPost2010Prop50
 90
       50
102
RTVSPost2010PropOp50
 70
     1
102
RTVSPost2010Prop51ColorIndex
 90
      256
102
RTVSPost2010Prop51ColorRGB
 90
-16777216
102
RTVSPost2010PropOp51
 70
     0
102
RTVSPost2010Prop52
140
1.0
102
RTVSPost2010PropOp52
 70
     0
102
RTVSPost2010Prop53
 90
        2
102
RTVSPost2010PropOp53
 70
     1
102
RTVSPost2010Prop54
  1
strokes_ogs.tif
102
RTVSPost2010PropOp54
 70
     1
102
RTVSPost2010Prop55
280
     0
102
RTVSPost2010PropOp55
 70
     1
102
RTVSPost2010Prop56
140
1.0
102
RTVSPost2010PropOp56
 70
     1
102
RTVSPost2010Prop57
140
1.0
102
RTVSPost2010PropOp57
 70
     1
  0
XRECORD
  5
126
102
{ACAD_REACTORS
330
125
102
}
330
125
100
AcDbXrecord
280
     1
102
RTVSPost2010Prop28
280
     0
102
RTVSPost2010PropOp28
 70
     1
102
RTVSPost2010Prop29
280
     1
102
RTVSPost2010PropOp29
 70
     1
102
RTVSPost2010Prop30
280
     1
102
RTVSPost2010PropOp30
 70
     1
102
RTVSPost2010Prop31
280
     0
102
RTVSPost2010PropOp31
 70
     1
102
RTVSPost2010Prop32
280
     0
102
RTVSPost2010PropOp32
 70
     1
102
RTVSPost2010Prop33
280
     0
102
RTVSPost2010PropOp33
 70
     1
102
RTVSPost2010Prop34
280
     0
102
RTVSPost2010PropOp34
 70
     1
102
RTVSPost2010Prop35
280
     0
102
RTVSPost2010PropOp35
 70
     1
102
RTVSPost2010Prop36
280
     0
102
RTVSPost2010PropOp36
 70
     1
102
RTVSPost2010Prop37
 90
       50
102
RTVSPost2010PropOp37
 70
     1
102
RTVSPost2010Prop38
140
0.0
102
RTVSPost2010PropOp38
 70
     1
102
RTVSPost2010Prop39
140
1.0
102
RTVSPost2010PropOp39
 70
     1
102
RTVSPost2010Prop40
 90
        0
102
RTVSPost2010PropOp40
 70
     1
102
RTVSPost2010Prop41ColorIndex
 90
       18
102
RTVSPost2010Prop41ColorRGB
 90
        0
102
RTVSPost2010PropOp41
 70
     1
102
RTVSPost2010Prop42
 90
       50
102
RTVSPost2010PropOp42
 70
     1
102
RTVSPost2010Prop43
 90
        3
102
RTVSPost2010PropOp43
 70
     1
102
RTVSPost2010Prop44ColorIndex
 90
        5
102
RTVSPost2010Prop44ColorRGB
 90
      255
102
RTVSPost2010PropOp44
 70
     1
102
RTVSPost2010Prop45
280
     0
102
RTVSPost2010PropOp45
 70
     1
102
RTVSPost2010Prop46
 90
       50
102
RTVSPost2010PropOp46
 70
     1
102
RTVSPost2010Prop47
 90
       50
102
RTVSPost2010PropOp47
 70
     1
102
RTVSPost2010Prop48
 90
       50
102
RTVSPost2010PropOp48
 70
     1
102
RTVSPost2010Prop49
280
     0
102
RTVSPost2010PropOp49
 70
     1
102
RTVSPost2010Prop50
 90
       50
102
RTVSPost2010PropOp50
 70
     1
102
RTVSPost2010Prop51ColorIndex
 90
      256
102
RTVSPost2010Prop51ColorRGB
 90
-16777216
102
RTVSPost2010PropOp51
 70
     0
102
RTVSPost2010Prop52
140
1.0
102
RTVSPost2010PropOp52
 70
     0
102
RTVSPost2010Prop53
 90
        2
102
RTVSPost2010PropOp53
 70
     1
102
RTVSPost2010Prop54
  1
strokes_ogs.tif
102
RTVSPost2010PropOp54
 70
     1
102
RTVSPost2010Prop55
280
     0
102
RTVSPost2010PropOp55
 70
     1
102
RTVSPost2010Prop56
140
1.0
102
RTVSPost2010PropOp56
 70
     1
102
RTVSPost2010Prop57
140
1.0
102
RTVSPost2010PropOp57
 70
     1
  0
XRECORD
  5
118
102
{ACAD_REACTORS
330
117
102
}
330
117
100
AcDbXrecord
280
     1
102
RTVSPost2010Prop28
280
     0
102
RTVSPost2010PropOp28
 70
     1
102
RTVSPost2010Prop29
280
     1
102
RTVSPost2010PropOp29
 70
     1
102
RTVSPost2010Prop30
280
     1
102
RTVSPost2010PropOp30
 70
     1
102
RTVSPost2010Prop31
280
     0
102
RTVSPost2010PropOp31
 70
     1
102
RTVSPost2010Prop32
280
     0
102
RTVSPost2010PropOp32
 70
     1
102
RTVSPost2010Prop33
280
     0
102
RTVSPost2010PropOp33
 70
     1
102
RTVSPost2010Prop34
280
     0
102
RTVSPost2010PropOp34
 70
     1
102
RTVSPost2010Prop35
280
     0
102
RTVSPost2010PropOp35
 70
     1
102
RTVSPost2010Prop36
280
     0
102
RTVSPost2010PropOp36
 70
     1
102
RTVSPost2010Prop37
 90
       50
102
RTVSPost2010PropOp37
 70
     1
102
RTVSPost2010Prop38
140
0.0
102
RTVSPost2010PropOp38
 70
     1
102
RTVSPost2010Prop39
140
1.0
102
RTVSPost2010PropOp39
 70
     1
102
RTVSPost2010Prop40
 90
        0
102
RTVSPost2010PropOp40
 70
     1
102
RTVSPost2010Prop41ColorIndex
 90
       18
102
RTVSPost2010Prop41ColorRGB
 90
        0
102
RTVSPost2010PropOp41
 70
     1
102
RTVSPost2010Prop42
 90
       50
102
RTVSPost2010PropOp42
 70
     1
102
RTVSPost2010Prop43
 90
        3
102
RTVSPost2010PropOp43
 70
     1
102
RTVSPost2010Prop44ColorIndex
 90
        5
102
RTVSPost2010Prop44ColorRGB
 90
      255
102
RTVSPost2010PropOp44
 70
     1
102
RTVSPost2010Prop45
280
     0
102
RTVSPost2010PropOp45
 70
     1
102
RTVSPost2010Prop46
 90
       50
102
RTVSPost2010PropOp46
 70
     1
102
RTVSPost2010Prop47
 90
       50
102
RTVSPost2010PropOp47
 70
     1
102
RTVSPost2010Prop48
 90
       50
102
RTVSPost2010PropOp48
 70
     1
102
RTVSPost2010Prop49
280
     0
102
RTVSPost2010PropOp49
 70
     1
102
RTVSPost2010Prop50
 90
       50
102
RTVSPost2010PropOp50
 70
     1
102
RTVSPost2010Prop51ColorIndex
 90
      256
102
RTVSPost2010Prop51ColorRGB
 90
-16777216
102
RTVSPost2010PropOp51
 70
     0
102
RTVSPost2010Prop52
140
1.0
102
RTVSPost2010PropOp52
 70
     0
102
RTVSPost2010Prop53
 90
        2
102
RTVSPost2010PropOp53
 70
     1
102
RTVSPost2010Prop54
  1
strokes_ogs.tif
102
RTVSPost2010PropOp54
 70
     1
102
RTVSPost2010Prop55
280
     0
102
RTVSPost2010PropOp55
 70
     1
102
RTVSPost2010Prop56
140
1.0
102
RTVSPost2010PropOp56
 70
     1
102
RTVSPost2010Prop57
140
1.0
102
RTVSPost2010PropOp57
 70
     1
  0
XRECORD
  5
11C
102
{ACAD_REACTORS
330
11B
102
}
330
11B
100
AcDbXrecord
280
     1
102
RTVSPost2010Prop28
280
     0
102
RTVSPost2010PropOp28
 70
     1
102
RTVSPost2010Prop29
280
     1
102
RTVSPost2010PropOp29
 70
     1
102
RTVSPost2010Prop30
280
     1
102
RTVSPost2010PropOp30
 70
     1
102
RTVSPost2010Prop31
280
     0
102
RTVSPost2010PropOp31
 70
     1
102
RTVSPost2010Prop32
280
     0
102
RTVSPost2010PropOp32
 70
     1
102
RTVSPost2010Prop33
280
     0
102
RTVSPost2010PropOp33
 70
     1
102
RTVSPost2010Prop34
280
     0
102
RTVSPost2010PropOp34
 70
     1
102
RTVSPost2010Prop35
280
     0
102
RTVSPost2010PropOp35
 70
     1
102
RTVSPost2010Prop36
280
     0
102
RTVSPost2010PropOp36
 70
     1
102
RTVSPost2010Prop37
 90
       50
102
RTVSPost2010PropOp37
 70
     1
102
RTVSPost2010Prop38
140
0.0
102
RTVSPost2010PropOp38
 70
     1
102
RTVSPost2010Prop39
140
1.0
102
RTVSPost2010PropOp39
 70
     1
102
RTVSPost2010Prop40
 90
        0
102
RTVSPost2010PropOp40
 70
     1
102
RTVSPost2010Prop41ColorIndex
 90
       18
102
RTVSPost2010Prop41ColorRGB
 90
        0
102
RTVSPost2010PropOp41
 70
     1
102
RTVSPost2010Prop42
 90
       50
102
RTVSPost2010PropOp42
 70
     1
102
RTVSPost2010Prop43
 90
        3
102
RTVSPost2010PropOp43
 70
     1
102
RTVSPost2010Prop44ColorIndex
 90
        5
102
RTVSPost2010Prop44ColorRGB
 90
      255
102
RTVSPost2010PropOp44
 70
     1
102
RTVSPost2010Prop45
280
     0
102
RTVSPost2010PropOp45
 70
     1
102
RTVSPost2010Prop46
 90
       50
102
RTVSPost2010PropOp46
 70
     1
102
RTVSPost2010Prop47
 90
       50
102
RTVSPost2010PropOp47
 70
     1
102
RTVSPost2010Prop48
 90
       50
102
RTVSPost2010PropOp48
 70
     1
102
RTVSPost2010Prop49
280
     0
102
RTVSPost2010PropOp49
 70
     1
102
RTVSPost2010Prop50
 90
       50
102
RTVSPost2010PropOp50
 70
     1
102
RTVSPost2010Prop51ColorIndex
 90
      256
102
RTVSPost2010Prop51ColorRGB
 90
-16777216
102
RTVSPost2010PropOp51
 70
     0
102
RTVSPost2010Prop52
140
1.0
102
RTVSPost2010PropOp52
 70
     0
102
RTVSPost2010Prop53
 90
        2
102
RTVSPost2010PropOp53
 70
     1
102
RTVSPost2010Prop54
  1
strokes_ogs.tif
102
RTVSPost2010PropOp54
 70
     1
102
RTVSPost2010Prop55
280
     0
102
RTVSPost2010PropOp55
 70
     1
102
RTVSPost2010Prop56
140
1.0
102
RTVSPost2010PropOp56
 70
     1
102
RTVSPost2010Prop57
140
1.0
102
RTVSPost2010PropOp57
 70
     1
  0
XRECORD
  5
136
102
{ACAD_REACTORS
330
135
102
}
330
135
100
AcDbXrecord
280
     1
102
RTVSPost2010Prop28
280
     0
102
RTVSPost2010PropOp28
 70
     0
102
RTVSPost2010Prop29
280
     1
102
RTVSPost2010PropOp29
 70
     0
102
RTVSPost2010Prop30
280
     1
102
RTVSPost2010PropOp30
 70
     0
102
RTVSPost2010Prop31
280
     0
102
RTVSPost2010PropOp31
 70
     0
102
RTVSPost2010Prop32
280
     0
102
RTVSPost2010PropOp32
 70
     0
102
RTVSPost2010Prop33
280
     0
102
RTVSPost2010PropOp33
 70
     0
102
RTVSPost2010Prop34
280
     0
102
RTVSPost2010PropOp34
 70
     0
102
RTVSPost2010Prop35
280
     0
102
RTVSPost2010PropOp35
 70
     0
102
RTVSPost2010Prop36
280
     0
102
RTVSPost2010PropOp36
 70
     0
102
RTVSPost2010Prop37
 90
       50
102
RTVSPost2010PropOp37
 70
     0
102
RTVSPost2010Prop38
140
0.0
102
RTVSPost2010PropOp38
 70
     0
102
RTVSPost2010Prop39
140
1.0
102
RTVSPost2010PropOp39
 70
     0
102
RTVSPost2010Prop40
 90
        0
102
RTVSPost2010PropOp40
 70
     0
102
RTVSPost2010Prop41ColorIndex
 90
       18
102
RTVSPost2010Prop41ColorRGB
 90
        0
102
RTVSPost2010PropOp41
 70
     0
102
RTVSPost2010Prop42
 90
       50
102
RTVSPost2010PropOp42
 70
     0
102
RTVSPost2010Prop43
 90
        3
102
RTVSPost2010PropOp43
 70
     0
102
RTVSPost2010Prop44ColorIndex
 90
        5
102
RTVSPost2010Prop44ColorRGB
 90
      255
102
RTVSPost2010PropOp44
 70
     0
102
RTVSPost2010Prop45
280
     0
102
RTVSPost2010PropOp45
 70
     0
102
RTVSPost2010Prop46
 90
       50
102
RTVSPost2010PropOp46
 70
     0
102
RTVSPost2010Prop47
 90
       50
102
RTVSPost2010PropOp47
 70
     0
102
RTVSPost2010Prop48
 90
       50
102
RTVSPost2010PropOp48
 70
     0
102
RTVSPost2010Prop49
280
     0
102
RTVSPost2010PropOp49
 70
     0
102
RTVSPost2010Prop50
 90
       50
102
RTVSPost2010PropOp50
 70
     0
102
RTVSPost2010Prop51ColorIndex
 90
      256
102
RTVSPost2010Prop51ColorRGB
 90
-16777216
102
RTVSPost2010PropOp51
 70
     0
102
RTVSPost2010Prop52
140
1.0
102
RTVSPost2010PropOp52
 70
     0
102
RTVSPost2010Prop53
 90
        2
102
RTVSPost2010PropOp53
 70
     0
102
RTVSPost2010Prop54
  1
strokes_ogs.tif
102
RTVSPost2010PropOp54
 70
     0
102
RTVSPost2010Prop55
280
     0
102
RTVSPost2010PropOp55
 70
     0
102
RTVSPost2010Prop56
140
1.0
102
RTVSPost2010PropOp56
 70
     0
102
RTVSPost2010Prop57
140
1.0
102
RTVSPost2010PropOp57
 70
     0
  0
XRECORD
  5
124
102
{ACAD_REACTORS
330
123
102
}
330
123
100
AcDbXrecord
280
     1
102
RTVSPost2010Prop28
280
     0
102
RTVSPost2010PropOp28
 70
     1
102
RTVSPost2010Prop29
280
     1
102
RTVSPost2010PropOp29
 70
     1
102
RTVSPost2010Prop30
280
     1
102
RTVSPost2010PropOp30
 70
     1
102
RTVSPost2010Prop31
280
     0
102
RTVSPost2010PropOp31
 70
     1
102
RTVSPost2010Prop32
280
     0
102
RTVSPost2010PropOp32
 70
     1
102
RTVSPost2010Prop33
280
     0
102
RTVSPost2010PropOp33
 70
     1
102
RTVSPost2010Prop34
280
     0
102
RTVSPost2010PropOp34
 70
     1
102
RTVSPost2010Prop35
280
     0
102
RTVSPost2010PropOp35
 70
     1
102
RTVSPost2010Prop36
280
     0
102
RTVSPost2010PropOp36
 70
     1
102
RTVSPost2010Prop37
 90
       50
102
RTVSPost2010PropOp37
 70
     1
102
RTVSPost2010Prop38
140
0.0
102
RTVSPost2010PropOp38
 70
     1
102
RTVSPost2010Prop39
140
1.0
102
RTVSPost2010PropOp39
 70
     1
102
RTVSPost2010Prop40
 90
        0
102
RTVSPost2010PropOp40
 70
     1
102
RTVSPost2010Prop41ColorIndex
 90
       18
102
RTVSPost2010Prop41ColorRGB
 90
        0
102
RTVSPost2010PropOp41
 70
     1
102
RTVSPost2010Prop42
 90
       50
102
RTVSPost2010PropOp42
 70
     1
102
RTVSPost2010Prop43
 90
        3
102
RTVSPost2010PropOp43
 70
     1
102
RTVSPost2010Prop44ColorIndex
 90
        5
102
RTVSPost2010Prop44ColorRGB
 90
      255
102
RTVSPost2010PropOp44
 70
     1
102
RTVSPost2010Prop45
280
     0
102
RTVSPost2010PropOp45
 70
     1
102
RTVSPost2010Prop46
 90
       50
102
RTVSPost2010PropOp46
 70
     1
102
RTVSPost2010Prop47
 90
       50
102
RTVSPost2010PropOp47
 70
     1
102
RTVSPost2010Prop48
 90
       50
102
RTVSPost2010PropOp48
 70
     1
102
RTVSPost2010Prop49
280
     0
102
RTVSPost2010PropOp49
 70
     1
102
RTVSPost2010Prop50
 90
       50
102
RTVSPost2010PropOp50
 70
     1
102
RTVSPost2010Prop51ColorIndex
 90
      256
102
RTVSPost2010Prop51ColorRGB
 90
-16777216
102
RTVSPost2010PropOp51
 70
     0
102
RTVSPost2010Prop52
140
1.0
102
RTVSPost2010PropOp52
 70
     0
102
RTVSPost2010Prop53
 90
        2
102
RTVSPost2010PropOp53
 70
     1
102
RTVSPost2010Prop54
  1
strokes_ogs.tif
102
RTVSPost2010PropOp54
 70
     1
102
RTVSPost2010Prop55
280
     0
102
RTVSPost2010PropOp55
 70
     1
102
RTVSPost2010Prop56
140
1.0
102
RTVSPost2010PropOp56
 70
     1
102
RTVSPost2010Prop57
140
1.0
102
RTVSPost2010PropOp57
 70
     1
  0
XRECORD
  5
108
102
{ACAD_REACTORS
330
107
102
}
330
107
100
AcDbXrecord
280
     1
102
RTVSPost2010Prop28
280
     0
102
RTVSPost2010PropOp28
 70
     1
102
RTVSPost2010Prop29
280
     1
102
RTVSPost2010PropOp29
 70
     1
102
RTVSPost2010Prop30
280
     1
102
RTVSPost2010PropOp30
 70
     1
102
RTVSPost2010Prop31
280
     0
102
RTVSPost2010PropOp31
 70
     1
102
RTVSPost2010Prop32
280
     0
102
RTVSPost2010PropOp32
 70
     1
102
RTVSPost2010Prop33
280
     0
102
RTVSPost2010PropOp33
 70
     1
102
RTVSPost2010Prop34
280
     0
102
RTVSPost2010PropOp34
 70
     1
102
RTVSPost2010Prop35
280
     0
102
RTVSPost2010PropOp35
 70
     1
102
RTVSPost2010Prop36
280
     0
102
RTVSPost2010PropOp36
 70
     1
102
RTVSPost2010Prop37
 90
       50
102
RTVSPost2010PropOp37
 70
     1
102
RTVSPost2010Prop38
140
0.0
102
RTVSPost2010PropOp38
 70
     1
102
RTVSPost2010Prop39
140
1.0
102
RTVSPost2010PropOp39
 70
     1
102
RTVSPost2010Prop40
 90
        0
102
RTVSPost2010PropOp40
 70
     1
102
RTVSPost2010Prop41ColorIndex
 90
       18
102
RTVSPost2010Prop41ColorRGB
 90
        0
102
RTVSPost2010PropOp41
 70
     1
102
RTVSPost2010Prop42
 90
       50
102
RTVSPost2010PropOp42
 70
     1
102
RTVSPost2010Prop43
 90
        3
102
RTVSPost2010PropOp43
 70
     1
102
RTVSPost2010Prop44ColorIndex
 90
        5
102
RTVSPost2010Prop44ColorRGB
 90
      255
102
RTVSPost2010PropOp44
 70
     1
102
RTVSPost2010Prop45
280
     0
102
RTVSPost2010PropOp45
 70
     1
102
RTVSPost2010Prop46
 90
       50
102
RTVSPost2010PropOp46
 70
     1
102
RTVSPost2010Prop47
 90
       50
102
RTVSPost2010PropOp47
 70
     1
102
RTVSPost2010Prop48
 90
       50
102
RTVSPost2010PropOp48
 70
     1
102
RTVSPost2010Prop49
280
     0
102
RTVSPost2010PropOp49
 70
     1
102
RTVSPost2010Prop50
 90
       50
102
RTVSPost2010PropOp50
 70
     1
102
RTVSPost2010Prop51ColorIndex
 90
      256
102
RTVSPost2010Prop51ColorRGB
 90
-16777216
102
RTVSPost2010PropOp51
 70
     0
102
RTVSPost2010Prop52
140
1.0
102
RTVSPost2010PropOp52
 70
     0
102
RTVSPost2010Prop53
 90
        2
102
RTVSPost2010PropOp53
 70
     1
102
RTVSPost2010Prop54
  1
strokes_ogs.tif
102
RTVSPost2010PropOp54
 70
     1
102
RTVSPost2010Prop55
280
     0
102
RTVSPost2010PropOp55
 70
     1
102
RTVSPost2010Prop56
140
1.0
102
RTVSPost2010PropOp56
 70
     1
102
RTVSPost2010Prop57
140
1.0
102
RTVSPost2010PropOp57
 70
     1
  0
XRECORD
  5
10A
102
{ACAD_REACTORS
330
109
102
}
330
109
100
AcDbXrecord
280
     1
102
RTVSPost2010Prop28
280
     0
102
RTVSPost2010PropOp28
 70
     1
102
RTVSPost2010Prop29
280
     1
102
RTVSPost2010PropOp29
 70
     1
102
RTVSPost2010Prop30
280
     1
102
RTVSPost2010PropOp30
 70
     1
102
RTVSPost2010Prop31
280
     0
102
RTVSPost2010PropOp31
 70
     1
102
RTVSPost2010Prop32
280
     0
102
RTVSPost2010PropOp32
 70
     1
102
RTVSPost2010Prop33
280
     0
102
RTVSPost2010PropOp33
 70
     1
102
RTVSPost2010Prop34
280
     0
102
RTVSPost2010PropOp34
 70
     1
102
RTVSPost2010Prop35
280
     0
102
RTVSPost2010PropOp35
 70
     1
102
RTVSPost2010Prop36
280
     0
102
RTVSPost2010PropOp36
 70
     1
102
RTVSPost2010Prop37
 90
       50
102
RTVSPost2010PropOp37
 70
     1
102
RTVSPost2010Prop38
140
0.0
102
RTVSPost2010PropOp38
 70
     1
102
RTVSPost2010Prop39
140
1.0
102
RTVSPost2010PropOp39
 70
     1
102
RTVSPost2010Prop40
 90
        0
102
RTVSPost2010PropOp40
 70
     1
102
RTVSPost2010Prop41ColorIndex
 90
       18
102
RTVSPost2010Prop41ColorRGB
 90
        0
102
RTVSPost2010PropOp41
 70
     1
102
RTVSPost2010Prop42
 90
       50
102
RTVSPost2010PropOp42
 70
     1
102
RTVSPost2010Prop43
 90
        3
102
RTVSPost2010PropOp43
 70
     1
102
RTVSPost2010Prop44ColorIndex
 90
        5
102
RTVSPost2010Prop44ColorRGB
 90
      255
102
RTVSPost2010PropOp44
 70
     1
102
RTVSPost2010Prop45
280
     0
102
RTVSPost2010PropOp45
 70
     1
102
RTVSPost2010Prop46
 90
       50
102
RTVSPost2010PropOp46
 70
     1
102
RTVSPost2010Prop47
 90
       50
102
RTVSPost2010PropOp47
 70
     1
102
RTVSPost2010Prop48
 90
       50
102
RTVSPost2010PropOp48
 70
     1
102
RTVSPost2010Prop49
280
     0
102
RTVSPost2010PropOp49
 70
     1
102
RTVSPost2010Prop50
 90
       50
102
RTVSPost2010PropOp50
 70
     1
102
RTVSPost2010Prop51ColorIndex
 90
      256
102
RTVSPost2010Prop51ColorRGB
 90
-16777216
102
RTVSPost2010PropOp51
 70
     0
102
RTVSPost2010Prop52
140
1.0
102
RTVSPost2010PropOp52
 70
     0
102
RTVSPost2010Prop53
 90
        2
102
RTVSPost2010PropOp53
 70
     1
102
RTVSPost2010Prop54
  1
strokes_ogs.tif
102
RTVSPost2010PropOp54
 70
     1
102
RTVSPost2010Prop55
280
     0
102
RTVSPost2010PropOp55
 70
     1
102
RTVSPost2010Prop56
140
1.0
102
RTVSPost2010PropOp56
 70
     1
102
RTVSPost2010Prop57
140
1.0
102
RTVSPost2010PropOp57
 70
     1
  0
XRECORD
  5
10C
102
{ACAD_REACTORS
330
10B
102
}
330
10B
100
AcDbXrecord
280
     1
102
RTVSPost2010Prop28
280
     0
102
RTVSPost2010PropOp28
 70
     1
102
RTVSPost2010Prop29
280
     1
102
RTVSPost2010PropOp29
 70
     1
102
RTVSPost2010Prop30
280
     1
102
RTVSPost2010PropOp30
 70
     1
102
RTVSPost2010Prop31
280
     0
102
RTVSPost2010PropOp31
 70
     1
102
RTVSPost2010Prop32
280
     0
102
RTVSPost2010PropOp32
 70
     1
102
RTVSPost2010Prop33
280
     0
102
RTVSPost2010PropOp33
 70
     1
102
RTVSPost2010Prop34
280
     0
102
RTVSPost2010PropOp34
 70
     1
102
RTVSPost2010Prop35
280
     0
102
RTVSPost2010PropOp35
 70
     1
102
RTVSPost2010Prop36
280
     0
102
RTVSPost2010PropOp36
 70
     1
102
RTVSPost2010Prop37
 90
       50
102
RTVSPost2010PropOp37
 70
     1
102
RTVSPost2010Prop38
140
0.0
102
RTVSPost2010PropOp38
 70
     1
102
RTVSPost2010Prop39
140
1.0
102
RTVSPost2010PropOp39
 70
     1
102
RTVSPost2010Prop40
 90
        0
102
RTVSPost2010PropOp40
 70
     1
102
RTVSPost2010Prop41ColorIndex
 90
       18
102
RTVSPost2010Prop41ColorRGB
 90
        0
102
RTVSPost2010PropOp41
 70
     1
102
RTVSPost2010Prop42
 90
       50
102
RTVSPost2010PropOp42
 70
     1
102
RTVSPost2010Prop43
 90
        3
102
RTVSPost2010PropOp43
 70
     1
102
RTVSPost2010Prop44ColorIndex
 90
        5
102
RTVSPost2010Prop44ColorRGB
 90
      255
102
RTVSPost2010PropOp44
 70
     1
102
RTVSPost2010Prop45
280
     0
102
RTVSPost2010PropOp45
 70
     1
102
RTVSPost2010Prop46
 90
       50
102
RTVSPost2010PropOp46
 70
     1
102
RTVSPost2010Prop47
 90
       50
102
RTVSPost2010PropOp47
 70
     1
102
RTVSPost2010Prop48
 90
       50
102
RTVSPost2010PropOp48
 70
     1
102
RTVSPost2010Prop49
280
     0
102
RTVSPost2010PropOp49
 70
     1
102
RTVSPost2010Prop50
 90
       50
102
RTVSPost2010PropOp50
 70
     1
102
RTVSPost2010Prop51ColorIndex
 90
      256
102
RTVSPost2010Prop51ColorRGB
 90
-16777216
102
RTVSPost2010PropOp51
 70
     0
102
RTVSPost2010Prop52
140
1.0
102
RTVSPost2010PropOp52
 70
     0
102
RTVSPost2010Prop53
 90
        2
102
RTVSPost2010PropOp53
 70
     1
102
RTVSPost2010Prop54
  1
strokes_ogs.tif
102
RTVSPost2010PropOp54
 70
     1
102
RTVSPost2010Prop55
280
     0
102
RTVSPost2010PropOp55
 70
     1
102
RTVSPost2010Prop56
140
1.0
102
RTVSPost2010PropOp56
 70
     1
102
RTVSPost2010Prop57
140
1.0
102
RTVSPost2010PropOp57
 70
     1
  0
XRECORD
  5
10E
102
{ACAD_REACTORS
330
10D
102
}
330
10D
100
AcDbXrecord
280
     1
102
RTVSPost2010Prop28
280
     0
102
RTVSPost2010PropOp28
 70
     1
102
RTVSPost2010Prop29
280
     1
102
RTVSPost2010PropOp29
 70
     1
102
RTVSPost2010Prop30
280
     1
102
RTVSPost2010PropOp30
 70
     1
102
RTVSPost2010Prop31
280
     0
102
RTVSPost2010PropOp31
 70
     1
102
RTVSPost2010Prop32
280
     0
102
RTVSPost2010PropOp32
 70
     1
102
RTVSPost2010Prop33
280
     0
102
RTVSPost2010PropOp33
 70
     1
102
RTVSPost2010Prop34
280
     0
102
RTVSPost2010PropOp34
 70
     1
102
RTVSPost2010Prop35
280
     0
102
RTVSPost2010PropOp35
 70
     1
102
RTVSPost2010Prop36
280
     0
102
RTVSPost2010PropOp36
 70
     1
102
RTVSPost2010Prop37
 90
       50
102
RTVSPost2010PropOp37
 70
     1
102
RTVSPost2010Prop38
140
0.0
102
RTVSPost2010PropOp38
 70
     1
102
RTVSPost2010Prop39
140
1.0
102
RTVSPost2010PropOp39
 70
     1
102
RTVSPost2010Prop40
 90
        0
102
RTVSPost2010PropOp40
 70
     1
102
RTVSPost2010Prop41ColorIndex
 90
       18
102
RTVSPost2010Prop41ColorRGB
 90
        0
102
RTVSPost2010PropOp41
 70
     1
102
RTVSPost2010Prop42
 90
       50
102
RTVSPost2010PropOp42
 70
     1
102
RTVSPost2010Prop43
 90
        3
102
RTVSPost2010PropOp43
 70
     1
102
RTVSPost2010Prop44ColorIndex
 90
        5
102
RTVSPost2010Prop44ColorRGB
 90
      255
102
RTVSPost2010PropOp44
 70
     1
102
RTVSPost2010Prop45
280
     0
102
RTVSPost2010PropOp45
 70
     1
102
RTVSPost2010Prop46
 90
       50
102
RTVSPost2010PropOp46
 70
     1
102
RTVSPost2010Prop47
 90
       50
102
RTVSPost2010PropOp47
 70
     1
102
RTVSPost2010Prop48
 90
       50
102
RTVSPost2010PropOp48
 70
     1
102
RTVSPost2010Prop49
280
     0
102
RTVSPost2010PropOp49
 70
     1
102
RTVSPost2010Prop50
 90
       50
102
RTVSPost2010PropOp50
 70
     1
102
RTVSPost2010Prop51ColorIndex
 90
      256
102
RTVSPost2010Prop51ColorRGB
 90
-16777216
102
RTVSPost2010PropOp51
 70
     0
102
RTVSPost2010Prop52
140
1.0
102
RTVSPost2010PropOp52
 70
     0
102
RTVSPost2010Prop53
 90
        2
102
RTVSPost2010PropOp53
 70
     1
102
RTVSPost2010Prop54
  1
strokes_ogs.tif
102
RTVSPost2010PropOp54
 70
     1
102
RTVSPost2010Prop55
280
     0
102
RTVSPost2010PropOp55
 70
     1
102
RTVSPost2010Prop56
140
1.0
102
RTVSPost2010PropOp56
 70
     1
102
RTVSPost2010Prop57
140
1.0
102
RTVSPost2010PropOp57
 70
     1
  0
XRECORD
  5
116
102
{ACAD_REACTORS
330
115
102
}
330
115
100
AcDbXrecord
280
     1
102
RTVSPost2010Prop28
280
     0
102
RTVSPost2010PropOp28
 70
     1
102
RTVSPost2010Prop29
280
     1
102
RTVSPost2010PropOp29
 70
     1
102
RTVSPost2010Prop30
280
     1
102
RTVSPost2010PropOp30
 70
     1
102
RTVSPost2010Prop31
280
     0
102
RTVSPost2010PropOp31
 70
     1
102
RTVSPost2010Prop32
280
     0
102
RTVSPost2010PropOp32
 70
     1
102
RTVSPost2010Prop33
280
     0
102
RTVSPost2010PropOp33
 70
     1
102
RTVSPost2010Prop34
280
     0
102
RTVSPost2010PropOp34
 70
     1
102
RTVSPost2010Prop35
280
     0
102
RTVSPost2010PropOp35
 70
     1
102
RTVSPost2010Prop36
280
     0
102
RTVSPost2010PropOp36
 70
     1
102
RTVSPost2010Prop37
 90
       50
102
RTVSPost2010PropOp37
 70
     1
102
RTVSPost2010Prop38
140
0.0
102
RTVSPost2010PropOp38
 70
     1
102
RTVSPost2010Prop39
140
1.0
102
RTVSPost2010PropOp39
 70
     1
102
RTVSPost2010Prop40
 90
        0
102
RTVSPost2010PropOp40
 70
     1
102
RTVSPost2010Prop41ColorIndex
 90
       18
102
RTVSPost2010Prop41ColorRGB
 90
        0
102
RTVSPost2010PropOp41
 70
     1
102
RTVSPost2010Prop42
 90
       50
102
RTVSPost2010PropOp42
 70
     1
102
RTVSPost2010Prop43
 90
        3
102
RTVSPost2010PropOp43
 70
     1
102
RTVSPost2010Prop44ColorIndex
 90
        5
102
RTVSPost2010Prop44ColorRGB
 90
      255
102
RTVSPost2010PropOp44
 70
     1
102
RTVSPost2010Prop45
280
     0
102
RTVSPost2010PropOp45
 70
     1
102
RTVSPost2010Prop46
 90
       50
102
RTVSPost2010PropOp46
 70
     1
102
RTVSPost2010Prop47
 90
       50
102
RTVSPost2010PropOp47
 70
     1
102
RTVSPost2010Prop48
 90
       50
102
RTVSPost2010PropOp48
 70
     1
102
RTVSPost2010Prop49
280
     0
102
RTVSPost2010PropOp49
 70
     1
102
RTVSPost2010Prop50
 90
       50
102
RTVSPost2010PropOp50
 70
     1
102
RTVSPost2010Prop51ColorIndex
 90
      256
102
RTVSPost2010Prop51ColorRGB
 90
-16777216
102
RTVSPost2010PropOp51
 70
     0
102
RTVSPost2010Prop52
140
1.0
102
RTVSPost2010PropOp52
 70
     0
102
RTVSPost2010Prop53
 90
        2
102
RTVSPost2010PropOp53
 70
     1
102
RTVSPost2010Prop54
  1
strokes_ogs.tif
102
RTVSPost2010PropOp54
 70
     1
102
RTVSPost2010Prop55
280
     0
102
RTVSPost2010PropOp55
 70
     1
102
RTVSPost2010Prop56
140
1.0
102
RTVSPost2010PropOp56
 70
     1
102
RTVSPost2010Prop57
140
1.0
102
RTVSPost2010PropOp57
 70
     1
  0
XRECORD
  5
132
102
{ACAD_REACTORS
330
131
102
}
330
131
100
AcDbXrecord
280
     1
102
RTVSPost2010Prop28
280
     0
102
RTVSPost2010PropOp28
 70
     0
102
RTVSPost2010Prop29
280
     1
102
RTVSPost2010PropOp29
 70
     0
102
RTVSPost2010Prop30
280
     1
102
RTVSPost2010PropOp30
 70
     0
102
RTVSPost2010Prop31
280
     0
102
RTVSPost2010PropOp31
 70
     0
102
RTVSPost2010Prop32
280
     0
102
RTVSPost2010PropOp32
 70
     0
102
RTVSPost2010Prop33
280
     0
102
RTVSPost2010PropOp33
 70
     0
102
RTVSPost2010Prop34
280
     0
102
RTVSPost2010PropOp34
 70
     0
102
RTVSPost2010Prop35
280
     0
102
RTVSPost2010PropOp35
 70
     0
102
RTVSPost2010Prop36
280
     0
102
RTVSPost2010PropOp36
 70
     0
102
RTVSPost2010Prop37
 90
       50
102
RTVSPost2010PropOp37
 70
     0
102
RTVSPost2010Prop38
140
0.0
102
RTVSPost2010PropOp38
 70
     0
102
RTVSPost2010Prop39
140
1.0
102
RTVSPost2010PropOp39
 70
     0
102
RTVSPost2010Prop40
 90
        0
102
RTVSPost2010PropOp40
 70
     0
102
RTVSPost2010Prop41ColorIndex
 90
       18
102
RTVSPost2010Prop41ColorRGB
 90
        0
102
RTVSPost2010PropOp41
 70
     0
102
RTVSPost2010Prop42
 90
       50
102
RTVSPost2010PropOp42
 70
     0
102
RTVSPost2010Prop43
 90
        3
102
RTVSPost2010PropOp43
 70
     0
102
RTVSPost2010Prop44ColorIndex
 90
        5
102
RTVSPost2010Prop44ColorRGB
 90
      255
102
RTVSPost2010PropOp44
 70
     0
102
RTVSPost2010Prop45
280
     0
102
RTVSPost2010PropOp45
 70
     0
102
RTVSPost2010Prop46
 90
       50
102
RTVSPost2010PropOp46
 70
     0
102
RTVSPost2010Prop47
 90
       50
102
RTVSPost2010PropOp47
 70
     0
102
RTVSPost2010Prop48
 90
       50
102
RTVSPost2010PropOp48
 70
     0
102
RTVSPost2010Prop49
280
     0
102
RTVSPost2010PropOp49
 70
     0
102
RTVSPost2010Prop50
 90
       50
102
RTVSPost2010PropOp50
 70
     0
102
RTVSPost2010Prop51ColorIndex
 90
      256
102
RTVSPost2010Prop51ColorRGB
 90
-16777216
102
RTVSPost2010PropOp51
 70
     0
102
RTVSPost2010Prop52
140
1.0
102
RTVSPost2010PropOp52
 70
     0
102
RTVSPost2010Prop53
 90
        2
102
RTVSPost2010PropOp53
 70
     0
102
RTVSPost2010Prop54
  1
strokes_ogs.tif
102
RTVSPost2010PropOp54
 70
     0
102
RTVSPost2010Prop55
280
     0
102
RTVSPost2010PropOp55
 70
     0
102
RTVSPost2010Prop56
140
1.0
102
RTVSPost2010PropOp56
 70
     0
102
RTVSPost2010Prop57
140
1.0
102
RTVSPost2010PropOp57
 70
     0
  0
XRECORD
  5
122
102
{ACAD_REACTORS
330
121
102
}
330
121
100
AcDbXrecord
280
     1
102
RTVSPost2010Prop28
280
     0
102
RTVSPost2010PropOp28
 70
     1
102
RTVSPost2010Prop29
280
     1
102
RTVSPost2010PropOp29
 70
     1
102
RTVSPost2010Prop30
280
     1
102
RTVSPost2010PropOp30
 70
     1
102
RTVSPost2010Prop31
280
     0
102
RTVSPost2010PropOp31
 70
     1
102
RTVSPost2010Prop32
280
     0
102
RTVSPost2010PropOp32
 70
     1
102
RTVSPost2010Prop33
280
     0
102
RTVSPost2010PropOp33
 70
     1
102
RTVSPost2010Prop34
280
     0
102
RTVSPost2010PropOp34
 70
     1
102
RTVSPost2010Prop35
280
     0
102
RTVSPost2010PropOp35
 70
     1
102
RTVSPost2010Prop36
280
     0
102
RTVSPost2010PropOp36
 70
     1
102
RTVSPost2010Prop37
 90
       50
102
RTVSPost2010PropOp37
 70
     1
102
RTVSPost2010Prop38
140
0.0
102
RTVSPost2010PropOp38
 70
     1
102
RTVSPost2010Prop39
140
1.0
102
RTVSPost2010PropOp39
 70
     1
102
RTVSPost2010Prop40
 90
        0
102
RTVSPost2010PropOp40
 70
     1
102
RTVSPost2010Prop41ColorIndex
 90
       18
102
RTVSPost2010Prop41ColorRGB
 90
        0
102
RTVSPost2010PropOp41
 70
     1
102
RTVSPost2010Prop42
 90
       50
102
RTVSPost2010PropOp42
 70
     1
102
RTVSPost2010Prop43
 90
        3
102
RTVSPost2010PropOp43
 70
     1
102
RTVSPost2010Prop44ColorIndex
 90
        5
102
RTVSPost2010Prop44ColorRGB
 90
      255
102
RTVSPost2010PropOp44
 70
     1
102
RTVSPost2010Prop45
280
     0
102
RTVSPost2010PropOp45
 70
     1
102
RTVSPost2010Prop46
 90
       50
102
RTVSPost2010PropOp46
 70
     1
102
RTVSPost2010Prop47
 90
       50
102
RTVSPost2010PropOp47
 70
     1
102
RTVSPost2010Prop48
 90
       50
102
RTVSPost2010PropOp48
 70
     1
102
RTVSPost2010Prop49
280
     0
102
RTVSPost2010PropOp49
 70
     1
102
RTVSPost2010Prop50
 90
       50
102
RTVSPost2010PropOp50
 70
     1
102
RTVSPost2010Prop51ColorIndex
 90
      256
102
RTVSPost2010Prop51ColorRGB
 90
-16777216
102
RTVSPost2010PropOp51
 70
     0
102
RTVSPost2010Prop52
140
1.0
102
RTVSPost2010PropOp52
 70
     0
102
RTVSPost2010Prop53
 90
        2
102
RTVSPost2010PropOp53
 70
     1
102
RTVSPost2010Prop54
  1
strokes_ogs.tif
102
RTVSPost2010PropOp54
 70
     1
102
RTVSPost2010Prop55
280
     0
102
RTVSPost2010PropOp55
 70
     1
102
RTVSPost2010Prop56
140
1.0
102
RTVSPost2010PropOp56
 70
     1
102
RTVSPost2010Prop57
140
1.0
102
RTVSPost2010PropOp57
 70
     1
  0
XRECORD
  5
134
102
{ACAD_REACTORS
330
133
102
}
330
133
100
AcDbXrecord
280
     1
102
RTVSPost2010Prop28
280
     0
102
RTVSPost2010PropOp28
 70
     0
102
RTVSPost2010Prop29
280
     1
102
RTVSPost2010PropOp29
 70
     0
102
RTVSPost2010Prop30
280
     1
102
RTVSPost2010PropOp30
 70
     0
102
RTVSPost2010Prop31
280
     0
102
RTVSPost2010PropOp31
 70
     0
102
RTVSPost2010Prop32
280
     0
102
RTVSPost2010PropOp32
 70
     0
102
RTVSPost2010Prop33
280
     0
102
RTVSPost2010PropOp33
 70
     0
102
RTVSPost2010Prop34
280
     0
102
RTVSPost2010PropOp34
 70
     0
102
RTVSPost2010Prop35
280
     0
102
RTVSPost2010PropOp35
 70
     0
102
RTVSPost2010Prop36
280
     0
102
RTVSPost2010PropOp36
 70
     0
102
RTVSPost2010Prop37
 90
       50
102
RTVSPost2010PropOp37
 70
     0
102
RTVSPost2010Prop38
140
0.0
102
RTVSPost2010PropOp38
 70
     0
102
RTVSPost2010Prop39
140
1.0
102
RTVSPost2010PropOp39
 70
     0
102
RTVSPost2010Prop40
 90
        0
102
RTVSPost2010PropOp40
 70
     0
102
RTVSPost2010Prop41ColorIndex
 90
       18
102
RTVSPost2010Prop41ColorRGB
 90
        0
102
RTVSPost2010PropOp41
 70
     0
102
RTVSPost2010Prop42
 90
       50
102
RTVSPost2010PropOp42
 70
     0
102
RTVSPost2010Prop43
 90
        3
102
RTVSPost2010PropOp43
 70
     0
102
RTVSPost2010Prop44ColorIndex
 90
        5
102
RTVSPost2010Prop44ColorRGB
 90
      255
102
RTVSPost2010PropOp44
 70
     0
102
RTVSPost2010Prop45
280
     0
102
RTVSPost2010PropOp45
 70
     0
102
RTVSPost2010Prop46
 90
       50
102
RTVSPost2010PropOp46
 70
     0
102
RTVSPost2010Prop47
 90
       50
102
RTVSPost2010PropOp47
 70
     0
102
RTVSPost2010Prop48
 90
       50
102
RTVSPost2010PropOp48
 70
     0
102
RTVSPost2010Prop49
280
     0
102
RTVSPost2010PropOp49
 70
     0
102
RTVSPost2010Prop50
 90
       50
102
RTVSPost2010PropOp50
 70
     0
102
RTVSPost2010Prop51ColorIndex
 90
      256
102
RTVSPost2010Prop51ColorRGB
 90
-16777216
102
RTVSPost2010PropOp51
 70
     0
102
RTVSPost2010Prop52
140
1.0
102
RTVSPost2010PropOp52
 70
     0
102
RTVSPost2010Prop53
 90
        2
102
RTVSPost2010PropOp53
 70
     0
102
RTVSPost2010Prop54
  1
strokes_ogs.tif
102
RTVSPost2010PropOp54
 70
     0
102
RTVSPost2010Prop55
280
     0
102
RTVSPost2010PropOp55
 70
     0
102
RTVSPost2010Prop56
140
1.0
102
RTVSPost2010PropOp56
 70
     0
102
RTVSPost2010Prop57
140
1.0
102
RTVSPost2010PropOp57
 70
     0
  0
XRECORD
  5
11A
102
{ACAD_REACTORS
330
119
102
}
330
119
100
AcDbXrecord
280
     1
102
RTVSPost2010Prop28
280
     0
102
RTVSPost2010PropOp28
 70
     1
102
RTVSPost2010Prop29
280
     1
102
RTVSPost2010PropOp29
 70
     1
102
RTVSPost2010Prop30
280
     1
102
RTVSPost2010PropOp30
 70
     1
102
RTVSPost2010Prop31
280
     0
102
RTVSPost2010PropOp31
 70
     1
102
RTVSPost2010Prop32
280
     0
102
RTVSPost2010PropOp32
 70
     1
102
RTVSPost2010Prop33
280
     0
102
RTVSPost2010PropOp33
 70
     1
102
RTVSPost2010Prop34
280
     0
102
RTVSPost2010PropOp34
 70
     1
102
RTVSPost2010Prop35
280
     0
102
RTVSPost2010PropOp35
 70
     1
102
RTVSPost2010Prop36
280
     0
102
RTVSPost2010PropOp36
 70
     1
102
RTVSPost2010Prop37
 90
       50
102
RTVSPost2010PropOp37
 70
     1
102
RTVSPost2010Prop38
140
0.0
102
RTVSPost2010PropOp38
 70
     1
102
RTVSPost2010Prop39
140
1.0
102
RTVSPost2010PropOp39
 70
     1
102
RTVSPost2010Prop40
 90
        0
102
RTVSPost2010PropOp40
 70
     1
102
RTVSPost2010Prop41ColorIndex
 90
       18
102
RTVSPost2010Prop41ColorRGB
 90
        0
102
RTVSPost2010PropOp41
 70
     1
102
RTVSPost2010Prop42
 90
       50
102
RTVSPost2010PropOp42
 70
     1
102
RTVSPost2010Prop43
 90
        3
102
RTVSPost2010PropOp43
 70
     1
102
RTVSPost2010Prop44ColorIndex
 90
        5
102
RTVSPost2010Prop44ColorRGB
 90
      255
102
RTVSPost2010PropOp44
 70
     1
102
RTVSPost2010Prop45
280
     0
102
RTVSPost2010PropOp45
 70
     1
102
RTVSPost2010Prop46
 90
       50
102
RTVSPost2010PropOp46
 70
     1
102
RTVSPost2010Prop47
 90
       50
102
RTVSPost2010PropOp47
 70
     1
102
RTVSPost2010Prop48
 90
       50
102
RTVSPost2010PropOp48
 70
     1
102
RTVSPost2010Prop49
280
     0
102
RTVSPost2010PropOp49
 70
     1
102
RTVSPost2010Prop50
 90
       50
102
RTVSPost2010PropOp50
 70
     1
102
RTVSPost2010Prop51ColorIndex
 90
      256
102
RTVSPost2010Prop51ColorRGB
 90
-16777216
102
RTVSPost2010PropOp51
 70
     0
102
RTVSPost2010Prop52
140
1.0
102
RTVSPost2010PropOp52
 70
     0
102
RTVSPost2010Prop53
 90
        2
102
RTVSPost2010PropOp53
 70
     1
102
RTVSPost2010Prop54
  1
strokes_ogs.tif
102
RTVSPost2010PropOp54
 70
     1
102
RTVSPost2010Prop55
280
     0
102
RTVSPost2010PropOp55
 70
     1
102
RTVSPost2010Prop56
140
1.0
102
RTVSPost2010PropOp56
 70
     1
102
RTVSPost2010Prop57
140
1.0
102
RTVSPost2010PropOp57
 70
     1
  0
XRECORD
  5
130
102
{ACAD_REACTORS
330
12F
102
}
330
12F
100
AcDbXrecord
280
     1
102
RTVSPost2010Prop28
280
     0
102
RTVSPost2010PropOp28
 70
     1
102
RTVSPost2010Prop29
280
     1
102
RTVSPost2010PropOp29
 70
     1
102
RTVSPost2010Prop30
280
     1
102
RTVSPost2010PropOp30
 70
     1
102
RTVSPost2010Prop31
280
     0
102
RTVSPost2010PropOp31
 70
     1
102
RTVSPost2010Prop32
280
     0
102
RTVSPost2010PropOp32
 70
     1
102
RTVSPost2010Prop33
280
     0
102
RTVSPost2010PropOp33
 70
     1
102
RTVSPost2010Prop34
280
     0
102
RTVSPost2010PropOp34
 70
     1
102
RTVSPost2010Prop35
280
     0
102
RTVSPost2010PropOp35
 70
     1
102
RTVSPost2010Prop36
280
     0
102
RTVSPost2010PropOp36
 70
     1
102
RTVSPost2010Prop37
 90
       50
102
RTVSPost2010PropOp37
 70
     1
102
RTVSPost2010Prop38
140
0.0
102
RTVSPost2010PropOp38
 70
     1
102
RTVSPost2010Prop39
140
1.0
102
RTVSPost2010PropOp39
 70
     1
102
RTVSPost2010Prop40
 90
        0
102
RTVSPost2010PropOp40
 70
     1
102
RTVSPost2010Prop41ColorIndex
 90
       18
102
RTVSPost2010Prop41ColorRGB
 90
        0
102
RTVSPost2010PropOp41
 70
     1
102
RTVSPost2010Prop42
 90
       50
102
RTVSPost2010PropOp42
 70
     1
102
RTVSPost2010Prop43
 90
        3
102
RTVSPost2010PropOp43
 70
     1
102
RTVSPost2010Prop44ColorIndex
 90
        5
102
RTVSPost2010Prop44ColorRGB
 90
      255
102
RTVSPost2010PropOp44
 70
     1
102
RTVSPost2010Prop45
280
     0
102
RTVSPost2010PropOp45
 70
     1
102
RTVSPost2010Prop46
 90
       50
102
RTVSPost2010PropOp46
 70
     1
102
RTVSPost2010Prop47
 90
       50
102
RTVSPost2010PropOp47
 70
     1
102
RTVSPost2010Prop48
 90
       50
102
RTVSPost2010PropOp48
 70
     1
102
RTVSPost2010Prop49
280
     0
102
RTVSPost2010PropOp49
 70
     1
102
RTVSPost2010Prop50
 90
       50
102
RTVSPost2010PropOp50
 70
     1
102
RTVSPost2010Prop51ColorIndex
 90
      256
102
RTVSPost2010Prop51ColorRGB
 90
-16777216
102
RTVSPost2010PropOp51
 70
     0
102
RTVSPost2010Prop52
140
1.0
102
RTVSPost2010PropOp52
 70
     0
102
RTVSPost2010Prop53
 90
        2
102
RTVSPost2010PropOp53
 70
     1
102
RTVSPost2010Prop54
  1
strokes_ogs.tif
102
RTVSPost2010PropOp54
 70
     1
102
RTVSPost2010Prop55
280
     0
102
RTVSPost2010PropOp55
 70
     1
102
RTVSPost2010Prop56
140
1.0
102
RTVSPost2010PropOp56
 70
     1
102
RTVSPost2010Prop57
140
1.0
102
RTVSPost2010PropOp57
 70
     1
  0
XRECORD
  5
12E
102
{ACAD_REACTORS
330
12D
102
}
330
12D
100
AcDbXrecord
280
     1
102
RTVSPost2010Prop28
280
     0
102
RTVSPost2010PropOp28
 70
     1
102
RTVSPost2010Prop29
280
     1
102
RTVSPost2010PropOp29
 70
     1
102
RTVSPost2010Prop30
280
     1
102
RTVSPost2010PropOp30
 70
     1
102
RTVSPost2010Prop31
280
     0
102
RTVSPost2010PropOp31
 70
     1
102
RTVSPost2010Prop32
280
     0
102
RTVSPost2010PropOp32
 70
     1
102
RTVSPost2010Prop33
280
     0
102
RTVSPost2010PropOp33
 70
     1
102
RTVSPost2010Prop34
280
     0
102
RTVSPost2010PropOp34
 70
     1
102
RTVSPost2010Prop35
280
     0
102
RTVSPost2010PropOp35
 70
     1
102
RTVSPost2010Prop36
280
     0
102
RTVSPost2010PropOp36
 70
     1
102
RTVSPost2010Prop37
 90
       50
102
RTVSPost2010PropOp37
 70
     1
102
RTVSPost2010Prop38
140
0.0
102
RTVSPost2010PropOp38
 70
     1
102
RTVSPost2010Prop39
140
1.0
102
RTVSPost2010PropOp39
 70
     1
102
RTVSPost2010Prop40
 90
        0
102
RTVSPost2010PropOp40
 70
     1
102
RTVSPost2010Prop41ColorIndex
 90
       18
102
RTVSPost2010Prop41ColorRGB
 90
        0
102
RTVSPost2010PropOp41
 70
     1
102
RTVSPost2010Prop42
 90
       50
102
RTVSPost2010PropOp42
 70
     1
102
RTVSPost2010Prop43
 90
        3
102
RTVSPost2010PropOp43
 70
     1
102
RTVSPost2010Prop44ColorIndex
 90
        5
102
RTVSPost2010Prop44ColorRGB
 90
      255
102
RTVSPost2010PropOp44
 70
     1
102
RTVSPost2010Prop45
280
     0
102
RTVSPost2010PropOp45
 70
     1
102
RTVSPost2010Prop46
 90
       50
102
RTVSPost2010PropOp46
 70
     1
102
RTVSPost2010Prop47
 90
       50
102
RTVSPost2010PropOp47
 70
     1
102
RTVSPost2010Prop48
 90
       50
102
RTVSPost2010PropOp48
 70
     1
102
RTVSPost2010Prop49
280
     0
102
RTVSPost2010PropOp49
 70
     1
102
RTVSPost2010Prop50
 90
       50
102
RTVSPost2010PropOp50
 70
     1
102
RTVSPost2010Prop51ColorIndex
 90
      256
102
RTVSPost2010Prop51ColorRGB
 90
-16777216
102
RTVSPost2010PropOp51
 70
     0
102
RTVSPost2010Prop52
140
1.0
102
RTVSPost2010PropOp52
 70
     0
102
RTVSPost2010Prop53
 90
        2
102
RTVSPost2010PropOp53
 70
     1
102
RTVSPost2010Prop54
  1
strokes_ogs.tif
102
RTVSPost2010PropOp54
 70
     1
102
RTVSPost2010Prop55
280
     0
102
RTVSPost2010PropOp55
 70
     1
102
RTVSPost2010Prop56
140
1.0
102
RTVSPost2010PropOp56
 70
     1
102
RTVSPost2010Prop57
140
1.0
102
RTVSPost2010PropOp57
 70
     1
  0
XRECORD
  5
128
102
{ACAD_REACTORS
330
127
102
}
330
127
100
AcDbXrecord
280
     1
102
RTVSPost2010Prop28
280
     0
102
RTVSPost2010PropOp28
 70
     1
102
RTVSPost2010Prop29
280
     1
102
RTVSPost2010PropOp29
 70
     1
102
RTVSPost2010Prop30
280
     1
102
RTVSPost2010PropOp30
 70
     1
102
RTVSPost2010Prop31
280
     0
102
RTVSPost2010PropOp31
 70
     1
102
RTVSPost2010Prop32
280
     0
102
RTVSPost2010PropOp32
 70
     1
102
RTVSPost2010Prop33
280
     0
102
RTVSPost2010PropOp33
 70
     1
102
RTVSPost2010Prop34
280
     0
102
RTVSPost2010PropOp34
 70
     1
102
RTVSPost2010Prop35
280
     0
102
RTVSPost2010PropOp35
 70
     1
102
RTVSPost2010Prop36
280
     0
102
RTVSPost2010PropOp36
 70
     1
102
RTVSPost2010Prop37
 90
       50
102
RTVSPost2010PropOp37
 70
     1
102
RTVSPost2010Prop38
140
0.0
102
RTVSPost2010PropOp38
 70
     1
102
RTVSPost2010Prop39
140
1.0
102
RTVSPost2010PropOp39
 70
     1
102
RTVSPost2010Prop40
 90
        0
102
RTVSPost2010PropOp40
 70
     1
102
RTVSPost2010Prop41ColorIndex
 90
       18
102
RTVSPost2010Prop41ColorRGB
 90
        0
102
RTVSPost2010PropOp41
 70
     1
102
RTVSPost2010Prop42
 90
       50
102
RTVSPost2010PropOp42
 70
     1
102
RTVSPost2010Prop43
 90
        3
102
RTVSPost2010PropOp43
 70
     1
102
RTVSPost2010Prop44ColorIndex
 90
        5
102
RTVSPost2010Prop44ColorRGB
 90
      255
102
RTVSPost2010PropOp44
 70
     1
102
RTVSPost2010Prop45
280
     0
102
RTVSPost2010PropOp45
 70
     1
102
RTVSPost2010Prop46
 90
       50
102
RTVSPost2010PropOp46
 70
     1
102
RTVSPost2010Prop47
 90
       50
102
RTVSPost2010PropOp47
 70
     1
102
RTVSPost2010Prop48
 90
       50
102
RTVSPost2010PropOp48
 70
     1
102
RTVSPost2010Prop49
280
     0
102
RTVSPost2010PropOp49
 70
     1
102
RTVSPost2010Prop50
 90
       50
102
RTVSPost2010PropOp50
 70
     1
102
RTVSPost2010Prop51ColorIndex
 90
      256
102
RTVSPost2010Prop51ColorRGB
 90
-16777216
102
RTVSPost2010PropOp51
 70
     0
102
RTVSPost2010Prop52
140
1.0
102
RTVSPost2010PropOp52
 70
     0
102
RTVSPost2010Prop53
 90
        2
102
RTVSPost2010PropOp53
 70
     1
102
RTVSPost2010Prop54
  1
strokes_ogs.tif
102
RTVSPost2010PropOp54
 70
     1
102
RTVSPost2010Prop55
280
     0
102
RTVSPost2010PropOp55
 70
     1
102
RTVSPost2010Prop56
140
1.0
102
RTVSPost2010PropOp56
 70
     1
102
RTVSPost2010Prop57
140
1.0
102
RTVSPost2010PropOp57
 70
     1
  0
XRECORD
  5
12A
102
{ACAD_REACTORS
330
129
102
}
330
129
100
AcDbXrecord
280
     1
102
RTVSPost2010Prop28
280
     0
102
RTVSPost2010PropOp28
 70
     1
102
RTVSPost2010Prop29
280
     1
102
RTVSPost2010PropOp29
 70
     1
102
RTVSPost2010Prop30
280
     1
102
RTVSPost2010PropOp30
 70
     1
102
RTVSPost2010Prop31
280
     0
102
RTVSPost2010PropOp31
 70
     1
102
RTVSPost2010Prop32
280
     0
102
RTVSPost2010PropOp32
 70
     1
102
RTVSPost2010Prop33
280
     0
102
RTVSPost2010PropOp33
 70
     1
102
RTVSPost2010Prop34
280
     0
102
RTVSPost2010PropOp34
 70
     1
102
RTVSPost2010Prop35
280
     0
102
RTVSPost2010PropOp35
 70
     1
102
RTVSPost2010Prop36
280
     0
102
RTVSPost2010PropOp36
 70
     1
102
RTVSPost2010Prop37
 90
       50
102
RTVSPost2010PropOp37
 70
     1
102
RTVSPost2010Prop38
140
0.0
102
RTVSPost2010PropOp38
 70
     1
102
RTVSPost2010Prop39
140
1.0
102
RTVSPost2010PropOp39
 70
     1
102
RTVSPost2010Prop40
 90
        0
102
RTVSPost2010PropOp40
 70
     1
102
RTVSPost2010Prop41ColorIndex
 90
       18
102
RTVSPost2010Prop41ColorRGB
 90
        0
102
RTVSPost2010PropOp41
 70
     1
102
RTVSPost2010Prop42
 90
       50
102
RTVSPost2010PropOp42
 70
     1
102
RTVSPost2010Prop43
 90
        3
102
RTVSPost2010PropOp43
 70
     1
102
RTVSPost2010Prop44ColorIndex
 90
        5
102
RTVSPost2010Prop44ColorRGB
 90
      255
102
RTVSPost2010PropOp44
 70
     1
102
RTVSPost2010Prop45
280
     0
102
RTVSPost2010PropOp45
 70
     1
102
RTVSPost2010Prop46
 90
       50
102
RTVSPost2010PropOp46
 70
     1
102
RTVSPost2010Prop47
 90
       50
102
RTVSPost2010PropOp47
 70
     1
102
RTVSPost2010Prop48
 90
       50
102
RTVSPost2010PropOp48
 70
     1
102
RTVSPost2010Prop49
280
     0
102
RTVSPost2010PropOp49
 70
     1
102
RTVSPost2010Prop50
 90
       50
102
RTVSPost2010PropOp50
 70
     1
102
RTVSPost2010Prop51ColorIndex
 90
      256
102
RTVSPost2010Prop51ColorRGB
 90
-16777216
102
RTVSPost2010PropOp51
 70
     0
102
RTVSPost2010Prop52
140
1.0
102
RTVSPost2010PropOp52
 70
     0
102
RTVSPost2010Prop53
 90
        2
102
RTVSPost2010PropOp53
 70
     1
102
RTVSPost2010Prop54
  1
strokes_ogs.tif
102
RTVSPost2010PropOp54
 70
     1
102
RTVSPost2010Prop55
280
     0
102
RTVSPost2010PropOp55
 70
     1
102
RTVSPost2010Prop56
140
1.0
102
RTVSPost2010PropOp56
 70
     1
102
RTVSPost2010Prop57
140
1.0
102
RTVSPost2010PropOp57
 70
     1
  0
XRECORD
  5
120
102
{ACAD_REACTORS
330
11F
102
}
330
11F
100
AcDbXrecord
280
     1
102
RTVSPost2010Prop28
280
     0
102
RTVSPost2010PropOp28
 70
     1
102
RTVSPost2010Prop29
280
     1
102
RTVSPost2010PropOp29
 70
     1
102
RTVSPost2010Prop30
280
     1
102
RTVSPost2010PropOp30
 70
     1
102
RTVSPost2010Prop31
280
     0
102
RTVSPost2010PropOp31
 70
     1
102
RTVSPost2010Prop32
280
     0
102
RTVSPost2010PropOp32
 70
     1
102
RTVSPost2010Prop33
280
     0
102
RTVSPost2010PropOp33
 70
     1
102
RTVSPost2010Prop34
280
     0
102
RTVSPost2010PropOp34
 70
     1
102
RTVSPost2010Prop35
280
     0
102
RTVSPost2010PropOp35
 70
     1
102
RTVSPost2010Prop36
280
     0
102
RTVSPost2010PropOp36
 70
     1
102
RTVSPost2010Prop37
 90
       50
102
RTVSPost2010PropOp37
 70
     1
102
RTVSPost2010Prop38
140
0.0
102
RTVSPost2010PropOp38
 70
     1
102
RTVSPost2010Prop39
140
1.0
102
RTVSPost2010PropOp39
 70
     1
102
RTVSPost2010Prop40
 90
        0
102
RTVSPost2010PropOp40
 70
     1
102
RTVSPost2010Prop41ColorIndex
 90
       18
102
RTVSPost2010Prop41ColorRGB
 90
        0
102
RTVSPost2010PropOp41
 70
     1
102
RTVSPost2010Prop42
 90
       50
102
RTVSPost2010PropOp42
 70
     1
102
RTVSPost2010Prop43
 90
        3
102
RTVSPost2010PropOp43
 70
     1
102
RTVSPost2010Prop44ColorIndex
 90
        5
102
RTVSPost2010Prop44ColorRGB
 90
      255
102
RTVSPost2010PropOp44
 70
     1
102
RTVSPost2010Prop45
280
     0
102
RTVSPost2010PropOp45
 70
     1
102
RTVSPost2010Prop46
 90
       50
102
RTVSPost2010PropOp46
 70
     1
102
RTVSPost2010Prop47
 90
       50
102
RTVSPost2010PropOp47
 70
     1
102
RTVSPost2010Prop48
 90
       50
102
RTVSPost2010PropOp48
 70
     1
102
RTVSPost2010Prop49
280
     0
102
RTVSPost2010PropOp49
 70
     1
102
RTVSPost2010Prop50
 90
       50
102
RTVSPost2010PropOp50
 70
     1
102
RTVSPost2010Prop51ColorIndex
 90
      256
102
RTVSPost2010Prop51ColorRGB
 90
-16777216
102
RTVSPost2010PropOp51
 70
     0
102
RTVSPost2010Prop52
140
1.0
102
RTVSPost2010PropOp52
 70
     0
102
RTVSPost2010Prop53
 90
        2
102
RTVSPost2010PropOp53
 70
     1
102
RTVSPost2010Prop54
  1
strokes_ogs.tif
102
RTVSPost2010PropOp54
 70
     1
102
RTVSPost2010Prop55
280
     0
102
RTVSPost2010PropOp55
 70
     1
102
RTVSPost2010Prop56
140
1.0
102
RTVSPost2010PropOp56
 70
     1
102
RTVSPost2010Prop57
140
1.0
102
RTVSPost2010PropOp57
 70
     1
  0
XRECORD
  5
114
102
{ACAD_REACTORS
330
113
102
}
330
113
100
AcDbXrecord
280
     1
102
RTVSPost2010Prop28
280
     0
102
RTVSPost2010PropOp28
 70
     1
102
RTVSPost2010Prop29
280
     1
102
RTVSPost2010PropOp29
 70
     1
102
RTVSPost2010Prop30
280
     1
102
RTVSPost2010PropOp30
 70
     1
102
RTVSPost2010Prop31
280
     0
102
RTVSPost2010PropOp31
 70
     1
102
RTVSPost2010Prop32
280
     0
102
RTVSPost2010PropOp32
 70
     1
102
RTVSPost2010Prop33
280
     0
102
RTVSPost2010PropOp33
 70
     1
102
RTVSPost2010Prop34
280
     0
102
RTVSPost2010PropOp34
 70
     1
102
RTVSPost2010Prop35
280
     0
102
RTVSPost2010PropOp35
 70
     1
102
RTVSPost2010Prop36
280
     0
102
RTVSPost2010PropOp36
 70
     1
102
RTVSPost2010Prop37
 90
       50
102
RTVSPost2010PropOp37
 70
     1
102
RTVSPost2010Prop38
140
0.0
102
RTVSPost2010PropOp38
 70
     1
102
RTVSPost2010Prop39
140
1.0
102
RTVSPost2010PropOp39
 70
     1
102
RTVSPost2010Prop40
 90
        0
102
RTVSPost2010PropOp40
 70
     1
102
RTVSPost2010Prop41ColorIndex
 90
       18
102
RTVSPost2010Prop41ColorRGB
 90
        0
102
RTVSPost2010PropOp41
 70
     1
102
RTVSPost2010Prop42
 90
       50
102
RTVSPost2010PropOp42
 70
     1
102
RTVSPost2010Prop43
 90
        3
102
RTVSPost2010PropOp43
 70
     1
102
RTVSPost2010Prop44ColorIndex
 90
        5
102
RTVSPost2010Prop44ColorRGB
 90
      255
102
RTVSPost2010PropOp44
 70
     1
102
RTVSPost2010Prop45
280
     0
102
RTVSPost2010PropOp45
 70
     1
102
RTVSPost2010Prop46
 90
       50
102
RTVSPost2010PropOp46
 70
     1
102
RTVSPost2010Prop47
 90
       50
102
RTVSPost2010PropOp47
 70
     1
102
RTVSPost2010Prop48
 90
       50
102
RTVSPost2010PropOp48
 70
     1
102
RTVSPost2010Prop49
280
     0
102
RTVSPost2010PropOp49
 70
     1
102
RTVSPost2010Prop50
 90
       50
102
RTVSPost2010PropOp50
 70
     1
102
RTVSPost2010Prop51ColorIndex
 90
      256
102
RTVSPost2010Prop51ColorRGB
 90
-16777216
102
RTVSPost2010PropOp51
 70
     0
102
RTVSPost2010Prop52
140
1.0
102
RTVSPost2010PropOp52
 70
     0
102
RTVSPost2010Prop53
 90
        2
102
RTVSPost2010PropOp53
 70
     1
102
RTVSPost2010Prop54
  1
strokes_ogs.tif
102
RTVSPost2010PropOp54
 70
     1
102
RTVSPost2010Prop55
280
     0
102
RTVSPost2010PropOp55
 70
     1
102
RTVSPost2010Prop56
140
1.0
102
RTVSPost2010PropOp56
 70
     1
102
RTVSPost2010Prop57
140
1.0
102
RTVSPost2010PropOp57
 70
     1
  0
XRECORD
  5
12C
102
{ACAD_REACTORS
330
12B
102
}
330
12B
100
AcDbXrecord
280
     1
102
RTVSPost2010Prop28
280
     0
102
RTVSPost2010PropOp28
 70
     1
102
RTVSPost2010Prop29
280
     1
102
RTVSPost2010PropOp29
 70
     1
102
RTVSPost2010Prop30
280
     1
102
RTVSPost2010PropOp30
 70
     1
102
RTVSPost2010Prop31
280
     0
102
RTVSPost2010PropOp31
 70
     1
102
RTVSPost2010Prop32
280
     0
102
RTVSPost2010PropOp32
 70
     1
102
RTVSPost2010Prop33
280
     0
102
RTVSPost2010PropOp33
 70
     1
102
RTVSPost2010Prop34
280
     0
102
RTVSPost2010PropOp34
 70
     1
102
RTVSPost2010Prop35
280
     0
102
RTVSPost2010PropOp35
 70
     1
102
RTVSPost2010Prop36
280
     0
102
RTVSPost2010PropOp36
 70
     1
102
RTVSPost2010Prop37
 90
       50
102
RTVSPost2010PropOp37
 70
     1
102
RTVSPost2010Prop38
140
0.0
102
RTVSPost2010PropOp38
 70
     1
102
RTVSPost2010Prop39
140
1.0
102
RTVSPost2010PropOp39
 70
     1
102
RTVSPost2010Prop40
 90
        0
102
RTVSPost2010PropOp40
 70
     1
102
RTVSPost2010Prop41ColorIndex
 90
       18
102
RTVSPost2010Prop41ColorRGB
 90
        0
102
RTVSPost2010PropOp41
 70
     1
102
RTVSPost2010Prop42
 90
       50
102
RTVSPost2010PropOp42
 70
     1
102
RTVSPost2010Prop43
 90
        3
102
RTVSPost2010PropOp43
 70
     1
102
RTVSPost2010Prop44ColorIndex
 90
        5
102
RTVSPost2010Prop44ColorRGB
 90
      255
102
RTVSPost2010PropOp44
 70
     1
102
RTVSPost2010Prop45
280
     0
102
RTVSPost2010PropOp45
 70
     1
102
RTVSPost2010Prop46
 90
       50
102
RTVSPost2010PropOp46
 70
     1
102
RTVSPost2010Prop47
 90
       50
102
RTVSPost2010PropOp47
 70
     1
102
RTVSPost2010Prop48
 90
       50
102
RTVSPost2010PropOp48
 70
     1
102
RTVSPost2010Prop49
280
     0
102
RTVSPost2010PropOp49
 70
     1
102
RTVSPost2010Prop50
 90
       50
102
RTVSPost2010PropOp50
 70
     1
102
RTVSPost2010Prop51ColorIndex
 90
      256
102
RTVSPost2010Prop51ColorRGB
 90
-16777216
102
RTVSPost2010PropOp51
 70
     0
102
RTVSPost2010Prop52
140
1.0
102
RTVSPost2010PropOp52
 70
     0
102
RTVSPost2010Prop53
 90
        2
102
RTVSPost2010PropOp53
 70
     1
102
RTVSPost2010Prop54
  1
strokes_ogs.tif
102
RTVSPost2010PropOp54
 70
     1
102
RTVSPost2010Prop55
280
     0
102
RTVSPost2010PropOp55
 70
     1
102
RTVSPost2010Prop56
140
1.0
102
RTVSPost2010PropOp56
 70
     1
102
RTVSPost2010Prop57
140
1.0
102
RTVSPost2010PropOp57
 70
     1
  0
ENDSEC
  0
EOF
