  0
SECTION
  2
HEADER
  9
$ACADVER
  1
AC1024
  9
$ACADMAINTVER
 70
   205
  9
$DWGCODEPAGE
  3
ANSI_1251
  9
$INSBASE
 10
0.0
 20
0.0
 30
0.0
  9
$EXTMIN
 10
1.000000000000000E+20
 20
1.000000000000000E+20
 30
1.000000000000000E+20
  9
$EXTMAX
 10
-1.000000000000000E+20
 20
-1.000000000000000E+20
 30
-1.000000000000000E+20
  9
$LIMMIN
 10
0.0
 20
0.0
  9
$LIMMAX
 10
12.0
 20
9.0
  9
$ORTHOMODE
 70
     0
  9
$REGENMODE
 70
     1
  9
$FILLMODE
 70
     1
  9
$QTEXTMODE
 70
     0
  9
$MIRRTEXT
 70
     1
  9
$LTSCALE
 40
1.0
  9
$ATTMODE
 70
     1
  9
$TEXTSIZE
 40
0.2
  9
$TRACEWID
 40
0.05
  9
$TEXTSTYLE
  7
Standard
  9
$CLAYER
  8
OracDecor_cornice_mouldings
  9
$CELTYPE
  6
ByLayer
  9
$CECOLOR
 62
   256
  9
$CELTSCALE
 40
1.0
  9
$DISPSILH
 70
     0
  9
$DIMSCALE
 40
1.0
  9
$DIMASZ
 40
0.18
  9
$DIMEXO
 40
0.0625
  9
$DIMDLI
 40
0.38
  9
$DIMRND
 40
0.0
  9
$DIMDLE
 40
0.0
  9
$DIMEXE
 40
0.18
  9
$DIMTP
 40
0.0
  9
$DIMTM
 40
0.0
  9
$DIMTXT
 40
0.18
  9
$DIMCEN
 40
0.09
  9
$DIMTSZ
 40
0.0
  9
$DIMTOL
 70
     0
  9
$DIMLIM
 70
     0
  9
$DIMTIH
 70
     1
  9
$DIMTOH
 70
     1
  9
$DIMSE1
 70
     0
  9
$DIMSE2
 70
     0
  9
$DIMTAD
 70
     0
  9
$DIMZIN
 70
     0
  9
$DIMBLK
  1

  9
$DIMASO
 70
     1
  9
$DIMSHO
 70
     1
  9
$DIMPOST
  1

  9
$DIMAPOST
  1

  9
$DIMALT
 70
     0
  9
$DIMALTD
 70
     2
  9
$DIMALTF
 40
25.4
  9
$DIMLFAC
 40
1.0
  9
$DIMTOFL
 70
     0
  9
$DIMTVP
 40
0.0
  9
$DIMTIX
 70
     0
  9
$DIMSOXD
 70
     0
  9
$DIMSAH
 70
     0
  9
$DIMBLK1
  1

  9
$DIMBLK2
  1

  9
$DIMSTYLE
  2
Standard
  9
$DIMCLRD
 70
     0
  9
$DIMCLRE
 70
     0
  9
$DIMCLRT
 70
     0
  9
$DIMTFAC
 40
1.0
  9
$DIMGAP
 40
0.09
  9
$DIMJUST
 70
     0
  9
$DIMSD1
 70
     0
  9
$DIMSD2
 70
     0
  9
$DIMTOLJ
 70
     1
  9
$DIMTZIN
 70
     0
  9
$DIMALTZ
 70
     0
  9
$DIMALTTZ
 70
     0
  9
$DIMUPT
 70
     0
  9
$DIMDEC
 70
     4
  9
$DIMTDEC
 70
     4
  9
$DIMALTU
 70
     2
  9
$DIMALTTD
 70
     2
  9
$DIMTXSTY
  7
Standard
  9
$DIMAUNIT
 70
     0
  9
$DIMADEC
 70
     0
  9
$DIMALTRND
 40
0.0
  9
$DIMAZIN
 70
     0
  9
$DIMDSEP
 70
    46
  9
$DIMATFIT
 70
     3
  9
$DIMFRAC
 70
     0
  9
$DIMLDRBLK
  1

  9
$DIMLUNIT
 70
     2
  9
$DIMLWD
 70
    -2
  9
$DIMLWE
 70
    -2
  9
$DIMTMOVE
 70
     0
  9
$DIMFXL
 40
1.0
  9
$DIMFXLON
 70
     0
  9
$DIMJOGANG
 40
0.7853981633974483
  9
$DIMTFILL
 70
     0
  9
$DIMTFILLCLR
 70
     0
  9
$DIMARCSYM
 70
     0
  9
$DIMLTYPE
  6

  9
$DIMLTEX1
  6

  9
$DIMLTEX2
  6

  9
$DIMTXTDIRECTION
 70
     0
  9
$LUNITS
 70
     2
  9
$LUPREC
 70
     4
  9
$SKETCHINC
 40
0.1
  9
$FILLETRAD
 40
0.5
  9
$AUNITS
 70
     0
  9
$AUPREC
 70
     0
  9
$MENU
  1
.
  9
$ELEVATION
 40
0.0
  9
$PELEVATION
 40
0.0
  9
$THICKNESS
 40
0.0
  9
$LIMCHECK
 70
     0
  9
$CHAMFERA
 40
0.5
  9
$CHAMFERB
 40
0.5
  9
$CHAMFERC
 40
1.0
  9
$CHAMFERD
 40
0.0
  9
$SKPOLY
 70
     0
  9
$TDCREATE
 40
2451380.930432396
  9
$TDUCREATE
 40
2451380.805432396
  9
$TDUPDATE
 40
2451380.966180555
  9
$TDUUPDATE
 40
2451380.841180556
  9
$TDINDWG
 40
0.0075632176
  9
$TDUSRTIMER
 40
0.0075541782
  9
$USRTIMER
 70
     1
  9
$ANGBASE
 50
0.0
  9
$ANGDIR
 70
     0
  9
$PDMODE
 70
     0
  9
$PDSIZE
 40
0.0
  9
$PLINEWID
 40
0.0
  9
$SPLFRAME
 70
     0
  9
$SPLINETYPE
 70
     6
  9
$SPLINESEGS
 70
     8
  9
$HANDSEED
  5
1D3
  9
$SURFTAB1
 70
     6
  9
$SURFTAB2
 70
     6
  9
$SURFTYPE
 70
     6
  9
$SURFU
 70
     6
  9
$SURFV
 70
     6
  9
$UCSBASE
  2

  9
$UCSNAME
  2

  9
$UCSORG
 10
0.0
 20
0.0
 30
0.0
  9
$UCSXDIR
 10
1.0
 20
0.0
 30
0.0
  9
$UCSYDIR
 10
0.0
 20
1.0
 30
0.0
  9
$UCSORTHOREF
  2

  9
$UCSORTHOVIEW
 70
     0
  9
$UCSORGTOP
 10
0.0
 20
0.0
 30
0.0
  9
$UCSORGBOTTOM
 10
0.0
 20
0.0
 30
0.0
  9
$UCSORGLEFT
 10
0.0
 20
0.0
 30
0.0
  9
$UCSORGRIGHT
 10
0.0
 20
0.0
 30
0.0
  9
$UCSORGFRONT
 10
0.0
 20
0.0
 30
0.0
  9
$UCSORGBACK
 10
0.0
 20
0.0
 30
0.0
  9
$PUCSBASE
  2

  9
$PUCSNAME
  2

  9
$PUCSORG
 10
0.0
 20
0.0
 30
0.0
  9
$PUCSXDIR
 10
1.0
 20
0.0
 30
0.0
  9
$PUCSYDIR
 10
0.0
 20
1.0
 30
0.0
  9
$PUCSORTHOREF
  2

  9
$PUCSORTHOVIEW
 70
     0
  9
$PUCSORGTOP
 10
0.0
 20
0.0
 30
0.0
  9
$PUCSORGBOTTOM
 10
0.0
 20
0.0
 30
0.0
  9
$PUCSORGLEFT
 10
0.0
 20
0.0
 30
0.0
  9
$PUCSORGRIGHT
 10
0.0
 20
0.0
 30
0.0
  9
$PUCSORGFRONT
 10
0.0
 20
0.0
 30
0.0
  9
$PUCSORGBACK
 10
0.0
 20
0.0
 30
0.0
  9
$USERI1
 70
     0
  9
$USERI2
 70
     0
  9
$USERI3
 70
     0
  9
$USERI4
 70
     0
  9
$USERI5
 70
     0
  9
$USERR1
 40
0.0
  9
$USERR2
 40
0.0
  9
$USERR3
 40
0.0
  9
$USERR4
 40
0.0
  9
$USERR5
 40
0.0
  9
$WORLDVIEW
 70
     1
  9
$SHADEDGE
 70
     3
  9
$SHADEDIF
 70
    70
  9
$TILEMODE
 70
     1
  9
$MAXACTVP
 70
    64
  9
$PINSBASE
 10
0.0
 20
0.0
 30
0.0
  9
$PLIMCHECK
 70
     0
  9
$PEXTMIN
 10
1.000000000000000E+20
 20
1.000000000000000E+20
 30
1.000000000000000E+20
  9
$PEXTMAX
 10
-1.000000000000000E+20
 20
-1.000000000000000E+20
 30
-1.000000000000000E+20
  9
$PLIMMIN
 10
0.0
 20
0.0
  9
$PLIMMAX
 10
12.0
 20
9.0
  9
$UNITMODE
 70
     0
  9
$VISRETAIN
 70
     1
  9
$PLINEGEN
 70
     0
  9
$PSLTSCALE
 70
     1
  9
$TREEDEPTH
 70
  3020
  9
$CMLSTYLE
  2
Standard
  9
$CMLJUST
 70
     0
  9
$CMLSCALE
 40
1.0
  9
$PROXYGRAPHICS
 70
     1
  9
$MEASUREMENT
 70
     1
  9
$CELWEIGHT
370
    -1
  9
$ENDCAPS
280
     0
  9
$JOINSTYLE
280
     0
  9
$LWDISPLAY
290
     0
  9
$INSUNITS
 70
     4
  9
$HYPERLINKBASE
  1

  9
$STYLESHEET
  1

  9
$XEDIT
290
     1
  9
$CEPSNTYPE
380
     0
  9
$PSTYLEMODE
290
     1
  9
$FINGERPRINTGUID
  2
{12F50282-3ED8-11D3-A8B7-0060B0F84BC6}
  9
$VERSIONGUID
  2
{12F50293-3ED8-11D3-A8B7-0060B0F84BC6}
  9
$EXTNAMES
290
     1
  9
$PSVPSCALE
 40
0.0
  9
$OLESTARTUP
290
     0
  9
$SORTENTS
280
   127
  9
$INDEXCTL
280
     0
  9
$HIDETEXT
280
     0
  9
$XCLIPFRAME
280
     2
  9
$HALOGAP
280
     0
  9
$OBSCOLOR
 70
   257
  9
$OBSLTYPE
280
     0
  9
$INTERSECTIONDISPLAY
280
     0
  9
$INTERSECTIONCOLOR
 70
   257
  9
$DIMASSOC
280
     1
  9
$PROJECTNAME
  1

  9
$CAMERADISPLAY
290
     0
  9
$LENSLENGTH
 40
50.0
  9
$CAMERAHEIGHT
 40
0.0
  9
$STEPSPERSEC
 40
2.0
  9
$STEPSIZE
 40
6.0
  9
$3DDWFPREC
 40
2.0
  9
$PSOLWIDTH
 40
0.25
  9
$PSOLHEIGHT
 40
4.0
  9
$LOFTANG1
 40
1.570796326794896
  9
$LOFTANG2
 40
1.570796326794896
  9
$LOFTMAG1
 40
0.0
  9
$LOFTMAG2
 40
0.0
  9
$LOFTPARAM
 70
     7
  9
$LOFTNORMALS
280
     1
  9
$LATITUDE
 40
37.795
  9
$LONGITUDE
 40
-122.394
  9
$NORTHDIRECTION
 40
0.0
  9
$TIMEZONE
 70
 -8000
  9
$LIGHTGLYPHDISPLAY
280
     1
  9
$TILEMODELIGHTSYNCH
280
     1
  9
$CMATERIAL
347
AB
  9
$SOLIDHIST
280
     0
  9
$SHOWHIST
280
     1
  9
$DWFFRAME
280
     2
  9
$DGNFRAME
280
     0
  9
$REALWORLDSCALE
290
     1
  9
$INTERFERECOLOR
 62
     1
  9
$INTERFEREOBJVS
345
CD
  9
$INTERFEREVPVS
346
CA
  9
$CSHADOW
280
     0
  9
$SHADOWPLANELOCATION
 40
0.0
  0
ENDSEC
  0
SECTION
  2
CLASSES
  0
CLASS
  1
ACDBDICTIONARYWDFLT
  2
AcDbDictionaryWithDefault
  3
ObjectDBX Classes
 90
        0
 91
        1
280
     0
281
     0
  0
CLASS
  1
ACDBPLACEHOLDER
  2
AcDbPlaceHolder
  3
ObjectDBX Classes
 90
        0
 91
        2
280
     0
281
     0
  0
CLASS
  1
LAYOUT
  2
AcDbLayout
  3
ObjectDBX Classes
 90
        0
 91
        3
280
     0
281
     0
  0
CLASS
  1
MATERIAL
  2
AcDbMaterial
  3
ObjectDBX Classes
 90
     1153
 91
        3
280
     0
281
     0
  0
CLASS
  1
VISUALSTYLE
  2
AcDbVisualStyle
  3
ObjectDBX Classes
 90
     4095
 91
       24
280
     0
281
     0
  0
CLASS
  1
TABLESTYLE
  2
AcDbTableStyle
  3
ObjectDBX Classes
 90
     4095
 91
        1
280
     0
281
     0
  0
CLASS
  1
SCALE
  2
AcDbScale
  3
ObjectDBX Classes
 90
     1153
 91
       17
280
     0
281
     0
  0
CLASS
  1
MLEADERSTYLE
  2
AcDbMLeaderStyle
  3
ACDB_MLEADERSTYLE_CLASS
 90
     4095
 91
        1
280
     0
281
     0
  0
CLASS
  1
ACDBSECTIONVIEWSTYLE
  2
AcDbSectionViewStyle
  3
ObjectDBX Classes
 90
     1025
 91
        1
280
     0
281
     0
  0
CLASS
  1
ACDBDETAILVIEWSTYLE
  2
AcDbDetailViewStyle
  3
ObjectDBX Classes
 90
     1025
 91
        1
280
     0
281
     0
  0
CLASS
  1
MESH
  2
AcDbSubDMesh
  3
ObjectDBX Classes
 90
        0
 91
        1
280
     0
281
     1
  0
CLASS
  1
DICTIONARYVAR
  2
AcDbDictionaryVar
  3
ObjectDBX Classes
 90
        0
 91
        9
280
     0
281
     0
  0
CLASS
  1
CELLSTYLEMAP
  2
AcDbCellStyleMap
  3
ObjectDBX Classes
 90
     1152
 91
        1
280
     0
281
     0
  0
ENDSEC
  0
SECTION
  2
TABLES
  0
TABLE
  2
VPORT
  5
8
330
0
100
AcDbSymbolTable
 70
     1
  0
VPORT
  5
A8
330
8
100
AcDbSymbolTableRecord
100
AcDbViewportTableRecord
  2
*Active
 70
     0
 10
0.0
 20
0.0
 11
1.0
 21
1.0
 12
0.0000229278866755
 22
-48.98979187011718
 13
0.0
 23
0.0
 14
0.5
 24
0.5
 15
0.5
 25
0.5
 16
-1.0
 26
-1.0
 36
1.0
 17
0.0
 27
0.0
 37
0.0
 40
1180.000060752989
 41
1.555910065372502
 42
50.0
 43
0.0
 44
0.0
 50
0.0
 51
0.0
 71
     0
 72
   100
 73
     1
 74
     3
 75
     0
 76
     0
 77
     0
 78
     0
281
     0
 65
     1
110
0.0
120
0.0
130
0.0
111
1.0
121
0.0
131
0.0
112
0.0
122
1.0
132
0.0
 79
     0
146
0.0
348
C9
 60
     3
 61
     5
292
     1
282
     1
141
0.0
142
0.0
 63
   250
421
  3355443
  0
ENDTAB
  0
TABLE
  2
LTYPE
  5
5
330
0
100
AcDbSymbolTable
 70
     1
  0
LTYPE
  5
14
330
5
100
AcDbSymbolTableRecord
100
AcDbLinetypeTableRecord
  2
ByBlock
 70
     0
  3

 72
    65
 73
     0
 40
0.0
  0
LTYPE
  5
15
330
5
100
AcDbSymbolTableRecord
100
AcDbLinetypeTableRecord
  2
ByLayer
 70
     0
  3

 72
    65
 73
     0
 40
0.0
  0
LTYPE
  5
16
330
5
100
AcDbSymbolTableRecord
100
AcDbLinetypeTableRecord
  2
Continuous
 70
     0
  3
Solid line
 72
    65
 73
     0
 40
0.0
  0
ENDTAB
  0
TABLE
  2
LAYER
  5
2
330
0
100
AcDbSymbolTable
 70
     3
  0
LAYER
  5
10
330
2
100
AcDbSymbolTableRecord
100
AcDbLayerTableRecord
  2
0
 70
     0
 62
     7
  6
Continuous
370
    -3
390
F
347
BB
  0
LAYER
  5
2B
330
2
100
AcDbSymbolTableRecord
100
AcDbLayerTableRecord
  2
ASHADE
 70
     4
 62
     7
  6
Continuous
370
    -3
390
2D
347
BB
  0
LAYER
  5
F8
330
2
100
AcDbSymbolTableRecord
100
AcDbLayerTableRecord
  2
OracDecor_cornice_mouldings
 70
     0
 62
    21
420
 14915993
  6
Continuous
370
    -3
390
F
347
BB
  0
ENDTAB
  0
TABLE
  2
STYLE
  5
3
330
0
100
AcDbSymbolTable
 70
     2
  0
STYLE
  5
11
330
3
100
AcDbSymbolTableRecord
100
AcDbTextStyleTableRecord
  2
Standard
 70
     0
 40
0.0
 41
1.0
 50
0.0
 71
     0
 42
0.2
  3
txt
  4

  0
STYLE
  5
2C
330
3
100
AcDbSymbolTableRecord
100
AcDbTextStyleTableRecord
  2
ASHADE
 70
     0
 40
0.2
 41
1.0
 50
0.0
 71
     0
 42
0.2
  3
simplex
  4

  0
ENDTAB
  0
TABLE
  2
VIEW
  5
6
330
0
100
AcDbSymbolTable
 70
     0
  0
ENDTAB
  0
TABLE
  2
UCS
  5
7
330
0
100
AcDbSymbolTable
 70
     0
  0
ENDTAB
  0
TABLE
  2
APPID
  5
9
330
0
100
AcDbSymbolTable
 70
     6
  0
APPID
  5
12
330
9
100
AcDbSymbolTableRecord
100
AcDbRegAppTableRecord
  2
ACAD
 70
     0
  0
APPID
  5
8F
330
9
100
AcDbSymbolTableRecord
100
AcDbRegAppTableRecord
  2
AVE_RENDER
 70
     0
  0
APPID
  5
90
330
9
100
AcDbSymbolTableRecord
100
AcDbRegAppTableRecord
  2
AVE_ENTITY_MATERIAL
 70
     0
  0
APPID
  5
9C
330
9
100
AcDbSymbolTableRecord
100
AcDbRegAppTableRecord
  2
AVE_FINISH
 70
     0
  0
APPID
  5
9D
330
9
100
AcDbSymbolTableRecord
100
AcDbRegAppTableRecord
  2
AVE_MATERIAL
 70
     0
  0
APPID
  5
9E
330
9
100
AcDbSymbolTableRecord
100
AcDbRegAppTableRecord
  2
AVE_GLOBAL
 70
     0
  0
ENDTAB
  0
TABLE
  2
DIMSTYLE
  5
A
330
0
100
AcDbSymbolTable
 70
     1
100
AcDbDimStyleTable
 71
     0
  0
DIMSTYLE
105
27
330
A
100
AcDbSymbolTableRecord
100
AcDbDimStyleTableRecord
  2
Standard
 70
     0
340
11
  0
ENDTAB
  0
TABLE
  2
BLOCK_RECORD
  5
1
330
0
100
AcDbSymbolTable
 70
     6
  0
BLOCK_RECORD
  5
1F
330
1
100
AcDbSymbolTableRecord
100
AcDbBlockTableRecord
  2
*Model_Space
340
22
 70
     0
280
     1
281
     0
  0
BLOCK_RECORD
  5
1B
330
1
100
AcDbSymbolTableRecord
100
AcDbBlockTableRecord
  2
*Paper_Space
340
1E
 70
     0
280
     1
281
     0
  0
BLOCK_RECORD
  5
23
330
1
100
AcDbSymbolTableRecord
100
AcDbBlockTableRecord
  2
*Paper_Space0
340
26
 70
     0
280
     1
281
     0
  0
BLOCK_RECORD
  5
2E
330
1
100
AcDbSymbolTableRecord
100
AcDbBlockTableRecord
  2
direct
340
0
 70
     0
280
     1
281
     0
  0
BLOCK_RECORD
  5
42
330
1
100
AcDbSymbolTableRecord
100
AcDbBlockTableRecord
  2
overhead
340
0
 70
     0
280
     1
281
     0
  0
BLOCK_RECORD
  5
5F
330
1
100
AcDbSymbolTableRecord
100
AcDbBlockTableRecord
  2
sh_spot
340
0
 70
     0
280
     1
281
     0
  0
BLOCK_RECORD
  5
91
330
1
100
AcDbSymbolTableRecord
100
AcDbBlockTableRecord
  2
AVE_RENDER
340
0
102
{BLKREFS
331
94
331
95
331
96
331
97
331
98
331
99
331
9A
331
9B
102
}
 70
     0
280
     1
281
     0
  0
BLOCK_RECORD
  5
9F
330
1
100
AcDbSymbolTableRecord
100
AcDbBlockTableRecord
  2
AVE_GLOBAL
340
0
102
{BLKREFS
331
A2
102
}
 70
     0
280
     1
281
     0
  0
ENDTAB
  0
ENDSEC
  0
SECTION
  2
BLOCKS
  0
BLOCK
  5
20
330
1F
100
AcDbEntity
  8
0
100
AcDbBlockBegin
  2
*Model_Space
 70
     0
 10
0.0
 20
0.0
 30
0.0
  3
*Model_Space
  1

  0
ENDBLK
  5
21
330
1F
100
AcDbEntity
  8
0
100
AcDbBlockEnd
  0
BLOCK
  5
1C
330
1B
100
AcDbEntity
 67
     1
  8
0
100
AcDbBlockBegin
  2
*Paper_Space
 70
     0
 10
0.0
 20
0.0
 30
0.0
  3
*Paper_Space
  1

  0
ENDBLK
  5
1D
330
1B
100
AcDbEntity
 67
     1
  8
0
100
AcDbBlockEnd
  0
BLOCK
  5
24
330
23
100
AcDbEntity
 67
     1
  8
0
100
AcDbBlockBegin
  2
*Paper_Space0
 70
     0
 10
0.0
 20
0.0
 30
0.0
  3
*Paper_Space0
  1

  0
ENDBLK
  5
25
330
23
100
AcDbEntity
 67
     1
  8
0
100
AcDbBlockEnd
  0
BLOCK
  5
40
330
2E
100
AcDbEntity
  8
0
100
AcDbBlockBegin
  2
direct
 70
     2
 10
0.0
 20
0.0
 30
0.0
  3
direct
  1

  0
ATTDEF
  5
2F
330
2E
100
AcDbEntity
  8
ASHADE
  6
Continuous
 62
     1
100
AcDbText
 10
0.0
 20
-0.1
 30
0.0
 40
0.2
  1

  7
ASHADE
 72
     1
 11
0.0
 21
-0.1
 31
0.0
100
AcDbAttributeDefinition
280
     0
  3
Light Name
  2
SNAME
 70
     0
280
     0
  0
ARC
  5
30
330
2E
100
AcDbEntity
  8
ASHADE
  6
Continuous
 62
     7
100
AcDbCircle
 10
0.0
 20
0.0
 30
0.0
 40
0.3
100
AcDbArc
 50
205.6792886194569
 51
334.3207113805431
  0
ARC
  5
31
330
2E
100
AcDbEntity
  8
ASHADE
  6
Continuous
 62
     7
100
AcDbCircle
 10
0.0
 20
0.0
 30
0.0
 40
0.3
100
AcDbArc
 50
25.67928861945685
 51
154.3207113805431
  0
LINE
  5
32
330
2E
100
AcDbEntity
  8
ASHADE
  6
Continuous
 62
     7
100
AcDbLine
 10
-0.21
 20
0.2142428528562855
 30
0.0
 11
-0.21
 21
0.5
 31
0.0
  0
LINE
  5
33
330
2E
100
AcDbEntity
  8
ASHADE
  6
Continuous
 62
     7
100
AcDbLine
 10
-0.11
 20
0.2791057147390572
 30
0.0
 11
-0.11
 21
0.5
 31
0.0
  0
LINE
  5
34
330
2E
100
AcDbEntity
  8
ASHADE
  6
Continuous
 62
     7
100
AcDbLine
 10
0.21
 20
0.2142428528562855
 30
0.0
 11
0.21
 21
0.5
 31
0.0
  0
ATTDEF
  5
35
330
2E
100
AcDbEntity
  8
ASHADE
  6
Continuous
 62
     7
100
AcDbText
 10
0.0
 20
0.25
 30
0.0
 40
0.01
  1

100
AcDbAttributeDefinition
280
     0
  3
Look-at Y
  2
LAY
 70
     1
280
     0
  0
ATTDEF
  5
36
330
2E
100
AcDbEntity
  8
ASHADE
  6
Continuous
 62
     7
100
AcDbText
 10
0.0
 20
0.22
 30
0.0
 40
0.01
  1
1
100
AcDbAttributeDefinition
280
     0
  3
Light Intensity
  2
INTENSITY
 70
     1
280
     0
  0
ATTDEF
  5
37
330
2E
100
AcDbEntity
  8
ASHADE
  6
Continuous
 62
     7
100
AcDbText
 10
0.0
 20
0.16
 30
0.0
 40
0.01
  1
-1
100
AcDbAttributeDefinition
280
     0
  3
*not used*
  2
BEAMD
 70
     1
280
     0
  0
ATTDEF
  5
38
330
2E
100
AcDbEntity
  8
ASHADE
  6
Continuous
 62
     7
100
AcDbText
 10
0.0
 20
0.175
 30
0.0
 40
0.01
  1
-1
100
AcDbAttributeDefinition
280
     0
  3
*not used*
  2
CONED
 70
     1
280
     0
  0
ATTDEF
  5
39
330
2E
100
AcDbEntity
  8
ASHADE
  6
Continuous
 62
     7
100
AcDbText
 10
0.0
 20
0.19
 30
0.0
 40
0.01
  1
0
100
AcDbAttributeDefinition
280
     0
  3
Depth Map Size
  2
CONEA
 70
     1
280
     0
  0
ATTDEF
  5
3A
330
2E
100
AcDbEntity
  8
ASHADE
  6
Continuous
 62
     7
100
AcDbText
 10
0.0
 20
0.2050000000000001
 30
0.0
 40
0.01
  1
1,1,1
100
AcDbAttributeDefinition
280
     0
  3
Light Color (RGB)
  2
COLOR
 70
     1
280
     0
  0
ATTDEF
  5
3B
330
2E
100
AcDbEntity
  8
ASHADE
  6
Continuous
 62
     7
100
AcDbText
 10
0.0
 20
0.235
 30
0.0
 40
0.01
  1

100
AcDbAttributeDefinition
280
     0
  3
Look-at Z
  2
LAZ
 70
     1
280
     0
  0
LINE
  5
3C
330
2E
100
AcDbEntity
  8
ASHADE
  6
Continuous
 62
     7
100
AcDbLine
 10
0.0
 20
0.3
 30
0.0
 11
0.0
 21
0.5
 31
0.0
  0
LINE
  5
3D
330
2E
100
AcDbEntity
  8
ASHADE
  6
Continuous
 62
     7
100
AcDbLine
 10
0.11
 20
0.2791057147390572
 30
0.0
 11
0.11
 21
0.5
 31
0.0
  0
ATTDEF
  5
3E
330
2E
100
AcDbEntity
  8
ASHADE
  6
Continuous
 62
     7
100
AcDbText
 10
0.0
 20
0.265
 30
0.0
 40
0.01
  1

100
AcDbAttributeDefinition
280
     0
  3
Look-at X
  2
LAX
 70
     1
280
     0
  0
ATTDEF
  5
3F
330
2E
100
AcDbEntity
  8
ASHADE
  6
Continuous
 62
     7
100
AcDbText
 10
0.0
 20
0.28
 30
0.0
 40
0.01
  1

100
AcDbAttributeDefinition
280
     0
  3

  2
GNAME
 70
     1
280
     0
  0
ENDBLK
  5
41
330
2E
100
AcDbEntity
  8
0
100
AcDbBlockEnd
  0
BLOCK
  5
5D
330
42
100
AcDbEntity
  8
0
100
AcDbBlockBegin
  2
overhead
 70
     2
 10
0.0
 20
0.0
 30
0.0
  3
overhead
  1

  0
ATTDEF
  5
43
330
42
100
AcDbEntity
  8
ASHADE
  6
Continuous
 62
     1
100
AcDbText
 10
0.0
 20
-0.1
 30
0.0
 40
0.2
  1

  7
ASHADE
 72
     1
 11
0.0
 21
-0.1
 31
0.0
100
AcDbAttributeDefinition
280
     0
  3
Light Name
  2
SNAME
 70
     0
280
     0
  0
ARC
  5
44
330
42
100
AcDbEntity
  8
ASHADE
  6
Continuous
 62
     7
100
AcDbCircle
 10
0.0
 20
0.0
 30
0.0
 40
0.3
100
AcDbArc
 50
205.6792886194569
 51
334.3207113805431
  0
LINE
  5
45
330
42
100
AcDbEntity
  8
ASHADE
  6
Continuous
 62
     7
100
AcDbLine
 10
-0.2041413561583015
 20
-0.2198324514393848
 30
0.0
 11
-0.2721884748777353
 21
-0.2931099352525131
 31
0.0
  0
LINE
  5
46
330
42
100
AcDbEntity
  8
ASHADE
  6
Continuous
 62
     7
100
AcDbLine
 10
-0.1096591641591904
 20
-0.2792398032442862
 30
0.0
 11
-0.1279356915190555
 21
-0.3257797704516673
 31
0.0
  0
LINE
  5
47
330
42
100
AcDbEntity
  8
ASHADE
  6
Continuous
 62
     7
100
AcDbLine
 10
0.0
 20
-0.2999999999999999
 30
0.0
 11
0.0
 21
-0.4
 31
0.0
  0
LINE
  5
48
330
42
100
AcDbEntity
  8
ASHADE
  6
Continuous
 62
     7
100
AcDbLine
 10
0.1096591641591904
 20
-0.2792398032442862
 30
0.0
 11
0.1279356915190555
 21
-0.3257797704516673
 31
0.0
  0
LINE
  5
49
330
42
100
AcDbEntity
  8
ASHADE
  6
Continuous
 62
     7
100
AcDbLine
 10
0.2041413561583015
 20
-0.2198324514393848
 30
0.0
 11
0.2721884748777353
 21
-0.2931099352525131
 31
0.0
  0
ARC
  5
4A
330
42
100
AcDbEntity
  8
ASHADE
  6
Continuous
 62
     7
100
AcDbCircle
 10
0.0
 20
0.0
 30
0.0
 40
0.3
100
AcDbArc
 50
25.67928861945685
 51
154.3207113805431
  0
LINE
  5
4B
330
42
100
AcDbEntity
  8
ASHADE
  6
Continuous
 62
     7
100
AcDbLine
 10
-0.2703701166919155
 20
0.13
 30
0.0
 11
-0.3154318028072347
 21
0.1516666666666666
 31
0.0
  0
LINE
  5
4C
330
42
100
AcDbEntity
  8
ASHADE
  6
Continuous
 62
     7
100
AcDbLine
 10
-0.2703701166919155
 20
-0.13
 30
0.0
 11
-0.3154318028072347
 21
-0.1516666666666666
 31
0.0
  0
LINE
  5
4D
330
42
100
AcDbEntity
  8
ASHADE
  6
Continuous
 62
     7
100
AcDbLine
 10
-0.2041413561583015
 20
0.2198324514393849
 30
0.0
 11
-0.2721884748777353
 21
0.2931099352525131
 31
0.0
  0
LINE
  5
4E
330
42
100
AcDbEntity
  8
ASHADE
  6
Continuous
 62
     7
100
AcDbLine
 10
-0.1096591641591904
 20
0.2792398032442862
 30
0.0
 11
-0.1279356915190555
 21
0.3257797704516674
 31
0.0
  0
LINE
  5
4F
330
42
100
AcDbEntity
  8
ASHADE
  6
Continuous
 62
     7
100
AcDbLine
 10
0.2703701166919155
 20
-0.13
 30
0.0
 11
0.3154318028072347
 21
-0.1516666666666666
 31
0.0
  0
LINE
  5
50
330
42
100
AcDbEntity
  8
ASHADE
  6
Continuous
 62
     7
100
AcDbLine
 10
0.2703701166919155
 20
0.13
 30
0.0
 11
0.3154318028072347
 21
0.1516666666666666
 31
0.0
  0
LINE
  5
51
330
42
100
AcDbEntity
  8
ASHADE
  6
Continuous
 62
     7
100
AcDbLine
 10
0.0
 20
0.3
 30
0.0
 11
0.0
 21
0.4
 31
0.0
  0
ATTDEF
  5
52
330
42
100
AcDbEntity
  8
ASHADE
  6
Continuous
 62
     7
100
AcDbText
 10
0.0
 20
0.22
 30
0.0
 40
0.01
  1
1
100
AcDbAttributeDefinition
280
     0
  3
Light Intensity
  2
INTENSITY
 70
     1
280
     0
  0
ATTDEF
  5
53
330
42
100
AcDbEntity
  8
ASHADE
  6
Continuous
 62
     7
100
AcDbText
 10
0.0
 20
0.16
 30
0.0
 40
0.01
  1
-1
100
AcDbAttributeDefinition
280
     0
  3
*not used*
  2
BEAMD
 70
     1
280
     0
  0
ATTDEF
  5
54
330
42
100
AcDbEntity
  8
ASHADE
  6
Continuous
 62
     7
100
AcDbText
 10
0.0
 20
0.175
 30
0.0
 40
0.01
  1
-1
100
AcDbAttributeDefinition
280
     0
  3
*not used*
  2
CONED
 70
     1
280
     0
  0
ATTDEF
  5
55
330
42
100
AcDbEntity
  8
ASHADE
  6
Continuous
 62
     7
100
AcDbText
 10
0.0
 20
0.19
 30
0.0
 40
0.01
  1
0
100
AcDbAttributeDefinition
280
     0
  3
Depth Map Size
  2
CONEA
 70
     1
280
     0
  0
ATTDEF
  5
56
330
42
100
AcDbEntity
  8
ASHADE
  6
Continuous
 62
     7
100
AcDbText
 10
0.0
 20
0.2050000000000001
 30
0.0
 40
0.01
  1
1,1,1
100
AcDbAttributeDefinition
280
     0
  3
Light Color (RGB)
  2
COLOR
 70
     1
280
     0
  0
ATTDEF
  5
57
330
42
100
AcDbEntity
  8
ASHADE
  6
Continuous
 62
     7
100
AcDbText
 10
0.0
 20
0.235
 30
0.0
 40
0.01
  1

100
AcDbAttributeDefinition
280
     0
  3
Look-at Z
  2
LAZ
 70
     1
280
     0
  0
ATTDEF
  5
58
330
42
100
AcDbEntity
  8
ASHADE
  6
Continuous
 62
     7
100
AcDbText
 10
0.0
 20
0.25
 30
0.0
 40
0.01
  1

100
AcDbAttributeDefinition
280
     0
  3
Look-at Y
  2
LAY
 70
     1
280
     0
  0
ATTDEF
  5
59
330
42
100
AcDbEntity
  8
ASHADE
  6
Continuous
 62
     7
100
AcDbText
 10
0.0
 20
0.265
 30
0.0
 40
0.01
  1

100
AcDbAttributeDefinition
280
     0
  3
Look-at X
  2
LAX
 70
     1
280
     0
  0
ATTDEF
  5
5A
330
42
100
AcDbEntity
  8
ASHADE
  6
Continuous
 62
     7
100
AcDbText
 10
0.0
 20
0.28
 30
0.0
 40
0.01
  1

100
AcDbAttributeDefinition
280
     0
  3

  2
GNAME
 70
     1
280
     0
  0
LINE
  5
5B
330
42
100
AcDbEntity
  8
ASHADE
  6
Continuous
 62
     7
100
AcDbLine
 10
0.1096591641591904
 20
0.2792398032442862
 30
0.0
 11
0.1279356915190555
 21
0.3257797704516674
 31
0.0
  0
LINE
  5
5C
330
42
100
AcDbEntity
  8
ASHADE
  6
Continuous
 62
     7
100
AcDbLine
 10
0.2041413561583015
 20
0.2198324514393849
 30
0.0
 11
0.2721884748777353
 21
0.2931099352525131
 31
0.0
  0
ENDBLK
  5
5E
330
42
100
AcDbEntity
  8
0
100
AcDbBlockEnd
  0
BLOCK
  5
85
330
5F
100
AcDbEntity
  8
0
100
AcDbBlockBegin
  2
sh_spot
 70
     2
 10
0.0
 20
0.0
 30
0.0
  3
sh_spot
  1

  0
LINE
  5
60
330
5F
100
AcDbEntity
  8
ASHADE
  6
Continuous
 62
     7
100
AcDbLine
 10
0.25
 20
0.26
 30
0.0
 11
-0.25
 21
0.26
 31
0.0
  0
LINE
  5
61
330
5F
100
AcDbEntity
  8
ASHADE
  6
Continuous
 62
     7
100
AcDbLine
 10
-0.25
 20
-0.3399999999999999
 30
0.0
 11
0.25
 21
-0.3399999999999999
 31
0.0
  0
ATTDEF
  5
62
330
5F
100
AcDbEntity
  8
ASHADE
  6
Continuous
 62
     1
100
AcDbText
 10
0.0
 20
-0.1
 30
0.0
 40
0.2
  1

  7
ASHADE
 72
     1
 11
0.0
 21
-0.1
 31
0.0
100
AcDbAttributeDefinition
280
     0
  3
Light Name
  2
SNAME
 70
     0
280
     0
  0
LINE
  5
63
330
5F
100
AcDbEntity
  8
ASHADE
  6
Continuous
 62
     7
100
AcDbLine
 10
-0.25
 20
-0.13
 30
0.0
 11
-0.25
 21
-0.3399999999999999
 31
0.0
  0
LINE
  5
64
330
5F
100
AcDbEntity
  8
ASHADE
  6
Continuous
 62
     7
100
AcDbLine
 10
-0.25
 20
-0.18
 30
0.0
 11
-0.29
 21
-0.18
 31
0.0
  0
LINE
  5
65
330
5F
100
AcDbEntity
  8
ASHADE
  6
Continuous
 62
     7
100
AcDbLine
 10
-0.29
 20
-0.22
 30
0.0
 11
-0.25
 21
-0.22
 31
0.0
  0
LINE
  5
66
330
5F
100
AcDbEntity
  8
ASHADE
  6
Continuous
 62
     7
100
AcDbLine
 10
-0.29
 20
-0.18
 30
0.0
 11
-0.29
 21
-0.22
 31
0.0
  0
LINE
  5
67
330
5F
100
AcDbEntity
  8
ASHADE
  6
Continuous
 62
     7
100
AcDbLine
 10
-0.1045454545454545
 20
0.26
 30
0.0
 11
-0.15
 21
0.46
 31
0.0
  0
LINE
  5
68
330
5F
100
AcDbEntity
  8
ASHADE
  6
Continuous
 62
     7
100
AcDbLine
 10
-0.21
 20
0.26
 30
0.0
 11
-0.301304347826087
 21
0.46
 31
0.0
  0
LINE
  5
69
330
5F
100
AcDbEntity
  8
ASHADE
  6
Continuous
 62
     7
100
AcDbLine
 10
-0.25
 20
0.26
 30
0.0
 11
-0.25
 21
0.13
 31
0.0
  0
LINE
  5
6A
330
5F
100
AcDbEntity
  8
ASHADE
  6
Continuous
 62
     7
100
AcDbLine
 10
-0.25
 20
0.22
 30
0.0
 11
-0.29
 21
0.22
 31
0.0
  0
LINE
  5
6B
330
5F
100
AcDbEntity
  8
ASHADE
  6
Continuous
 62
     7
100
AcDbLine
 10
-0.29
 20
0.1799999999999999
 30
0.0
 11
-0.25
 21
0.1799999999999999
 31
0.0
  0
LINE
  5
6C
330
5F
100
AcDbEntity
  8
ASHADE
  6
Continuous
 62
     7
100
AcDbLine
 10
-0.29
 20
0.22
 30
0.0
 11
-0.29
 21
0.1799999999999999
 31
0.0
  0
ATTDEF
  5
6D
330
5F
100
AcDbEntity
  8
ASHADE
  6
Continuous
 62
     7
100
AcDbText
 10
0.0
 20
-0.24
 30
0.0
 40
0.01
  1
0
100
AcDbAttributeDefinition
280
     0
  3
Depth Map Size
  2
ZSIZE
 70
     1
280
     0
  0
ATTDEF
  5
6E
330
5F
100
AcDbEntity
  8
ASHADE
  6
Continuous
 62
     7
100
AcDbText
 10
0.0
 20
-0.3300000000000001
 30
0.0
 40
0.01
  1
0,0,0
100
AcDbAttributeDefinition
280
     0
  3
Look-from XYZ
  2
LFXYZ
 70
     1
280
     0
  0
ATTDEF
  5
6F
330
5F
100
AcDbEntity
  8
ASHADE
  6
Continuous
 62
     7
100
AcDbText
 10
0.0
 20
-0.315
 30
0.0
 40
0.01
  1
0.0
100
AcDbAttributeDefinition
280
     0
  3
Beam Distribution
  2
BEAMDI
 70
     1
280
     0
  0
ATTDEF
  5
70
330
5F
100
AcDbEntity
  8
ASHADE
  6
Continuous
 62
     7
100
AcDbText
 10
0.0
 20
-0.3
 30
0.0
 40
0.01
  1
0.0
100
AcDbAttributeDefinition
280
     0
  3
Cone Delta
  2
CONEDE
 70
     1
280
     0
  0
ATTDEF
  5
71
330
5F
100
AcDbEntity
  8
ASHADE
  6
Continuous
 62
     7
100
AcDbText
 10
0.0
 20
-0.2850000000000001
 30
0.0
 40
0.01
  1
10.0
100
AcDbAttributeDefinition
280
     0
  3
Cone Angle
  2
CONEAN
 70
     1
280
     0
  0
ATTDEF
  5
72
330
5F
100
AcDbEntity
  8
ASHADE
  6
Continuous
 62
     7
100
AcDbText
 10
0.0
 20
-0.27
 30
0.0
 40
0.01
  1
-1
100
AcDbAttributeDefinition
280
     0
  3
*not used*
  2
BIASMAX
 70
     1
280
     0
  0
ATTDEF
  5
73
330
5F
100
AcDbEntity
  8
ASHADE
  6
Continuous
 62
     7
100
AcDbText
 10
0.0
 20
-0.255
 30
0.0
 40
0.01
  1
-1
100
AcDbAttributeDefinition
280
     0
  3
*not used*
  2
BIASMIN
 70
     1
280
     0
  0
ATTDEF
  5
74
330
5F
100
AcDbEntity
  8
ASHADE
  6
Continuous
 62
     7
100
AcDbText
 10
0.0
 20
-0.225
 30
0.0
 40
0.01
  1
1,1,1
100
AcDbAttributeDefinition
280
     0
  3
Light Color (RGB)
  2
COLOR
 70
     1
280
     0
  0
ATTDEF
  5
75
330
5F
100
AcDbEntity
  8
ASHADE
  6
Continuous
 62
     7
100
AcDbText
 10
0.0
 20
-0.21
 30
0.0
 40
0.01
  1
1
100
AcDbAttributeDefinition
280
     0
  3
Light Intensity
  2
INTENSITY
 70
     1
280
     0
  0
ATTDEF
  5
76
330
5F
100
AcDbEntity
  8
ASHADE
  6
Continuous
 62
     7
100
AcDbText
 10
0.0
 20
-0.15
 30
0.0
 40
0.01
  1

100
AcDbAttributeDefinition
280
     0
  3

  2
GNAME
 70
     1
280
     0
  0
ATTDEF
  5
77
330
5F
100
AcDbEntity
  8
ASHADE
  6
Continuous
 62
     7
100
AcDbText
 10
0.0
 20
-0.195
 30
0.0
 40
0.01
  1

100
AcDbAttributeDefinition
280
     0
  3
Look-at Z
  2
LAZ
 70
     1
280
     0
  0
ATTDEF
  5
78
330
5F
100
AcDbEntity
  8
ASHADE
  6
Continuous
 62
     7
100
AcDbText
 10
0.0
 20
-0.18
 30
0.0
 40
0.01
  1

100
AcDbAttributeDefinition
280
     0
  3
Look-at Y
  2
LAY
 70
     1
280
     0
  0
ATTDEF
  5
79
330
5F
100
AcDbEntity
  8
ASHADE
  6
Continuous
 62
     7
100
AcDbText
 10
0.0
 20
-0.165
 30
0.0
 40
0.01
  1

100
AcDbAttributeDefinition
280
     0
  3
Look-at X
  2
LAX
 70
     1
280
     0
  0
LINE
  5
7A
330
5F
100
AcDbEntity
  8
ASHADE
  6
Continuous
 62
     7
100
AcDbLine
 10
0.25
 20
-0.3399999999999999
 30
0.0
 11
0.25
 21
-0.13
 31
0.0
  0
LINE
  5
7B
330
5F
100
AcDbEntity
  8
ASHADE
  6
Continuous
 62
     7
100
AcDbLine
 10
0.25
 20
-0.18
 30
0.0
 11
0.29
 21
-0.18
 31
0.0
  0
LINE
  5
7C
330
5F
100
AcDbEntity
  8
ASHADE
  6
Continuous
 62
     7
100
AcDbLine
 10
0.29
 20
-0.22
 30
0.0
 11
0.25
 21
-0.22
 31
0.0
  0
LINE
  5
7D
330
5F
100
AcDbEntity
  8
ASHADE
  6
Continuous
 62
     7
100
AcDbLine
 10
0.29
 20
-0.18
 30
0.0
 11
0.29
 21
-0.22
 31
0.0
  0
LINE
  5
7E
330
5F
100
AcDbEntity
  8
ASHADE
  6
Continuous
 62
     7
100
AcDbLine
 10
0.21
 20
0.26
 30
0.0
 11
0.301304347826087
 21
0.46
 31
0.0
  0
LINE
  5
7F
330
5F
100
AcDbEntity
  8
ASHADE
  6
Continuous
 62
     7
100
AcDbLine
 10
0.1045454545454545
 20
0.26
 30
0.0
 11
0.15
 21
0.46
 31
0.0
  0
LINE
  5
80
330
5F
100
AcDbEntity
  8
ASHADE
  6
Continuous
 62
     7
100
AcDbLine
 10
0.0
 20
0.26
 30
0.0
 11
0.0
 21
0.46
 31
0.0
  0
LINE
  5
81
330
5F
100
AcDbEntity
  8
ASHADE
  6
Continuous
 62
     7
100
AcDbLine
 10
0.25
 20
0.13
 30
0.0
 11
0.25
 21
0.26
 31
0.0
  0
LINE
  5
82
330
5F
100
AcDbEntity
  8
ASHADE
  6
Continuous
 62
     7
100
AcDbLine
 10
0.25
 20
0.22
 30
0.0
 11
0.29
 21
0.22
 31
0.0
  0
LINE
  5
83
330
5F
100
AcDbEntity
  8
ASHADE
  6
Continuous
 62
     7
100
AcDbLine
 10
0.29
 20
0.1799999999999999
 30
0.0
 11
0.25
 21
0.1799999999999999
 31
0.0
  0
LINE
  5
84
330
5F
100
AcDbEntity
  8
ASHADE
  6
Continuous
 62
     7
100
AcDbLine
 10
0.29
 20
0.22
 30
0.0
 11
0.29
 21
0.1799999999999999
 31
0.0
  0
ENDBLK
  5
86
330
5F
100
AcDbEntity
  8
0
100
AcDbBlockEnd
  0
BLOCK
  5
92
330
91
100
AcDbEntity
  8
ASHADE
100
AcDbBlockBegin
  2
AVE_RENDER
 70
     0
 10
0.0
 20
0.0
 30
0.0
  3
AVE_RENDER
  1
AVE_RENDER
  0
ENDBLK
  5
93
330
91
100
AcDbEntity
  8
0
100
AcDbBlockEnd
  0
BLOCK
  5
A0
330
9F
100
AcDbEntity
  8
ASHADE
100
AcDbBlockBegin
  2
AVE_GLOBAL
 70
     0
 10
0.0
 20
0.0
 30
0.0
  3
AVE_GLOBAL
  1
AVE_GLOBAL
  0
ENDBLK
  5
A1
330
9F
100
AcDbEntity
  8
0
100
AcDbBlockEnd
  0
ENDSEC
  0
SECTION
  2
ENTITIES
  0
INSERT
  5
94
330
1F
100
AcDbEntity
  8
ASHADE
 62
     1
100
AcDbBlockReference
  2
AVE_RENDER
 10
0.0
 20
0.0
 30
0.0
1001
AVE_RENDER
1002
{
1070
     7
1000
Pref
1070
    30
1070
    20
1070
     1
1070
     0
1000

1070
    10
1070
     1
1070
    10
1040
1.0
1070
     1
1040
0.3
1040
0.7
1040
0.0
1040
10.0
1010
-1.0
1020
-1.0
1030
-1.0
1040
0.3
1070
    49
1070
     0
1070
     0
1010
1.0
1020
1.0
1030
1.0
1040
45.0
1070
     1
1070
     0
1000
WCS
1040
0.0
1070
     0
1040
10.0
1002
}
  0
INSERT
  5
95
330
1F
100
AcDbEntity
  8
ASHADE
 62
     3
100
AcDbBlockReference
  2
AVE_RENDER
 10
0.0
 20
0.0
 30
0.0
1001
AVE_RENDER
1002
{
1070
     0
1000
Full Opt
1070
     0
1070
     1
1070
     1
1070
     1
1070
     0
1070
     0
1070
     0
1070
     1
1070
     1
1040
0.0001
1040
0.0001
1002
}
  0
INSERT
  5
96
330
1F
100
AcDbEntity
  8
ASHADE
 62
     4
100
AcDbBlockReference
  2
AVE_RENDER
 10
0.0
 20
0.0
 30
0.0
1001
AVE_RENDER
1002
{
1070
     0
1000
Quick Opt
1070
     0
1070
     1
1070
     1
1070
     1
1070
     0
1070
     0
1070
     1
1002
}
  0
INSERT
  5
97
330
1F
100
AcDbEntity
  8
ASHADE
 62
     5
100
AcDbBlockReference
  2
AVE_RENDER
 10
0.0
 20
0.0
 30
0.0
1001
AVE_RENDER
1002
{
1070
     1
1000
Scanl Opt
1070
     2
1070
     0
1070
     2
1040
2.0
1040
4.0
1070
     0
1070
     1
1070
     0
1040
0.03
1002
}
  0
INSERT
  5
98
330
1F
100
AcDbEntity
  8
ASHADE
 62
     6
100
AcDbBlockReference
  2
AVE_RENDER
 10
0.0
 20
0.0
 30
0.0
1001
AVE_RENDER
1002
{
1070
     2
1000
Raytr Opt
1070
     2
1070
     0
1070
     2
1040
2.0
1040
4.0
1070
     0
1070
     1
1070
     1
1040
0.03
1070
     3
1040
0.03
1002
}
  0
INSERT
  5
99
330
1F
100
AcDbEntity
  8
ASHADE
 62
     7
100
AcDbBlockReference
  2
AVE_RENDER
 10
0.0
 20
0.0
 30
0.0
1001
AVE_RENDER
1002
{
1070
     0
1000
RFile Opt
1070
     1
1070
   640
1070
   480
1070
 10000
1070
     1
1070
     8
1070
     8
1070
     0
1070
     0
1070
     0
1070
     0
1070
     0
1070
     0
1070
     0
1002
}
  0
INSERT
  5
9A
330
1F
100
AcDbEntity
  8
ASHADE
 62
     8
100
AcDbBlockReference
  2
AVE_RENDER
 10
0.0
 20
0.0
 30
0.0
1001
AVE_RENDER
1002
{
1070
     0
1000
Fog Opt
1070
     0
1070
     0
1040
0.0
1040
1.0
1040
0.0
1040
1.0
1010
0.5
1020
0.5
1030
0.5
1002
}
  0
INSERT
  5
9B
330
1F
100
AcDbEntity
  8
ASHADE
 62
     9
100
AcDbBlockReference
  2
AVE_RENDER
 10
0.0
 20
0.0
 30
0.0
1001
AVE_RENDER
1002
{
1070
     0
1000
BG Opt
1070
     0
1070
     1
1010
0.0
1020
0.0
1030
0.0
1010
1.0
1020
0.0
1030
0.0
1010
0.0
1020
1.0
1030
0.0
1010
0.0
1020
0.0
1030
1.0
1040
0.5
1040
0.33
1040
0.0
1000

1070
     1
1000

1070
     1
1070
     1
1040
1.0
1040
1.0
1040
0.0
1040
0.0
1070
     0
1002
}
  0
INSERT
  5
A2
330
1F
100
AcDbEntity
  8
ASHADE
 62
     1
100
AcDbBlockReference
  2
AVE_GLOBAL
 10
0.0
 20
0.0
 30
0.0
1001
AVE_MATERIAL
1002
{
1000
*GLOBAL*
1000
2
1000
Global finish.
1002
{
1002
}
1002
{
1070
    63
1002
{
1002
{
1010
-1.0
1020
-1.0
1030
-1.0
1002
}
1040
0.1000000014901161
1000

1040
0.0
1002
{
1002
}
1040
0.0
1002
{
1002
}
1040
0.0
1002
}
1002
{
1002
{
1010
-1.0
1020
-1.0
1030
-1.0
1002
}
1040
0.6999999880790711
1000

1040
0.0
1002
{
1002
}
1040
0.0
1002
{
1002
}
1040
0.0
1002
}
1002
{
1002
{
1010
-1.0
1020
-1.0
1030
-1.0
1002
}
1040
0.2000000029802322
1000

1040
0.0
1002
{
1002
}
1040
0.0
1002
{
1002
}
1040
0.0
1002
}
1002
{
1070
     0
1002
{
1070
     1
1002
{
1040
1.0
1040
1.0
1000

1040
0.0
1002
{
1002
}
1040
0.0
1002
{
1002
}
1040
0.0
1002
}
1002
}
1040
1.0
1040
0.0
1040
0.0
1002
}
1002
{
1040
1.0
1040
1.0
1000

1040
0.0
1002
{
1002
}
1040
0.0
1002
{
1002
}
1040
0.0
1002
}
1002
{
1040
0.5
1040
1.0
1000

1040
0.0
1002
{
1002
}
1040
0.0
1002
{
1002
}
1040
0.0
1002
}
1002
{
1070
     0
1040
0.0
1002
{
1002
}
1040
1.0
1002
{
1002
}
1040
0.0
1002
}
1002
{
1040
0.0
1002
{
1002
{
1010
0.0
1020
0.0
1030
0.0
1002
}
1040
1.0
1000

1040
0.0
1002
{
1002
}
1040
0.0
1002
{
1002
}
1040
0.0
1002
}
1002
}
1002
{
1002
{
1070
     1
1002
{
1040
0.0
1040
1.0
1000

1040
0.0
1002
{
1002
}
1040
0.0
1002
{
1002
}
1040
0.0
1002
}
1002
}
1040
0.0
1002
{
1002
}
1010
1.0
1020
0.0
1030
0.0
1010
0.0
1020
1.0
1030
0.0
1010
0.0
1020
0.0
1030
1.0
1070
     0
1002
}
1002
{
1002
{
1040
1.0
1040
1.0
1002
{
1070
     1
1002
{
1040
1.0
1040
1.0
1000

1040
0.0
1002
{
1002
}
1040
0.0
1002
{
1002
}
1040
0.0
1002
}
1002
}
1002
}
1070
     0
1040
0.0
1002
{
1002
}
1002
}
1002
{
1002
}
1002
}
1002
{
1071
        3
1070
     3
1070
     0
1002
{
1070
     2
1070
     0
1070
     0
1040
0.0
1002
}
1070
     0
1070
     2
1002
{
1002
}
1002
}
1002
{
1040
8030.0
1040
190.3000030517578
1040
0.3050000071525574
1040
228.0
1040
545.0
1040
14.0
1040
17.39999961853027
1040
0.4560000002384186
1002
}
1002
}
  0
MESH
  5
F9
330
1F
100
AcDbEntity
  8
OracDecor_cornice_mouldings
 62
   176
420
   526472
160
             47672
310
38BA00002C0500000C00000013000000020000003C00000006000000020000000000004000408FC000000020FDFF4DC0000000000000E0BE0000006000408F4000000040FDFF4DC0000000000000E0BE0C000000130000000A0000003C00000006000000020000000000006000408F40000000C05DB34AC0000000000000E0
310
BE0000006000408F4000000040FDFF4DC0000000000000E0BE0C00000013000000120000003C00000006000000020000000000004000408FC0000000C05DB34AC0000000000000E0BE0000006000408F40000000C05DB34AC0000000000000E0BE0C000000130000001A0000003C0000000600000002000000000000400040
310
8FC000000020FDFF4DC0000000000000E0BE0000004000408FC0000000C05DB34AC0000000000000E0BE0C00000013000000220000003C00000006000000020000000000006000408F40000000C05DB34AC0000000000000E0BE0000006000408F4000000000D2A04AC00000000000FA95BF0C000000130000002A0000003C
310
00000006000000020000000000004000408FC000000000D2A04AC00000000000FA95BF0000006000408F4000000000D2A04AC00000000000FA95BF0C00000013000000320000003C00000006000000020000000000004000408FC0000000C05DB34AC0000000000000E0BE0000004000408FC000000000D2A04AC000000000
310
00FA95BF0C000000130000003A0000003C00000006000000020000000000006000408F4000000000D2A04AC00000000000FA95BF0000006000408F40000000C0DD8F4AC000000000C07FB5BF0C00000013000000420000003C00000006000000020000000000004000408FC0000000A0DD8F4AC000000000C07FB5BF000000
310
6000408F40000000C0DD8F4AC000000000C07FB5BF0C000000130000004A0000003C00000006000000020000000000004000408FC000000000D2A04AC00000000000FA95BF0000004000408FC0000000A0DD8F4AC000000000C07FB5BF0C00000013000000520000003C00000006000000020000000000006000408F400000
310
00C0DD8F4AC000000000C07FB5BF0000006000408F40000000607D634AC000000000B02AD4BF0C000000130000005A0000003C00000006000000020000000000004000408FC0000000607D634AC000000000B02AD4BF0000006000408F40000000607D634AC000000000B02AD4BF0C00000013000000620000003C00000006
310
000000020000000000004000408FC0000000A0DD8F4AC000000000C07FB5BF0000004000408FC0000000607D634AC000000000B02AD4BF0C000000130000006A0000003C00000006000000020000000000006000408F40000000607D634AC000000000B02AD4BF0000006000408F40000000C087524AC000000000202BD8BF
310
0C00000013000000720000003C00000006000000020000000000004000408FC0000000C087524AC000000000202BD8BF0000006000408F40000000C087524AC000000000202BD8BF0C000000130000007A0000003C00000006000000020000000000004000408FC0000000607D634AC000000000B02AD4BF0000004000408F
310
C0000000C087524AC000000000202BD8BF0C00000013000000820000003C00000006000000020000000000006000408F40000000C087524AC000000000202BD8BF0000006000408F4000000020FD3F4AC000000000608AD9BF0C000000130000008A0000003C00000006000000020000000000004000408FC000000020FD3F
310
4AC000000000608AD9BF0000006000408F4000000020FD3F4AC000000000608AD9BF0C00000013000000920000003C00000006000000020000000000004000408FC0000000C087524AC000000000202BD8BF0000004000408FC000000020FD3F4AC000000000608AD9BF0C000000130000009A0000003C0000000600000002
310
0000000000006000408F4000000020FD3F4AC000000000608AD9BF0000006000408F4000000080722D4AC000000000202BD8BF0C00000013000000A20000003C00000006000000020000000000004000408FC000000080722D4AC000000000202BD8BF0000006000408F4000000080722D4AC000000000202BD8BF0C000000
310
13000000AA0000003C00000006000000020000000000004000408FC000000020FD3F4AC000000000608AD9BF0000004000408FC000000080722D4AC000000000202BD8BF0C00000013000000B20000003C00000006000000020000000000006000408F4000000080722D4AC000000000202BD8BF0000006000408F40000000
310
E07C1C4AC000000000B02AD4BF0C00000013000000BA0000003C00000006000000020000000000004000408FC0000000E07C1C4AC000000000B02AD4BF0000006000408F40000000E07C1C4AC000000000B02AD4BF0C00000013000000C20000003C00000006000000020000000000004000408FC000000080722D4AC00000
310
0000202BD8BF0000004000408FC0000000E07C1C4AC000000000B02AD4BF0C00000013000000CA0000003C00000006000000020000000000006000408F40000000E07C1C4AC000000000B02AD4BF0000006000408F40000000801CF049C000000000C07FB5BF0C00000013000000D20000003C000000060000000200000000
310
00004000408FC0000000A01CF049C000000000C07FB5BF0000006000408F40000000801CF049C000000000C07FB5BF0C00000013000000DA0000003C00000006000000020000000000004000408FC0000000E07C1C4AC000000000B02AD4BF0000004000408FC0000000A01CF049C000000000C07FB5BF0C00000013000000
310
E20000003C00000006000000020000000000006000408F40000000801CF049C000000000C07FB5BF0000006000408F400000004028DF49C00000000000FA95BF0C00000013000000EA0000003C00000006000000020000000000004000408FC00000004028DF49C00000000000FA95BF0000006000408F400000004028DF49
310
C00000000000FA95BF0C00000013000000F20000003C00000006000000020000000000004000408FC0000000A01CF049C000000000C07FB5BF0000004000408FC00000004028DF49C00000000000FA95BF0C00000013000000FA0000003C00000006000000020000000000006000408F400000004028DF49C00000000000FA
310
95BF0000006000408F40000000809CCC49C0000000000000E0BE0C00000013000000020100003C00000006000000020000000000004000408FC0000000809CCC49C0000000000000E0BE0000006000408F40000000809CCC49C0000000000000E0BE0C000000130000000A0100003C00000006000000020000000000004000
310
408FC00000004028DF49C00000000000FA95BF0000004000408FC0000000809CCC49C0000000000000E0BE0C00000013000000120100003C00000006000000020000000000006000408F40000000C0E3C946C0000000000000E0BE0000006000408F40000000809CCC49C0000000000000E0BE0C000000130000001A010000
310
3C00000006000000020000000000004000408FC0000000C0E3C946C0000000000000E0BE0000006000408F40000000C0E3C946C0000000000000E0BE0C00000013000000220100003C00000006000000020000000000004000408FC0000000809CCC49C0000000000000E0BE0000004000408FC0000000C0E3C946C0000000
310
000000E0BE0C000000130000002A0100003C00000006000000020000000000006000408F4000000000C1A846C0000000008075A1BF0000006000408F40000000C0E3C946C0000000000000E0BE0C00000013000000320100003C00000006000000020000000000004000408FC000000020C1A846C0000000008075A1BF0000
310
006000408F4000000000C1A846C0000000008075A1BF0C000000130000003A0100003C00000006000000020000000000004000408FC0000000C0E3C946C0000000000000E0BE0000004000408FC000000020C1A846C0000000008075A1BF0C00000013000000420100003C00000006000000020000000000006000408F4000
310
0000C0E38946C000000000A026C1BF0000006000408F4000000000C1A846C0000000008075A1BF0C000000130000004A0100003C00000006000000020000000000004000408FC0000000E0E38946C000000000A026C1BF0000006000408F40000000C0E38946C000000000A026C1BF0C00000013000000520100003C000000
310
06000000020000000000004000408FC000000020C1A846C0000000008075A1BF0000004000408FC0000000E0E38946C000000000A026C1BF0C000000130000005A0100003C00000006000000020000000000006000408F4000000080626F46C00000000050BED2BF0000006000408F40000000C0E38946C000000000A026C1
310
BF0C00000013000000620100003C00000006000000020000000000004000408FC0000000A0626F46C00000000050BED2BF0000006000408F4000000080626F46C00000000050BED2BF0C000000130000006A0100003C00000006000000020000000000004000408FC0000000E0E38946C000000000A026C1BF000000400040
310
8FC0000000A0626F46C00000000050BED2BF0C00000013000000720100003C00000006000000020000000000006000408F40000000C0095B46C0000000001000E0BF0000006000408F4000000080626F46C00000000050BED2BF0C000000130000007A0100003C00000006000000020000000000004000408FC0000000E009
310
5B46C0000000001000E0BF0000006000408F40000000C0095B46C0000000001000E0BF0C00000013000000820100003C00000006000000020000000000004000408FC0000000A0626F46C00000000050BED2BF0000004000408FC0000000E0095B46C0000000001000E0BF0C000000130000008A0100003C00000006000000
310
020000000000006000408F40000000C0095B46C0000000001000E0BF0000006000408F4000000040E96A45C0000000009CFE0DC00C00000013000000920100003C00000006000000020000000000004000408FC000000040E96A45C0000000009EFE0DC00000006000408F4000000040E96A45C0000000009CFE0DC00C0000
310
00130000009A0100003C00000006000000020000000000004000408FC0000000E0095B46C0000000001000E0BF0000004000408FC000000040E96A45C0000000009EFE0DC00C00000013000000A20100003C00000006000000020000000000006000408F4000000040E96A45C0000000009CFE0DC00000006000408F400000
310
0000A95945C00000000088730FC00C00000013000000AA0100003C00000006000000020000000000004000408FC000000020A95945C00000000088730FC00000006000408F4000000000A95945C00000000088730FC00C00000013000000B20100003C00000006000000020000000000004000408FC000000040E96A45C000
310
0000009EFE0DC00000004000408FC000000020A95945C00000000088730FC00C00000013000000BA0100003C00000006000000020000000000006000408F4000000000A95945C00000000088730FC00000006000408F40000000009E4345C000000000555010C00C00000013000000C20100003C0000000600000002000000
310
0000004000408FC0000000209E4345C000000000555010C00000006000408F40000000009E4345C000000000555010C00C00000013000000CA0100003C00000006000000020000000000004000408FC000000020A95945C00000000088730FC00000004000408FC0000000209E4345C000000000555010C00C000000130000
310
00D20100003C00000006000000020000000000006000408F40000000009E4345C000000000555010C00000006000408F4000000000E52945C00000000067BB10C00C00000013000000DA0100003C00000006000000020000000000004000408FC000000000E52945C00000000067BB10C00000006000408F4000000000E529
310
45C00000000067BB10C00C00000013000000E20100003C00000006000000020000000000004000408FC0000000209E4345C000000000555010C00000004000408FC000000000E52945C00000000067BB10C00C00000013000000EA0100003C00000006000000020000000000006000408F4000000000104544C00000000077
310
DE13C00000006000408F4000000000E52945C00000000067BB10C00C00000013000000F20100003C00000006000000020000000000004000408FC000000000104544C00000000077DE13C00000006000408F4000000000104544C00000000077DE13C00C00000013000000FA0100003C000000060000000200000000000040
310
00408FC000000000E52945C00000000067BB10C00000004000408FC000000000104544C00000000077DE13C00C00000013000000020200003C00000006000000020000000000006000408F4000000000052243C000000000FFED18C00000006000408F4000000000104544C00000000077DE13C00C000000130000000A0200
310
003C00000006000000020000000000004000408FC000000000052243C000000000FFED18C00000006000408F4000000000052243C000000000FFED18C00C00000013000000120200003C00000006000000020000000000004000408FC000000000104544C00000000077DE13C00000004000408FC000000000052243C00000
310
0000FFED18C00C000000130000001A0200003C00000006000000020000000000006000408F4000000000052243C000000000FFED18C00000006000408F40000000801E1342C00000000072FC1EC00C00000013000000220200003C00000006000000020000000000004000408FC0000000801E1342C00000000072FC1EC000
310
00006000408F40000000801E1342C00000000072FC1EC00C000000130000002A0200003C00000006000000020000000000004000408FC000000000052243C000000000FFED18C00000004000408FC0000000801E1342C00000000072FC1EC00C00000013000000320200003C00000006000000020000000000006000408F40
310
000000801E1342C00000000072FC1EC00000006000408F4000000020D71B41C00000008000FB22C00C000000130000003A0200003C00000006000000020000000000004000408FC000000020D71B41C00000008000FB22C00000006000408F4000000020D71B41C00000008000FB22C00C00000013000000420200003C0000
310
0006000000020000000000004000408FC0000000801E1342C00000000072FC1EC00000004000408FC000000020D71B41C00000008000FB22C00C000000130000004A0200003C00000006000000020000000000006000408F4000000080643F40C000000080B9E126C00000006000408F4000000020D71B41C00000008000FB
310
22C00C00000013000000520200003C00000006000000020000000000004000408FC000000080643F40C000000080B9E126C00000006000408F4000000080643F40C000000080B9E126C00C000000130000005A0200003C00000006000000020000000000004000408FC000000020D71B41C00000008000FB22C00000004000
310
408FC000000080643F40C000000080B9E126C00C00000013000000620200003C00000006000000020000000000006000408F40000000E01F013FC000000080BC252BC00000006000408F4000000080643F40C000000080B9E126C00C000000130000006A0200003C00000006000000020000000000004000408FC0000000E0
310
1F013FC000000080BC252BC00000006000408F40000000E01F013FC000000080BC252BC00C00000013000000720200003C00000006000000020000000000004000408FC000000080643F40C000000080B9E126C00000004000408FC0000000E01F013FC000000080BC252BC00C000000130000007A0200003C000000060000
310
00020000000000006000408F400000000077513DC000000040C69730C00000006000408F40000000E01F013FC000000080BC252BC00C00000013000000820200003C00000006000000020000000000004000408FC00000002077513DC000000040C69730C00000006000408F400000000077513DC000000040C69730C00C00
310
0000130000008A0200003C00000006000000020000000000004000408FC0000000E01F013FC000000080BC252BC00000004000408FC00000002077513DC000000040C69730C00C00000013000000920200003C00000006000000020000000000006000408F40000000E02FB33BC000000000C2F733C00000006000408F4000
310
00000077513DC000000040C69730C00C000000130000009A0200003C00000006000000020000000000004000408FC0000000E02FB33BC000000000C2F733C00000006000408F40000000E02FB33BC000000000C2F733C00C00000013000000A20200003C00000006000000020000000000004000408FC00000002077513DC0
310
00000040C69730C00000004000408FC0000000E02FB33BC000000000C2F733C00C00000013000000AA0200003C00000006000000020000000000006000408F40000000C099363AC0000000E025A437C00000006000408F40000000E02FB33BC000000000C2F733C00C00000013000000B20200003C00000006000000020000
310
000000004000408FC0000000C099363AC0000000E025A437C00000006000408F40000000C099363AC0000000E025A437C00C00000013000000BA0200003C00000006000000020000000000004000408FC0000000E02FB33BC000000000C2F733C00000004000408FC0000000C099363AC0000000E025A437C00C0000001300
310
0000C20200003C00000006000000020000000000006000408F4000000040767B38C000000080EDFD3AC00000006000408F40000000C099363AC0000000E025A437C00C00000013000000CA0200003C00000006000000020000000000004000408FC000000040767B38C000000080EDFD3AC00000006000408F400000004076
310
7B38C000000080EDFD3AC00C00000013000000D20200003C00000006000000020000000000004000408FC0000000C099363AC0000000E025A437C00000004000408FC000000040767B38C000000080EDFD3AC00C00000013000000DA0200003C00000006000000020000000000006000408F40000000C057ED35C000000000
310
845D3DC00000006000408F4000000040767B38C000000080EDFD3AC00C00000013000000E20200003C00000006000000020000000000004000408FC0000000C057ED35C000000000845D3DC00000006000408F40000000C057ED35C000000000845D3DC00C00000013000000EA0200003C0000000600000002000000000000
310
4000408FC000000040767B38C000000080EDFD3AC00000004000408FC0000000C057ED35C000000000845D3DC00C00000013000000F20200003C00000006000000020000000000006000408F4000000040C3B532C0000000C01DB63EC00000006000408F40000000C057ED35C000000000845D3DC00C00000013000000FA02
310
00003C00000006000000020000000000004000408FC000000040C3B532C0000000E01DB63EC00000006000408F4000000040C3B532C0000000C01DB63EC00C00000013000000020300003C00000006000000020000000000004000408FC0000000C057ED35C000000000845D3DC00000004000408FC000000040C3B532C000
310
0000E01DB63EC00C000000130000000A0300003C00000006000000020000000000006000408F40000000C064522FC000000060CF1C3FC00000006000408F4000000040C3B532C0000000C01DB63EC00C00000013000000120300003C00000006000000020000000000004000408FC0000000C064522FC000000080CF1C3FC0
310
0000006000408F40000000C064522FC000000060CF1C3FC00C000000130000001A0300003C00000006000000020000000000004000408FC000000040C3B532C0000000E01DB63EC00000004000408FC0000000C064522FC000000080CF1C3FC00C00000013000000220300003C00000006000000020000000000006000408F
310
400000000049012BC000000020CCFB3FC00000006000408F40000000C064522FC000000060CF1C3FC00C000000130000002A0300003C00000006000000020000000000004000408FC00000000049012BC000000020CCFB3FC00000006000408F400000000049012BC000000020CCFB3FC00C00000013000000320300003C00
310
000006000000020000000000004000408FC0000000C064522FC000000080CF1C3FC00000004000408FC00000000049012BC000000020CCFB3FC00C000000130000003A0300003C00000006000000020000000000006000408F4000000000F6D527C0000000001ED840C00000006000408F400000000049012BC000000020CC
310
FB3FC00C00000013000000420300003C00000006000000020000000000004000408FC000000020F6D527C0000000001ED840C00000006000408F4000000000F6D527C0000000001ED840C00C000000130000004A0300003C00000006000000020000000000004000408FC00000000049012BC000000020CCFB3FC000000040
310
00408FC000000020F6D527C0000000001ED840C00C00000013000000520300003C00000006000000020000000000006000408F40000000001A4D25C0000000802F0342C00000006000408F4000000000F6D527C0000000001ED840C00C000000130000005A0300003C00000006000000020000000000004000408FC0000000
310
001A4D25C0000000802F0342C00000006000408F40000000001A4D25C0000000802F0342C00C00000013000000620300003C00000006000000020000000000004000408FC000000020F6D527C0000000001ED840C00000004000408FC0000000001A4D25C0000000802F0342C00C000000130000006A0300003C0000000600
310
0000020000000000006000408F40000000809E6221C000000060830743C00000006000408F40000000001A4D25C0000000802F0342C00C00000013000000720300003C00000006000000020000000000004000408FC0000000809E6221C000000060830743C00000006000408F40000000809E6221C000000060830743C00C
310
000000130000007A0300003C00000006000000020000000000004000408FC0000000001A4D25C0000000802F0342C00000004000408FC0000000809E6221C000000060830743C00C00000013000000820300003C00000006000000020000000000006000408F4000000000A5551BC000000020BE8B43C00000006000408F40
310
000000809E6221C000000060830743C00C000000130000008A0300003C00000006000000020000000000004000408FC000000000A5551BC000000020BE8B43C00000006000408F4000000000A5551BC000000020BE8B43C00C00000013000000920300003C00000006000000020000000000004000408FC0000000809E6221
310
C000000060830743C00000004000408FC000000000A5551BC000000020BE8B43C00C000000130000009A0300003C00000006000000020000000000006000408F4000000000C41BE6BF000000005B8D44C00000006000408F4000000000A5551BC000000020BE8B43C00C00000013000000A20300003C000000060000000200
310
00000000004000408FC000000000C41BE6BF000000005B8D44C00000006000408F4000000000C41BE6BF000000005B8D44C00C00000013000000AA0300003C00000006000000020000000000004000408FC000000000A5551BC000000020BE8B43C00000004000408FC000000000C41BE6BF000000005B8D44C00C00000013
310
000000B20300003C00000006000000020000000000006000408F4000000000C41BE6BF000000005B8D44C00000006000408F40000000008085D7BF000000C03DA544C00C00000013000000BA0300003C00000006000000020000000000004000408FC0000000008085D7BF000000C03DA544C00000006000408F4000000000
310
8085D7BF000000C03DA544C00C00000013000000C20300003C00000006000000020000000000004000408FC000000000C41BE6BF000000005B8D44C00000004000408FC0000000008085D7BF000000C03DA544C00C00000013000000CA0300003C00000006000000020000000000006000408F40000000008085D7BF000000
310
C03DA544C00000006000408F400000000060D4B3BF0000000058D844C00C00000013000000D20300003C00000006000000020000000000004000408FC00000000060D4B3BF0000000058D844C00000006000408F400000000060D4B3BF0000000058D844C00C00000013000000DA0300003C00000006000000020000000000
310
004000408FC0000000008085D7BF000000C03DA544C00000004000408FC00000000060D4B3BF0000000058D844C00C00000013000000E20300003C00000006000000020000000000006000408F40000000000080183F00000000170745C00000006000408F400000000060D4B3BF0000000058D844C00C00000013000000EA
310
0300003C00000006000000020000000000004000408FC0000000000080183F00000000170745C00000006000408F40000000000080183F00000000170745C00C00000013000000F20300003C00000006000000020000000000004000408FC00000000060D4B3BF0000000058D844C00000004000408FC0000000000080183F
310
00000000170745C00C00000013000000FA0300003C00000006000000020000000000006000408F40000000000080183F00000020B7F646C00000006000408F40000000000080183F00000000170745C00C00000013000000020400003C00000006000000020000000000004000408FC0000000000080183F00000020B7F646
310
C00000006000408F40000000000080183F00000020B7F646C00C000000130000000A0400003C00000006000000020000000000004000408FC0000000000080183F00000000170745C00000004000408FC0000000000080183F00000020B7F646C00C00000013000000120400003C0000000600000002000000000000600040
310
8F40000000000080183F00000020B7F646C00000006000408F400000000080DF95BF00000000430947C00C000000130000001A0400003C00000006000000020000000000004000408FC00000000080DF95BF00000000430947C00000006000408F400000000080DF95BF00000000430947C00C00000013000000220400003C
310
00000006000000020000000000004000408FC0000000000080183F00000020B7F646C00000004000408FC00000000080DF95BF00000000430947C00C000000130000002A0400003C00000006000000020000000000006000408F400000000080DF95BF00000000430947C00000006000408F40000000004079B5BF00000060
310
371A47C00C00000013000000320400003C00000006000000020000000000004000408FC0000000004079B5BF00000060371A47C00000006000408F40000000004079B5BF00000060371A47C00C000000130000003A0400003C00000006000000020000000000004000408FC00000000080DF95BF00000000430947C0000000
310
4000408FC0000000004079B5BF00000060371A47C00C00000013000000420400003C00000006000000020000000000006000408F40000000004079B5BF00000060371A47C00000006000408F40000000001029D4BF000000A0974647C00C000000130000004A0400003C00000006000000020000000000004000408FC00000
310
00001029D4BF000000A0974647C00000006000408F40000000001029D4BF000000A0974647C00C00000013000000520400003C00000006000000020000000000004000408FC0000000004079B5BF00000060371A47C00000004000408FC0000000001029D4BF000000A0974647C00C000000130000005A0400003C00000006
310
000000020000000000006000408F40000000001029D4BF000000A0974647C00000006000408F40000000008029D8BF000000408D5747C00C00000013000000620400003C00000006000000020000000000004000408FC0000000008029D8BF000000408D5747C00000006000408F40000000008029D8BF000000408D5747C0
310
0C000000130000006A0400003C00000006000000020000000000004000408FC0000000001029D4BF000000A0974647C00000004000408FC0000000008029D8BF000000408D5747C00C00000013000000720400003C00000006000000020000000000006000408F40000000008029D8BF000000408D5747C00000006000408F
310
4000000000C088D9BF000000E0176A47C00C000000130000007A0400003C00000006000000020000000000004000408FC000000000C088D9BF000000E0176A47C00000006000408F4000000000C088D9BF000000E0176A47C00C00000013000000820400003C00000006000000020000000000004000408FC0000000008029
310
D8BF000000408D5747C00000004000408FC000000000C088D9BF000000E0176A47C00C000000130000008A0400003C00000006000000020000000000006000408F4000000000C088D9BF000000E0176A47C00000006000408F40000000008029D8BF00000060A27C47C00C00000013000000920400003C0000000600000002
310
0000000000004000408FC0000000008029D8BF00000060A27C47C00000006000408F40000000008029D8BF00000060A27C47C00C000000130000009A0400003C00000006000000020000000000004000408FC000000000C088D9BF000000E0176A47C00000004000408FC0000000008029D8BF00000060A27C47C00C000000
310
13000000A20400003C00000006000000020000000000006000408F40000000008029D8BF00000060A27C47C00000006000408F40000000001029D4BF00000000988D47C00C00000013000000AA0400003C00000006000000020000000000004000408FC0000000001029D4BF00000000988D47C00000006000408F40000000
310
001029D4BF00000000988D47C00C00000013000000B20400003C00000006000000020000000000004000408FC0000000008029D8BF00000060A27C47C00000004000408FC0000000001029D4BF00000000988D47C00C00000013000000BA0400003C00000006000000020000000000006000408F40000000001029D4BF0000
310
0000988D47C00000006000408F40000000004079B5BF00000040F8B947C00C00000013000000C20400003C00000006000000020000000000004000408FC0000000004079B5BF00000040F8B947C00000006000408F40000000004079B5BF00000040F8B947C00C00000013000000CA0400003C000000060000000200000000
310
00004000408FC0000000001029D4BF00000000988D47C00000004000408FC0000000004079B5BF00000040F8B947C00C00000013000000D20400003C00000006000000020000000000006000408F40000000004079B5BF00000040F8B947C00000006000408F400000000080DF95BF000000A0ECCA47C00C00000013000000
310
DA0400003C00000006000000020000000000004000408FC00000000080DF95BF000000A0ECCA47C00000006000408F400000000080DF95BF000000A0ECCA47C00C00000013000000E20400003C00000006000000020000000000004000408FC0000000004079B5BF00000040F8B947C00000004000408FC00000000080DF95
310
BF000000A0ECCA47C00C00000013000000EA0400003C00000006000000020000000000006000408F40000000000080183F0000008078DD47C00000006000408F400000000080DF95BF000000A0ECCA47C00C00000013000000F20400003C00000006000000020000000000004000408FC0000000000080183F0000008078DD
310
47C00000006000408F40000000000080183F0000008078DD47C00C00000013000000FA0400003C00000006000000020000000000004000408FC00000000080DF95BF000000A0ECCA47C00000004000408FC0000000000080183F0000008078DD47C00C00000013000000020500003C00000006000000020000000000006000
310
408F40000000000080183F000000C09DEF49C00000006000408F40000000000080183F0000008078DD47C00C000000130000000A0500003C00000006000000020000000000004000408FC0000000000080183F000000C09DEF49C00000006000408F40000000000080183F000000C09DEF49C00C0000001300000012050000
310
3C00000006000000020000000000004000408FC0000000000080183F0000008078DD47C00000004000408FC0000000000080183F000000C09DEF49C00C000000130000001A0500003C00000006000000020000000000006000408F4000000000007E9DBF000000E0280E4AC00000006000408F40000000000080183F000000
310
C09DEF49C00C00000013000000220500003C00000006000000020000000000004000408FC000000000007E9DBF000000E0280E4AC00000006000408F4000000000007E9DBF000000E0280E4AC00C000000130000002A0500003C00000006000000020000000000004000408FC0000000000080183F000000C09DEF49C00000
310
004000408FC000000000007E9DBF000000E0280E4AC00C00000013000000320500003C00000006000000020000000000006000408F4000000000401EBDBF00000020ED2A4AC00000006000408F4000000000007E9DBF000000E0280E4AC00C000000130000003A0500003C00000006000000020000000000004000408FC000
310
000000401EBDBF00000020ED2A4AC00000006000408F4000000000401EBDBF00000020ED2A4AC00C00000013000000420500003C00000006000000020000000000004000408FC000000000007E9DBF000000E0280E4AC00000004000408FC000000000401EBDBF00000020ED2A4AC00C000000130000004A0500003C000000
310
06000000020000000000006000408F4000000000401EBDBF00000020ED2A4AC00000006000408F400000000048B5D8BF00000020A25D4AC00C00000013000000520500003C00000006000000020000000000004000408FC00000000048B5D8BF00000020A25D4AC00000006000408F400000000048B5D8BF00000020A25D4A
310
C00C000000130000005A0500003C00000006000000020000000000004000408FC00000000048B5D8BF00000020A25D4AC00000004000408FC000000000401EBDBF00000020ED2A4AC00C00000013000000620500003C00000006000000020000000000006000408F40000000000025DEBF00000040667A4AC0000000600040
310
8F400000000048B5D8BF00000020A25D4AC00C000000130000006A0500003C00000006000000020000000000004000408FC0000000000025DEBF00000040667A4AC00000006000408F40000000000025DEBF00000040667A4AC00C00000013000000720500003C00000006000000020000000000004000408FC00000000048
310
B5D8BF00000020A25D4AC00000004000408FC0000000000025DEBF00000040667A4AC00C000000130000007A0500003C00000006000000020000000000006000408F40000000000025DEBF00000040667A4AC00000006000408F400000000078FEDFBF000000C0F1984AC00C00000013000000820500003C00000006000000
310
020000000000004000408FC00000000078FEDFBF000000C0F1984AC00000006000408F400000000078FEDFBF000000C0F1984AC00C000000130000008A0500003C00000006000000020000000000004000408FC0000000000025DEBF00000040667A4AC00000004000408FC00000000078FEDFBF000000C0F1984AC00C0000
310
0013000000920500003C00000006000000020000000000006000408F400000000078FEDFBF000000C0F1984AC00000006000408F400000000058FEDFBF0000006049D058C00C000000130000009A0500003C00000006000000020000000000004000408FC00000000058FEDFBF0000006049D058C00000006000408F400000
310
000058FEDFBF0000006049D058C00C00000013000000A20500003C00000006000000020000000000004000408FC00000000078FEDFBF000000C0F1984AC00000004000408FC00000000058FEDFBF0000006049D058C00C00000013000000AA0500003C00000006000000020000000000006000408F400000000058FEDFBF00
310
00006049D058C00000006000408F4000000000F024DEBF000000E08EDF58C00C00000013000000B20500003C00000006000000020000000000004000408FC000000000F024DEBF000000E08EDF58C00000006000408F4000000000F024DEBF000000E08EDF58C00C00000013000000BA0500003C0000000600000002000000
310
0000004000408FC00000000058FEDFBF0000006049D058C00000004000408FC000000000F024DEBF000000E08EDF58C00C00000013000000C20500003C00000006000000020000000000006000408F4000000000F024DEBF000000E08EDF58C00000006000408F400000000038B5D8BF00000000F1ED58C00C000000130000
310
00CA0500003C00000006000000020000000000004000408FC00000000038B5D8BF00000000F1ED58C00000006000408F400000000038B5D8BF00000000F1ED58C00C00000013000000D20500003C00000006000000020000000000004000408FC000000000F024DEBF000000E08EDF58C00000004000408FC00000000038B5
310
D8BF00000000F1ED58C00C00000013000000DA0500003C00000006000000020000000000006000408F400000000038B5D8BF00000000F1ED58C00000006000408F4000000000201EBDBF000000804B0759C00C00000013000000E20500003C00000006000000020000000000004000408FC000000000201EBDBF000000804B
310
0759C00000006000408F4000000000201EBDBF000000804B0759C00C00000013000000EA0500003C00000006000000020000000000004000408FC00000000038B5D8BF00000000F1ED58C00000004000408FC000000000201EBDBF000000804B0759C00C00000013000000F20500003C000000060000000200000000000060
310
00408F4000000000201EBDBF000000804B0759C00000006000408F4000000000007D9DBF000000A0AD1559C00C00000013000000FA0500003C00000006000000020000000000004000408FC000000000007D9DBF000000A0AD1559C00000006000408F4000000000007D9DBF000000A0AD1559C00C00000013000000020600
310
003C00000006000000020000000000004000408FC000000000201EBDBF000000804B0759C00000004000408FC000000000007D9DBF000000A0AD1559C00C000000130000000A0600003C00000006000000020000000000006000408F4000000000007D9DBF000000A0AD1559C00000006000408F400000000000801A3F0000
310
0040F32459C00C00000013000000120600003C00000006000000020000000000004000408FC00000000000801A3F00000040F32459C00000006000408F400000000000801A3F00000040F32459C00C000000130000001A0600003C00000006000000020000000000004000408FC000000000007D9DBF000000A0AD1559C000
310
00004000408FC00000000000801A3F00000040F32459C00C00000013000000220600003C00000006000000020000000000006000408F400000000000801A3F00000040F32459C00000006000408F400000000000801A3F000000A04F465BC00C000000130000002A0600003C00000006000000020000000000004000408FC0
310
0000000000801A3F000000A04F465BC00000006000408F400000000000801A3F000000A04F465BC00C00000013000000320600003C00000006000000020000000000004000408FC00000000000801A3F00000040F32459C00000004000408FC00000000000801A3F000000A04F465BC00C000000130000003A0600003C0000
310
0006000000020000000000006000408F400000000000801A3F000000A04F465BC00000006000408F400000000080DD95BF000000A0954F5BC00C00000013000000420600003C00000006000000020000000000004000408FC00000000080DD95BF000000A0954F5BC00000006000408F400000000080DD95BF000000A0954F
310
5BC00C000000130000004A0600003C00000006000000020000000000004000408FC00000000000801A3F000000A04F465BC00000004000408FC00000000080DD95BF000000A0954F5BC00C00000013000000520600003C00000006000000020000000000006000408F400000000080DD95BF000000A0954F5BC00000006000
310
408F4000000000C078B5BF000000C00F585BC00C000000130000005A0600003C00000006000000020000000000004000408FC000000000C078B5BF000000C00F585BC00000006000408F4000000000C078B5BF000000C00F585BC00C00000013000000620600003C00000006000000020000000000004000408FC000000000
310
80DD95BF000000A0954F5BC00000004000408FC000000000C078B5BF000000C00F585BC00C000000130000006A0600003C00000006000000020000000000006000408F4000000000C078B5BF000000C00F585BC00000006000408F4000000000F028D4BF000000E03F6E5BC00C00000013000000720600003C000000060000
310
00020000000000004000408FC000000000F028D4BF000000E03F6E5BC00000006000408F4000000000F028D4BF000000E03F6E5BC00C000000130000007A0600003C00000006000000020000000000004000408FC000000000C078B5BF000000C00F585BC00000004000408FC000000000F028D4BF000000E03F6E5BC00C00
310
000013000000820600003C00000006000000020000000000006000408F4000000000F028D4BF000000E03F6E5BC00000006000408F40000000006029D8BF000000C0BA765BC00C000000130000008A0600003C00000006000000020000000000004000408FC0000000006029D8BF000000C0BA765BC00000006000408F4000
310
0000006029D8BF000000C0BA765BC00C00000013000000920600003C00000006000000020000000000004000408FC000000000F028D4BF000000E03F6E5BC00000004000408FC0000000006029D8BF000000C0BA765BC00C000000130000009A0600003C00000006000000020000000000006000408F40000000006029D8BF
310
000000C0BA765BC00000006000408F4000000000A088D9BF0000000000805BC00C00000013000000A20600003C00000006000000020000000000004000408FC000000000A088D9BF0000000000805BC00000006000408F4000000000A088D9BF0000000000805BC00C00000013000000AA0600003C00000006000000020000
310
000000004000408FC0000000006029D8BF000000C0BA765BC00000004000408FC000000000A088D9BF0000000000805BC00C00000013000000B20600003C00000006000000020000000000006000408F4000000000A088D9BF0000000000805BC00000006000408F40000000006029D8BF0000004045895BC00C0000001300
310
0000BA0600003C00000006000000020000000000004000408FC0000000006029D8BF0000004045895BC00000006000408F40000000006029D8BF0000004045895BC00C00000013000000C20600003C00000006000000020000000000004000408FC000000000A088D9BF0000000000805BC00000004000408FC00000000060
310
29D8BF0000004045895BC00C00000013000000CA0600003C00000006000000020000000000006000408F40000000006029D8BF0000004045895BC00000006000408F4000000000F028D4BF00000020C0915BC00C00000013000000D20600003C00000006000000020000000000004000408FC000000000F028D4BF00000020
310
C0915BC00000006000408F4000000000F028D4BF00000020C0915BC00C00000013000000DA0600003C00000006000000020000000000004000408FC0000000006029D8BF0000004045895BC00000004000408FC000000000F028D4BF00000020C0915BC00C00000013000000E20600003C0000000600000002000000000000
310
6000408F4000000000F028D4BF00000020C0915BC00000006000408F4000000000C078B5BF00000040F0A75BC00C00000013000000EA0600003C00000006000000020000000000004000408FC000000000C078B5BF00000040F0A75BC00000006000408F4000000000C078B5BF00000040F0A75BC00C00000013000000F206
310
00003C00000006000000020000000000004000408FC000000000F028D4BF00000020C0915BC00000004000408FC000000000C078B5BF00000040F0A75BC00C00000013000000FA0600003C00000006000000020000000000006000408F4000000000C078B5BF00000040F0A75BC00000006000408F400000000080DD95BF00
310
0000606AB05BC00C00000013000000020700003C00000006000000020000000000004000408FC00000000080DD95BF000000606AB05BC00000006000408F400000000080DD95BF000000606AB05BC00C000000130000000A0700003C00000006000000020000000000004000408FC000000000C078B5BF00000040F0A75BC0
310
0000004000408FC00000000080DD95BF000000606AB05BC00C00000013000000120700003C00000006000000020000000000006000408F400000000080DD95BF000000606AB05BC00000006000408F400000000000801A3F00000060B0B95BC00C000000130000001A0700003C00000006000000020000000000004000408F
310
C00000000000801A3F00000060B0B95BC00000006000408F400000000000801A3F00000060B0B95BC00C00000013000000220700003C00000006000000020000000000004000408FC00000000080DD95BF000000606AB05BC00000004000408FC00000000000801A3F00000060B0B95BC00C000000130000002A0700003C00
310
000006000000020000000000006000408F400000000000801A3F00000060B0B95BC00000006000408F400000000000001B3F0000000000005EC00C00000013000000320700003C00000006000000020000000000004000408FC00000000000001B3F0000000000005EC00000006000408F400000000000001B3F0000000000
310
005EC00C000000130000003A0700003C00000006000000020000000000004000408FC00000000000801A3F00000060B0B95BC00000004000408FC00000000000001B3F0000000000005EC00C00000013000000420700003C00000006000000020000000000006000408F4000000080E4FF13C00000000000E05DC000000060
310
00408F400000000000001B3F0000000000005EC00C000000130000004A0700003C00000006000000020000000000004000408FC000000000E5FF13C00000000000E05DC00000006000408F4000000080E4FF13C00000000000E05DC00C00000013000000520700003C00000006000000020000000000004000408FC0000000
310
0000001B3F0000000000005EC00000004000408FC000000000E5FF13C00000000000E05DC00C000000130000005A0700003C00000006000000020000000000004000408FC0000000E0F2FF22C00000000000C059C00000006000408F40000000C0F2FF22C00000000000C059C00C00000013000000620700003C0000000600
310
0000020000000000006000408F40000000808C9922C0000000C0912D59C00000006000408F40000000C0F2FF22C00000000000C059C00C000000130000006A0700003C00000006000000020000000000004000408FC0000000808C9922C0000000C0912D59C00000006000408F40000000808C9922C0000000C0912D59C00C
310
00000013000000720700003C00000006000000020000000000004000408FC0000000E0F2FF22C00000000000C059C00000004000408FC0000000808C9922C0000000C0912D59C00C000000130000007A0700003C00000006000000020000000000006000408F400000004026332AC0000000C0AF0259C00000006000408F40
310
000000808C9922C0000000C0912D59C00C00000013000000820700003C00000006000000020000000000004000408FC00000004026332AC0000000C0AF0259C00000006000408F400000004026332AC0000000C0AF0259C00C000000130000008A0700003C00000006000000020000000000004000408FC0000000808C9922
310
C0000000C0912D59C00000004000408FC00000004026332AC0000000C0AF0259C00C00000013000000920700003C00000006000000020000000000006000408F400000004026332AC0000000C0AF0259C00000006000408F40000000808C992AC0000000C0720E58C00C000000130000009A0700003C000000060000000200
310
00000000004000408FC0000000808C992AC0000000C0720E58C00000006000408F40000000808C992AC0000000C0720E58C00C00000013000000A20700003C00000006000000020000000000004000408FC00000004026332AC0000000C0AF0259C00000004000408FC0000000808C992AC0000000C0720E58C00C00000013
310
000000AA0700003C00000006000000020000000000006000408F40000000808C992AC0000000C0720E58C00000006000408F40000000E09CD228C0000000E0F1EA57C00C00000013000000B20700003C00000006000000020000000000004000408FC0000000E09CD228C0000000E0F1EA57C00000006000408F40000000E0
310
9CD228C0000000E0F1EA57C00C00000013000000BA0700003C00000006000000020000000000004000408FC0000000808C992AC0000000C0720E58C00000004000408FC0000000E09CD228C0000000E0F1EA57C00C00000013000000C20700003C00000006000000020000000000006000408F40000000E09CD228C0000000
310
E0F1EA57C00000006000408F40000000403FBE26C00000004015B057C00C00000013000000CA0700003C00000006000000020000000000004000408FC0000000403FBE26C00000004015B057C00000006000408F40000000403FBE26C00000004015B057C00C00000013000000D20700003C00000006000000020000000000
310
004000408FC0000000E09CD228C0000000E0F1EA57C00000004000408FC0000000403FBE26C00000004015B057C00C00000013000000DA0700003C00000006000000020000000000006000408F40000000403FBE26C00000004015B057C00000006000408F4000000000B31025C0000000601A6957C00C00000013000000E2
310
0700003C00000006000000020000000000004000408FC000000000B31025C0000000601A6957C00000006000408F4000000000B31025C0000000601A6957C00C00000013000000EA0700003C00000006000000020000000000004000408FC0000000403FBE26C00000004015B057C00000004000408FC000000000B31025C0
310
000000601A6957C00C00000013000000F20700003C00000006000000020000000000006000408F4000000000B31025C0000000601A6957C00000006000408F400000008007DC23C000000080E61857C00C00000013000000FA0700003C00000006000000020000000000004000408FC00000008007DC23C000000080E61857
310
C00000006000408F400000008007DC23C000000080E61857C00C00000013000000020800003C00000006000000020000000000004000408FC000000000B31025C0000000601A6957C00000004000408FC00000008007DC23C000000080E61857C00C000000130000000A0800003C0000000600000002000000000000600040
310
8F4000000040962C23C000000080CEC256C00000006000408F400000008007DC23C000000080E61857C00C00000013000000120800003C00000006000000020000000000004000408FC000000040962C23C000000080CEC256C00000006000408F4000000040962C23C000000080CEC256C00C000000130000001A0800003C
310
00000006000000020000000000004000408FC00000008007DC23C000000080E61857C00000004000408FC000000040962C23C000000080CEC256C00C00000013000000220800003C00000006000000020000000000006000408F4000000000F3FF22C000000000008056C00000006000408F4000000040962C23C000000080
310
CEC256C00C000000130000002A0800003C00000006000000020000000000004000408FC000000000F3FF22C000000000008056C00000006000408F4000000000F3FF22C000000000008056C00C00000013000000320800003C00000006000000020000000000004000408FC000000040962C23C000000080CEC256C0000000
310
4000408FC000000000F3FF22C000000000008056C00C000000130000003A0800003C00000006000000020000000000006000408F40000000C0F3FF22C000000000000049C00000006000408F4000000000F3FF22C000000000008056C00C00000013000000420800003C00000006000000020000000000004000408FC00000
310
00C0F3FF22C000000000000049C00000006000408F40000000C0F3FF22C000000000000049C00C000000130000004A0800003C00000006000000020000000000004000408FC000000000F3FF22C000000000008056C00000004000408FC0000000C0F3FF22C000000000000049C00C00000013000000520800003C00000006
310
000000020000000000006000408F40000000C0F3FF22C000000000000049C00000006000408F4000000080F3FF2CC0000000C0FFFF48C00C000000130000005A0800003C00000006000000020000000000004000408FC0000000A0F3FF2CC0000000E0FFFF48C00000006000408F4000000080F3FF2CC0000000C0FFFF48C0
310
0C00000013000000620800003C00000006000000020000000000004000408FC0000000C0F3FF22C000000000000049C00000004000408FC0000000A0F3FF2CC0000000E0FFFF48C00C000000130000006A0800003C00000006000000020000000000006000408F4000000080F3FF2CC0000000C0FFFF48C00000006000408F
310
40000000A0F3FF2CC0000000C0FF7F46C00C00000013000000720800003C00000006000000020000000000004000408FC0000000A0F3FF2CC0000000E0FF7F46C00000006000408F40000000A0F3FF2CC0000000C0FF7F46C00C000000130000007A0800003C00000006000000020000000000004000408FC0000000A0F3FF
310
2CC0000000E0FFFF48C00000004000408FC0000000A0F3FF2CC0000000E0FF7F46C00C00000013000000820800003C00000006000000020000000000006000408F40000000A0F3FF2CC0000000C0FF7F46C00000006000408F40000000C0F97F33C000000020008046C00C000000130000008A0800003C0000000600000002
310
0000000000004000408FC0000000E0F97F33C000000020008046C00000006000408F40000000C0F97F33C000000020008046C00C00000013000000920800003C00000006000000020000000000004000408FC0000000A0F3FF2CC0000000E0FF7F46C00000004000408FC0000000E0F97F33C000000020008046C00C000000
310
130000009A0800003C00000006000000020000000000006000408F40000000C0F97F33C000000020008046C00000006000408F40000000E0F97F33C000000020000044C00C00000013000000A20800003C00000006000000020000000000004000408FC0000000E0F97F33C000000020000044C00000006000408F40000000
310
E0F97F33C000000020000044C00C00000013000000AA0800003C00000006000000020000000000004000408FC0000000E0F97F33C000000020008046C00000004000408FC0000000E0F97F33C000000020000044C00C00000013000000B20800003C00000006000000020000000000004000408FC000000020FD7F4BC00000
310
0000010024C00000006000408F4000000040FD7F4BC000000000010024C00C00000013000000BA0800003C00000006000000020000000000006000408F4000000040FD7F4BC000000000020014C00000006000408F4000000040FD7F4BC000000000010024C00C00000013000000C20800003C000000060000000200000000
310
00004000408FC000000020FD7F4BC000000000020014C00000006000408F4000000040FD7F4BC000000000020014C00C00000013000000CA0800003C00000006000000020000000000004000408FC000000020FD7F4BC000000000020014C00000004000408FC000000020FD7F4BC000000000010024C00C00000013000000
310
D20800003C00000006000000020000000000006000408F4000000040FD7F4BC000000000020014C00000006000408F4000000040FDFF4DC000000000020014C00C00000013000000DA0800003C00000006000000020000000000004000408FC000000020FDFF4DC000000000020014C00000006000408F4000000040FDFF4D
310
C000000000020014C00C00000013000000E20800003C00000006000000020000000000004000408FC000000020FD7F4BC000000000020014C00000004000408FC000000020FDFF4DC000000000020014C00C00000013000000EA0800003C00000006000000020000000000006000408F4000000040FDFF4DC0000000000200
310
14C00000006000408F4000000040FDFF4DC0000000000000E0BE0C00000013000000F20800003C00000006000000020000000000004000408FC000000020FDFF4DC000000000020014C00000004000408FC000000020FDFF4DC0000000000000E0BE0C00000013000000FA0800003C00000006000000020000000000004000
310
408FC000000080D9C813C00000008093C35DC00000006000408F4000000080D9C813C00000008093C35DC00C00000013000000020900003C00000006000000020000000000006000408F4000000080CE8413C0000000C09C8B5DC00000006000408F4000000080D9C813C00000008093C35DC00C000000130000000A090000
310
3C00000006000000020000000000004000408FC000000000CF8413C0000000C09C8B5DC00000006000408F4000000080CE8413C0000000C09C8B5DC00C00000013000000120900003C00000006000000020000000000004000408FC000000080D9C813C00000008093C35DC00000004000408FC000000000CF8413C0000000
310
C09C8B5DC00C000000130000001A0900003C00000006000000020000000000006000408F4000000080CE8413C0000000C09C8B5DC00000006000408F40000000801E8C13C0000000C0E1575DC00C00000013000000220900003C00000006000000020000000000004000408FC0000000801E8C13C0000000C0E1575DC00000
310
006000408F40000000801E8C13C0000000C0E1575DC00C000000130000002A0900003C00000006000000020000000000004000408FC000000000CF8413C0000000C09C8B5DC00000004000408FC0000000801E8C13C0000000C0E1575DC00C00000013000000320900003C00000006000000020000000000006000408F4000
310
0000801E8C13C0000000C0E1575DC00000006000408F4000000080ACEF13C000000040A1265DC00C000000130000003A0900003C00000006000000020000000000004000408FC000000080ACEF13C000000040A1265DC00000006000408F4000000080ACEF13C000000040A1265DC00C00000013000000420900003C000000
310
06000000020000000000004000408FC0000000801E8C13C0000000C0E1575DC00000004000408FC000000080ACEF13C000000040A1265DC00C000000130000004A0900003C00000006000000020000000000006000408F4000000080ACEF13C000000040A1265DC00000006000408F40000000800DBD14C0000000004DF45C
310
C00C00000013000000520900003C00000006000000020000000000004000408FC0000000800DBD14C0000000004DF45CC00000006000408F40000000800DBD14C0000000004DF45CC00C000000130000005A0900003C00000006000000020000000000004000408FC000000080ACEF13C000000040A1265DC0000000400040
310
8FC0000000800DBD14C0000000004DF45CC00C00000013000000620900003C00000006000000020000000000006000408F40000000800DBD14C0000000004DF45CC00000006000408F40000000C07EE415C0000000C013C85CC00C000000130000006A0900003C00000006000000020000000000004000408FC0000000C07E
310
E415C0000000C013C85CC00000006000408F40000000C07EE415C0000000C013C85CC00C00000013000000720900003C00000006000000020000000000004000408FC0000000800DBD14C0000000004DF45CC00000004000408FC0000000C07EE415C0000000C013C85CC00C000000130000007A0900003C00000006000000
310
020000000000006000408F40000000C07EE415C0000000C013C85CC00000006000408F40000000802BF717C000000040B1945CC00C00000013000000820900003C00000006000000020000000000004000408FC0000000802BF717C000000040B1945CC00000006000408F40000000802BF717C000000040B1945CC00C0000
310
00130000008A0900003C00000006000000020000000000004000408FC0000000C07EE415C0000000C013C85CC00000004000408FC0000000802BF717C000000040B1945CC00C00000013000000920900003C00000006000000020000000000006000408F40000000802BF717C000000040B1945CC00000006000408F400000
310
0000AE5F1BC0000000C0195C5CC00C000000130000009A0900003C00000006000000020000000000004000408FC000000000AE5F1BC0000000C0195C5CC00000006000408F4000000000AE5F1BC0000000C0195C5CC00C00000013000000A20900003C00000006000000020000000000004000408FC0000000802BF717C000
310
000040B1945CC00000004000408FC000000000AE5F1BC0000000C0195C5CC00C00000013000000AA0900003C00000006000000020000000000006000408F4000000000AE5F1BC0000000C0195C5CC00000006000408F4000000000B9831FC000000080FF2A5CC00C00000013000000B20900003C0000000600000002000000
310
0000004000408FC000000000B9831FC000000080FF2A5CC00000006000408F4000000000B9831FC000000080FF2A5CC00C00000013000000BA0900003C00000006000000020000000000004000408FC000000000AE5F1BC0000000C0195C5CC00000004000408FC000000000B9831FC000000080FF2A5CC00C000000130000
310
00C20900003C00000006000000020000000000006000408F4000000000B9831FC000000080FF2A5CC00000006000408F4000000080E4EA21C00000006019015CC00C00000013000000CA0900003C00000006000000020000000000004000408FC000000080E4EA21C00000006019015CC00000006000408F4000000080E4EA
310
21C00000006019015CC00C00000013000000D20900003C00000006000000020000000000004000408FC000000000B9831FC000000080FF2A5CC00000004000408FC000000080E4EA21C00000006019015CC00C00000013000000DA0900003C00000006000000020000000000006000408F4000000080E4EA21C00000006019
310
015CC00000006000408F4000000020B91724C00000008003D85BC00C00000013000000E20900003C00000006000000020000000000004000408FC000000040B91724C00000008003D85BC00000006000408F4000000020B91724C00000008003D85BC00C00000013000000EA0900003C000000060000000200000000000040
310
00408FC000000080E4EA21C00000006019015CC00000004000408FC000000040B91724C00000008003D85BC00C00000013000000F20900003C00000006000000020000000000006000408F4000000020B91724C00000008003D85BC00000006000408F4000000000EF3726C000000020C0A85BC00C00000013000000FA0900
310
003C00000006000000020000000000004000408FC000000000EF3726C000000020C0A85BC00000006000408F4000000000EF3726C000000020C0A85BC00C00000013000000020A00003C00000006000000020000000000004000408FC000000040B91724C00000008003D85BC00000004000408FC000000000EF3726C00000
310
0020C0A85BC00C000000130000000A0A00003C00000006000000020000000000006000408F40000000004CE227C0000000E046745BC00000006000408F4000000000EF3726C000000020C0A85BC00C00000013000000120A00003C00000006000000020000000000004000408FC0000000204CE227C0000000E046745BC000
310
00006000408F40000000004CE227C0000000E046745BC00C000000130000001A0A00003C00000006000000020000000000004000408FC000000000EF3726C000000020C0A85BC00000004000408FC0000000204CE227C0000000E046745BC00C00000013000000220A00003C00000006000000020000000000006000408F40
310
000000404D3329C000000040F12D5BC00000006000408F40000000004CE227C0000000E046745BC00C000000130000002A0A00003C00000006000000020000000000004000408FC0000000404D3329C000000040F12D5BC00000006000408F40000000404D3329C000000040F12D5BC00C00000013000000320A00003C0000
310
0006000000020000000000004000408FC0000000204CE227C0000000E046745BC00000004000408FC0000000404D3329C000000040F12D5BC00C000000130000003A0A00003C00000006000000020000000000006000408F400000008000DF29C0000000004BE05AC00000006000408F40000000404D3329C000000040F12D
310
5BC00C00000013000000420A00003C00000006000000020000000000004000408FC00000008000DF29C0000000004BE05AC00000006000408F400000008000DF29C0000000004BE05AC00C000000130000004A0A00003C00000006000000020000000000004000408FC0000000404D3329C000000040F12D5BC00000004000
310
408FC00000008000DF29C0000000004BE05AC00C00000013000000520A00003C00000006000000020000000000006000408F400000008000DF29C0000000004BE05AC00000006000408F40000000C021F429C0000000C087975AC00C000000130000005A0A00003C00000006000000020000000000004000408FC0000000C0
310
21F429C0000000C087975AC00000006000408F40000000C021F429C0000000C087975AC00C00000013000000620A00003C00000006000000020000000000004000408FC00000008000DF29C0000000004BE05AC00000004000408FC0000000C021F429C0000000C087975AC00C000000130000006A0A00003C000000060000
310
00020000000000006000408F40000000C021F429C0000000C087975AC00000006000408F4000000080449A29C0000000C0C7645AC00C00000013000000720A00003C00000006000000020000000000004000408FC000000080449A29C0000000C0C7645AC00000006000408F4000000080449A29C0000000C0C7645AC00C00
310
0000130000007A0A00003C00000006000000020000000000004000408FC0000000C021F429C0000000C087975AC00000004000408FC000000080449A29C0000000C0C7645AC00C00000013000000820A00003C00000006000000020000000000006000408F4000000080449A29C0000000C0C7645AC00000006000408F4000
310
00004059E528C000000080F2375AC00C000000130000008A0A00003C00000006000000020000000000004000408FC00000004059E528C000000080F2375AC00000006000408F400000004059E528C000000080F2375AC00C00000013000000920A00003C00000006000000020000000000004000408FC000000080449A29C0
310
000000C0C7645AC00000004000408FC00000004059E528C000000080F2375AC00C000000130000009A0A00003C00000006000000020000000000006000408F400000004059E528C000000080F2375AC00000006000408F40000000E03DC627C000000000FF0E5AC00C00000013000000A20A00003C00000006000000020000
310
000000004000408FC0000000003EC627C000000000FF0E5AC00000006000408F40000000E03DC627C000000000FF0E5AC00C00000013000000AA0A00003C00000006000000020000000000004000408FC00000004059E528C000000080F2375AC00000004000408FC0000000003EC627C000000000FF0E5AC00C0000001300
310
0000B20A00003C00000006000000020000000000006000408F40000000E03DC627C000000000FF0E5AC00000006000408F40000000E09B0D26C0000000005BE859C00C00000013000000BA0A00003C00000006000000020000000000004000408FC0000000009C0D26C0000000005BE859C00000006000408F40000000E09B
310
0D26C0000000005BE859C00C00000013000000C20A00003C00000006000000020000000000004000408FC0000000003EC627C000000000FF0E5AC00000004000408FC0000000009C0D26C0000000005BE859C00C00000013000000CA0A00003C00000006000000020000000000006000408F40000000E09B0D26C000000000
310
5BE859C00000006000408F4000000000812D24C00000006000CD59C00C00000013000000D20A00003C00000006000000020000000000006000408F4000000000812D24C00000006000CD59C00000004000408FC000000000812D24C00000006000CD59C00C00000013000000DA0A00003C0000000600000002000000000000
310
4000408FC0000000009C0D26C0000000005BE859C00000004000408FC000000000812D24C00000006000CD59C00C00000013000000E20A00003C00000006000000020000000000006000408F4000000080E4FF13C00000000000E05DC00000006000408F4000000080D9C813C00000008093C35DC00C00000013000000EA0A
310
00003C00000006000000020000000000004000408FC000000000E5FF13C00000000000E05DC00000004000408FC000000080D9C813C00000008093C35DC00C00000013000000F20A00003C00000006000000020000000000006000408F40000000C0F2FF22C00000000000C059C00000006000408F4000000000812D24C000
310
00006000CD59C00C00000013000000FA0A00003C00000006000000020000000000004000408FC0000000E0F2FF22C00000000000C059C00000004000408FC000000000812D24C00000006000CD59C00C00000013000000020B00003C00000006000000020000000000004000408FC0000000606F0235C000000040ACF643C0
310
0000006000408F40000000606F0235C000000040ACF643C00C000000130000000A0B00003C00000006000000020000000000006000408F40000000606F0235C000000040ACF643C00000006000408F4000000000443837C000000080E0CE43C00C00000013000000120B00003C00000006000000020000000000004000408F
310
C000000000443837C000000080E0CE43C00000006000408F4000000000443837C000000080E0CE43C00C000000130000001A0B00003C00000006000000020000000000004000408FC0000000606F0235C000000040ACF643C00000004000408FC000000000443837C000000080E0CE43C00C00000013000000220B00003C00
310
000006000000020000000000006000408F4000000000443837C000000080E0CE43C00000006000408F4000000000B52F39C000000000F68743C00C000000130000002A0B00003C00000006000000020000000000004000408FC000000000B52F39C000000000F68743C00000006000408F4000000000B52F39C000000000F6
310
8743C00C00000013000000320B00003C00000006000000020000000000004000408FC000000000443837C000000080E0CE43C00000004000408FC000000000B52F39C000000000F68743C00C000000130000003A0B00003C00000006000000020000000000006000408F4000000000B52F39C000000000F68743C000000060
310
00408F40000000A08FF63AC000000080EF2443C00C00000013000000420B00003C00000006000000020000000000004000408FC0000000A08FF63AC000000080EF2443C00000006000408F40000000A08FF63AC000000080EF2443C00C000000130000004A0B00003C00000006000000020000000000004000408FC0000000
310
00B52F39C000000000F68743C00000004000408FC0000000A08FF63AC000000080EF2443C00C00000013000000520B00003C00000006000000020000000000006000408F40000000A08FF63AC000000080EF2443C00000006000408F4000000080D8953CC0000000C01DA642C00C000000130000005A0B00003C0000000600
310
0000020000000000004000408FC000000080D8953CC0000000C01DA642C00000006000408F4000000080D8953CC0000000C01DA642C00C00000013000000620B00003C00000006000000020000000000004000408FC0000000A08FF63AC000000080EF2443C00000004000408FC000000080D8953CC0000000C01DA642C00C
310
000000130000006A0B00003C00000006000000020000000000006000408F4000000080D8953CC0000000C01DA642C00000006000408F400000004054133EC000000000FD0942C00C00000013000000720B00003C00000006000000020000000000004000408FC00000004054133EC000000000FD0942C00000006000408F40
310
0000004054133EC000000000FD0942C00C000000130000007A0B00003C00000006000000020000000000004000408FC000000080D8953CC0000000C01DA642C00000004000408FC00000004054133EC000000000FD0942C00C00000013000000820B00003C00000006000000020000000000006000408F400000004054133E
310
C000000000FD0942C00000006000408F40000000C0DC2B3FC0000000407C7841C00C000000130000008A0B00003C00000006000000020000000000004000408FC0000000C0DC2B3FC0000000407C7841C00000006000408F40000000C0DC2B3FC0000000407C7841C00C00000013000000920B00003C000000060000000200
310
00000000004000408FC00000004054133EC000000000FD0942C00000004000408FC0000000C0DC2B3FC0000000407C7841C00C000000130000009A0B00003C00000006000000020000000000006000408F40000000C0DC2B3FC0000000407C7841C00000006000408F4000000040F40340C0000000A02BEC40C00C00000013
310
000000A20B00003C00000006000000020000000000004000408FC000000040F40340C0000000A02BEC40C00000006000408F4000000040F40340C0000000A02BEC40C00C00000013000000AA0B00003C00000006000000020000000000004000408FC0000000C0DC2B3FC0000000407C7841C00000004000408FC000000040
310
F40340C0000000A02BEC40C00C00000013000000B20B00003C00000006000000020000000000006000408F4000000040F40340C0000000A02BEC40C00000006000408F4000000040696A40C000000080224F40C00C00000013000000BA0B00003C00000006000000020000000000004000408FC000000040696A40C0000000
310
80224F40C00000006000408F4000000040696A40C000000080224F40C00C00000013000000C20B00003C00000006000000020000000000004000408FC000000040F40340C0000000A02BEC40C00000004000408FC000000040696A40C000000080224F40C00C00000013000000CA0B00003C00000006000000020000000000
310
006000408F4000000040696A40C000000080224F40C00000006000408F40000000C00FC840C000000000A83F3FC00C00000013000000D20B00003C00000006000000020000000000004000408FC0000000E00FC840C000000000A83F3FC00000006000408F40000000C00FC840C000000000A83F3FC00C00000013000000DA
310
0B00003C00000006000000020000000000004000408FC000000040696A40C000000080224F40C00000004000408FC0000000E00FC840C000000000A83F3FC00C00000013000000E20B00003C00000006000000020000000000006000408F40000000C00FC840C000000000A83F3FC00000006000408F4000000080621C41C0
310
00000080F3B73DC00C00000013000000EA0B00003C00000006000000020000000000004000408FC000000080621C41C000000080F3B73DC00000006000408F4000000080621C41C000000080F3B73DC00C00000013000000F20B00003C00000006000000020000000000004000408FC0000000E00FC840C000000000A83F3F
310
C00000004000408FC000000080621C41C000000080F3B73DC00C00000013000000FA0B00003C00000006000000020000000000006000408F4000000080621C41C000000080F3B73DC00000006000408F4000000080956641C00000004080003CC00C00000013000000020C00003C0000000600000002000000000000400040
310
8FC000000080956641C00000004080003CC00000006000408F4000000080956641C00000004080003CC00C000000130000000A0C00003C00000006000000020000000000004000408FC000000080621C41C000000080F3B73DC00000004000408FC000000080956641C00000004080003CC00C00000013000000120C00003C
310
00000006000000020000000000006000408F4000000080956641C00000004080003CC00000006000408F40000000A03BA941C000000020A12E3AC00C000000130000001A0C00003C00000006000000020000000000004000408FC0000000A03BA941C000000040A12E3AC00000006000408F40000000A03BA941C000000020
310
A12E3AC00C00000013000000220C00003C00000006000000020000000000004000408FC000000080956641C00000004080003CC00000004000408FC0000000A03BA941C000000040A12E3AC00C000000130000002A0C00003C00000006000000020000000000006000408F40000000A03BA941C000000020A12E3AC0000000
310
6000408F40000000C01DE641C000000020375138C00C00000013000000320C00003C00000006000000020000000000004000408FC0000000C01DE641C000000040375138C00000006000408F40000000C01DE641C000000020375138C00C000000130000003A0C00003C00000006000000020000000000004000408FC00000
310
00A03BA941C000000040A12E3AC00000004000408FC0000000C01DE641C000000040375138C00C00000013000000420C00003C00000006000000020000000000006000408F40000000C01DE641C000000020375138C00000006000408F4000000020292242C0000000C04F9736C00C000000130000004A0C00003C00000006
310
000000020000000000004000408FC000000020292242C0000000E04F9736C00000006000408F4000000020292242C0000000C04F9736C00C00000013000000520C00003C00000006000000020000000000004000408FC0000000C01DE641C000000040375138C00000004000408FC000000020292242C0000000E04F9736C0
310
0C000000130000005A0C00003C00000006000000020000000000006000408F4000000020292242C0000000C04F9736C00000006000408F40000000C0946042C0000000600D0435C00C00000013000000620C00003C00000006000000020000000000004000408FC0000000C0946042C0000000800D0435C00000006000408F
310
40000000C0946042C0000000600D0435C00C000000130000006A0C00003C00000006000000020000000000004000408FC000000020292242C0000000E04F9736C00000004000408FC0000000C0946042C0000000800D0435C00C00000013000000720C00003C00000006000000020000000000006000408F40000000C09460
310
42C0000000600D0435C00000006000408F4000000080AAA542C000000000149B33C00C000000130000007A0C00003C00000006000000020000000000004000408FC000000080AAA542C000000000149B33C00000006000408F4000000080AAA542C000000000149B33C00C00000013000000820C00003C0000000600000002
310
0000000000004000408FC0000000C0946042C0000000800D0435C00000004000408FC000000080AAA542C000000000149B33C00C000000130000008A0C00003C00000006000000020000000000006000408F4000000080AAA542C000000000149B33C00000006000408F40000000805DF242C000000000335932C00C000000
310
13000000920C00003C00000006000000020000000000004000408FC0000000805DF242C000000000335932C00000006000408F40000000805DF242C000000000335932C00C000000130000009A0C00003C00000006000000020000000000004000408FC000000080AAA542C000000000149B33C00000004000408FC0000000
310
805DF242C000000000335932C00C00000013000000A20C00003C00000006000000020000000000006000408F40000000805DF242C000000000335932C00000006000408F4000000000026643C000000040FCE530C00C00000013000000AA0C00003C00000006000000020000000000004000408FC000000000026643C00000
310
0040FCE530C00000006000408F4000000000026643C000000040FCE530C00C00000013000000B20C00003C00000006000000020000000000004000408FC0000000805DF242C000000000335932C00000004000408FC000000000026643C000000040FCE530C00C00000013000000BA0C00003C000000060000000200000000
310
00006000408F4000000000026643C000000040FCE530C00000006000408F40000000C0C9FA43C0000000001DE82EC00C00000013000000C20C00003C00000006000000020000000000004000408FC0000000C0C9FA43C0000000001DE82EC00000006000408F40000000C0C9FA43C0000000001DE82EC00C00000013000000
310
CA0C00003C00000006000000020000000000004000408FC000000000026643C000000040FCE530C00000004000408FC0000000C0C9FA43C0000000001DE82EC00C00000013000000D20C00003C00000006000000020000000000006000408F40000000C0C9FA43C0000000001DE82EC00000006000408F4000000080177C44
310
C000000080BDE52CC00C00000013000000DA0C00003C00000006000000020000000000004000408FC000000080177C44C000000080BDE52CC00000006000408F4000000080177C44C000000080BDE52CC00C00000013000000E20C00003C00000006000000020000000000004000408FC0000000C0C9FA43C0000000001DE8
310
2EC00000004000408FC000000080177C44C000000080BDE52CC00C00000013000000EA0C00003C00000006000000020000000000006000408F4000000080177C44C000000080BDE52CC00000006000408F4000000040240745C000000000B2152BC00C00000013000000F20C00003C00000006000000020000000000004000
310
408FC000000040240745C000000000B2152BC00000006000408F4000000040240745C000000000B2152BC00C00000013000000FA0C00003C00000006000000020000000000004000408FC000000080177C44C000000080BDE52CC00000004000408FC000000040240745C000000000B2152BC00C00000013000000020D0000
310
3C00000006000000020000000000006000408F4000000040240745C000000000B2152BC00000006000408F4000000060E59A45C0000000800E7B29C00C000000130000000A0D00003C00000006000000020000000000004000408FC000000060E59A45C0000000000F7B29C00000006000408F4000000060E59A45C0000000
310
800E7B29C00C00000013000000120D00003C00000006000000020000000000004000408FC000000040240745C000000000B2152BC00000004000408FC000000060E59A45C0000000000F7B29C00C000000130000001A0D00003C00000006000000020000000000006000408F4000000060E59A45C0000000800E7B29C00000
310
006000408F40000000C05C3546C000000080361928C00C00000013000000220D00003C00000006000000020000000000004000408FC0000000C05C3546C000000080361928C00000006000408F40000000C05C3546C000000080361928C00C000000130000002A0D00003C00000006000000020000000000004000408FC000
310
000060E59A45C0000000000F7B29C00000004000408FC0000000C05C3546C000000080361928C00C00000013000000320D00003C00000006000000020000000000006000408F40000000C05C3546C000000080361928C00000006000408F40000000A06BD646C00000008090F126C00C000000130000003A0D00003C000000
310
06000000020000000000004000408FC0000000A06BD646C00000008090F126C00000006000408F40000000A06BD646C00000008090F126C00C00000013000000420D00003C00000006000000020000000000004000408FC0000000C05C3546C000000080361928C00000004000408FC0000000A06BD646C00000008090F126
310
C00C000000130000004A0D00003C00000006000000020000000000006000408F40000000A06BD646C00000008090F126C00000006000408F4000000080898647C00000000010F825C00C00000013000000520D00003C00000006000000020000000000004000408FC000000080898647C00000000010F825C0000000600040
310
8F4000000080898647C00000000010F825C00C000000130000005A0D00003C00000006000000020000000000004000408FC0000000A06BD646C00000008090F126C00000004000408FC000000080898647C00000000010F825C00C00000013000000620D00003C00000006000000020000000000006000408F400000008089
310
8647C00000000010F825C00000006000408F4000000080BF4848C000000080B42D25C00C000000130000006A0D00003C00000006000000020000000000004000408FC000000080BF4848C000000080B42D25C00000006000408F4000000080BF4848C000000080B42D25C00C00000013000000720D00003C00000006000000
310
020000000000004000408FC000000080898647C00000000010F825C00000004000408FC000000080BF4848C000000080B42D25C00C000000130000007A0D00003C00000006000000020000000000006000408F4000000080BF4848C000000080B42D25C00000006000408F4000000060842149C0000000801D9524C00C0000
310
0013000000820D00003C00000006000000020000000000004000408FC000000060842149C0000000801D9524C00000006000408F4000000060842149C0000000801D9524C00C000000130000008A0D00003C00000006000000020000000000004000408FC000000080BF4848C000000080B42D25C00000004000408FC00000
310
0060842149C0000000801D9524C00C00000013000000920D00003C00000006000000020000000000006000408F4000000060842149C0000000801D9524C00000006000408F40000000602E114AC000000000873124C00C000000130000009A0D00003C00000006000000020000000000004000408FC0000000602E114AC000
310
000000873124C00000006000408F40000000602E114AC000000000873124C00C00000013000000A20D00003C00000006000000020000000000004000408FC000000060842149C0000000801D9524C00000004000408FC0000000602E114AC000000000873124C00C00000013000000AA0D00003C0000000600000002000000
310
0000006000408F40000000602E114AC000000000873124C00000006000408F400000000035FE4AC000000000D00524C00C00000013000000B20D00003C00000006000000020000000000006000408F400000000035FE4AC000000000D00524C00000004000408FC00000000035FE4AC000000000D00524C00C000000130000
310
00BA0D00003C00000006000000020000000000004000408FC0000000602E114AC000000000873124C00000004000408FC00000000035FE4AC000000000D00524C00C00000013000000C20D00003C00000006000000020000000000006000408F40000000606F0235C000000040ACF643C00000006000408F40000000E0F97F
310
33C000000020000044C00C00000013000000CA0D00003C00000006000000020000000000004000408FC0000000E0F97F33C000000020000044C00000004000408FC0000000606F0235C000000040ACF643C00C00000013000000D20D00003C00000006000000020000000000006000408F400000000035FE4AC000000000D0
310
0524C00000006000408F4000000040FD7F4BC000000000010024C00C00000013000000DA0D00003C00000006000000020000000000004000408FC00000000035FE4AC000000000D00524C00000004000408FC000000020FD7F4BC000000000010024C00C00000013000000E20D00003C000000060000000200000000000040
310
00408FC0000000C0F3FF22C000000000000049C00000004000408FC000000000401EBDBF00000020ED2A4AC00C00000013000000EA0D00003C00000006000000020000000000004000408FC0000000C0F3FF22C000000000000049C00000004000408FC000000000007E9DBF000000E0280E4AC00C00000013000000F20D00
310
003C00000006000000020000000000004000408FC000000020FDFF4DC000000000020014C00000004000408FC0000000C05DB34AC0000000000000E0BE0C00000013000000FA0D00003C00000006000000020000000000004000408FC000000020FDFF4DC000000000020014C00000004000408FC000000000D2A04AC00000
310
000000FA95BF0C00000013000000020E00003C00000006000000020000000000004000408FC000000020FD7F4BC000000000020014C00000004000408FC0000000A0DD8F4AC000000000C07FB5BF0C000000130000000A0E00003C00000006000000020000000000004000408FC000000020FD7F4BC000000000020014C000
310
00004000408FC0000000607D634AC000000000B02AD4BF0C00000013000000120E00003C00000006000000020000000000004000408FC0000000C087524AC000000000202BD8BF0000004000408FC000000020FD7F4BC000000000010024C00C000000130000001A0E00003C00000006000000020000000000004000408FC0
310
00000020FD3F4AC000000000608AD9BF0000004000408FC000000020FD7F4BC000000000010024C00C00000013000000220E00003C00000006000000020000000000004000408FC000000080722D4AC000000000202BD8BF0000004000408FC000000020FD7F4BC000000000010024C00C000000130000002A0E00003C0000
310
0006000000020000000000004000408FC0000000E07C1C4AC000000000B02AD4BF0000004000408FC000000020FD7F4BC000000000010024C00C00000013000000320E00003C00000006000000020000000000004000408FC0000000A01CF049C000000000C07FB5BF0000004000408FC00000000035FE4AC000000000D005
310
24C00C000000130000003A0E00003C00000006000000020000000000004000408FC00000004028DF49C00000000000FA95BF0000004000408FC00000000035FE4AC000000000D00524C00C00000013000000420E00003C00000006000000020000000000004000408FC0000000809CCC49C0000000000000E0BE0000004000
310
408FC00000000035FE4AC000000000D00524C00C000000130000004A0E00003C00000006000000020000000000004000408FC0000000C0E3C946C0000000000000E0BE0000004000408FC0000000602E114AC000000000873124C00C00000013000000520E00003C00000006000000020000000000004000408FC000000020
310
C1A846C0000000008075A1BF0000004000408FC0000000602E114AC000000000873124C00C000000130000005A0E00003C00000006000000020000000000004000408FC0000000E0E38946C000000000A026C1BF0000004000408FC0000000602E114AC000000000873124C00C00000013000000620E00003C000000060000
310
00020000000000004000408FC0000000A0626F46C00000000050BED2BF0000004000408FC000000060842149C0000000801D9524C00C000000130000006A0E00003C00000006000000020000000000004000408FC0000000E0095B46C0000000001000E0BF0000004000408FC000000060842149C0000000801D9524C00C00
310
000013000000720E00003C00000006000000020000000000004000408FC0000000E0E38946C000000000A026C1BF0000004000408FC000000060842149C0000000801D9524C00C000000130000007A0E00003C00000006000000020000000000004000408FC000000040E96A45C0000000009EFE0DC00000004000408FC000
310
000080BF4848C000000080B42D25C00C00000013000000820E00003C00000006000000020000000000004000408FC000000020A95945C00000000088730FC00000004000408FC000000080BF4848C000000080B42D25C00C000000130000008A0E00003C00000006000000020000000000004000408FC0000000209E4345C0
310
00000000555010C00000004000408FC000000080898647C00000000010F825C00C00000013000000920E00003C00000006000000020000000000004000408FC000000000E52945C00000000067BB10C00000004000408FC000000080898647C00000000010F825C00C000000130000009A0E00003C00000006000000020000
310
000000004000408FC000000000104544C00000000077DE13C00000004000408FC0000000A06BD646C00000008090F126C00C00000013000000A20E00003C00000006000000020000000000004000408FC000000000104544C00000000077DE13C00000004000408FC0000000C05C3546C000000080361928C00C0000001300
310
0000AA0E00003C00000006000000020000000000004000408FC000000000052243C000000000FFED18C00000004000408FC000000060E59A45C0000000000F7B29C00C00000013000000B20E00003C00000006000000020000000000004000408FC000000000052243C000000000FFED18C00000004000408FC00000004024
310
0745C000000000B2152BC00C00000013000000BA0E00003C00000006000000020000000000004000408FC0000000801E1342C00000000072FC1EC00000004000408FC000000080177C44C000000080BDE52CC00C00000013000000C20E00003C00000006000000020000000000004000408FC0000000801E1342C000000000
310
72FC1EC00000004000408FC0000000C0C9FA43C0000000001DE82EC00C00000013000000CA0E00003C00000006000000020000000000004000408FC000000020D71B41C00000008000FB22C00000004000408FC000000000026643C000000040FCE530C00C00000013000000D20E00003C0000000600000002000000000000
310
4000408FC000000020D71B41C00000008000FB22C00000004000408FC0000000805DF242C000000000335932C00C00000013000000DA0E00003C00000006000000020000000000004000408FC000000080643F40C000000080B9E126C00000004000408FC000000080AAA542C000000000149B33C00C00000013000000E20E
310
00003C00000006000000020000000000004000408FC000000080643F40C000000080B9E126C00000004000408FC0000000C0946042C0000000800D0435C00C00000013000000EA0E00003C00000006000000020000000000004000408FC0000000E01F013FC000000080BC252BC00000004000408FC000000020292242C000
310
0000E04F9736C00C00000013000000F20E00003C00000006000000020000000000004000408FC0000000E01F013FC000000080BC252BC00000004000408FC0000000C01DE641C000000040375138C00C00000013000000FA0E00003C00000006000000020000000000004000408FC00000002077513DC000000040C69730C0
310
0000004000408FC0000000A03BA941C000000040A12E3AC00C00000013000000020F00003C00000006000000020000000000004000408FC00000002077513DC000000040C69730C00000004000408FC000000080956641C00000004080003CC00C000000130000000A0F00003C00000006000000020000000000004000408F
310
C0000000E02FB33BC000000000C2F733C00000004000408FC000000080621C41C000000080F3B73DC00C00000013000000120F00003C00000006000000020000000000004000408FC0000000E02FB33BC000000000C2F733C00000004000408FC0000000E00FC840C000000000A83F3FC00C000000130000001A0F00003C00
310
000006000000020000000000004000408FC0000000C099363AC0000000E025A437C00000004000408FC000000040696A40C000000080224F40C00C00000013000000220F00003C00000006000000020000000000004000408FC0000000C099363AC0000000E025A437C00000004000408FC000000040F40340C0000000A02B
310
EC40C00C000000130000002A0F00003C00000006000000020000000000004000408FC000000040767B38C000000080EDFD3AC00000004000408FC0000000C0DC2B3FC0000000407C7841C00C00000013000000320F00003C00000006000000020000000000004000408FC000000040767B38C000000080EDFD3AC000000040
310
00408FC00000004054133EC000000000FD0942C00C000000130000003A0F00003C00000006000000020000000000004000408FC0000000C057ED35C000000000845D3DC00000004000408FC000000080D8953CC0000000C01DA642C00C00000013000000420F00003C00000006000000020000000000004000408FC0000000
310
C057ED35C000000000845D3DC00000004000408FC0000000A08FF63AC000000080EF2443C00C000000130000004A0F00003C00000006000000020000000000004000408FC000000040C3B532C0000000E01DB63EC00000004000408FC000000000B52F39C000000000F68743C00C00000013000000520F00003C0000000600
310
0000020000000000004000408FC000000040C3B532C0000000E01DB63EC00000004000408FC000000000443837C000000080E0CE43C00C000000130000005A0F00003C00000006000000020000000000004000408FC0000000C064522FC000000080CF1C3FC00000004000408FC0000000606F0235C000000040ACF643C00C
310
00000013000000620F00003C00000006000000020000000000004000408FC0000000E0F97F33C000000020000044C00000004000408FC0000000C064522FC000000080CF1C3FC00C000000130000006A0F00003C00000006000000020000000000004000408FC0000000E0F97F33C000000020008046C00000004000408FC0
310
0000000049012BC000000020CCFB3FC00C00000013000000720F00003C00000006000000020000000000004000408FC0000000E0F97F33C000000020008046C00000004000408FC000000020F6D527C0000000001ED840C00C000000130000007A0F00003C00000006000000020000000000004000408FC0000000A0F3FF2C
310
C0000000E0FF7F46C00000004000408FC0000000001A4D25C0000000802F0342C00C00000013000000820F00003C00000006000000020000000000004000408FC0000000A0F3FF2CC0000000E0FF7F46C00000004000408FC0000000809E6221C000000060830743C00C000000130000008A0F00003C000000060000000200
310
00000000004000408FC0000000A0F3FF2CC0000000E0FF7F46C00000004000408FC000000000A5551BC000000020BE8B43C00C00000013000000920F00003C00000006000000020000000000004000408FC0000000A0F3FF2CC0000000E0FF7F46C00000004000408FC000000000C41BE6BF000000005B8D44C00C00000013
310
0000009A0F00003C00000006000000020000000000004000408FC0000000A0F3FF2CC0000000E0FF7F46C00000004000408FC0000000008085D7BF000000C03DA544C00C00000013000000A20F00003C00000006000000020000000000004000408FC0000000A0F3FF2CC0000000E0FF7F46C00000004000408FC000000000
310
60D4B3BF0000000058D844C00C00000013000000AA0F00003C00000006000000020000000000004000408FC0000000A0F3FF2CC0000000E0FF7F46C00000004000408FC0000000000080183F00000000170745C00C00000013000000B20F00003C00000006000000020000000000004000408FC00000000000801A3F000000
310
A04F465BC00000004000408FC000000000812D24C00000006000CD59C00C00000013000000BA0F00003C00000006000000020000000000004000408FC00000000000801A3F000000A04F465BC00000004000408FC0000000E0F2FF22C00000000000C059C00C00000013000000C20F00003C00000006000000020000000000
310
004000408FC00000000000801A3F00000060B0B95BC00000004000408FC000000000E5FF13C00000000000E05DC00C00000013000000CA0F00003C00000006000000020000000000004000408FC00000000000801A3F00000060B0B95BC00000004000408FC000000080D9C813C00000008093C35DC00C00000013000000D2
310
0F00003C00000006000000020000000000004000408FC00000000080DD95BF000000606AB05BC00000004000408FC000000000CF8413C0000000C09C8B5DC00C00000013000000DA0F00003C00000006000000020000000000004000408FC00000000080DD95BF000000606AB05BC00000004000408FC0000000801E8C13C0
310
000000C0E1575DC00C00000013000000E20F00003C00000006000000020000000000004000408FC000000000C078B5BF00000040F0A75BC00000004000408FC000000080ACEF13C000000040A1265DC00C00000013000000EA0F00003C00000006000000020000000000004000408FC000000000C078B5BF00000040F0A75B
310
C00000004000408FC0000000800DBD14C0000000004DF45CC00C00000013000000F20F00003C00000006000000020000000000004000408FC000000000F028D4BF00000020C0915BC00000004000408FC0000000C07EE415C0000000C013C85CC00C00000013000000FA0F00003C0000000600000002000000000000400040
310
8FC000000000F028D4BF00000020C0915BC00000004000408FC0000000802BF717C000000040B1945CC00C00000013000000021000003C00000006000000020000000000004000408FC00000000080DD95BF000000A0954F5BC00000004000408FC0000000009C0D26C0000000005BE859C00C000000130000000A1000003C
310
00000006000000020000000000004000408FC000000000C078B5BF000000C00F585BC00000004000408FC00000004059E528C000000080F2375AC00C00000013000000121000003C00000006000000020000000000004000408FC00000000080DD95BF000000A0954F5BC00000004000408FC0000000003EC627C000000000
310
FF0E5AC00C000000130000001A1000003C00000006000000020000000000004000408FC000000000F028D4BF000000E03F6E5BC00000004000408FC0000000C021F429C0000000C087975AC00C00000013000000221000003C00000006000000020000000000004000408FC000000000C078B5BF000000C00F585BC0000000
310
4000408FC000000080449A29C0000000C0C7645AC00C000000130000002A1000003C00000006000000020000000000004000408FC000000000F028D4BF000000E03F6E5BC00000004000408FC00000008000DF29C0000000004BE05AC00C00000013000000321000003C00000006000000020000000000004000408FC00000
310
00006029D8BF000000C0BA765BC00000004000408FC0000000404D3329C000000040F12D5BC00C000000130000003A1000003C00000006000000020000000000004000408FC0000000006029D8BF0000004045895BC00000004000408FC000000000AE5F1BC0000000C0195C5CC00C00000013000000421000003C00000006
310
000000020000000000004000408FC0000000006029D8BF0000004045895BC00000004000408FC000000000B9831FC000000080FF2A5CC00C000000130000004A1000003C00000006000000020000000000004000408FC000000000A088D9BF0000000000805BC00000004000408FC000000080E4EA21C00000006019015CC0
310
0C00000013000000521000003C00000006000000020000000000004000408FC000000000A088D9BF0000000000805BC00000004000408FC000000040B91724C00000008003D85BC00C000000130000005A1000003C00000006000000020000000000004000408FC0000000006029D8BF000000C0BA765BC00000004000408F
310
C000000000EF3726C000000020C0A85BC00C00000013000000621000003C00000006000000020000000000004000408FC0000000006029D8BF000000C0BA765BC00000004000408FC0000000204CE227C0000000E046745BC00C000000130000006A1000003C00000006000000020000000000004000408FC000000000A088
310
D9BF0000000000805BC00000004000408FC000000000EF3726C000000020C0A85BC00C00000013000000721000003C00000006000000020000000000004000408FC00000000000801A3F00000040F32459C00000004000408FC0000000808C9922C0000000C0912D59C00C000000130000007A1000003C0000000600000002
310
0000000000004000408FC000000000007D9DBF000000A0AD1559C00000004000408FC0000000808C9922C0000000C0912D59C00C00000013000000821000003C00000006000000020000000000004000408FC000000000201EBDBF000000804B0759C00000004000408FC0000000808C9922C0000000C0912D59C00C000000
310
130000008A1000003C00000006000000020000000000004000408FC00000000038B5D8BF00000000F1ED58C00000004000408FC0000000808C9922C0000000C0912D59C00C00000013000000921000003C00000006000000020000000000004000408FC000000000F024DEBF000000E08EDF58C00000004000408FC0000000
310
808C9922C0000000C0912D59C00C000000130000009A1000003C00000006000000020000000000004000408FC00000000058FEDFBF0000006049D058C00000004000408FC0000000808C9922C0000000C0912D59C00C00000013000000A21000003C00000006000000020000000000004000408FC00000000078FEDFBF0000
310
00C0F1984AC00000004000408FC0000000C0F3FF22C000000000000049C00C00000013000000AA1000003C00000006000000020000000000004000408FC0000000000025DEBF00000040667A4AC00000004000408FC0000000C0F3FF22C000000000000049C00C00000013000000B21000003C000000060000000200000000
310
00004000408FC00000000058FEDFBF0000006049D058C00000004000408FC000000000F3FF22C000000000008056C00C00000013000000BA1000003C00000006000000020000000000004000408FC00000000048B5D8BF00000020A25D4AC00000004000408FC0000000C0F3FF22C000000000000049C00C00000013000000
310
C21000003C00000006000000020000000000004000408FC0000000C0F3FF22C000000000000049C00000004000408FC0000000000080183F0000008078DD47C00C00000013000000CA1000003C00000006000000020000000000004000408FC0000000C0F3FF22C000000000000049C00000004000408FC000000000008018
310
3F000000C09DEF49C00C00000013000000D21000003C00000006000000020000000000004000408FC0000000C0F3FF22C000000000000049C00000004000408FC0000000004079B5BF00000040F8B947C00C00000013000000DA1000003C00000006000000020000000000004000408FC0000000C0F3FF22C0000000000000
310
49C00000004000408FC00000000080DF95BF000000A0ECCA47C00C00000013000000E21000003C00000006000000020000000000004000408FC0000000C0F3FF22C000000000000049C00000004000408FC0000000008029D8BF00000060A27C47C00C00000013000000EA1000003C00000006000000020000000000004000
310
408FC0000000C0F3FF22C000000000000049C00000004000408FC0000000001029D4BF00000000988D47C00C00000013000000F21000003C00000006000000020000000000004000408FC0000000A0F3FF2CC0000000E0FF7F46C00000004000408FC0000000000080183F00000020B7F646C00C00000013000000FA100000
310
3C00000006000000020000000000004000408FC0000000A0F3FF2CC0000000E0FF7F46C00000004000408FC00000000080DF95BF00000000430947C00C00000013000000021100003C00000006000000020000000000004000408FC0000000A0F3FF2CC0000000E0FF7F46C00000004000408FC0000000004079B5BF000000
310
60371A47C00C000000130000000A1100003C00000006000000020000000000004000408FC0000000A0F3FF2CC0000000E0FF7F46C00000004000408FC0000000001029D4BF000000A0974647C00C00000013000000121100003C00000006000000020000000000004000408FC0000000A0F3FF2CC0000000E0FFFF48C00000
310
004000408FC000000000C088D9BF000000E0176A47C00C000000130000001A1100003C00000006000000020000000000004000408FC0000000A0F3FF2CC0000000E0FFFF48C00000004000408FC0000000008029D8BF000000408D5747C00C00000013000000221100003C00000006000000020000000000004000408FC000
310
0000808C9922C0000000C0912D59C00000004000408FC0000000E09CD228C0000000E0F1EA57C00C000000130000002A1100003C00000006000000020000000000004000408FC0000000808C9922C0000000C0912D59C00000004000408FC0000000403FBE26C00000004015B057C00C00000013000000321100003C000000
310
06000000020000000000004000408FC0000000808C9922C0000000C0912D59C00000004000408FC000000000B31025C0000000601A6957C00C000000130000003A1100003C00000006000000020000000000004000408FC0000000808C9922C0000000C0912D59C00000004000408FC00000008007DC23C000000080E61857
310
C00C00000013000000421100003C00000006000000020000000000004000408FC00000000058FEDFBF0000006049D058C00000004000408FC000000040962C23C000000080CEC256C00C000000130000004A1100003C00000006000000020000000000006000408F4000000000007E9DBF000000E0280E4AC0000000600040
310
8F40000000C0F3FF22C000000000000049C00C00000013000000521100003C00000006000000020000000000006000408F4000000000401EBDBF00000020ED2A4AC00000006000408F40000000C0F3FF22C000000000000049C00C000000130000005A1100003C00000006000000020000000000006000408F4000000040FD
310
FF4DC000000000020014C00000006000408F40000000C05DB34AC0000000000000E0BE0C00000013000000621100003C00000006000000020000000000006000408F4000000040FDFF4DC000000000020014C00000006000408F4000000000D2A04AC00000000000FA95BF0C000000130000006A1100003C00000006000000
310
020000000000006000408F4000000040FD7F4BC000000000020014C00000006000408F40000000C0DD8F4AC000000000C07FB5BF0C00000013000000721100003C00000006000000020000000000006000408F4000000040FD7F4BC000000000020014C00000006000408F40000000607D634AC000000000B02AD4BF0C0000
310
00130000007A1100003C00000006000000020000000000006000408F40000000C087524AC000000000202BD8BF0000006000408F4000000040FD7F4BC000000000010024C00C00000013000000821100003C00000006000000020000000000006000408F4000000020FD3F4AC000000000608AD9BF0000006000408F400000
310
0040FD7F4BC000000000010024C00C000000130000008A1100003C00000006000000020000000000006000408F4000000080722D4AC000000000202BD8BF0000006000408F4000000040FD7F4BC000000000010024C00C00000013000000921100003C00000006000000020000000000006000408F40000000E07C1C4AC000
310
000000B02AD4BF0000006000408F4000000040FD7F4BC000000000010024C00C000000130000009A1100003C00000006000000020000000000006000408F40000000801CF049C000000000C07FB5BF0000006000408F400000000035FE4AC000000000D00524C00C00000013000000A21100003C0000000600000002000000
310
0000006000408F400000004028DF49C00000000000FA95BF0000006000408F400000000035FE4AC000000000D00524C00C00000013000000AA1100003C00000006000000020000000000006000408F40000000809CCC49C0000000000000E0BE0000006000408F400000000035FE4AC000000000D00524C00C000000130000
310
00B21100003C00000006000000020000000000006000408F40000000C0E3C946C0000000000000E0BE0000006000408F40000000602E114AC000000000873124C00C00000013000000BA1100003C00000006000000020000000000006000408F4000000000C1A846C0000000008075A1BF0000006000408F40000000602E11
310
4AC000000000873124C00C00000013000000C21100003C00000006000000020000000000006000408F40000000C0E38946C000000000A026C1BF0000006000408F40000000602E114AC000000000873124C00C00000013000000CA1100003C00000006000000020000000000006000408F40000000C0095B46C00000000010
310
00E0BF0000006000408F4000000060842149C0000000801D9524C00C00000013000000D21100003C00000006000000020000000000006000408F4000000080626F46C00000000050BED2BF0000006000408F4000000060842149C0000000801D9524C00C00000013000000DA1100003C000000060000000200000000000060
310
00408F40000000C0E38946C000000000A026C1BF0000006000408F4000000060842149C0000000801D9524C00C00000013000000E21100003C00000006000000020000000000006000408F4000000040E96A45C0000000009CFE0DC00000006000408F4000000080BF4848C000000080B42D25C00C00000013000000EA1100
310
003C00000006000000020000000000006000408F4000000000A95945C00000000088730FC00000006000408F4000000080BF4848C000000080B42D25C00C00000013000000F21100003C00000006000000020000000000006000408F40000000009E4345C000000000555010C00000006000408F4000000080898647C00000
310
000010F825C00C00000013000000FA1100003C00000006000000020000000000006000408F4000000000E52945C00000000067BB10C00000006000408F4000000080898647C00000000010F825C00C00000013000000021200003C00000006000000020000000000006000408F4000000000104544C00000000077DE13C000
310
00006000408F40000000C05C3546C000000080361928C00C000000130000000A1200003C00000006000000020000000000006000408F4000000000104544C00000000077DE13C00000006000408F40000000A06BD646C00000008090F126C00C00000013000000121200003C00000006000000020000000000006000408F40
310
00000000052243C000000000FFED18C00000006000408F4000000040240745C000000000B2152BC00C000000130000001A1200003C00000006000000020000000000006000408F4000000000052243C000000000FFED18C00000006000408F4000000060E59A45C0000000800E7B29C00C00000013000000221200003C0000
310
0006000000020000000000006000408F40000000801E1342C00000000072FC1EC00000006000408F40000000C0C9FA43C0000000001DE82EC00C000000130000002A1200003C00000006000000020000000000006000408F40000000801E1342C00000000072FC1EC00000006000408F4000000080177C44C000000080BDE5
310
2CC00C00000013000000321200003C00000006000000020000000000006000408F4000000020D71B41C00000008000FB22C00000006000408F40000000805DF242C000000000335932C00C000000130000003A1200003C00000006000000020000000000006000408F4000000020D71B41C00000008000FB22C00000006000
310
408F4000000000026643C000000040FCE530C00C00000013000000421200003C00000006000000020000000000006000408F4000000080643F40C000000080B9E126C00000006000408F40000000C0946042C0000000600D0435C00C000000130000004A1200003C00000006000000020000000000006000408F4000000080
310
643F40C000000080B9E126C00000006000408F4000000080AAA542C000000000149B33C00C00000013000000521200003C00000006000000020000000000006000408F40000000E01F013FC000000080BC252BC00000006000408F40000000C01DE641C000000020375138C00C000000130000005A1200003C000000060000
310
00020000000000006000408F40000000E01F013FC000000080BC252BC00000006000408F4000000020292242C0000000C04F9736C00C00000013000000621200003C00000006000000020000000000006000408F400000000077513DC000000040C69730C00000006000408F4000000080956641C00000004080003CC00C00
310
0000130000006A1200003C00000006000000020000000000006000408F400000000077513DC000000040C69730C00000006000408F40000000A03BA941C000000020A12E3AC00C00000013000000721200003C00000006000000020000000000006000408F40000000E02FB33BC000000000C2F733C00000006000408F4000
310
0000C00FC840C000000000A83F3FC00C000000130000007A1200003C00000006000000020000000000006000408F40000000E02FB33BC000000000C2F733C00000006000408F4000000080621C41C000000080F3B73DC00C00000013000000821200003C00000006000000020000000000006000408F40000000C099363AC0
310
000000E025A437C00000006000408F4000000040F40340C0000000A02BEC40C00C000000130000008A1200003C00000006000000020000000000006000408F40000000C099363AC0000000E025A437C00000006000408F4000000040696A40C000000080224F40C00C00000013000000921200003C00000006000000020000
310
000000006000408F4000000040767B38C000000080EDFD3AC00000006000408F400000004054133EC000000000FD0942C00C000000130000009A1200003C00000006000000020000000000006000408F4000000040767B38C000000080EDFD3AC00000006000408F40000000C0DC2B3FC0000000407C7841C00C0000001300
310
0000A21200003C00000006000000020000000000006000408F40000000C057ED35C000000000845D3DC00000006000408F40000000A08FF63AC000000080EF2443C00C00000013000000AA1200003C00000006000000020000000000006000408F40000000C057ED35C000000000845D3DC00000006000408F4000000080D8
310
953CC0000000C01DA642C00C00000013000000B21200003C00000006000000020000000000006000408F4000000040C3B532C0000000C01DB63EC00000006000408F4000000000443837C000000080E0CE43C00C00000013000000BA1200003C00000006000000020000000000006000408F4000000040C3B532C0000000C0
310
1DB63EC00000006000408F4000000000B52F39C000000000F68743C00C00000013000000C21200003C00000006000000020000000000006000408F40000000C064522FC000000060CF1C3FC00000006000408F40000000E0F97F33C000000020000044C00C00000013000000CA1200003C0000000600000002000000000000
310
6000408F40000000C064522FC000000060CF1C3FC00000006000408F40000000606F0235C000000040ACF643C00C00000013000000D21200003C00000006000000020000000000006000408F40000000C0F97F33C000000020008046C00000006000408F400000000049012BC000000020CCFB3FC00C00000013000000DA12
310
00003C00000006000000020000000000006000408F40000000C0F97F33C000000020008046C00000006000408F4000000000F6D527C0000000001ED840C00C00000013000000E21200003C00000006000000020000000000006000408F40000000A0F3FF2CC0000000C0FF7F46C00000006000408F40000000001A4D25C000
310
0000802F0342C00C00000013000000EA1200003C00000006000000020000000000006000408F40000000A0F3FF2CC0000000C0FF7F46C00000006000408F40000000809E6221C000000060830743C00C00000013000000F21200003C00000006000000020000000000006000408F40000000A0F3FF2CC0000000C0FF7F46C0
310
0000006000408F4000000000A5551BC000000020BE8B43C00C00000013000000FA1200003C00000006000000020000000000006000408F40000000A0F3FF2CC0000000C0FF7F46C00000006000408F4000000000C41BE6BF000000005B8D44C00C00000013000000021300003C00000006000000020000000000006000408F
310
40000000A0F3FF2CC0000000C0FF7F46C00000006000408F40000000008085D7BF000000C03DA544C00C000000130000000A1300003C00000006000000020000000000006000408F40000000A0F3FF2CC0000000C0FF7F46C00000006000408F400000000060D4B3BF0000000058D844C00C00000013000000121300003C00
310
000006000000020000000000006000408F40000000A0F3FF2CC0000000C0FF7F46C00000006000408F40000000000080183F00000000170745C00C000000130000001A1300003C00000006000000020000000000006000408F400000000000801A3F000000A04F465BC00000006000408F40000000C0F2FF22C00000000000
310
C059C00C00000013000000221300003C00000006000000020000000000006000408F400000000000801A3F000000A04F465BC00000006000408F4000000000812D24C00000006000CD59C00C000000130000002A1300003C00000006000000020000000000006000408F400000000000801A3F00000060B0B95BC000000060
310
00408F4000000080E4FF13C00000000000E05DC00C00000013000000321300003C00000006000000020000000000006000408F400000000000801A3F00000060B0B95BC00000006000408F4000000080D9C813C00000008093C35DC00C000000130000003A1300003C00000006000000020000000000006000408F40000000
310
0080DD95BF000000606AB05BC00000006000408F4000000080CE8413C0000000C09C8B5DC00C00000013000000421300003C00000006000000020000000000006000408F400000000080DD95BF000000606AB05BC00000006000408F40000000801E8C13C0000000C0E1575DC00C000000130000004A1300003C0000000600
310
0000020000000000006000408F4000000000C078B5BF00000040F0A75BC00000006000408F4000000080ACEF13C000000040A1265DC00C00000013000000521300003C00000006000000020000000000006000408F4000000000C078B5BF00000040F0A75BC00000006000408F40000000800DBD14C0000000004DF45CC00C
310
000000130000005A1300003C00000006000000020000000000006000408F4000000000F028D4BF00000020C0915BC00000006000408F40000000C07EE415C0000000C013C85CC00C00000013000000621300003C00000006000000020000000000006000408F4000000000F028D4BF00000020C0915BC00000006000408F40
310
000000802BF717C000000040B1945CC00C000000130000006A1300003C00000006000000020000000000006000408F400000000080DD95BF000000A0954F5BC00000006000408F40000000E09B0D26C0000000005BE859C00C00000013000000721300003C00000006000000020000000000006000408F400000000080DD95
310
BF000000A0954F5BC00000006000408F40000000E03DC627C000000000FF0E5AC00C000000130000007A1300003C00000006000000020000000000006000408F4000000000C078B5BF000000C00F585BC00000006000408F400000004059E528C000000080F2375AC00C00000013000000821300003C000000060000000200
310
00000000006000408F4000000000C078B5BF000000C00F585BC00000006000408F4000000080449A29C0000000C0C7645AC00C000000130000008A1300003C00000006000000020000000000006000408F4000000000F028D4BF000000E03F6E5BC00000006000408F40000000C021F429C0000000C087975AC00C00000013
310
000000921300003C00000006000000020000000000006000408F4000000000F028D4BF000000E03F6E5BC00000006000408F400000008000DF29C0000000004BE05AC00C000000130000009A1300003C00000006000000020000000000006000408F40000000006029D8BF000000C0BA765BC00000006000408F4000000040
310
4D3329C000000040F12D5BC00C00000013000000A21300003C00000006000000020000000000006000408F40000000006029D8BF0000004045895BC00000006000408F4000000000AE5F1BC0000000C0195C5CC00C00000013000000AA1300003C00000006000000020000000000006000408F40000000006029D8BF000000
310
4045895BC00000006000408F4000000000B9831FC000000080FF2A5CC00C00000013000000B21300003C00000006000000020000000000006000408F4000000000A088D9BF0000000000805BC00000006000408F4000000080E4EA21C00000006019015CC00C00000013000000BA1300003C00000006000000020000000000
310
006000408F4000000000A088D9BF0000000000805BC00000006000408F4000000020B91724C00000008003D85BC00C00000013000000C21300003C00000006000000020000000000006000408F40000000006029D8BF000000C0BA765BC00000006000408F40000000004CE227C0000000E046745BC00C00000013000000CA
310
1300003C00000006000000020000000000006000408F40000000006029D8BF000000C0BA765BC00000006000408F4000000000EF3726C000000020C0A85BC00C00000013000000D21300003C00000006000000020000000000006000408F4000000000A088D9BF0000000000805BC00000006000408F4000000000EF3726C0
310
00000020C0A85BC00C00000013000000DA1300003C00000006000000020000000000006000408F40000000808C9922C0000000C0912D59C00000006000408F4000000000007D9DBF000000A0AD1559C00C00000013000000E21300003C00000006000000020000000000006000408F40000000808C9922C0000000C0912D59
310
C00000006000408F400000000000801A3F00000040F32459C00C00000013000000EA1300003C00000006000000020000000000006000408F400000000038B5D8BF00000000F1ED58C00000006000408F40000000808C9922C0000000C0912D59C00C00000013000000F21300003C0000000600000002000000000000600040
310
8F4000000000201EBDBF000000804B0759C00000006000408F40000000808C9922C0000000C0912D59C00C00000013000000FA1300003C00000006000000020000000000006000408F4000000000F024DEBF000000E08EDF58C00000006000408F40000000808C9922C0000000C0912D59C00C00000013000000021400003C
310
00000006000000020000000000006000408F400000000058FEDFBF0000006049D058C00000006000408F40000000808C9922C0000000C0912D59C00C000000130000000A1400003C00000006000000020000000000006000408F40000000C0F3FF22C000000000000049C00000006000408F40000000000025DEBF00000040
310
667A4AC00C00000013000000121400003C00000006000000020000000000006000408F40000000C0F3FF22C000000000000049C00000006000408F400000000078FEDFBF000000C0F1984AC00C000000130000001A1400003C00000006000000020000000000006000408F4000000000F3FF22C000000000008056C0000000
310
6000408F400000000058FEDFBF0000006049D058C00C00000013000000221400003C00000006000000020000000000006000408F40000000C0F3FF22C000000000000049C00000006000408F400000000048B5D8BF00000020A25D4AC00C000000130000002A1400003C00000006000000020000000000006000408F400000
310
00C0F3FF22C000000000000049C00000006000408F40000000000080183F000000C09DEF49C00C00000013000000321400003C00000006000000020000000000006000408F40000000C0F3FF22C000000000000049C00000006000408F40000000000080183F0000008078DD47C00C000000130000003A1400003C00000006
310
000000020000000000006000408F40000000C0F3FF22C000000000000049C00000006000408F400000000080DF95BF000000A0ECCA47C00C00000013000000421400003C00000006000000020000000000006000408F40000000C0F3FF22C000000000000049C00000006000408F40000000004079B5BF00000040F8B947C0
310
0C000000130000004A1400003C00000006000000020000000000006000408F40000000C0F3FF22C000000000000049C00000006000408F40000000001029D4BF00000000988D47C00C00000013000000521400003C00000006000000020000000000006000408F40000000C0F3FF22C000000000000049C00000006000408F
310
40000000008029D8BF00000060A27C47C00C000000130000005A1400003C00000006000000020000000000006000408F40000000000080183F00000020B7F646C00000006000408F40000000A0F3FF2CC0000000C0FF7F46C00C00000013000000621400003C00000006000000020000000000006000408F40000000A0F3FF
310
2CC0000000C0FF7F46C00000006000408F400000000080DF95BF00000000430947C00C000000130000006A1400003C00000006000000020000000000006000408F40000000A0F3FF2CC0000000C0FF7F46C00000006000408F40000000004079B5BF00000060371A47C00C00000013000000721400003C0000000600000002
310
0000000000006000408F40000000A0F3FF2CC0000000C0FF7F46C00000006000408F40000000001029D4BF000000A0974647C00C000000130000007A1400003C00000006000000020000000000006000408F4000000080F3FF2CC0000000C0FFFF48C00000006000408F4000000000C088D9BF000000E0176A47C00C000000
310
13000000821400003C00000006000000020000000000006000408F4000000080F3FF2CC0000000C0FFFF48C00000006000408F40000000008029D8BF000000408D5747C00C000000130000008A1400003C00000006000000020000000000006000408F40000000E09CD228C0000000E0F1EA57C00000006000408F40000000
310
808C9922C0000000C0912D59C00C00000013000000921400003C00000006000000020000000000006000408F40000000403FBE26C00000004015B057C00000006000408F40000000808C9922C0000000C0912D59C00C000000130000009A1400003C00000006000000020000000000006000408F4000000000B31025C00000
310
00601A6957C00000006000408F40000000808C9922C0000000C0912D59C00C00000013000000A21400003C00000006000000020000000000006000408F400000008007DC23C000000080E61857C00000006000408F40000000808C9922C0000000C0912D59C00C00000013000000AA1400003C000000060000000200000000
310
00006000408F4000000040962C23C000000080CEC256C00000006000408F400000000058FEDFBF0000006049D058C0
100
AcDbSubDMesh
 71
     2
 72
     0
 91
        0
 92
      296
 10
-1000.000122070312
 20
-0.3860645294189453
 30
-52.73151016235352
 10
-1000.000122070312
 20
-0.47100830078125
 30
-52.95624542236328
 10
-1000.000122070312
 20
-0.4999065399169922
 30
-53.19487762451172
 10
-1000.000122070312
 20
-0.499898910522461
 30
-99.25447845458984
 10
-1000.000122070312
 20
-0.4710044860839844
 30
-99.49309539794922
 10
-1000.000122070312
 20
-0.3860607147216797
 30
-99.71783447265625
 10
-1000.000122070312
 20
-0.1137409210205078
 30
-100.1139831542968
 10
-1000.000122070312
 20
-0.0287971496582031
 30
-100.3387222290039
 10
-1000.000122070312
 20
0.0001010894775391
 30
-100.5773468017578
 10
-1000.000122070312
 20
0.0001010894775391
 30
-109.0986099243164
 10
-1000.000122070312
 20
-0.0213527679443359
 30
-109.2435073852539
 10
-1000.000122070312
 20
-0.0838737487792969
 30
-109.3759613037109
 10
-1000.000122070312
 20
-0.3149986267089844
 30
-109.7226486206055
 10
-1000.000122070312
 20
-0.3775253295898437
 30
-109.8551483154297
 10
-1000.000122070312
 20
-0.3989639282226562
 30
-110.0
 10
-1000.000122070312
 20
-0.3775253295898437
 30
-110.1448516845703
 10
-1000.000122070312
 20
-0.3149986267089844
 30
-110.2773513793945
 10
-1000.000122070312
 20
-0.0838737487792969
 30
-110.624038696289
 10
-1000.000122070312
 20
-0.0213527679443359
 30
-110.7564926147461
 10
-1000.000122070312
 20
0.0001010894775391
 30
-110.9013900756836
 10
-1000.000122070312
 20
0.0001029968261719
 30
-120.0
 10
-1000.000122070312
 20
-4.999897003173828
 30
-119.5
 10
-1000.000122070312
 20
-9.499899864196777
 30
-103.0
 10
-1000.000122070312
 20
-9.29990005493164
 30
-100.7120208740234
 10
-1000.000122070312
 20
-13.09990119934082
 30
-100.0419769287109
 10
-1000.000122070312
 20
-13.29990005493164
 30
-96.2257537841797
 10
-1000.000122070312
 20
-12.41135311126709
 30
-95.67101287841797
 10
-1000.000122070312
 20
-11.3715763092041
 30
-94.7512969970703
 10
-1000.000122070312
 20
-10.53261566162109
 30
-93.64223480224609
 10
-1000.000122070312
 20
-9.929744720458984
 30
-92.38906860351562
 10
-1000.000122070312
 20
-9.58708381652832
 30
-91.04385375976562
 10
-1000.000122070312
 20
-9.499900817871093
 30
-90.0
 10
-1000.000122070312
 20
-9.499906539916992
 30
-50.0
 10
-1000.000122070312
 20
-14.49990558624267
 30
-49.99999618530273
 10
-1000.000122070312
 20
-14.49990558624267
 30
-44.99999618530273
 10
-1000.000122070312
 20
-19.49990653991699
 30
-45.00000381469726
 10
-1000.000122070312
 20
-19.49990653991699
 30
-40.00000381469726
 10
-1000.000122070312
 20
-54.99991226196289
 30
-5.000007629394531
 10
-1000.000122070312
 20
-59.99991226196289
 30
-5.000007629394531
 10
-1000.000122070312
 20
-59.99991226196289
 30
-0.0000076293945313
 10
-1000.000122070312
 20
-53.40129852294921
 30
-0.0000076293945313
 10
-1000.000122070312
 20
-53.25640869140625
 30
-0.0214614868164063
 10
-1000.000122070312
 20
-53.12395095825195
 30
-0.0839805603027344
 10
-1000.000122070312
 20
-52.77726364135742
 30
-0.3151054382324219
 10
-1000.000122070312
 20
-52.64476776123046
 30
-0.3776321411132812
 10
-1000.000122070312
 20
-52.49991226196289
 30
-0.3990707397460937
 10
-1000.000122070312
 20
-52.35505676269531
 30
-0.3776321411132812
 10
-1000.000122070312
 20
-52.22256088256836
 30
-0.3151054382324219
 10
-1000.000122070312
 20
-51.87587356567383
 30
-0.0839805603027344
 10
-1000.000122070312
 20
-51.74341583251953
 30
-0.0214614868164063
 10
-1000.000122070312
 20
-51.59852600097656
 30
-0.0000076293945313
 10
-1000.000122070312
 20
-45.57726287841797
 30
-0.0000076293945313
 10
-1000.000122070312
 20
-45.31839370727539
 30
-0.0340995788574219
 10
-1000.000122070312
 20
-45.07726669311523
 30
-0.1339912414550781
 10
-1000.000122070312
 20
-44.87019729614257
 30
-0.2928657531738281
 10
-1000.000122070312
 20
-44.71123886108398
 30
-0.5000076293945313
 10
-1000.000122070312
 20
-42.83524322509765
 30
-3.749324798583984
 10
-1000.000122070312
 20
-42.70047378540039
 30
-3.931411743164062
 10
-1000.000122070312
 20
-42.52826309204102
 30
-4.078449249267578
 10
-1000.000122070312
 20
-42.32730102539062
 30
-4.183010101318359
 10
-1000.000122070312
 20
-40.53955078125
 30
-4.967250823974609
 10
-1000.000122070312
 20
-38.26577758789063
 30
-6.232418060302734
 10
-1000.000122070312
 20
-36.14936828613281
 30
-7.746528625488281
 10
-1000.000122070312
 20
-34.21750259399414
 30
-9.490238189697265
 10
-1000.000122070312
 20
-32.49525451660157
 30
-11.44086837768554
 10
-1000.000122070312
 20
-31.00439262390137
 30
-13.57370376586914
 10
-1000.000122070312
 20
-29.31822395324707
 30
-16.59286880493164
 10
-1000.000122070312
 20
-27.69994926452637
 30
-19.96780395507812
 10
-1000.000122070312
 20
-26.21328353881836
 30
-23.64120292663574
 10
-1000.000122070312
 20
-24.48227310180664
 30
-26.99190521240235
 10
-1000.000122070312
 20
-21.92712020874024
 30
-29.36529541015625
 10
-1000.000122070312
 20
-18.71001052856445
 30
-30.71139335632324
 10
-1000.000122070312
 20
-15.66092491149902
 30
-31.11254119873047
 10
-1000.000122070312
 20
-13.50251007080078
 30
-31.98358345031738
 10
-1000.000122070312
 20
-11.917893409729
 30
-33.68841552734375
 10
-1000.000122070312
 20
-10.65058898925781
 30
-36.02488708496094
 10
-1000.000122070312
 20
-8.692615509033203
 30
-38.05869674682617
 10
-1000.000122070312
 20
-6.833637237548828
 30
-39.09173965454101
 10
-1000.000122070312
 20
-0.6908893585205079
 30
-41.10433959960937
 10
-1000.000122070312
 20
-0.367523193359375
 30
-41.29094696044922
 10
-1000.000122070312
 20
-0.0774593353271484
 30
-41.69018554687499
 10
-1000.000122070312
 20
0.0000934600830078
 30
-42.05538940429687
 10
-1000.000122070312
 20
0.0000934600830078
 30
-45.92746353149414
 10
-1000.000122070312
 20
-0.0213603973388672
 30
-46.07235717773437
 10
-1000.000122070312
 20
-0.0838813781738281
 30
-46.20481491088867
 10
-1000.000122070312
 20
-0.3150062561035156
 30
-46.5515022277832
 10
-1000.000122070312
 20
-0.377532958984375
 30
-46.68399810791015
 10
-1000.000122070312
 20
-0.3989715576171875
 30
-46.82885360717773
 10
-1000.000122070312
 20
-0.377532958984375
 30
-46.97370529174804
 10
-1000.000122070312
 20
-0.3150062561035156
 30
-47.106201171875
 10
-1000.000122070312
 20
-0.0838813781738281
 30
-47.45288848876953
 10
-1000.000122070312
 20
-0.0213603973388672
 30
-47.58534622192382
 10
-1000.000122070312
 20
0.0000934600830078
 30
-47.73023986816406
 10
-1000.000122070312
 20
0.0000934600830078
 30
-51.87200164794922
 10
-1000.000122070312
 20
-0.0288009643554688
 30
-52.11062240600586
 10
-1000.000122070312
 20
-0.1137428283691406
 30
-52.33536148071289
 10
1000.000183105469
 20
-0.1137428283691406
 30
-52.33536148071289
 10
1000.000183105469
 20
-0.0288009643554688
 30
-52.11062240600586
 10
1000.000183105469
 20
-9.499906539916992
 30
-50.0
 10
1000.000183105469
 20
-0.47100830078125
 30
-52.95624542236328
 10
1000.000183105469
 20
-0.3860645294189453
 30
-52.73151016235352
 10
1000.000183105469
 20
0.0000934600830078
 30
-51.87200164794922
 10
1000.000183105469
 20
-9.499900817871093
 30
-90.0
 10
1000.000183105469
 20
-0.4999065399169922
 30
-53.19487762451172
 10
1000.000183105469
 20
-9.58708381652832
 30
-91.04385375976562
 10
1000.000183105469
 20
-0.499898910522461
 30
-99.25447845458984
 10
1000.000183105469
 20
-13.09990119934082
 30
-100.0419769287109
 10
1000.000183105469
 20
-0.4710044860839844
 30
-99.49309539794922
 10
1000.000183105469
 20
-13.29990005493164
 30
-96.2257537841797
 10
1000.000183105469
 20
-12.41135311126709
 30
-95.67101287841797
 10
1000.000183105469
 20
-11.3715763092041
 30
-94.7512969970703
 10
1000.000183105469
 20
-10.53261566162109
 30
-93.64223480224609
 10
1000.000183105469
 20
-9.929744720458984
 30
-92.38906860351562
 10
1000.000183105469
 20
-0.3860607147216797
 30
-99.71783447265625
 10
1000.000183105469
 20
-0.1137409210205078
 30
-100.1139831542968
 10
1000.000183105469
 20
-9.29990005493164
 30
-100.7120208740234
 10
1000.000183105469
 20
-0.0287971496582031
 30
-100.3387222290039
 10
1000.000183105469
 20
0.0001010894775391
 30
-100.5773468017578
 10
1000.000183105469
 20
0.0001010894775391
 30
-109.0986099243164
 10
1000.000183105469
 20
-9.49989891052246
 30
-103.0
 10
1000.000183105469
 20
-0.0213527679443359
 30
-109.2435073852539
 10
1000.000183105469
 20
-0.0838737487792969
 30
-109.3759613037109
 10
1000.000183105469
 20
-0.3149986267089844
 30
-109.7226486206055
 10
1000.000183105469
 20
-0.3775253295898437
 30
-109.8551483154297
 10
1000.000183105469
 20
-0.3989639282226562
 30
-110.0
 10
1000.000183105469
 20
-0.3775253295898437
 30
-110.1448516845703
 10
1000.000183105469
 20
-0.3149986267089844
 30
-110.2773513793945
 10
1000.000183105469
 20
-0.0838737487792969
 30
-110.624038696289
 10
1000.000183105469
 20
-0.0213527679443359
 30
-110.7564926147461
 10
1000.000183105469
 20
0.0001010894775391
 30
-110.9013900756836
 10
1000.000183105469
 20
-4.999895095825195
 30
-119.5
 10
1000.000183105469
 20
0.0001029968261719
 30
-120.0
 10
1000.000183105469
 20
0.0000934600830078
 30
-47.73023986816406
 10
1000.000183105469
 20
-14.49990463256836
 30
-49.99999237060547
 10
1000.000183105469
 20
0.0000934600830078
 30
-45.92746353149414
 10
1000.000183105469
 20
-14.49990558624267
 30
-44.99999237060547
 10
1000.000183105469
 20
-0.0213603973388672
 30
-46.07235717773437
 10
1000.000183105469
 20
-0.0838813781738281
 30
-46.20481491088867
 10
1000.000183105469
 20
-0.3150062561035156
 30
-46.5515022277832
 10
1000.000183105469
 20
-0.377532958984375
 30
-46.68399810791015
 10
1000.000183105469
 20
-0.3989715576171875
 30
-46.82885360717773
 10
1000.000183105469
 20
-0.377532958984375
 30
-46.97370529174804
 10
1000.000183105469
 20
-0.3150062561035156
 30
-47.106201171875
 10
1000.000183105469
 20
-0.0838813781738281
 30
-47.45288848876953
 10
1000.000183105469
 20
-0.0213603973388672
 30
-47.58534622192382
 10
1000.000183105469
 20
0.0000934600830078
 30
-42.05538940429687
 10
1000.000183105469
 20
-19.49990463256836
 30
-45.00000381469726
 10
1000.000183105469
 20
-0.6908893585205079
 30
-41.10433959960937
 10
1000.000183105469
 20
-0.367523193359375
 30
-41.29094696044922
 10
1000.000183105469
 20
-0.0774593353271484
 30
-41.69018554687499
 10
1000.000183105469
 20
-6.833637237548828
 30
-39.09173965454101
 10
1000.000183105469
 20
-8.692615509033203
 30
-38.05869674682617
 10
1000.000183105469
 20
-10.65058898925781
 30
-36.02488708496094
 10
1000.000183105469
 20
-11.91789245605469
 30
-33.68841552734375
 10
1000.000183105469
 20
-13.50251007080078
 30
-31.98358345031738
 10
1000.000183105469
 20
-15.66092491149902
 30
-31.11253929138184
 10
1000.000183105469
 20
-18.71001052856445
 30
-30.71139144897461
 10
1000.000183105469
 20
-21.92712020874024
 30
-29.36529541015625
 10
1000.000183105469
 20
-24.48227310180664
 30
-26.99190521240235
 10
1000.000183105469
 20
-26.21328353881836
 30
-23.64120292663574
 10
1000.000183105469
 20
-27.69994926452637
 30
-19.96780395507812
 10
1000.000183105469
 20
-29.31822204589844
 30
-16.59286880493164
 10
1000.000183105469
 20
-31.00439262390137
 30
-13.57370376586914
 10
1000.000183105469
 20
-32.49525451660157
 30
-11.44086837768554
 10
1000.000183105469
 20
-54.99991607666015
 30
-5.000007629394531
 10
1000.000183105469
 20
-38.26577758789063
 30
-6.232418060302734
 10
1000.000183105469
 20
-36.14936828613281
 30
-7.746528625488281
 10
1000.000183105469
 20
-34.21750259399414
 30
-9.490238189697265
 10
1000.000183105469
 20
-40.53955078125
 30
-4.967250823974609
 10
1000.000183105469
 20
-59.99991607666015
 30
-5.000007629394531
 10
1000.000183105469
 20
-53.40129852294921
 30
-0.0000076293945313
 10
1000.000183105469
 20
-59.99991607666015
 30
-0.0000076293945313
 10
1000.000183105469
 20
-53.25640869140625
 30
-0.0214614868164063
 10
1000.000183105469
 20
-53.12395477294922
 30
-0.0839805603027344
 10
1000.000183105469
 20
-52.77726364135742
 30
-0.3151054382324219
 10
1000.000183105469
 20
-52.64476776123046
 30
-0.3776321411132812
 10
1000.000183105469
 20
-52.49991226196289
 30
-0.3990707397460937
 10
1000.000183105469
 20
-44.71123504638671
 30
-0.5000076293945313
 10
1000.000183105469
 20
-42.83524322509765
 30
-3.749320983886718
 10
1000.000183105469
 20
-42.70046997070312
 30
-3.931411743164062
 10
1000.000183105469
 20
-42.52825927734375
 30
-4.078449249267578
 10
1000.000183105469
 20
-42.32730102539062
 30
-4.183010101318359
 10
1000.000183105469
 20
-44.87019348144531
 30
-0.2928657531738281
 10
1000.000183105469
 20
-52.35505676269531
 30
-0.3776321411132812
 10
1000.000183105469
 20
-52.22256088256836
 30
-0.3151054382324219
 10
1000.000183105469
 20
-45.07726287841797
 30
-0.1339912414550781
 10
1000.000183105469
 20
-51.87586975097656
 30
-0.0839805603027344
 10
1000.000183105469
 20
-45.31838989257813
 30
-0.0340995788574219
 10
1000.000183105469
 20
-51.74341583251953
 30
-0.0214614868164063
 10
1000.000183105469
 20
-45.57726287841797
 30
-0.0000076293945313
 10
1000.000183105469
 20
-51.59852600097656
 30
-0.0000076293945313
 10
-1000.000122070312
 20
-4.946142196655273
 30
-119.0558776855469
 10
-1000.000122070312
 20
-4.879695892333984
 30
-118.1814422607422
 10
-1000.000122070312
 20
-4.886835098266601
 30
-117.3731536865234
 10
-1000.000122070312
 20
-4.98405647277832
 30
-116.6035919189453
 10
-1000.000122070312
 20
-5.184621810913085
 30
-115.8171997070312
 10
-1000.000122070312
 20
-5.473139762878417
 30
-115.1262054443359
 10
-1000.000122070312
 20
-5.991376876831054
 30
-114.3233184814453
 10
-1000.000122070312
 20
-6.843437194824218
 30
-113.4390716552734
 10
-1000.000122070312
 20
-7.87863540649414
 30
-112.6718444824218
 10
-1000.000122070312
 20
-8.95877456665039
 30
-112.0171737670898
 10
-1000.000122070312
 20
-10.04633522033691
 30
-111.3752136230468
 10
-1000.000122070312
 20
-11.10924530029297
 30
-110.6367263793945
 10
-1000.000122070312
 20
-11.94198703765869
 30
-109.8168258666992
 10
-1000.000122070312
 20
-12.60019874572754
 30
-108.7178497314453
 10
-1000.000122070312
 20
-12.93555068969726
 30
-107.5045776367187
 10
-1000.000122070312
 20
-12.97681999206543
 30
-106.3676605224609
 10
-1000.000122070312
 20
-12.80130386352539
 30
-105.5746917724609
 10
-1000.000122070312
 20
-12.44794654846191
 30
-104.8741760253906
 10
-1000.000122070312
 20
-11.88719177246094
 30
-104.2343139648437
 10
-1000.000122070312
 20
-11.02658081054687
 30
-103.6305541992187
 10
1000.000183105469
 20
-12.93555068969726
 30
-107.5045776367187
 10
1000.000183105469
 20
-12.97681999206543
 30
-106.3676605224609
 10
1000.000183105469
 20
-12.80130386352539
 30
-105.5746917724609
 10
1000.000183105469
 20
-12.44794654846191
 30
-104.8741760253906
 10
1000.000183105469
 20
-11.88719081878662
 30
-104.2343139648437
 10
1000.000183105469
 20
-11.02657985687256
 30
-103.6305541992187
 10
1000.000183105469
 20
-10.08887481689453
 30
-103.2031478881836
 10
1000.000183105469
 20
-12.60019874572754
 30
-108.7178497314453
 10
1000.000183105469
 20
-11.94198608398437
 30
-109.8168258666992
 10
1000.000183105469
 20
-4.879693984985351
 30
-118.1814422607422
 10
1000.000183105469
 20
-4.886835098266601
 30
-117.3731536865234
 10
1000.000183105469
 20
-4.98405647277832
 30
-116.6035919189453
 10
1000.000183105469
 20
-5.184621810913085
 30
-115.8171997070312
 10
1000.000183105469
 20
-5.473139762878417
 30
-115.1262054443359
 10
1000.000183105469
 20
-5.991376876831054
 30
-114.3233184814453
 10
1000.000183105469
 20
-6.843437194824218
 30
-113.4390716552734
 10
1000.000183105469
 20
-7.87863540649414
 30
-112.6718444824218
 10
1000.000183105469
 20
-8.95877456665039
 30
-112.0171737670898
 10
1000.000183105469
 20
-10.04633426666259
 30
-111.3752136230468
 10
1000.000183105469
 20
-11.10924530029297
 30
-110.6367263793945
 10
-1000.000122070312
 20
-10.08887481689453
 30
-103.2031478881836
 10
1000.000183105469
 20
-4.946142196655273
 30
-119.0558776855469
 10
-1000.000122070312
 20
-21.00951194763184
 30
-39.92713165283203
 10
-1000.000122070312
 20
-23.21978759765625
 30
-39.61622619628906
 10
-1000.000122070312
 20
-25.18635559082031
 30
-39.06219482421875
 10
-1000.000122070312
 20
-26.9631290435791
 30
-38.28855895996094
 10
-1000.000122070312
 20
-28.58533477783203
 30
-37.29778289794922
 10
-1000.000122070312
 20
-30.07550430297852
 30
-36.07803344726562
 10
-1000.000122070312
 20
-31.17133712768555
 30
-34.94129180908203
 10
-1000.000122070312
 20
-32.03089141845703
 30
-33.8450813293457
 10
-1000.000122070312
 20
-32.83133697509766
 30
-32.61824035644532
 10
-1000.000122070312
 20
-33.56298446655273
 30
-31.2486572265625
 10
-1000.000122070312
 20
-34.22175598144531
 30
-29.71855926513672
 10
-1000.000122070312
 20
-34.80143737792969
 30
-28.00195693969726
 10
-1000.000122070312
 20
-35.3221321105957
 30
-26.18214797973633
 10
-1000.000122070312
 20
-35.79778289794922
 30
-24.31724929809571
 10
-1000.000122070312
 20
-36.26688003540039
 30
-22.59106254577637
 10
-1000.000122070312
 20
-36.7545394897461
 30
-21.01583099365234
 10
-1000.000122070312
 20
-37.29426574707031
 30
-19.60577392578125
 10
-1000.000122070312
 20
-37.89347839355469
 30
-18.34843444824219
 10
-1000.000122070312
 20
-38.79693603515625
 30
-16.89838027954101
 10
-1000.000122070312
 20
-39.95928192138672
 30
-15.4533462524414
 10
-1000.000122070312
 20
-40.96946716308593
 30
-14.44871139526367
 10
-1000.000122070312
 20
-42.05579376220703
 30
-13.54237365722656
 10
-1000.000122070312
 20
-43.21012496948242
 30
-12.74034881591797
 10
-1000.000122070312
 20
-44.41689300537109
 30
-12.04924392700195
 10
-1000.000122070312
 20
-45.6751594543457
 30
-11.47180557250976
 10
-1000.000122070312
 20
-47.05107116699219
 30
-10.9844970703125
 10
-1000.000122070312
 20
-48.56834411621093
 30
-10.58926773071289
 10
-1000.000122070312
 20
-50.26185226440429
 30
-10.29124069213867
 10
-1000.000122070312
 20
-52.13422775268554
 30
-10.09673309326172
 10
1000.000183105469
 20
-21.00951194763184
 30
-39.92713165283203
 10
1000.000183105469
 20
-23.21978759765625
 30
-39.61622619628906
 10
1000.000183105469
 20
-25.18635559082031
 30
-39.06219482421875
 10
1000.000183105469
 20
-26.9631290435791
 30
-38.28855895996094
 10
1000.000183105469
 20
-28.58533477783203
 30
-37.29778289794922
 10
1000.000183105469
 20
-30.07550430297852
 30
-36.07803344726562
 10
1000.000183105469
 20
-31.17133712768555
 30
-34.94129180908203
 10
1000.000183105469
 20
-32.03089141845703
 30
-33.8450813293457
 10
1000.000183105469
 20
-32.83133697509766
 30
-32.61824035644532
 10
1000.000183105469
 20
-33.56298065185547
 30
-31.2486572265625
 10
1000.000183105469
 20
-34.22175598144531
 30
-29.71855926513672
 10
1000.000183105469
 20
-34.80143737792969
 30
-28.00195693969726
 10
1000.000183105469
 20
-35.3221321105957
 30
-26.18214607238769
 10
1000.000183105469
 20
-35.79778289794922
 30
-24.31724739074707
 10
1000.000183105469
 20
-36.26688003540039
 30
-22.59106063842773
 10
1000.000183105469
 20
-36.7545394897461
 30
-21.01582908630371
 10
1000.000183105469
 20
-37.29426574707031
 30
-19.60577392578125
 10
1000.000183105469
 20
-37.89347839355469
 30
-18.34843444824219
 10
1000.000183105469
 20
-38.79693603515625
 30
-16.89838027954101
 10
1000.000183105469
 20
-39.95928192138672
 30
-15.4533462524414
 10
1000.000183105469
 20
-40.96946716308593
 30
-14.44871139526367
 10
1000.000183105469
 20
-42.05579376220703
 30
-13.54237365722656
 10
1000.000183105469
 20
-43.21012496948242
 30
-12.7403450012207
 10
1000.000183105469
 20
-44.41689300537109
 30
-12.04924392700195
 10
1000.000183105469
 20
-45.6751594543457
 30
-11.47180557250976
 10
1000.000183105469
 20
-47.05107116699219
 30
-10.9844970703125
 10
1000.000183105469
 20
-48.56834411621093
 30
-10.58926773071289
 10
1000.000183105469
 20
-50.26185226440429
 30
-10.29124069213867
 10
1000.000183105469
 20
-52.13422775268554
 30
-10.09673309326172
 10
1000.000183105469
 20
-53.98599243164063
 30
-10.0113525390625
 10
-1000.000122070312
 20
-53.98599243164063
 30
-10.0113525390625
 10
-1000.000122070312
 20
-54.99991226196289
 30
-10.00000762939453
 10
1000.000183105469
 20
-19.49990653991699
 30
-40.00000381469726
 10
1000.000183105469
 20
-54.99991607666015
 30
-10.00000762939453
 93
     1692
 90
        4
 90
       39
 90
      171
 90
      170
 90
       40
 90
        4
 90
       40
 90
      170
 90
      172
 90
       41
 90
        4
 90
       41
 90
      172
 90
      173
 90
       42
 90
        4
 90
       42
 90
      173
 90
      174
 90
       43
 90
        4
 90
       43
 90
      174
 90
      175
 90
       44
 90
        4
 90
       44
 90
      175
 90
      176
 90
       45
 90
        4
 90
       45
 90
      176
 90
      183
 90
       46
 90
        4
 90
       46
 90
      183
 90
      184
 90
       47
 90
        4
 90
       47
 90
      184
 90
      186
 90
       48
 90
        4
 90
       48
 90
      186
 90
      188
 90
       49
 90
        4
 90
       49
 90
      188
 90
      190
 90
       50
 90
        4
 90
       50
 90
      190
 90
      189
 90
       51
 90
        4
 90
       51
 90
      189
 90
      187
 90
       52
 90
        4
 90
       52
 90
      187
 90
      185
 90
       53
 90
        4
 90
       53
 90
      185
 90
      182
 90
       54
 90
        4
 90
       54
 90
      182
 90
      177
 90
       55
 90
        4
 90
       55
 90
      177
 90
      178
 90
       56
 90
        4
 90
       56
 90
      178
 90
      179
 90
       57
 90
        4
 90
       57
 90
      179
 90
      180
 90
       58
 90
        4
 90
       58
 90
      180
 90
      181
 90
       59
 90
        4
 90
       59
 90
      181
 90
      168
 90
       60
 90
        4
 90
       60
 90
      168
 90
      165
 90
       61
 90
        4
 90
       61
 90
      165
 90
      166
 90
       62
 90
        4
 90
       62
 90
      166
 90
      167
 90
       63
 90
        4
 90
       63
 90
      167
 90
      163
 90
       64
 90
        4
 90
       64
 90
      163
 90
      162
 90
       65
 90
        4
 90
       65
 90
      162
 90
      161
 90
       66
 90
        4
 90
       66
 90
      161
 90
      160
 90
       67
 90
        4
 90
       67
 90
      160
 90
      159
 90
       68
 90
        4
 90
       68
 90
      159
 90
      158
 90
       69
 90
        4
 90
       69
 90
      158
 90
      157
 90
       70
 90
        4
 90
       70
 90
      157
 90
      156
 90
       71
 90
        4
 90
       71
 90
      156
 90
      155
 90
       72
 90
        4
 90
       72
 90
      155
 90
      154
 90
       73
 90
        4
 90
       73
 90
      154
 90
      153
 90
       74
 90
        4
 90
       74
 90
      153
 90
      152
 90
       75
 90
        4
 90
       75
 90
      152
 90
      151
 90
       76
 90
        4
 90
       76
 90
      151
 90
      150
 90
       77
 90
        4
 90
       77
 90
      150
 90
      147
 90
       78
 90
        4
 90
       78
 90
      147
 90
      148
 90
       79
 90
        4
 90
       79
 90
      148
 90
      149
 90
       80
 90
        4
 90
       80
 90
      149
 90
      145
 90
       81
 90
        4
 90
       81
 90
      145
 90
      134
 90
       82
 90
        4
 90
       82
 90
      134
 90
      136
 90
       83
 90
        4
 90
       83
 90
      136
 90
      137
 90
       84
 90
        4
 90
       84
 90
      137
 90
      138
 90
       85
 90
        4
 90
       85
 90
      138
 90
      139
 90
       86
 90
        4
 90
       86
 90
      139
 90
      140
 90
       87
 90
        4
 90
       87
 90
      140
 90
      141
 90
       88
 90
        4
 90
       88
 90
      141
 90
      142
 90
       89
 90
        4
 90
       89
 90
      142
 90
      143
 90
       90
 90
        4
 90
       90
 90
      143
 90
      144
 90
       91
 90
        4
 90
       91
 90
      144
 90
      132
 90
       92
 90
        4
 90
       92
 90
      132
 90
      101
 90
       93
 90
        4
 90
       93
 90
      101
 90
       97
 90
       94
 90
        4
 90
       94
 90
       97
 90
       96
 90
       95
 90
        4
 90
       95
 90
       96
 90
      100
 90
        0
 90
        4
 90
        0
 90
      100
 90
       99
 90
        1
 90
        4
 90
        1
 90
       99
 90
      103
 90
        2
 90
        4
 90
        2
 90
      103
 90
      105
 90
        3
 90
        4
 90
        3
 90
      105
 90
      107
 90
        4
 90
        4
 90
        4
 90
      107
 90
      113
 90
        5
 90
        4
 90
        5
 90
      113
 90
      114
 90
        6
 90
        4
 90
        6
 90
      114
 90
      116
 90
        7
 90
        4
 90
        7
 90
      116
 90
      117
 90
        8
 90
        4
 90
        8
 90
      117
 90
      118
 90
        9
 90
        4
 90
        9
 90
      118
 90
      120
 90
       10
 90
        4
 90
       10
 90
      120
 90
      121
 90
       11
 90
        4
 90
       11
 90
      121
 90
      122
 90
       12
 90
        4
 90
       12
 90
      122
 90
      123
 90
       13
 90
        4
 90
       13
 90
      123
 90
      124
 90
       14
 90
        4
 90
       14
 90
      124
 90
      125
 90
       15
 90
        4
 90
       15
 90
      125
 90
      126
 90
       16
 90
        4
 90
       16
 90
      126
 90
      127
 90
       17
 90
        4
 90
       17
 90
      127
 90
      128
 90
       18
 90
        4
 90
       18
 90
      128
 90
      129
 90
       19
 90
        4
 90
       19
 90
      129
 90
      131
 90
       20
 90
        4
 90
       20
 90
      131
 90
      130
 90
       21
 90
        4
 90
       22
 90
      119
 90
      115
 90
       23
 90
        4
 90
       23
 90
      115
 90
      106
 90
       24
 90
        4
 90
       24
 90
      106
 90
      108
 90
       25
 90
        4
 90
       25
 90
      108
 90
      109
 90
       26
 90
        4
 90
       26
 90
      109
 90
      110
 90
       27
 90
        4
 90
       27
 90
      110
 90
      111
 90
       28
 90
        4
 90
       28
 90
      111
 90
      112
 90
       29
 90
        4
 90
       29
 90
      112
 90
      104
 90
       30
 90
        4
 90
       30
 90
      104
 90
      102
 90
       31
 90
        4
 90
       31
 90
      102
 90
       98
 90
       32
 90
        4
 90
       32
 90
       98
 90
      133
 90
       33
 90
        4
 90
       33
 90
      133
 90
      135
 90
       34
 90
        4
 90
       34
 90
      135
 90
      146
 90
       35
 90
        4
 90
       35
 90
      146
 90
      294
 90
       36
 90
        4
 90
      293
 90
      295
 90
      164
 90
       37
 90
        4
 90
       37
 90
      164
 90
      169
 90
       38
 90
        4
 90
       38
 90
      169
 90
      171
 90
       39
 90
        4
 90
      191
 90
      232
 90
      220
 90
      192
 90
        4
 90
      192
 90
      220
 90
      221
 90
      193
 90
        4
 90
      193
 90
      221
 90
      222
 90
      194
 90
        4
 90
      194
 90
      222
 90
      223
 90
      195
 90
        4
 90
      195
 90
      223
 90
      224
 90
      196
 90
        4
 90
      196
 90
      224
 90
      225
 90
      197
 90
        4
 90
      197
 90
      225
 90
      226
 90
      198
 90
        4
 90
      198
 90
      226
 90
      227
 90
      199
 90
        4
 90
      199
 90
      227
 90
      228
 90
      200
 90
        4
 90
      200
 90
      228
 90
      229
 90
      201
 90
        4
 90
      201
 90
      229
 90
      230
 90
      202
 90
        4
 90
      202
 90
      230
 90
      219
 90
      203
 90
        4
 90
      203
 90
      219
 90
      218
 90
      204
 90
        4
 90
      204
 90
      218
 90
      211
 90
      205
 90
        4
 90
      205
 90
      211
 90
      212
 90
      206
 90
        4
 90
      206
 90
      212
 90
      213
 90
      207
 90
        4
 90
      207
 90
      213
 90
      214
 90
      208
 90
        4
 90
      208
 90
      214
 90
      215
 90
      209
 90
        4
 90
      209
 90
      215
 90
      216
 90
      210
 90
        4
 90
      210
 90
      216
 90
      217
 90
      231
 90
        4
 90
       21
 90
      130
 90
      232
 90
      191
 90
        4
 90
      231
 90
      217
 90
      119
 90
       22
 90
        4
 90
      233
 90
      262
 90
      263
 90
      234
 90
        4
 90
      234
 90
      263
 90
      264
 90
      235
 90
        4
 90
      235
 90
      264
 90
      265
 90
      236
 90
        4
 90
      236
 90
      265
 90
      266
 90
      237
 90
        4
 90
      237
 90
      266
 90
      267
 90
      238
 90
        4
 90
      238
 90
      267
 90
      268
 90
      239
 90
        4
 90
      239
 90
      268
 90
      269
 90
      240
 90
        4
 90
      240
 90
      269
 90
      270
 90
      241
 90
        4
 90
      241
 90
      270
 90
      271
 90
      242
 90
        4
 90
      242
 90
      271
 90
      272
 90
      243
 90
        4
 90
      243
 90
      272
 90
      273
 90
      244
 90
        4
 90
      244
 90
      273
 90
      274
 90
      245
 90
        4
 90
      245
 90
      274
 90
      275
 90
      246
 90
        4
 90
      246
 90
      275
 90
      276
 90
      247
 90
        4
 90
      247
 90
      276
 90
      277
 90
      248
 90
        4
 90
      248
 90
      277
 90
      278
 90
      249
 90
        4
 90
      249
 90
      278
 90
      279
 90
      250
 90
        4
 90
      250
 90
      279
 90
      280
 90
      251
 90
        4
 90
      251
 90
      280
 90
      281
 90
      252
 90
        4
 90
      252
 90
      281
 90
      282
 90
      253
 90
        4
 90
      253
 90
      282
 90
      283
 90
      254
 90
        4
 90
      254
 90
      283
 90
      284
 90
      255
 90
        4
 90
      255
 90
      284
 90
      285
 90
      256
 90
        4
 90
      256
 90
      285
 90
      286
 90
      257
 90
        4
 90
      257
 90
      286
 90
      287
 90
      258
 90
        4
 90
      258
 90
      287
 90
      288
 90
      259
 90
        4
 90
      259
 90
      288
 90
      289
 90
      260
 90
        4
 90
      260
 90
      289
 90
      290
 90
      261
 90
        4
 90
      261
 90
      290
 90
      291
 90
      292
 90
        4
 90
       36
 90
      294
 90
      262
 90
      233
 90
        4
 90
      292
 90
      291
 90
      295
 90
      293
 90
        3
 90
       95
 90
       32
 90
       94
 90
        3
 90
       38
 90
       39
 90
       40
 90
        3
 90
       38
 90
       40
 90
       41
 90
        4
 90
       37
 90
       38
 90
       41
 90
       42
 90
        3
 90
       37
 90
       42
 90
       43
 90
        4
 90
      293
 90
       37
 90
       43
 90
       44
 90
        3
 90
      293
 90
       44
 90
       45
 90
        3
 90
      293
 90
       45
 90
       46
 90
        3
 90
      293
 90
       46
 90
       47
 90
        4
 90
      292
 90
      293
 90
       47
 90
       48
 90
        3
 90
      292
 90
       48
 90
       49
 90
        3
 90
      292
 90
       49
 90
       50
 90
        4
 90
      261
 90
      292
 90
       50
 90
       51
 90
        3
 90
      261
 90
       51
 90
       52
 90
        3
 90
      261
 90
       52
 90
       53
 90
        3
 90
      260
 90
       54
 90
       55
 90
        3
 90
      260
 90
       53
 90
       54
 90
        3
 90
      260
 90
      261
 90
       53
 90
        4
 90
      259
 90
      260
 90
       55
 90
       56
 90
        3
 90
      259
 90
       56
 90
       57
 90
        4
 90
      258
 90
      259
 90
       57
 90
       58
 90
        3
 90
      258
 90
       58
 90
       59
 90
        3
 90
      256
 90
      257
 90
       60
 90
        4
 90
      257
 90
      258
 90
       59
 90
       60
 90
        3
 90
      254
 90
      255
 90
       61
 90
        4
 90
      255
 90
      256
 90
       60
 90
       61
 90
        3
 90
      252
 90
      253
 90
       62
 90
        4
 90
      253
 90
      254
 90
       61
 90
       62
 90
        3
 90
      250
 90
      251
 90
       63
 90
        4
 90
      251
 90
      252
 90
       62
 90
       63
 90
        3
 90
      248
 90
      249
 90
       64
 90
        4
 90
      249
 90
      250
 90
       63
 90
       64
 90
        3
 90
      246
 90
      247
 90
       65
 90
        4
 90
      247
 90
      248
 90
       64
 90
       65
 90
        3
 90
      244
 90
      245
 90
       66
 90
        4
 90
      245
 90
      246
 90
       65
 90
       66
 90
        3
 90
      242
 90
      243
 90
       67
 90
        4
 90
      243
 90
      244
 90
       66
 90
       67
 90
        3
 90
      240
 90
      241
 90
       68
 90
        4
 90
      241
 90
      242
 90
       67
 90
       68
 90
        3
 90
      238
 90
      239
 90
       69
 90
        4
 90
      239
 90
      240
 90
       68
 90
       69
 90
        3
 90
      236
 90
      237
 90
       70
 90
        4
 90
      237
 90
      238
 90
       69
 90
       70
 90
        3
 90
      234
 90
      235
 90
       71
 90
        4
 90
      235
 90
      236
 90
       70
 90
       71
 90
        3
 90
       36
 90
      233
 90
       72
 90
        4
 90
      233
 90
      234
 90
       71
 90
       72
 90
        4
 90
       35
 90
       36
 90
       72
 90
       73
 90
        3
 90
       35
 90
       73
 90
       74
 90
        4
 90
       34
 90
       35
 90
       74
 90
       75
 90
        3
 90
       34
 90
       75
 90
       76
 90
        3
 90
       34
 90
       76
 90
       77
 90
        3
 90
       34
 90
       77
 90
       78
 90
        3
 90
       34
 90
       78
 90
       79
 90
        3
 90
       34
 90
       79
 90
       80
 90
        3
 90
       34
 90
       80
 90
       81
 90
        3
 90
        9
 90
      231
 90
       22
 90
        3
 90
       19
 90
       20
 90
       21
 90
        3
 90
       19
 90
       21
 90
      191
 90
        4
 90
       18
 90
       19
 90
      191
 90
      192
 90
        3
 90
       18
 90
      192
 90
      193
 90
        4
 90
       17
 90
       18
 90
      193
 90
      194
 90
        3
 90
       17
 90
      194
 90
      195
 90
        4
 90
       16
 90
       17
 90
      195
 90
      196
 90
        3
 90
       16
 90
      196
 90
      197
 90
        4
 90
        9
 90
       10
 90
      210
 90
      231
 90
        4
 90
       10
 90
       11
 90
      208
 90
      209
 90
        3
 90
       10
 90
      209
 90
      210
 90
        4
 90
       11
 90
       12
 90
      206
 90
      207
 90
        3
 90
       11
 90
      207
 90
      208
 90
        3
 90
       12
 90
      205
 90
      206
 90
        4
 90
       12
 90
       13
 90
      204
 90
      205
 90
        4
 90
       15
 90
       16
 90
      197
 90
      198
 90
        3
 90
       15
 90
      198
 90
      199
 90
        4
 90
       14
 90
       15
 90
      199
 90
      200
 90
        3
 90
       14
 90
      200
 90
      201
 90
        3
 90
       13
 90
      202
 90
      203
 90
        3
 90
       13
 90
      203
 90
      204
 90
        3
 90
       13
 90
       14
 90
      202
 90
        3
 90
       14
 90
      201
 90
      202
 90
        3
 90
        7
 90
        8
 90
       23
 90
        4
 90
        8
 90
        9
 90
       22
 90
       23
 90
        3
 90
        5
 90
        6
 90
       23
 90
        3
 90
        6
 90
        7
 90
       23
 90
        3
 90
        4
 90
        5
 90
       23
 90
        3
 90
        3
 90
        4
 90
       23
 90
        3
 90
        1
 90
        2
 90
       32
 90
        4
 90
        2
 90
        3
 90
       31
 90
       32
 90
        3
 90
        0
 90
        1
 90
       32
 90
        3
 90
       95
 90
        0
 90
       32
 90
        3
 90
       32
 90
       92
 90
       93
 90
        3
 90
       32
 90
       93
 90
       94
 90
        3
 90
       32
 90
       90
 90
       91
 90
        3
 90
       32
 90
       91
 90
       92
 90
        3
 90
       32
 90
       88
 90
       89
 90
        3
 90
       32
 90
       89
 90
       90
 90
        3
 90
       34
 90
       81
 90
       82
 90
        3
 90
       34
 90
       82
 90
       83
 90
        3
 90
       34
 90
       83
 90
       84
 90
        3
 90
       34
 90
       84
 90
       85
 90
        4
 90
       32
 90
       33
 90
       87
 90
       88
 90
        4
 90
       33
 90
       34
 90
       85
 90
       86
 90
        3
 90
       33
 90
       86
 90
       87
 90
        4
 90
       23
 90
       24
 90
       25
 90
       26
 90
        3
 90
       23
 90
       26
 90
       27
 90
        3
 90
       23
 90
       27
 90
       28
 90
        3
 90
       23
 90
       28
 90
       29
 90
        4
 90
        3
 90
       23
 90
       29
 90
       30
 90
        3
 90
        3
 90
       30
 90
       31
 90
        3
 90
       96
 90
       97
 90
       98
 90
        3
 90
      169
 90
      170
 90
      171
 90
        3
 90
      169
 90
      172
 90
      170
 90
        4
 90
      164
 90
      173
 90
      172
 90
      169
 90
        3
 90
      164
 90
      174
 90
      173
 90
        4
 90
      295
 90
      175
 90
      174
 90
      164
 90
        3
 90
      295
 90
      176
 90
      175
 90
        3
 90
      295
 90
      183
 90
      176
 90
        3
 90
      295
 90
      184
 90
      183
 90
        4
 90
      291
 90
      186
 90
      184
 90
      295
 90
        3
 90
      291
 90
      188
 90
      186
 90
        3
 90
      291
 90
      190
 90
      188
 90
        4
 90
      290
 90
      189
 90
      190
 90
      291
 90
        3
 90
      290
 90
      187
 90
      189
 90
        3
 90
      290
 90
      185
 90
      187
 90
        3
 90
      289
 90
      177
 90
      182
 90
        3
 90
      289
 90
      182
 90
      185
 90
        3
 90
      289
 90
      185
 90
      290
 90
        4
 90
      288
 90
      178
 90
      177
 90
      289
 90
        3
 90
      288
 90
      179
 90
      178
 90
        4
 90
      287
 90
      180
 90
      179
 90
      288
 90
        3
 90
      287
 90
      181
 90
      180
 90
        3
 90
      285
 90
      168
 90
      286
 90
        4
 90
      286
 90
      168
 90
      181
 90
      287
 90
        3
 90
      283
 90
      165
 90
      284
 90
        4
 90
      284
 90
      165
 90
      168
 90
      285
 90
        3
 90
      281
 90
      166
 90
      282
 90
        4
 90
      282
 90
      166
 90
      165
 90
      283
 90
        3
 90
      279
 90
      167
 90
      280
 90
        4
 90
      280
 90
      167
 90
      166
 90
      281
 90
        3
 90
      277
 90
      163
 90
      278
 90
        4
 90
      278
 90
      163
 90
      167
 90
      279
 90
        3
 90
      275
 90
      162
 90
      276
 90
        4
 90
      276
 90
      162
 90
      163
 90
      277
 90
        3
 90
      273
 90
      161
 90
      274
 90
        4
 90
      274
 90
      161
 90
      162
 90
      275
 90
        3
 90
      271
 90
      160
 90
      272
 90
        4
 90
      272
 90
      160
 90
      161
 90
      273
 90
        3
 90
      269
 90
      159
 90
      270
 90
        4
 90
      270
 90
      159
 90
      160
 90
      271
 90
        3
 90
      267
 90
      158
 90
      268
 90
        4
 90
      268
 90
      158
 90
      159
 90
      269
 90
        3
 90
      265
 90
      157
 90
      266
 90
        4
 90
      266
 90
      157
 90
      158
 90
      267
 90
        3
 90
      263
 90
      156
 90
      264
 90
        4
 90
      264
 90
      156
 90
      157
 90
      265
 90
        3
 90
      294
 90
      155
 90
      262
 90
        4
 90
      262
 90
      155
 90
      156
 90
      263
 90
        4
 90
      146
 90
      154
 90
      155
 90
      294
 90
        3
 90
      146
 90
      153
 90
      154
 90
        4
 90
      135
 90
      152
 90
      153
 90
      146
 90
        3
 90
      135
 90
      151
 90
      152
 90
        3
 90
      135
 90
      150
 90
      151
 90
        3
 90
      135
 90
      147
 90
      150
 90
        3
 90
      135
 90
      148
 90
      147
 90
        3
 90
      135
 90
      149
 90
      148
 90
        3
 90
      135
 90
      145
 90
      149
 90
        3
 90
      118
 90
      119
 90
      217
 90
        3
 90
      129
 90
      130
 90
      131
 90
        3
 90
      129
 90
      232
 90
      130
 90
        4
 90
      128
 90
      220
 90
      232
 90
      129
 90
        3
 90
      128
 90
      221
 90
      220
 90
        4
 90
      127
 90
      222
 90
      221
 90
      128
 90
        3
 90
      127
 90
      223
 90
      222
 90
        4
 90
      126
 90
      224
 90
      223
 90
      127
 90
        3
 90
      126
 90
      225
 90
      224
 90
        4
 90
      118
 90
      217
 90
      216
 90
      120
 90
        4
 90
      120
 90
      215
 90
      214
 90
      121
 90
        3
 90
      120
 90
      216
 90
      215
 90
        4
 90
      121
 90
      213
 90
      212
 90
      122
 90
        3
 90
      121
 90
      214
 90
      213
 90
        3
 90
      122
 90
      212
 90
      211
 90
        4
 90
      122
 90
      211
 90
      218
 90
      123
 90
        4
 90
      125
 90
      226
 90
      225
 90
      126
 90
        3
 90
      125
 90
      227
 90
      226
 90
        4
 90
      124
 90
      228
 90
      227
 90
      125
 90
        3
 90
      124
 90
      229
 90
      228
 90
        3
 90
      123
 90
      219
 90
      230
 90
        3
 90
      123
 90
      218
 90
      219
 90
        3
 90
      123
 90
      230
 90
      124
 90
        3
 90
      124
 90
      230
 90
      229
 90
        3
 90
      116
 90
      115
 90
      117
 90
        4
 90
      117
 90
      115
 90
      119
 90
      118
 90
        3
 90
      113
 90
      115
 90
      114
 90
        3
 90
      114
 90
      115
 90
      116
 90
        3
 90
      107
 90
      115
 90
      113
 90
        3
 90
      105
 90
      115
 90
      107
 90
        3
 90
       99
 90
       98
 90
      103
 90
        4
 90
      103
 90
       98
 90
      102
 90
      105
 90
        3
 90
      100
 90
       98
 90
       99
 90
        3
 90
       96
 90
       98
 90
      100
 90
        3
 90
       98
 90
      101
 90
      132
 90
        3
 90
       98
 90
       97
 90
      101
 90
        3
 90
       98
 90
      144
 90
      143
 90
        3
 90
       98
 90
      132
 90
      144
 90
        3
 90
       98
 90
      142
 90
      141
 90
        3
 90
       98
 90
      143
 90
      142
 90
        3
 90
      135
 90
      134
 90
      145
 90
        3
 90
      135
 90
      136
 90
      134
 90
        3
 90
      135
 90
      137
 90
      136
 90
        3
 90
      135
 90
      138
 90
      137
 90
        4
 90
       98
 90
      141
 90
      140
 90
      133
 90
        4
 90
      133
 90
      139
 90
      138
 90
      135
 90
        3
 90
      133
 90
      140
 90
      139
 90
        4
 90
      115
 90
      109
 90
      108
 90
      106
 90
        3
 90
      115
 90
      110
 90
      109
 90
        3
 90
      115
 90
      111
 90
      110
 90
        3
 90
      115
 90
      112
 90
      111
 90
        4
 90
      105
 90
      104
 90
      112
 90
      115
 90
        3
 90
      105
 90
      102
 90
      104
 94
      662
 90
       39
 90
      171
 90
      170
 90
      171
 90
       40
 90
      170
 90
       39
 90
       40
 90
      170
 90
      172
 90
       41
 90
      172
 90
       40
 90
       41
 90
      172
 90
      173
 90
       42
 90
      173
 90
       41
 90
       42
 90
      173
 90
      174
 90
       43
 90
      174
 90
       42
 90
       43
 90
      174
 90
      175
 90
       44
 90
      175
 90
       43
 90
       44
 90
      175
 90
      176
 90
       45
 90
      176
 90
       44
 90
       45
 90
      176
 90
      183
 90
       46
 90
      183
 90
       45
 90
       46
 90
      183
 90
      184
 90
       47
 90
      184
 90
       46
 90
       47
 90
      184
 90
      186
 90
       48
 90
      186
 90
       47
 90
       48
 90
      186
 90
      188
 90
       49
 90
      188
 90
       48
 90
       49
 90
      188
 90
      190
 90
       50
 90
      190
 90
       49
 90
       50
 90
      189
 90
      190
 90
       51
 90
      189
 90
       50
 90
       51
 90
      187
 90
      189
 90
       52
 90
      187
 90
       51
 90
       52
 90
      185
 90
      187
 90
       53
 90
      185
 90
       52
 90
       53
 90
      182
 90
      185
 90
       54
 90
      182
 90
       53
 90
       54
 90
      177
 90
      182
 90
       55
 90
      177
 90
       54
 90
       55
 90
      177
 90
      178
 90
       56
 90
      178
 90
       55
 90
       56
 90
      178
 90
      179
 90
       57
 90
      179
 90
       56
 90
       57
 90
      179
 90
      180
 90
       58
 90
      180
 90
       57
 90
       58
 90
      180
 90
      181
 90
       59
 90
      181
 90
       58
 90
       59
 90
      168
 90
      181
 90
       60
 90
      168
 90
       59
 90
       60
 90
      165
 90
      168
 90
       61
 90
      165
 90
       60
 90
       61
 90
      165
 90
      166
 90
       62
 90
      166
 90
       61
 90
       62
 90
      166
 90
      167
 90
       63
 90
      167
 90
       62
 90
       63
 90
      163
 90
      167
 90
       64
 90
      163
 90
       63
 90
       64
 90
      162
 90
      163
 90
       65
 90
      162
 90
       64
 90
       65
 90
      161
 90
      162
 90
       66
 90
      161
 90
       65
 90
       66
 90
      160
 90
      161
 90
       67
 90
      160
 90
       66
 90
       67
 90
      159
 90
      160
 90
       68
 90
      159
 90
       67
 90
       68
 90
      158
 90
      159
 90
       69
 90
      158
 90
       68
 90
       69
 90
      157
 90
      158
 90
       70
 90
      157
 90
       69
 90
       70
 90
      156
 90
      157
 90
       71
 90
      156
 90
       70
 90
       71
 90
      155
 90
      156
 90
       72
 90
      155
 90
       71
 90
       72
 90
      154
 90
      155
 90
       73
 90
      154
 90
       72
 90
       73
 90
      153
 90
      154
 90
       74
 90
      153
 90
       73
 90
       74
 90
      152
 90
      153
 90
       75
 90
      152
 90
       74
 90
       75
 90
      151
 90
      152
 90
       76
 90
      151
 90
       75
 90
       76
 90
      150
 90
      151
 90
       77
 90
      150
 90
       76
 90
       77
 90
      147
 90
      150
 90
       78
 90
      147
 90
       77
 90
       78
 90
      147
 90
      148
 90
       79
 90
      148
 90
       78
 90
       79
 90
      148
 90
      149
 90
       80
 90
      149
 90
       79
 90
       80
 90
      145
 90
      149
 90
       81
 90
      145
 90
       80
 90
       81
 90
      134
 90
      145
 90
       82
 90
      134
 90
       81
 90
       82
 90
      134
 90
      136
 90
       83
 90
      136
 90
       82
 90
       83
 90
      136
 90
      137
 90
       84
 90
      137
 90
       83
 90
       84
 90
      137
 90
      138
 90
       85
 90
      138
 90
       84
 90
       85
 90
      138
 90
      139
 90
       86
 90
      139
 90
       85
 90
       86
 90
      139
 90
      140
 90
       87
 90
      140
 90
       86
 90
       87
 90
      140
 90
      141
 90
       88
 90
      141
 90
       87
 90
       88
 90
      141
 90
      142
 90
       89
 90
      142
 90
       88
 90
       89
 90
      142
 90
      143
 90
       90
 90
      143
 90
       89
 90
       90
 90
      143
 90
      144
 90
       91
 90
      144
 90
       90
 90
       91
 90
      132
 90
      144
 90
       92
 90
      132
 90
       91
 90
       92
 90
      101
 90
      132
 90
       93
 90
      101
 90
       92
 90
       93
 90
       97
 90
      101
 90
       94
 90
       97
 90
       93
 90
       94
 90
       96
 90
       97
 90
       95
 90
       96
 90
       94
 90
       95
 90
       96
 90
      100
 90
        0
 90
      100
 90
        0
 90
       95
 90
       99
 90
      100
 90
        1
 90
       99
 90
        0
 90
        1
 90
       99
 90
      103
 90
        2
 90
      103
 90
        1
 90
        2
 90
      103
 90
      105
 90
        3
 90
      105
 90
        2
 90
        3
 90
      105
 90
      107
 90
        4
 90
      107
 90
        3
 90
        4
 90
      107
 90
      113
 90
        5
 90
      113
 90
        4
 90
        5
 90
      113
 90
      114
 90
        6
 90
      114
 90
        5
 90
        6
 90
      114
 90
      116
 90
        7
 90
      116
 90
        6
 90
        7
 90
      116
 90
      117
 90
        8
 90
      117
 90
        7
 90
        8
 90
      117
 90
      118
 90
        9
 90
      118
 90
        8
 90
        9
 90
      118
 90
      120
 90
       10
 90
      120
 90
        9
 90
       10
 90
      120
 90
      121
 90
       11
 90
      121
 90
       10
 90
       11
 90
      121
 90
      122
 90
       12
 90
      122
 90
       11
 90
       12
 90
      122
 90
      123
 90
       13
 90
      123
 90
       12
 90
       13
 90
      123
 90
      124
 90
       14
 90
      124
 90
       13
 90
       14
 90
      124
 90
      125
 90
       15
 90
      125
 90
       14
 90
       15
 90
      125
 90
      126
 90
       16
 90
      126
 90
       15
 90
       16
 90
      126
 90
      127
 90
       17
 90
      127
 90
       16
 90
       17
 90
      127
 90
      128
 90
       18
 90
      128
 90
       17
 90
       18
 90
      128
 90
      129
 90
       19
 90
      129
 90
       18
 90
       19
 90
      129
 90
      131
 90
       20
 90
      131
 90
       19
 90
       20
 90
      130
 90
      131
 90
       21
 90
      130
 90
       20
 90
       21
 90
       22
 90
      119
 90
      115
 90
      119
 90
       23
 90
      115
 90
       22
 90
       23
 90
      106
 90
      115
 90
       24
 90
      106
 90
       23
 90
       24
 90
      106
 90
      108
 90
       25
 90
      108
 90
       24
 90
       25
 90
      108
 90
      109
 90
       26
 90
      109
 90
       25
 90
       26
 90
      109
 90
      110
 90
       27
 90
      110
 90
       26
 90
       27
 90
      110
 90
      111
 90
       28
 90
      111
 90
       27
 90
       28
 90
      111
 90
      112
 90
       29
 90
      112
 90
       28
 90
       29
 90
      104
 90
      112
 90
       30
 90
      104
 90
       29
 90
       30
 90
      102
 90
      104
 90
       31
 90
      102
 90
       30
 90
       31
 90
       98
 90
      102
 90
       32
 90
       98
 90
       31
 90
       32
 90
       98
 90
      133
 90
       33
 90
      133
 90
       32
 90
       33
 90
      133
 90
      135
 90
       34
 90
      135
 90
       33
 90
       34
 90
      135
 90
      146
 90
       35
 90
      146
 90
       34
 90
       35
 90
      146
 90
      294
 90
       36
 90
      294
 90
       35
 90
       36
 90
      293
 90
      295
 90
      164
 90
      295
 90
       37
 90
      164
 90
       37
 90
      293
 90
      164
 90
      169
 90
       38
 90
      169
 90
       37
 90
       38
 90
      169
 90
      171
 90
       38
 90
       39
 90
      191
 90
      232
 90
      220
 90
      232
 90
      192
 90
      220
 90
      191
 90
      192
 90
      220
 90
      221
 90
      193
 90
      221
 90
      192
 90
      193
 90
      221
 90
      222
 90
      194
 90
      222
 90
      193
 90
      194
 90
      222
 90
      223
 90
      195
 90
      223
 90
      194
 90
      195
 90
      223
 90
      224
 90
      196
 90
      224
 90
      195
 90
      196
 90
      224
 90
      225
 90
      197
 90
      225
 90
      196
 90
      197
 90
      225
 90
      226
 90
      198
 90
      226
 90
      197
 90
      198
 90
      226
 90
      227
 90
      199
 90
      227
 90
      198
 90
      199
 90
      227
 90
      228
 90
      200
 90
      228
 90
      199
 90
      200
 90
      228
 90
      229
 90
      201
 90
      229
 90
      200
 90
      201
 90
      229
 90
      230
 90
      202
 90
      230
 90
      201
 90
      202
 90
      219
 90
      230
 90
      203
 90
      219
 90
      202
 90
      203
 90
      218
 90
      219
 90
      204
 90
      218
 90
      203
 90
      204
 90
      211
 90
      218
 90
      205
 90
      211
 90
      204
 90
      205
 90
      211
 90
      212
 90
      206
 90
      212
 90
      205
 90
      206
 90
      212
 90
      213
 90
      207
 90
      213
 90
      206
 90
      207
 90
      213
 90
      214
 90
      208
 90
      214
 90
      207
 90
      208
 90
      214
 90
      215
 90
      209
 90
      215
 90
      208
 90
      209
 90
      215
 90
      216
 90
      210
 90
      216
 90
      209
 90
      210
 90
      216
 90
      217
 90
      217
 90
      231
 90
      210
 90
      231
 90
      130
 90
      232
 90
       21
 90
      191
 90
      119
 90
      217
 90
       22
 90
      231
 90
      233
 90
      262
 90
      262
 90
      263
 90
      234
 90
      263
 90
      233
 90
      234
 90
      263
 90
      264
 90
      235
 90
      264
 90
      234
 90
      235
 90
      264
 90
      265
 90
      236
 90
      265
 90
      235
 90
      236
 90
      265
 90
      266
 90
      237
 90
      266
 90
      236
 90
      237
 90
      266
 90
      267
 90
      238
 90
      267
 90
      237
 90
      238
 90
      267
 90
      268
 90
      239
 90
      268
 90
      238
 90
      239
 90
      268
 90
      269
 90
      240
 90
      269
 90
      239
 90
      240
 90
      269
 90
      270
 90
      241
 90
      270
 90
      240
 90
      241
 90
      270
 90
      271
 90
      242
 90
      271
 90
      241
 90
      242
 90
      271
 90
      272
 90
      243
 90
      272
 90
      242
 90
      243
 90
      272
 90
      273
 90
      244
 90
      273
 90
      243
 90
      244
 90
      273
 90
      274
 90
      245
 90
      274
 90
      244
 90
      245
 90
      274
 90
      275
 90
      246
 90
      275
 90
      245
 90
      246
 90
      275
 90
      276
 90
      247
 90
      276
 90
      246
 90
      247
 90
      276
 90
      277
 90
      248
 90
      277
 90
      247
 90
      248
 90
      277
 90
      278
 90
      249
 90
      278
 90
      248
 90
      249
 90
      278
 90
      279
 90
      250
 90
      279
 90
      249
 90
      250
 90
      279
 90
      280
 90
      251
 90
      280
 90
      250
 90
      251
 90
      280
 90
      281
 90
      252
 90
      281
 90
      251
 90
      252
 90
      281
 90
      282
 90
      253
 90
      282
 90
      252
 90
      253
 90
      282
 90
      283
 90
      254
 90
      283
 90
      253
 90
      254
 90
      283
 90
      284
 90
      255
 90
      284
 90
      254
 90
      255
 90
      284
 90
      285
 90
      256
 90
      285
 90
      255
 90
      256
 90
      285
 90
      286
 90
      257
 90
      286
 90
      256
 90
      257
 90
      286
 90
      287
 90
      258
 90
      287
 90
      257
 90
      258
 90
      287
 90
      288
 90
      259
 90
      288
 90
      258
 90
      259
 90
      288
 90
      289
 90
      260
 90
      289
 90
      259
 90
      260
 90
      289
 90
      290
 90
      261
 90
      290
 90
      260
 90
      261
 90
      290
 90
      291
 90
      291
 90
      292
 90
      261
 90
      292
 90
      262
 90
      294
 90
       36
 90
      233
 90
      291
 90
      295
 90
      292
 90
      293
 90
       32
 90
       95
 90
       32
 90
       94
 90
       38
 90
       40
 90
       38
 90
       41
 90
       37
 90
       42
 90
       37
 90
       43
 90
       44
 90
      293
 90
       45
 90
      293
 90
       46
 90
      293
 90
       47
 90
      293
 90
       48
 90
      292
 90
       49
 90
      292
 90
       50
 90
      292
 90
       51
 90
      261
 90
       52
 90
      261
 90
       53
 90
      261
 90
       54
 90
      260
 90
       55
 90
      260
 90
       53
 90
      260
 90
       56
 90
      259
 90
       57
 90
      259
 90
       58
 90
      258
 90
       59
 90
      258
 90
       60
 90
      257
 90
       60
 90
      256
 90
       61
 90
      255
 90
       61
 90
      254
 90
       62
 90
      253
 90
       62
 90
      252
 90
       63
 90
      251
 90
       63
 90
      250
 90
       64
 90
      249
 90
       64
 90
      248
 90
       65
 90
      247
 90
       65
 90
      246
 90
       66
 90
      245
 90
       66
 90
      244
 90
       67
 90
      243
 90
       67
 90
      242
 90
       68
 90
      241
 90
       68
 90
      240
 90
       69
 90
      239
 90
       69
 90
      238
 90
       70
 90
      237
 90
       70
 90
      236
 90
       71
 90
      235
 90
       71
 90
      234
 90
       72
 90
      233
 90
       36
 90
       72
 90
       35
 90
       73
 90
       35
 90
       74
 90
       34
 90
       75
 90
       34
 90
       76
 90
       34
 90
       77
 90
       34
 90
       78
 90
       34
 90
       79
 90
       34
 90
       80
 90
       34
 90
       81
 90
        9
 90
      231
 90
        9
 90
       22
 90
       19
 90
       21
 90
       19
 90
      191
 90
       18
 90
      192
 90
       18
 90
      193
 90
       17
 90
      194
 90
       17
 90
      195
 90
       16
 90
      196
 90
       16
 90
      197
 90
       10
 90
      210
 90
       11
 90
      208
 90
       10
 90
      209
 90
       12
 90
      206
 90
       11
 90
      207
 90
       12
 90
      205
 90
       13
 90
      204
 90
       15
 90
      198
 90
       15
 90
      199
 90
       14
 90
      200
 90
       14
 90
      201
 90
       13
 90
      202
 90
       13
 90
      203
 90
       14
 90
      202
 90
        8
 90
       23
 90
        7
 90
       23
 90
        6
 90
       23
 90
        5
 90
       23
 90
        4
 90
       23
 90
        3
 90
       23
 90
        2
 90
       32
 90
        1
 90
       32
 90
        3
 90
       31
 90
        0
 90
       32
 90
       32
 90
       92
 90
       32
 90
       93
 90
       32
 90
       90
 90
       32
 90
       91
 90
       32
 90
       88
 90
       32
 90
       89
 90
       34
 90
       82
 90
       34
 90
       83
 90
       34
 90
       84
 90
       34
 90
       85
 90
       33
 90
       87
 90
       33
 90
       86
 90
       23
 90
       26
 90
       23
 90
       27
 90
       23
 90
       28
 90
       23
 90
       29
 90
        3
 90
       30
 90
       97
 90
       98
 90
       96
 90
       98
 90
      169
 90
      170
 90
      169
 90
      172
 90
      164
 90
      173
 90
      164
 90
      174
 90
      175
 90
      295
 90
      176
 90
      295
 90
      183
 90
      295
 90
      184
 90
      295
 90
      186
 90
      291
 90
      188
 90
      291
 90
      190
 90
      291
 90
      189
 90
      290
 90
      187
 90
      290
 90
      185
 90
      290
 90
      177
 90
      289
 90
      182
 90
      289
 90
      185
 90
      289
 90
      178
 90
      288
 90
      179
 90
      288
 90
      180
 90
      287
 90
      181
 90
      287
 90
      168
 90
      285
 90
      168
 90
      286
 90
      165
 90
      283
 90
      165
 90
      284
 90
      166
 90
      281
 90
      166
 90
      282
 90
      167
 90
      279
 90
      167
 90
      280
 90
      163
 90
      277
 90
      163
 90
      278
 90
      162
 90
      275
 90
      162
 90
      276
 90
      161
 90
      273
 90
      161
 90
      274
 90
      160
 90
      271
 90
      160
 90
      272
 90
      159
 90
      269
 90
      159
 90
      270
 90
      158
 90
      267
 90
      158
 90
      268
 90
      157
 90
      265
 90
      157
 90
      266
 90
      156
 90
      263
 90
      156
 90
      264
 90
      155
 90
      294
 90
      155
 90
      262
 90
      146
 90
      154
 90
      146
 90
      153
 90
      135
 90
      152
 90
      135
 90
      151
 90
      135
 90
      150
 90
      135
 90
      147
 90
      135
 90
      148
 90
      135
 90
      149
 90
      135
 90
      145
 90
      118
 90
      119
 90
      118
 90
      217
 90
      129
 90
      130
 90
      129
 90
      232
 90
      128
 90
      220
 90
      128
 90
      221
 90
      127
 90
      222
 90
      127
 90
      223
 90
      126
 90
      224
 90
      126
 90
      225
 90
      120
 90
      216
 90
      120
 90
      215
 90
      121
 90
      214
 90
      121
 90
      213
 90
      122
 90
      212
 90
      122
 90
      211
 90
      123
 90
      218
 90
      125
 90
      226
 90
      125
 90
      227
 90
      124
 90
      228
 90
      124
 90
      229
 90
      123
 90
      219
 90
      123
 90
      230
 90
      124
 90
      230
 90
      115
 90
      116
 90
      115
 90
      117
 90
      113
 90
      115
 90
      114
 90
      115
 90
      107
 90
      115
 90
      105
 90
      115
 90
       98
 90
       99
 90
       98
 90
      103
 90
      102
 90
      105
 90
       98
 90
      100
 90
       98
 90
      101
 90
       98
 90
      132
 90
       98
 90
      144
 90
       98
 90
      143
 90
       98
 90
      142
 90
       98
 90
      141
 90
      134
 90
      135
 90
      135
 90
      136
 90
      135
 90
      137
 90
      135
 90
      138
 90
      133
 90
      140
 90
      133
 90
      139
 90
      109
 90
      115
 90
      110
 90
      115
 90
      111
 90
      115
 90
      112
 90
      115
 90
      104
 90
      105
 95
      662
140
0.0
140
0.0
140
0.0
140
0.0
140
0.0
140
0.0
140
0.0
140
0.0
140
0.0
140
0.0
140
0.0
140
0.0
140
0.0
140
0.0
140
0.0
140
0.0
140
0.0
140
0.0
140
0.0
140
0.0
140
0.0
140
0.0
140
0.0
140
0.0
140
0.0
140
0.0
140
0.0
140
0.0
140
0.0
140
0.0
140
0.0
140
0.0
140
0.0
140
0.0
140
0.0
140
0.0
140
0.0
140
0.0
140
0.0
140
0.0
140
0.0
140
0.0
140
0.0
140
0.0
140
0.0
140
0.0
140
0.0
140
0.0
140
0.0
140
0.0
140
0.0
140
0.0
140
0.0
140
0.0
140
0.0
140
0.0
140
0.0
140
0.0
140
0.0
140
0.0
140
0.0
140
0.0
140
0.0
140
0.0
140
0.0
140
0.0
140
0.0
140
0.0
140
0.0
140
0.0
140
0.0
140
0.0
140
0.0
140
0.0
140
0.0
140
0.0
140
0.0
140
0.0
140
0.0
140
0.0
140
0.0
140
0.0
140
0.0
140
0.0
140
0.0
140
0.0
140
0.0
140
0.0
140
0.0
140
0.0
140
0.0
140
0.0
140
0.0
140
0.0
140
0.0
140
0.0
140
0.0
140
0.0
140
0.0
140
0.0
140
0.0
140
0.0
140
0.0
140
0.0
140
0.0
140
0.0
140
0.0
140
0.0
140
0.0
140
0.0
140
0.0
140
0.0
140
0.0
140
0.0
140
0.0
140
0.0
140
0.0
140
0.0
140
0.0
140
0.0
140
0.0
140
0.0
140
0.0
140
0.0
140
0.0
140
0.0
140
0.0
140
0.0
140
0.0
140
0.0
140
0.0
140
0.0
140
0.0
140
0.0
140
0.0
140
0.0
140
0.0
140
0.0
140
0.0
140
0.0
140
0.0
140
0.0
140
0.0
140
0.0
140
0.0
140
0.0
140
0.0
140
0.0
140
0.0
140
0.0
140
0.0
140
0.0
140
0.0
140
0.0
140
0.0
140
0.0
140
0.0
140
0.0
140
0.0
140
0.0
140
0.0
140
0.0
140
0.0
140
0.0
140
0.0
140
0.0
140
0.0
140
0.0
140
0.0
140
0.0
140
0.0
140
0.0
140
0.0
140
0.0
140
0.0
140
0.0
140
0.0
140
0.0
140
0.0
140
0.0
140
0.0
140
0.0
140
0.0
140
0.0
140
0.0
140
0.0
140
0.0
140
0.0
140
0.0
140
0.0
140
0.0
140
0.0
140
0.0
140
0.0
140
0.0
140
0.0
140
0.0
140
0.0
140
0.0
140
0.0
140
0.0
140
0.0
140
0.0
140
0.0
140
0.0
140
0.0
140
0.0
140
0.0
140
0.0
140
0.0
140
0.0
140
0.0
140
0.0
140
0.0
140
0.0
140
0.0
140
0.0
140
0.0
140
0.0
140
0.0
140
0.0
140
0.0
140
0.0
140
0.0
140
0.0
140
0.0
140
0.0
140
0.0
140
0.0
140
0.0
140
0.0
140
0.0
140
0.0
140
0.0
140
0.0
140
0.0
140
0.0
140
0.0
140
0.0
140
0.0
140
0.0
140
0.0
140
0.0
140
0.0
140
0.0
140
0.0
140
0.0
140
0.0
140
0.0
140
0.0
140
0.0
140
0.0
140
0.0
140
0.0
140
0.0
140
0.0
140
0.0
140
0.0
140
0.0
140
0.0
140
0.0
140
0.0
140
0.0
140
0.0
140
0.0
140
0.0
140
0.0
140
0.0
140
0.0
140
0.0
140
0.0
140
0.0
140
0.0
140
0.0
140
0.0
140
0.0
140
0.0
140
0.0
140
0.0
140
0.0
140
0.0
140
0.0
140
0.0
140
0.0
140
0.0
140
0.0
140
0.0
140
0.0
140
0.0
140
0.0
140
0.0
140
0.0
140
0.0
140
0.0
140
0.0
140
0.0
140
0.0
140
0.0
140
0.0
140
0.0
140
0.0
140
0.0
140
0.0
140
0.0
140
0.0
140
0.0
140
0.0
140
0.0
140
0.0
140
0.0
140
0.0
140
0.0
140
0.0
140
0.0
140
0.0
140
0.0
140
0.0
140
0.0
140
0.0
140
0.0
140
0.0
140
0.0
140
0.0
140
0.0
140
0.0
140
0.0
140
0.0
140
0.0
140
0.0
140
0.0
140
0.0
140
0.0
140
0.0
140
0.0
140
0.0
140
0.0
140
0.0
140
0.0
140
0.0
140
0.0
140
0.0
140
0.0
140
0.0
140
0.0
140
0.0
140
0.0
140
0.0
140
0.0
140
0.0
140
0.0
140
0.0
140
0.0
140
0.0
140
0.0
140
0.0
140
0.0
140
0.0
140
0.0
140
0.0
140
0.0
140
0.0
140
0.0
140
0.0
140
0.0
140
0.0
140
0.0
140
0.0
140
0.0
140
0.0
140
0.0
140
0.0
140
0.0
140
0.0
140
0.0
140
0.0
140
0.0
140
0.0
140
0.0
140
0.0
140
0.0
140
0.0
140
0.0
140
0.0
140
0.0
140
0.0
140
0.0
140
0.0
140
0.0
140
0.0
140
0.0
140
0.0
140
0.0
140
0.0
140
0.0
140
0.0
140
0.0
140
0.0
140
0.0
140
0.0
140
0.0
140
0.0
140
0.0
140
0.0
140
0.0
140
0.0
140
0.0
140
0.0
140
0.0
140
0.0
140
0.0
140
0.0
140
0.0
140
0.0
140
0.0
140
0.0
140
0.0
140
0.0
140
0.0
140
0.0
140
0.0
140
0.0
140
0.0
140
0.0
140
0.0
140
0.0
140
0.0
140
0.0
140
0.0
140
0.0
140
0.0
140
0.0
140
0.0
140
0.0
140
0.0
140
0.0
140
0.0
140
0.0
140
0.0
140
0.0
140
0.0
140
0.0
140
0.0
140
0.0
140
0.0
140
0.0
140
0.0
140
0.0
140
0.0
140
0.0
140
0.0
140
0.0
140
0.0
140
0.0
140
0.0
140
0.0
140
0.0
140
0.0
140
0.0
140
0.0
140
0.0
140
0.0
140
0.0
140
0.0
140
0.0
140
0.0
140
0.0
140
0.0
140
0.0
140
0.0
140
0.0
140
0.0
140
0.0
140
0.0
140
0.0
140
0.0
140
0.0
140
0.0
140
0.0
140
0.0
140
0.0
140
0.0
140
0.0
140
0.0
140
0.0
140
0.0
140
0.0
140
0.0
140
0.0
140
0.0
140
0.0
140
0.0
140
0.0
140
0.0
140
0.0
140
0.0
140
0.0
140
0.0
140
0.0
140
0.0
140
0.0
140
0.0
140
0.0
140
0.0
140
0.0
140
0.0
140
0.0
140
0.0
140
0.0
140
0.0
140
0.0
140
0.0
140
0.0
140
0.0
140
0.0
140
0.0
140
0.0
140
0.0
140
0.0
140
0.0
140
0.0
140
0.0
140
0.0
140
0.0
140
0.0
140
0.0
140
0.0
140
0.0
140
0.0
140
0.0
140
0.0
140
0.0
140
0.0
140
0.0
140
0.0
140
0.0
140
0.0
140
0.0
140
0.0
140
0.0
140
0.0
140
0.0
140
0.0
140
0.0
140
0.0
140
0.0
140
0.0
140
0.0
140
0.0
140
0.0
140
0.0
140
0.0
140
0.0
140
0.0
140
0.0
140
0.0
140
0.0
140
0.0
140
0.0
140
0.0
140
0.0
140
0.0
140
0.0
140
0.0
140
0.0
140
0.0
140
0.0
140
0.0
140
0.0
140
0.0
140
0.0
140
0.0
140
0.0
140
0.0
140
0.0
140
0.0
140
0.0
140
0.0
140
0.0
140
0.0
140
0.0
140
0.0
140
0.0
140
0.0
140
0.0
140
0.0
140
0.0
140
0.0
140
0.0
140
0.0
140
0.0
140
0.0
140
0.0
140
0.0
140
0.0
140
0.0
140
0.0
140
0.0
140
0.0
140
0.0
140
0.0
140
0.0
140
0.0
140
0.0
140
0.0
140
0.0
140
0.0
140
0.0
140
0.0
140
0.0
140
0.0
140
0.0
140
0.0
140
0.0
140
0.0
140
0.0
140
0.0
140
0.0
140
0.0
140
0.0
140
0.0
140
0.0
140
0.0
140
0.0
140
0.0
140
0.0
140
0.0
140
0.0
140
0.0
140
0.0
140
0.0
140
0.0
140
0.0
140
0.0
140
0.0
140
0.0
140
0.0
140
0.0
140
0.0
140
0.0
140
0.0
140
0.0
140
0.0
140
0.0
140
0.0
140
0.0
140
0.0
140
0.0
140
0.0
140
0.0
140
0.0
140
0.0
140
0.0
140
0.0
140
0.0
140
0.0
140
0.0
140
0.0
140
0.0
140
0.0
140
0.0
140
0.0
140
0.0
 90
        0
  0
POLYLINE
  5
FA
330
1F
100
AcDbEntity
  8
OracDecor_cornice_mouldings
 62
   153
420
  5804257
100
AcDb3dPolyline
 66
     1
 10
0.0
 20
0.0
 30
0.0
 70
     9
  0
VERTEX
  5
FB
330
FA
100
AcDbEntity
  8
OracDecor_cornice_mouldings
 62
   153
420
  5804257
100
AcDbVertex
100
AcDb3dPolylineVertex
 10
0.0000023777945444
 20
0.1137431263923645
 30
-52.33536148071289
 70
    32
  0
VERTEX
  5
FC
330
FA
100
AcDbEntity
  8
OracDecor_cornice_mouldings
 62
   153
420
  5804257
100
AcDbVertex
100
AcDb3dPolylineVertex
 10
0.0000023541319933
 20
0.0288012903183699
 30
-52.11062240600586
 70
    32
  0
VERTEX
  5
FD
330
FA
100
AcDbEntity
  8
OracDecor_cornice_mouldings
 62
   153
420
  5804257
100
AcDbVertex
100
AcDb3dPolylineVertex
 10
0.0000023389939088
 20
-0.0000931024405872
 30
-51.87200164794922
 70
    32
  0
VERTEX
  5
FE
330
FA
100
AcDbEntity
  8
OracDecor_cornice_mouldings
 62
   153
420
  5804257
100
AcDbVertex
100
AcDb3dPolylineVertex
 10
0.0000021579517124
 20
-0.000094466660812
 30
-47.73023986816406
 70
    32
  0
VERTEX
  5
FF
330
FA
100
AcDbEntity
  8
OracDecor_cornice_mouldings
 62
   153
420
  5804257
100
AcDbVertex
100
AcDb3dPolylineVertex
 10
0.0000021551136342
 20
0.0213594101369381
 30
-47.58534622192382
 70
    32
  0
VERTEX
  5
100
330
FA
100
AcDbEntity
  8
OracDecor_cornice_mouldings
 62
   153
420
  5804257
100
AcDbVertex
100
AcDb3dPolylineVertex
 10
0.0000021595094495
 20
0.0838804095983505
 30
-47.45288848876953
 70
    32
  0
VERTEX
  5
101
330
FA
100
AcDbEntity
  8
OracDecor_cornice_mouldings
 62
   153
420
  5804257
100
AcDbVertex
100
AcDb3dPolylineVertex
 10
0.0000021820103484
 20
0.3150053024291992
 30
-47.106201171875
 70
    32
  0
VERTEX
  5
102
330
FA
100
AcDbEntity
  8
OracDecor_cornice_mouldings
 62
   153
420
  5804257
100
AcDbVertex
100
AcDb3dPolylineVertex
 10
0.0000021864057089
 20
0.377532035112381
 30
-46.97370529174804
 70
    32
  0
VERTEX
  5
103
330
FA
100
AcDbEntity
  8
OracDecor_cornice_mouldings
 62
   153
420
  5804257
100
AcDbVertex
100
AcDb3dPolylineVertex
 10
0.0000021835669486
 20
0.3989706337451935
 30
-46.82885360717773
 70
    32
  0
VERTEX
  5
104
330
FA
100
AcDbEntity
  8
OracDecor_cornice_mouldings
 62
   153
420
  5804257
100
AcDbVertex
100
AcDb3dPolylineVertex
 10
0.0000021737421321
 20
0.3775320649147034
 30
-46.68399810791015
 70
    32
  0
VERTEX
  5
105
330
FA
100
AcDbEntity
  8
OracDecor_cornice_mouldings
 62
   153
420
  5804257
100
AcDbVertex
100
AcDb3dPolylineVertex
 10
0.0000021577636744
 20
0.3150053918361664
 30
-46.5515022277832
 70
    32
  0
VERTEX
  5
106
330
FA
100
AcDbEntity
  8
OracDecor_cornice_mouldings
 62
   153
420
  5804257
100
AcDbVertex
100
AcDb3dPolylineVertex
 10
0.0000021049545467
 20
0.0838805735111237
 30
-46.20481491088867
 70
    32
  0
VERTEX
  5
107
330
FA
100
AcDbEntity
  8
OracDecor_cornice_mouldings
 62
   153
420
  5804257
100
AcDbVertex
100
AcDb3dPolylineVertex
 10
0.0000020889785901
 20
0.0213596075773239
 30
-46.07235717773437
 70
    32
  0
VERTEX
  5
108
330
FA
100
AcDbEntity
  8
OracDecor_cornice_mouldings
 62
   153
420
  5804257
100
AcDbVertex
100
AcDb3dPolylineVertex
 10
0.0000020791496809
 20
-0.0000942302576732
 30
-45.92746353149414
 70
    32
  0
VERTEX
  5
109
330
FA
100
AcDbEntity
  8
OracDecor_cornice_mouldings
 62
   153
420
  5804257
100
AcDbVertex
100
AcDb3dPolylineVertex
 10
0.0000019098961275
 20
-0.0000937224976951
 30
-42.05538940429687
 70
    32
  0
VERTEX
  5
10A
330
FA
100
AcDbEntity
  8
OracDecor_cornice_mouldings
 62
   153
420
  5804257
100
AcDbVertex
100
AcDb3dPolylineVertex
 10
0.0000019065674906
 20
0.0774591192603111
 30
-41.69018554687499
 70
    32
  0
VERTEX
  5
10B
330
FA
100
AcDbEntity
  8
OracDecor_cornice_mouldings
 62
   153
420
  5804257
100
AcDbVertex
100
AcDb3dPolylineVertex
 10
0.000001936373792
 20
0.3675230145454407
 30
-41.29094696044922
 70
    32
  0
VERTEX
  5
10C
330
FA
100
AcDbEntity
  8
OracDecor_cornice_mouldings
 62
   153
420
  5804257
100
AcDbVertex
100
AcDb3dPolylineVertex
 10
0.0000019808999241
 20
0.6908892393112183
 30
-41.10433959960937
 70
    32
  0
VERTEX
  5
10D
330
FA
100
AcDbEntity
  8
OracDecor_cornice_mouldings
 62
   153
420
  5804257
100
AcDbVertex
100
AcDb3dPolylineVertex
 10
0.0000028937072329
 20
6.833637237548828
 30
-39.09173965454101
 70
    32
  0
VERTEX
  5
10E
330
FA
100
AcDbEntity
  8
OracDecor_cornice_mouldings
 62
   153
420
  5804257
100
AcDbVertex
100
AcDb3dPolylineVertex
 10
0.0000031514171042
 20
8.692614555358886
 30
-38.05869674682617
 70
    32
  0
VERTEX
  5
10F
330
FA
100
AcDbEntity
  8
OracDecor_cornice_mouldings
 62
   153
420
  5804257
100
AcDbVertex
100
AcDb3dPolylineVertex
 10
0.0000033815110783
 20
10.65058803558349
 30
-36.02488708496094
 70
    32
  0
VERTEX
  5
110
330
FA
100
AcDbEntity
  8
OracDecor_cornice_mouldings
 62
   153
420
  5804257
100
AcDbVertex
100
AcDb3dPolylineVertex
 10
0.0000034858505842
 20
11.91789245605469
 30
-33.68841552734375
 70
    32
  0
VERTEX
  5
111
330
FA
100
AcDbEntity
  8
OracDecor_cornice_mouldings
 62
   153
420
  5804257
100
AcDbVertex
100
AcDb3dPolylineVertex
 10
0.0000036694968912
 20
13.50250911712646
 30
-31.98358345031738
 70
    32
  0
VERTEX
  5
112
330
FA
100
AcDbEntity
  8
OracDecor_cornice_mouldings
 62
   153
420
  5804257
100
AcDbVertex
100
AcDb3dPolylineVertex
 10
0.0000039830724745
 20
15.66092395782471
 30
-31.11254119873047
 70
    32
  0
VERTEX
  5
113
330
FA
100
AcDbEntity
  8
OracDecor_cornice_mouldings
 62
   153
420
  5804257
100
AcDbVertex
100
AcDb3dPolylineVertex
 10
0.0000044622970563
 20
18.71001052856445
 30
-30.71139335632324
 70
    32
  0
VERTEX
  5
114
330
FA
100
AcDbEntity
  8
OracDecor_cornice_mouldings
 62
   153
420
  5804257
100
AcDbVertex
100
AcDb3dPolylineVertex
 10
0.0000049275913625
 20
21.92712020874024
 30
-29.36529541015625
 70
    32
  0
VERTEX
  5
115
330
FA
100
AcDbEntity
  8
OracDecor_cornice_mouldings
 62
   153
420
  5804257
100
AcDbVertex
100
AcDb3dPolylineVertex
 10
-0.0000023892605441
 20
24.48227310180664
 30
-26.99190521240235
 70
    32
  0
VERTEX
  5
116
330
FA
100
AcDbEntity
  8
OracDecor_cornice_mouldings
 62
   153
420
  5804257
100
AcDbVertex
100
AcDb3dPolylineVertex
 10
-0.0000022537067252
 20
26.21328353881836
 30
-23.64120292663574
 70
    32
  0
VERTEX
  5
117
330
FA
100
AcDbEntity
  8
OracDecor_cornice_mouldings
 62
   153
420
  5804257
100
AcDbVertex
100
AcDb3dPolylineVertex
 10
-0.0000021720677523
 20
27.69994926452637
 30
-19.96780395507812
 70
    32
  0
VERTEX
  5
118
330
FA
100
AcDbEntity
  8
OracDecor_cornice_mouldings
 62
   153
420
  5804257
100
AcDbVertex
100
AcDb3dPolylineVertex
 10
-0.0000020559398308
 20
29.31822395324707
 30
-16.59287071228027
 70
    32
  0
VERTEX
  5
119
330
FA
100
AcDbEntity
  8
OracDecor_cornice_mouldings
 62
   153
420
  5804257
100
AcDbVertex
100
AcDb3dPolylineVertex
 10
-0.0000019132000944
 20
31.00439262390137
 30
-13.57370567321777
 70
    32
  0
VERTEX
  5
11A
330
FA
100
AcDbEntity
  8
OracDecor_cornice_mouldings
 62
   153
420
  5804257
100
AcDbVertex
100
AcDb3dPolylineVertex
 10
-0.0000017635373979
 20
32.49525451660157
 30
-11.44087028503418
 70
    32
  0
VERTEX
  5
11B
330
FA
100
AcDbEntity
  8
OracDecor_cornice_mouldings
 62
   153
420
  5804257
100
AcDbVertex
100
AcDb3dPolylineVertex
 10
-0.000001568212042
 20
34.21750259399414
 30
-9.490239143371582
 70
    32
  0
VERTEX
  5
11C
330
FA
100
AcDbEntity
  8
OracDecor_cornice_mouldings
 62
   153
420
  5804257
100
AcDbVertex
100
AcDb3dPolylineVertex
 10
-0.0000013296911447
 20
36.14936828613281
 30
-7.746529579162597
 70
    32
  0
VERTEX
  5
11D
330
FA
100
AcDbEntity
  8
OracDecor_cornice_mouldings
 62
   153
420
  5804257
100
AcDbVertex
100
AcDb3dPolylineVertex
 10
-0.0000010510683524
 20
38.26577758789063
 30
-6.23241901397705
 70
    32
  0
VERTEX
  5
11E
330
FA
100
AcDbEntity
  8
OracDecor_cornice_mouldings
 62
   153
420
  5804257
100
AcDbVertex
100
AcDb3dPolylineVertex
 10
-0.0000007359256529
 20
40.53955078125
 30
-4.967250347137451
 70
    32
  0
VERTEX
  5
11F
330
FA
100
AcDbEntity
  8
OracDecor_cornice_mouldings
 62
   153
420
  5804257
100
AcDbVertex
100
AcDb3dPolylineVertex
 10
-0.0000004789442869
 20
42.32730102539062
 30
-4.183012008666992
 70
    32
  0
VERTEX
  5
120
330
FA
100
AcDbEntity
  8
OracDecor_cornice_mouldings
 62
   153
420
  5804257
100
AcDbVertex
100
AcDb3dPolylineVertex
 10
-0.0000004507740812
 20
42.52826309204102
 30
-4.07845115661621
 70
    32
  0
VERTEX
  5
121
330
FA
100
AcDbEntity
  8
OracDecor_cornice_mouldings
 62
   153
420
  5804257
100
AcDbVertex
100
AcDb3dPolylineVertex
 10
-0.0000004291444782
 20
42.70047378540039
 30
-3.931413412094116
 70
    32
  0
VERTEX
  5
122
330
FA
100
AcDbEntity
  8
OracDecor_cornice_mouldings
 62
   153
420
  5804257
100
AcDbVertex
100
AcDb3dPolylineVertex
 10
-0.0000004151473547
 20
42.83524322509765
 30
-3.749322891235351
 70
    32
  0
VERTEX
  5
123
330
FA
100
AcDbEntity
  8
OracDecor_cornice_mouldings
 62
   153
420
  5804257
100
AcDbVertex
100
AcDb3dPolylineVertex
 10
-0.0000078809352999
 20
44.71123886108398
 30
-0.500005841255188
 70
    32
  0
VERTEX
  5
124
330
FA
100
AcDbEntity
  8
OracDecor_cornice_mouldings
 62
   153
420
  5804257
100
AcDbVertex
100
AcDb3dPolylineVertex
 10
-0.0000078640923675
 20
44.87019729614257
 30
-0.2928639948368072
 70
    32
  0
VERTEX
  5
125
330
FA
100
AcDbEntity
  8
OracDecor_cornice_mouldings
 62
   153
420
  5804257
100
AcDbVertex
100
AcDb3dPolylineVertex
 10
-0.0000078373013821
 20
45.07726669311523
 30
-0.1339895278215408
 70
    32
  0
VERTEX
  5
126
330
FA
100
AcDbEntity
  8
OracDecor_cornice_mouldings
 62
   153
420
  5804257
100
AcDbVertex
100
AcDb3dPolylineVertex
 10
-0.0000078023822425
 20
45.31839370727539
 30
-0.0340978913009167
 70
    32
  0
VERTEX
  5
127
330
FA
100
AcDbEntity
  8
OracDecor_cornice_mouldings
 62
   153
420
  5804257
100
AcDbVertex
100
AcDb3dPolylineVertex
 10
-0.000007761697816
 20
45.57726287841797
 30
-0.0000059767371567
 70
    32
  0
VERTEX
  5
128
330
FA
100
AcDbEntity
  8
OracDecor_cornice_mouldings
 62
   153
420
  5804257
100
AcDbVertex
100
AcDb3dPolylineVertex
 10
-0.0000067807104642
 20
51.59852600097656
 30
-0.0000067663304435
 70
    32
  0
VERTEX
  5
129
330
FA
100
AcDbEntity
  8
OracDecor_cornice_mouldings
 62
   153
420
  5804257
100
AcDbVertex
100
AcDb3dPolylineVertex
 10
-0.0000067561668402
 20
51.74341583251953
 30
-0.0214606430381537
 70
    32
  0
VERTEX
  5
12A
330
FA
100
AcDbEntity
  8
OracDecor_cornice_mouldings
 62
   153
420
  5804257
100
AcDbVertex
100
AcDb3dPolylineVertex
 10
-0.0000067318533183
 20
51.87587356567383
 30
-0.0839797332882881
 70
    32
  0
VERTEX
  5
12B
330
FA
100
AcDbEntity
  8
OracDecor_cornice_mouldings
 62
   153
420
  5804257
100
AcDbVertex
100
AcDb3dPolylineVertex
 10
-0.0000066652683017
 20
52.22256088256836
 30
-0.3151046633720398
 70
    32
  0
VERTEX
  5
12C
330
FA
100
AcDbEntity
  8
OracDecor_cornice_mouldings
 62
   153
420
  5804257
100
AcDbVertex
100
AcDb3dPolylineVertex
 10
-0.0000066409493229
 20
52.35505676269531
 30
-0.3776313662528992
 70
    32
  0
VERTEX
  5
12D
330
FA
100
AcDbEntity
  8
OracDecor_cornice_mouldings
 62
   153
420
  5804257
100
AcDbVertex
100
AcDb3dPolylineVertex
 10
-0.0000066164111558
 20
52.49991226196289
 30
-0.399069994688034
 70
    32
  0
VERTEX
  5
12E
330
FA
100
AcDbEntity
  8
OracDecor_cornice_mouldings
 62
   153
420
  5804257
100
AcDbVertex
100
AcDb3dPolylineVertex
 10
-0.0000065937492764
 20
52.64476776123046
 30
-0.3776314258575439
 70
    32
  0
VERTEX
  5
12F
330
FA
100
AcDbEntity
  8
OracDecor_cornice_mouldings
 62
   153
420
  5804257
100
AcDbVertex
100
AcDb3dPolylineVertex
 10
-0.0000065748963607
 20
52.77726364135742
 30
-0.3151047229766846
 70
    32
  0
VERTEX
  5
130
330
FA
100
AcDbEntity
  8
OracDecor_cornice_mouldings
 62
   153
420
  5804257
100
AcDbVertex
100
AcDb3dPolylineVertex
 10
-0.0000065285157689
 20
53.12395095825195
 30
-0.0839798972010613
 70
    32
  0
VERTEX
  5
131
330
FA
100
AcDbEntity
  8
OracDecor_cornice_mouldings
 62
   153
420
  5804257
100
AcDbVertex
100
AcDb3dPolylineVertex
 10
-0.0000065096692197
 20
53.25640869140625
 30
-0.0214608404785395
 70
    32
  0
VERTEX
  5
132
330
FA
100
AcDbEntity
  8
OracDecor_cornice_mouldings
 62
   153
420
  5804257
100
AcDbVertex
100
AcDb3dPolylineVertex
 10
-0.0000064870009737
 20
53.40129852294921
 30
-0.0000070027354013
 70
    32
  0
VERTEX
  5
133
330
FA
100
AcDbEntity
  8
OracDecor_cornice_mouldings
 62
   153
420
  5804257
100
AcDbVertex
100
AcDb3dPolylineVertex
 10
-0.0000054119500419
 20
59.99991226196289
 30
-0.0000078680395745
 70
    32
  0
VERTEX
  5
134
330
FA
100
AcDbEntity
  8
OracDecor_cornice_mouldings
 62
   153
420
  5804257
100
AcDbVertex
100
AcDb3dPolylineVertex
 10
-0.0000051933930081
 20
59.99991226196289
 30
-5.000008106231689
 70
    32
  0
VERTEX
  5
135
330
FA
100
AcDbEntity
  8
OracDecor_cornice_mouldings
 62
   153
420
  5804257
100
AcDbVertex
100
AcDb3dPolylineVertex
 10
-0.0000060079964896
 20
54.99991226196289
 30
-5.000007152557373
 70
    32
  0
VERTEX
  5
136
330
FA
100
AcDbEntity
  8
OracDecor_cornice_mouldings
 62
   153
420
  5804257
100
AcDbVertex
100
AcDb3dPolylineVertex
 10
-0.0000057894394558
 20
54.99991226196289
 30
-10.00000762939453
 70
    32
  0
VERTEX
  5
137
330
FA
100
AcDbEntity
  8
OracDecor_cornice_mouldings
 62
   153
420
  5804257
100
AcDbVertex
100
AcDb3dPolylineVertex
 10
-0.0000059541325754
 20
53.98599243164063
 30
-10.0113525390625
 70
    32
  0
VERTEX
  5
138
330
FA
100
AcDbEntity
  8
OracDecor_cornice_mouldings
 62
   153
420
  5804257
100
AcDbVertex
100
AcDb3dPolylineVertex
 10
-0.0000062520912252
 20
52.13422775268554
 30
-10.09673309326172
 70
    32
  0
VERTEX
  5
139
330
FA
100
AcDbEntity
  8
OracDecor_cornice_mouldings
 62
   153
420
  5804257
100
AcDbVertex
100
AcDb3dPolylineVertex
 10
-0.0000065486374297
 20
50.26185226440429
 30
-10.29123973846435
 70
    32
  0
VERTEX
  5
13A
330
FA
100
AcDbEntity
  8
OracDecor_cornice_mouldings
 62
   153
420
  5804257
100
AcDbVertex
100
AcDb3dPolylineVertex
 10
-0.0000068115177783
 20
48.56834411621093
 30
-10.58926773071289
 70
    32
  0
VERTEX
  5
13B
330
FA
100
AcDbEntity
  8
OracDecor_cornice_mouldings
 62
   153
420
  5804257
100
AcDbVertex
100
AcDb3dPolylineVertex
 10
-0.0000070414371294
 20
47.05107116699219
 30
-10.98449802398681
 70
    32
  0
VERTEX
  5
13C
330
FA
100
AcDbEntity
  8
OracDecor_cornice_mouldings
 62
   153
420
  5804257
100
AcDbVertex
100
AcDb3dPolylineVertex
 10
-0.0000072442999226
 20
45.6751594543457
 30
-11.4718074798584
 70
    32
  0
VERTEX
  5
13D
330
FA
100
AcDbEntity
  8
OracDecor_cornice_mouldings
 62
   153
420
  5804257
100
AcDbVertex
100
AcDb3dPolylineVertex
 10
-0.0000074240579124
 20
44.41689300537109
 30
-12.04924297332764
 70
    32
  0
VERTEX
  5
13E
330
FA
100
AcDbEntity
  8
OracDecor_cornice_mouldings
 62
   153
420
  5804257
100
AcDbVertex
100
AcDb3dPolylineVertex
 10
0.0000000389388006
 20
43.21012496948242
 30
-12.74034786224365
 70
    32
  0
VERTEX
  5
13F
330
FA
100
AcDbEntity
  8
OracDecor_cornice_mouldings
 62
   153
420
  5804257
100
AcDbVertex
100
AcDb3dPolylineVertex
 10
-0.0000001140677668
 20
42.05579376220703
 30
-13.54237461090088
 70
    32
  0
VERTEX
  5
140
330
FA
100
AcDbEntity
  8
OracDecor_cornice_mouldings
 62
   153
420
  5804257
100
AcDbVertex
100
AcDb3dPolylineVertex
 10
-0.0000002514360347
 20
40.96946716308593
 30
-14.44871139526367
 70
    32
  0
VERTEX
  5
141
330
FA
100
AcDbEntity
  8
OracDecor_cornice_mouldings
 62
   153
420
  5804257
100
AcDbVertex
100
AcDb3dPolylineVertex
 10
-0.00000037210188
 20
39.95928192138672
 30
-15.4533462524414
 70
    32
  0
VERTEX
  5
142
330
FA
100
AcDbEntity
  8
OracDecor_cornice_mouldings
 62
   153
420
  5804257
100
AcDbVertex
100
AcDb3dPolylineVertex
 10
-0.0000004983074291
 20
38.79693603515625
 30
-16.89838027954101
 70
    32
  0
VERTEX
  5
143
330
FA
100
AcDbEntity
  8
OracDecor_cornice_mouldings
 62
   153
420
  5804257
100
AcDbVertex
100
AcDb3dPolylineVertex
 10
-0.0000005821155469
 20
37.89347839355469
 30
-18.34843444824219
 70
    32
  0
VERTEX
  5
144
330
FA
100
AcDbEntity
  8
OracDecor_cornice_mouldings
 62
   153
420
  5804257
100
AcDbVertex
100
AcDb3dPolylineVertex
 10
-0.0000006247799433
 20
37.29426574707031
 30
-19.60577392578125
 70
    32
  0
VERTEX
  5
145
330
FA
100
AcDbEntity
  8
OracDecor_cornice_mouldings
 62
   153
420
  5804257
100
AcDbVertex
100
AcDb3dPolylineVertex
 10
-0.0000006510766184
 20
36.7545394897461
 30
-21.01583099365234
 70
    32
  0
VERTEX
  5
146
330
FA
100
AcDbEntity
  8
OracDecor_cornice_mouldings
 62
   153
420
  5804257
100
AcDbVertex
100
AcDb3dPolylineVertex
 10
-0.0000006616708674
 20
36.26688003540039
 30
-22.59106254577637
 70
    32
  0
VERTEX
  5
147
330
FA
100
AcDbEntity
  8
OracDecor_cornice_mouldings
 62
   153
420
  5804257
100
AcDbVertex
100
AcDb3dPolylineVertex
 10
-0.0000006626422078
 20
35.79778289794922
 30
-24.31724929809571
 70
    32
  0
VERTEX
  5
148
330
FA
100
AcDbEntity
  8
OracDecor_cornice_mouldings
 62
   153
420
  5804257
100
AcDbVertex
100
AcDb3dPolylineVertex
 10
-0.0000006586186032
 20
35.3221321105957
 30
-26.18214797973633
 70
    32
  0
VERTEX
  5
149
330
FA
100
AcDbEntity
  8
OracDecor_cornice_mouldings
 62
   153
420
  5804257
100
AcDbVertex
100
AcDb3dPolylineVertex
 10
-0.0000006639041317
 20
34.80143737792969
 30
-28.00195693969726
 70
    32
  0
VERTEX
  5
14A
330
FA
100
AcDbEntity
  8
OracDecor_cornice_mouldings
 62
   153
420
  5804257
100
AcDbVertex
100
AcDb3dPolylineVertex
 10
-0.0000006833113844
 20
34.22175598144531
 30
-29.71855926513672
 70
    32
  0
VERTEX
  5
14B
330
FA
100
AcDbEntity
  8
OracDecor_cornice_mouldings
 62
   153
420
  5804257
100
AcDbVertex
100
AcDb3dPolylineVertex
 10
-0.0000007237557043
 20
33.56298446655273
 30
-31.2486572265625
 70
    32
  0
VERTEX
  5
14C
330
FA
100
AcDbEntity
  8
OracDecor_cornice_mouldings
 62
   153
420
  5804257
100
AcDbVertex
100
AcDb3dPolylineVertex
 10
-0.0000007830902291
 20
32.83133697509766
 30
-32.61824035644532
 70
    32
  0
VERTEX
  5
14D
330
FA
100
AcDbEntity
  8
OracDecor_cornice_mouldings
 62
   153
420
  5804257
100
AcDbVertex
100
AcDb3dPolylineVertex
 10
-0.0000008598725003
 20
32.03089141845703
 30
-33.8450813293457
 70
    32
  0
VERTEX
  5
14E
330
FA
100
AcDbEntity
  8
OracDecor_cornice_mouldings
 62
   153
420
  5804257
100
AcDbVertex
100
AcDb3dPolylineVertex
 10
-0.0000009519943092
 20
31.17133712768555
 30
-34.94129180908203
 70
    32
  0
VERTEX
  5
14F
330
FA
100
AcDbEntity
  8
OracDecor_cornice_mouldings
 62
   153
420
  5804257
100
AcDbVertex
100
AcDb3dPolylineVertex
 10
-0.0000010808397519
 20
30.07550430297852
 30
-36.07803344726562
 70
    32
  0
VERTEX
  5
150
330
FA
100
AcDbEntity
  8
OracDecor_cornice_mouldings
 62
   153
420
  5804257
100
AcDbVertex
100
AcDb3dPolylineVertex
 10
-0.000001270302505
 20
28.58533477783203
 30
-37.29778289794922
 70
    32
  0
VERTEX
  5
151
330
FA
100
AcDbEntity
  8
OracDecor_cornice_mouldings
 62
   153
420
  5804257
100
AcDbVertex
100
AcDb3dPolylineVertex
 10
-0.0000014912847064
 20
26.9631290435791
 30
-38.28855895996094
 70
    32
  0
VERTEX
  5
152
330
FA
100
AcDbEntity
  8
OracDecor_cornice_mouldings
 62
   153
420
  5804257
100
AcDbVertex
100
AcDb3dPolylineVertex
 10
-0.0000017469418481
 20
25.18635559082031
 30
-39.06219482421875
 70
    32
  0
VERTEX
  5
153
330
FA
100
AcDbEntity
  8
OracDecor_cornice_mouldings
 62
   153
420
  5804257
100
AcDbVertex
100
AcDb3dPolylineVertex
 10
0.0000055862756199
 20
23.21978759765625
 30
-39.61622619628906
 70
    32
  0
VERTEX
  5
154
330
FA
100
AcDbEntity
  8
OracDecor_cornice_mouldings
 62
   153
420
  5804257
100
AcDbVertex
100
AcDb3dPolylineVertex
 10
0.0000052397663239
 20
21.00951194763184
 30
-39.92713165283203
 70
    32
  0
VERTEX
  5
155
330
FA
100
AcDbEntity
  8
OracDecor_cornice_mouldings
 62
   153
420
  5804257
100
AcDbVertex
100
AcDb3dPolylineVertex
 10
0.0000049970058171
 20
19.49990653991699
 30
-40.00000381469726
 70
    32
  0
VERTEX
  5
156
330
FA
100
AcDbEntity
  8
OracDecor_cornice_mouldings
 62
   153
420
  5804257
100
AcDbVertex
100
AcDb3dPolylineVertex
 10
0.0000052155628509
 20
19.49990653991699
 30
-45.00000381469726
 70
    32
  0
VERTEX
  5
157
330
FA
100
AcDbEntity
  8
OracDecor_cornice_mouldings
 62
   153
420
  5804257
100
AcDbVertex
100
AcDb3dPolylineVertex
 10
0.0000044009584599
 20
14.49990463256836
 30
-44.99999618530273
 70
    32
  0
VERTEX
  5
158
330
FA
100
AcDbEntity
  8
OracDecor_cornice_mouldings
 62
   153
420
  5804257
100
AcDbVertex
100
AcDb3dPolylineVertex
 10
0.0000046195154937
 20
14.49990463256836
 30
-49.99999618530273
 70
    32
  0
VERTEX
  5
159
330
FA
100
AcDbEntity
  8
OracDecor_cornice_mouldings
 62
   153
420
  5804257
100
AcDbVertex
100
AcDb3dPolylineVertex
 10
0.0000038049126942
 20
9.499905586242675
 30
-50.0
 70
    32
  0
VERTEX
  5
15A
330
FA
100
AcDbEntity
  8
OracDecor_cornice_mouldings
 62
   153
420
  5804257
100
AcDbVertex
100
AcDb3dPolylineVertex
 10
-0.0000020760273856
 20
9.499899864196777
 30
-90.0
 70
    32
  0
VERTEX
  5
15B
330
FA
100
AcDbEntity
  8
OracDecor_cornice_mouldings
 62
   153
420
  5804257
100
AcDbVertex
100
AcDb3dPolylineVertex
 10
-0.0000020161949124
 20
9.587082862854003
 30
-91.04385375976562
 70
    32
  0
VERTEX
  5
15C
330
FA
100
AcDbEntity
  8
OracDecor_cornice_mouldings
 62
   153
420
  5804257
100
AcDbVertex
100
AcDb3dPolylineVertex
 10
-0.0000019015677708
 20
9.929743766784667
 30
-92.38906860351562
 70
    32
  0
VERTEX
  5
15D
330
FA
100
AcDbEntity
  8
OracDecor_cornice_mouldings
 62
   153
420
  5804257
100
AcDbVertex
100
AcDb3dPolylineVertex
 10
-0.0000017485693888
 20
10.53261470794677
 30
-93.64223480224609
 70
    32
  0
VERTEX
  5
15E
330
FA
100
AcDbEntity
  8
OracDecor_cornice_mouldings
 62
   153
420
  5804257
100
AcDbVertex
100
AcDb3dPolylineVertex
 10
-0.0000015634071815
 20
11.37157535552978
 30
-94.7512969970703
 70
    32
  0
VERTEX
  5
15F
330
FA
100
AcDbEntity
  8
OracDecor_cornice_mouldings
 62
   153
420
  5804257
100
AcDbVertex
100
AcDb3dPolylineVertex
 10
-0.000001353804123
 20
12.41135215759277
 30
-95.67101287841797
 70
    32
  0
VERTEX
  5
160
330
FA
100
AcDbEntity
  8
OracDecor_cornice_mouldings
 62
   153
420
  5804257
100
AcDbVertex
100
AcDb3dPolylineVertex
 10
-0.0000011847931773
 20
13.29989910125732
 30
-96.2257537841797
 70
    32
  0
VERTEX
  5
161
330
FA
100
AcDbEntity
  8
OracDecor_cornice_mouldings
 62
   153
420
  5804257
100
AcDbVertex
100
AcDb3dPolylineVertex
 10
-0.0000010505640375
 20
13.0999002456665
 30
-100.0419769287109
 70
    32
  0
VERTEX
  5
162
330
FA
100
AcDbEntity
  8
OracDecor_cornice_mouldings
 62
   153
420
  5804257
100
AcDbVertex
100
AcDb3dPolylineVertex
 10
-0.0000016403745349
 20
9.299899101257324
 30
-100.7120208740234
 70
    32
  0
VERTEX
  5
163
330
FA
100
AcDbEntity
  8
OracDecor_cornice_mouldings
 62
   153
420
  5804257
100
AcDbVertex
100
AcDb3dPolylineVertex
 10
-0.000001507779757
 20
9.49989891052246
 30
-103.0
 70
    32
  0
VERTEX
  5
164
330
FA
100
AcDbEntity
  8
OracDecor_cornice_mouldings
 62
   153
420
  5804257
100
AcDbVertex
100
AcDb3dPolylineVertex
 10
-0.000001402943667
 20
10.08887386322021
 30
-103.2031478881836
 70
    32
  0
VERTEX
  5
165
330
FA
100
AcDbEntity
  8
OracDecor_cornice_mouldings
 62
   153
420
  5804257
100
AcDbVertex
100
AcDb3dPolylineVertex
 10
-0.0000012314893638
 20
11.02657985687256
 30
-103.6305541992187
 70
    32
  0
VERTEX
  5
166
330
FA
100
AcDbEntity
  8
OracDecor_cornice_mouldings
 62
   153
420
  5804257
100
AcDbVertex
100
AcDb3dPolylineVertex
 10
-0.0000010648867601
 20
11.88719081878662
 30
-104.2343139648437
 70
    32
  0
VERTEX
  5
167
330
FA
100
AcDbEntity
  8
OracDecor_cornice_mouldings
 62
   153
420
  5804257
100
AcDbVertex
100
AcDb3dPolylineVertex
 10
-0.0000009455587247
 20
12.4479455947876
 30
-104.8741760253906
 70
    32
  0
VERTEX
  5
168
330
FA
100
AcDbEntity
  8
OracDecor_cornice_mouldings
 62
   153
420
  5804257
100
AcDbVertex
100
AcDb3dPolylineVertex
 10
-0.0000008573695709
 20
12.80130290985107
 30
-105.5746917724609
 70
    32
  0
VERTEX
  5
169
330
FA
100
AcDbEntity
  8
OracDecor_cornice_mouldings
 62
   153
420
  5804257
100
AcDbVertex
100
AcDb3dPolylineVertex
 10
-0.0000007941123954
 20
12.97681903839111
 30
-106.3676605224609
 70
    32
  0
VERTEX
  5
16A
330
FA
100
AcDbEntity
  8
OracDecor_cornice_mouldings
 62
   153
420
  5804257
100
AcDbVertex
100
AcDb3dPolylineVertex
 10
-0.0000007511396802
 20
12.93554973602295
 30
-107.5045776367187
 70
    32
  0
VERTEX
  5
16B
330
FA
100
AcDbEntity
  8
OracDecor_cornice_mouldings
 62
   153
420
  5804257
100
AcDbVertex
100
AcDb3dPolylineVertex
 10
-0.0000007527417552
 20
12.60019779205322
 30
-108.7178497314453
 70
    32
  0
VERTEX
  5
16C
330
FA
100
AcDbEntity
  8
OracDecor_cornice_mouldings
 62
   153
420
  5804257
100
AcDbVertex
100
AcDb3dPolylineVertex
 10
-0.0000008119403105
 20
11.94198608398437
 30
-109.8168258666992
 70
    32
  0
VERTEX
  5
16D
330
FA
100
AcDbEntity
  8
OracDecor_cornice_mouldings
 62
   153
420
  5804257
100
AcDbVertex
100
AcDb3dPolylineVertex
 10
-0.000000911771906
 20
11.10924434661865
 30
-110.6367263793945
 70
    32
  0
VERTEX
  5
16E
330
FA
100
AcDbEntity
  8
OracDecor_cornice_mouldings
 62
   153
420
  5804257
100
AcDbVertex
100
AcDb3dPolylineVertex
 10
-0.0000010526617871
 20
10.04633426666259
 30
-111.3752136230468
 70
    32
  0
VERTEX
  5
16F
330
FA
100
AcDbEntity
  8
OracDecor_cornice_mouldings
 62
   153
420
  5804257
100
AcDbVertex
100
AcDb3dPolylineVertex
 10
-0.0000012017870858
 20
8.958773612976074
 30
-112.0171737670898
 70
    32
  0
VERTEX
  5
170
330
FA
100
AcDbEntity
  8
OracDecor_cornice_mouldings
 62
   153
420
  5804257
100
AcDbVertex
100
AcDb3dPolylineVertex
 10
-0.0000013491470554
 20
7.87863540649414
 30
-112.6718444824218
 70
    32
  0
VERTEX
  5
171
330
FA
100
AcDbEntity
  8
OracDecor_cornice_mouldings
 62
   153
420
  5804257
100
AcDbVertex
100
AcDb3dPolylineVertex
 10
-0.0000014842661358
 20
6.843437194824218
 30
-113.4390716552734
 70
    32
  0
VERTEX
  5
172
330
FA
100
AcDbEntity
  8
OracDecor_cornice_mouldings
 62
   153
420
  5804257
100
AcDbVertex
100
AcDb3dPolylineVertex
 10
-0.0000015844324253
 20
5.991377353668212
 30
-114.3233184814453
 70
    32
  0
VERTEX
  5
173
330
FA
100
AcDbEntity
  8
OracDecor_cornice_mouldings
 62
   153
420
  5804257
100
AcDbVertex
100
AcDb3dPolylineVertex
 10
-0.0000016337688749
 20
5.473139762878417
 30
-115.1262054443359
 70
    32
  0
VERTEX
  5
174
330
FA
100
AcDbEntity
  8
OracDecor_cornice_mouldings
 62
   153
420
  5804257
100
AcDbVertex
100
AcDb3dPolylineVertex
 10
-0.0000016505699705
 20
5.184621810913085
 30
-115.8171997070312
 70
    32
  0
VERTEX
  5
175
330
FA
100
AcDbEntity
  8
OracDecor_cornice_mouldings
 62
   153
420
  5804257
100
AcDbVertex
100
AcDb3dPolylineVertex
 10
-0.0000016488719439
 20
4.984055995941162
 30
-116.6035842895507
 70
    32
  0
VERTEX
  5
176
330
FA
100
AcDbEntity
  8
OracDecor_cornice_mouldings
 62
   153
420
  5804257
100
AcDbVertex
100
AcDb3dPolylineVertex
 10
-0.0000016310726778
 20
4.886835098266601
 30
-117.3731536865234
 70
    32
  0
VERTEX
  5
177
330
FA
100
AcDbEntity
  8
OracDecor_cornice_mouldings
 62
   153
420
  5804257
100
AcDbVertex
100
AcDb3dPolylineVertex
 10
-0.0000015969047809
 20
4.879694938659667
 30
-118.1814346313476
 70
    32
  0
VERTEX
  5
178
330
FA
100
AcDbEntity
  8
OracDecor_cornice_mouldings
 62
   153
420
  5804257
100
AcDbVertex
100
AcDb3dPolylineVertex
 10
-0.0000015478561863
 20
4.946142196655273
 30
-119.0558776855469
 70
    32
  0
VERTEX
  5
179
330
FA
100
AcDbEntity
  8
OracDecor_cornice_mouldings
 62
   153
420
  5804257
100
AcDbVertex
100
AcDb3dPolylineVertex
 10
-0.0000015196850427
 20
4.999896049499511
 30
-119.5
 70
    32
  0
VERTEX
  5
17A
330
FA
100
AcDbEntity
  8
OracDecor_cornice_mouldings
 62
   153
420
  5804257
100
AcDbVertex
100
AcDb3dPolylineVertex
 10
-0.0000023124327981
 20
-0.000103943690192
 30
-120.0
 70
    32
  0
VERTEX
  5
17B
330
FA
100
AcDbEntity
  8
OracDecor_cornice_mouldings
 62
   153
420
  5804257
100
AcDbVertex
100
AcDb3dPolylineVertex
 10
-0.0000027101452815
 20
-0.0001008432082017
 30
-110.9013900756836
 70
    32
  0
VERTEX
  5
17C
330
FA
100
AcDbEntity
  8
OracDecor_cornice_mouldings
 62
   153
420
  5804257
100
AcDbVertex
100
AcDb3dPolylineVertex
 10
-0.0000027129838145
 20
0.0213530324399471
 30
-110.7564926147461
 70
    32
  0
VERTEX
  5
17D
330
FA
100
AcDbEntity
  8
OracDecor_cornice_mouldings
 62
   153
420
  5804257
100
AcDbVertex
100
AcDb3dPolylineVertex
 10
-0.0000027085873171
 20
0.0838740319013596
 30
-110.624038696289
 70
    32
  0
VERTEX
  5
17E
330
FA
100
AcDbEntity
  8
OracDecor_cornice_mouldings
 62
   153
420
  5804257
100
AcDbVertex
100
AcDb3dPolylineVertex
 10
-0.0000026860864182
 20
0.3149989247322082
 30
-110.2773513793945
 70
    32
  0
VERTEX
  5
17F
330
FA
100
AcDbEntity
  8
OracDecor_cornice_mouldings
 62
   153
420
  5804257
100
AcDbVertex
100
AcDb3dPolylineVertex
 10
-0.000002681691285
 20
0.37752565741539
 30
-110.1448516845703
 70
    32
  0
VERTEX
  5
180
330
FA
100
AcDbEntity
  8
OracDecor_cornice_mouldings
 62
   153
420
  5804257
100
AcDbVertex
100
AcDb3dPolylineVertex
 10
-0.0000026845302727
 20
0.3989642560482025
 30
-110.0
 70
    32
  0
VERTEX
  5
181
330
FA
100
AcDbEntity
  8
OracDecor_cornice_mouldings
 62
   153
420
  5804257
100
AcDbVertex
100
AcDb3dPolylineVertex
 10
-0.0000026943546345
 20
0.3775256872177124
 30
-109.8551483154297
 70
    32
  0
VERTEX
  5
182
330
FA
100
AcDbEntity
  8
OracDecor_cornice_mouldings
 62
   153
420
  5804257
100
AcDbVertex
100
AcDb3dPolylineVertex
 10
-0.0000027103330922
 20
0.3149990141391754
 30
-109.7226486206055
 70
    32
  0
VERTEX
  5
183
330
FA
100
AcDbEntity
  8
OracDecor_cornice_mouldings
 62
   153
420
  5804257
100
AcDbVertex
100
AcDb3dPolylineVertex
 10
-0.000002763142902
 20
0.0838741958141327
 30
-109.3759613037109
 70
    32
  0
VERTEX
  5
184
330
FA
100
AcDbEntity
  8
OracDecor_cornice_mouldings
 62
   153
420
  5804257
100
AcDbVertex
100
AcDb3dPolylineVertex
 10
-0.0000027791181765
 20
0.0213532317429781
 30
-109.2435073852539
 70
    32
  0
VERTEX
  5
185
330
FA
100
AcDbEntity
  8
OracDecor_cornice_mouldings
 62
   153
420
  5804257
100
AcDbVertex
100
AcDb3dPolylineVertex
 10
-0.0000027889470857
 20
-0.0001006068050629
 30
-109.0986099243164
 70
    32
  0
VERTEX
  5
186
330
FA
100
AcDbEntity
  8
OracDecor_cornice_mouldings
 62
   153
420
  5804257
100
AcDbVertex
100
AcDb3dPolylineVertex
 10
-0.0000031614233649
 20
-0.0001013967194012
 30
-100.5773468017578
 70
    32
  0
VERTEX
  5
187
330
FA
100
AcDbEntity
  8
OracDecor_cornice_mouldings
 62
   153
420
  5804257
100
AcDbVertex
100
AcDb3dPolylineVertex
 10
-0.0000031671459055
 20
0.0287968739867211
 30
-100.3387222290039
 70
    32
  0
VERTEX
  5
188
330
FA
100
AcDbEntity
  8
OracDecor_cornice_mouldings
 62
   153
420
  5804257
100
AcDbVertex
100
AcDb3dPolylineVertex
 10
-0.0000031631309412
 20
0.1137406751513481
 30
-100.1139831542968
 70
    32
  0
VERTEX
  5
189
330
FA
100
AcDbEntity
  8
OracDecor_cornice_mouldings
 62
   153
420
  5804257
100
AcDbVertex
100
AcDb3dPolylineVertex
 10
-0.000003136080295
 20
0.386060506105423
 30
-99.71783447265625
 70
    32
  0
VERTEX
  5
18A
330
FA
100
AcDbEntity
  8
OracDecor_cornice_mouldings
 62
   153
420
  5804257
100
AcDbVertex
100
AcDb3dPolylineVertex
 10
-0.0000031320648759
 20
0.4710043072700501
 30
-99.49309539794922
 70
    32
  0
VERTEX
  5
18B
330
FA
100
AcDbEntity
  8
OracDecor_cornice_mouldings
 62
   153
420
  5804257
100
AcDbVertex
100
AcDb3dPolylineVertex
 10
-0.0000031377874166
 20
0.499898761510849
 30
-99.25447845458984
 70
    32
  0
VERTEX
  5
18C
330
FA
100
AcDbEntity
  8
OracDecor_cornice_mouldings
 62
   153
420
  5804257
100
AcDbVertex
100
AcDb3dPolylineVertex
 10
0.000002478279157
 20
0.4999066889286042
 30
-53.19487762451172
 70
    32
  0
VERTEX
  5
18D
330
FA
100
AcDbEntity
  8
OracDecor_cornice_mouldings
 62
   153
420
  5804257
100
AcDbVertex
100
AcDb3dPolylineVertex
 10
0.0000024631401629
 20
0.4710084795951844
 30
-52.95624542236328
 70
    32
  0
VERTEX
  5
18E
330
FA
100
AcDbEntity
  8
OracDecor_cornice_mouldings
 62
   153
420
  5804257
100
AcDbVertex
100
AcDb3dPolylineVertex
 10
0.0000024394773845
 20
0.386064738035202
 30
-52.73151016235352
 70
    32
  0
SEQEND
  5
18F
330
FA
100
AcDbEntity
  8
OracDecor_cornice_mouldings
 62
   153
420
  5804257
  0
ENDSEC
  0
SECTION
  2
OBJECTS
  0
DICTIONARY
  5
C
330
0
100
AcDbDictionary
281
     1
  3
ACAD_COLOR
350
DC
  3
ACAD_DETAILVIEWSTYLE
350
F5
  3
ACAD_GROUP
350
D
  3
ACAD_LAYOUT
350
1A
  3
ACAD_MATERIAL
350
AA
  3
ACAD_MLEADERSTYLE
350
F1
  3
ACAD_MLINESTYLE
350
17
  3
ACAD_PLOTSETTINGS
350
19
  3
ACAD_PLOTSTYLENAME
350
E
  3
ACAD_SCALELIST
350
DF
  3
ACAD_SECTIONVIEWSTYLE
350
F3
  3
ACAD_TABLESTYLE
350
DD
  3
ACAD_VISUALSTYLE
350
C3
  3
ACDB_RECOMPOSE_DATA
350
19C
  3
AcDbVariableDictionary
350
190
  0
DICTIONARY
  5
DC
102
{ACAD_REACTORS
330
C
102
}
330
C
100
AcDbDictionary
281
     1
  0
DICTIONARY
  5
F5
102
{ACAD_REACTORS
330
C
102
}
330
C
100
AcDbDictionary
281
     1
  3
Imperial24
350
F6
  0
DICTIONARY
  5
D
102
{ACAD_REACTORS
330
C
102
}
330
C
100
AcDbDictionary
281
     1
  0
DICTIONARY
  5
1A
102
{ACAD_REACTORS
330
C
102
}
330
C
100
AcDbDictionary
281
     1
  3
Layout1
350
1E
  3
Layout2
350
26
  3
Model
350
22
  0
DICTIONARY
  5
AA
102
{ACAD_REACTORS
330
C
102
}
330
C
100
AcDbDictionary
281
     1
  3
ByBlock
350
B3
  3
ByLayer
350
AB
  3
Global
350
BB
  0
DICTIONARY
  5
F1
102
{ACAD_REACTORS
330
C
102
}
330
C
100
AcDbDictionary
281
     1
  3
Standard
350
F2
  0
DICTIONARY
  5
17
102
{ACAD_REACTORS
330
C
102
}
330
C
100
AcDbDictionary
281
     1
  3
Standard
350
18
  0
DICTIONARY
  5
19
102
{ACAD_REACTORS
330
C
102
}
330
C
100
AcDbDictionary
281
     1
  0
ACDBDICTIONARYWDFLT
  5
E
102
{ACAD_REACTORS
330
C
102
}
330
C
100
AcDbDictionary
281
     1
  3
ByLayer
350
2D
  3
Normal
350
F
100
AcDbDictionaryWithDefault
340
F
  0
DICTIONARY
  5
DF
102
{ACAD_REACTORS
330
C
102
}
330
C
100
AcDbDictionary
281
     1
  3
A0
350
E0
  3
A1
350
E1
  3
A2
350
E2
  3
A3
350
E3
  3
A4
350
E4
  3
A5
350
E5
  3
A6
350
E6
  3
A7
350
E7
  3
A8
350
E8
  3
A9
350
E9
  3
B0
350
EA
  3
B1
350
EB
  3
B2
350
EC
  3
B3
350
ED
  3
B4
350
EE
  3
B5
350
EF
  3
B6
350
F0
  0
DICTIONARY
  5
F3
102
{ACAD_REACTORS
330
C
102
}
330
C
100
AcDbDictionary
281
     1
  3
Imperial24
350
F4
  0
DICTIONARY
  5
DD
102
{ACAD_REACTORS
330
C
102
}
330
C
100
AcDbDictionary
281
     1
  3
Standard
350
DE
  0
DICTIONARY
  5
C3
102
{ACAD_REACTORS
330
C
102
}
330
C
100
AcDbDictionary
281
     1
  3
2dWireframe
350
C9
  3
Basic
350
C8
  3
Brighten
350
CF
  3
ColorChange
350
D3
  3
Conceptual
350
CC
  3
Dim
350
CE
  3
EdgeColorOff
350
DB
  3
Facepattern
350
D2
  3
Flat
350
C4
  3
FlatWithEdges
350
C5
  3
Gouraud
350
C6
  3
GouraudWithEdges
350
C7
  3
Hidden
350
CB
  3
JitterOff
350
D9
  3
Linepattern
350
D1
  3
OverhangOff
350
DA
  3
Realistic
350
CD
  3
Shaded
350
D8
  3
Shaded with edges
350
D7
  3
Shades of Gray
350
D4
  3
Sketchy
350
D5
  3
Thicken
350
D0
  3
Wireframe
350
CA
  3
X-Ray
350
D6
  0
XRECORD
  5
19C
102
{ACAD_REACTORS
330
C
102
}
330
C
100
AcDbXrecord
280
     1
 90
        1
330
DE
  0
DICTIONARY
  5
190
102
{ACAD_REACTORS
330
C
102
}
330
C
100
AcDbDictionary
281
     1
  3
CANNOSCALE
350
196
  3
CMLEADERSTYLE
350
192
  3
CTABLESTYLE
350
191
  3
CVIEWDETAILSTYLE
350
193
  3
CVIEWSECTIONSTYLE
350
194
  3
LAYEREVAL
350
198
  3
LAYERNOTIFY
350
199
  3
LIGHTINGUNITS
350
197
  3
MSLTSCALE
350
195
  0
ACDBDETAILVIEWSTYLE
  5
F6
102
{ACAD_XDICTIONARY
360
1D1
102
}
102
{ACAD_REACTORS
330
F5
102
}
330
F5
100
AcDbModelDocViewStyle
 70
     0
  3
Imperial24
290
     0
100
AcDbDetailViewStyle
 70
     0
 71
     0
 90
        3
 71
     1
340
11
 62
   256
 40
0.24
340
0
 62
   256
 40
0.24
300

 40
0.36
280
     3
 71
     2
340
16
 90
       25
 62
   256
 71
     3
340
11
 62
   256
 40
0.24
 90
        1
 40
0.75
 90
        1
300
%<\AcVar ViewType \f "%tc1">% %<\AcVar ViewDetailId>%\PSCALE %<\AcVar ViewScale \f "%sn">%
 71
     4
340
16
 90
       25
 62
   256
340
16
 90
       25
 62
   256
280
     0
  0
LAYOUT
  5
1E
102
{ACAD_REACTORS
330
1A
102
}
330
1A
100
AcDbPlotSettings
  1

  2
\\KTXNTBDC\CASF2PN1
  4

  6

 40
0.0
 41
0.0
 42
0.0
 43
0.0
 44
0.0
 45
0.0
 46
0.0
 47
0.0
 48
0.0
 49
0.0
140
0.0
141
0.0
142
1.0
143
1.0
 70
   688
 72
     0
 73
     0
 74
     5
  7

 75
    16
147
1.0
 76
     0
 77
     2
 78
   300
148
0.0
149
0.0
100
AcDbLayout
  1
Layout1
 70
     1
 71
     1
 10
0.0
 20
0.0
 11
12.0
 21
9.0
 12
0.0
 22
0.0
 32
0.0
 14
1.000000000000000E+20
 24
1.000000000000000E+20
 34
1.000000000000000E+20
 15
-1.000000000000000E+20
 25
-1.000000000000000E+20
 35
-1.000000000000000E+20
146
0.0
 13
0.0
 23
0.0
 33
0.0
 16
1.0
 26
0.0
 36
0.0
 17
0.0
 27
1.0
 37
0.0
 76
     0
330
1B
  0
LAYOUT
  5
26
102
{ACAD_REACTORS
330
1A
102
}
330
1A
100
AcDbPlotSettings
  1

  2
\\KTXNTBDC\CASF2PN1
  4

  6

 40
0.0
 41
0.0
 42
0.0
 43
0.0
 44
0.0
 45
0.0
 46
0.0
 47
0.0
 48
0.0
 49
0.0
140
0.0
141
0.0
142
1.0
143
1.0
 70
   688
 72
     0
 73
     0
 74
     5
  7

 75
    16
147
1.0
 76
     0
 77
     2
 78
   300
148
0.0
149
0.0
100
AcDbLayout
  1
Layout2
 70
     1
 71
     2
 10
0.0
 20
0.0
 11
12.0
 21
9.0
 12
0.0
 22
0.0
 32
0.0
 14
0.0
 24
0.0
 34
0.0
 15
0.0
 25
0.0
 35
0.0
146
0.0
 13
0.0
 23
0.0
 33
0.0
 16
1.0
 26
0.0
 36
0.0
 17
0.0
 27
1.0
 37
0.0
 76
     0
330
23
  0
LAYOUT
  5
22
102
{ACAD_REACTORS
330
1A
102
}
330
1A
100
AcDbPlotSettings
  1

  2
\\KTXNTBDC\CASF2PN1
  4

  6

 40
0.0
 41
0.0
 42
0.0
 43
0.0
 44
0.0
 45
0.0
 46
0.0
 47
0.0
 48
0.0
 49
0.0
140
0.0
141
0.0
142
1.0
143
1.0
 70
  1712
 72
     0
 73
     0
 74
     0
  7

 75
     0
147
1.0
 76
     0
 77
     2
 78
   300
148
0.0
149
0.0
100
AcDbLayout
  1
Model
 70
     1
 71
     0
 10
0.0
 20
0.0
 11
12.0
 21
9.0
 12
0.0
 22
0.0
 32
0.0
 14
0.0
 24
0.0
 34
0.0
 15
0.0
 25
0.0
 35
0.0
146
0.0
 13
0.0
 23
0.0
 33
0.0
 16
1.0
 26
0.0
 36
0.0
 17
0.0
 27
1.0
 37
0.0
 76
     0
330
1F
  0
MATERIAL
  5
B3
102
{ACAD_XDICTIONARY
360
B4
102
}
102
{ACAD_REACTORS
330
AA
102
}
330
AA
100
AcDbMaterial
  1
ByBlock
 72
     0
 43
0.0208333333333333
 43
0.0
 43
0.0
 43
0.0
 43
0.0
 43
0.0208333333333333
 43
0.0
 43
0.0
 43
0.0
 43
0.0
 43
1.0
 43
0.0
 43
0.0
 43
0.0
 43
0.0
 43
1.0
 77
     0
 47
0.0208333333333333
 47
0.0
 47
0.0
 47
0.0
 47
0.0
 47
0.0208333333333333
 47
0.0
 47
0.0
 47
0.0
 47
0.0
 47
1.0
 47
0.0
 47
0.0
 47
0.0
 47
0.0
 47
1.0
171
     0
 49
0.0208333333333333
 49
0.0
 49
0.0
 49
0.0
 49
0.0
 49
0.0208333333333333
 49
0.0
 49
0.0
 49
0.0
 49
0.0
 49
1.0
 49
0.0
 49
0.0
 49
0.0
 49
0.0
 49
1.0
175
     0
142
0.0208333333333333
142
0.0
142
0.0
142
0.0
142
0.0
142
0.0208333333333333
142
0.0
142
0.0
142
0.0
142
0.0
142
1.0
142
0.0
142
0.0
142
0.0
142
0.0
142
1.0
179
     0
144
0.0208333333333333
144
0.0
144
0.0
144
0.0
144
0.0
144
0.0208333333333333
144
0.0
144
0.0
144
0.0
144
0.0
144
1.0
144
0.0
144
0.0
144
0.0
144
0.0
144
1.0
147
0.0208333333333333
147
0.0
147
0.0
147
0.0
147
0.0
147
0.0208333333333333
147
0.0
147
0.0
147
0.0
147
0.0
147
1.0
147
0.0
147
0.0
147
0.0
147
0.0
147
1.0
  0
MATERIAL
  5
AB
102
{ACAD_XDICTIONARY
360
AC
102
}
102
{ACAD_REACTORS
330
AA
102
}
330
AA
100
AcDbMaterial
  1
ByLayer
 72
     0
 43
0.0208333333333333
 43
0.0
 43
0.0
 43
0.0
 43
0.0
 43
0.0208333333333333
 43
0.0
 43
0.0
 43
0.0
 43
0.0
 43
1.0
 43
0.0
 43
0.0
 43
0.0
 43
0.0
 43
1.0
 77
     0
 47
0.0208333333333333
 47
0.0
 47
0.0
 47
0.0
 47
0.0
 47
0.0208333333333333
 47
0.0
 47
0.0
 47
0.0
 47
0.0
 47
1.0
 47
0.0
 47
0.0
 47
0.0
 47
0.0
 47
1.0
171
     0
 49
0.0208333333333333
 49
0.0
 49
0.0
 49
0.0
 49
0.0
 49
0.0208333333333333
 49
0.0
 49
0.0
 49
0.0
 49
0.0
 49
1.0
 49
0.0
 49
0.0
 49
0.0
 49
0.0
 49
1.0
175
     0
142
0.0208333333333333
142
0.0
142
0.0
142
0.0
142
0.0
142
0.0208333333333333
142
0.0
142
0.0
142
0.0
142
0.0
142
1.0
142
0.0
142
0.0
142
0.0
142
0.0
142
1.0
179
     0
144
0.0208333333333333
144
0.0
144
0.0
144
0.0
144
0.0
144
0.0208333333333333
144
0.0
144
0.0
144
0.0
144
0.0
144
1.0
144
0.0
144
0.0
144
0.0
144
0.0
144
1.0
147
0.0208333333333333
147
0.0
147
0.0
147
0.0
147
0.0
147
0.0208333333333333
147
0.0
147
0.0
147
0.0
147
0.0
147
1.0
147
0.0
147
0.0
147
0.0
147
0.0
147
1.0
  0
MATERIAL
  5
BB
102
{ACAD_XDICTIONARY
360
BC
102
}
102
{ACAD_REACTORS
330
AA
102
}
330
AA
100
AcDbMaterial
  1
Global
 72
     0
 43
0.0208333333333333
 43
0.0
 43
0.0
 43
0.0
 43
0.0
 43
0.0208333333333333
 43
0.0
 43
0.0
 43
0.0
 43
0.0
 43
1.0
 43
0.0
 43
0.0
 43
0.0
 43
0.0
 43
1.0
 77
     0
 47
0.0208333333333333
 47
0.0
 47
0.0
 47
0.0
 47
0.0
 47
0.0208333333333333
 47
0.0
 47
0.0
 47
0.0
 47
0.0
 47
1.0
 47
0.0
 47
0.0
 47
0.0
 47
0.0
 47
1.0
171
     0
 49
0.0208333333333333
 49
0.0
 49
0.0
 49
0.0
 49
0.0
 49
0.0208333333333333
 49
0.0
 49
0.0
 49
0.0
 49
0.0
 49
1.0
 49
0.0
 49
0.0
 49
0.0
 49
0.0
 49
1.0
175
     0
142
0.0208333333333333
142
0.0
142
0.0
142
0.0
142
0.0
142
0.0208333333333333
142
0.0
142
0.0
142
0.0
142
0.0
142
1.0
142
0.0
142
0.0
142
0.0
142
0.0
142
1.0
179
     0
144
0.0208333333333333
144
0.0
144
0.0
144
0.0
144
0.0
144
0.0208333333333333
144
0.0
144
0.0
144
0.0
144
0.0
144
1.0
144
0.0
144
0.0
144
0.0
144
0.0
144
1.0
147
0.0208333333333333
147
0.0
147
0.0
147
0.0
147
0.0
147
0.0208333333333333
147
0.0
147
0.0
147
0.0
147
0.0
147
1.0
147
0.0
147
0.0
147
0.0
147
0.0
147
1.0
  0
MLEADERSTYLE
  5
F2
102
{ACAD_XDICTIONARY
360
1CD
102
}
102
{ACAD_REACTORS
330
F1
102
}
330
F1
100
AcDbMLeaderStyle
179
     2
170
     2
171
     1
172
     0
 90
        2
 40
0.0
 41
0.0
173
     1
 91
-1056964608
340
14
 92
       -2
290
     1
 42
0.09
291
     1
 43
0.36
  3
Standard
 44
0.18
300

342
11
174
     1
178
     6
175
     1
176
     0
 93
-1056964608
 45
0.18
292
     0
297
     0
 46
0.18
 94
-1056964608
 47
1.0
 49
1.0
140
1.0
293
     1
141
0.0
294
     1
177
     0
142
1.0
295
     0
296
     0
143
0.125
271
     0
272
     9
273
     9
  0
MLINESTYLE
  5
18
102
{ACAD_REACTORS
330
17
102
}
330
17
100
AcDbMlineStyle
  2
STANDARD
 70
     0
  3

 62
   256
 51
90.0
 52
90.0
 71
     2
 49
0.5
 62
   256
  6
BYLAYER
 49
-0.5
 62
   256
  6
BYLAYER
  0
ACDBPLACEHOLDER
  5
2D
102
{ACAD_REACTORS
330
E
102
}
330
E
  0
ACDBPLACEHOLDER
  5
F
102
{ACAD_REACTORS
330
E
102
}
330
E
  0
SCALE
  5
E0
102
{ACAD_REACTORS
330
DF
102
}
330
DF
100
AcDbScale
 70
     0
300
1:1
140
1.0
141
1.0
290
     1
  0
SCALE
  5
E1
102
{ACAD_REACTORS
330
DF
102
}
330
DF
100
AcDbScale
 70
     0
300
1/128" = 1'-0"
140
0.0078125
141
12.0
290
     0
  0
SCALE
  5
E2
102
{ACAD_REACTORS
330
DF
102
}
330
DF
100
AcDbScale
 70
     0
300
1/64" = 1'-0"
140
0.015625
141
12.0
290
     0
  0
SCALE
  5
E3
102
{ACAD_REACTORS
330
DF
102
}
330
DF
100
AcDbScale
 70
     0
300
1/32" = 1'-0"
140
0.03125
141
12.0
290
     0
  0
SCALE
  5
E4
102
{ACAD_REACTORS
330
DF
102
}
330
DF
100
AcDbScale
 70
     0
300
1/16" = 1'-0"
140
0.0625
141
12.0
290
     0
  0
SCALE
  5
E5
102
{ACAD_REACTORS
330
DF
102
}
330
DF
100
AcDbScale
 70
     0
300
3/32" = 1'-0"
140
0.09375
141
12.0
290
     0
  0
SCALE
  5
E6
102
{ACAD_REACTORS
330
DF
102
}
330
DF
100
AcDbScale
 70
     0
300
1/8" = 1'-0"
140
0.125
141
12.0
290
     0
  0
SCALE
  5
E7
102
{ACAD_REACTORS
330
DF
102
}
330
DF
100
AcDbScale
 70
     0
300
3/16" = 1'-0"
140
0.1875
141
12.0
290
     0
  0
SCALE
  5
E8
102
{ACAD_REACTORS
330
DF
102
}
330
DF
100
AcDbScale
 70
     0
300
1/4" = 1'-0"
140
0.25
141
12.0
290
     0
  0
SCALE
  5
E9
102
{ACAD_REACTORS
330
DF
102
}
330
DF
100
AcDbScale
 70
     0
300
3/8" = 1'-0"
140
0.375
141
12.0
290
     0
  0
SCALE
  5
EA
102
{ACAD_REACTORS
330
DF
102
}
330
DF
100
AcDbScale
 70
     0
300
1/2" = 1'-0"
140
0.5
141
12.0
290
     0
  0
SCALE
  5
EB
102
{ACAD_REACTORS
330
DF
102
}
330
DF
100
AcDbScale
 70
     0
300
3/4" = 1'-0"
140
0.75
141
12.0
290
     0
  0
SCALE
  5
EC
102
{ACAD_REACTORS
330
DF
102
}
330
DF
100
AcDbScale
 70
     0
300
1" = 1'-0"
140
1.0
141
12.0
290
     0
  0
SCALE
  5
ED
102
{ACAD_REACTORS
330
DF
102
}
330
DF
100
AcDbScale
 70
     0
300
1-1/2" = 1'-0"
140
1.5
141
12.0
290
     0
  0
SCALE
  5
EE
102
{ACAD_REACTORS
330
DF
102
}
330
DF
100
AcDbScale
 70
     0
300
3" = 1'-0"
140
3.0
141
12.0
290
     0
  0
SCALE
  5
EF
102
{ACAD_REACTORS
330
DF
102
}
330
DF
100
AcDbScale
 70
     0
300
6" = 1'-0"
140
6.0
141
12.0
290
     0
  0
SCALE
  5
F0
102
{ACAD_REACTORS
330
DF
102
}
330
DF
100
AcDbScale
 70
     0
300
1'-0" = 1'-0"
140
12.0
141
12.0
290
     0
  0
ACDBSECTIONVIEWSTYLE
  5
F4
102
{ACAD_XDICTIONARY
360
1CF
102
}
102
{ACAD_REACTORS
330
F3
102
}
330
F3
100
AcDbModelDocViewStyle
 70
     0
  3
Imperial24
290
     0
100
AcDbSectionViewStyle
 70
     0
 71
     0
 90
       78
 71
     1
340
11
 62
   256
 40
0.24
340
0
340
0
 62
   256
 40
0.24
300
I, O, Q, S, X, Z
 40
0.48
 90
        3
 40
0.18
 90
        1
 71
     2
340
16
 90
       25
 62
   256
340
16
 90
       50
 62
   256
 40
0.24
 40
0.0
 40
0.24
 71
     3
340
11
 62
   256
 40
0.24
 90
        1
 40
0.75
 90
        1
300
%<\AcVar ViewType \f "%tc1">% %<\AcVar ViewSectionStartId>%-%<\AcVar ViewSectionEndId>%\PSCALE %<\AcVar ViewScale \f "%sn">%
 71
     4
 62
   256
 62
   257
300
ANSI31
 40
1.0
 90
        0
290
     0
290
     0
 90
        6
 40
0.0
 40
1.570796326794896
 40
0.2617993877991494
 40
1.308996938995747
 40
-0.2617993877991494
 40
1.832595714594046
  0
TABLESTYLE
  5
DE
102
{ACAD_XDICTIONARY
360
19A
102
}
102
{ACAD_REACTORS
330
DD
102
}
330
DD
100
AcDbTableStyle
280
     0
  3
Standard
 70
     0
 71
     0
 40
0.06
 41
0.06
280
     0
281
     0
  7
Standard
140
0.18
170
     2
 62
     0
 63
     7
283
     0
 90
      512
 91
        0
  1

274
    -2
284
     1
 64
     0
275
    -2
285
     1
 65
     0
276
    -2
286
     1
 66
     0
277
    -2
287
     1
 67
     0
278
    -2
288
     1
 68
     0
279
    -2
289
     1
 69
     0
  7
Standard
140
0.25
170
     5
 62
     0
 63
     7
283
     0
 90
      512
 91
        0
  1

274
    -2
284
     1
 64
     0
275
    -2
285
     1
 65
     0
276
    -2
286
     1
 66
     0
277
    -2
287
     1
 67
     0
278
    -2
288
     1
 68
     0
279
    -2
289
     1
 69
     0
  7
Standard
140
0.18
170
     5
 62
     0
 63
     7
283
     0
 90
      512
 91
        0
  1

274
    -2
284
     1
 64
     0
275
    -2
285
     1
 65
     0
276
    -2
286
     1
 66
     0
277
    -2
287
     1
 67
     0
278
    -2
288
     1
 68
     0
279
    -2
289
     1
 69
     0
  0
VISUALSTYLE
  5
C9
102
{ACAD_XDICTIONARY
360
1A7
102
}
102
{ACAD_REACTORS
330
C3
102
}
330
C3
100
AcDbVisualStyle
  2
2dWireframe
 70
     4
177
     2
291
     0
 71
     0
176
     1
 72
     2
176
     1
 73
     0
176
     1
 90
        0
176
     1
 40
0.6
176
     1
 41
30.0
176
     1
 63
     7
421
 16777215
176
     1
 74
     1
176
     1
 91
        4
176
     1
 64
     7
176
     1
 65
   257
176
     1
 75
     1
176
     1
175
     1
176
     1
 42
1.0
176
     1
 92
        0
176
     1
 66
   257
176
     1
 43
1.0
176
     1
 76
     1
176
     1
 77
     6
176
     1
 78
     2
176
     1
 67
     7
176
     1
 79
     5
176
     1
170
     0
176
     1
171
     0
176
     1
290
     0
176
     1
 93
        1
176
     1
 44
0.0
176
     1
173
     0
176
     1
1001
ACAD
1000
AcDbSavedByObjectVersion
1070
     0
  0
VISUALSTYLE
  5
C8
102
{ACAD_XDICTIONARY
360
1A5
102
}
102
{ACAD_REACTORS
330
C3
102
}
330
C3
100
AcDbVisualStyle
  2
Basic
 70
     7
177
     2
291
     1
 71
     1
176
     1
 72
     0
176
     1
 73
     1
176
     1
 90
        0
176
     1
 40
0.6
176
     1
 41
30.0
176
     1
 63
     7
421
 16777215
176
     1
 74
     0
176
     1
 91
        4
176
     1
 64
     7
176
     1
 65
   257
176
     1
 75
     1
176
     1
175
     1
176
     1
 42
1.0
176
     1
 92
        8
176
     1
 66
     7
176
     1
 43
1.0
176
     1
 76
     1
176
     1
 77
     6
176
     1
 78
     2
176
     1
 67
     7
176
     1
 79
     5
176
     1
170
     0
176
     1
171
     0
176
     1
290
     0
176
     1
 93
        1
176
     1
 44
0.0
176
     1
173
     0
176
     1
1001
ACAD
1000
AcDbSavedByObjectVersion
1070
     0
  0
VISUALSTYLE
  5
CF
102
{ACAD_XDICTIONARY
360
1B3
102
}
102
{ACAD_REACTORS
330
C3
102
}
330
C3
100
AcDbVisualStyle
  2
Brighten
 70
    12
177
     2
291
     1
 71
     2
176
     1
 72
     2
176
     1
 73
     0
176
     1
 90
        0
176
     1
 40
0.6
176
     1
 41
30.0
176
     1
 63
     7
421
 16777215
176
     1
 74
     1
176
     1
 91
        4
176
     1
 64
     7
176
     1
 65
   257
176
     1
 75
     1
176
     1
175
     1
176
     1
 42
1.0
176
     1
 92
        8
176
     1
 66
     7
176
     1
 43
1.0
176
     1
 76
     1
176
     1
 77
     6
176
     1
 78
     2
176
     1
 67
     7
176
     1
 79
     5
176
     1
170
     0
176
     1
171
     0
176
     1
290
     0
176
     1
 93
        1
176
     1
 44
50.0
176
     1
173
     0
176
     1
1001
ACAD
1000
AcDbSavedByObjectVersion
1070
     0
  0
VISUALSTYLE
  5
D3
102
{ACAD_XDICTIONARY
360
1BB
102
}
102
{ACAD_REACTORS
330
C3
102
}
330
C3
100
AcDbVisualStyle
  2
ColorChange
 70
    16
177
     2
291
     1
 71
     2
176
     1
 72
     2
176
     1
 73
     3
176
     1
 90
        0
176
     1
 40
0.6
176
     1
 41
30.0
176
     1
 63
     8
421
  8421504
176
     1
 74
     1
176
     1
 91
        4
176
     1
 64
     7
176
     1
 65
   257
176
     1
 75
     1
176
     1
175
     1
176
     1
 42
1.0
176
     1
 92
        8
176
     1
 66
     8
424
  8421504
176
     1
 43
1.0
176
     1
 76
     1
176
     1
 77
     6
176
     1
 78
     2
176
     1
 67
     7
176
     1
 79
     5
176
     1
170
     0
176
     1
171
     0
176
     1
290
     0
176
     1
 93
        1
176
     1
 44
0.0
176
     1
173
     0
176
     1
1001
ACAD
1000
AcDbSavedByObjectVersion
1070
     0
  0
VISUALSTYLE
  5
CC
102
{ACAD_XDICTIONARY
360
1AD
102
}
102
{ACAD_REACTORS
330
C3
102
}
330
C3
100
AcDbVisualStyle
  2
Conceptual
 70
     9
177
     2
291
     0
 71
     3
176
     1
 72
     2
176
     1
 73
     0
176
     1
 90
        0
176
     1
 40
0.6
176
     1
 41
30.0
176
     1
 63
     7
421
 16777215
176
     1
 74
     2
176
     1
 91
        2
176
     1
 64
     7
176
     1
 65
   257
176
     1
 75
     1
176
     1
175
     1
176
     1
 42
179.0
176
     1
 92
        8
176
     1
 66
     7
176
     1
 43
1.0
176
     1
 76
     1
176
     1
 77
     6
176
     1
 78
     2
176
     1
 67
     7
176
     1
 79
     3
176
     1
170
     0
176
     1
171
     0
176
     1
290
     0
176
     1
 93
        1
176
     1
 44
0.0
176
     1
173
     0
176
     1
1001
ACAD
1000
AcDbSavedByObjectVersion
1070
     0
  0
VISUALSTYLE
  5
CE
102
{ACAD_XDICTIONARY
360
1B1
102
}
102
{ACAD_REACTORS
330
C3
102
}
330
C3
100
AcDbVisualStyle
  2
Dim
 70
    11
177
     2
291
     1
 71
     2
176
     1
 72
     2
176
     1
 73
     0
176
     1
 90
        0
176
     1
 40
0.6
176
     1
 41
30.0
176
     1
 63
     7
421
 16777215
176
     1
 74
     1
176
     1
 91
        4
176
     1
 64
     7
176
     1
 65
   257
176
     1
 75
     1
176
     1
175
     1
176
     1
 42
1.0
176
     1
 92
        8
176
     1
 66
     7
176
     1
 43
1.0
176
     1
 76
     1
176
     1
 77
     6
176
     1
 78
     2
176
     1
 67
     7
176
     1
 79
     5
176
     1
170
     0
176
     1
171
     0
176
     1
290
     0
176
     1
 93
        1
176
     1
 44
-50.0
176
     1
173
     0
176
     1
1001
ACAD
1000
AcDbSavedByObjectVersion
1070
     0
  0
VISUALSTYLE
  5
DB
102
{ACAD_XDICTIONARY
360
1CB
102
}
102
{ACAD_REACTORS
330
C3
102
}
330
C3
100
AcDbVisualStyle
  2
EdgeColorOff
 70
    22
177
     2
291
     1
 71
     2
176
     0
 72
     2
176
     0
 73
     0
176
     0
 90
        0
176
     0
 40
0.6
176
     0
 41
30.0
176
     0
 63
     7
421
 16777215
176
     0
 74
     1
176
     0
 91
        4
176
     0
 64
     7
176
     0
 65
   257
176
     0
 75
     1
176
     0
175
     1
176
     0
 42
1.0
176
     0
 92
        8
176
     2
 66
     7
176
     0
 43
1.0
176
     0
 76
     1
176
     0
 77
     6
176
     0
 78
     2
176
     0
 67
     7
176
     0
 79
     5
176
     0
170
     0
176
     0
171
     0
176
     0
290
     0
176
     0
 93
        1
176
     0
 44
0.0
176
     0
173
     0
176
     0
1001
ACAD
1000
AcDbSavedByObjectVersion
1070
     0
  0
VISUALSTYLE
  5
D2
102
{ACAD_XDICTIONARY
360
1B9
102
}
102
{ACAD_REACTORS
330
C3
102
}
330
C3
100
AcDbVisualStyle
  2
Facepattern
 70
    15
177
     2
291
     1
 71
     2
176
     1
 72
     2
176
     1
 73
     0
176
     1
 90
        0
176
     1
 40
0.6
176
     1
 41
30.0
176
     1
 63
     7
421
 16777215
176
     1
 74
     1
176
     1
 91
        4
176
     1
 64
     7
176
     1
 65
   257
176
     1
 75
     1
176
     1
175
     1
176
     1
 42
1.0
176
     1
 92
        8
176
     1
 66
     7
176
     1
 43
1.0
176
     1
 76
     1
176
     1
 77
     6
176
     1
 78
     2
176
     1
 67
     7
176
     1
 79
     5
176
     1
170
     0
176
     1
171
     0
176
     1
290
     0
176
     1
 93
        1
176
     1
 44
0.0
176
     1
173
     0
176
     1
1001
ACAD
1000
AcDbSavedByObjectVersion
1070
     0
  0
VISUALSTYLE
  5
C4
102
{ACAD_XDICTIONARY
360
19D
102
}
102
{ACAD_REACTORS
330
C3
102
}
330
C3
100
AcDbVisualStyle
  2
Flat
 70
     0
177
     2
291
     1
 71
     2
176
     1
 72
     1
176
     1
 73
     1
176
     1
 90
        2
176
     1
 40
0.6
176
     1
 41
30.0
176
     1
 63
     7
421
 16777215
176
     1
 74
     0
176
     1
 91
        0
176
     1
 64
     7
176
     1
 65
   257
176
     1
 75
     1
176
     1
175
     1
176
     1
 42
1.0
176
     1
 92
        8
176
     1
 66
     7
176
     1
 43
1.0
176
     1
 76
     1
176
     1
 77
     6
176
     1
 78
     2
176
     1
 67
     7
176
     1
 79
     5
176
     1
170
     0
176
     1
171
     0
176
     1
290
     0
176
     1
 93
       13
176
     1
 44
0.0
176
     1
173
     0
176
     1
1001
ACAD
1000
AcDbSavedByObjectVersion
1070
     0
  0
VISUALSTYLE
  5
C5
102
{ACAD_XDICTIONARY
360
19F
102
}
102
{ACAD_REACTORS
330
C3
102
}
330
C3
100
AcDbVisualStyle
  2
FlatWithEdges
 70
     1
177
     2
291
     1
 71
     2
176
     1
 72
     1
176
     1
 73
     1
176
     1
 90
        2
176
     1
 40
0.6
176
     1
 41
30.0
176
     1
 63
     7
421
 16777215
176
     1
 74
     1
176
     1
 91
        0
176
     1
 64
     7
176
     1
 65
   257
176
     1
 75
     1
176
     1
175
     1
176
     1
 42
1.0
176
     1
 92
        0
176
     1
 66
   257
176
     1
 43
1.0
176
     1
 76
     1
176
     1
 77
     6
176
     1
 78
     2
176
     1
 67
     7
176
     1
 79
     5
176
     1
170
     0
176
     1
171
     0
176
     1
290
     0
176
     1
 93
       13
176
     1
 44
0.0
176
     1
173
     0
176
     1
1001
ACAD
1000
AcDbSavedByObjectVersion
1070
     0
  0
VISUALSTYLE
  5
C6
102
{ACAD_XDICTIONARY
360
1A1
102
}
102
{ACAD_REACTORS
330
C3
102
}
330
C3
100
AcDbVisualStyle
  2
Gouraud
 70
     2
177
     2
291
     1
 71
     2
176
     1
 72
     2
176
     1
 73
     1
176
     1
 90
        2
176
     1
 40
0.6
176
     1
 41
30.0
176
     1
 63
     7
421
 16777215
176
     1
 74
     0
176
     1
 91
        0
176
     1
 64
     7
176
     1
 65
   257
176
     1
 75
     1
176
     1
175
     1
176
     1
 42
1.0
176
     1
 92
        0
176
     1
 66
     7
176
     1
 43
1.0
176
     1
 76
     1
176
     1
 77
     6
176
     1
 78
     2
176
     1
 67
     7
176
     1
 79
     5
176
     1
170
     0
176
     1
171
     0
176
     1
290
     0
176
     1
 93
       13
176
     1
 44
0.0
176
     1
173
     0
176
     1
1001
ACAD
1000
AcDbSavedByObjectVersion
1070
     0
  0
VISUALSTYLE
  5
C7
102
{ACAD_XDICTIONARY
360
1A3
102
}
102
{ACAD_REACTORS
330
C3
102
}
330
C3
100
AcDbVisualStyle
  2
GouraudWithEdges
 70
     3
177
     2
291
     1
 71
     2
176
     1
 72
     2
176
     1
 73
     1
176
     1
 90
        2
176
     1
 40
0.6
176
     1
 41
30.0
176
     1
 63
     7
421
 16777215
176
     1
 74
     1
176
     1
 91
        0
176
     1
 64
     7
176
     1
 65
   257
176
     1
 75
     1
176
     1
175
     1
176
     1
 42
1.0
176
     1
 92
        0
176
     1
 66
   257
176
     1
 43
1.0
176
     1
 76
     1
176
     1
 77
     6
176
     1
 78
     2
176
     1
 67
     7
176
     1
 79
     5
176
     1
170
     0
176
     1
171
     0
176
     1
290
     0
176
     1
 93
       13
176
     1
 44
0.0
176
     1
173
     0
176
     1
1001
ACAD
1000
AcDbSavedByObjectVersion
1070
     0
  0
VISUALSTYLE
  5
CB
102
{ACAD_XDICTIONARY
360
1AB
102
}
102
{ACAD_REACTORS
330
C3
102
}
330
C3
100
AcDbVisualStyle
  2
Hidden
 70
     6
177
     2
291
     0
 71
     1
176
     1
 72
     2
176
     1
 73
     2
176
     1
 90
        0
176
     1
 40
0.6
176
     1
 41
30.0
176
     1
 63
     7
421
 16777215
176
     1
 74
     2
176
     1
 91
        2
176
     1
 64
     7
176
     1
 65
   257
176
     1
 75
     2
176
     1
175
     1
176
     1
 42
40.0
176
     1
 92
        0
176
     1
 66
   257
176
     1
 43
1.0
176
     1
 76
     1
176
     1
 77
     6
176
     1
 78
     2
176
     1
 67
     7
176
     1
 79
     3
176
     1
170
     0
176
     1
171
     0
176
     1
290
     0
176
     1
 93
        1
176
     1
 44
0.0
176
     1
173
     0
176
     1
1001
ACAD
1000
AcDbSavedByObjectVersion
1070
     0
  0
VISUALSTYLE
  5
D9
102
{ACAD_XDICTIONARY
360
1C7
102
}
102
{ACAD_REACTORS
330
C3
102
}
330
C3
100
AcDbVisualStyle
  2
JitterOff
 70
    20
177
     2
291
     1
 71
     2
176
     0
 72
     2
176
     0
 73
     0
176
     0
 90
        0
176
     0
 40
0.6
176
     0
 41
30.0
176
     0
 63
     7
421
 16777215
176
     0
 74
     1
176
     0
 91
        4
176
     0
 64
     7
176
     0
 65
   257
176
     0
 75
     1
176
     0
175
     1
176
     0
 42
1.0
176
     0
 92
       10
176
     2
 66
     7
176
     0
 43
1.0
176
     0
 76
     1
176
     0
 77
     6
176
     0
 78
     2
176
     0
 67
     7
176
     0
 79
     5
176
     0
170
     0
176
     0
171
     0
176
     0
290
     0
176
     0
 93
        1
176
     0
 44
0.0
176
     0
173
     0
176
     0
1001
ACAD
1000
AcDbSavedByObjectVersion
1070
     0
  0
VISUALSTYLE
  5
D1
102
{ACAD_XDICTIONARY
360
1B7
102
}
102
{ACAD_REACTORS
330
C3
102
}
330
C3
100
AcDbVisualStyle
  2
Linepattern
 70
    14
177
     2
291
     1
 71
     2
176
     1
 72
     2
176
     1
 73
     0
176
     1
 90
        0
176
     1
 40
0.6
176
     1
 41
30.0
176
     1
 63
     7
421
 16777215
176
     1
 74
     1
176
     1
 91
        4
176
     1
 64
     7
176
     1
 65
   257
176
     1
 75
     7
176
     1
175
     7
176
     1
 42
1.0
176
     1
 92
        8
176
     1
 66
     7
176
     1
 43
1.0
176
     1
 76
     1
176
     1
 77
     6
176
     1
 78
     2
176
     1
 67
     7
176
     1
 79
     5
176
     1
170
     0
176
     1
171
     0
176
     1
290
     0
176
     1
 93
        1
176
     1
 44
0.0
176
     1
173
     0
176
     1
1001
ACAD
1000
AcDbSavedByObjectVersion
1070
     0
  0
VISUALSTYLE
  5
DA
102
{ACAD_XDICTIONARY
360
1C9
102
}
102
{ACAD_REACTORS
330
C3
102
}
330
C3
100
AcDbVisualStyle
  2
OverhangOff
 70
    21
177
     2
291
     1
 71
     2
176
     0
 72
     2
176
     0
 73
     0
176
     0
 90
        0
176
     0
 40
0.6
176
     0
 41
30.0
176
     0
 63
     7
421
 16777215
176
     0
 74
     1
176
     0
 91
        4
176
     0
 64
     7
176
     0
 65
   257
176
     0
 75
     1
176
     0
175
     1
176
     0
 42
1.0
176
     0
 92
        9
176
     2
 66
     7
176
     0
 43
1.0
176
     0
 76
     1
176
     0
 77
     6
176
     0
 78
     2
176
     0
 67
     7
176
     0
 79
     5
176
     0
170
     0
176
     0
171
     0
176
     0
290
     0
176
     0
 93
        1
176
     0
 44
0.0
176
     0
173
     0
176
     0
1001
ACAD
1000
AcDbSavedByObjectVersion
1070
     0
  0
VISUALSTYLE
  5
CD
102
{ACAD_XDICTIONARY
360
1AF
102
}
102
{ACAD_REACTORS
330
C3
102
}
330
C3
100
AcDbVisualStyle
  2
Realistic
 70
     8
177
     2
291
     0
 71
     2
176
     1
 72
     3
176
     1
 73
     0
176
     1
 90
        2
176
     1
 40
0.6
176
     1
 41
30.0
176
     1
 63
     7
421
 16777215
176
     1
 74
     0
176
     1
 91
        0
176
     1
 64
     7
176
     1
 65
   257
176
     1
 75
     1
176
     1
175
     1
176
     1
 42
1.0
176
     1
 92
        8
176
     1
 66
   257
176
     1
 43
1.0
176
     1
 76
     1
176
     1
 77
     6
176
     1
 78
     2
176
     1
 67
     7
176
     1
 79
     3
176
     1
170
     0
176
     1
171
     0
176
     1
290
     0
176
     1
 93
       13
176
     1
 44
0.0
176
     1
173
     0
176
     1
1001
ACAD
1000
AcDbSavedByObjectVersion
1070
     0
  0
VISUALSTYLE
  5
D8
102
{ACAD_XDICTIONARY
360
1C5
102
}
102
{ACAD_REACTORS
330
C3
102
}
330
C3
100
AcDbVisualStyle
  2
Shaded
 70
    27
177
     2
291
     0
 71
     2
176
     1
 72
     2
176
     1
 73
     1
176
     1
 90
        2
176
     1
 40
0.6
176
     1
 41
30.0
176
     1
 63
     7
421
 16777215
176
     1
 74
     0
176
     1
 91
        4
176
     1
 64
     7
176
     1
 65
   257
176
     1
 75
     1
176
     1
175
     1
176
     1
 42
1.0
176
     1
 92
        8
176
     1
 66
   257
176
     1
 43
1.0
176
     1
 76
     1
176
     1
 77
     6
176
     1
 78
     2
176
     1
 67
     8
425
  7895160
176
     1
 79
     3
176
     1
170
     0
176
     1
171
     0
176
     1
290
     0
176
     1
 93
        5
176
     1
 44
0.0
176
     1
173
     0
176
     1
1001
ACAD
1000
AcDbSavedByObjectVersion
1070
     0
  0
VISUALSTYLE
  5
D7
102
{ACAD_XDICTIONARY
360
1C3
102
}
102
{ACAD_REACTORS
330
C3
102
}
330
C3
100
AcDbVisualStyle
  2
Shaded with edges
 70
    26
177
     2
291
     0
 71
     2
176
     1
 72
     2
176
     1
 73
     1
176
     1
 90
        2
176
     1
 40
0.6
176
     1
 41
30.0
176
     1
 63
     7
421
 16777215
176
     1
 74
     1
176
     1
 91
       10
176
     1
 64
     7
176
     1
 65
   257
176
     1
 75
     2
176
     1
175
     1
176
     1
 42
1.0
176
     1
 92
        8
176
     1
 66
   257
176
     1
 43
1.0
176
     1
 76
     1
176
     1
 77
     6
176
     1
 78
     2
176
     1
 67
     7
176
     1
 79
     3
176
     1
170
     0
176
     1
171
     0
176
     1
290
     0
176
     1
 93
        5
176
     1
 44
0.0
176
     1
173
     0
176
     1
1001
ACAD
1000
AcDbSavedByObjectVersion
1070
     0
  0
VISUALSTYLE
  5
D4
102
{ACAD_XDICTIONARY
360
1BD
102
}
102
{ACAD_REACTORS
330
C3
102
}
330
C3
100
AcDbVisualStyle
  2
Shades of Gray
 70
    23
177
     2
291
     0
 71
     2
176
     1
 72
     2
176
     1
 73
     3
176
     1
 90
        0
176
     1
 40
0.6
176
     1
 41
30.0
176
     1
 63
     7
421
 16777215
176
     1
 74
     2
176
     1
 91
        2
176
     1
 64
     7
176
     1
 65
     7
176
     1
 75
     1
176
     1
175
     1
176
     1
 42
40.0
176
     1
 92
        8
176
     1
 66
     7
176
     1
 43
1.0
176
     1
 76
     1
176
     1
 77
     6
176
     1
 78
     2
176
     1
 67
     7
176
     1
 79
     3
176
     1
170
     0
176
     1
171
     0
176
     1
290
     0
176
     1
 93
        1
176
     1
 44
0.0
176
     1
173
     0
176
     1
1001
ACAD
1000
AcDbSavedByObjectVersion
1070
     0
  0
VISUALSTYLE
  5
D5
102
{ACAD_XDICTIONARY
360
1BF
102
}
102
{ACAD_REACTORS
330
C3
102
}
330
C3
100
AcDbVisualStyle
  2
Sketchy
 70
    24
177
     2
291
     0
 71
     1
176
     1
 72
     2
176
     1
 73
     2
176
     1
 90
        0
176
     1
 40
0.6
176
     1
 41
30.0
176
     1
 63
     7
421
 16777215
176
     1
 74
     2
176
     1
 91
        2
176
     1
 64
     7
176
     1
 65
     7
176
     1
 75
     1
176
     1
175
     1
176
     1
 42
40.0
176
     1
 92
       11
176
     1
 66
     7
176
     1
 43
1.0
176
     1
 76
     1
176
     1
 77
     6
176
     1
 78
     2
176
     1
 67
     7
176
     1
 79
     6
176
     1
170
     0
176
     1
171
     0
176
     1
290
     0
176
     1
 93
        1
176
     1
 44
0.0
176
     1
173
     0
176
     1
1001
ACAD
1000
AcDbSavedByObjectVersion
1070
     0
  0
VISUALSTYLE
  5
D0
102
{ACAD_XDICTIONARY
360
1B5
102
}
102
{ACAD_REACTORS
330
C3
102
}
330
C3
100
AcDbVisualStyle
  2
Thicken
 70
    13
177
     2
291
     1
 71
     2
176
     1
 72
     2
176
     1
 73
     0
176
     1
 90
        0
176
     1
 40
0.6
176
     1
 41
30.0
176
     1
 63
     7
421
 16777215
176
     1
 74
     1
176
     1
 91
        4
176
     1
 64
     7
176
     1
 65
   257
176
     1
 75
     1
176
     1
175
     1
176
     1
 42
1.0
176
     1
 92
       12
176
     1
 66
     7
176
     1
 43
1.0
176
     1
 76
     1
176
     1
 77
     6
176
     1
 78
     2
176
     1
 67
     7
176
     1
 79
     5
176
     1
170
     0
176
     1
171
     0
176
     1
290
     0
176
     1
 93
        1
176
     1
 44
0.0
176
     1
173
     0
176
     1
1001
ACAD
1000
AcDbSavedByObjectVersion
1070
     0
  0
VISUALSTYLE
  5
CA
102
{ACAD_XDICTIONARY
360
1A9
102
}
102
{ACAD_REACTORS
330
C3
102
}
330
C3
100
AcDbVisualStyle
  2
Wireframe
 70
     5
177
     2
291
     0
 71
     0
176
     1
 72
     2
176
     1
 73
     0
176
     1
 90
        0
176
     1
 40
0.6
176
     1
 41
30.0
176
     1
 63
     7
421
 16777215
176
     1
 74
     1
176
     1
 91
        4
176
     1
 64
     7
176
     1
 65
   257
176
     1
 75
     1
176
     1
175
     1
176
     1
 42
1.0
176
     1
 92
        0
176
     1
 66
   257
176
     1
 43
1.0
176
     1
 76
     1
176
     1
 77
     6
176
     1
 78
     2
176
     1
 67
     7
176
     1
 79
     3
176
     1
170
     0
176
     1
171
     0
176
     1
290
     0
176
     1
 93
        1
176
     1
 44
0.0
176
     1
173
     0
176
     1
1001
ACAD
1000
AcDbSavedByObjectVersion
1070
     0
  0
VISUALSTYLE
  5
D6
102
{ACAD_XDICTIONARY
360
1C1
102
}
102
{ACAD_REACTORS
330
C3
102
}
330
C3
100
AcDbVisualStyle
  2
X-Ray
 70
    25
177
     2
291
     0
 71
     2
176
     1
 72
     2
176
     1
 73
     1
176
     1
 90
        1
176
     1
 40
0.5
176
     1
 41
30.0
176
     1
 63
     7
421
 16777215
176
     1
 74
     1
176
     1
 91
        0
176
     1
 64
     7
176
     1
 65
   257
176
     1
 75
     1
176
     1
175
     1
176
     1
 42
1.0
176
     1
 92
        8
176
     1
 66
     7
176
     1
 43
1.0
176
     1
 76
     1
176
     1
 77
     6
176
     1
 78
     2
176
     1
 67
     7
176
     1
 79
     3
176
     1
170
     0
176
     1
171
     0
176
     1
290
     0
176
     1
 93
       13
176
     1
 44
0.0
176
     1
173
     0
176
     1
1001
ACAD
1000
AcDbSavedByObjectVersion
1070
     0
  0
DICTIONARYVAR
  5
196
102
{ACAD_REACTORS
330
190
102
}
330
190
100
DictionaryVariables
280
     0
  1
1:1
  0
DICTIONARYVAR
  5
192
102
{ACAD_REACTORS
330
190
102
}
330
190
100
DictionaryVariables
280
     0
  1
STANDARD
  0
DICTIONARYVAR
  5
191
102
{ACAD_REACTORS
330
190
102
}
330
190
100
DictionaryVariables
280
     0
  1
STANDARD
  0
DICTIONARYVAR
  5
193
102
{ACAD_REACTORS
330
190
102
}
330
190
100
DictionaryVariables
280
     0
  1
Imperial24
  0
DICTIONARYVAR
  5
194
102
{ACAD_REACTORS
330
190
102
}
330
190
100
DictionaryVariables
280
     0
  1
Imperial24
  0
DICTIONARYVAR
  5
198
102
{ACAD_REACTORS
330
190
102
}
330
190
100
DictionaryVariables
280
     0
  1
1
  0
DICTIONARYVAR
  5
199
102
{ACAD_REACTORS
330
190
102
}
330
190
100
DictionaryVariables
280
     0
  1
15
  0
DICTIONARYVAR
  5
197
102
{ACAD_REACTORS
330
190
102
}
330
190
100
DictionaryVariables
280
     0
  1
0
  0
DICTIONARYVAR
  5
195
102
{ACAD_REACTORS
330
190
102
}
330
190
100
DictionaryVariables
280
     0
  1
0
  0
DICTIONARY
  5
1D1
330
F6
100
AcDbDictionary
280
     1
281
     1
  3
ACAD_XREC_ROUNDTRIP
360
1D2
  0
DICTIONARY
  5
B4
330
B3
100
AcDbDictionary
280
     1
281
     1
  3
BUMPTILE
360
B6
  3
DIFFUSETILE
360
B5
  3
OPACITYTILE
360
B9
  3
REFLECTIONTILE
360
B8
  3
REFRACTIONTILE
360
BA
  3
SPECULARTILE
360
B7
  0
DICTIONARY
  5
AC
330
AB
100
AcDbDictionary
280
     1
281
     1
  3
BUMPTILE
360
AE
  3
DIFFUSETILE
360
AD
  3
OPACITYTILE
360
B1
  3
REFLECTIONTILE
360
B0
  3
REFRACTIONTILE
360
B2
  3
SPECULARTILE
360
AF
  0
DICTIONARY
  5
BC
330
BB
100
AcDbDictionary
280
     1
281
     1
  3
BUMPTILE
360
BE
  3
DIFFUSETILE
360
BD
  3
OPACITYTILE
360
C1
  3
REFLECTIONTILE
360
C0
  3
REFRACTIONTILE
360
C2
  3
SPECULARTILE
360
BF
  0
DICTIONARY
  5
1CD
330
F2
100
AcDbDictionary
280
     1
281
     1
  3
ACAD_XREC_ROUNDTRIP
360
1CE
  0
DICTIONARY
  5
1CF
330
F4
100
AcDbDictionary
280
     1
281
     1
  3
ACAD_XREC_ROUNDTRIP
360
1D0
  0
DICTIONARY
  5
19A
330
DE
100
AcDbDictionary
280
     1
281
     1
  3
ACAD_ROUNDTRIP_2008_TABLESTYLE_CELLSTYLEMAP
360
19B
  0
DICTIONARY
  5
1A7
330
C9
100
AcDbDictionary
280
     1
281
     1
  3
ACAD_XREC_ROUNDTRIP
360
1A8
  0
DICTIONARY
  5
1A5
330
C8
100
AcDbDictionary
280
     1
281
     1
  3
ACAD_XREC_ROUNDTRIP
360
1A6
  0
DICTIONARY
  5
1B3
330
CF
100
AcDbDictionary
280
     1
281
     1
  3
ACAD_XREC_ROUNDTRIP
360
1B4
  0
DICTIONARY
  5
1BB
330
D3
100
AcDbDictionary
280
     1
281
     1
  3
ACAD_XREC_ROUNDTRIP
360
1BC
  0
DICTIONARY
  5
1AD
330
CC
100
AcDbDictionary
280
     1
281
     1
  3
ACAD_XREC_ROUNDTRIP
360
1AE
  0
DICTIONARY
  5
1B1
330
CE
100
AcDbDictionary
280
     1
281
     1
  3
ACAD_XREC_ROUNDTRIP
360
1B2
  0
DICTIONARY
  5
1CB
330
DB
100
AcDbDictionary
280
     1
281
     1
  3
ACAD_XREC_ROUNDTRIP
360
1CC
  0
DICTIONARY
  5
1B9
330
D2
100
AcDbDictionary
280
     1
281
     1
  3
ACAD_XREC_ROUNDTRIP
360
1BA
  0
DICTIONARY
  5
19D
330
C4
100
AcDbDictionary
280
     1
281
     1
  3
ACAD_XREC_ROUNDTRIP
360
19E
  0
DICTIONARY
  5
19F
330
C5
100
AcDbDictionary
280
     1
281
     1
  3
ACAD_XREC_ROUNDTRIP
360
1A0
  0
DICTIONARY
  5
1A1
330
C6
100
AcDbDictionary
280
     1
281
     1
  3
ACAD_XREC_ROUNDTRIP
360
1A2
  0
DICTIONARY
  5
1A3
330
C7
100
AcDbDictionary
280
     1
281
     1
  3
ACAD_XREC_ROUNDTRIP
360
1A4
  0
DICTIONARY
  5
1AB
330
CB
100
AcDbDictionary
280
     1
281
     1
  3
ACAD_XREC_ROUNDTRIP
360
1AC
  0
DICTIONARY
  5
1C7
330
D9
100
AcDbDictionary
280
     1
281
     1
  3
ACAD_XREC_ROUNDTRIP
360
1C8
  0
DICTIONARY
  5
1B7
330
D1
100
AcDbDictionary
280
     1
281
     1
  3
ACAD_XREC_ROUNDTRIP
360
1B8
  0
DICTIONARY
  5
1C9
330
DA
100
AcDbDictionary
280
     1
281
     1
  3
ACAD_XREC_ROUNDTRIP
360
1CA
  0
DICTIONARY
  5
1AF
330
CD
100
AcDbDictionary
280
     1
281
     1
  3
ACAD_XREC_ROUNDTRIP
360
1B0
  0
DICTIONARY
  5
1C5
330
D8
100
AcDbDictionary
280
     1
281
     1
  3
ACAD_XREC_ROUNDTRIP
360
1C6
  0
DICTIONARY
  5
1C3
330
D7
100
AcDbDictionary
280
     1
281
     1
  3
ACAD_XREC_ROUNDTRIP
360
1C4
  0
DICTIONARY
  5
1BD
330
D4
100
AcDbDictionary
280
     1
281
     1
  3
ACAD_XREC_ROUNDTRIP
360
1BE
  0
DICTIONARY
  5
1BF
330
D5
100
AcDbDictionary
280
     1
281
     1
  3
ACAD_XREC_ROUNDTRIP
360
1C0
  0
DICTIONARY
  5
1B5
330
D0
100
AcDbDictionary
280
     1
281
     1
  3
ACAD_XREC_ROUNDTRIP
360
1B6
  0
DICTIONARY
  5
1A9
330
CA
100
AcDbDictionary
280
     1
281
     1
  3
ACAD_XREC_ROUNDTRIP
360
1AA
  0
DICTIONARY
  5
1C1
330
D6
100
AcDbDictionary
280
     1
281
     1
  3
ACAD_XREC_ROUNDTRIP
360
1C2
  0
XRECORD
  5
1D2
102
{ACAD_REACTORS
330
1D1
102
}
330
1D1
100
AcDbXrecord
280
     1
102
DISPLAYNAME
  1
Imperial24
102
FLAGS
 90
        0
  0
XRECORD
  5
B6
102
{ACAD_REACTORS
330
B4
102
}
330
B4
100
AcDbXrecord
280
     1
270
     1
271
     1
  0
XRECORD
  5
B5
102
{ACAD_REACTORS
330
B4
102
}
330
B4
100
AcDbXrecord
280
     1
270
     1
271
     1
  0
XRECORD
  5
B9
102
{ACAD_REACTORS
330
B4
102
}
330
B4
100
AcDbXrecord
280
     1
270
     1
271
     1
  0
XRECORD
  5
B8
102
{ACAD_REACTORS
330
B4
102
}
330
B4
100
AcDbXrecord
280
     1
270
     1
271
     1
  0
XRECORD
  5
BA
102
{ACAD_REACTORS
330
B4
102
}
330
B4
100
AcDbXrecord
280
     1
270
     1
271
     1
  0
XRECORD
  5
B7
102
{ACAD_REACTORS
330
B4
102
}
330
B4
100
AcDbXrecord
280
     1
270
     1
271
     1
  0
XRECORD
  5
AE
102
{ACAD_REACTORS
330
AC
102
}
330
AC
100
AcDbXrecord
280
     1
270
     1
271
     1
  0
XRECORD
  5
AD
102
{ACAD_REACTORS
330
AC
102
}
330
AC
100
AcDbXrecord
280
     1
270
     1
271
     1
  0
XRECORD
  5
B1
102
{ACAD_REACTORS
330
AC
102
}
330
AC
100
AcDbXrecord
280
     1
270
     1
271
     1
  0
XRECORD
  5
B0
102
{ACAD_REACTORS
330
AC
102
}
330
AC
100
AcDbXrecord
280
     1
270
     1
271
     1
  0
XRECORD
  5
B2
102
{ACAD_REACTORS
330
AC
102
}
330
AC
100
AcDbXrecord
280
     1
270
     1
271
     1
  0
XRECORD
  5
AF
102
{ACAD_REACTORS
330
AC
102
}
330
AC
100
AcDbXrecord
280
     1
270
     1
271
     1
  0
XRECORD
  5
BE
102
{ACAD_REACTORS
330
BC
102
}
330
BC
100
AcDbXrecord
280
     1
270
     1
271
     1
  0
XRECORD
  5
BD
102
{ACAD_REACTORS
330
BC
102
}
330
BC
100
AcDbXrecord
280
     1
270
     1
271
     1
  0
XRECORD
  5
C1
102
{ACAD_REACTORS
330
BC
102
}
330
BC
100
AcDbXrecord
280
     1
270
     1
271
     1
  0
XRECORD
  5
C0
102
{ACAD_REACTORS
330
BC
102
}
330
BC
100
AcDbXrecord
280
     1
270
     1
271
     1
  0
XRECORD
  5
C2
102
{ACAD_REACTORS
330
BC
102
}
330
BC
100
AcDbXrecord
280
     1
270
     1
271
     1
  0
XRECORD
  5
BF
102
{ACAD_REACTORS
330
BC
102
}
330
BC
100
AcDbXrecord
280
     1
270
     1
271
     1
  0
XRECORD
  5
1CE
102
{ACAD_REACTORS
330
1CD
102
}
330
1CD
100
AcDbXrecord
280
     1
102
ACAD_ROUNDTRIP_2012_MLEADER_STYLE
298
     1
  0
XRECORD
  5
1D0
102
{ACAD_REACTORS
330
1CF
102
}
330
1CF
100
AcDbXrecord
280
     1
102
DISPLAYNAME
  1
Imperial24
102
FLAGS
 90
        0
  0
CELLSTYLEMAP
  5
19B
102
{ACAD_REACTORS
330
19A
102
}
330
19A
100
AcDbCellStyleMap
 90
        3
300
CELLSTYLE
  1
TABLEFORMAT_BEGIN
 90
        5
170
     1
 91
        0
 92
    32768
 62
   257
 93
        1
300
CONTENTFORMAT
  1
CONTENTFORMAT_BEGIN
 90
        0
 91
        0
 92
      512
 93
        0
300

 40
0.0
140
1.0
 94
        5
 62
     0
340
11
144
0.25
309
CONTENTFORMAT_END
171
     0
 94
        0
309
TABLEFORMAT_END
  1
CELLSTYLE_BEGIN
 90
        1
 91
        1
300
_TITLE
309
CELLSTYLE_END
300
CELLSTYLE
  1
TABLEFORMAT_BEGIN
 90
        5
170
     1
 91
        0
 92
        0
 62
   257
 93
        1
300
CONTENTFORMAT
  1
CONTENTFORMAT_BEGIN
 90
        0
 91
        0
 92
      512
 93
        0
300

 40
0.0
140
1.0
 94
        5
 62
     0
340
11
144
0.18
309
CONTENTFORMAT_END
171
     0
 94
        0
309
TABLEFORMAT_END
  1
CELLSTYLE_BEGIN
 90
        2
 91
        1
300
_HEADER
309
CELLSTYLE_END
300
CELLSTYLE
  1
TABLEFORMAT_BEGIN
 90
        5
170
     1
 91
        0
 92
        0
 62
   257
 93
        1
300
CONTENTFORMAT
  1
CONTENTFORMAT_BEGIN
 90
        0
 91
        0
 92
      512
 93
        0
300

 40
0.0
140
1.0
 94
        2
 62
     0
340
11
144
0.18
309
CONTENTFORMAT_END
171
     0
 94
        0
309
TABLEFORMAT_END
  1
CELLSTYLE_BEGIN
 90
        3
 91
        2
300
_DATA
309
CELLSTYLE_END
  0
XRECORD
  5
1A8
102
{ACAD_REACTORS
330
1A7
102
}
330
1A7
100
AcDbXrecord
280
     1
102
RTVSPost2010Prop28
280
     1
102
RTVSPost2010PropOp28
 70
     1
102
RTVSPost2010Prop29
280
     1
102
RTVSPost2010PropOp29
 70
     1
102
RTVSPost2010Prop30
280
     0
102
RTVSPost2010PropOp30
 70
     1
102
RTVSPost2010Prop31
280
     0
102
RTVSPost2010PropOp31
 70
     1
102
RTVSPost2010Prop32
280
     0
102
RTVSPost2010PropOp32
 70
     1
102
RTVSPost2010Prop33
280
     0
102
RTVSPost2010PropOp33
 70
     1
102
RTVSPost2010Prop34
280
     0
102
RTVSPost2010PropOp34
 70
     1
102
RTVSPost2010Prop35
280
     0
102
RTVSPost2010PropOp35
 70
     1
102
RTVSPost2010Prop36
280
     0
102
RTVSPost2010PropOp36
 70
     1
102
RTVSPost2010Prop37
 90
       50
102
RTVSPost2010PropOp37
 70
     1
102
RTVSPost2010Prop38
140
0.0
102
RTVSPost2010PropOp38
 70
     1
102
RTVSPost2010Prop39
140
1.0
102
RTVSPost2010PropOp39
 70
     1
102
RTVSPost2010Prop40
 90
        0
102
RTVSPost2010PropOp40
 70
     1
102
RTVSPost2010Prop41ColorIndex
 90
       18
102
RTVSPost2010Prop41ColorRGB
 90
        0
102
RTVSPost2010PropOp41
 70
     1
102
RTVSPost2010Prop42
 90
       50
102
RTVSPost2010PropOp42
 70
     1
102
RTVSPost2010Prop43
 90
        3
102
RTVSPost2010PropOp43
 70
     1
102
RTVSPost2010Prop44ColorIndex
 90
        5
102
RTVSPost2010Prop44ColorRGB
 90
      255
102
RTVSPost2010PropOp44
 70
     1
102
RTVSPost2010Prop45
280
     0
102
RTVSPost2010PropOp45
 70
     1
102
RTVSPost2010Prop46
 90
       50
102
RTVSPost2010PropOp46
 70
     1
102
RTVSPost2010Prop47
 90
       50
102
RTVSPost2010PropOp47
 70
     1
102
RTVSPost2010Prop48
 90
       50
102
RTVSPost2010PropOp48
 70
     1
102
RTVSPost2010Prop49
280
     0
102
RTVSPost2010PropOp49
 70
     1
102
RTVSPost2010Prop50
 90
       50
102
RTVSPost2010PropOp50
 70
     1
102
RTVSPost2010Prop51ColorIndex
 90
      256
102
RTVSPost2010Prop51ColorRGB
 90
-16777216
102
RTVSPost2010PropOp51
 70
     0
102
RTVSPost2010Prop52
140
1.0
102
RTVSPost2010PropOp52
 70
     0
102
RTVSPost2010Prop53
 90
        2
102
RTVSPost2010PropOp53
 70
     1
102
RTVSPost2010Prop54
  1
strokes_ogs.tif
102
RTVSPost2010PropOp54
 70
     1
102
RTVSPost2010Prop55
280
     0
102
RTVSPost2010PropOp55
 70
     1
102
RTVSPost2010Prop56
140
1.0
102
RTVSPost2010PropOp56
 70
     1
102
RTVSPost2010Prop57
140
1.0
102
RTVSPost2010PropOp57
 70
     1
  0
XRECORD
  5
1A6
102
{ACAD_REACTORS
330
1A5
102
}
330
1A5
100
AcDbXrecord
280
     1
102
RTVSPost2010Prop28
280
     0
102
RTVSPost2010PropOp28
 70
     1
102
RTVSPost2010Prop29
280
     1
102
RTVSPost2010PropOp29
 70
     1
102
RTVSPost2010Prop30
280
     1
102
RTVSPost2010PropOp30
 70
     1
102
RTVSPost2010Prop31
280
     0
102
RTVSPost2010PropOp31
 70
     1
102
RTVSPost2010Prop32
280
     0
102
RTVSPost2010PropOp32
 70
     1
102
RTVSPost2010Prop33
280
     0
102
RTVSPost2010PropOp33
 70
     1
102
RTVSPost2010Prop34
280
     0
102
RTVSPost2010PropOp34
 70
     1
102
RTVSPost2010Prop35
280
     0
102
RTVSPost2010PropOp35
 70
     1
102
RTVSPost2010Prop36
280
     0
102
RTVSPost2010PropOp36
 70
     1
102
RTVSPost2010Prop37
 90
       50
102
RTVSPost2010PropOp37
 70
     1
102
RTVSPost2010Prop38
140
0.0
102
RTVSPost2010PropOp38
 70
     1
102
RTVSPost2010Prop39
140
1.0
102
RTVSPost2010PropOp39
 70
     1
102
RTVSPost2010Prop40
 90
        0
102
RTVSPost2010PropOp40
 70
     1
102
RTVSPost2010Prop41ColorIndex
 90
       18
102
RTVSPost2010Prop41ColorRGB
 90
        0
102
RTVSPost2010PropOp41
 70
     1
102
RTVSPost2010Prop42
 90
       50
102
RTVSPost2010PropOp42
 70
     1
102
RTVSPost2010Prop43
 90
        3
102
RTVSPost2010PropOp43
 70
     1
102
RTVSPost2010Prop44ColorIndex
 90
        5
102
RTVSPost2010Prop44ColorRGB
 90
      255
102
RTVSPost2010PropOp44
 70
     1
102
RTVSPost2010Prop45
280
     0
102
RTVSPost2010PropOp45
 70
     1
102
RTVSPost2010Prop46
 90
       50
102
RTVSPost2010PropOp46
 70
     1
102
RTVSPost2010Prop47
 90
       50
102
RTVSPost2010PropOp47
 70
     1
102
RTVSPost2010Prop48
 90
       50
102
RTVSPost2010PropOp48
 70
     1
102
RTVSPost2010Prop49
280
     0
102
RTVSPost2010PropOp49
 70
     1
102
RTVSPost2010Prop50
 90
       50
102
RTVSPost2010PropOp50
 70
     1
102
RTVSPost2010Prop51ColorIndex
 90
      256
102
RTVSPost2010Prop51ColorRGB
 90
-16777216
102
RTVSPost2010PropOp51
 70
     0
102
RTVSPost2010Prop52
140
1.0
102
RTVSPost2010PropOp52
 70
     0
102
RTVSPost2010Prop53
 90
        2
102
RTVSPost2010PropOp53
 70
     1
102
RTVSPost2010Prop54
  1
strokes_ogs.tif
102
RTVSPost2010PropOp54
 70
     1
102
RTVSPost2010Prop55
280
     0
102
RTVSPost2010PropOp55
 70
     1
102
RTVSPost2010Prop56
140
1.0
102
RTVSPost2010PropOp56
 70
     1
102
RTVSPost2010Prop57
140
1.0
102
RTVSPost2010PropOp57
 70
     1
  0
XRECORD
  5
1B4
102
{ACAD_REACTORS
330
1B3
102
}
330
1B3
100
AcDbXrecord
280
     1
102
RTVSPost2010Prop28
280
     0
102
RTVSPost2010PropOp28
 70
     1
102
RTVSPost2010Prop29
280
     1
102
RTVSPost2010PropOp29
 70
     1
102
RTVSPost2010Prop30
280
     1
102
RTVSPost2010PropOp30
 70
     1
102
RTVSPost2010Prop31
280
     0
102
RTVSPost2010PropOp31
 70
     1
102
RTVSPost2010Prop32
280
     0
102
RTVSPost2010PropOp32
 70
     1
102
RTVSPost2010Prop33
280
     0
102
RTVSPost2010PropOp33
 70
     1
102
RTVSPost2010Prop34
280
     0
102
RTVSPost2010PropOp34
 70
     1
102
RTVSPost2010Prop35
280
     0
102
RTVSPost2010PropOp35
 70
     1
102
RTVSPost2010Prop36
280
     0
102
RTVSPost2010PropOp36
 70
     1
102
RTVSPost2010Prop37
 90
       50
102
RTVSPost2010PropOp37
 70
     1
102
RTVSPost2010Prop38
140
0.0
102
RTVSPost2010PropOp38
 70
     1
102
RTVSPost2010Prop39
140
1.0
102
RTVSPost2010PropOp39
 70
     1
102
RTVSPost2010Prop40
 90
        0
102
RTVSPost2010PropOp40
 70
     1
102
RTVSPost2010Prop41ColorIndex
 90
       18
102
RTVSPost2010Prop41ColorRGB
 90
        0
102
RTVSPost2010PropOp41
 70
     1
102
RTVSPost2010Prop42
 90
       50
102
RTVSPost2010PropOp42
 70
     1
102
RTVSPost2010Prop43
 90
        3
102
RTVSPost2010PropOp43
 70
     1
102
RTVSPost2010Prop44ColorIndex
 90
        5
102
RTVSPost2010Prop44ColorRGB
 90
      255
102
RTVSPost2010PropOp44
 70
     1
102
RTVSPost2010Prop45
280
     0
102
RTVSPost2010PropOp45
 70
     1
102
RTVSPost2010Prop46
 90
       50
102
RTVSPost2010PropOp46
 70
     1
102
RTVSPost2010Prop47
 90
       50
102
RTVSPost2010PropOp47
 70
     1
102
RTVSPost2010Prop48
 90
       50
102
RTVSPost2010PropOp48
 70
     1
102
RTVSPost2010Prop49
280
     0
102
RTVSPost2010PropOp49
 70
     1
102
RTVSPost2010Prop50
 90
       50
102
RTVSPost2010PropOp50
 70
     1
102
RTVSPost2010Prop51ColorIndex
 90
      256
102
RTVSPost2010Prop51ColorRGB
 90
-16777216
102
RTVSPost2010PropOp51
 70
     0
102
RTVSPost2010Prop52
140
1.0
102
RTVSPost2010PropOp52
 70
     0
102
RTVSPost2010Prop53
 90
        2
102
RTVSPost2010PropOp53
 70
     1
102
RTVSPost2010Prop54
  1
strokes_ogs.tif
102
RTVSPost2010PropOp54
 70
     1
102
RTVSPost2010Prop55
280
     0
102
RTVSPost2010PropOp55
 70
     1
102
RTVSPost2010Prop56
140
1.0
102
RTVSPost2010PropOp56
 70
     1
102
RTVSPost2010Prop57
140
1.0
102
RTVSPost2010PropOp57
 70
     1
  0
XRECORD
  5
1BC
102
{ACAD_REACTORS
330
1BB
102
}
330
1BB
100
AcDbXrecord
280
     1
102
RTVSPost2010Prop28
280
     0
102
RTVSPost2010PropOp28
 70
     1
102
RTVSPost2010Prop29
280
     1
102
RTVSPost2010PropOp29
 70
     1
102
RTVSPost2010Prop30
280
     1
102
RTVSPost2010PropOp30
 70
     1
102
RTVSPost2010Prop31
280
     0
102
RTVSPost2010PropOp31
 70
     1
102
RTVSPost2010Prop32
280
     0
102
RTVSPost2010PropOp32
 70
     1
102
RTVSPost2010Prop33
280
     0
102
RTVSPost2010PropOp33
 70
     1
102
RTVSPost2010Prop34
280
     0
102
RTVSPost2010PropOp34
 70
     1
102
RTVSPost2010Prop35
280
     0
102
RTVSPost2010PropOp35
 70
     1
102
RTVSPost2010Prop36
280
     0
102
RTVSPost2010PropOp36
 70
     1
102
RTVSPost2010Prop37
 90
       50
102
RTVSPost2010PropOp37
 70
     1
102
RTVSPost2010Prop38
140
0.0
102
RTVSPost2010PropOp38
 70
     1
102
RTVSPost2010Prop39
140
1.0
102
RTVSPost2010PropOp39
 70
     1
102
RTVSPost2010Prop40
 90
        0
102
RTVSPost2010PropOp40
 70
     1
102
RTVSPost2010Prop41ColorIndex
 90
       18
102
RTVSPost2010Prop41ColorRGB
 90
        0
102
RTVSPost2010PropOp41
 70
     1
102
RTVSPost2010Prop42
 90
       50
102
RTVSPost2010PropOp42
 70
     1
102
RTVSPost2010Prop43
 90
        3
102
RTVSPost2010PropOp43
 70
     1
102
RTVSPost2010Prop44ColorIndex
 90
        5
102
RTVSPost2010Prop44ColorRGB
 90
      255
102
RTVSPost2010PropOp44
 70
     1
102
RTVSPost2010Prop45
280
     0
102
RTVSPost2010PropOp45
 70
     1
102
RTVSPost2010Prop46
 90
       50
102
RTVSPost2010PropOp46
 70
     1
102
RTVSPost2010Prop47
 90
       50
102
RTVSPost2010PropOp47
 70
     1
102
RTVSPost2010Prop48
 90
       50
102
RTVSPost2010PropOp48
 70
     1
102
RTVSPost2010Prop49
280
     0
102
RTVSPost2010PropOp49
 70
     1
102
RTVSPost2010Prop50
 90
       50
102
RTVSPost2010PropOp50
 70
     1
102
RTVSPost2010Prop51ColorIndex
 90
      256
102
RTVSPost2010Prop51ColorRGB
 90
-16777216
102
RTVSPost2010PropOp51
 70
     0
102
RTVSPost2010Prop52
140
1.0
102
RTVSPost2010PropOp52
 70
     0
102
RTVSPost2010Prop53
 90
        2
102
RTVSPost2010PropOp53
 70
     1
102
RTVSPost2010Prop54
  1
strokes_ogs.tif
102
RTVSPost2010PropOp54
 70
     1
102
RTVSPost2010Prop55
280
     0
102
RTVSPost2010PropOp55
 70
     1
102
RTVSPost2010Prop56
140
1.0
102
RTVSPost2010PropOp56
 70
     1
102
RTVSPost2010Prop57
140
1.0
102
RTVSPost2010PropOp57
 70
     1
  0
XRECORD
  5
1AE
102
{ACAD_REACTORS
330
1AD
102
}
330
1AD
100
AcDbXrecord
280
     1
102
RTVSPost2010Prop28
280
     0
102
RTVSPost2010PropOp28
 70
     1
102
RTVSPost2010Prop29
280
     1
102
RTVSPost2010PropOp29
 70
     1
102
RTVSPost2010Prop30
280
     1
102
RTVSPost2010PropOp30
 70
     1
102
RTVSPost2010Prop31
280
     0
102
RTVSPost2010PropOp31
 70
     1
102
RTVSPost2010Prop32
280
     0
102
RTVSPost2010PropOp32
 70
     1
102
RTVSPost2010Prop33
280
     0
102
RTVSPost2010PropOp33
 70
     1
102
RTVSPost2010Prop34
280
     0
102
RTVSPost2010PropOp34
 70
     1
102
RTVSPost2010Prop35
280
     0
102
RTVSPost2010PropOp35
 70
     1
102
RTVSPost2010Prop36
280
     0
102
RTVSPost2010PropOp36
 70
     1
102
RTVSPost2010Prop37
 90
       50
102
RTVSPost2010PropOp37
 70
     1
102
RTVSPost2010Prop38
140
0.0
102
RTVSPost2010PropOp38
 70
     1
102
RTVSPost2010Prop39
140
1.0
102
RTVSPost2010PropOp39
 70
     1
102
RTVSPost2010Prop40
 90
        0
102
RTVSPost2010PropOp40
 70
     1
102
RTVSPost2010Prop41ColorIndex
 90
       18
102
RTVSPost2010Prop41ColorRGB
 90
        0
102
RTVSPost2010PropOp41
 70
     1
102
RTVSPost2010Prop42
 90
       50
102
RTVSPost2010PropOp42
 70
     1
102
RTVSPost2010Prop43
 90
        3
102
RTVSPost2010PropOp43
 70
     1
102
RTVSPost2010Prop44ColorIndex
 90
        5
102
RTVSPost2010Prop44ColorRGB
 90
      255
102
RTVSPost2010PropOp44
 70
     1
102
RTVSPost2010Prop45
280
     0
102
RTVSPost2010PropOp45
 70
     1
102
RTVSPost2010Prop46
 90
       50
102
RTVSPost2010PropOp46
 70
     1
102
RTVSPost2010Prop47
 90
       50
102
RTVSPost2010PropOp47
 70
     1
102
RTVSPost2010Prop48
 90
       50
102
RTVSPost2010PropOp48
 70
     1
102
RTVSPost2010Prop49
280
     0
102
RTVSPost2010PropOp49
 70
     1
102
RTVSPost2010Prop50
 90
       50
102
RTVSPost2010PropOp50
 70
     1
102
RTVSPost2010Prop51ColorIndex
 90
      256
102
RTVSPost2010Prop51ColorRGB
 90
-16777216
102
RTVSPost2010PropOp51
 70
     0
102
RTVSPost2010Prop52
140
1.0
102
RTVSPost2010PropOp52
 70
     0
102
RTVSPost2010Prop53
 90
        2
102
RTVSPost2010PropOp53
 70
     1
102
RTVSPost2010Prop54
  1
strokes_ogs.tif
102
RTVSPost2010PropOp54
 70
     1
102
RTVSPost2010Prop55
280
     0
102
RTVSPost2010PropOp55
 70
     1
102
RTVSPost2010Prop56
140
1.0
102
RTVSPost2010PropOp56
 70
     1
102
RTVSPost2010Prop57
140
1.0
102
RTVSPost2010PropOp57
 70
     1
  0
XRECORD
  5
1B2
102
{ACAD_REACTORS
330
1B1
102
}
330
1B1
100
AcDbXrecord
280
     1
102
RTVSPost2010Prop28
280
     0
102
RTVSPost2010PropOp28
 70
     1
102
RTVSPost2010Prop29
280
     1
102
RTVSPost2010PropOp29
 70
     1
102
RTVSPost2010Prop30
280
     1
102
RTVSPost2010PropOp30
 70
     1
102
RTVSPost2010Prop31
280
     0
102
RTVSPost2010PropOp31
 70
     1
102
RTVSPost2010Prop32
280
     0
102
RTVSPost2010PropOp32
 70
     1
102
RTVSPost2010Prop33
280
     0
102
RTVSPost2010PropOp33
 70
     1
102
RTVSPost2010Prop34
280
     0
102
RTVSPost2010PropOp34
 70
     1
102
RTVSPost2010Prop35
280
     0
102
RTVSPost2010PropOp35
 70
     1
102
RTVSPost2010Prop36
280
     0
102
RTVSPost2010PropOp36
 70
     1
102
RTVSPost2010Prop37
 90
       50
102
RTVSPost2010PropOp37
 70
     1
102
RTVSPost2010Prop38
140
0.0
102
RTVSPost2010PropOp38
 70
     1
102
RTVSPost2010Prop39
140
1.0
102
RTVSPost2010PropOp39
 70
     1
102
RTVSPost2010Prop40
 90
        0
102
RTVSPost2010PropOp40
 70
     1
102
RTVSPost2010Prop41ColorIndex
 90
       18
102
RTVSPost2010Prop41ColorRGB
 90
        0
102
RTVSPost2010PropOp41
 70
     1
102
RTVSPost2010Prop42
 90
       50
102
RTVSPost2010PropOp42
 70
     1
102
RTVSPost2010Prop43
 90
        3
102
RTVSPost2010PropOp43
 70
     1
102
RTVSPost2010Prop44ColorIndex
 90
        5
102
RTVSPost2010Prop44ColorRGB
 90
      255
102
RTVSPost2010PropOp44
 70
     1
102
RTVSPost2010Prop45
280
     0
102
RTVSPost2010PropOp45
 70
     1
102
RTVSPost2010Prop46
 90
       50
102
RTVSPost2010PropOp46
 70
     1
102
RTVSPost2010Prop47
 90
       50
102
RTVSPost2010PropOp47
 70
     1
102
RTVSPost2010Prop48
 90
       50
102
RTVSPost2010PropOp48
 70
     1
102
RTVSPost2010Prop49
280
     0
102
RTVSPost2010PropOp49
 70
     1
102
RTVSPost2010Prop50
 90
       50
102
RTVSPost2010PropOp50
 70
     1
102
RTVSPost2010Prop51ColorIndex
 90
      256
102
RTVSPost2010Prop51ColorRGB
 90
-16777216
102
RTVSPost2010PropOp51
 70
     0
102
RTVSPost2010Prop52
140
1.0
102
RTVSPost2010PropOp52
 70
     0
102
RTVSPost2010Prop53
 90
        2
102
RTVSPost2010PropOp53
 70
     1
102
RTVSPost2010Prop54
  1
strokes_ogs.tif
102
RTVSPost2010PropOp54
 70
     1
102
RTVSPost2010Prop55
280
     0
102
RTVSPost2010PropOp55
 70
     1
102
RTVSPost2010Prop56
140
1.0
102
RTVSPost2010PropOp56
 70
     1
102
RTVSPost2010Prop57
140
1.0
102
RTVSPost2010PropOp57
 70
     1
  0
XRECORD
  5
1CC
102
{ACAD_REACTORS
330
1CB
102
}
330
1CB
100
AcDbXrecord
280
     1
102
RTVSPost2010Prop28
280
     0
102
RTVSPost2010PropOp28
 70
     0
102
RTVSPost2010Prop29
280
     1
102
RTVSPost2010PropOp29
 70
     0
102
RTVSPost2010Prop30
280
     1
102
RTVSPost2010PropOp30
 70
     0
102
RTVSPost2010Prop31
280
     0
102
RTVSPost2010PropOp31
 70
     0
102
RTVSPost2010Prop32
280
     0
102
RTVSPost2010PropOp32
 70
     0
102
RTVSPost2010Prop33
280
     0
102
RTVSPost2010PropOp33
 70
     0
102
RTVSPost2010Prop34
280
     0
102
RTVSPost2010PropOp34
 70
     0
102
RTVSPost2010Prop35
280
     0
102
RTVSPost2010PropOp35
 70
     0
102
RTVSPost2010Prop36
280
     0
102
RTVSPost2010PropOp36
 70
     0
102
RTVSPost2010Prop37
 90
       50
102
RTVSPost2010PropOp37
 70
     0
102
RTVSPost2010Prop38
140
0.0
102
RTVSPost2010PropOp38
 70
     0
102
RTVSPost2010Prop39
140
1.0
102
RTVSPost2010PropOp39
 70
     0
102
RTVSPost2010Prop40
 90
        0
102
RTVSPost2010PropOp40
 70
     0
102
RTVSPost2010Prop41ColorIndex
 90
       18
102
RTVSPost2010Prop41ColorRGB
 90
        0
102
RTVSPost2010PropOp41
 70
     0
102
RTVSPost2010Prop42
 90
       50
102
RTVSPost2010PropOp42
 70
     0
102
RTVSPost2010Prop43
 90
        3
102
RTVSPost2010PropOp43
 70
     0
102
RTVSPost2010Prop44ColorIndex
 90
        5
102
RTVSPost2010Prop44ColorRGB
 90
      255
102
RTVSPost2010PropOp44
 70
     0
102
RTVSPost2010Prop45
280
     0
102
RTVSPost2010PropOp45
 70
     0
102
RTVSPost2010Prop46
 90
       50
102
RTVSPost2010PropOp46
 70
     0
102
RTVSPost2010Prop47
 90
       50
102
RTVSPost2010PropOp47
 70
     0
102
RTVSPost2010Prop48
 90
       50
102
RTVSPost2010PropOp48
 70
     0
102
RTVSPost2010Prop49
280
     0
102
RTVSPost2010PropOp49
 70
     0
102
RTVSPost2010Prop50
 90
       50
102
RTVSPost2010PropOp50
 70
     0
102
RTVSPost2010Prop51ColorIndex
 90
      256
102
RTVSPost2010Prop51ColorRGB
 90
-16777216
102
RTVSPost2010PropOp51
 70
     0
102
RTVSPost2010Prop52
140
1.0
102
RTVSPost2010PropOp52
 70
     0
102
RTVSPost2010Prop53
 90
        2
102
RTVSPost2010PropOp53
 70
     0
102
RTVSPost2010Prop54
  1
strokes_ogs.tif
102
RTVSPost2010PropOp54
 70
     0
102
RTVSPost2010Prop55
280
     0
102
RTVSPost2010PropOp55
 70
     0
102
RTVSPost2010Prop56
140
1.0
102
RTVSPost2010PropOp56
 70
     0
102
RTVSPost2010Prop57
140
1.0
102
RTVSPost2010PropOp57
 70
     0
  0
XRECORD
  5
1BA
102
{ACAD_REACTORS
330
1B9
102
}
330
1B9
100
AcDbXrecord
280
     1
102
RTVSPost2010Prop28
280
     0
102
RTVSPost2010PropOp28
 70
     1
102
RTVSPost2010Prop29
280
     1
102
RTVSPost2010PropOp29
 70
     1
102
RTVSPost2010Prop30
280
     1
102
RTVSPost2010PropOp30
 70
     1
102
RTVSPost2010Prop31
280
     0
102
RTVSPost2010PropOp31
 70
     1
102
RTVSPost2010Prop32
280
     0
102
RTVSPost2010PropOp32
 70
     1
102
RTVSPost2010Prop33
280
     0
102
RTVSPost2010PropOp33
 70
     1
102
RTVSPost2010Prop34
280
     0
102
RTVSPost2010PropOp34
 70
     1
102
RTVSPost2010Prop35
280
     0
102
RTVSPost2010PropOp35
 70
     1
102
RTVSPost2010Prop36
280
     0
102
RTVSPost2010PropOp36
 70
     1
102
RTVSPost2010Prop37
 90
       50
102
RTVSPost2010PropOp37
 70
     1
102
RTVSPost2010Prop38
140
0.0
102
RTVSPost2010PropOp38
 70
     1
102
RTVSPost2010Prop39
140
1.0
102
RTVSPost2010PropOp39
 70
     1
102
RTVSPost2010Prop40
 90
        0
102
RTVSPost2010PropOp40
 70
     1
102
RTVSPost2010Prop41ColorIndex
 90
       18
102
RTVSPost2010Prop41ColorRGB
 90
        0
102
RTVSPost2010PropOp41
 70
     1
102
RTVSPost2010Prop42
 90
       50
102
RTVSPost2010PropOp42
 70
     1
102
RTVSPost2010Prop43
 90
        3
102
RTVSPost2010PropOp43
 70
     1
102
RTVSPost2010Prop44ColorIndex
 90
        5
102
RTVSPost2010Prop44ColorRGB
 90
      255
102
RTVSPost2010PropOp44
 70
     1
102
RTVSPost2010Prop45
280
     0
102
RTVSPost2010PropOp45
 70
     1
102
RTVSPost2010Prop46
 90
       50
102
RTVSPost2010PropOp46
 70
     1
102
RTVSPost2010Prop47
 90
       50
102
RTVSPost2010PropOp47
 70
     1
102
RTVSPost2010Prop48
 90
       50
102
RTVSPost2010PropOp48
 70
     1
102
RTVSPost2010Prop49
280
     0
102
RTVSPost2010PropOp49
 70
     1
102
RTVSPost2010Prop50
 90
       50
102
RTVSPost2010PropOp50
 70
     1
102
RTVSPost2010Prop51ColorIndex
 90
      256
102
RTVSPost2010Prop51ColorRGB
 90
-16777216
102
RTVSPost2010PropOp51
 70
     0
102
RTVSPost2010Prop52
140
1.0
102
RTVSPost2010PropOp52
 70
     0
102
RTVSPost2010Prop53
 90
        2
102
RTVSPost2010PropOp53
 70
     1
102
RTVSPost2010Prop54
  1
strokes_ogs.tif
102
RTVSPost2010PropOp54
 70
     1
102
RTVSPost2010Prop55
280
     0
102
RTVSPost2010PropOp55
 70
     1
102
RTVSPost2010Prop56
140
1.0
102
RTVSPost2010PropOp56
 70
     1
102
RTVSPost2010Prop57
140
1.0
102
RTVSPost2010PropOp57
 70
     1
  0
XRECORD
  5
19E
102
{ACAD_REACTORS
330
19D
102
}
330
19D
100
AcDbXrecord
280
     1
102
RTVSPost2010Prop28
280
     0
102
RTVSPost2010PropOp28
 70
     1
102
RTVSPost2010Prop29
280
     1
102
RTVSPost2010PropOp29
 70
     1
102
RTVSPost2010Prop30
280
     1
102
RTVSPost2010PropOp30
 70
     1
102
RTVSPost2010Prop31
280
     0
102
RTVSPost2010PropOp31
 70
     1
102
RTVSPost2010Prop32
280
     0
102
RTVSPost2010PropOp32
 70
     1
102
RTVSPost2010Prop33
280
     0
102
RTVSPost2010PropOp33
 70
     1
102
RTVSPost2010Prop34
280
     0
102
RTVSPost2010PropOp34
 70
     1
102
RTVSPost2010Prop35
280
     0
102
RTVSPost2010PropOp35
 70
     1
102
RTVSPost2010Prop36
280
     0
102
RTVSPost2010PropOp36
 70
     1
102
RTVSPost2010Prop37
 90
       50
102
RTVSPost2010PropOp37
 70
     1
102
RTVSPost2010Prop38
140
0.0
102
RTVSPost2010PropOp38
 70
     1
102
RTVSPost2010Prop39
140
1.0
102
RTVSPost2010PropOp39
 70
     1
102
RTVSPost2010Prop40
 90
        0
102
RTVSPost2010PropOp40
 70
     1
102
RTVSPost2010Prop41ColorIndex
 90
       18
102
RTVSPost2010Prop41ColorRGB
 90
        0
102
RTVSPost2010PropOp41
 70
     1
102
RTVSPost2010Prop42
 90
       50
102
RTVSPost2010PropOp42
 70
     1
102
RTVSPost2010Prop43
 90
        3
102
RTVSPost2010PropOp43
 70
     1
102
RTVSPost2010Prop44ColorIndex
 90
        5
102
RTVSPost2010Prop44ColorRGB
 90
      255
102
RTVSPost2010PropOp44
 70
     1
102
RTVSPost2010Prop45
280
     0
102
RTVSPost2010PropOp45
 70
     1
102
RTVSPost2010Prop46
 90
       50
102
RTVSPost2010PropOp46
 70
     1
102
RTVSPost2010Prop47
 90
       50
102
RTVSPost2010PropOp47
 70
     1
102
RTVSPost2010Prop48
 90
       50
102
RTVSPost2010PropOp48
 70
     1
102
RTVSPost2010Prop49
280
     0
102
RTVSPost2010PropOp49
 70
     1
102
RTVSPost2010Prop50
 90
       50
102
RTVSPost2010PropOp50
 70
     1
102
RTVSPost2010Prop51ColorIndex
 90
      256
102
RTVSPost2010Prop51ColorRGB
 90
-16777216
102
RTVSPost2010PropOp51
 70
     0
102
RTVSPost2010Prop52
140
1.0
102
RTVSPost2010PropOp52
 70
     0
102
RTVSPost2010Prop53
 90
        2
102
RTVSPost2010PropOp53
 70
     1
102
RTVSPost2010Prop54
  1
strokes_ogs.tif
102
RTVSPost2010PropOp54
 70
     1
102
RTVSPost2010Prop55
280
     0
102
RTVSPost2010PropOp55
 70
     1
102
RTVSPost2010Prop56
140
1.0
102
RTVSPost2010PropOp56
 70
     1
102
RTVSPost2010Prop57
140
1.0
102
RTVSPost2010PropOp57
 70
     1
  0
XRECORD
  5
1A0
102
{ACAD_REACTORS
330
19F
102
}
330
19F
100
AcDbXrecord
280
     1
102
RTVSPost2010Prop28
280
     0
102
RTVSPost2010PropOp28
 70
     1
102
RTVSPost2010Prop29
280
     1
102
RTVSPost2010PropOp29
 70
     1
102
RTVSPost2010Prop30
280
     1
102
RTVSPost2010PropOp30
 70
     1
102
RTVSPost2010Prop31
280
     0
102
RTVSPost2010PropOp31
 70
     1
102
RTVSPost2010Prop32
280
     0
102
RTVSPost2010PropOp32
 70
     1
102
RTVSPost2010Prop33
280
     0
102
RTVSPost2010PropOp33
 70
     1
102
RTVSPost2010Prop34
280
     0
102
RTVSPost2010PropOp34
 70
     1
102
RTVSPost2010Prop35
280
     0
102
RTVSPost2010PropOp35
 70
     1
102
RTVSPost2010Prop36
280
     0
102
RTVSPost2010PropOp36
 70
     1
102
RTVSPost2010Prop37
 90
       50
102
RTVSPost2010PropOp37
 70
     1
102
RTVSPost2010Prop38
140
0.0
102
RTVSPost2010PropOp38
 70
     1
102
RTVSPost2010Prop39
140
1.0
102
RTVSPost2010PropOp39
 70
     1
102
RTVSPost2010Prop40
 90
        0
102
RTVSPost2010PropOp40
 70
     1
102
RTVSPost2010Prop41ColorIndex
 90
       18
102
RTVSPost2010Prop41ColorRGB
 90
        0
102
RTVSPost2010PropOp41
 70
     1
102
RTVSPost2010Prop42
 90
       50
102
RTVSPost2010PropOp42
 70
     1
102
RTVSPost2010Prop43
 90
        3
102
RTVSPost2010PropOp43
 70
     1
102
RTVSPost2010Prop44ColorIndex
 90
        5
102
RTVSPost2010Prop44ColorRGB
 90
      255
102
RTVSPost2010PropOp44
 70
     1
102
RTVSPost2010Prop45
280
     0
102
RTVSPost2010PropOp45
 70
     1
102
RTVSPost2010Prop46
 90
       50
102
RTVSPost2010PropOp46
 70
     1
102
RTVSPost2010Prop47
 90
       50
102
RTVSPost2010PropOp47
 70
     1
102
RTVSPost2010Prop48
 90
       50
102
RTVSPost2010PropOp48
 70
     1
102
RTVSPost2010Prop49
280
     0
102
RTVSPost2010PropOp49
 70
     1
102
RTVSPost2010Prop50
 90
       50
102
RTVSPost2010PropOp50
 70
     1
102
RTVSPost2010Prop51ColorIndex
 90
      256
102
RTVSPost2010Prop51ColorRGB
 90
-16777216
102
RTVSPost2010PropOp51
 70
     0
102
RTVSPost2010Prop52
140
1.0
102
RTVSPost2010PropOp52
 70
     0
102
RTVSPost2010Prop53
 90
        2
102
RTVSPost2010PropOp53
 70
     1
102
RTVSPost2010Prop54
  1
strokes_ogs.tif
102
RTVSPost2010PropOp54
 70
     1
102
RTVSPost2010Prop55
280
     0
102
RTVSPost2010PropOp55
 70
     1
102
RTVSPost2010Prop56
140
1.0
102
RTVSPost2010PropOp56
 70
     1
102
RTVSPost2010Prop57
140
1.0
102
RTVSPost2010PropOp57
 70
     1
  0
XRECORD
  5
1A2
102
{ACAD_REACTORS
330
1A1
102
}
330
1A1
100
AcDbXrecord
280
     1
102
RTVSPost2010Prop28
280
     0
102
RTVSPost2010PropOp28
 70
     1
102
RTVSPost2010Prop29
280
     1
102
RTVSPost2010PropOp29
 70
     1
102
RTVSPost2010Prop30
280
     1
102
RTVSPost2010PropOp30
 70
     1
102
RTVSPost2010Prop31
280
     0
102
RTVSPost2010PropOp31
 70
     1
102
RTVSPost2010Prop32
280
     0
102
RTVSPost2010PropOp32
 70
     1
102
RTVSPost2010Prop33
280
     0
102
RTVSPost2010PropOp33
 70
     1
102
RTVSPost2010Prop34
280
     0
102
RTVSPost2010PropOp34
 70
     1
102
RTVSPost2010Prop35
280
     0
102
RTVSPost2010PropOp35
 70
     1
102
RTVSPost2010Prop36
280
     0
102
RTVSPost2010PropOp36
 70
     1
102
RTVSPost2010Prop37
 90
       50
102
RTVSPost2010PropOp37
 70
     1
102
RTVSPost2010Prop38
140
0.0
102
RTVSPost2010PropOp38
 70
     1
102
RTVSPost2010Prop39
140
1.0
102
RTVSPost2010PropOp39
 70
     1
102
RTVSPost2010Prop40
 90
        0
102
RTVSPost2010PropOp40
 70
     1
102
RTVSPost2010Prop41ColorIndex
 90
       18
102
RTVSPost2010Prop41ColorRGB
 90
        0
102
RTVSPost2010PropOp41
 70
     1
102
RTVSPost2010Prop42
 90
       50
102
RTVSPost2010PropOp42
 70
     1
102
RTVSPost2010Prop43
 90
        3
102
RTVSPost2010PropOp43
 70
     1
102
RTVSPost2010Prop44ColorIndex
 90
        5
102
RTVSPost2010Prop44ColorRGB
 90
      255
102
RTVSPost2010PropOp44
 70
     1
102
RTVSPost2010Prop45
280
     0
102
RTVSPost2010PropOp45
 70
     1
102
RTVSPost2010Prop46
 90
       50
102
RTVSPost2010PropOp46
 70
     1
102
RTVSPost2010Prop47
 90
       50
102
RTVSPost2010PropOp47
 70
     1
102
RTVSPost2010Prop48
 90
       50
102
RTVSPost2010PropOp48
 70
     1
102
RTVSPost2010Prop49
280
     0
102
RTVSPost2010PropOp49
 70
     1
102
RTVSPost2010Prop50
 90
       50
102
RTVSPost2010PropOp50
 70
     1
102
RTVSPost2010Prop51ColorIndex
 90
      256
102
RTVSPost2010Prop51ColorRGB
 90
-16777216
102
RTVSPost2010PropOp51
 70
     0
102
RTVSPost2010Prop52
140
1.0
102
RTVSPost2010PropOp52
 70
     0
102
RTVSPost2010Prop53
 90
        2
102
RTVSPost2010PropOp53
 70
     1
102
RTVSPost2010Prop54
  1
strokes_ogs.tif
102
RTVSPost2010PropOp54
 70
     1
102
RTVSPost2010Prop55
280
     0
102
RTVSPost2010PropOp55
 70
     1
102
RTVSPost2010Prop56
140
1.0
102
RTVSPost2010PropOp56
 70
     1
102
RTVSPost2010Prop57
140
1.0
102
RTVSPost2010PropOp57
 70
     1
  0
XRECORD
  5
1A4
102
{ACAD_REACTORS
330
1A3
102
}
330
1A3
100
AcDbXrecord
280
     1
102
RTVSPost2010Prop28
280
     0
102
RTVSPost2010PropOp28
 70
     1
102
RTVSPost2010Prop29
280
     1
102
RTVSPost2010PropOp29
 70
     1
102
RTVSPost2010Prop30
280
     1
102
RTVSPost2010PropOp30
 70
     1
102
RTVSPost2010Prop31
280
     0
102
RTVSPost2010PropOp31
 70
     1
102
RTVSPost2010Prop32
280
     0
102
RTVSPost2010PropOp32
 70
     1
102
RTVSPost2010Prop33
280
     0
102
RTVSPost2010PropOp33
 70
     1
102
RTVSPost2010Prop34
280
     0
102
RTVSPost2010PropOp34
 70
     1
102
RTVSPost2010Prop35
280
     0
102
RTVSPost2010PropOp35
 70
     1
102
RTVSPost2010Prop36
280
     0
102
RTVSPost2010PropOp36
 70
     1
102
RTVSPost2010Prop37
 90
       50
102
RTVSPost2010PropOp37
 70
     1
102
RTVSPost2010Prop38
140
0.0
102
RTVSPost2010PropOp38
 70
     1
102
RTVSPost2010Prop39
140
1.0
102
RTVSPost2010PropOp39
 70
     1
102
RTVSPost2010Prop40
 90
        0
102
RTVSPost2010PropOp40
 70
     1
102
RTVSPost2010Prop41ColorIndex
 90
       18
102
RTVSPost2010Prop41ColorRGB
 90
        0
102
RTVSPost2010PropOp41
 70
     1
102
RTVSPost2010Prop42
 90
       50
102
RTVSPost2010PropOp42
 70
     1
102
RTVSPost2010Prop43
 90
        3
102
RTVSPost2010PropOp43
 70
     1
102
RTVSPost2010Prop44ColorIndex
 90
        5
102
RTVSPost2010Prop44ColorRGB
 90
      255
102
RTVSPost2010PropOp44
 70
     1
102
RTVSPost2010Prop45
280
     0
102
RTVSPost2010PropOp45
 70
     1
102
RTVSPost2010Prop46
 90
       50
102
RTVSPost2010PropOp46
 70
     1
102
RTVSPost2010Prop47
 90
       50
102
RTVSPost2010PropOp47
 70
     1
102
RTVSPost2010Prop48
 90
       50
102
RTVSPost2010PropOp48
 70
     1
102
RTVSPost2010Prop49
280
     0
102
RTVSPost2010PropOp49
 70
     1
102
RTVSPost2010Prop50
 90
       50
102
RTVSPost2010PropOp50
 70
     1
102
RTVSPost2010Prop51ColorIndex
 90
      256
102
RTVSPost2010Prop51ColorRGB
 90
-16777216
102
RTVSPost2010PropOp51
 70
     0
102
RTVSPost2010Prop52
140
1.0
102
RTVSPost2010PropOp52
 70
     0
102
RTVSPost2010Prop53
 90
        2
102
RTVSPost2010PropOp53
 70
     1
102
RTVSPost2010Prop54
  1
strokes_ogs.tif
102
RTVSPost2010PropOp54
 70
     1
102
RTVSPost2010Prop55
280
     0
102
RTVSPost2010PropOp55
 70
     1
102
RTVSPost2010Prop56
140
1.0
102
RTVSPost2010PropOp56
 70
     1
102
RTVSPost2010Prop57
140
1.0
102
RTVSPost2010PropOp57
 70
     1
  0
XRECORD
  5
1AC
102
{ACAD_REACTORS
330
1AB
102
}
330
1AB
100
AcDbXrecord
280
     1
102
RTVSPost2010Prop28
280
     0
102
RTVSPost2010PropOp28
 70
     1
102
RTVSPost2010Prop29
280
     1
102
RTVSPost2010PropOp29
 70
     1
102
RTVSPost2010Prop30
280
     1
102
RTVSPost2010PropOp30
 70
     1
102
RTVSPost2010Prop31
280
     0
102
RTVSPost2010PropOp31
 70
     1
102
RTVSPost2010Prop32
280
     0
102
RTVSPost2010PropOp32
 70
     1
102
RTVSPost2010Prop33
280
     0
102
RTVSPost2010PropOp33
 70
     1
102
RTVSPost2010Prop34
280
     0
102
RTVSPost2010PropOp34
 70
     1
102
RTVSPost2010Prop35
280
     0
102
RTVSPost2010PropOp35
 70
     1
102
RTVSPost2010Prop36
280
     0
102
RTVSPost2010PropOp36
 70
     1
102
RTVSPost2010Prop37
 90
       50
102
RTVSPost2010PropOp37
 70
     1
102
RTVSPost2010Prop38
140
0.0
102
RTVSPost2010PropOp38
 70
     1
102
RTVSPost2010Prop39
140
1.0
102
RTVSPost2010PropOp39
 70
     1
102
RTVSPost2010Prop40
 90
        0
102
RTVSPost2010PropOp40
 70
     1
102
RTVSPost2010Prop41ColorIndex
 90
       18
102
RTVSPost2010Prop41ColorRGB
 90
        0
102
RTVSPost2010PropOp41
 70
     1
102
RTVSPost2010Prop42
 90
       50
102
RTVSPost2010PropOp42
 70
     1
102
RTVSPost2010Prop43
 90
        3
102
RTVSPost2010PropOp43
 70
     1
102
RTVSPost2010Prop44ColorIndex
 90
        5
102
RTVSPost2010Prop44ColorRGB
 90
      255
102
RTVSPost2010PropOp44
 70
     1
102
RTVSPost2010Prop45
280
     0
102
RTVSPost2010PropOp45
 70
     1
102
RTVSPost2010Prop46
 90
       50
102
RTVSPost2010PropOp46
 70
     1
102
RTVSPost2010Prop47
 90
       50
102
RTVSPost2010PropOp47
 70
     1
102
RTVSPost2010Prop48
 90
       50
102
RTVSPost2010PropOp48
 70
     1
102
RTVSPost2010Prop49
280
     0
102
RTVSPost2010PropOp49
 70
     1
102
RTVSPost2010Prop50
 90
       50
102
RTVSPost2010PropOp50
 70
     1
102
RTVSPost2010Prop51ColorIndex
 90
      256
102
RTVSPost2010Prop51ColorRGB
 90
-16777216
102
RTVSPost2010PropOp51
 70
     0
102
RTVSPost2010Prop52
140
1.0
102
RTVSPost2010PropOp52
 70
     0
102
RTVSPost2010Prop53
 90
        2
102
RTVSPost2010PropOp53
 70
     1
102
RTVSPost2010Prop54
  1
strokes_ogs.tif
102
RTVSPost2010PropOp54
 70
     1
102
RTVSPost2010Prop55
280
     0
102
RTVSPost2010PropOp55
 70
     1
102
RTVSPost2010Prop56
140
1.0
102
RTVSPost2010PropOp56
 70
     1
102
RTVSPost2010Prop57
140
1.0
102
RTVSPost2010PropOp57
 70
     1
  0
XRECORD
  5
1C8
102
{ACAD_REACTORS
330
1C7
102
}
330
1C7
100
AcDbXrecord
280
     1
102
RTVSPost2010Prop28
280
     0
102
RTVSPost2010PropOp28
 70
     0
102
RTVSPost2010Prop29
280
     1
102
RTVSPost2010PropOp29
 70
     0
102
RTVSPost2010Prop30
280
     1
102
RTVSPost2010PropOp30
 70
     0
102
RTVSPost2010Prop31
280
     0
102
RTVSPost2010PropOp31
 70
     0
102
RTVSPost2010Prop32
280
     0
102
RTVSPost2010PropOp32
 70
     0
102
RTVSPost2010Prop33
280
     0
102
RTVSPost2010PropOp33
 70
     0
102
RTVSPost2010Prop34
280
     0
102
RTVSPost2010PropOp34
 70
     0
102
RTVSPost2010Prop35
280
     0
102
RTVSPost2010PropOp35
 70
     0
102
RTVSPost2010Prop36
280
     0
102
RTVSPost2010PropOp36
 70
     0
102
RTVSPost2010Prop37
 90
       50
102
RTVSPost2010PropOp37
 70
     0
102
RTVSPost2010Prop38
140
0.0
102
RTVSPost2010PropOp38
 70
     0
102
RTVSPost2010Prop39
140
1.0
102
RTVSPost2010PropOp39
 70
     0
102
RTVSPost2010Prop40
 90
        0
102
RTVSPost2010PropOp40
 70
     0
102
RTVSPost2010Prop41ColorIndex
 90
       18
102
RTVSPost2010Prop41ColorRGB
 90
        0
102
RTVSPost2010PropOp41
 70
     0
102
RTVSPost2010Prop42
 90
       50
102
RTVSPost2010PropOp42
 70
     0
102
RTVSPost2010Prop43
 90
        3
102
RTVSPost2010PropOp43
 70
     0
102
RTVSPost2010Prop44ColorIndex
 90
        5
102
RTVSPost2010Prop44ColorRGB
 90
      255
102
RTVSPost2010PropOp44
 70
     0
102
RTVSPost2010Prop45
280
     0
102
RTVSPost2010PropOp45
 70
     0
102
RTVSPost2010Prop46
 90
       50
102
RTVSPost2010PropOp46
 70
     0
102
RTVSPost2010Prop47
 90
       50
102
RTVSPost2010PropOp47
 70
     0
102
RTVSPost2010Prop48
 90
       50
102
RTVSPost2010PropOp48
 70
     0
102
RTVSPost2010Prop49
280
     0
102
RTVSPost2010PropOp49
 70
     0
102
RTVSPost2010Prop50
 90
       50
102
RTVSPost2010PropOp50
 70
     0
102
RTVSPost2010Prop51ColorIndex
 90
      256
102
RTVSPost2010Prop51ColorRGB
 90
-16777216
102
RTVSPost2010PropOp51
 70
     0
102
RTVSPost2010Prop52
140
1.0
102
RTVSPost2010PropOp52
 70
     0
102
RTVSPost2010Prop53
 90
        2
102
RTVSPost2010PropOp53
 70
     0
102
RTVSPost2010Prop54
  1
strokes_ogs.tif
102
RTVSPost2010PropOp54
 70
     0
102
RTVSPost2010Prop55
280
     0
102
RTVSPost2010PropOp55
 70
     0
102
RTVSPost2010Prop56
140
1.0
102
RTVSPost2010PropOp56
 70
     0
102
RTVSPost2010Prop57
140
1.0
102
RTVSPost2010PropOp57
 70
     0
  0
XRECORD
  5
1B8
102
{ACAD_REACTORS
330
1B7
102
}
330
1B7
100
AcDbXrecord
280
     1
102
RTVSPost2010Prop28
280
     0
102
RTVSPost2010PropOp28
 70
     1
102
RTVSPost2010Prop29
280
     1
102
RTVSPost2010PropOp29
 70
     1
102
RTVSPost2010Prop30
280
     1
102
RTVSPost2010PropOp30
 70
     1
102
RTVSPost2010Prop31
280
     0
102
RTVSPost2010PropOp31
 70
     1
102
RTVSPost2010Prop32
280
     0
102
RTVSPost2010PropOp32
 70
     1
102
RTVSPost2010Prop33
280
     0
102
RTVSPost2010PropOp33
 70
     1
102
RTVSPost2010Prop34
280
     0
102
RTVSPost2010PropOp34
 70
     1
102
RTVSPost2010Prop35
280
     0
102
RTVSPost2010PropOp35
 70
     1
102
RTVSPost2010Prop36
280
     0
102
RTVSPost2010PropOp36
 70
     1
102
RTVSPost2010Prop37
 90
       50
102
RTVSPost2010PropOp37
 70
     1
102
RTVSPost2010Prop38
140
0.0
102
RTVSPost2010PropOp38
 70
     1
102
RTVSPost2010Prop39
140
1.0
102
RTVSPost2010PropOp39
 70
     1
102
RTVSPost2010Prop40
 90
        0
102
RTVSPost2010PropOp40
 70
     1
102
RTVSPost2010Prop41ColorIndex
 90
       18
102
RTVSPost2010Prop41ColorRGB
 90
        0
102
RTVSPost2010PropOp41
 70
     1
102
RTVSPost2010Prop42
 90
       50
102
RTVSPost2010PropOp42
 70
     1
102
RTVSPost2010Prop43
 90
        3
102
RTVSPost2010PropOp43
 70
     1
102
RTVSPost2010Prop44ColorIndex
 90
        5
102
RTVSPost2010Prop44ColorRGB
 90
      255
102
RTVSPost2010PropOp44
 70
     1
102
RTVSPost2010Prop45
280
     0
102
RTVSPost2010PropOp45
 70
     1
102
RTVSPost2010Prop46
 90
       50
102
RTVSPost2010PropOp46
 70
     1
102
RTVSPost2010Prop47
 90
       50
102
RTVSPost2010PropOp47
 70
     1
102
RTVSPost2010Prop48
 90
       50
102
RTVSPost2010PropOp48
 70
     1
102
RTVSPost2010Prop49
280
     0
102
RTVSPost2010PropOp49
 70
     1
102
RTVSPost2010Prop50
 90
       50
102
RTVSPost2010PropOp50
 70
     1
102
RTVSPost2010Prop51ColorIndex
 90
      256
102
RTVSPost2010Prop51ColorRGB
 90
-16777216
102
RTVSPost2010PropOp51
 70
     0
102
RTVSPost2010Prop52
140
1.0
102
RTVSPost2010PropOp52
 70
     0
102
RTVSPost2010Prop53
 90
        2
102
RTVSPost2010PropOp53
 70
     1
102
RTVSPost2010Prop54
  1
strokes_ogs.tif
102
RTVSPost2010PropOp54
 70
     1
102
RTVSPost2010Prop55
280
     0
102
RTVSPost2010PropOp55
 70
     1
102
RTVSPost2010Prop56
140
1.0
102
RTVSPost2010PropOp56
 70
     1
102
RTVSPost2010Prop57
140
1.0
102
RTVSPost2010PropOp57
 70
     1
  0
XRECORD
  5
1CA
102
{ACAD_REACTORS
330
1C9
102
}
330
1C9
100
AcDbXrecord
280
     1
102
RTVSPost2010Prop28
280
     0
102
RTVSPost2010PropOp28
 70
     0
102
RTVSPost2010Prop29
280
     1
102
RTVSPost2010PropOp29
 70
     0
102
RTVSPost2010Prop30
280
     1
102
RTVSPost2010PropOp30
 70
     0
102
RTVSPost2010Prop31
280
     0
102
RTVSPost2010PropOp31
 70
     0
102
RTVSPost2010Prop32
280
     0
102
RTVSPost2010PropOp32
 70
     0
102
RTVSPost2010Prop33
280
     0
102
RTVSPost2010PropOp33
 70
     0
102
RTVSPost2010Prop34
280
     0
102
RTVSPost2010PropOp34
 70
     0
102
RTVSPost2010Prop35
280
     0
102
RTVSPost2010PropOp35
 70
     0
102
RTVSPost2010Prop36
280
     0
102
RTVSPost2010PropOp36
 70
     0
102
RTVSPost2010Prop37
 90
       50
102
RTVSPost2010PropOp37
 70
     0
102
RTVSPost2010Prop38
140
0.0
102
RTVSPost2010PropOp38
 70
     0
102
RTVSPost2010Prop39
140
1.0
102
RTVSPost2010PropOp39
 70
     0
102
RTVSPost2010Prop40
 90
        0
102
RTVSPost2010PropOp40
 70
     0
102
RTVSPost2010Prop41ColorIndex
 90
       18
102
RTVSPost2010Prop41ColorRGB
 90
        0
102
RTVSPost2010PropOp41
 70
     0
102
RTVSPost2010Prop42
 90
       50
102
RTVSPost2010PropOp42
 70
     0
102
RTVSPost2010Prop43
 90
        3
102
RTVSPost2010PropOp43
 70
     0
102
RTVSPost2010Prop44ColorIndex
 90
        5
102
RTVSPost2010Prop44ColorRGB
 90
      255
102
RTVSPost2010PropOp44
 70
     0
102
RTVSPost2010Prop45
280
     0
102
RTVSPost2010PropOp45
 70
     0
102
RTVSPost2010Prop46
 90
       50
102
RTVSPost2010PropOp46
 70
     0
102
RTVSPost2010Prop47
 90
       50
102
RTVSPost2010PropOp47
 70
     0
102
RTVSPost2010Prop48
 90
       50
102
RTVSPost2010PropOp48
 70
     0
102
RTVSPost2010Prop49
280
     0
102
RTVSPost2010PropOp49
 70
     0
102
RTVSPost2010Prop50
 90
       50
102
RTVSPost2010PropOp50
 70
     0
102
RTVSPost2010Prop51ColorIndex
 90
      256
102
RTVSPost2010Prop51ColorRGB
 90
-16777216
102
RTVSPost2010PropOp51
 70
     0
102
RTVSPost2010Prop52
140
1.0
102
RTVSPost2010PropOp52
 70
     0
102
RTVSPost2010Prop53
 90
        2
102
RTVSPost2010PropOp53
 70
     0
102
RTVSPost2010Prop54
  1
strokes_ogs.tif
102
RTVSPost2010PropOp54
 70
     0
102
RTVSPost2010Prop55
280
     0
102
RTVSPost2010PropOp55
 70
     0
102
RTVSPost2010Prop56
140
1.0
102
RTVSPost2010PropOp56
 70
     0
102
RTVSPost2010Prop57
140
1.0
102
RTVSPost2010PropOp57
 70
     0
  0
XRECORD
  5
1B0
102
{ACAD_REACTORS
330
1AF
102
}
330
1AF
100
AcDbXrecord
280
     1
102
RTVSPost2010Prop28
280
     0
102
RTVSPost2010PropOp28
 70
     1
102
RTVSPost2010Prop29
280
     1
102
RTVSPost2010PropOp29
 70
     1
102
RTVSPost2010Prop30
280
     1
102
RTVSPost2010PropOp30
 70
     1
102
RTVSPost2010Prop31
280
     0
102
RTVSPost2010PropOp31
 70
     1
102
RTVSPost2010Prop32
280
     0
102
RTVSPost2010PropOp32
 70
     1
102
RTVSPost2010Prop33
280
     0
102
RTVSPost2010PropOp33
 70
     1
102
RTVSPost2010Prop34
280
     0
102
RTVSPost2010PropOp34
 70
     1
102
RTVSPost2010Prop35
280
     0
102
RTVSPost2010PropOp35
 70
     1
102
RTVSPost2010Prop36
280
     0
102
RTVSPost2010PropOp36
 70
     1
102
RTVSPost2010Prop37
 90
       50
102
RTVSPost2010PropOp37
 70
     1
102
RTVSPost2010Prop38
140
0.0
102
RTVSPost2010PropOp38
 70
     1
102
RTVSPost2010Prop39
140
1.0
102
RTVSPost2010PropOp39
 70
     1
102
RTVSPost2010Prop40
 90
        0
102
RTVSPost2010PropOp40
 70
     1
102
RTVSPost2010Prop41ColorIndex
 90
       18
102
RTVSPost2010Prop41ColorRGB
 90
        0
102
RTVSPost2010PropOp41
 70
     1
102
RTVSPost2010Prop42
 90
       50
102
RTVSPost2010PropOp42
 70
     1
102
RTVSPost2010Prop43
 90
        3
102
RTVSPost2010PropOp43
 70
     1
102
RTVSPost2010Prop44ColorIndex
 90
        5
102
RTVSPost2010Prop44ColorRGB
 90
      255
102
RTVSPost2010PropOp44
 70
     1
102
RTVSPost2010Prop45
280
     0
102
RTVSPost2010PropOp45
 70
     1
102
RTVSPost2010Prop46
 90
       50
102
RTVSPost2010PropOp46
 70
     1
102
RTVSPost2010Prop47
 90
       50
102
RTVSPost2010PropOp47
 70
     1
102
RTVSPost2010Prop48
 90
       50
102
RTVSPost2010PropOp48
 70
     1
102
RTVSPost2010Prop49
280
     0
102
RTVSPost2010PropOp49
 70
     1
102
RTVSPost2010Prop50
 90
       50
102
RTVSPost2010PropOp50
 70
     1
102
RTVSPost2010Prop51ColorIndex
 90
      256
102
RTVSPost2010Prop51ColorRGB
 90
-16777216
102
RTVSPost2010PropOp51
 70
     0
102
RTVSPost2010Prop52
140
1.0
102
RTVSPost2010PropOp52
 70
     0
102
RTVSPost2010Prop53
 90
        2
102
RTVSPost2010PropOp53
 70
     1
102
RTVSPost2010Prop54
  1
strokes_ogs.tif
102
RTVSPost2010PropOp54
 70
     1
102
RTVSPost2010Prop55
280
     0
102
RTVSPost2010PropOp55
 70
     1
102
RTVSPost2010Prop56
140
1.0
102
RTVSPost2010PropOp56
 70
     1
102
RTVSPost2010Prop57
140
1.0
102
RTVSPost2010PropOp57
 70
     1
  0
XRECORD
  5
1C6
102
{ACAD_REACTORS
330
1C5
102
}
330
1C5
100
AcDbXrecord
280
     1
102
RTVSPost2010Prop28
280
     0
102
RTVSPost2010PropOp28
 70
     1
102
RTVSPost2010Prop29
280
     1
102
RTVSPost2010PropOp29
 70
     1
102
RTVSPost2010Prop30
280
     1
102
RTVSPost2010PropOp30
 70
     1
102
RTVSPost2010Prop31
280
     0
102
RTVSPost2010PropOp31
 70
     1
102
RTVSPost2010Prop32
280
     0
102
RTVSPost2010PropOp32
 70
     1
102
RTVSPost2010Prop33
280
     0
102
RTVSPost2010PropOp33
 70
     1
102
RTVSPost2010Prop34
280
     0
102
RTVSPost2010PropOp34
 70
     1
102
RTVSPost2010Prop35
280
     0
102
RTVSPost2010PropOp35
 70
     1
102
RTVSPost2010Prop36
280
     0
102
RTVSPost2010PropOp36
 70
     1
102
RTVSPost2010Prop37
 90
       50
102
RTVSPost2010PropOp37
 70
     1
102
RTVSPost2010Prop38
140
0.0
102
RTVSPost2010PropOp38
 70
     1
102
RTVSPost2010Prop39
140
1.0
102
RTVSPost2010PropOp39
 70
     1
102
RTVSPost2010Prop40
 90
        0
102
RTVSPost2010PropOp40
 70
     1
102
RTVSPost2010Prop41ColorIndex
 90
       18
102
RTVSPost2010Prop41ColorRGB
 90
        0
102
RTVSPost2010PropOp41
 70
     1
102
RTVSPost2010Prop42
 90
       50
102
RTVSPost2010PropOp42
 70
     1
102
RTVSPost2010Prop43
 90
        3
102
RTVSPost2010PropOp43
 70
     1
102
RTVSPost2010Prop44ColorIndex
 90
        5
102
RTVSPost2010Prop44ColorRGB
 90
      255
102
RTVSPost2010PropOp44
 70
     1
102
RTVSPost2010Prop45
280
     0
102
RTVSPost2010PropOp45
 70
     1
102
RTVSPost2010Prop46
 90
       50
102
RTVSPost2010PropOp46
 70
     1
102
RTVSPost2010Prop47
 90
       50
102
RTVSPost2010PropOp47
 70
     1
102
RTVSPost2010Prop48
 90
       50
102
RTVSPost2010PropOp48
 70
     1
102
RTVSPost2010Prop49
280
     0
102
RTVSPost2010PropOp49
 70
     1
102
RTVSPost2010Prop50
 90
       50
102
RTVSPost2010PropOp50
 70
     1
102
RTVSPost2010Prop51ColorIndex
 90
      256
102
RTVSPost2010Prop51ColorRGB
 90
-16777216
102
RTVSPost2010PropOp51
 70
     0
102
RTVSPost2010Prop52
140
1.0
102
RTVSPost2010PropOp52
 70
     0
102
RTVSPost2010Prop53
 90
        2
102
RTVSPost2010PropOp53
 70
     1
102
RTVSPost2010Prop54
  1
strokes_ogs.tif
102
RTVSPost2010PropOp54
 70
     1
102
RTVSPost2010Prop55
280
     0
102
RTVSPost2010PropOp55
 70
     1
102
RTVSPost2010Prop56
140
1.0
102
RTVSPost2010PropOp56
 70
     1
102
RTVSPost2010Prop57
140
1.0
102
RTVSPost2010PropOp57
 70
     1
  0
XRECORD
  5
1C4
102
{ACAD_REACTORS
330
1C3
102
}
330
1C3
100
AcDbXrecord
280
     1
102
RTVSPost2010Prop28
280
     0
102
RTVSPost2010PropOp28
 70
     1
102
RTVSPost2010Prop29
280
     1
102
RTVSPost2010PropOp29
 70
     1
102
RTVSPost2010Prop30
280
     1
102
RTVSPost2010PropOp30
 70
     1
102
RTVSPost2010Prop31
280
     0
102
RTVSPost2010PropOp31
 70
     1
102
RTVSPost2010Prop32
280
     0
102
RTVSPost2010PropOp32
 70
     1
102
RTVSPost2010Prop33
280
     0
102
RTVSPost2010PropOp33
 70
     1
102
RTVSPost2010Prop34
280
     0
102
RTVSPost2010PropOp34
 70
     1
102
RTVSPost2010Prop35
280
     0
102
RTVSPost2010PropOp35
 70
     1
102
RTVSPost2010Prop36
280
     0
102
RTVSPost2010PropOp36
 70
     1
102
RTVSPost2010Prop37
 90
       50
102
RTVSPost2010PropOp37
 70
     1
102
RTVSPost2010Prop38
140
0.0
102
RTVSPost2010PropOp38
 70
     1
102
RTVSPost2010Prop39
140
1.0
102
RTVSPost2010PropOp39
 70
     1
102
RTVSPost2010Prop40
 90
        0
102
RTVSPost2010PropOp40
 70
     1
102
RTVSPost2010Prop41ColorIndex
 90
       18
102
RTVSPost2010Prop41ColorRGB
 90
        0
102
RTVSPost2010PropOp41
 70
     1
102
RTVSPost2010Prop42
 90
       50
102
RTVSPost2010PropOp42
 70
     1
102
RTVSPost2010Prop43
 90
        3
102
RTVSPost2010PropOp43
 70
     1
102
RTVSPost2010Prop44ColorIndex
 90
        5
102
RTVSPost2010Prop44ColorRGB
 90
      255
102
RTVSPost2010PropOp44
 70
     1
102
RTVSPost2010Prop45
280
     0
102
RTVSPost2010PropOp45
 70
     1
102
RTVSPost2010Prop46
 90
       50
102
RTVSPost2010PropOp46
 70
     1
102
RTVSPost2010Prop47
 90
       50
102
RTVSPost2010PropOp47
 70
     1
102
RTVSPost2010Prop48
 90
       50
102
RTVSPost2010PropOp48
 70
     1
102
RTVSPost2010Prop49
280
     0
102
RTVSPost2010PropOp49
 70
     1
102
RTVSPost2010Prop50
 90
       50
102
RTVSPost2010PropOp50
 70
     1
102
RTVSPost2010Prop51ColorIndex
 90
      256
102
RTVSPost2010Prop51ColorRGB
 90
-16777216
102
RTVSPost2010PropOp51
 70
     0
102
RTVSPost2010Prop52
140
1.0
102
RTVSPost2010PropOp52
 70
     0
102
RTVSPost2010Prop53
 90
        2
102
RTVSPost2010PropOp53
 70
     1
102
RTVSPost2010Prop54
  1
strokes_ogs.tif
102
RTVSPost2010PropOp54
 70
     1
102
RTVSPost2010Prop55
280
     0
102
RTVSPost2010PropOp55
 70
     1
102
RTVSPost2010Prop56
140
1.0
102
RTVSPost2010PropOp56
 70
     1
102
RTVSPost2010Prop57
140
1.0
102
RTVSPost2010PropOp57
 70
     1
  0
XRECORD
  5
1BE
102
{ACAD_REACTORS
330
1BD
102
}
330
1BD
100
AcDbXrecord
280
     1
102
RTVSPost2010Prop28
280
     0
102
RTVSPost2010PropOp28
 70
     1
102
RTVSPost2010Prop29
280
     1
102
RTVSPost2010PropOp29
 70
     1
102
RTVSPost2010Prop30
280
     1
102
RTVSPost2010PropOp30
 70
     1
102
RTVSPost2010Prop31
280
     0
102
RTVSPost2010PropOp31
 70
     1
102
RTVSPost2010Prop32
280
     0
102
RTVSPost2010PropOp32
 70
     1
102
RTVSPost2010Prop33
280
     0
102
RTVSPost2010PropOp33
 70
     1
102
RTVSPost2010Prop34
280
     0
102
RTVSPost2010PropOp34
 70
     1
102
RTVSPost2010Prop35
280
     0
102
RTVSPost2010PropOp35
 70
     1
102
RTVSPost2010Prop36
280
     0
102
RTVSPost2010PropOp36
 70
     1
102
RTVSPost2010Prop37
 90
       50
102
RTVSPost2010PropOp37
 70
     1
102
RTVSPost2010Prop38
140
0.0
102
RTVSPost2010PropOp38
 70
     1
102
RTVSPost2010Prop39
140
1.0
102
RTVSPost2010PropOp39
 70
     1
102
RTVSPost2010Prop40
 90
        0
102
RTVSPost2010PropOp40
 70
     1
102
RTVSPost2010Prop41ColorIndex
 90
       18
102
RTVSPost2010Prop41ColorRGB
 90
        0
102
RTVSPost2010PropOp41
 70
     1
102
RTVSPost2010Prop42
 90
       50
102
RTVSPost2010PropOp42
 70
     1
102
RTVSPost2010Prop43
 90
        3
102
RTVSPost2010PropOp43
 70
     1
102
RTVSPost2010Prop44ColorIndex
 90
        5
102
RTVSPost2010Prop44ColorRGB
 90
      255
102
RTVSPost2010PropOp44
 70
     1
102
RTVSPost2010Prop45
280
     0
102
RTVSPost2010PropOp45
 70
     1
102
RTVSPost2010Prop46
 90
       50
102
RTVSPost2010PropOp46
 70
     1
102
RTVSPost2010Prop47
 90
       50
102
RTVSPost2010PropOp47
 70
     1
102
RTVSPost2010Prop48
 90
       50
102
RTVSPost2010PropOp48
 70
     1
102
RTVSPost2010Prop49
280
     0
102
RTVSPost2010PropOp49
 70
     1
102
RTVSPost2010Prop50
 90
       50
102
RTVSPost2010PropOp50
 70
     1
102
RTVSPost2010Prop51ColorIndex
 90
      256
102
RTVSPost2010Prop51ColorRGB
 90
-16777216
102
RTVSPost2010PropOp51
 70
     0
102
RTVSPost2010Prop52
140
1.0
102
RTVSPost2010PropOp52
 70
     0
102
RTVSPost2010Prop53
 90
        2
102
RTVSPost2010PropOp53
 70
     1
102
RTVSPost2010Prop54
  1
strokes_ogs.tif
102
RTVSPost2010PropOp54
 70
     1
102
RTVSPost2010Prop55
280
     0
102
RTVSPost2010PropOp55
 70
     1
102
RTVSPost2010Prop56
140
1.0
102
RTVSPost2010PropOp56
 70
     1
102
RTVSPost2010Prop57
140
1.0
102
RTVSPost2010PropOp57
 70
     1
  0
XRECORD
  5
1C0
102
{ACAD_REACTORS
330
1BF
102
}
330
1BF
100
AcDbXrecord
280
     1
102
RTVSPost2010Prop28
280
     0
102
RTVSPost2010PropOp28
 70
     1
102
RTVSPost2010Prop29
280
     1
102
RTVSPost2010PropOp29
 70
     1
102
RTVSPost2010Prop30
280
     1
102
RTVSPost2010PropOp30
 70
     1
102
RTVSPost2010Prop31
280
     0
102
RTVSPost2010PropOp31
 70
     1
102
RTVSPost2010Prop32
280
     0
102
RTVSPost2010PropOp32
 70
     1
102
RTVSPost2010Prop33
280
     0
102
RTVSPost2010PropOp33
 70
     1
102
RTVSPost2010Prop34
280
     0
102
RTVSPost2010PropOp34
 70
     1
102
RTVSPost2010Prop35
280
     0
102
RTVSPost2010PropOp35
 70
     1
102
RTVSPost2010Prop36
280
     0
102
RTVSPost2010PropOp36
 70
     1
102
RTVSPost2010Prop37
 90
       50
102
RTVSPost2010PropOp37
 70
     1
102
RTVSPost2010Prop38
140
0.0
102
RTVSPost2010PropOp38
 70
     1
102
RTVSPost2010Prop39
140
1.0
102
RTVSPost2010PropOp39
 70
     1
102
RTVSPost2010Prop40
 90
        0
102
RTVSPost2010PropOp40
 70
     1
102
RTVSPost2010Prop41ColorIndex
 90
       18
102
RTVSPost2010Prop41ColorRGB
 90
        0
102
RTVSPost2010PropOp41
 70
     1
102
RTVSPost2010Prop42
 90
       50
102
RTVSPost2010PropOp42
 70
     1
102
RTVSPost2010Prop43
 90
        3
102
RTVSPost2010PropOp43
 70
     1
102
RTVSPost2010Prop44ColorIndex
 90
        5
102
RTVSPost2010Prop44ColorRGB
 90
      255
102
RTVSPost2010PropOp44
 70
     1
102
RTVSPost2010Prop45
280
     0
102
RTVSPost2010PropOp45
 70
     1
102
RTVSPost2010Prop46
 90
       50
102
RTVSPost2010PropOp46
 70
     1
102
RTVSPost2010Prop47
 90
       50
102
RTVSPost2010PropOp47
 70
     1
102
RTVSPost2010Prop48
 90
       50
102
RTVSPost2010PropOp48
 70
     1
102
RTVSPost2010Prop49
280
     0
102
RTVSPost2010PropOp49
 70
     1
102
RTVSPost2010Prop50
 90
       50
102
RTVSPost2010PropOp50
 70
     1
102
RTVSPost2010Prop51ColorIndex
 90
      256
102
RTVSPost2010Prop51ColorRGB
 90
-16777216
102
RTVSPost2010PropOp51
 70
     0
102
RTVSPost2010Prop52
140
1.0
102
RTVSPost2010PropOp52
 70
     0
102
RTVSPost2010Prop53
 90
        2
102
RTVSPost2010PropOp53
 70
     1
102
RTVSPost2010Prop54
  1
strokes_ogs.tif
102
RTVSPost2010PropOp54
 70
     1
102
RTVSPost2010Prop55
280
     0
102
RTVSPost2010PropOp55
 70
     1
102
RTVSPost2010Prop56
140
1.0
102
RTVSPost2010PropOp56
 70
     1
102
RTVSPost2010Prop57
140
1.0
102
RTVSPost2010PropOp57
 70
     1
  0
XRECORD
  5
1B6
102
{ACAD_REACTORS
330
1B5
102
}
330
1B5
100
AcDbXrecord
280
     1
102
RTVSPost2010Prop28
280
     0
102
RTVSPost2010PropOp28
 70
     1
102
RTVSPost2010Prop29
280
     1
102
RTVSPost2010PropOp29
 70
     1
102
RTVSPost2010Prop30
280
     1
102
RTVSPost2010PropOp30
 70
     1
102
RTVSPost2010Prop31
280
     0
102
RTVSPost2010PropOp31
 70
     1
102
RTVSPost2010Prop32
280
     0
102
RTVSPost2010PropOp32
 70
     1
102
RTVSPost2010Prop33
280
     0
102
RTVSPost2010PropOp33
 70
     1
102
RTVSPost2010Prop34
280
     0
102
RTVSPost2010PropOp34
 70
     1
102
RTVSPost2010Prop35
280
     0
102
RTVSPost2010PropOp35
 70
     1
102
RTVSPost2010Prop36
280
     0
102
RTVSPost2010PropOp36
 70
     1
102
RTVSPost2010Prop37
 90
       50
102
RTVSPost2010PropOp37
 70
     1
102
RTVSPost2010Prop38
140
0.0
102
RTVSPost2010PropOp38
 70
     1
102
RTVSPost2010Prop39
140
1.0
102
RTVSPost2010PropOp39
 70
     1
102
RTVSPost2010Prop40
 90
        0
102
RTVSPost2010PropOp40
 70
     1
102
RTVSPost2010Prop41ColorIndex
 90
       18
102
RTVSPost2010Prop41ColorRGB
 90
        0
102
RTVSPost2010PropOp41
 70
     1
102
RTVSPost2010Prop42
 90
       50
102
RTVSPost2010PropOp42
 70
     1
102
RTVSPost2010Prop43
 90
        3
102
RTVSPost2010PropOp43
 70
     1
102
RTVSPost2010Prop44ColorIndex
 90
        5
102
RTVSPost2010Prop44ColorRGB
 90
      255
102
RTVSPost2010PropOp44
 70
     1
102
RTVSPost2010Prop45
280
     0
102
RTVSPost2010PropOp45
 70
     1
102
RTVSPost2010Prop46
 90
       50
102
RTVSPost2010PropOp46
 70
     1
102
RTVSPost2010Prop47
 90
       50
102
RTVSPost2010PropOp47
 70
     1
102
RTVSPost2010Prop48
 90
       50
102
RTVSPost2010PropOp48
 70
     1
102
RTVSPost2010Prop49
280
     0
102
RTVSPost2010PropOp49
 70
     1
102
RTVSPost2010Prop50
 90
       50
102
RTVSPost2010PropOp50
 70
     1
102
RTVSPost2010Prop51ColorIndex
 90
      256
102
RTVSPost2010Prop51ColorRGB
 90
-16777216
102
RTVSPost2010PropOp51
 70
     0
102
RTVSPost2010Prop52
140
1.0
102
RTVSPost2010PropOp52
 70
     0
102
RTVSPost2010Prop53
 90
        2
102
RTVSPost2010PropOp53
 70
     1
102
RTVSPost2010Prop54
  1
strokes_ogs.tif
102
RTVSPost2010PropOp54
 70
     1
102
RTVSPost2010Prop55
280
     0
102
RTVSPost2010PropOp55
 70
     1
102
RTVSPost2010Prop56
140
1.0
102
RTVSPost2010PropOp56
 70
     1
102
RTVSPost2010Prop57
140
1.0
102
RTVSPost2010PropOp57
 70
     1
  0
XRECORD
  5
1AA
102
{ACAD_REACTORS
330
1A9
102
}
330
1A9
100
AcDbXrecord
280
     1
102
RTVSPost2010Prop28
280
     0
102
RTVSPost2010PropOp28
 70
     1
102
RTVSPost2010Prop29
280
     1
102
RTVSPost2010PropOp29
 70
     1
102
RTVSPost2010Prop30
280
     1
102
RTVSPost2010PropOp30
 70
     1
102
RTVSPost2010Prop31
280
     0
102
RTVSPost2010PropOp31
 70
     1
102
RTVSPost2010Prop32
280
     0
102
RTVSPost2010PropOp32
 70
     1
102
RTVSPost2010Prop33
280
     0
102
RTVSPost2010PropOp33
 70
     1
102
RTVSPost2010Prop34
280
     0
102
RTVSPost2010PropOp34
 70
     1
102
RTVSPost2010Prop35
280
     0
102
RTVSPost2010PropOp35
 70
     1
102
RTVSPost2010Prop36
280
     0
102
RTVSPost2010PropOp36
 70
     1
102
RTVSPost2010Prop37
 90
       50
102
RTVSPost2010PropOp37
 70
     1
102
RTVSPost2010Prop38
140
0.0
102
RTVSPost2010PropOp38
 70
     1
102
RTVSPost2010Prop39
140
1.0
102
RTVSPost2010PropOp39
 70
     1
102
RTVSPost2010Prop40
 90
        0
102
RTVSPost2010PropOp40
 70
     1
102
RTVSPost2010Prop41ColorIndex
 90
       18
102
RTVSPost2010Prop41ColorRGB
 90
        0
102
RTVSPost2010PropOp41
 70
     1
102
RTVSPost2010Prop42
 90
       50
102
RTVSPost2010PropOp42
 70
     1
102
RTVSPost2010Prop43
 90
        3
102
RTVSPost2010PropOp43
 70
     1
102
RTVSPost2010Prop44ColorIndex
 90
        5
102
RTVSPost2010Prop44ColorRGB
 90
      255
102
RTVSPost2010PropOp44
 70
     1
102
RTVSPost2010Prop45
280
     0
102
RTVSPost2010PropOp45
 70
     1
102
RTVSPost2010Prop46
 90
       50
102
RTVSPost2010PropOp46
 70
     1
102
RTVSPost2010Prop47
 90
       50
102
RTVSPost2010PropOp47
 70
     1
102
RTVSPost2010Prop48
 90
       50
102
RTVSPost2010PropOp48
 70
     1
102
RTVSPost2010Prop49
280
     0
102
RTVSPost2010PropOp49
 70
     1
102
RTVSPost2010Prop50
 90
       50
102
RTVSPost2010PropOp50
 70
     1
102
RTVSPost2010Prop51ColorIndex
 90
      256
102
RTVSPost2010Prop51ColorRGB
 90
-16777216
102
RTVSPost2010PropOp51
 70
     0
102
RTVSPost2010Prop52
140
1.0
102
RTVSPost2010PropOp52
 70
     0
102
RTVSPost2010Prop53
 90
        2
102
RTVSPost2010PropOp53
 70
     1
102
RTVSPost2010Prop54
  1
strokes_ogs.tif
102
RTVSPost2010PropOp54
 70
     1
102
RTVSPost2010Prop55
280
     0
102
RTVSPost2010PropOp55
 70
     1
102
RTVSPost2010Prop56
140
1.0
102
RTVSPost2010PropOp56
 70
     1
102
RTVSPost2010Prop57
140
1.0
102
RTVSPost2010PropOp57
 70
     1
  0
XRECORD
  5
1C2
102
{ACAD_REACTORS
330
1C1
102
}
330
1C1
100
AcDbXrecord
280
     1
102
RTVSPost2010Prop28
280
     0
102
RTVSPost2010PropOp28
 70
     1
102
RTVSPost2010Prop29
280
     1
102
RTVSPost2010PropOp29
 70
     1
102
RTVSPost2010Prop30
280
     1
102
RTVSPost2010PropOp30
 70
     1
102
RTVSPost2010Prop31
280
     0
102
RTVSPost2010PropOp31
 70
     1
102
RTVSPost2010Prop32
280
     0
102
RTVSPost2010PropOp32
 70
     1
102
RTVSPost2010Prop33
280
     0
102
RTVSPost2010PropOp33
 70
     1
102
RTVSPost2010Prop34
280
     0
102
RTVSPost2010PropOp34
 70
     1
102
RTVSPost2010Prop35
280
     0
102
RTVSPost2010PropOp35
 70
     1
102
RTVSPost2010Prop36
280
     0
102
RTVSPost2010PropOp36
 70
     1
102
RTVSPost2010Prop37
 90
       50
102
RTVSPost2010PropOp37
 70
     1
102
RTVSPost2010Prop38
140
0.0
102
RTVSPost2010PropOp38
 70
     1
102
RTVSPost2010Prop39
140
1.0
102
RTVSPost2010PropOp39
 70
     1
102
RTVSPost2010Prop40
 90
        0
102
RTVSPost2010PropOp40
 70
     1
102
RTVSPost2010Prop41ColorIndex
 90
       18
102
RTVSPost2010Prop41ColorRGB
 90
        0
102
RTVSPost2010PropOp41
 70
     1
102
RTVSPost2010Prop42
 90
       50
102
RTVSPost2010PropOp42
 70
     1
102
RTVSPost2010Prop43
 90
        3
102
RTVSPost2010PropOp43
 70
     1
102
RTVSPost2010Prop44ColorIndex
 90
        5
102
RTVSPost2010Prop44ColorRGB
 90
      255
102
RTVSPost2010PropOp44
 70
     1
102
RTVSPost2010Prop45
280
     0
102
RTVSPost2010PropOp45
 70
     1
102
RTVSPost2010Prop46
 90
       50
102
RTVSPost2010PropOp46
 70
     1
102
RTVSPost2010Prop47
 90
       50
102
RTVSPost2010PropOp47
 70
     1
102
RTVSPost2010Prop48
 90
       50
102
RTVSPost2010PropOp48
 70
     1
102
RTVSPost2010Prop49
280
     0
102
RTVSPost2010PropOp49
 70
     1
102
RTVSPost2010Prop50
 90
       50
102
RTVSPost2010PropOp50
 70
     1
102
RTVSPost2010Prop51ColorIndex
 90
      256
102
RTVSPost2010Prop51ColorRGB
 90
-16777216
102
RTVSPost2010PropOp51
 70
     0
102
RTVSPost2010Prop52
140
1.0
102
RTVSPost2010PropOp52
 70
     0
102
RTVSPost2010Prop53
 90
        2
102
RTVSPost2010PropOp53
 70
     1
102
RTVSPost2010Prop54
  1
strokes_ogs.tif
102
RTVSPost2010PropOp54
 70
     1
102
RTVSPost2010Prop55
280
     0
102
RTVSPost2010PropOp55
 70
     1
102
RTVSPost2010Prop56
140
1.0
102
RTVSPost2010PropOp56
 70
     1
102
RTVSPost2010Prop57
140
1.0
102
RTVSPost2010PropOp57
 70
     1
  0
ENDSEC
  0
EOF
