  0
SECTION
  2
HEADER
  9
$ACADVER
  1
AC1024
  9
$ACADMAINTVER
 70
   205
  9
$DWGCODEPAGE
  3
ANSI_1251
  9
$INSBASE
 10
0.0
 20
0.0
 30
0.0
  9
$EXTMIN
 10
1.000000000000000E+20
 20
1.000000000000000E+20
 30
1.000000000000000E+20
  9
$EXTMAX
 10
-1.000000000000000E+20
 20
-1.000000000000000E+20
 30
-1.000000000000000E+20
  9
$LIMMIN
 10
0.0
 20
0.0
  9
$LIMMAX
 10
12.0
 20
9.0
  9
$ORTHOMODE
 70
     0
  9
$REGENMODE
 70
     1
  9
$FILLMODE
 70
     1
  9
$QTEXTMODE
 70
     0
  9
$MIRRTEXT
 70
     1
  9
$LTSCALE
 40
1.0
  9
$ATTMODE
 70
     1
  9
$TEXTSIZE
 40
0.2
  9
$TRACEWID
 40
0.05
  9
$TEXTSTYLE
  7
Standard
  9
$CLAYER
  8
OracDecor_cornice_mouldings
  9
$CELTYPE
  6
ByLayer
  9
$CECOLOR
 62
   256
  9
$CELTSCALE
 40
1.0
  9
$DISPSILH
 70
     0
  9
$DIMSCALE
 40
1.0
  9
$DIMASZ
 40
0.18
  9
$DIMEXO
 40
0.0625
  9
$DIMDLI
 40
0.38
  9
$DIMRND
 40
0.0
  9
$DIMDLE
 40
0.0
  9
$DIMEXE
 40
0.18
  9
$DIMTP
 40
0.0
  9
$DIMTM
 40
0.0
  9
$DIMTXT
 40
0.18
  9
$DIMCEN
 40
0.09
  9
$DIMTSZ
 40
0.0
  9
$DIMTOL
 70
     0
  9
$DIMLIM
 70
     0
  9
$DIMTIH
 70
     1
  9
$DIMTOH
 70
     1
  9
$DIMSE1
 70
     0
  9
$DIMSE2
 70
     0
  9
$DIMTAD
 70
     0
  9
$DIMZIN
 70
     0
  9
$DIMBLK
  1

  9
$DIMASO
 70
     1
  9
$DIMSHO
 70
     1
  9
$DIMPOST
  1

  9
$DIMAPOST
  1

  9
$DIMALT
 70
     0
  9
$DIMALTD
 70
     2
  9
$DIMALTF
 40
25.4
  9
$DIMLFAC
 40
1.0
  9
$DIMTOFL
 70
     0
  9
$DIMTVP
 40
0.0
  9
$DIMTIX
 70
     0
  9
$DIMSOXD
 70
     0
  9
$DIMSAH
 70
     0
  9
$DIMBLK1
  1

  9
$DIMBLK2
  1

  9
$DIMSTYLE
  2
Standard
  9
$DIMCLRD
 70
     0
  9
$DIMCLRE
 70
     0
  9
$DIMCLRT
 70
     0
  9
$DIMTFAC
 40
1.0
  9
$DIMGAP
 40
0.09
  9
$DIMJUST
 70
     0
  9
$DIMSD1
 70
     0
  9
$DIMSD2
 70
     0
  9
$DIMTOLJ
 70
     1
  9
$DIMTZIN
 70
     0
  9
$DIMALTZ
 70
     0
  9
$DIMALTTZ
 70
     0
  9
$DIMUPT
 70
     0
  9
$DIMDEC
 70
     4
  9
$DIMTDEC
 70
     4
  9
$DIMALTU
 70
     2
  9
$DIMALTTD
 70
     2
  9
$DIMTXSTY
  7
Standard
  9
$DIMAUNIT
 70
     0
  9
$DIMADEC
 70
     0
  9
$DIMALTRND
 40
0.0
  9
$DIMAZIN
 70
     0
  9
$DIMDSEP
 70
    46
  9
$DIMATFIT
 70
     3
  9
$DIMFRAC
 70
     0
  9
$DIMLDRBLK
  1

  9
$DIMLUNIT
 70
     2
  9
$DIMLWD
 70
    -2
  9
$DIMLWE
 70
    -2
  9
$DIMTMOVE
 70
     0
  9
$DIMFXL
 40
1.0
  9
$DIMFXLON
 70
     0
  9
$DIMJOGANG
 40
0.7853981633974483
  9
$DIMTFILL
 70
     0
  9
$DIMTFILLCLR
 70
     0
  9
$DIMARCSYM
 70
     0
  9
$DIMLTYPE
  6

  9
$DIMLTEX1
  6

  9
$DIMLTEX2
  6

  9
$DIMTXTDIRECTION
 70
     0
  9
$LUNITS
 70
     2
  9
$LUPREC
 70
     4
  9
$SKETCHINC
 40
0.1
  9
$FILLETRAD
 40
0.5
  9
$AUNITS
 70
     0
  9
$AUPREC
 70
     0
  9
$MENU
  1
.
  9
$ELEVATION
 40
0.0
  9
$PELEVATION
 40
0.0
  9
$THICKNESS
 40
0.0
  9
$LIMCHECK
 70
     0
  9
$CHAMFERA
 40
0.5
  9
$CHAMFERB
 40
0.5
  9
$CHAMFERC
 40
1.0
  9
$CHAMFERD
 40
0.0
  9
$SKPOLY
 70
     0
  9
$TDCREATE
 40
2451380.930432396
  9
$TDUCREATE
 40
2451380.805432396
  9
$TDUPDATE
 40
2451380.966180555
  9
$TDUUPDATE
 40
2451380.841180556
  9
$TDINDWG
 40
0.0075634144
  9
$TDUSRTIMER
 40
0.0075543750
  9
$USRTIMER
 70
     1
  9
$ANGBASE
 50
0.0
  9
$ANGDIR
 70
     0
  9
$PDMODE
 70
     0
  9
$PDSIZE
 40
0.0
  9
$PLINEWID
 40
0.0
  9
$SPLFRAME
 70
     0
  9
$SPLINETYPE
 70
     6
  9
$SPLINESEGS
 70
     8
  9
$HANDSEED
  5
1CC
  9
$SURFTAB1
 70
     6
  9
$SURFTAB2
 70
     6
  9
$SURFTYPE
 70
     6
  9
$SURFU
 70
     6
  9
$SURFV
 70
     6
  9
$UCSBASE
  2

  9
$UCSNAME
  2

  9
$UCSORG
 10
0.0
 20
0.0
 30
0.0
  9
$UCSXDIR
 10
1.0
 20
0.0
 30
0.0
  9
$UCSYDIR
 10
0.0
 20
1.0
 30
0.0
  9
$UCSORTHOREF
  2

  9
$UCSORTHOVIEW
 70
     0
  9
$UCSORGTOP
 10
0.0
 20
0.0
 30
0.0
  9
$UCSORGBOTTOM
 10
0.0
 20
0.0
 30
0.0
  9
$UCSORGLEFT
 10
0.0
 20
0.0
 30
0.0
  9
$UCSORGRIGHT
 10
0.0
 20
0.0
 30
0.0
  9
$UCSORGFRONT
 10
0.0
 20
0.0
 30
0.0
  9
$UCSORGBACK
 10
0.0
 20
0.0
 30
0.0
  9
$PUCSBASE
  2

  9
$PUCSNAME
  2

  9
$PUCSORG
 10
0.0
 20
0.0
 30
0.0
  9
$PUCSXDIR
 10
1.0
 20
0.0
 30
0.0
  9
$PUCSYDIR
 10
0.0
 20
1.0
 30
0.0
  9
$PUCSORTHOREF
  2

  9
$PUCSORTHOVIEW
 70
     0
  9
$PUCSORGTOP
 10
0.0
 20
0.0
 30
0.0
  9
$PUCSORGBOTTOM
 10
0.0
 20
0.0
 30
0.0
  9
$PUCSORGLEFT
 10
0.0
 20
0.0
 30
0.0
  9
$PUCSORGRIGHT
 10
0.0
 20
0.0
 30
0.0
  9
$PUCSORGFRONT
 10
0.0
 20
0.0
 30
0.0
  9
$PUCSORGBACK
 10
0.0
 20
0.0
 30
0.0
  9
$USERI1
 70
     0
  9
$USERI2
 70
     0
  9
$USERI3
 70
     0
  9
$USERI4
 70
     0
  9
$USERI5
 70
     0
  9
$USERR1
 40
0.0
  9
$USERR2
 40
0.0
  9
$USERR3
 40
0.0
  9
$USERR4
 40
0.0
  9
$USERR5
 40
0.0
  9
$WORLDVIEW
 70
     1
  9
$SHADEDGE
 70
     3
  9
$SHADEDIF
 70
    70
  9
$TILEMODE
 70
     1
  9
$MAXACTVP
 70
    64
  9
$PINSBASE
 10
0.0
 20
0.0
 30
0.0
  9
$PLIMCHECK
 70
     0
  9
$PEXTMIN
 10
1.000000000000000E+20
 20
1.000000000000000E+20
 30
1.000000000000000E+20
  9
$PEXTMAX
 10
-1.000000000000000E+20
 20
-1.000000000000000E+20
 30
-1.000000000000000E+20
  9
$PLIMMIN
 10
0.0
 20
0.0
  9
$PLIMMAX
 10
12.0
 20
9.0
  9
$UNITMODE
 70
     0
  9
$VISRETAIN
 70
     1
  9
$PLINEGEN
 70
     0
  9
$PSLTSCALE
 70
     1
  9
$TREEDEPTH
 70
  3020
  9
$CMLSTYLE
  2
Standard
  9
$CMLJUST
 70
     0
  9
$CMLSCALE
 40
1.0
  9
$PROXYGRAPHICS
 70
     1
  9
$MEASUREMENT
 70
     1
  9
$CELWEIGHT
370
    -1
  9
$ENDCAPS
280
     0
  9
$JOINSTYLE
280
     0
  9
$LWDISPLAY
290
     0
  9
$INSUNITS
 70
     4
  9
$HYPERLINKBASE
  1

  9
$STYLESHEET
  1

  9
$XEDIT
290
     1
  9
$CEPSNTYPE
380
     0
  9
$PSTYLEMODE
290
     1
  9
$FINGERPRINTGUID
  2
{12F50282-3ED8-11D3-A8B7-0060B0F84BC6}
  9
$VERSIONGUID
  2
{12F50293-3ED8-11D3-A8B7-0060B0F84BC6}
  9
$EXTNAMES
290
     1
  9
$PSVPSCALE
 40
0.0
  9
$OLESTARTUP
290
     0
  9
$SORTENTS
280
   127
  9
$INDEXCTL
280
     0
  9
$HIDETEXT
280
     0
  9
$XCLIPFRAME
280
     2
  9
$HALOGAP
280
     0
  9
$OBSCOLOR
 70
   257
  9
$OBSLTYPE
280
     0
  9
$INTERSECTIONDISPLAY
280
     0
  9
$INTERSECTIONCOLOR
 70
   257
  9
$DIMASSOC
280
     1
  9
$PROJECTNAME
  1

  9
$CAMERADISPLAY
290
     0
  9
$LENSLENGTH
 40
50.0
  9
$CAMERAHEIGHT
 40
0.0
  9
$STEPSPERSEC
 40
2.0
  9
$STEPSIZE
 40
6.0
  9
$3DDWFPREC
 40
2.0
  9
$PSOLWIDTH
 40
0.25
  9
$PSOLHEIGHT
 40
4.0
  9
$LOFTANG1
 40
1.570796326794896
  9
$LOFTANG2
 40
1.570796326794896
  9
$LOFTMAG1
 40
0.0
  9
$LOFTMAG2
 40
0.0
  9
$LOFTPARAM
 70
     7
  9
$LOFTNORMALS
280
     1
  9
$LATITUDE
 40
37.795
  9
$LONGITUDE
 40
-122.394
  9
$NORTHDIRECTION
 40
0.0
  9
$TIMEZONE
 70
 -8000
  9
$LIGHTGLYPHDISPLAY
280
     1
  9
$TILEMODELIGHTSYNCH
280
     1
  9
$CMATERIAL
347
AB
  9
$SOLIDHIST
280
     0
  9
$SHOWHIST
280
     1
  9
$DWFFRAME
280
     2
  9
$DGNFRAME
280
     0
  9
$REALWORLDSCALE
290
     1
  9
$INTERFERECOLOR
 62
     1
  9
$INTERFEREOBJVS
345
CD
  9
$INTERFEREVPVS
346
CA
  9
$CSHADOW
280
     0
  9
$SHADOWPLANELOCATION
 40
0.0
  0
ENDSEC
  0
SECTION
  2
CLASSES
  0
CLASS
  1
ACDBDICTIONARYWDFLT
  2
AcDbDictionaryWithDefault
  3
ObjectDBX Classes
 90
        0
 91
        1
280
     0
281
     0
  0
CLASS
  1
ACDBPLACEHOLDER
  2
AcDbPlaceHolder
  3
ObjectDBX Classes
 90
        0
 91
        2
280
     0
281
     0
  0
CLASS
  1
LAYOUT
  2
AcDbLayout
  3
ObjectDBX Classes
 90
        0
 91
        3
280
     0
281
     0
  0
CLASS
  1
MATERIAL
  2
AcDbMaterial
  3
ObjectDBX Classes
 90
     1153
 91
        3
280
     0
281
     0
  0
CLASS
  1
VISUALSTYLE
  2
AcDbVisualStyle
  3
ObjectDBX Classes
 90
     4095
 91
       24
280
     0
281
     0
  0
CLASS
  1
TABLESTYLE
  2
AcDbTableStyle
  3
ObjectDBX Classes
 90
     4095
 91
        1
280
     0
281
     0
  0
CLASS
  1
SCALE
  2
AcDbScale
  3
ObjectDBX Classes
 90
     1153
 91
       17
280
     0
281
     0
  0
CLASS
  1
MLEADERSTYLE
  2
AcDbMLeaderStyle
  3
ACDB_MLEADERSTYLE_CLASS
 90
     4095
 91
        1
280
     0
281
     0
  0
CLASS
  1
ACDBSECTIONVIEWSTYLE
  2
AcDbSectionViewStyle
  3
ObjectDBX Classes
 90
     1025
 91
        1
280
     0
281
     0
  0
CLASS
  1
ACDBDETAILVIEWSTYLE
  2
AcDbDetailViewStyle
  3
ObjectDBX Classes
 90
     1025
 91
        1
280
     0
281
     0
  0
CLASS
  1
MESH
  2
AcDbSubDMesh
  3
ObjectDBX Classes
 90
        0
 91
        1
280
     0
281
     1
  0
CLASS
  1
DICTIONARYVAR
  2
AcDbDictionaryVar
  3
ObjectDBX Classes
 90
        0
 91
        9
280
     0
281
     0
  0
CLASS
  1
CELLSTYLEMAP
  2
AcDbCellStyleMap
  3
ObjectDBX Classes
 90
     1152
 91
        1
280
     0
281
     0
  0
ENDSEC
  0
SECTION
  2
TABLES
  0
TABLE
  2
VPORT
  5
8
330
0
100
AcDbSymbolTable
 70
     1
  0
VPORT
  5
A8
330
8
100
AcDbSymbolTableRecord
100
AcDbViewportTableRecord
  2
*Active
 70
     0
 10
0.0
 20
0.0
 11
1.0
 21
1.0
 12
-0.000086316751549
 22
-24.49493026733398
 13
0.0
 23
0.0
 14
0.5
 24
0.5
 15
0.5
 25
0.5
 16
-1.0
 26
-1.0
 36
1.0
 17
0.0
 27
0.0
 37
0.0
 40
1129.999999972264
 41
1.640083508106371
 42
50.0
 43
0.0
 44
0.0
 50
0.0
 51
0.0
 71
     0
 72
   100
 73
     1
 74
     3
 75
     0
 76
     0
 77
     0
 78
     0
281
     0
 65
     1
110
0.0
120
0.0
130
0.0
111
1.0
121
0.0
131
0.0
112
0.0
122
1.0
132
0.0
 79
     0
146
0.0
348
C9
 60
     3
 61
     5
292
     1
282
     1
141
0.0
142
0.0
 63
   250
421
  3355443
  0
ENDTAB
  0
TABLE
  2
LTYPE
  5
5
330
0
100
AcDbSymbolTable
 70
     1
  0
LTYPE
  5
14
330
5
100
AcDbSymbolTableRecord
100
AcDbLinetypeTableRecord
  2
ByBlock
 70
     0
  3

 72
    65
 73
     0
 40
0.0
  0
LTYPE
  5
15
330
5
100
AcDbSymbolTableRecord
100
AcDbLinetypeTableRecord
  2
ByLayer
 70
     0
  3

 72
    65
 73
     0
 40
0.0
  0
LTYPE
  5
16
330
5
100
AcDbSymbolTableRecord
100
AcDbLinetypeTableRecord
  2
Continuous
 70
     0
  3
Solid line
 72
    65
 73
     0
 40
0.0
  0
ENDTAB
  0
TABLE
  2
LAYER
  5
2
330
0
100
AcDbSymbolTable
 70
     3
  0
LAYER
  5
10
330
2
100
AcDbSymbolTableRecord
100
AcDbLayerTableRecord
  2
0
 70
     0
 62
     7
  6
Continuous
370
    -3
390
F
347
BB
  0
LAYER
  5
2B
330
2
100
AcDbSymbolTableRecord
100
AcDbLayerTableRecord
  2
ASHADE
 70
     4
 62
     7
  6
Continuous
370
    -3
390
2D
347
BB
  0
LAYER
  5
F8
330
2
100
AcDbSymbolTableRecord
100
AcDbLayerTableRecord
  2
OracDecor_cornice_mouldings
 70
     0
 62
   224
420
  9046126
  6
Continuous
370
    -3
390
F
347
BB
  0
ENDTAB
  0
TABLE
  2
STYLE
  5
3
330
0
100
AcDbSymbolTable
 70
     2
  0
STYLE
  5
11
330
3
100
AcDbSymbolTableRecord
100
AcDbTextStyleTableRecord
  2
Standard
 70
     0
 40
0.0
 41
1.0
 50
0.0
 71
     0
 42
0.2
  3
txt
  4

  0
STYLE
  5
2C
330
3
100
AcDbSymbolTableRecord
100
AcDbTextStyleTableRecord
  2
ASHADE
 70
     0
 40
0.2
 41
1.0
 50
0.0
 71
     0
 42
0.2
  3
simplex
  4

  0
ENDTAB
  0
TABLE
  2
VIEW
  5
6
330
0
100
AcDbSymbolTable
 70
     0
  0
ENDTAB
  0
TABLE
  2
UCS
  5
7
330
0
100
AcDbSymbolTable
 70
     0
  0
ENDTAB
  0
TABLE
  2
APPID
  5
9
330
0
100
AcDbSymbolTable
 70
     6
  0
APPID
  5
12
330
9
100
AcDbSymbolTableRecord
100
AcDbRegAppTableRecord
  2
ACAD
 70
     0
  0
APPID
  5
8F
330
9
100
AcDbSymbolTableRecord
100
AcDbRegAppTableRecord
  2
AVE_RENDER
 70
     0
  0
APPID
  5
90
330
9
100
AcDbSymbolTableRecord
100
AcDbRegAppTableRecord
  2
AVE_ENTITY_MATERIAL
 70
     0
  0
APPID
  5
9C
330
9
100
AcDbSymbolTableRecord
100
AcDbRegAppTableRecord
  2
AVE_FINISH
 70
     0
  0
APPID
  5
9D
330
9
100
AcDbSymbolTableRecord
100
AcDbRegAppTableRecord
  2
AVE_MATERIAL
 70
     0
  0
APPID
  5
9E
330
9
100
AcDbSymbolTableRecord
100
AcDbRegAppTableRecord
  2
AVE_GLOBAL
 70
     0
  0
ENDTAB
  0
TABLE
  2
DIMSTYLE
  5
A
330
0
100
AcDbSymbolTable
 70
     1
100
AcDbDimStyleTable
 71
     0
  0
DIMSTYLE
105
27
330
A
100
AcDbSymbolTableRecord
100
AcDbDimStyleTableRecord
  2
Standard
 70
     0
340
11
  0
ENDTAB
  0
TABLE
  2
BLOCK_RECORD
  5
1
330
0
100
AcDbSymbolTable
 70
     6
  0
BLOCK_RECORD
  5
1F
330
1
100
AcDbSymbolTableRecord
100
AcDbBlockTableRecord
  2
*Model_Space
340
22
 70
     0
280
     1
281
     0
  0
BLOCK_RECORD
  5
1B
330
1
100
AcDbSymbolTableRecord
100
AcDbBlockTableRecord
  2
*Paper_Space
340
1E
 70
     0
280
     1
281
     0
  0
BLOCK_RECORD
  5
23
330
1
100
AcDbSymbolTableRecord
100
AcDbBlockTableRecord
  2
*Paper_Space0
340
26
 70
     0
280
     1
281
     0
  0
BLOCK_RECORD
  5
2E
330
1
100
AcDbSymbolTableRecord
100
AcDbBlockTableRecord
  2
direct
340
0
 70
     0
280
     1
281
     0
  0
BLOCK_RECORD
  5
42
330
1
100
AcDbSymbolTableRecord
100
AcDbBlockTableRecord
  2
overhead
340
0
 70
     0
280
     1
281
     0
  0
BLOCK_RECORD
  5
5F
330
1
100
AcDbSymbolTableRecord
100
AcDbBlockTableRecord
  2
sh_spot
340
0
 70
     0
280
     1
281
     0
  0
BLOCK_RECORD
  5
91
330
1
100
AcDbSymbolTableRecord
100
AcDbBlockTableRecord
  2
AVE_RENDER
340
0
102
{BLKREFS
331
94
331
95
331
96
331
97
331
98
331
99
331
9A
331
9B
102
}
 70
     0
280
     1
281
     0
  0
BLOCK_RECORD
  5
9F
330
1
100
AcDbSymbolTableRecord
100
AcDbBlockTableRecord
  2
AVE_GLOBAL
340
0
102
{BLKREFS
331
A2
102
}
 70
     0
280
     1
281
     0
  0
ENDTAB
  0
ENDSEC
  0
SECTION
  2
BLOCKS
  0
BLOCK
  5
20
330
1F
100
AcDbEntity
  8
0
100
AcDbBlockBegin
  2
*Model_Space
 70
     0
 10
0.0
 20
0.0
 30
0.0
  3
*Model_Space
  1

  0
ENDBLK
  5
21
330
1F
100
AcDbEntity
  8
0
100
AcDbBlockEnd
  0
BLOCK
  5
1C
330
1B
100
AcDbEntity
 67
     1
  8
0
100
AcDbBlockBegin
  2
*Paper_Space
 70
     0
 10
0.0
 20
0.0
 30
0.0
  3
*Paper_Space
  1

  0
ENDBLK
  5
1D
330
1B
100
AcDbEntity
 67
     1
  8
0
100
AcDbBlockEnd
  0
BLOCK
  5
24
330
23
100
AcDbEntity
 67
     1
  8
0
100
AcDbBlockBegin
  2
*Paper_Space0
 70
     0
 10
0.0
 20
0.0
 30
0.0
  3
*Paper_Space0
  1

  0
ENDBLK
  5
25
330
23
100
AcDbEntity
 67
     1
  8
0
100
AcDbBlockEnd
  0
BLOCK
  5
40
330
2E
100
AcDbEntity
  8
0
100
AcDbBlockBegin
  2
direct
 70
     2
 10
0.0
 20
0.0
 30
0.0
  3
direct
  1

  0
ATTDEF
  5
2F
330
2E
100
AcDbEntity
  8
ASHADE
  6
Continuous
 62
     1
100
AcDbText
 10
0.0
 20
-0.1
 30
0.0
 40
0.2
  1

  7
ASHADE
 72
     1
 11
0.0
 21
-0.1
 31
0.0
100
AcDbAttributeDefinition
280
     0
  3
Light Name
  2
SNAME
 70
     0
280
     0
  0
ARC
  5
30
330
2E
100
AcDbEntity
  8
ASHADE
  6
Continuous
 62
     7
100
AcDbCircle
 10
0.0
 20
0.0
 30
0.0
 40
0.3
100
AcDbArc
 50
205.6792886194569
 51
334.3207113805431
  0
ARC
  5
31
330
2E
100
AcDbEntity
  8
ASHADE
  6
Continuous
 62
     7
100
AcDbCircle
 10
0.0
 20
0.0
 30
0.0
 40
0.3
100
AcDbArc
 50
25.67928861945685
 51
154.3207113805431
  0
LINE
  5
32
330
2E
100
AcDbEntity
  8
ASHADE
  6
Continuous
 62
     7
100
AcDbLine
 10
-0.21
 20
0.2142428528562855
 30
0.0
 11
-0.21
 21
0.5
 31
0.0
  0
LINE
  5
33
330
2E
100
AcDbEntity
  8
ASHADE
  6
Continuous
 62
     7
100
AcDbLine
 10
-0.11
 20
0.2791057147390572
 30
0.0
 11
-0.11
 21
0.5
 31
0.0
  0
LINE
  5
34
330
2E
100
AcDbEntity
  8
ASHADE
  6
Continuous
 62
     7
100
AcDbLine
 10
0.21
 20
0.2142428528562855
 30
0.0
 11
0.21
 21
0.5
 31
0.0
  0
ATTDEF
  5
35
330
2E
100
AcDbEntity
  8
ASHADE
  6
Continuous
 62
     7
100
AcDbText
 10
0.0
 20
0.25
 30
0.0
 40
0.01
  1

100
AcDbAttributeDefinition
280
     0
  3
Look-at Y
  2
LAY
 70
     1
280
     0
  0
ATTDEF
  5
36
330
2E
100
AcDbEntity
  8
ASHADE
  6
Continuous
 62
     7
100
AcDbText
 10
0.0
 20
0.22
 30
0.0
 40
0.01
  1
1
100
AcDbAttributeDefinition
280
     0
  3
Light Intensity
  2
INTENSITY
 70
     1
280
     0
  0
ATTDEF
  5
37
330
2E
100
AcDbEntity
  8
ASHADE
  6
Continuous
 62
     7
100
AcDbText
 10
0.0
 20
0.16
 30
0.0
 40
0.01
  1
-1
100
AcDbAttributeDefinition
280
     0
  3
*not used*
  2
BEAMD
 70
     1
280
     0
  0
ATTDEF
  5
38
330
2E
100
AcDbEntity
  8
ASHADE
  6
Continuous
 62
     7
100
AcDbText
 10
0.0
 20
0.175
 30
0.0
 40
0.01
  1
-1
100
AcDbAttributeDefinition
280
     0
  3
*not used*
  2
CONED
 70
     1
280
     0
  0
ATTDEF
  5
39
330
2E
100
AcDbEntity
  8
ASHADE
  6
Continuous
 62
     7
100
AcDbText
 10
0.0
 20
0.19
 30
0.0
 40
0.01
  1
0
100
AcDbAttributeDefinition
280
     0
  3
Depth Map Size
  2
CONEA
 70
     1
280
     0
  0
ATTDEF
  5
3A
330
2E
100
AcDbEntity
  8
ASHADE
  6
Continuous
 62
     7
100
AcDbText
 10
0.0
 20
0.2050000000000001
 30
0.0
 40
0.01
  1
1,1,1
100
AcDbAttributeDefinition
280
     0
  3
Light Color (RGB)
  2
COLOR
 70
     1
280
     0
  0
ATTDEF
  5
3B
330
2E
100
AcDbEntity
  8
ASHADE
  6
Continuous
 62
     7
100
AcDbText
 10
0.0
 20
0.235
 30
0.0
 40
0.01
  1

100
AcDbAttributeDefinition
280
     0
  3
Look-at Z
  2
LAZ
 70
     1
280
     0
  0
LINE
  5
3C
330
2E
100
AcDbEntity
  8
ASHADE
  6
Continuous
 62
     7
100
AcDbLine
 10
0.0
 20
0.3
 30
0.0
 11
0.0
 21
0.5
 31
0.0
  0
LINE
  5
3D
330
2E
100
AcDbEntity
  8
ASHADE
  6
Continuous
 62
     7
100
AcDbLine
 10
0.11
 20
0.2791057147390572
 30
0.0
 11
0.11
 21
0.5
 31
0.0
  0
ATTDEF
  5
3E
330
2E
100
AcDbEntity
  8
ASHADE
  6
Continuous
 62
     7
100
AcDbText
 10
0.0
 20
0.265
 30
0.0
 40
0.01
  1

100
AcDbAttributeDefinition
280
     0
  3
Look-at X
  2
LAX
 70
     1
280
     0
  0
ATTDEF
  5
3F
330
2E
100
AcDbEntity
  8
ASHADE
  6
Continuous
 62
     7
100
AcDbText
 10
0.0
 20
0.28
 30
0.0
 40
0.01
  1

100
AcDbAttributeDefinition
280
     0
  3

  2
GNAME
 70
     1
280
     0
  0
ENDBLK
  5
41
330
2E
100
AcDbEntity
  8
0
100
AcDbBlockEnd
  0
BLOCK
  5
5D
330
42
100
AcDbEntity
  8
0
100
AcDbBlockBegin
  2
overhead
 70
     2
 10
0.0
 20
0.0
 30
0.0
  3
overhead
  1

  0
ATTDEF
  5
43
330
42
100
AcDbEntity
  8
ASHADE
  6
Continuous
 62
     1
100
AcDbText
 10
0.0
 20
-0.1
 30
0.0
 40
0.2
  1

  7
ASHADE
 72
     1
 11
0.0
 21
-0.1
 31
0.0
100
AcDbAttributeDefinition
280
     0
  3
Light Name
  2
SNAME
 70
     0
280
     0
  0
ARC
  5
44
330
42
100
AcDbEntity
  8
ASHADE
  6
Continuous
 62
     7
100
AcDbCircle
 10
0.0
 20
0.0
 30
0.0
 40
0.3
100
AcDbArc
 50
205.6792886194569
 51
334.3207113805431
  0
LINE
  5
45
330
42
100
AcDbEntity
  8
ASHADE
  6
Continuous
 62
     7
100
AcDbLine
 10
-0.2041413561583015
 20
-0.2198324514393848
 30
0.0
 11
-0.2721884748777353
 21
-0.2931099352525131
 31
0.0
  0
LINE
  5
46
330
42
100
AcDbEntity
  8
ASHADE
  6
Continuous
 62
     7
100
AcDbLine
 10
-0.1096591641591904
 20
-0.2792398032442862
 30
0.0
 11
-0.1279356915190555
 21
-0.3257797704516673
 31
0.0
  0
LINE
  5
47
330
42
100
AcDbEntity
  8
ASHADE
  6
Continuous
 62
     7
100
AcDbLine
 10
0.0
 20
-0.2999999999999999
 30
0.0
 11
0.0
 21
-0.4
 31
0.0
  0
LINE
  5
48
330
42
100
AcDbEntity
  8
ASHADE
  6
Continuous
 62
     7
100
AcDbLine
 10
0.1096591641591904
 20
-0.2792398032442862
 30
0.0
 11
0.1279356915190555
 21
-0.3257797704516673
 31
0.0
  0
LINE
  5
49
330
42
100
AcDbEntity
  8
ASHADE
  6
Continuous
 62
     7
100
AcDbLine
 10
0.2041413561583015
 20
-0.2198324514393848
 30
0.0
 11
0.2721884748777353
 21
-0.2931099352525131
 31
0.0
  0
ARC
  5
4A
330
42
100
AcDbEntity
  8
ASHADE
  6
Continuous
 62
     7
100
AcDbCircle
 10
0.0
 20
0.0
 30
0.0
 40
0.3
100
AcDbArc
 50
25.67928861945685
 51
154.3207113805431
  0
LINE
  5
4B
330
42
100
AcDbEntity
  8
ASHADE
  6
Continuous
 62
     7
100
AcDbLine
 10
-0.2703701166919155
 20
0.13
 30
0.0
 11
-0.3154318028072347
 21
0.1516666666666666
 31
0.0
  0
LINE
  5
4C
330
42
100
AcDbEntity
  8
ASHADE
  6
Continuous
 62
     7
100
AcDbLine
 10
-0.2703701166919155
 20
-0.13
 30
0.0
 11
-0.3154318028072347
 21
-0.1516666666666666
 31
0.0
  0
LINE
  5
4D
330
42
100
AcDbEntity
  8
ASHADE
  6
Continuous
 62
     7
100
AcDbLine
 10
-0.2041413561583015
 20
0.2198324514393849
 30
0.0
 11
-0.2721884748777353
 21
0.2931099352525131
 31
0.0
  0
LINE
  5
4E
330
42
100
AcDbEntity
  8
ASHADE
  6
Continuous
 62
     7
100
AcDbLine
 10
-0.1096591641591904
 20
0.2792398032442862
 30
0.0
 11
-0.1279356915190555
 21
0.3257797704516674
 31
0.0
  0
LINE
  5
4F
330
42
100
AcDbEntity
  8
ASHADE
  6
Continuous
 62
     7
100
AcDbLine
 10
0.2703701166919155
 20
-0.13
 30
0.0
 11
0.3154318028072347
 21
-0.1516666666666666
 31
0.0
  0
LINE
  5
50
330
42
100
AcDbEntity
  8
ASHADE
  6
Continuous
 62
     7
100
AcDbLine
 10
0.2703701166919155
 20
0.13
 30
0.0
 11
0.3154318028072347
 21
0.1516666666666666
 31
0.0
  0
LINE
  5
51
330
42
100
AcDbEntity
  8
ASHADE
  6
Continuous
 62
     7
100
AcDbLine
 10
0.0
 20
0.3
 30
0.0
 11
0.0
 21
0.4
 31
0.0
  0
ATTDEF
  5
52
330
42
100
AcDbEntity
  8
ASHADE
  6
Continuous
 62
     7
100
AcDbText
 10
0.0
 20
0.22
 30
0.0
 40
0.01
  1
1
100
AcDbAttributeDefinition
280
     0
  3
Light Intensity
  2
INTENSITY
 70
     1
280
     0
  0
ATTDEF
  5
53
330
42
100
AcDbEntity
  8
ASHADE
  6
Continuous
 62
     7
100
AcDbText
 10
0.0
 20
0.16
 30
0.0
 40
0.01
  1
-1
100
AcDbAttributeDefinition
280
     0
  3
*not used*
  2
BEAMD
 70
     1
280
     0
  0
ATTDEF
  5
54
330
42
100
AcDbEntity
  8
ASHADE
  6
Continuous
 62
     7
100
AcDbText
 10
0.0
 20
0.175
 30
0.0
 40
0.01
  1
-1
100
AcDbAttributeDefinition
280
     0
  3
*not used*
  2
CONED
 70
     1
280
     0
  0
ATTDEF
  5
55
330
42
100
AcDbEntity
  8
ASHADE
  6
Continuous
 62
     7
100
AcDbText
 10
0.0
 20
0.19
 30
0.0
 40
0.01
  1
0
100
AcDbAttributeDefinition
280
     0
  3
Depth Map Size
  2
CONEA
 70
     1
280
     0
  0
ATTDEF
  5
56
330
42
100
AcDbEntity
  8
ASHADE
  6
Continuous
 62
     7
100
AcDbText
 10
0.0
 20
0.2050000000000001
 30
0.0
 40
0.01
  1
1,1,1
100
AcDbAttributeDefinition
280
     0
  3
Light Color (RGB)
  2
COLOR
 70
     1
280
     0
  0
ATTDEF
  5
57
330
42
100
AcDbEntity
  8
ASHADE
  6
Continuous
 62
     7
100
AcDbText
 10
0.0
 20
0.235
 30
0.0
 40
0.01
  1

100
AcDbAttributeDefinition
280
     0
  3
Look-at Z
  2
LAZ
 70
     1
280
     0
  0
ATTDEF
  5
58
330
42
100
AcDbEntity
  8
ASHADE
  6
Continuous
 62
     7
100
AcDbText
 10
0.0
 20
0.25
 30
0.0
 40
0.01
  1

100
AcDbAttributeDefinition
280
     0
  3
Look-at Y
  2
LAY
 70
     1
280
     0
  0
ATTDEF
  5
59
330
42
100
AcDbEntity
  8
ASHADE
  6
Continuous
 62
     7
100
AcDbText
 10
0.0
 20
0.265
 30
0.0
 40
0.01
  1

100
AcDbAttributeDefinition
280
     0
  3
Look-at X
  2
LAX
 70
     1
280
     0
  0
ATTDEF
  5
5A
330
42
100
AcDbEntity
  8
ASHADE
  6
Continuous
 62
     7
100
AcDbText
 10
0.0
 20
0.28
 30
0.0
 40
0.01
  1

100
AcDbAttributeDefinition
280
     0
  3

  2
GNAME
 70
     1
280
     0
  0
LINE
  5
5B
330
42
100
AcDbEntity
  8
ASHADE
  6
Continuous
 62
     7
100
AcDbLine
 10
0.1096591641591904
 20
0.2792398032442862
 30
0.0
 11
0.1279356915190555
 21
0.3257797704516674
 31
0.0
  0
LINE
  5
5C
330
42
100
AcDbEntity
  8
ASHADE
  6
Continuous
 62
     7
100
AcDbLine
 10
0.2041413561583015
 20
0.2198324514393849
 30
0.0
 11
0.2721884748777353
 21
0.2931099352525131
 31
0.0
  0
ENDBLK
  5
5E
330
42
100
AcDbEntity
  8
0
100
AcDbBlockEnd
  0
BLOCK
  5
85
330
5F
100
AcDbEntity
  8
0
100
AcDbBlockBegin
  2
sh_spot
 70
     2
 10
0.0
 20
0.0
 30
0.0
  3
sh_spot
  1

  0
LINE
  5
60
330
5F
100
AcDbEntity
  8
ASHADE
  6
Continuous
 62
     7
100
AcDbLine
 10
0.25
 20
0.26
 30
0.0
 11
-0.25
 21
0.26
 31
0.0
  0
LINE
  5
61
330
5F
100
AcDbEntity
  8
ASHADE
  6
Continuous
 62
     7
100
AcDbLine
 10
-0.25
 20
-0.3399999999999999
 30
0.0
 11
0.25
 21
-0.3399999999999999
 31
0.0
  0
ATTDEF
  5
62
330
5F
100
AcDbEntity
  8
ASHADE
  6
Continuous
 62
     1
100
AcDbText
 10
0.0
 20
-0.1
 30
0.0
 40
0.2
  1

  7
ASHADE
 72
     1
 11
0.0
 21
-0.1
 31
0.0
100
AcDbAttributeDefinition
280
     0
  3
Light Name
  2
SNAME
 70
     0
280
     0
  0
LINE
  5
63
330
5F
100
AcDbEntity
  8
ASHADE
  6
Continuous
 62
     7
100
AcDbLine
 10
-0.25
 20
-0.13
 30
0.0
 11
-0.25
 21
-0.3399999999999999
 31
0.0
  0
LINE
  5
64
330
5F
100
AcDbEntity
  8
ASHADE
  6
Continuous
 62
     7
100
AcDbLine
 10
-0.25
 20
-0.18
 30
0.0
 11
-0.29
 21
-0.18
 31
0.0
  0
LINE
  5
65
330
5F
100
AcDbEntity
  8
ASHADE
  6
Continuous
 62
     7
100
AcDbLine
 10
-0.29
 20
-0.22
 30
0.0
 11
-0.25
 21
-0.22
 31
0.0
  0
LINE
  5
66
330
5F
100
AcDbEntity
  8
ASHADE
  6
Continuous
 62
     7
100
AcDbLine
 10
-0.29
 20
-0.18
 30
0.0
 11
-0.29
 21
-0.22
 31
0.0
  0
LINE
  5
67
330
5F
100
AcDbEntity
  8
ASHADE
  6
Continuous
 62
     7
100
AcDbLine
 10
-0.1045454545454545
 20
0.26
 30
0.0
 11
-0.15
 21
0.46
 31
0.0
  0
LINE
  5
68
330
5F
100
AcDbEntity
  8
ASHADE
  6
Continuous
 62
     7
100
AcDbLine
 10
-0.21
 20
0.26
 30
0.0
 11
-0.301304347826087
 21
0.46
 31
0.0
  0
LINE
  5
69
330
5F
100
AcDbEntity
  8
ASHADE
  6
Continuous
 62
     7
100
AcDbLine
 10
-0.25
 20
0.26
 30
0.0
 11
-0.25
 21
0.13
 31
0.0
  0
LINE
  5
6A
330
5F
100
AcDbEntity
  8
ASHADE
  6
Continuous
 62
     7
100
AcDbLine
 10
-0.25
 20
0.22
 30
0.0
 11
-0.29
 21
0.22
 31
0.0
  0
LINE
  5
6B
330
5F
100
AcDbEntity
  8
ASHADE
  6
Continuous
 62
     7
100
AcDbLine
 10
-0.29
 20
0.1799999999999999
 30
0.0
 11
-0.25
 21
0.1799999999999999
 31
0.0
  0
LINE
  5
6C
330
5F
100
AcDbEntity
  8
ASHADE
  6
Continuous
 62
     7
100
AcDbLine
 10
-0.29
 20
0.22
 30
0.0
 11
-0.29
 21
0.1799999999999999
 31
0.0
  0
ATTDEF
  5
6D
330
5F
100
AcDbEntity
  8
ASHADE
  6
Continuous
 62
     7
100
AcDbText
 10
0.0
 20
-0.24
 30
0.0
 40
0.01
  1
0
100
AcDbAttributeDefinition
280
     0
  3
Depth Map Size
  2
ZSIZE
 70
     1
280
     0
  0
ATTDEF
  5
6E
330
5F
100
AcDbEntity
  8
ASHADE
  6
Continuous
 62
     7
100
AcDbText
 10
0.0
 20
-0.3300000000000001
 30
0.0
 40
0.01
  1
0,0,0
100
AcDbAttributeDefinition
280
     0
  3
Look-from XYZ
  2
LFXYZ
 70
     1
280
     0
  0
ATTDEF
  5
6F
330
5F
100
AcDbEntity
  8
ASHADE
  6
Continuous
 62
     7
100
AcDbText
 10
0.0
 20
-0.315
 30
0.0
 40
0.01
  1
0.0
100
AcDbAttributeDefinition
280
     0
  3
Beam Distribution
  2
BEAMDI
 70
     1
280
     0
  0
ATTDEF
  5
70
330
5F
100
AcDbEntity
  8
ASHADE
  6
Continuous
 62
     7
100
AcDbText
 10
0.0
 20
-0.3
 30
0.0
 40
0.01
  1
0.0
100
AcDbAttributeDefinition
280
     0
  3
Cone Delta
  2
CONEDE
 70
     1
280
     0
  0
ATTDEF
  5
71
330
5F
100
AcDbEntity
  8
ASHADE
  6
Continuous
 62
     7
100
AcDbText
 10
0.0
 20
-0.2850000000000001
 30
0.0
 40
0.01
  1
10.0
100
AcDbAttributeDefinition
280
     0
  3
Cone Angle
  2
CONEAN
 70
     1
280
     0
  0
ATTDEF
  5
72
330
5F
100
AcDbEntity
  8
ASHADE
  6
Continuous
 62
     7
100
AcDbText
 10
0.0
 20
-0.27
 30
0.0
 40
0.01
  1
-1
100
AcDbAttributeDefinition
280
     0
  3
*not used*
  2
BIASMAX
 70
     1
280
     0
  0
ATTDEF
  5
73
330
5F
100
AcDbEntity
  8
ASHADE
  6
Continuous
 62
     7
100
AcDbText
 10
0.0
 20
-0.255
 30
0.0
 40
0.01
  1
-1
100
AcDbAttributeDefinition
280
     0
  3
*not used*
  2
BIASMIN
 70
     1
280
     0
  0
ATTDEF
  5
74
330
5F
100
AcDbEntity
  8
ASHADE
  6
Continuous
 62
     7
100
AcDbText
 10
0.0
 20
-0.225
 30
0.0
 40
0.01
  1
1,1,1
100
AcDbAttributeDefinition
280
     0
  3
Light Color (RGB)
  2
COLOR
 70
     1
280
     0
  0
ATTDEF
  5
75
330
5F
100
AcDbEntity
  8
ASHADE
  6
Continuous
 62
     7
100
AcDbText
 10
0.0
 20
-0.21
 30
0.0
 40
0.01
  1
1
100
AcDbAttributeDefinition
280
     0
  3
Light Intensity
  2
INTENSITY
 70
     1
280
     0
  0
ATTDEF
  5
76
330
5F
100
AcDbEntity
  8
ASHADE
  6
Continuous
 62
     7
100
AcDbText
 10
0.0
 20
-0.15
 30
0.0
 40
0.01
  1

100
AcDbAttributeDefinition
280
     0
  3

  2
GNAME
 70
     1
280
     0
  0
ATTDEF
  5
77
330
5F
100
AcDbEntity
  8
ASHADE
  6
Continuous
 62
     7
100
AcDbText
 10
0.0
 20
-0.195
 30
0.0
 40
0.01
  1

100
AcDbAttributeDefinition
280
     0
  3
Look-at Z
  2
LAZ
 70
     1
280
     0
  0
ATTDEF
  5
78
330
5F
100
AcDbEntity
  8
ASHADE
  6
Continuous
 62
     7
100
AcDbText
 10
0.0
 20
-0.18
 30
0.0
 40
0.01
  1

100
AcDbAttributeDefinition
280
     0
  3
Look-at Y
  2
LAY
 70
     1
280
     0
  0
ATTDEF
  5
79
330
5F
100
AcDbEntity
  8
ASHADE
  6
Continuous
 62
     7
100
AcDbText
 10
0.0
 20
-0.165
 30
0.0
 40
0.01
  1

100
AcDbAttributeDefinition
280
     0
  3
Look-at X
  2
LAX
 70
     1
280
     0
  0
LINE
  5
7A
330
5F
100
AcDbEntity
  8
ASHADE
  6
Continuous
 62
     7
100
AcDbLine
 10
0.25
 20
-0.3399999999999999
 30
0.0
 11
0.25
 21
-0.13
 31
0.0
  0
LINE
  5
7B
330
5F
100
AcDbEntity
  8
ASHADE
  6
Continuous
 62
     7
100
AcDbLine
 10
0.25
 20
-0.18
 30
0.0
 11
0.29
 21
-0.18
 31
0.0
  0
LINE
  5
7C
330
5F
100
AcDbEntity
  8
ASHADE
  6
Continuous
 62
     7
100
AcDbLine
 10
0.29
 20
-0.22
 30
0.0
 11
0.25
 21
-0.22
 31
0.0
  0
LINE
  5
7D
330
5F
100
AcDbEntity
  8
ASHADE
  6
Continuous
 62
     7
100
AcDbLine
 10
0.29
 20
-0.18
 30
0.0
 11
0.29
 21
-0.22
 31
0.0
  0
LINE
  5
7E
330
5F
100
AcDbEntity
  8
ASHADE
  6
Continuous
 62
     7
100
AcDbLine
 10
0.21
 20
0.26
 30
0.0
 11
0.301304347826087
 21
0.46
 31
0.0
  0
LINE
  5
7F
330
5F
100
AcDbEntity
  8
ASHADE
  6
Continuous
 62
     7
100
AcDbLine
 10
0.1045454545454545
 20
0.26
 30
0.0
 11
0.15
 21
0.46
 31
0.0
  0
LINE
  5
80
330
5F
100
AcDbEntity
  8
ASHADE
  6
Continuous
 62
     7
100
AcDbLine
 10
0.0
 20
0.26
 30
0.0
 11
0.0
 21
0.46
 31
0.0
  0
LINE
  5
81
330
5F
100
AcDbEntity
  8
ASHADE
  6
Continuous
 62
     7
100
AcDbLine
 10
0.25
 20
0.13
 30
0.0
 11
0.25
 21
0.26
 31
0.0
  0
LINE
  5
82
330
5F
100
AcDbEntity
  8
ASHADE
  6
Continuous
 62
     7
100
AcDbLine
 10
0.25
 20
0.22
 30
0.0
 11
0.29
 21
0.22
 31
0.0
  0
LINE
  5
83
330
5F
100
AcDbEntity
  8
ASHADE
  6
Continuous
 62
     7
100
AcDbLine
 10
0.29
 20
0.1799999999999999
 30
0.0
 11
0.25
 21
0.1799999999999999
 31
0.0
  0
LINE
  5
84
330
5F
100
AcDbEntity
  8
ASHADE
  6
Continuous
 62
     7
100
AcDbLine
 10
0.29
 20
0.22
 30
0.0
 11
0.29
 21
0.1799999999999999
 31
0.0
  0
ENDBLK
  5
86
330
5F
100
AcDbEntity
  8
0
100
AcDbBlockEnd
  0
BLOCK
  5
92
330
91
100
AcDbEntity
  8
ASHADE
100
AcDbBlockBegin
  2
AVE_RENDER
 70
     0
 10
0.0
 20
0.0
 30
0.0
  3
AVE_RENDER
  1
AVE_RENDER
  0
ENDBLK
  5
93
330
91
100
AcDbEntity
  8
0
100
AcDbBlockEnd
  0
BLOCK
  5
A0
330
9F
100
AcDbEntity
  8
ASHADE
100
AcDbBlockBegin
  2
AVE_GLOBAL
 70
     0
 10
0.0
 20
0.0
 30
0.0
  3
AVE_GLOBAL
  1
AVE_GLOBAL
  0
ENDBLK
  5
A1
330
9F
100
AcDbEntity
  8
0
100
AcDbBlockEnd
  0
ENDSEC
  0
SECTION
  2
ENTITIES
  0
INSERT
  5
94
330
1F
100
AcDbEntity
  8
ASHADE
 62
     1
100
AcDbBlockReference
  2
AVE_RENDER
 10
0.0
 20
0.0
 30
0.0
1001
AVE_RENDER
1002
{
1070
     7
1000
Pref
1070
    30
1070
    20
1070
     1
1070
     0
1000

1070
    10
1070
     1
1070
    10
1040
1.0
1070
     1
1040
0.3
1040
0.7
1040
0.0
1040
10.0
1010
-1.0
1020
-1.0
1030
-1.0
1040
0.3
1070
    49
1070
     0
1070
     0
1010
1.0
1020
1.0
1030
1.0
1040
45.0
1070
     1
1070
     0
1000
WCS
1040
0.0
1070
     0
1040
10.0
1002
}
  0
INSERT
  5
95
330
1F
100
AcDbEntity
  8
ASHADE
 62
     3
100
AcDbBlockReference
  2
AVE_RENDER
 10
0.0
 20
0.0
 30
0.0
1001
AVE_RENDER
1002
{
1070
     0
1000
Full Opt
1070
     0
1070
     1
1070
     1
1070
     1
1070
     0
1070
     0
1070
     0
1070
     1
1070
     1
1040
0.0001
1040
0.0001
1002
}
  0
INSERT
  5
96
330
1F
100
AcDbEntity
  8
ASHADE
 62
     4
100
AcDbBlockReference
  2
AVE_RENDER
 10
0.0
 20
0.0
 30
0.0
1001
AVE_RENDER
1002
{
1070
     0
1000
Quick Opt
1070
     0
1070
     1
1070
     1
1070
     1
1070
     0
1070
     0
1070
     1
1002
}
  0
INSERT
  5
97
330
1F
100
AcDbEntity
  8
ASHADE
 62
     5
100
AcDbBlockReference
  2
AVE_RENDER
 10
0.0
 20
0.0
 30
0.0
1001
AVE_RENDER
1002
{
1070
     1
1000
Scanl Opt
1070
     2
1070
     0
1070
     2
1040
2.0
1040
4.0
1070
     0
1070
     1
1070
     0
1040
0.03
1002
}
  0
INSERT
  5
98
330
1F
100
AcDbEntity
  8
ASHADE
 62
     6
100
AcDbBlockReference
  2
AVE_RENDER
 10
0.0
 20
0.0
 30
0.0
1001
AVE_RENDER
1002
{
1070
     2
1000
Raytr Opt
1070
     2
1070
     0
1070
     2
1040
2.0
1040
4.0
1070
     0
1070
     1
1070
     1
1040
0.03
1070
     3
1040
0.03
1002
}
  0
INSERT
  5
99
330
1F
100
AcDbEntity
  8
ASHADE
 62
     7
100
AcDbBlockReference
  2
AVE_RENDER
 10
0.0
 20
0.0
 30
0.0
1001
AVE_RENDER
1002
{
1070
     0
1000
RFile Opt
1070
     1
1070
   640
1070
   480
1070
 10000
1070
     1
1070
     8
1070
     8
1070
     0
1070
     0
1070
     0
1070
     0
1070
     0
1070
     0
1070
     0
1002
}
  0
INSERT
  5
9A
330
1F
100
AcDbEntity
  8
ASHADE
 62
     8
100
AcDbBlockReference
  2
AVE_RENDER
 10
0.0
 20
0.0
 30
0.0
1001
AVE_RENDER
1002
{
1070
     0
1000
Fog Opt
1070
     0
1070
     0
1040
0.0
1040
1.0
1040
0.0
1040
1.0
1010
0.5
1020
0.5
1030
0.5
1002
}
  0
INSERT
  5
9B
330
1F
100
AcDbEntity
  8
ASHADE
 62
     9
100
AcDbBlockReference
  2
AVE_RENDER
 10
0.0
 20
0.0
 30
0.0
1001
AVE_RENDER
1002
{
1070
     0
1000
BG Opt
1070
     0
1070
     1
1010
0.0
1020
0.0
1030
0.0
1010
1.0
1020
0.0
1030
0.0
1010
0.0
1020
1.0
1030
0.0
1010
0.0
1020
0.0
1030
1.0
1040
0.5
1040
0.33
1040
0.0
1000

1070
     1
1000

1070
     1
1070
     1
1040
1.0
1040
1.0
1040
0.0
1040
0.0
1070
     0
1002
}
  0
INSERT
  5
A2
330
1F
100
AcDbEntity
  8
ASHADE
 62
     1
100
AcDbBlockReference
  2
AVE_GLOBAL
 10
0.0
 20
0.0
 30
0.0
1001
AVE_MATERIAL
1002
{
1000
*GLOBAL*
1000
2
1000
Global finish.
1002
{
1002
}
1002
{
1070
    63
1002
{
1002
{
1010
-1.0
1020
-1.0
1030
-1.0
1002
}
1040
0.1000000014901161
1000

1040
0.0
1002
{
1002
}
1040
0.0
1002
{
1002
}
1040
0.0
1002
}
1002
{
1002
{
1010
-1.0
1020
-1.0
1030
-1.0
1002
}
1040
0.6999999880790711
1000

1040
0.0
1002
{
1002
}
1040
0.0
1002
{
1002
}
1040
0.0
1002
}
1002
{
1002
{
1010
-1.0
1020
-1.0
1030
-1.0
1002
}
1040
0.2000000029802322
1000

1040
0.0
1002
{
1002
}
1040
0.0
1002
{
1002
}
1040
0.0
1002
}
1002
{
1070
     0
1002
{
1070
     1
1002
{
1040
1.0
1040
1.0
1000

1040
0.0
1002
{
1002
}
1040
0.0
1002
{
1002
}
1040
0.0
1002
}
1002
}
1040
1.0
1040
0.0
1040
0.0
1002
}
1002
{
1040
1.0
1040
1.0
1000

1040
0.0
1002
{
1002
}
1040
0.0
1002
{
1002
}
1040
0.0
1002
}
1002
{
1040
0.5
1040
1.0
1000

1040
0.0
1002
{
1002
}
1040
0.0
1002
{
1002
}
1040
0.0
1002
}
1002
{
1070
     0
1040
0.0
1002
{
1002
}
1040
1.0
1002
{
1002
}
1040
0.0
1002
}
1002
{
1040
0.0
1002
{
1002
{
1010
0.0
1020
0.0
1030
0.0
1002
}
1040
1.0
1000

1040
0.0
1002
{
1002
}
1040
0.0
1002
{
1002
}
1040
0.0
1002
}
1002
}
1002
{
1002
{
1070
     1
1002
{
1040
0.0
1040
1.0
1000

1040
0.0
1002
{
1002
}
1040
0.0
1002
{
1002
}
1040
0.0
1002
}
1002
}
1040
0.0
1002
{
1002
}
1010
1.0
1020
0.0
1030
0.0
1010
0.0
1020
1.0
1030
0.0
1010
0.0
1020
0.0
1030
1.0
1070
     0
1002
}
1002
{
1002
{
1040
1.0
1040
1.0
1002
{
1070
     1
1002
{
1040
1.0
1040
1.0
1000

1040
0.0
1002
{
1002
}
1040
0.0
1002
{
1002
}
1040
0.0
1002
}
1002
}
1002
}
1070
     0
1040
0.0
1002
{
1002
}
1002
}
1002
{
1002
}
1002
}
1002
{
1071
        3
1070
     3
1070
     0
1002
{
1070
     2
1070
     0
1070
     0
1040
0.0
1002
}
1070
     0
1070
     2
1002
{
1002
}
1002
}
1002
{
1040
8030.0
1040
190.3000030517578
1040
0.3050000071525574
1040
228.0
1040
545.0
1040
14.0
1040
17.39999961853027
1040
0.4560000002384186
1002
}
1002
}
  0
MESH
  5
F9
330
1F
100
AcDbEntity
  8
OracDecor_cornice_mouldings
 62
   221
420
 15047383
160
             44864
310
40AF0000DE0400000C00000013000000020000003C00000006000000020000000000004000408FC000000000008051C0000000000000F43E0000004000408FC0000000202C6F51C000000000033B10C00C000000130000000A0000003C00000006000000020000000000004000408FC0000000202C6F51C000000000033B10
310
C0000000C0FF3F8F40000000402C6F51C000000000033B10C00C00000013000000120000003C0000000600000002000000000000C0FF3F8F40000000402C6F51C000000000033B10C0000000C0FF3F8F4000000000008051C0000000000000F43E0C000000130000001A0000003C0000000600000002000000000000400040
310
8FC000000000008051C0000000000000F43E000000C0FF3F8F4000000000008051C0000000000000F43E0C00000013000000220000003C00000006000000020000000000004000408FC0000000202C6F51C000000000033B10C00000004000408FC0000000208C6A51C000000000CB2411C00C000000130000002A0000003C
310
00000006000000020000000000004000408FC0000000208C6A51C000000000CB2411C0000000C0FF3F8F40000000408C6A51C000000000CB2411C00C00000013000000320000003C0000000600000002000000000000C0FF3F8F40000000408C6A51C000000000CB2411C0000000C0FF3F8F40000000402C6F51C000000000
310
033B10C00C000000130000003A0000003C00000006000000020000000000004000408FC0000000208C6A51C000000000CB2411C00000004000408FC000000040AA5F51C0000000004BD111C00C00000013000000420000003C00000006000000020000000000004000408FC000000040AA5F51C0000000004BD111C0000000
310
C0FF3F8F4000000040AA5F51C0000000004BD111C00C000000130000004A0000003C0000000600000002000000000000C0FF3F8F4000000040AA5F51C0000000004BD111C0000000C0FF3F8F40000000408C6A51C000000000CB2411C00C00000013000000520000003C00000006000000020000000000004000408FC00000
310
0040AA5F51C0000000004BD111C00000004000408FC000000000035151C0000000001E1912C00C000000130000005A0000003C00000006000000020000000000004000408FC000000000035151C0000000001E1912C0000000C0FF3F8F4000000000035151C0000000001E1912C00C00000013000000620000003C00000006
310
00000002000000000000C0FF3F8F4000000000035151C0000000001E1912C0000000C0FF3F8F4000000040AA5F51C0000000004BD111C00C000000130000006A0000003C00000006000000020000000000004000408FC000000000035151C0000000001E1912C00000004000408FC00000006022BE50C000000000759B12C0
310
0C00000013000000720000003C00000006000000020000000000004000408FC00000006022BE50C000000000759B12C0000000C0FF3F8F400000008022BE50C000000000759B12C00C000000130000007A0000003C0000000600000002000000000000C0FF3F8F400000008022BE50C000000000759B12C0000000C0FF3F8F
310
4000000000035151C0000000001E1912C00C00000013000000820000003C00000006000000020000000000004000408FC00000006022BE50C000000000759B12C00000004000408FC0000000E03FAD50C000000000B4FA12C00C000000130000008A0000003C00000006000000020000000000004000408FC0000000E03FAD
310
50C000000000B4FA12C0000000C0FF3F8F400000000040AD50C000000000B4FA12C00C00000013000000920000003C0000000600000002000000000000C0FF3F8F400000000040AD50C000000000B4FA12C0000000C0FF3F8F400000008022BE50C000000000759B12C00C000000130000009A0000003C0000000600000002
310
0000000000004000408FC0000000E03FAD50C000000000B4FA12C00000004000408FC00000006034A250C00000000024DC13C00C00000013000000A20000003C00000006000000020000000000004000408FC00000006034A250C00000000024DC13C0000000C0FF3F8F400000008034A250C00000000024DC13C00C000000
310
13000000AA0000003C0000000600000002000000000000C0FF3F8F400000008034A250C00000000024DC13C0000000C0FF3F8F400000000040AD50C000000000B4FA12C00C00000013000000B20000003C00000006000000020000000000004000408FC00000006034A250C00000000024DC13C00000004000408FC0000000
310
009A5350C000000000B4B61CC00C00000013000000BA0000003C00000006000000020000000000004000408FC0000000009A5350C000000000B4B61CC0000000C0FF3F8F40000000009A5350C000000000B4B61CC00C00000013000000C20000003C0000000600000002000000000000C0FF3F8F400000008034A250C00000
310
000024DC13C0000000C0FF3F8F40000000009A5350C000000000B4B61CC00C00000013000000CA0000003C00000006000000020000000000004000408FC0000000409A1750C00000004046EB20C00000004000408FC0000000E0A2964FC0000000405A7123C00C00000013000000D20000003C000000060000000200000000
310
00004000408FC0000000E0A2964FC0000000405A7123C0000000C0FF3F8F40000000E0A2964FC0000000405A7123C00C00000013000000DA0000003C0000000600000002000000000000C0FF3F8F40000000409A1750C00000004046EB20C0000000C0FF3F8F40000000E0A2964FC0000000405A7123C00C00000013000000
310
E20000003C00000006000000020000000000004000408FC0000000409A1750C00000004046EB20C0000000C0FF3F8F40000000409A1750C00000004046EB20C00C00000013000000EA0000003C00000006000000020000000000004000408FC0000000E0B9F94EC0000000C0BC7525C00000004000408FC0000000A0D73D4E
310
C0000000C0145027C00C00000013000000F20000003C00000006000000020000000000004000408FC0000000A0D73D4EC0000000C0145027C0000000C0FF3F8F40000000A0D73D4EC0000000C0145027C00C00000013000000FA0000003C0000000600000002000000000000C0FF3F8F40000000E0B9F94EC0000000C0BC75
310
25C0000000C0FF3F8F40000000A0D73D4EC0000000C0145027C00C00000013000000020100003C00000006000000020000000000004000408FC0000000E0B9F94EC0000000C0BC7525C0000000C0FF3F8F40000000E0B9F94EC0000000C0BC7525C00C000000130000000A0100003C00000006000000020000000000004000
310
408FC000000080D0854DC000000080B7A828C00000004000408FC0000000409D514CC00000000053372AC00C00000013000000120100003C00000006000000020000000000004000408FC0000000409D514CC00000000053372AC0000000C0FF3F8F40000000409D514CC0000000C052372AC00C000000130000001A010000
310
3C0000000600000002000000000000C0FF3F8F4000000080D0854DC000000080B7A828C0000000C0FF3F8F40000000409D514CC0000000C052372AC00C00000013000000220100003C00000006000000020000000000004000408FC000000080D0854DC000000080B7A828C0000000C0FF3F8F4000000080D0854DC0000000
310
80B7A828C00C000000130000002A0100003C00000006000000020000000000004000408FC0000000409D514CC00000000053372AC00000004000408FC000000080B0374CC0000000006C642AC00C00000013000000320100003C00000006000000020000000000004000408FC000000080B0374CC0000000006C642AC00000
310
00C0FF3F8F4000000080B0374CC0000000C06B642AC00C000000130000003A0100003C0000000600000002000000000000C0FF3F8F4000000080B0374CC0000000C06B642AC0000000C0FF3F8F40000000409D514CC0000000C052372AC00C00000013000000420100003C00000006000000020000000000004000408FC000
310
000080B0374CC0000000006C642AC00000004000408FC0000000C027254CC0000000C0C0B92AC00C000000130000004A0100003C00000006000000020000000000004000408FC0000000C027254CC0000000C0C0B92AC0000000C0FF3F8F40000000C027254CC0000000C0C0B92AC00C00000013000000520100003C000000
310
0600000002000000000000C0FF3F8F4000000080B0374CC0000000C06B642AC0000000C0FF3F8F40000000C027254CC0000000C0C0B92AC00C000000130000005A0100003C00000006000000020000000000004000408FC0000000C027254CC0000000C0C0B92AC00000004000408FC0000000409D1D4CC000000080BC262B
310
C00C00000013000000620100003C00000006000000020000000000004000408FC0000000409D1D4CC000000080BC262BC0000000C0FF3F8F40000000409D1D4CC000000040BC262BC00C000000130000006A0100003C0000000600000002000000000000C0FF3F8F40000000409D1D4CC000000040BC262BC0000000C0FF3F
310
8F40000000C027254CC0000000C0C0B92AC00C00000013000000720100003C00000006000000020000000000004000408FC0000000409D1D4CC000000080BC262BC00000004000408FC0000000004F134CC000000000D88D2EC00C000000130000007A0100003C00000006000000020000000000004000408FC0000000004F
310
134CC000000000D88D2EC0000000C0FF3F8F40000000004F134CC0000000E0D78D2EC00C00000013000000820100003C0000000600000002000000000000C0FF3F8F40000000409D1D4CC000000040BC262BC0000000C0FF3F8F40000000004F134CC0000000E0D78D2EC00C000000130000008A0100003C00000006000000
310
020000000000004000408FC0000000004F134CC000000000D88D2EC00000004000408FC0000000A0740B4CC0000000C01FFD2EC00C00000013000000920100003C00000006000000020000000000004000408FC0000000A0740B4CC0000000C01FFD2EC0000000C0FF3F8F40000000A0740B4CC0000000C01FFD2EC00C0000
310
00130000009A0100003C0000000600000002000000000000C0FF3F8F40000000004F134CC0000000E0D78D2EC0000000C0FF3F8F40000000A0740B4CC0000000C01FFD2EC00C00000013000000A20100003C00000006000000020000000000004000408FC0000000A0740B4CC0000000C01FFD2EC00000004000408FC00000
310
00402CF84BC0000000C034532FC00C00000013000000AA0100003C00000006000000020000000000004000408FC0000000402CF84BC0000000C034532FC0000000C0FF3F8F40000000402CF84BC0000000C034532FC00C00000013000000B20100003C0000000600000002000000000000C0FF3F8F40000000A0740B4CC000
310
0000C01FFD2EC0000000C0FF3F8F40000000402CF84BC0000000C034532FC00C00000013000000BA0100003C00000006000000020000000000004000408FC0000000402CF84BC0000000C034532FC00000004000408FC00000000061DD4BC000000080997E2FC00C00000013000000C20100003C0000000600000002000000
310
0000004000408FC00000000061DD4BC000000080997E2FC0000000C0FF3F8F400000000061DD4BC000000060997E2FC00C00000013000000CA0100003C0000000600000002000000000000C0FF3F8F40000000402CF84BC0000000C034532FC0000000C0FF3F8F400000000061DD4BC000000060997E2FC00C000000130000
310
00D20100003C00000006000000020000000000004000408FC00000000061DD4BC000000080997E2FC00000004000408FC0000000C0692F4BC000000040C8FB2FC00C00000013000000DA0100003C00000006000000020000000000004000408FC0000000C0692F4BC000000040C8FB2FC0000000C0FF3F8F40000000C0692F
310
4BC000000040C8FB2FC00C00000013000000E20100003C0000000600000002000000000000C0FF3F8F400000000061DD4BC000000060997E2FC0000000C0FF3F8F40000000C0692F4BC000000040C8FB2FC00C00000013000000EA0100003C00000006000000020000000000004000408FC0000000C0692F4BC000000040C8
310
FB2FC00000004000408FC000000040524D4AC0000000407D6930C00C00000013000000F20100003C00000006000000020000000000004000408FC000000040524D4AC0000000407D6930C0000000C0FF3F8F4000000040524D4AC0000000407D6930C00C00000013000000FA0100003C0000000600000002000000000000C0
310
FF3F8F4000000040524D4AC0000000407D6930C0000000C0FF3F8F40000000C0692F4BC000000040C8FB2FC00C00000013000000020200003C00000006000000020000000000004000408FC000000040524D4AC0000000407D6930C00000004000408FC0000000C05F7149C00000004038F230C00C000000130000000A0200
310
003C00000006000000020000000000004000408FC0000000C05F7149C00000004038F230C0000000C0FF3F8F40000000C05F7149C00000004038F230C00C00000013000000120200003C0000000600000002000000000000C0FF3F8F4000000040524D4AC0000000407D6930C0000000C0FF3F8F40000000C05F7149C00000
310
004038F230C00C000000130000001A0200003C00000006000000020000000000004000408FC0000000C05F7149C00000004038F230C00000004000408FC0000000403DA148C0000000401E9731C00C00000013000000220200003C00000006000000020000000000004000408FC0000000403DA148C0000000401E9731C000
310
0000C0FF3F8F40000000403DA148C0000000401E9731C00C000000130000002A0200003C0000000600000002000000000000C0FF3F8F40000000C05F7149C00000004038F230C0000000C0FF3F8F40000000403DA148C0000000401E9731C00C00000013000000320200003C00000006000000020000000000004000408FC0
310
000000403DA148C0000000401E9731C00000004000408FC000000040BEDF47C000000000AF5732C00C000000130000003A0200003C00000006000000020000000000004000408FC000000040BEDF47C000000000AF5732C0000000C0FF3F8F4000000040BEDF47C000000000AF5732C00C00000013000000420200003C0000
310
000600000002000000000000C0FF3F8F40000000403DA148C0000000401E9731C0000000C0FF3F8F4000000040BEDF47C000000000AF5732C00C000000130000004A0200003C00000006000000020000000000004000408FC000000040BEDF47C000000000AF5732C00000004000408FC000000040544247C0000000A06015
310
33C00C00000013000000520200003C00000006000000020000000000004000408FC000000040544247C0000000A0601533C0000000C0FF3F8F4000000040544247C0000000A0601533C00C000000130000005A0200003C0000000600000002000000000000C0FF3F8F4000000040BEDF47C000000000AF5732C0000000C0FF
310
3F8F4000000040544247C0000000A0601533C00C00000013000000620200003C00000006000000020000000000004000408FC000000040544247C0000000A0601533C00000004000408FC000000000C2B646C0000000802ADD33C00C000000130000006A0200003C00000006000000020000000000004000408FC000000000
310
C2B646C0000000802ADD33C0000000C0FF3F8F4000000000C2B646C0000000802ADD33C00C00000013000000720200003C0000000600000002000000000000C0FF3F8F4000000000C2B646C0000000802ADD33C0000000C0FF3F8F4000000040544247C0000000A0601533C00C000000130000007A0200003C000000060000
310
00020000000000004000408FC000000000C2B646C0000000802ADD33C00000004000408FC0000000800E3246C0000000003FBB34C00C00000013000000820200003C00000006000000020000000000004000408FC0000000800E3246C0000000003FBB34C0000000C0FF3F8F40000000800E3246C0000000003FBB34C00C00
310
0000130000008A0200003C0000000600000002000000000000C0FF3F8F4000000000C2B646C0000000802ADD33C0000000C0FF3F8F40000000800E3246C0000000003FBB34C00C00000013000000920200003C00000006000000020000000000004000408FC0000000800E3246C0000000003FBB34C00000004000408FC000
310
0000803AC145C000000080479435C00C000000130000009A0200003C00000006000000020000000000004000408FC0000000803AC145C000000080479435C0000000C0FF3F8F40000000803AC145C000000080479435C00C00000013000000A20200003C0000000600000002000000000000C0FF3F8F40000000803AC145C0
310
00000080479435C0000000C0FF3F8F40000000800E3246C0000000003FBB34C00C00000013000000AA0200003C00000006000000020000000000004000408FC0000000803AC145C000000080479435C00000004000408FC0000000C0195845C0000000A0E47A36C00C00000013000000B20200003C00000006000000020000
310
000000004000408FC0000000C0195845C0000000A0E47A36C0000000C0FF3F8F40000000C0195845C0000000A0E47A36C00C00000013000000BA0200003C0000000600000002000000000000C0FF3F8F40000000803AC145C000000080479435C0000000C0FF3F8F40000000C0195845C0000000A0E47A36C00C0000001300
310
0000C20200003C00000006000000020000000000004000408FC0000000C0195845C0000000A0E47A36C00000004000408FC000000040A7F144C0000000A07E7837C00C00000013000000CA0200003C00000006000000020000000000004000408FC000000040A7F144C0000000A07E7837C0000000C0FF3F8F4000000040A7
310
F144C0000000A07E7837C00C00000013000000D20200003C0000000600000002000000000000C0FF3F8F40000000C0195845C0000000A0E47A36C0000000C0FF3F8F4000000040A7F144C0000000A07E7837C00C00000013000000DA0200003C00000006000000020000000000004000408FC000000040A7F144C0000000A0
310
7E7837C00000004000408FC000000000D59044C0000000E0FC8238C00C00000013000000E20200003C00000006000000020000000000004000408FC000000000D59044C0000000E0FC8238C0000000C0FF3F8F4000000000D59044C0000000E0FC8238C00C00000013000000EA0200003C0000000600000002000000000000
310
C0FF3F8F4000000040A7F144C0000000A07E7837C0000000C0FF3F8F4000000000D59044C0000000E0FC8238C00C00000013000000F20200003C00000006000000020000000000004000408FC000000000D59044C0000000E0FC8238C00000004000408FC000000020713B44C0000000A0458639C00C00000013000000FA02
310
00003C00000006000000020000000000004000408FC000000020713B44C0000000A0458639C0000000C0FF3F8F4000000020713B44C0000000A0458639C00C00000013000000020300003C0000000600000002000000000000C0FF3F8F4000000020713B44C0000000A0458639C0000000C0FF3F8F4000000000D59044C000
310
0000E0FC8238C00C000000130000000A0300003C00000006000000020000000000004000408FC000000020713B44C0000000A0458639C00000004000408FC000000060EFE743C0000000E0C39A3AC00C00000013000000120300003C00000006000000020000000000004000408FC000000060EFE743C0000000E0C39A3AC0
310
000000C0FF3F8F4000000060EFE743C0000000E0C39A3AC00C000000130000001A0300003C0000000600000002000000000000C0FF3F8F4000000020713B44C0000000A0458639C0000000C0FF3F8F4000000060EFE743C0000000E0C39A3AC00C00000013000000220300003C00000006000000020000000000004000408F
310
C000000060EFE743C0000000E0C39A3AC00000004000408FC0000000E0469443C000000020BFBD3BC00C000000130000002A0300003C00000006000000020000000000004000408FC0000000E0469443C000000020BFBD3BC0000000C0FF3F8F40000000E0469443C000000020BFBD3BC00C00000013000000320300003C00
310
00000600000002000000000000C0FF3F8F4000000060EFE743C0000000E0C39A3AC0000000C0FF3F8F40000000E0469443C000000020BFBD3BC00C000000130000003A0300003C00000006000000020000000000004000408FC0000000E0469443C000000020BFBD3BC00000004000408FC0000000E0344243C000000060A7
310
E93CC00C00000013000000420300003C00000006000000020000000000004000408FC0000000E0344243C000000060A7E93CC0000000C0FF3F8F40000000E0344243C000000060A7E93CC00C000000130000004A0300003C0000000600000002000000000000C0FF3F8F40000000E0469443C000000020BFBD3BC0000000C0
310
FF3F8F40000000E0344243C000000060A7E93CC00C00000013000000520300003C00000006000000020000000000004000408FC0000000E0344243C000000060A7E93CC00000004000408FC0000000A0CBF642C0000000A0DA063EC00C000000130000005A0300003C00000006000000020000000000004000408FC0000000
310
A0CBF642C0000000A0DA063EC0000000C0FF3F8F40000000A0CBF642C0000000A0DA063EC00C00000013000000620300003C0000000600000002000000000000C0FF3F8F40000000A0CBF642C0000000A0DA063EC0000000C0FF3F8F40000000E0344243C000000060A7E93CC00C000000130000006A0300003C0000000600
310
0000020000000000004000408FC0000000A0CBF642C0000000A0DA063EC00000004000408FC0000000C076AA42C00000000005223FC00C00000013000000720300003C00000006000000020000000000004000408FC0000000C076AA42C00000000005223FC0000000C0FF3F8F40000000C076AA42C00000000005223FC00C
310
000000130000007A0300003C0000000600000002000000000000C0FF3F8F40000000A0CBF642C0000000A0DA063EC0000000C0FF3F8F40000000C076AA42C00000000005223FC00C00000013000000820300003C00000006000000020000000000004000408FC0000000C076AA42C00000000005223FC00000004000408FC0
310
00000000F65C42C0000000807B1D40C00C000000130000008A0300003C00000006000000020000000000004000408FC000000000F65C42C0000000807B1D40C0000000C0FF3F8F4000000000F65C42C0000000807B1D40C00C00000013000000920300003C0000000600000002000000000000C0FF3F8F4000000000F65C42
310
C0000000807B1D40C0000000C0FF3F8F40000000C076AA42C00000000005223FC00C000000130000009A0300003C00000006000000020000000000004000408FC000000000F65C42C0000000807B1D40C00000004000408FC000000080890E42C0000000C0ECA840C00C00000013000000A20300003C000000060000000200
310
00000000004000408FC000000080890E42C0000000C0ECA840C0000000C0FF3F8F4000000080890E42C0000000C0ECA840C00C00000013000000AA0300003C0000000600000002000000000000C0FF3F8F4000000000F65C42C0000000807B1D40C0000000C0FF3F8F4000000080890E42C0000000C0ECA840C00C00000013
310
000000B20300003C00000006000000020000000000004000408FC000000080890E42C0000000C0ECA840C00000004000408FC000000080FFB741C000000060603941C00C00000013000000BA0300003C00000006000000020000000000004000408FC000000080FFB741C000000060603941C0000000C0FF3F8F4000000080
310
FFB741C000000060603941C00C00000013000000C20300003C0000000600000002000000000000C0FF3F8F4000000080890E42C0000000C0ECA840C0000000C0FF3F8F4000000080FFB741C000000060603941C00C00000013000000CA0300003C00000006000000020000000000004000408FC000000080FFB741C0000000
310
60603941C00000004000408FC000000020855E41C0000000C0C8C241C00C00000013000000D20300003C00000006000000020000000000004000408FC000000020855E41C0000000C0C8C241C0000000C0FF3F8F4000000020855E41C0000000C0C8C241C00C00000013000000DA0300003C00000006000000020000000000
310
00C0FF3F8F4000000080FFB741C000000060603941C0000000C0FF3F8F4000000020855E41C0000000C0C8C241C00C00000013000000E20300003C00000006000000020000000000004000408FC000000020855E41C0000000C0C8C241C00000004000408FC0000000401B0441C000000040E04242C00C00000013000000EA
310
0300003C00000006000000020000000000004000408FC0000000401B0441C000000040E04242C0000000C0FF3F8F40000000401B0441C000000040E04242C00C00000013000000F20300003C0000000600000002000000000000C0FF3F8F40000000401B0441C000000040E04242C0000000C0FF3F8F4000000020855E41C0
310
000000C0C8C241C00C00000013000000FA0300003C00000006000000020000000000004000408FC0000000401B0441C000000040E04242C00000004000408FC0000000C0DAA740C0000000407AB942C00C00000013000000020400003C00000006000000020000000000004000408FC0000000C0DAA740C0000000407AB942
310
C0000000C0FF3F8F40000000C0DAA740C0000000407AB942C00C000000130000000A0400003C0000000600000002000000000000C0FF3F8F40000000401B0441C000000040E04242C0000000C0FF3F8F40000000C0DAA740C0000000407AB942C00C00000013000000120400003C0000000600000002000000000000400040
310
8FC0000000C0DAA740C0000000407AB942C00000004000408FC000000000053240C000000080B03F43C00C000000130000001A0400003C00000006000000020000000000004000408FC000000000053240C000000080B03F43C0000000C0FF3F8F4000000000053240C000000080B03F43C00C00000013000000220400003C
310
0000000600000002000000000000C0FF3F8F40000000C0DAA740C0000000407AB942C0000000C0FF3F8F4000000000053240C000000080B03F43C00C000000130000002A0400003C00000006000000020000000000004000408FC000000000053240C000000080B03F43C00000004000408FC00000002034613FC0000000C0
310
88C043C00C00000013000000320400003C00000006000000020000000000004000408FC00000002034613FC0000000C088C043C0000000C0FF3F8F400000002034613FC0000000C088C043C00C000000130000003A0400003C0000000600000002000000000000C0FF3F8F4000000000053240C000000080B03F43C0000000
310
C0FF3F8F400000002034613FC0000000C088C043C00C00000013000000420400003C00000006000000020000000000004000408FC00000002034613FC0000000C088C043C00000004000408FC0000000602D573EC000000060FE3244C00C000000130000004A0400003C00000006000000020000000000004000408FC00000
310
00602D573EC000000060FE3244C0000000C0FF3F8F40000000602D573EC000000060FE3244C00C00000013000000520400003C0000000600000002000000000000C0FF3F8F400000002034613FC0000000C088C043C0000000C0FF3F8F40000000602D573EC000000060FE3244C00C000000130000005A0400003C00000006
310
000000020000000000004000408FC0000000602D573EC000000060FE3244C00000004000408FC000000080703E3DC000000000FB9944C00C00000013000000620400003C00000006000000020000000000004000408FC000000080703E3DC000000000FB9944C0000000C0FF3F8F4000000080703E3DC000000000FB9944C0
310
0C000000130000006A0400003C0000000600000002000000000000C0FF3F8F40000000602D573EC000000060FE3244C0000000C0FF3F8F4000000080703E3DC000000000FB9944C00C00000013000000720400003C00000006000000020000000000004000408FC000000080703E3DC000000000FB9944C00000004000408F
310
C0000000203C103CC000000080A1F844C00C000000130000007A0400003C00000006000000020000000000004000408FC0000000203C103CC000000080A1F844C0000000C0FF3F8F40000000203C103CC000000080A1F844C00C00000013000000820400003C0000000600000002000000000000C0FF3F8F4000000080703E
310
3DC000000000FB9944C0000000C0FF3F8F40000000203C103CC000000080A1F844C00C000000130000008A0400003C00000006000000020000000000004000408FC0000000203C103CC000000080A1F844C00000004000408FC000000080EDCC3AC000000040E84D45C00C00000013000000920400003C0000000600000002
310
0000000000004000408FC000000080EDCC3AC000000040E84D45C0000000C0FF3F8F4000000080EDCC3AC000000040E84D45C00C000000130000009A0400003C0000000600000002000000000000C0FF3F8F40000000203C103CC000000080A1F844C0000000C0FF3F8F4000000080EDCC3AC000000040E84D45C00C000000
310
13000000A20400003C00000006000000020000000000004000408FC000000080EDCC3AC000000040E84D45C00000004000408FC0000000C0027139C000000080DC9945C00C00000013000000AA0400003C00000006000000020000000000004000408FC0000000C0027139C000000080DC9945C0000000C0FF3F8F40000000
310
C0027139C000000080DC9945C00C00000013000000B20400003C0000000600000002000000000000C0FF3F8F4000000080EDCC3AC000000040E84D45C0000000C0FF3F8F40000000C0027139C000000080DC9945C00C00000013000000BA0400003C00000006000000020000000000004000408FC0000000C0027139C00000
310
0080DC9945C00000004000408FC0000000C0000238C000000080CFDB45C00C00000013000000C20400003C00000006000000020000000000004000408FC0000000C0000238C000000080CFDB45C0000000C0FF3F8F40000000C0000238C000000080CFDB45C00C00000013000000CA0400003C000000060000000200000000
310
0000C0FF3F8F40000000C0000238C000000080CFDB45C0000000C0FF3F8F40000000C0027139C000000080DC9945C00C00000013000000D20400003C00000006000000020000000000004000408FC0000000C0000238C000000080CFDB45C00000004000408FC0000000801A8536C0000000809A1246C00C00000013000000
310
DA0400003C00000006000000020000000000004000408FC0000000801A8536C0000000809A1246C0000000C0FF3F8F40000000801A8536C0000000809A1246C00C00000013000000E20400003C0000000600000002000000000000C0FF3F8F40000000C0000238C000000080CFDB45C0000000C0FF3F8F40000000801A8536
310
C0000000809A1246C00C00000013000000EA0400003C00000006000000020000000000004000408FC0000000801A8536C0000000809A1246C00000004000408FC0000000004EC234C0000000E09A4446C00C00000013000000F20400003C00000006000000020000000000004000408FC0000000004EC234C0000000E09A44
310
46C0000000C0FF3F8F40000000004EC234C0000000E09A4446C00C00000013000000FA0400003C0000000600000002000000000000C0FF3F8F40000000801A8536C0000000809A1246C0000000C0FF3F8F40000000004EC234C0000000E09A4446C00C00000013000000020500003C00000006000000020000000000004000
310
408FC0000000004EC234C0000000E09A4446C00000004000408FC0000000C00DE732C0000000C0496B46C00C000000130000000A0500003C00000006000000020000000000004000408FC0000000C00DE732C0000000C0496B46C0000000C0FF3F8F40000000C00DE732C0000000C0496B46C00C0000001300000012050000
310
3C0000000600000002000000000000C0FF3F8F40000000C00DE732C0000000C0496B46C0000000C0FF3F8F40000000004EC234C0000000E09A4446C00C000000130000001A0500003C00000006000000020000000000004000408FC0000000C00DE732C0000000C0496B46C00000004000408FC0000000A0467E31C0000000
310
E0797F46C00C00000013000000220500003C00000006000000020000000000004000408FC0000000A0467E31C0000000E0797F46C0000000C0FF3F8F40000000A0467E31C0000000E0797F46C00C000000130000002A0500003C0000000600000002000000000000C0FF3F8F40000000C00DE732C0000000C0496B46C00000
310
00C0FF3F8F40000000A0467E31C0000000E0797F46C00C00000013000000320500003C00000006000000020000000000004000408FC0000000A0467E31C0000000E0797F46C00000004000408FC000000040794331C000000080E18946C00C000000130000003A0500003C00000006000000020000000000004000408FC000
310
000040794331C000000080E18946C0000000C0FF3F8F4000000040794331C000000080E18946C00C00000013000000420500003C0000000600000002000000000000C0FF3F8F4000000040794331C000000080E18946C0000000C0FF3F8F40000000A0467E31C0000000E0797F46C00C000000130000004A0500003C000000
310
06000000020000000000004000408FC000000040794331C000000080E18946C00000004000408FC0000000E07C1931C000000020F2A046C00C00000013000000520500003C00000006000000020000000000004000408FC0000000E07C1931C000000020F2A046C0000000C0FF3F8F40000000E07C1931C000000020F2A046
310
C00C000000130000005A0500003C0000000600000002000000000000C0FF3F8F4000000040794331C000000080E18946C0000000C0FF3F8F40000000E07C1931C000000020F2A046C00C00000013000000620500003C00000006000000020000000000004000408FC0000000E07C1931C000000020F2A046C0000000400040
310
8FC0000000004A0A31C0000000A031BF46C00C000000130000006A0500003C00000006000000020000000000004000408FC0000000004A0A31C0000000A031BF46C0000000C0FF3F8F40000000004A0A31C0000000A031BF46C00C00000013000000720500003C0000000600000002000000000000C0FF3F8F40000000E07C
310
1931C000000020F2A046C0000000C0FF3F8F40000000004A0A31C0000000A031BF46C00C000000130000007A0500003C00000006000000020000000000004000408FC0000000004A0A31C0000000A031BF46C00000004000408FC0000000004A0A31C0000000009DD647C00C00000013000000820500003C00000006000000
310
020000000000004000408FC0000000004A0A31C0000000009DD647C0000000C0FF3F8F40000000004A0A31C0000000009DD647C00C000000130000008A0500003C0000000600000002000000000000C0FF3F8F40000000004A0A31C0000000A031BF46C0000000C0FF3F8F40000000004A0A31C0000000009DD647C00C0000
310
0013000000920500003C00000006000000020000000000004000408FC0000000004A0A31C0000000009DD647C00000004000408FC0000000405CFB30C0000000009BF447C00C000000130000009A0500003C00000006000000020000000000004000408FC0000000405CFB30C0000000009BF447C0000000C0FF3F8F400000
310
00405CFB30C0000000009BF447C00C00000013000000A20500003C0000000600000002000000000000C0FF3F8F40000000405CFB30C0000000009BF447C0000000C0FF3F8F40000000004A0A31C0000000009DD647C00C00000013000000AA0500003C00000006000000020000000000004000408FC0000000405CFB30C000
310
0000009BF447C00000004000408FC00000008016D230C000000040980B48C00C00000013000000B20500003C00000006000000020000000000004000408FC00000008016D230C000000040980B48C0000000C0FF3F8F400000008016D230C000000040980B48C00C00000013000000BA0500003C0000000600000002000000
310
000000C0FF3F8F40000000405CFB30C0000000009BF447C0000000C0FF3F8F400000008016D230C000000040980B48C00C00000013000000C20500003C00000006000000020000000000004000408FC00000008016D230C000000040980B48C00000004000408FC0000000800E9830C0000000003E1648C00C000000130000
310
00CA0500003C00000006000000020000000000004000408FC0000000800E9830C0000000003E1648C0000000C0FF3F8F40000000800E9830C0000000003E1648C00C00000013000000D20500003C0000000600000002000000000000C0FF3F8F400000008016D230C000000040980B48C0000000C0FF3F8F40000000800E98
310
30C0000000003E1648C00C00000013000000DA0500003C00000006000000020000000000004000408FC0000000800E9830C0000000003E1648C00000004000408FC0000000C021E72FC000000080EB2348C00C00000013000000E20500003C00000006000000020000000000004000408FC0000000C021E72FC000000080EB
310
2348C0000000C0FF3F8F40000000C021E72FC000000080EB2348C00C00000013000000EA0500003C0000000600000002000000000000C0FF3F8F40000000800E9830C0000000003E1648C0000000C0FF3F8F40000000C021E72FC000000080EB2348C00C00000013000000F20500003C000000060000000200000000000040
310
00408FC0000000C021E72FC000000080EB2348C00000004000408FC000000040CC212EC0000000E0384248C00C00000013000000FA0500003C00000006000000020000000000004000408FC000000040CC212EC0000000E0384248C0000000C0FF3F8F4000000040CC212EC0000000E0384248C00C00000013000000020600
310
003C0000000600000002000000000000C0FF3F8F40000000C021E72FC000000080EB2348C0000000C0FF3F8F4000000040CC212EC0000000E0384248C00C000000130000000A0600003C00000006000000020000000000004000408FC000000040CC212EC0000000E0384248C00000004000408FC0000000402CB52CC00000
310
00E0AB6B48C00C00000013000000120600003C00000006000000020000000000004000408FC0000000402CB52CC0000000E0AB6B48C0000000C0FF3F8F40000000402CB52CC0000000E0AB6B48C00C000000130000001A0600003C0000000600000002000000000000C0FF3F8F4000000040CC212EC0000000E0384248C000
310
0000C0FF3F8F40000000402CB52CC0000000E0AB6B48C00C00000013000000220600003C00000006000000020000000000004000408FC0000000402CB52CC0000000E0AB6B48C00000004000408FC00000000046072BC0000000C0E1BA48C00C000000130000002A0600003C00000006000000020000000000004000408FC0
310
0000000046072BC0000000C0E1BA48C0000000C0FF3F8F400000000046072BC0000000C0E1BA48C00C00000013000000320600003C0000000600000002000000000000C0FF3F8F40000000402CB52CC0000000E0AB6B48C0000000C0FF3F8F400000000046072BC0000000C0E1BA48C00C000000130000003A0600003C0000
310
0006000000020000000000004000408FC00000000046072BC0000000C0E1BA48C00000004000408FC0000000404A5529C000000000F83A49C00C00000013000000420600003C00000006000000020000000000004000408FC0000000404A5529C000000000F83A49C0000000C0FF3F8F40000000404A5529C000000000F83A
310
49C00C000000130000004A0600003C0000000600000002000000000000C0FF3F8F400000000046072BC0000000C0E1BA48C0000000C0FF3F8F40000000404A5529C000000000F83A49C00C00000013000000520600003C00000006000000020000000000004000408FC0000000404A5529C000000000F83A49C00000004000
310
408FC000000000920428C0000000202DCE49C00C000000130000005A0600003C00000006000000020000000000004000408FC000000000920428C0000000202DCE49C0000000C0FF3F8F4000000000920428C0000000202DCE49C00C00000013000000620600003C0000000600000002000000000000C0FF3F8F4000000040
310
4A5529C000000000F83A49C0000000C0FF3F8F4000000000920428C0000000202DCE49C00C000000130000006A0600003C00000006000000020000000000004000408FC000000000920428C0000000202DCE49C00000004000408FC00000000091D026C000000060E6644AC00C00000013000000720600003C000000060000
310
00020000000000004000408FC00000000091D026C000000060E6644AC0000000C0FF3F8F400000000091D026C000000060E6644AC00C000000130000007A0600003C0000000600000002000000000000C0FF3F8F400000000091D026C000000060E6644AC0000000C0FF3F8F4000000000920428C0000000202DCE49C00C00
310
000013000000820600003C00000006000000020000000000004000408FC00000000091D026C000000060E6644AC00000004000408FC000000080838325C0000000806EE84AC00C000000130000008A0600003C00000006000000020000000000004000408FC000000080838325C0000000806EE84AC0000000C0FF3F8F4000
310
000080838325C0000000806EE84AC00C00000013000000920600003C0000000600000002000000000000C0FF3F8F4000000080838325C0000000806EE84AC0000000C0FF3F8F400000000091D026C000000060E6644AC00C000000130000009A0600003C00000006000000020000000000004000408FC000000080838325C0
310
000000806EE84AC00000004000408FC000000080BAED23C0000000409C5B4BC00C00000013000000A20600003C00000006000000020000000000004000408FC000000080BAED23C0000000409C5B4BC0000000C0FF3F8F4000000080BAED23C0000000409C5B4BC00C00000013000000AA0600003C00000006000000020000
310
00000000C0FF3F8F4000000080BAED23C0000000409C5B4BC0000000C0FF3F8F4000000080838325C0000000806EE84AC00C00000013000000B20600003C00000006000000020000000000004000408FC000000080BAED23C0000000409C5B4BC00000004000408FC0000000C0450F22C00000000010BC4BC00C0000001300
310
0000BA0600003C00000006000000020000000000004000408FC0000000C0450F22C00000000010BC4BC0000000C0FF3F8F40000000C0450F22C00000000010BC4BC00C00000013000000C20600003C0000000600000002000000000000C0FF3F8F40000000C0450F22C00000000010BC4BC0000000C0FF3F8F4000000080BA
310
ED23C0000000409C5B4BC00C00000013000000CA0600003C00000006000000020000000000004000408FC0000000C0450F22C00000000010BC4BC00000004000408FC000000000E5FE1FC00000008025074CC00C00000013000000D20600003C00000006000000020000000000004000408FC000000000E5FE1FC000000080
310
25074CC0000000C0FF3F8F4000000000E5FE1FC00000008025074CC00C00000013000000DA0600003C0000000600000002000000000000C0FF3F8F4000000000E5FE1FC00000008025074CC0000000C0FF3F8F40000000C0450F22C00000000010BC4BC00C00000013000000E20600003C0000000600000002000000000000
310
4000408FC000000000E5FE1FC00000008025074CC00000004000408FC0000000006E781BC000000060513F4CC00C00000013000000EA0600003C00000006000000020000000000004000408FC0000000006E781BC000000060513F4CC0000000C0FF3F8F40000000006E781BC000000060513F4CC00C00000013000000F206
310
00003C0000000600000002000000000000C0FF3F8F40000000006E781BC000000060513F4CC0000000C0FF3F8F4000000000E5FE1FC00000008025074CC00C00000013000000FA0600003C00000006000000020000000000004000408FC0000000006E781BC000000060513F4CC00000004000408FC000000000F1B416C000
310
0000C068634CC00C00000013000000020700003C00000006000000020000000000004000408FC000000000F1B416C0000000C068634CC0000000C0FF3F8F4000000000F1B416C0000000C068634CC00C000000130000000A0700003C0000000600000002000000000000C0FF3F8F4000000000F1B416C0000000C068634CC0
310
000000C0FF3F8F40000000006E781BC000000060513F4CC00C00000013000000120700003C00000006000000020000000000004000408FC000000000F1B416C0000000C068634CC00000004000408FC000000080E3C813C000000080F7714CC00C000000130000001A0700003C00000006000000020000000000004000408F
310
C000000080E3C813C000000080F7714CC0000000C0FF3F8F4000000080E3C813C000000080F7714CC00C00000013000000220700003C0000000600000002000000000000C0FF3F8F4000000080E3C813C000000080F7714CC0000000C0FF3F8F4000000000F1B416C0000000C068634CC00C000000130000002A0700003C00
310
000006000000020000000000004000408FC000000080E3C813C000000080F7714CC00000004000408FC000000080C8E012C0000000809D7C4CC00C00000013000000320700003C00000006000000020000000000004000408FC000000080C8E012C0000000809D7C4CC0000000C0FF3F8F4000000080C8E012C0000000809D
310
7C4CC00C000000130000003A0700003C0000000600000002000000000000C0FF3F8F4000000080E3C813C000000080F7714CC0000000C0FF3F8F4000000080C8E012C0000000809D7C4CC00C00000013000000420700003C00000006000000020000000000004000408FC000000080C8E012C0000000809D7C4CC000000040
310
00408FC000000080B43B12C0000000809A934CC00C000000130000004A0700003C00000006000000020000000000004000408FC000000080B43B12C0000000809A934CC0000000C0FF3F8F4000000080B43B12C0000000809A934CC00C00000013000000520700003C0000000600000002000000000000C0FF3F8F40000000
310
80B43B12C0000000809A934CC0000000C0FF3F8F4000000080C8E012C0000000809D7C4CC00C000000130000005A0700003C00000006000000020000000000004000408FC000000080B43B12C0000000809A934CC00000004000408FC000000000FFFF11C00000004098B14CC00C00000013000000620700003C0000000600
310
0000020000000000004000408FC000000000FFFF11C00000004098B14CC0000000C0FF3F8F4000000000FFFF11C00000004098B14CC00C000000130000006A0700003C0000000600000002000000000000C0FF3F8F4000000000FFFF11C00000004098B14CC0000000C0FF3F8F4000000080B43B12C0000000809A934CC00C
310
00000013000000720700003C00000006000000020000000000004000408FC000000000FFFF11C00000004098B14CC00000004000408FC000000080FEFF11C000000040FFBF4DC00C000000130000007A0700003C00000006000000020000000000004000408FC000000080FEFF11C000000040FFBF4DC0000000C0FF3F8F40
310
00000000FFFF11C000000040FFBF4DC00C00000013000000820700003C0000000600000002000000000000C0FF3F8F4000000000FFFF11C000000040FFBF4DC0000000C0FF3F8F4000000000FFFF11C00000004098B14CC00C000000130000008A0700003C00000006000000020000000000004000408FC000000080FEFF11
310
C000000040FFBF4DC00000004000408FC00000008066BB11C000000040FFDF4DC00C00000013000000920700003C00000006000000020000000000004000408FC00000008066BB11C000000040FFDF4DC0000000C0FF3F8F400000000067BB11C000000040FFDF4DC00C000000130000009A0700003C000000060000000200
310
0000000000C0FF3F8F400000000067BB11C000000040FFDF4DC0000000C0FF3F8F4000000000FFFF11C000000040FFBF4DC00C00000013000000A20700003C00000006000000020000000000004000408FC00000008066BB11C000000040FFDF4DC00000004000408FC000000080FEFF10C0000000406CF74DC00C00000013
310
000000AA0700003C00000006000000020000000000004000408FC000000080FEFF10C0000000406CF74DC0000000C0FF3F8F4000000000FFFF10C0000000406CF74DC00C00000013000000B20700003C0000000600000002000000000000C0FF3F8F4000000000FFFF10C0000000406CF74DC0000000C0FF3F8F4000000000
310
67BB11C000000040FFDF4DC00C00000013000000BA0700003C00000006000000020000000000004000408FC000000000FDFF0FC000000040FFFF4DC00000004000408FC000000080FEFF10C0000000406CF74DC00C00000013000000C20700003C00000006000000020000000000004000408FC000000000FDFF0FC0000000
310
40FFFF4DC0000000C0FF3F8F4000000000FEFF0FC000000040FFFF4DC00C00000013000000CA0700003C0000000600000002000000000000C0FF3F8F4000000000FEFF0FC000000040FFFF4DC0000000C0FF3F8F4000000000FFFF10C0000000406CF74DC00C00000013000000D20700003C00000006000000020000000000
310
004000408FC000000000FDFF0FC000000040FFFF4DC00000004000408FC0000000000000E03E00000040FFFF4DC00C00000013000000DA0700003C00000006000000020000000000004000408FC0000000000000E03E00000040FFFF4DC0000000C0FF3F8F40000000000000D03E00000040FFFF4DC00C00000013000000E2
310
0700003C0000000600000002000000000000C0FF3F8F40000000000000D03E00000040FFFF4DC0000000C0FF3F8F4000000000FEFF0FC000000040FFFF4DC00C00000013000000EA0700003C00000006000000020000000000004000408FC0000000000000E03E00000040FFFF4DC00000004000408FC00000000000000000
310
00000000B31D4BC00C00000013000000F20700003C00000006000000020000000000004000408FC0000000000000000000000000B31D4BC0000000C0FF3F8F40000000000000000000000000B31D4BC00C00000013000000FA0700003C0000000600000002000000000000C0FF3F8F40000000000000D03E00000040FFFF4D
310
C0000000C0FF3F8F40000000000000000000000000B31D4BC00C00000013000000020800003C00000006000000020000000000004000408FC0000000000000000000000000B31D4BC00000004000408FC000000000007491BF000000C0220D4BC00C000000130000000A0800003C0000000600000002000000000000400040
310
8FC000000000007491BF000000C0220D4BC0000000C0FF3F8F4000000000007491BF000000C0220D4BC00C00000013000000120800003C0000000600000002000000000000C0FF3F8F40000000000000000000000000B31D4BC0000000C0FF3F8F4000000000007491BF000000C0220D4BC00C000000130000001A0800003C
310
00000006000000020000000000004000408FC000000000007491BF000000C0220D4BC00000004000408FC0000000000026B1BF00000000B3FD4AC00C00000013000000220800003C00000006000000020000000000004000408FC0000000000026B1BF00000000B3FD4AC0000000C0FF3F8F40000000000026B1BF00000000
310
B3FD4AC00C000000130000002A0800003C0000000600000002000000000000C0FF3F8F40000000000026B1BF00000000B3FD4AC0000000C0FF3F8F4000000000007491BF000000C0220D4BC00C00000013000000320800003C00000006000000020000000000004000408FC0000000000026B1BF00000000B3FD4AC0000000
310
4000408FC000000000C8B0F5BF00000040FFDF49C00C000000130000003A0800003C00000006000000020000000000004000408FC000000000C8B0F5BF00000040FFDF49C0000000C0FF3F8F4000000000C8B0F5BF00000040FFDF49C00C00000013000000420800003C0000000600000002000000000000C0FF3F8F400000
310
0000C8B0F5BF00000040FFDF49C0000000C0FF3F8F40000000000026B1BF00000000B3FD4AC00C000000130000004A0800003C00000006000000020000000000004000408FC000000000C8B0F5BF00000040FFDF49C00000004000408FC0000000002AC3F6BF00000040FFBF49C00C00000013000000520800003C00000006
310
000000020000000000004000408FC0000000002AC3F6BF00000040FFBF49C0000000C0FF3F8F400000000028C3F6BF00000040FFBF49C00C000000130000005A0800003C0000000600000002000000000000C0FF3F8F4000000000C8B0F5BF00000040FFDF49C0000000C0FF3F8F400000000028C3F6BF00000040FFBF49C0
310
0C00000013000000620800003C00000006000000020000000000004000408FC0000000002AC3F6BF00000040FFBF49C00000004000408FC000000000C8B0F5BF00000040FF9F49C00C000000130000006A0800003C00000006000000020000000000004000408FC000000000C8B0F5BF00000040FF9F49C0000000C0FF3F8F
310
4000000000C8B0F5BF00000040FF9F49C00C00000013000000720800003C0000000600000002000000000000C0FF3F8F400000000028C3F6BF00000040FFBF49C0000000C0FF3F8F4000000000C8B0F5BF00000040FF9F49C00C000000130000007A0800003C00000006000000020000000000004000408FC000000000C8B0
310
F5BF00000040FF9F49C00000004000408FC0000000000026B1BF000000604B8248C00C00000013000000820800003C00000006000000020000000000004000408FC0000000000026B1BF000000604B8248C0000000C0FF3F8F40000000000026B1BF000000604B8248C00C000000130000008A0800003C0000000600000002
310
000000000000C0FF3F8F4000000000C8B0F5BF00000040FF9F49C0000000C0FF3F8F40000000000026B1BF000000604B8248C00C00000013000000920800003C00000006000000020000000000004000408FC0000000000026B1BF000000604B8248C00000004000408FC000000000007491BF000000C0DB7248C00C000000
310
130000009A0800003C00000006000000020000000000004000408FC000000000007491BF000000C0DB7248C0000000C0FF3F8F4000000000007491BF000000C0DB7248C00C00000013000000A20800003C0000000600000002000000000000C0FF3F8F40000000000026B1BF000000604B8248C0000000C0FF3F8F40000000
310
00007491BF000000C0DB7248C00C00000013000000AA0800003C00000006000000020000000000004000408FC000000000007491BF000000C0DB7248C00000004000408FC00000000000000000000000604B6248C00C00000013000000B20800003C00000006000000020000000000004000408FC000000000000000000000
310
00604B6248C0000000C0FF3F8F400000000000000000000000604B6248C00C00000013000000BA0800003C0000000600000002000000000000C0FF3F8F400000000000000000000000604B6248C0000000C0FF3F8F4000000000007491BF000000C0DB7248C00C00000013000000C20800003C000000060000000200000000
310
00004000408FC00000000000000000000000604B6248C00000004000408FC0000000000000000000000060A8EB46C00C00000013000000CA0800003C00000006000000020000000000004000408FC0000000000000000000000060A8EB46C0000000C0FF3F8F40000000000000000000000060A8EB46C00C00000013000000
310
D20800003C0000000600000002000000000000C0FF3F8F40000000000000000000000060A8EB46C0000000C0FF3F8F400000000000000000000000604B6248C00C00000013000000DA0800003C00000006000000020000000000004000408FC0000000000000000000000060A8EB46C00000004000408FC000000000C03ABB
310
BF0000002036B246C00C00000013000000E20800003C00000006000000020000000000004000408FC000000000C03ABBBF0000002036B246C0000000C0FF3F8F4000000000C03ABBBF0000002036B246C00C00000013000000EA0800003C0000000600000002000000000000C0FF3F8F4000000000C03ABBBF0000002036B2
310
46C0000000C0FF3F8F40000000000000000000000060A8EB46C00C00000013000000F20800003C00000006000000020000000000004000408FC000000000C03ABBBF0000002036B246C00000004000408FC00000000020C8D9BF00000060FC8446C00C00000013000000FA0800003C00000006000000020000000000004000
310
408FC00000000020C8D9BF00000060FC8446C0000000C0FF3F8F400000000020C8D9BF00000060FC8446C00C00000013000000020900003C0000000600000002000000000000C0FF3F8F400000000020C8D9BF00000060FC8446C0000000C0FF3F8F4000000000C03ABBBF0000002036B246C00C000000130000000A090000
310
3C00000006000000020000000000004000408FC00000000020C8D9BF00000060FC8446C00000004000408FC0000000007471EABF000000409A6D46C00C00000013000000120900003C00000006000000020000000000004000408FC0000000007471EABF000000409A6D46C0000000C0FF3F8F40000000007071EABF000000
310
409A6D46C00C000000130000001A0900003C0000000600000002000000000000C0FF3F8F40000000007071EABF000000409A6D46C0000000C0FF3F8F400000000020C8D9BF00000060FC8446C00C00000013000000220900003C00000006000000020000000000004000408FC0000000007471EABF000000409A6D46C00000
310
004000408FC000000080FF741BC0000000E053E545C00C000000130000002A0900003C00000006000000020000000000004000408FC000000080FF741BC0000000E053E545C0000000C0FF3F8F4000000080FF741BC0000000E053E545C00C00000013000000320900003C0000000600000002000000000000C0FF3F8F4000
310
000080FF741BC0000000E053E545C0000000C0FF3F8F40000000007071EABF000000409A6D46C00C000000130000003A0900003C00000006000000020000000000004000408FC000000080FF741BC0000000E053E545C00000004000408FC00000008043301EC000000000A5C445C00C00000013000000420900003C000000
310
06000000020000000000004000408FC00000008043301EC000000000A5C445C0000000C0FF3F8F400000008043301EC000000000A5C445C00C000000130000004A0900003C0000000600000002000000000000C0FF3F8F400000008043301EC000000000A5C445C0000000C0FF3F8F4000000080FF741BC0000000E053E545
310
C00C00000013000000520900003C00000006000000020000000000004000408FC00000008043301EC000000000A5C445C00000004000408FC000000040AD2F20C0000000C0CD8645C00C000000130000005A0900003C00000006000000020000000000004000408FC000000040AD2F20C0000000C0CD8645C0000000C0FF3F
310
8F4000000040AD2F20C0000000C0CD8645C00C00000013000000620900003C0000000600000002000000000000C0FF3F8F4000000040AD2F20C0000000C0CD8645C0000000C0FF3F8F400000008043301EC000000000A5C445C00C000000130000006A0900003C00000006000000020000000000004000408FC000000040AD
310
2F20C0000000C0CD8645C00000004000408FC000000040FDDB20C000000000063445C00C00000013000000720900003C00000006000000020000000000004000408FC000000040FDDB20C000000000063445C0000000C0FF3F8F4000000040FDDB20C000000000063445C00C000000130000007A0900003C00000006000000
310
02000000000000C0FF3F8F4000000040FDDB20C000000000063445C0000000C0FF3F8F4000000040AD2F20C0000000C0CD8645C00C00000013000000820900003C00000006000000020000000000004000408FC000000040FDDB20C000000000063445C00000004000408FC0000000C099D421C000000040449444C00C0000
310
00130000008A0900003C00000006000000020000000000004000408FC0000000C099D421C000000040449444C0000000C0FF3F8F40000000C099D421C000000040449444C00C00000013000000920900003C0000000600000002000000000000C0FF3F8F40000000C099D421C000000040449444C0000000C0FF3F8F400000
310
0040FDDB20C000000000063445C00C000000130000009A0900003C00000006000000020000000000004000408FC0000000C099D421C000000040449444C00000004000408FC0000000C0F6FD23C0000000C03BBC43C00C00000013000000A20900003C00000006000000020000000000004000408FC0000000C0F6FD23C000
310
0000C03BBC43C0000000C0FF3F8F40000000C0F6FD23C0000000C03BBC43C00C00000013000000AA0900003C0000000600000002000000000000C0FF3F8F40000000C0F6FD23C0000000C03BBC43C0000000C0FF3F8F40000000C099D421C000000040449444C00C00000013000000B20900003C0000000600000002000000
310
0000004000408FC0000000C0F6FD23C0000000C03BBC43C00000004000408FC000000080C9E027C0000000C025D342C00C00000013000000BA0900003C00000006000000020000000000004000408FC000000080C9E027C0000000C025D342C0000000C0FF3F8F4000000080C9E027C0000000C025D342C00C000000130000
310
00C20900003C0000000600000002000000000000C0FF3F8F4000000080C9E027C0000000C025D342C0000000C0FF3F8F40000000C0F6FD23C0000000C03BBC43C00C00000013000000CA0900003C00000006000000020000000000004000408FC000000080C9E027C0000000C025D342C00000004000408FC000000000B4A9
310
2CC0000000C0483D42C00C00000013000000D20900003C00000006000000020000000000004000408FC000000000B4A92CC0000000C0483D42C0000000C0FF3F8F4000000000B4A92CC0000000C0483D42C00C00000013000000DA0900003C0000000600000002000000000000C0FF3F8F4000000000B4A92CC0000000C048
310
3D42C0000000C0FF3F8F4000000080C9E027C0000000C025D342C00C00000013000000E20900003C00000006000000020000000000004000408FC000000000B4A92CC0000000C0483D42C00000004000408FC000000080F04A30C000000080980842C00C00000013000000EA0900003C000000060000000200000000000040
310
00408FC000000080F04A30C000000080980842C0000000C0FF3F8F4000000080F04A30C000000080980842C00C00000013000000F20900003C0000000600000002000000000000C0FF3F8F4000000080F04A30C000000080980842C0000000C0FF3F8F4000000000B4A92CC0000000C0483D42C00C00000013000000FA0900
310
003C00000006000000020000000000004000408FC000000080F04A30C000000080980842C00000004000408FC0000000E0518633C000000020EFCD41C00C00000013000000020A00003C00000006000000020000000000004000408FC0000000E0518633C000000020EFCD41C0000000C0FF3F8F40000000E0518633C00000
310
0020EFCD41C00C000000130000000A0A00003C0000000600000002000000000000C0FF3F8F40000000E0518633C000000020EFCD41C0000000C0FF3F8F4000000080F04A30C000000080980842C00C00000013000000120A00003C00000006000000020000000000004000408FC0000000E0518633C000000020EFCD41C000
310
00004000408FC0000000803EAE36C0000000404F4B41C00C000000130000001A0A00003C00000006000000020000000000004000408FC0000000803EAE36C0000000404F4B41C0000000C0FF3F8F40000000803EAE36C0000000404F4B41C00C00000013000000220A00003C0000000600000002000000000000C0FF3F8F40
310
000000803EAE36C0000000404F4B41C0000000C0FF3F8F40000000E0518633C000000020EFCD41C00C000000130000002A0A00003C00000006000000020000000000004000408FC0000000803EAE36C0000000404F4B41C00000004000408FC0000000008D8938C00000004026BF40C00C00000013000000320A00003C0000
310
0006000000020000000000004000408FC0000000008D8938C00000004026BF40C0000000C0FF3F8F40000000008D8938C00000004026BF40C00C000000130000003A0A00003C0000000600000002000000000000C0FF3F8F40000000008D8938C00000004026BF40C0000000C0FF3F8F40000000803EAE36C0000000404F4B
310
41C00C00000013000000420A00003C00000006000000020000000000004000408FC0000000008D8938C00000004026BF40C00000004000408FC000000000192A3AC00000000012F23FC00C000000130000004A0A00003C00000006000000020000000000004000408FC000000000192A3AC00000000012F23FC0000000C0FF
310
3F8F4000000000192A3AC00000000012F23FC00C00000013000000520A00003C0000000600000002000000000000C0FF3F8F4000000000192A3AC00000000012F23FC0000000C0FF3F8F40000000008D8938C00000004026BF40C00C000000130000005A0A00003C00000006000000020000000000004000408FC000000000
310
192A3AC00000000012F23FC00000004000408FC0000000801CCF3BC0000000800FA73DC00C00000013000000620A00003C00000006000000020000000000004000408FC0000000801CCF3BC0000000800FA73DC0000000C0FF3F8F40000000801CCF3BC0000000800FA73DC00C000000130000006A0A00003C000000060000
310
0002000000000000C0FF3F8F40000000801CCF3BC0000000800FA73DC0000000C0FF3F8F4000000000192A3AC00000000012F23FC00C00000013000000720A00003C00000006000000020000000000004000408FC0000000801CCF3BC0000000800FA73DC00000004000408FC0000000E00F1F3DC0000000E08D633BC00C00
310
0000130000007A0A00003C00000006000000020000000000004000408FC0000000E00F1F3DC0000000E08D633BC0000000C0FF3F8F40000000E00F1F3DC0000000E08D633BC00C00000013000000820A00003C0000000600000002000000000000C0FF3F8F40000000E00F1F3DC0000000E08D633BC0000000C0FF3F8F4000
310
0000801CCF3BC0000000800FA73DC00C000000130000008A0A00003C00000006000000020000000000004000408FC0000000E00F1F3DC0000000E08D633BC00000004000408FC0000000606FA13EC000000080A19538C00C00000013000000920A00003C00000006000000020000000000004000408FC0000000606FA13EC0
310
00000080A19538C0000000C0FF3F8F40000000606FA13EC000000080A19538C00C000000130000009A0A00003C0000000600000002000000000000C0FF3F8F40000000606FA13EC000000080A19538C0000000C0FF3F8F40000000E00F1F3DC0000000E08D633BC00C00000013000000A20A00003C00000006000000020000
310
000000004000408FC0000000606FA13EC000000080A19538C00000004000408FC0000000404B8C40C0000000C03F6034C00C00000013000000AA0A00003C00000006000000020000000000004000408FC0000000404B8C40C0000000C03F6034C0000000C0FF3F8F40000000404B8C40C0000000C03F6034C00C0000001300
310
0000B20A00003C0000000600000002000000000000C0FF3F8F40000000404B8C40C0000000C03F6034C0000000C0FF3F8F40000000606FA13EC000000080A19538C00C00000013000000BA0A00003C00000006000000020000000000004000408FC0000000404B8C40C0000000C03F6034C00000004000408FC0000000C01A
310
7542C000000080B2E42EC00C00000013000000C20A00003C00000006000000020000000000004000408FC0000000C01A7542C000000080B2E42EC0000000C0FF3F8F40000000C01A7542C000000060B2E42EC00C00000013000000CA0A00003C0000000600000002000000000000C0FF3F8F40000000C01A7542C000000060
310
B2E42EC0000000C0FF3F8F40000000404B8C40C0000000C03F6034C00C00000013000000D20A00003C00000006000000020000000000004000408FC0000000C01A7542C000000080B2E42EC00000004000408FC000000060E22944C00000008032E328C00C00000013000000DA0A00003C0000000600000002000000000000
310
4000408FC000000060E22944C00000008032E328C0000000C0FF3F8F4000000060E22944C00000008032E328C00C00000013000000E20A00003C0000000600000002000000000000C0FF3F8F4000000060E22944C00000008032E328C0000000C0FF3F8F40000000C01A7542C000000060B2E42EC00C00000013000000EA0A
310
00003C00000006000000020000000000004000408FC000000060E22944C00000008032E328C00000004000408FC000000080892246C000000080A2FF23C00C00000013000000F20A00003C00000006000000020000000000004000408FC000000080892246C000000080A2FF23C0000000C0FF3F8F4000000080892246C000
310
000080A2FF23C00C00000013000000FA0A00003C0000000600000002000000000000C0FF3F8F4000000080892246C000000080A2FF23C0000000C0FF3F8F4000000060E22944C00000008032E328C00C00000013000000020B00003C00000006000000020000000000004000408FC000000080892246C000000080A2FF23C0
310
0000004000408FC0000000C02C6448C000000080FB4D20C00C000000130000000A0B00003C00000006000000020000000000004000408FC0000000C02C6448C000000080FB4D20C0000000C0FF3F8F40000000C02C6448C000000080FB4D20C00C00000013000000120B00003C0000000600000002000000000000C0FF3F8F
310
40000000C02C6448C000000080FB4D20C0000000C0FF3F8F4000000080892246C000000080A2FF23C00C000000130000001A0B00003C00000006000000020000000000004000408FC0000000C02C6448C000000080FB4D20C00000004000408FC0000000C0CA0C49C0000000809D6B1AC00C00000013000000220B00003C00
310
000006000000020000000000004000408FC0000000C0CA0C49C0000000809D6B1AC0000000C0FF3F8F40000000C0CA0C49C0000000809D6B1AC00C000000130000002A0B00003C0000000600000002000000000000C0FF3F8F40000000C0CA0C49C0000000809D6B1AC0000000C0FF3F8F40000000C02C6448C000000080FB
310
4D20C00C00000013000000320B00003C00000006000000020000000000004000408FC0000000C0CA0C49C0000000809D6B1AC00000004000408FC0000000806FDD49C000000000B09215C00C000000130000003A0B00003C00000006000000020000000000004000408FC0000000806FDD49C000000000B09215C0000000C0
310
FF3F8F40000000806FDD49C000000000B09215C00C00000013000000420B00003C0000000600000002000000000000C0FF3F8F40000000806FDD49C000000000B09215C0000000C0FF3F8F40000000C0CA0C49C0000000809D6B1AC00C000000130000004A0B00003C00000006000000020000000000004000408FC0000000
310
806FDD49C000000000B09215C00000004000408FC0000000C0A4CB4AC0000000005D4F12C00C00000013000000520B00003C00000006000000020000000000004000408FC0000000C0A4CB4AC0000000005D4F12C0000000C0FF3F8F40000000C0A4CB4AC0000000005D4F12C00C000000130000005A0B00003C0000000600
310
000002000000000000C0FF3F8F40000000C0A4CB4AC0000000005D4F12C0000000C0FF3F8F40000000806FDD49C000000000B09215C00C00000013000000620B00003C00000006000000020000000000004000408FC0000000C0A4CB4AC0000000005D4F12C00000004000408FC0000000407D294BC000000000ABA910C00C
310
000000130000006A0B00003C00000006000000020000000000004000408FC0000000407D294BC000000000ABA910C0000000C0FF3F8F40000000407D294BC000000000ABA910C00C00000013000000720B00003C0000000600000002000000000000C0FF3F8F40000000407D294BC000000000ABA910C0000000C0FF3F8F40
310
000000C0A4CB4AC0000000005D4F12C00C000000130000007A0B00003C00000006000000020000000000004000408FC0000000407D294BC000000000ABA910C00000004000408FC0000000405F694BC0000000004AE90BC00C00000013000000820B00003C00000006000000020000000000004000408FC0000000405F694B
310
C0000000004AE90BC0000000C0FF3F8F40000000405F694BC0000000004AE90BC00C000000130000008A0B00003C0000000600000002000000000000C0FF3F8F40000000405F694BC0000000004AE90BC0000000C0FF3F8F40000000407D294BC000000000ABA910C00C00000013000000920B00003C000000060000000200
310
00000000004000408FC0000000405F694BC0000000004AE90BC00000004000408FC00000000000804BC0000000009A5505C00C000000130000009A0B00003C00000006000000020000000000004000408FC00000000000804BC0000000009A5505C0000000C0FF3F8F400000000000804BC0000000009A5505C00C00000013
310
000000A20B00003C0000000600000002000000000000C0FF3F8F400000000000804BC0000000009A5505C0000000C0FF3F8F40000000405F694BC0000000004AE90BC00C00000013000000AA0B00003C00000006000000020000000000004000408FC00000000000804BC0000000009A5505C00000004000408FC000000000
310
00804BC000000000D0FFEFBF0C00000013000000B20B00003C00000006000000020000000000004000408FC00000000000804BC000000000D0FFEFBF000000C0FF3F8F400000000000804BC000000000D0FFEFBF0C00000013000000BA0B00003C0000000600000002000000000000C0FF3F8F400000000000804BC0000000
310
00D0FFEFBF000000C0FF3F8F400000000000804BC0000000009A5505C00C00000013000000C20B00003C00000006000000020000000000004000408FC00000000000804BC000000000D0FFEFBF0000004000408FC000000080C1894BC000000000A0BFE3BF0C00000013000000CA0B00003C00000006000000020000000000
310
004000408FC000000080C1894BC000000000A0BFE3BF000000C0FF3F8F4000000080C1894BC000000000A0BFE3BF0C00000013000000D20B00003C0000000600000002000000000000C0FF3F8F4000000080C1894BC000000000A0BFE3BF000000C0FF3F8F400000000000804BC000000000D0FFEFBF0C00000013000000DA
310
0B00003C00000006000000020000000000004000408FC000000080C1894BC000000000A0BFE3BF0000004000408FC0000000007FA54BC00000000010BFD2BF0C00000013000000E20B00003C00000006000000020000000000004000408FC0000000007FA54BC00000000010BFD2BF000000C0FF3F8F40000000007FA54BC0
310
0000000010BFD2BF0C00000013000000EA0B00003C0000000600000002000000000000C0FF3F8F40000000007FA54BC00000000010BFD2BF000000C0FF3F8F4000000080C1894BC000000000A0BFE3BF0C00000013000000F20B00003C00000006000000020000000000004000408FC0000000007FA54BC00000000010BFD2
310
BF0000004000408FC000000040FFCE4BC0000000008081B3BF0C00000013000000FA0B00003C00000006000000020000000000004000408FC000000040FFCE4BC0000000008081B3BF000000C0FF3F8F4000000040FFCE4BC0000000008081B3BF0C00000013000000020C00003C0000000600000002000000000000C0FF3F
310
8F4000000040FFCE4BC0000000008081B3BF000000C0FF3F8F40000000007FA54BC00000000010BFD2BF0C000000130000000A0C00003C00000006000000020000000000004000408FC000000040FFCE4BC0000000008081B3BF0000004000408FC00000000000004CC0000000000000F83E0C00000013000000120C00003C
310
00000006000000020000000000004000408FC00000000000004CC0000000000000F83E000000C0FF3F8F400000000000004CC0000000000000F83E0C000000130000001A0C00003C0000000600000002000000000000C0FF3F8F400000000000004CC0000000000000F83E000000C0FF3F8F4000000040FFCE4BC000000000
310
8081B3BF0C00000013000000220C00003C00000006000000020000000000004000408FC00000000000004CC0000000000000F83E0000004000408FC0000000404C624DC0000000000000F83E0C000000130000002A0C00003C00000006000000020000000000004000408FC0000000404C624DC0000000000000F83E000000
310
C0FF3F8F40000000404C624DC0000000000000F83E0C00000013000000320C00003C0000000600000002000000000000C0FF3F8F40000000404C624DC0000000000000F83E000000C0FF3F8F400000000000004CC0000000000000F83E0C000000130000003A0C00003C00000006000000020000000000004000408FC00000
310
00404C624DC0000000000000F83E0000004000408FC000000080DC724DC000000000006F91BF0C00000013000000420C00003C00000006000000020000000000004000408FC000000080DC724DC000000000006F91BF000000C0FF3F8F4000000080DC724DC000000000006F91BF0C000000130000004A0C00003C00000006
310
00000002000000000000C0FF3F8F4000000080DC724DC000000000006F91BF000000C0FF3F8F40000000404C624DC0000000000000F83E0C00000013000000520C00003C00000006000000020000000000004000408FC000000080DC724DC000000000006F91BF0000004000408FC0000000404C824DC0000000008024B1BF
310
0C000000130000005A0C00003C00000006000000020000000000004000408FC0000000404C824DC0000000008024B1BF000000C0FF3F8F40000000404C824DC0000000008024B1BF0C00000013000000620C00003C0000000600000002000000000000C0FF3F8F40000000404C824DC0000000008024B1BF000000C0FF3F8F
310
4000000080DC724DC000000000006F91BF0C000000130000006A0C00003C00000006000000020000000000004000408FC0000000404C824DC0000000008024B1BF0000004000408FC00000000000A04EC000000000B4B0F5BF0C00000013000000720C00003C00000006000000020000000000004000408FC00000000000A0
310
4EC000000000B4B0F5BF000000C0FF3F8F400000000000A04EC000000000B4B0F5BF0C000000130000007A0C00003C0000000600000002000000000000C0FF3F8F400000000000A04EC000000000B4B0F5BF000000C0FF3F8F40000000404C824DC0000000008024B1BF0C00000013000000820C00003C0000000600000002
310
0000000000004000408FC00000000000A04EC000000000B4B0F5BF0000004000408FC00000000000C04EC00000000014C3F6BF0C000000130000008A0C00003C00000006000000020000000000004000408FC00000000000C04EC00000000014C3F6BF000000C0FF3F8F400000000000C04EC00000000014C3F6BF0C000000
310
13000000920C00003C0000000600000002000000000000C0FF3F8F400000000000C04EC00000000014C3F6BF000000C0FF3F8F400000000000A04EC000000000B4B0F5BF0C000000130000009A0C00003C00000006000000020000000000004000408FC00000000000C04EC00000000014C3F6BF0000004000408FC0000000
310
0000E04EC000000000B4B0F5BF0C00000013000000A20C00003C00000006000000020000000000004000408FC00000000000E04EC000000000B4B0F5BF000000C0FF3F8F400000000000E04EC000000000B4B0F5BF0C00000013000000AA0C00003C0000000600000002000000000000C0FF3F8F400000000000E04EC00000
310
0000B4B0F5BF000000C0FF3F8F400000000000C04EC00000000014C3F6BF0C00000013000000B20C00003C00000006000000020000000000004000408FC00000000000E04EC000000000B4B0F5BF0000004000408FC000000000B4FD4FC0000000008024B1BF0C00000013000000BA0C00003C000000060000000200000000
310
00004000408FC000000000B4FD4FC0000000008024B1BF000000C0FF3F8F4000000000B4FD4FC0000000008024B1BF0C00000013000000C20C00003C0000000600000002000000000000C0FF3F8F4000000000B4FD4FC0000000008024B1BF000000C0FF3F8F400000000000E04EC000000000B4B0F5BF0C00000013000000
310
CA0C00003C00000006000000020000000000004000408FC000000000B4FD4FC0000000008024B1BF0000004000408FC0000000C0910650C000000000006F91BF0C00000013000000D20C00003C00000006000000020000000000004000408FC0000000C0910650C000000000006F91BF000000C0FF3F8F40000000C0910650
310
C000000000006F91BF0C00000013000000DA0C00003C0000000600000002000000000000C0FF3F8F40000000C0910650C000000000006F91BF000000C0FF3F8F4000000000B4FD4FC0000000008024B1BF0C00000013000000E20C00003C00000006000000020000000000004000408FC0000000C0910650C000000000006F
310
91BF0000004000408FC0000000E0D90E50C0000000000000F83E0C00000013000000EA0C00003C00000006000000020000000000004000408FC0000000E0D90E50C0000000000000F83E000000C0FF3F8F4000000000DA0E50C0000000000000F83E0C00000013000000F20C00003C0000000600000002000000000000C0FF
310
3F8F40000000C0910650C000000000006F91BF000000C0FF3F8F4000000000DA0E50C0000000000000F83E0C00000013000000FA0C00003C00000006000000020000000000004000408FC0000000E0D90E50C0000000000000F83E0000004000408FC000000000008051C0000000000000F43E0C00000013000000020D0000
310
3C0000000600000002000000000000C0FF3F8F4000000000DA0E50C0000000000000F83E000000C0FF3F8F4000000000008051C0000000000000F43E0C000000130000000A0D00003C00000006000000020000000000004000408FC0000000409A1750C00000004046EB20C00000004000408FC0000000009A5350C0000000
310
00B4B61CC00C00000013000000120D00003C0000000600000002000000000000C0FF3F8F40000000009A5350C000000000B4B61CC0000000C0FF3F8F40000000409A1750C00000004046EB20C00C000000130000001A0D00003C00000006000000020000000000004000408FC0000000E0B9F94EC0000000C0BC7525C00000
310
004000408FC0000000E0A2964FC0000000405A7123C00C00000013000000220D00003C0000000600000002000000000000C0FF3F8F40000000E0A2964FC0000000405A7123C0000000C0FF3F8F40000000E0B9F94EC0000000C0BC7525C00C000000130000002A0D00003C00000006000000020000000000004000408FC000
310
000080D0854DC000000080B7A828C00000004000408FC0000000A0D73D4EC0000000C0145027C00C00000013000000320D00003C0000000600000002000000000000C0FF3F8F40000000A0D73D4EC0000000C0145027C0000000C0FF3F8F4000000080D0854DC000000080B7A828C00C000000130000003A0D00003C000000
310
06000000020000000000004000408FC000000000FDFF0FC000000040FFFF4DC00000004000408FC0000000000000000000000000B31D4BC00C00000013000000420D00003C00000006000000020000000000004000408FC0000000C0910650C000000000006F91BF0000004000408FC0000000E03FAD50C000000000B4FA12
310
C00C000000130000004A0D00003C00000006000000020000000000004000408FC000000000B4FD4FC0000000008024B1BF0000004000408FC00000006034A250C00000000024DC13C00C00000013000000520D00003C00000006000000020000000000004000408FC0000000E0D90E50C0000000000000F83E000000400040
310
8FC00000006022BE50C000000000759B12C00C000000130000005A0D00003C00000006000000020000000000004000408FC0000000E0D90E50C0000000000000F83E0000004000408FC000000000035151C0000000001E1912C00C00000013000000620D00003C00000006000000020000000000004000408FC0000000E0D9
310
0E50C0000000000000F83E0000004000408FC000000040AA5F51C0000000004BD111C00C000000130000006A0D00003C00000006000000020000000000004000408FC0000000E0D90E50C0000000000000F83E0000004000408FC0000000208C6A51C000000000CB2411C00C00000013000000720D00003C00000006000000
310
020000000000004000408FC0000000E0D90E50C0000000000000F83E0000004000408FC0000000202C6F51C000000000033B10C00C000000130000007A0D00003C00000006000000020000000000004000408FC00000000000E04EC000000000B4B0F5BF0000004000408FC0000000009A5350C000000000B4B61CC00C0000
310
0013000000820D00003C00000006000000020000000000004000408FC00000000000C04EC00000000014C3F6BF0000004000408FC0000000009A5350C000000000B4B61CC00C000000130000008A0D00003C00000006000000020000000000004000408FC00000000000A04EC000000000B4B0F5BF0000004000408FC00000
310
00409A1750C00000004046EB20C00C00000013000000920D00003C00000006000000020000000000004000408FC0000000404C824DC0000000008024B1BF0000004000408FC0000000409A1750C00000004046EB20C00C000000130000009A0D00003C00000006000000020000000000004000408FC000000080DC724DC000
310
000000006F91BF0000004000408FC0000000409A1750C00000004046EB20C00C00000013000000A20D00003C00000006000000020000000000004000408FC0000000404C624DC0000000000000F83E0000004000408FC0000000409A1750C00000004046EB20C00C00000013000000AA0D00003C0000000600000002000000
310
0000004000408FC00000000000004CC0000000000000F83E0000004000408FC0000000409A1750C00000004046EB20C00C00000013000000B20D00003C00000006000000020000000000004000408FC000000040FFCE4BC0000000008081B3BF0000004000408FC0000000409A1750C00000004046EB20C00C000000130000
310
00BA0D00003C00000006000000020000000000004000408FC0000000007FA54BC00000000010BFD2BF0000004000408FC0000000409A1750C00000004046EB20C00C00000013000000C20D00003C00000006000000020000000000004000408FC000000080C1894BC000000000A0BFE3BF0000004000408FC0000000409A17
310
50C00000004046EB20C00C00000013000000CA0D00003C00000006000000020000000000004000408FC00000000000804BC000000000D0FFEFBF0000004000408FC0000000409A1750C00000004046EB20C00C00000013000000D20D00003C00000006000000020000000000004000408FC00000000000804BC0000000009A
310
5505C00000004000408FC0000000409A1750C00000004046EB20C00C00000013000000DA0D00003C00000006000000020000000000004000408FC0000000405F694BC0000000004AE90BC00000004000408FC0000000E0A2964FC0000000405A7123C00C00000013000000E20D00003C000000060000000200000000000040
310
00408FC0000000407D294BC000000000ABA910C00000004000408FC0000000E0B9F94EC0000000C0BC7525C00C00000013000000EA0D00003C00000006000000020000000000004000408FC0000000C0A4CB4AC0000000005D4F12C00000004000408FC0000000A0D73D4EC0000000C0145027C00C00000013000000F20D00
310
003C00000006000000020000000000004000408FC0000000806FDD49C000000000B09215C00000004000408FC000000080D0854DC000000080B7A828C00C00000013000000FA0D00003C00000006000000020000000000004000408FC0000000C0CA0C49C0000000809D6B1AC00000004000408FC0000000409D514CC00000
310
000053372AC00C00000013000000020E00003C00000006000000020000000000004000408FC0000000C0CA0C49C0000000809D6B1AC00000004000408FC000000080B0374CC0000000006C642AC00C000000130000000A0E00003C00000006000000020000000000004000408FC0000000C02C6448C000000080FB4D20C000
310
00004000408FC0000000C027254CC0000000C0C0B92AC00C00000013000000120E00003C00000006000000020000000000004000408FC0000000C02C6448C000000080FB4D20C00000004000408FC0000000409D1D4CC000000080BC262BC00C000000130000001A0E00003C00000006000000020000000000004000408FC0
310
000000C02C6448C000000080FB4D20C00000004000408FC0000000004F134CC000000000D88D2EC00C00000013000000220E00003C00000006000000020000000000004000408FC0000000C02C6448C000000080FB4D20C00000004000408FC0000000A0740B4CC0000000C01FFD2EC00C000000130000002A0E00003C0000
310
0006000000020000000000004000408FC0000000C02C6448C000000080FB4D20C00000004000408FC0000000402CF84BC0000000C034532FC00C00000013000000320E00003C00000006000000020000000000004000408FC0000000C02C6448C000000080FB4D20C00000004000408FC00000000061DD4BC000000080997E
310
2FC00C000000130000003A0E00003C00000006000000020000000000004000408FC000000080892246C000000080A2FF23C00000004000408FC0000000C0692F4BC000000040C8FB2FC00C00000013000000420E00003C00000006000000020000000000004000408FC000000080892246C000000080A2FF23C00000004000
310
408FC000000040524D4AC0000000407D6930C00C000000130000004A0E00003C00000006000000020000000000004000408FC000000080892246C000000080A2FF23C00000004000408FC0000000C05F7149C00000004038F230C00C00000013000000520E00003C00000006000000020000000000004000408FC000000080
310
892246C000000080A2FF23C00000004000408FC0000000403DA148C0000000401E9731C00C000000130000005A0E00003C00000006000000020000000000004000408FC000000080892246C000000080A2FF23C00000004000408FC000000040BEDF47C000000000AF5732C00C00000013000000620E00003C000000060000
310
00020000000000004000408FC000000060E22944C00000008032E328C00000004000408FC000000040544247C0000000A0601533C00C000000130000006A0E00003C00000006000000020000000000004000408FC000000060E22944C00000008032E328C00000004000408FC000000000C2B646C0000000802ADD33C00C00
310
000013000000720E00003C00000006000000020000000000004000408FC0000000C01A7542C000000080B2E42EC00000004000408FC0000000800E3246C0000000003FBB34C00C000000130000007A0E00003C00000006000000020000000000004000408FC0000000C01A7542C000000080B2E42EC00000004000408FC000
310
0000803AC145C000000080479435C00C00000013000000820E00003C00000006000000020000000000004000408FC0000000C01A7542C000000080B2E42EC00000004000408FC0000000C0195845C0000000A0E47A36C00C000000130000008A0E00003C00000006000000020000000000004000408FC0000000C01A7542C0
310
00000080B2E42EC00000004000408FC000000040A7F144C0000000A07E7837C00C00000013000000920E00003C00000006000000020000000000004000408FC0000000404B8C40C0000000C03F6034C00000004000408FC000000000D59044C0000000E0FC8238C00C000000130000009A0E00003C00000006000000020000
310
000000004000408FC0000000404B8C40C0000000C03F6034C00000004000408FC000000020713B44C0000000A0458639C00C00000013000000A20E00003C00000006000000020000000000004000408FC0000000404B8C40C0000000C03F6034C00000004000408FC000000060EFE743C0000000E0C39A3AC00C0000001300
310
0000AA0E00003C00000006000000020000000000004000408FC0000000404B8C40C0000000C03F6034C00000004000408FC0000000E0469443C000000020BFBD3BC00C00000013000000B20E00003C00000006000000020000000000004000408FC0000000606FA13EC000000080A19538C00000004000408FC0000000E034
310
4243C000000060A7E93CC00C00000013000000BA0E00003C00000006000000020000000000004000408FC0000000606FA13EC000000080A19538C00000004000408FC0000000A0CBF642C0000000A0DA063EC00C00000013000000C20E00003C00000006000000020000000000004000408FC0000000E00F1F3DC0000000E0
310
8D633BC00000004000408FC0000000C076AA42C00000000005223FC00C00000013000000CA0E00003C00000006000000020000000000004000408FC0000000E00F1F3DC0000000E08D633BC00000004000408FC000000000F65C42C0000000807B1D40C00C00000013000000D20E00003C0000000600000002000000000000
310
4000408FC0000000801CCF3BC0000000800FA73DC00000004000408FC000000080890E42C0000000C0ECA840C00C00000013000000DA0E00003C00000006000000020000000000004000408FC0000000801CCF3BC0000000800FA73DC00000004000408FC000000080FFB741C000000060603941C00C00000013000000E20E
310
00003C00000006000000020000000000004000408FC000000000192A3AC00000000012F23FC00000004000408FC000000020855E41C0000000C0C8C241C00C00000013000000EA0E00003C00000006000000020000000000004000408FC000000000192A3AC00000000012F23FC00000004000408FC0000000401B0441C000
310
000040E04242C00C00000013000000F20E00003C00000006000000020000000000004000408FC000000000192A3AC00000000012F23FC00000004000408FC0000000C0DAA740C0000000407AB942C00C00000013000000FA0E00003C00000006000000020000000000004000408FC0000000008D8938C00000004026BF40C0
310
0000004000408FC000000000053240C000000080B03F43C00C00000013000000020F00003C00000006000000020000000000004000408FC0000000008D8938C00000004026BF40C00000004000408FC00000002034613FC0000000C088C043C00C000000130000000A0F00003C00000006000000020000000000004000408F
310
C0000000008D8938C00000004026BF40C00000004000408FC0000000602D573EC000000060FE3244C00C00000013000000120F00003C00000006000000020000000000004000408FC0000000803EAE36C0000000404F4B41C00000004000408FC000000080703E3DC000000000FB9944C00C000000130000001A0F00003C00
310
000006000000020000000000004000408FC0000000803EAE36C0000000404F4B41C00000004000408FC0000000203C103CC000000080A1F844C00C00000013000000220F00003C00000006000000020000000000004000408FC0000000803EAE36C0000000404F4B41C00000004000408FC000000080EDCC3AC000000040E8
310
4D45C00C000000130000002A0F00003C00000006000000020000000000004000408FC0000000E0518633C000000020EFCD41C00000004000408FC0000000C0027139C000000080DC9945C00C00000013000000320F00003C00000006000000020000000000004000408FC0000000E0518633C000000020EFCD41C000000040
310
00408FC0000000C0000238C000000080CFDB45C00C000000130000003A0F00003C00000006000000020000000000004000408FC0000000E0518633C000000020EFCD41C00000004000408FC0000000801A8536C0000000809A1246C00C00000013000000420F00003C00000006000000020000000000004000408FC0000000
310
80F04A30C000000080980842C00000004000408FC0000000004EC234C0000000E09A4446C00C000000130000004A0F00003C00000006000000020000000000004000408FC000000080F04A30C000000080980842C00000004000408FC0000000C00DE732C0000000C0496B46C00C00000013000000520F00003C0000000600
310
0000020000000000004000408FC000000000B4A92CC0000000C0483D42C00000004000408FC0000000A0467E31C0000000E0797F46C00C000000130000005A0F00003C00000006000000020000000000004000408FC000000000B4A92CC0000000C0483D42C00000004000408FC000000040794331C000000080E18946C00C
310
00000013000000620F00003C00000006000000020000000000004000408FC000000080C9E027C0000000C025D342C00000004000408FC0000000E07C1931C000000020F2A046C00C000000130000006A0F00003C00000006000000020000000000004000408FC0000000C0F6FD23C0000000C03BBC43C00000004000408FC0
310
000000004A0A31C0000000A031BF46C00C00000013000000720F00003C00000006000000020000000000004000408FC0000000C099D421C000000040449444C00000004000408FC0000000004A0A31C0000000009DD647C00C000000130000007A0F00003C00000006000000020000000000004000408FC0000000C099D421
310
C000000040449444C00000004000408FC0000000405CFB30C0000000009BF447C00C00000013000000820F00003C00000006000000020000000000004000408FC0000000C099D421C000000040449444C00000004000408FC00000008016D230C000000040980B48C00C000000130000008A0F00003C000000060000000200
310
00000000004000408FC0000000C099D421C000000040449444C00000004000408FC0000000800E9830C0000000003E1648C00C00000013000000920F00003C00000006000000020000000000004000408FC000000040FDDB20C000000000063445C00000004000408FC0000000C021E72FC000000080EB2348C00C00000013
310
0000009A0F00003C00000006000000020000000000004000408FC000000040AD2F20C0000000C0CD8645C00000004000408FC000000040CC212EC0000000E0384248C00C00000013000000A20F00003C00000006000000020000000000004000408FC00000008043301EC000000000A5C445C00000004000408FC000000040
310
2CB52CC0000000E0AB6B48C00C00000013000000AA0F00003C00000006000000020000000000004000408FC000000080FF741BC0000000E053E545C00000004000408FC00000000046072BC0000000C0E1BA48C00C00000013000000B20F00003C00000006000000020000000000004000408FC0000000007471EABF000000
310
409A6D46C00000004000408FC0000000404A5529C000000000F83A49C00C00000013000000BA0F00003C00000006000000020000000000004000408FC00000000020C8D9BF00000060FC8446C00000004000408FC0000000404A5529C000000000F83A49C00C00000013000000C20F00003C00000006000000020000000000
310
004000408FC000000000C03ABBBF0000002036B246C00000004000408FC0000000404A5529C000000000F83A49C00C00000013000000CA0F00003C00000006000000020000000000004000408FC0000000000000000000000060A8EB46C00000004000408FC0000000404A5529C000000000F83A49C00C00000013000000D2
310
0F00003C00000006000000020000000000004000408FC000000000C8B0F5BF00000040FFDF49C00000004000408FC000000000F1B416C0000000C068634CC00C00000013000000DA0F00003C00000006000000020000000000004000408FC0000000000026B1BF00000000B3FD4AC00000004000408FC000000080E3C813C0
310
00000080F7714CC00C00000013000000E20F00003C00000006000000020000000000004000408FC000000000007491BF000000C0220D4BC00000004000408FC000000080B43B12C0000000809A934CC00C00000013000000EA0F00003C00000006000000020000000000004000408FC0000000000000000000000000B31D4B
310
C00000004000408FC000000000FFFF11C00000004098B14CC00C00000013000000F20F00003C00000006000000020000000000004000408FC000000000007491BF000000C0220D4BC00000004000408FC000000080C8E012C0000000809D7C4CC00C00000013000000FA0F00003C0000000600000002000000000000400040
310
8FC000000000C8B0F5BF00000040FFDF49C00000004000408FC0000000006E781BC000000060513F4CC00C00000013000000021000003C00000006000000020000000000004000408FC0000000002AC3F6BF00000040FFBF49C00000004000408FC000000000E5FE1FC00000008025074CC00C000000130000000A1000003C
310
00000006000000020000000000004000408FC000000000C8B0F5BF00000040FF9F49C00000004000408FC000000080BAED23C0000000409C5B4BC00C00000013000000121000003C00000006000000020000000000004000408FC0000000002AC3F6BF00000040FFBF49C00000004000408FC0000000C0450F22C000000000
310
10BC4BC00C000000130000001A1000003C00000006000000020000000000004000408FC000000000C8B0F5BF00000040FF9F49C00000004000408FC000000080838325C0000000806EE84AC00C00000013000000221000003C00000006000000020000000000004000408FC0000000000026B1BF000000604B8248C0000000
310
4000408FC00000000091D026C000000060E6644AC00C000000130000002A1000003C00000006000000020000000000004000408FC00000000000000000000000604B6248C00000004000408FC000000000920428C0000000202DCE49C00C00000013000000321000003C00000006000000020000000000004000408FC00000
310
0000007491BF000000C0DB7248C00000004000408FC00000000091D026C000000060E6644AC00C000000130000003A1000003C00000006000000020000000000004000408FC000000000007491BF000000C0DB7248C00000004000408FC000000000920428C0000000202DCE49C00C00000013000000421000003C00000006
310
00000002000000000000C0FF3F8F4000000000FEFF0FC000000040FFFF4DC0000000C0FF3F8F40000000000000000000000000B31D4BC00C000000130000004A1000003C0000000600000002000000000000C0FF3F8F400000008034A250C00000000024DC13C0000000C0FF3F8F4000000000B4FD4FC0000000008024B1BF
310
0C00000013000000521000003C0000000600000002000000000000C0FF3F8F400000000040AD50C000000000B4FA12C0000000C0FF3F8F40000000C0910650C000000000006F91BF0C000000130000005A1000003C0000000600000002000000000000C0FF3F8F400000008022BE50C000000000759B12C0000000C0FF3F8F
310
4000000000DA0E50C0000000000000F83E0C00000013000000621000003C0000000600000002000000000000C0FF3F8F4000000000DA0E50C0000000000000F83E000000C0FF3F8F4000000000035151C0000000001E1912C00C000000130000006A1000003C0000000600000002000000000000C0FF3F8F4000000000DA0E
310
50C0000000000000F83E000000C0FF3F8F4000000040AA5F51C0000000004BD111C00C00000013000000721000003C0000000600000002000000000000C0FF3F8F4000000000DA0E50C0000000000000F83E000000C0FF3F8F40000000408C6A51C000000000CB2411C00C000000130000007A1000003C0000000600000002
310
000000000000C0FF3F8F4000000000DA0E50C0000000000000F83E000000C0FF3F8F40000000402C6F51C000000000033B10C00C00000013000000821000003C0000000600000002000000000000C0FF3F8F40000000009A5350C000000000B4B61CC0000000C0FF3F8F400000000000E04EC000000000B4B0F5BF0C000000
310
130000008A1000003C0000000600000002000000000000C0FF3F8F40000000009A5350C000000000B4B61CC0000000C0FF3F8F400000000000C04EC00000000014C3F6BF0C00000013000000921000003C0000000600000002000000000000C0FF3F8F40000000409A1750C00000004046EB20C0000000C0FF3F8F40000000
310
0000A04EC000000000B4B0F5BF0C000000130000009A1000003C0000000600000002000000000000C0FF3F8F40000000409A1750C00000004046EB20C0000000C0FF3F8F40000000404C824DC0000000008024B1BF0C00000013000000A21000003C0000000600000002000000000000C0FF3F8F40000000409A1750C00000
310
004046EB20C0000000C0FF3F8F4000000080DC724DC000000000006F91BF0C00000013000000AA1000003C0000000600000002000000000000C0FF3F8F40000000409A1750C00000004046EB20C0000000C0FF3F8F40000000404C624DC0000000000000F83E0C00000013000000B21000003C000000060000000200000000
310
0000C0FF3F8F40000000409A1750C00000004046EB20C0000000C0FF3F8F400000000000004CC0000000000000F83E0C00000013000000BA1000003C0000000600000002000000000000C0FF3F8F40000000409A1750C00000004046EB20C0000000C0FF3F8F4000000040FFCE4BC0000000008081B3BF0C00000013000000
310
C21000003C0000000600000002000000000000C0FF3F8F40000000409A1750C00000004046EB20C0000000C0FF3F8F40000000007FA54BC00000000010BFD2BF0C00000013000000CA1000003C0000000600000002000000000000C0FF3F8F40000000409A1750C00000004046EB20C0000000C0FF3F8F4000000080C1894B
310
C000000000A0BFE3BF0C00000013000000D21000003C0000000600000002000000000000C0FF3F8F40000000409A1750C00000004046EB20C0000000C0FF3F8F400000000000804BC000000000D0FFEFBF0C00000013000000DA1000003C0000000600000002000000000000C0FF3F8F40000000409A1750C00000004046EB
310
20C0000000C0FF3F8F400000000000804BC0000000009A5505C00C00000013000000E21000003C0000000600000002000000000000C0FF3F8F40000000E0A2964FC0000000405A7123C0000000C0FF3F8F40000000405F694BC0000000004AE90BC00C00000013000000EA1000003C0000000600000002000000000000C0FF
310
3F8F40000000E0B9F94EC0000000C0BC7525C0000000C0FF3F8F40000000407D294BC000000000ABA910C00C00000013000000F21000003C0000000600000002000000000000C0FF3F8F40000000A0D73D4EC0000000C0145027C0000000C0FF3F8F40000000C0A4CB4AC0000000005D4F12C00C00000013000000FA100000
310
3C0000000600000002000000000000C0FF3F8F4000000080D0854DC000000080B7A828C0000000C0FF3F8F40000000806FDD49C000000000B09215C00C00000013000000021100003C0000000600000002000000000000C0FF3F8F4000000080B0374CC0000000C06B642AC0000000C0FF3F8F40000000C0CA0C49C0000000
310
809D6B1AC00C000000130000000A1100003C0000000600000002000000000000C0FF3F8F40000000409D514CC0000000C052372AC0000000C0FF3F8F40000000C0CA0C49C0000000809D6B1AC00C00000013000000121100003C0000000600000002000000000000C0FF3F8F40000000409D1D4CC000000040BC262BC00000
310
00C0FF3F8F40000000C02C6448C000000080FB4D20C00C000000130000001A1100003C0000000600000002000000000000C0FF3F8F40000000C027254CC0000000C0C0B92AC0000000C0FF3F8F40000000C02C6448C000000080FB4D20C00C00000013000000221100003C0000000600000002000000000000C0FF3F8F4000
310
0000C02C6448C000000080FB4D20C0000000C0FF3F8F40000000004F134CC0000000E0D78D2EC00C000000130000002A1100003C0000000600000002000000000000C0FF3F8F40000000C02C6448C000000080FB4D20C0000000C0FF3F8F40000000A0740B4CC0000000C01FFD2EC00C00000013000000321100003C000000
310
0600000002000000000000C0FF3F8F40000000C02C6448C000000080FB4D20C0000000C0FF3F8F40000000402CF84BC0000000C034532FC00C000000130000003A1100003C0000000600000002000000000000C0FF3F8F40000000C02C6448C000000080FB4D20C0000000C0FF3F8F400000000061DD4BC000000060997E2F
310
C00C00000013000000421100003C0000000600000002000000000000C0FF3F8F4000000040524D4AC0000000407D6930C0000000C0FF3F8F4000000080892246C000000080A2FF23C00C000000130000004A1100003C0000000600000002000000000000C0FF3F8F40000000C0692F4BC000000040C8FB2FC0000000C0FF3F
310
8F4000000080892246C000000080A2FF23C00C00000013000000521100003C0000000600000002000000000000C0FF3F8F4000000080892246C000000080A2FF23C0000000C0FF3F8F40000000C05F7149C00000004038F230C00C000000130000005A1100003C0000000600000002000000000000C0FF3F8F400000008089
310
2246C000000080A2FF23C0000000C0FF3F8F40000000403DA148C0000000401E9731C00C00000013000000621100003C0000000600000002000000000000C0FF3F8F4000000080892246C000000080A2FF23C0000000C0FF3F8F4000000040BEDF47C000000000AF5732C00C000000130000006A1100003C00000006000000
310
02000000000000C0FF3F8F4000000000C2B646C0000000802ADD33C0000000C0FF3F8F4000000060E22944C00000008032E328C00C00000013000000721100003C0000000600000002000000000000C0FF3F8F4000000040544247C0000000A0601533C0000000C0FF3F8F4000000060E22944C00000008032E328C00C0000
310
00130000007A1100003C0000000600000002000000000000C0FF3F8F40000000803AC145C000000080479435C0000000C0FF3F8F40000000C01A7542C000000060B2E42EC00C00000013000000821100003C0000000600000002000000000000C0FF3F8F40000000800E3246C0000000003FBB34C0000000C0FF3F8F400000
310
00C01A7542C000000060B2E42EC00C000000130000008A1100003C0000000600000002000000000000C0FF3F8F40000000C01A7542C000000060B2E42EC0000000C0FF3F8F40000000C0195845C0000000A0E47A36C00C00000013000000921100003C0000000600000002000000000000C0FF3F8F40000000C01A7542C000
310
000060B2E42EC0000000C0FF3F8F4000000040A7F144C0000000A07E7837C00C000000130000009A1100003C0000000600000002000000000000C0FF3F8F4000000020713B44C0000000A0458639C0000000C0FF3F8F40000000404B8C40C0000000C03F6034C00C00000013000000A21100003C0000000600000002000000
310
000000C0FF3F8F4000000000D59044C0000000E0FC8238C0000000C0FF3F8F40000000404B8C40C0000000C03F6034C00C00000013000000AA1100003C0000000600000002000000000000C0FF3F8F40000000404B8C40C0000000C03F6034C0000000C0FF3F8F4000000060EFE743C0000000E0C39A3AC00C000000130000
310
00B21100003C0000000600000002000000000000C0FF3F8F40000000404B8C40C0000000C03F6034C0000000C0FF3F8F40000000E0469443C000000020BFBD3BC00C00000013000000BA1100003C0000000600000002000000000000C0FF3F8F40000000A0CBF642C0000000A0DA063EC0000000C0FF3F8F40000000606FA1
310
3EC000000080A19538C00C00000013000000C21100003C0000000600000002000000000000C0FF3F8F40000000E0344243C000000060A7E93CC0000000C0FF3F8F40000000606FA13EC000000080A19538C00C00000013000000CA1100003C0000000600000002000000000000C0FF3F8F4000000000F65C42C0000000807B
310
1D40C0000000C0FF3F8F40000000E00F1F3DC0000000E08D633BC00C00000013000000D21100003C0000000600000002000000000000C0FF3F8F40000000C076AA42C00000000005223FC0000000C0FF3F8F40000000E00F1F3DC0000000E08D633BC00C00000013000000DA1100003C0000000600000002000000000000C0
310
FF3F8F4000000080890E42C0000000C0ECA840C0000000C0FF3F8F40000000801CCF3BC0000000800FA73DC00C00000013000000E21100003C0000000600000002000000000000C0FF3F8F40000000801CCF3BC0000000800FA73DC0000000C0FF3F8F4000000080FFB741C000000060603941C00C00000013000000EA1100
310
003C0000000600000002000000000000C0FF3F8F40000000401B0441C000000040E04242C0000000C0FF3F8F4000000000192A3AC00000000012F23FC00C00000013000000F21100003C0000000600000002000000000000C0FF3F8F4000000020855E41C0000000C0C8C241C0000000C0FF3F8F4000000000192A3AC00000
310
000012F23FC00C00000013000000FA1100003C0000000600000002000000000000C0FF3F8F4000000000192A3AC00000000012F23FC0000000C0FF3F8F40000000C0DAA740C0000000407AB942C00C00000013000000021200003C0000000600000002000000000000C0FF3F8F4000000000053240C000000080B03F43C000
310
0000C0FF3F8F40000000008D8938C00000004026BF40C00C000000130000000A1200003C0000000600000002000000000000C0FF3F8F40000000008D8938C00000004026BF40C0000000C0FF3F8F400000002034613FC0000000C088C043C00C00000013000000121200003C0000000600000002000000000000C0FF3F8F40
310
000000008D8938C00000004026BF40C0000000C0FF3F8F40000000602D573EC000000060FE3244C00C000000130000001A1200003C0000000600000002000000000000C0FF3F8F4000000080703E3DC000000000FB9944C0000000C0FF3F8F40000000803EAE36C0000000404F4B41C00C00000013000000221200003C0000
310
000600000002000000000000C0FF3F8F40000000803EAE36C0000000404F4B41C0000000C0FF3F8F40000000203C103CC000000080A1F844C00C000000130000002A1200003C0000000600000002000000000000C0FF3F8F40000000803EAE36C0000000404F4B41C0000000C0FF3F8F4000000080EDCC3AC000000040E84D
310
45C00C00000013000000321200003C0000000600000002000000000000C0FF3F8F40000000C0000238C000000080CFDB45C0000000C0FF3F8F40000000E0518633C000000020EFCD41C00C000000130000003A1200003C0000000600000002000000000000C0FF3F8F40000000C0027139C000000080DC9945C0000000C0FF
310
3F8F40000000E0518633C000000020EFCD41C00C00000013000000421200003C0000000600000002000000000000C0FF3F8F40000000E0518633C000000020EFCD41C0000000C0FF3F8F40000000801A8536C0000000809A1246C00C000000130000004A1200003C0000000600000002000000000000C0FF3F8F40000000C0
310
0DE732C0000000C0496B46C0000000C0FF3F8F4000000080F04A30C000000080980842C00C00000013000000521200003C0000000600000002000000000000C0FF3F8F40000000004EC234C0000000E09A4446C0000000C0FF3F8F4000000080F04A30C000000080980842C00C000000130000005A1200003C000000060000
310
0002000000000000C0FF3F8F4000000040794331C000000080E18946C0000000C0FF3F8F4000000000B4A92CC0000000C0483D42C00C00000013000000621200003C0000000600000002000000000000C0FF3F8F40000000A0467E31C0000000E0797F46C0000000C0FF3F8F4000000000B4A92CC0000000C0483D42C00C00
310
0000130000006A1200003C0000000600000002000000000000C0FF3F8F40000000E07C1931C000000020F2A046C0000000C0FF3F8F4000000080C9E027C0000000C025D342C00C00000013000000721200003C0000000600000002000000000000C0FF3F8F40000000004A0A31C0000000A031BF46C0000000C0FF3F8F4000
310
0000C0F6FD23C0000000C03BBC43C00C000000130000007A1200003C0000000600000002000000000000C0FF3F8F40000000405CFB30C0000000009BF447C0000000C0FF3F8F40000000C099D421C000000040449444C00C00000013000000821200003C0000000600000002000000000000C0FF3F8F40000000004A0A31C0
310
000000009DD647C0000000C0FF3F8F40000000C099D421C000000040449444C00C000000130000008A1200003C0000000600000002000000000000C0FF3F8F40000000C099D421C000000040449444C0000000C0FF3F8F400000008016D230C000000040980B48C00C00000013000000921200003C00000006000000020000
310
00000000C0FF3F8F40000000C099D421C000000040449444C0000000C0FF3F8F40000000800E9830C0000000003E1648C00C000000130000009A1200003C0000000600000002000000000000C0FF3F8F40000000C021E72FC000000080EB2348C0000000C0FF3F8F4000000040FDDB20C000000000063445C00C0000001300
310
0000A21200003C0000000600000002000000000000C0FF3F8F4000000040CC212EC0000000E0384248C0000000C0FF3F8F4000000040AD2F20C0000000C0CD8645C00C00000013000000AA1200003C0000000600000002000000000000C0FF3F8F40000000402CB52CC0000000E0AB6B48C0000000C0FF3F8F400000008043
310
301EC000000000A5C445C00C00000013000000B21200003C0000000600000002000000000000C0FF3F8F400000000046072BC0000000C0E1BA48C0000000C0FF3F8F4000000080FF741BC0000000E053E545C00C00000013000000BA1200003C0000000600000002000000000000C0FF3F8F40000000404A5529C000000000
310
F83A49C0000000C0FF3F8F40000000007071EABF000000409A6D46C00C00000013000000C21200003C0000000600000002000000000000C0FF3F8F40000000404A5529C000000000F83A49C0000000C0FF3F8F400000000020C8D9BF00000060FC8446C00C00000013000000CA1200003C0000000600000002000000000000
310
C0FF3F8F40000000404A5529C000000000F83A49C0000000C0FF3F8F4000000000C03ABBBF0000002036B246C00C00000013000000D21200003C0000000600000002000000000000C0FF3F8F40000000404A5529C000000000F83A49C0000000C0FF3F8F40000000000000000000000060A8EB46C00C00000013000000DA12
310
00003C0000000600000002000000000000C0FF3F8F4000000080E3C813C000000080F7714CC0000000C0FF3F8F40000000000026B1BF00000000B3FD4AC00C00000013000000E21200003C0000000600000002000000000000C0FF3F8F4000000000F1B416C0000000C068634CC0000000C0FF3F8F4000000000C8B0F5BF00
310
000040FFDF49C00C00000013000000EA1200003C0000000600000002000000000000C0FF3F8F4000000000FFFF11C00000004098B14CC0000000C0FF3F8F40000000000000000000000000B31D4BC00C00000013000000F21200003C0000000600000002000000000000C0FF3F8F4000000080B43B12C0000000809A934CC0
310
000000C0FF3F8F4000000000007491BF000000C0220D4BC00C00000013000000FA1200003C0000000600000002000000000000C0FF3F8F4000000000007491BF000000C0220D4BC0000000C0FF3F8F4000000080C8E012C0000000809D7C4CC00C00000013000000021300003C0000000600000002000000000000C0FF3F8F
310
4000000000C8B0F5BF00000040FFDF49C0000000C0FF3F8F40000000006E781BC000000060513F4CC00C000000130000000A1300003C0000000600000002000000000000C0FF3F8F4000000000E5FE1FC00000008025074CC0000000C0FF3F8F400000000028C3F6BF00000040FFBF49C00C00000013000000121300003C00
310
00000600000002000000000000C0FF3F8F400000000028C3F6BF00000040FFBF49C0000000C0FF3F8F40000000C0450F22C00000000010BC4BC00C000000130000001A1300003C0000000600000002000000000000C0FF3F8F4000000080BAED23C0000000409C5B4BC0000000C0FF3F8F4000000000C8B0F5BF00000040FF
310
9F49C00C00000013000000221300003C0000000600000002000000000000C0FF3F8F4000000000C8B0F5BF00000040FF9F49C0000000C0FF3F8F4000000080838325C0000000806EE84AC00C000000130000002A1300003C0000000600000002000000000000C0FF3F8F400000000091D026C000000060E6644AC0000000C0
310
FF3F8F40000000000026B1BF000000604B8248C00C00000013000000321300003C0000000600000002000000000000C0FF3F8F4000000000920428C0000000202DCE49C0000000C0FF3F8F400000000000000000000000604B6248C00C000000130000003A1300003C0000000600000002000000000000C0FF3F8F40000000
310
0091D026C000000060E6644AC0000000C0FF3F8F4000000000007491BF000000C0DB7248C00C00000013000000421300003C0000000600000002000000000000C0FF3F8F4000000000920428C0000000202DCE49C0000000C0FF3F8F4000000000007491BF000000C0DB7248C00C000000130000004A1300003C0000000600
310
0000020000000000004000408FC0000000000000000000000000B31D4BC00000004000408FC000000080FEFF11C000000040FFBF4DC00C00000013000000521300003C00000006000000020000000000004000408FC0000000000000000000000000B31D4BC00000004000408FC00000008066BB11C000000040FFDF4DC00C
310
000000130000005A1300003C00000006000000020000000000004000408FC0000000000000000000000000B31D4BC00000004000408FC000000080FEFF10C0000000406CF74DC00C00000013000000621300003C0000000600000002000000000000C0FF3F8F4000000000FFFF11C000000040FFBF4DC0000000C0FF3F8F40
310
000000000000000000000000B31D4BC00C000000130000006A1300003C0000000600000002000000000000C0FF3F8F400000000067BB11C000000040FFDF4DC0000000C0FF3F8F40000000000000000000000000B31D4BC00C00000013000000721300003C0000000600000002000000000000C0FF3F8F4000000000FFFF10
310
C0000000406CF74DC0000000C0FF3F8F40000000000000000000000000B31D4BC0
100
AcDbSubDMesh
 71
     2
 72
     0
 91
        0
 92
      282
 10
-1000.000122070312
 20
-3.999994277954101
 30
-59.99997711181641
 10
-1000.000122070312
 20
0.0000076293945313
 30
-59.99997711181641
 10
-1000.000122070312
 20
0.0
 30
-54.23202514648437
 10
-1000.000122070312
 20
-0.0170440673828125
 30
-54.10262298583984
 10
-1000.000122070312
 20
-0.066986083984375
 30
-53.98202514648438
 10
-1000.000122070312
 20
-1.355659484863281
 30
-51.7499771118164
 10
-1000.000122070312
 20
-1.422647476196289
 30
-51.4999771118164
 10
-1000.000122070312
 20
-1.355659484863281
 30
-51.24997711181641
 10
-1000.000122070312
 20
-0.066986083984375
 30
-49.01792526245117
 10
-1000.000122070312
 20
-0.0170440673828125
 30
-48.89733123779297
 10
-1000.000122070312
 20
0.0
 30
-48.76792526245117
 10
-1000.000122070312
 20
0.0
 30
-45.84107589721679
 10
-1000.000122070312
 20
-0.1063652038574219
 30
-45.39227676391601
 10
-1000.000122070312
 20
-0.4028396606445313
 30
-45.0389518737793
 10
-1000.000122070312
 20
-0.8263492584228515
 30
-44.85626983642577
 10
-1000.000122070312
 20
-6.864255905151367
 30
-43.79162216186523
 10
-1000.000122070312
 20
-7.547132492065429
 30
-43.53628540039062
 10
-1000.000122070312
 20
-8.093118667602539
 30
-43.05315399169922
 10
-1000.000122070312
 20
-8.429666519165039
 30
-42.40643310546874
 10
-1000.000122070312
 20
-8.915235519409179
 30
-41.15833282470703
 10
-1000.000122070312
 20
-9.996023178100585
 30
-39.47057342529297
 10
-1000.000122070312
 20
-11.93903732299804
 30
-37.64958953857422
 10
-1000.000122070312
 20
-14.33145141601562
 30
-36.47878265380859
 10
-1000.000122070312
 20
-16.29273223876953
 30
-36.06715393066406
 10
-1000.000122070312
 20
-19.52468681335449
 30
-35.60886001586914
 10
-1000.000122070312
 20
-22.68064117431641
 30
-34.58835601806641
 10
-1000.000122070312
 20
-24.53730773925781
 30
-33.49335479736328
 10
-1000.000122070312
 20
-26.16444396972656
 30
-31.94558715820313
 10
-1000.000122070312
 20
-27.80902862548828
 30
-29.65258026123047
 10
-1000.000122070312
 20
-29.12133598327637
 30
-27.38888359069824
 10
-1000.000122070312
 20
-30.63060569763184
 30
-24.58449554443359
 10
-1000.000122070312
 20
-33.09604644775391
 30
-20.37597274780273
 10
-1000.000122070312
 20
-36.91487884521484
 30
-15.44667434692383
 10
-1000.000122070312
 20
-40.32722091674805
 30
-12.44374465942383
 10
-1000.000122070312
 20
-44.26982116699218
 30
-9.999286651611328
 10
-1000.000122070312
 20
-48.78261566162109
 30
-8.152309417724609
 10
-1000.000122070312
 20
-50.09993743896484
 30
-6.605093002319335
 10
-1000.000122070312
 20
-51.72996520996093
 30
-5.39324951171875
 10
-1000.000122070312
 20
-53.59096527099609
 30
-4.577503204345703
 10
-1000.000122070312
 20
-54.32413482666015
 30
-4.165691375732421
 10
-1000.000122070312
 20
-54.8232192993164
 30
-3.488910675048828
 10
-1000.000122070312
 20
-55.0
 30
-2.666797637939453
 10
-1000.000122070312
 20
-55.0
 30
-0.9999771118164062
 10
-1000.000122070312
 20
-55.07621765136718
 30
-0.6171417236328125
 10
-1000.000122070312
 20
-55.29293823242188
 30
-0.2929115295410156
 10
-1000.000122070312
 20
-55.6171646118164
 30
-0.0761947631835938
 10
-1000.000122070312
 20
-56.0
 30
0.0000228881835938
 10
-1000.000122070312
 20
-58.76795196533203
 30
0.0000228881835938
 10
-1000.000122070312
 20
-58.89735412597656
 30
-0.0170249938964844
 10
-1000.000122070312
 20
-59.01795196533203
 30
-0.0669631958007813
 10
-1000.000122070312
 20
-61.25
 30
-1.355640411376953
 10
-1000.000122070312
 20
-61.5
 30
-1.422626495361328
 10
-1000.000122070312
 20
-61.75
 30
-1.355640411376953
 10
-1000.000122070312
 20
-63.9820556640625
 30
-0.0669631958007813
 10
-1000.000122070312
 20
-64.10264587402344
 30
-0.0170249938964844
 10
-1000.000122070312
 20
-64.23204803466797
 30
0.0000228881835938
 10
-1000.000122070312
 20
-70.0
 30
0.0000190734863281
 10
-1000.000122070312
 20
-69.73706817626953
 30
-4.057628631591796
 10
-1000.000122070312
 20
-69.66480255126953
 30
-4.285930633544921
 10
-1000.000122070312
 20
-69.49476623535156
 30
-4.454387664794921
 10
-1000.000122070312
 20
-69.26580810546875
 30
-4.524528503417968
 10
-1000.000122070312
 20
-66.97084808349609
 30
-4.651813507080078
 10
-1000.000122070312
 20
-66.70702362060547
 30
-4.744827270507812
 10
-1000.000122070312
 20
-66.53444671630859
 30
-4.964981079101562
 10
-1000.000122070312
 20
-64.36878967285156
 30
-8.45952033996582
 10
-1000.000122070312
 20
-61.95098495483398
 30
-10.72995567321777
 10
-1000.000122070312
 20
-59.04542541503906
 30
-12.32952499389648
 10
-1000.000122070312
 20
-56.63761138916015
 30
-13.10805511474609
 10
-1000.000122070312
 20
-56.43507385253906
 30
-13.19613647460937
 10
-1000.000122070312
 20
-56.29027557373047
 30
-13.3627986907959
 10
-1000.000122070312
 20
-56.23136138916016
 30
-13.57565689086914
 10
-1000.000122070312
 20
-56.15084838867187
 30
-15.27703857421875
 10
-1000.000122070312
 20
-56.08949661254882
 30
-15.49438285827636
 10
-1000.000122070312
 20
-55.93885040283203
 30
-15.66251182556152
 10
-1000.000122070312
 20
-55.72952270507812
 30
-15.74726486206055
 10
-1000.000122070312
 20
-54.37041473388672
 30
-15.99176216125488
 10
-1000.000122070312
 20
-52.60407257080078
 30
-16.41206741333007
 10
-1000.000122070312
 20
-50.88573455810546
 30
-16.94617080688476
 10
-1000.000122070312
 20
-49.25968170166015
 30
-17.59030532836914
 10
-1000.000122070312
 20
-47.74799346923828
 30
-18.34251403808593
 10
-1000.000122070312
 20
-46.51819610595703
 30
-19.08350563049316
 10
-1000.000122070312
 20
-45.42779541015625
 30
-19.86392974853515
 10
-1000.000122070312
 20
-44.39106750488281
 30
-20.73143005371094
 10
-1000.000122070312
 20
-43.50959777832031
 30
-21.57921600341797
 10
-1000.000122070312
 20
-42.68828582763672
 30
-22.48005104064942
 10
-1000.000122070312
 20
-41.8879165649414
 30
-23.47068214416504
 10
-1000.000122070312
 20
-41.13150024414062
 30
-24.51167106628418
 10
-1000.000122070312
 20
-40.46438980102538
 30
-25.52449989318848
 10
-1000.000122070312
 20
-39.81199264526367
 30
-26.60455131530762
 10
-1000.000122070312
 20
-39.15841293334961
 30
-27.74119758605957
 10
-1000.000122070312
 20
-38.51723861694336
 30
-28.91271018981934
 10
-1000.000122070312
 20
-37.92808914184571
 30
-30.02677345275879
 10
-1000.000122070312
 20
-37.33174896240234
 30
-31.13288879394531
 10
-1000.000122070312
 20
-36.72625732421875
 30
-32.23033142089844
 10
-1000.000122070312
 20
-36.11357116699219
 30
-33.3197250366211
 10
-1000.000122070312
 20
-35.43748474121094
 30
-34.4482536315918
 10
-1000.000122070312
 20
-34.73843765258789
 30
-35.52175140380859
 10
-1000.000122070312
 20
-34.03208160400391
 30
-36.52246856689453
 10
-1000.000122070312
 20
-33.31136322021484
 30
-37.44904327392578
 10
-1000.000122070312
 20
-32.39077758789063
 30
-38.49757385253906
 10
-1000.000122070312
 20
-31.37970161437988
 30
-39.5041732788086
 10
-1000.000122070312
 20
-30.34053611755371
 30
-40.39838790893554
 10
-1000.000122070312
 20
-29.24390411376953
 30
-41.20297241210937
 10
-1000.000122070312
 20
-28.06341743469238
 30
-41.94242858886719
 10
-1000.000122070312
 20
-26.80049896240234
 30
-42.60865020751952
 10
-1000.000122070312
 20
-25.44144821166992
 30
-43.20204162597656
 10
-1000.000122070312
 20
-24.0078239440918
 30
-43.71726989746093
 10
-1000.000122070312
 20
-22.51993560791015
 30
-44.14533996582031
 10
-1000.000122070312
 20
-20.75900268554688
 30
-44.53597640991211
 10
-1000.000122070312
 20
-18.90255355834961
 30
-44.83818817138671
 10
-1000.000122070312
 20
-17.49326515197754
 30
-44.99590682983398
 10
-1000.000122070312
 20
-17.26356887817383
 30
-45.07719421386719
 10
-1000.000122070312
 20
-17.09956169128418
 30
-45.25738906860351
 10
-1000.000122070312
 20
-17.04019165039062
 30
-45.49370193481445
 10
-1000.000122070312
 20
-17.04019165039062
 30
-47.67666625976562
 10
-1000.000122070312
 20
-16.98187637329101
 30
-47.91098022460937
 10
-1000.000122070312
 20
-16.8206558227539
 30
-48.09058380126953
 10
-1000.000122070312
 20
-16.5939712524414
 30
-48.17376708984375
 10
-1000.000122070312
 20
-15.95142936706543
 30
-48.28062438964844
 10
-1000.000122070312
 20
-15.06601142883301
 30
-48.51736068725585
 10
-1000.000122070312
 20
-14.35385322570801
 30
-48.84118270874023
 10
-1000.000122070312
 20
-13.51420593261719
 30
-49.46001434326172
 10
-1000.000122070312
 20
-12.66658210754394
 30
-50.460693359375
 10
-1000.000122070312
 20
-12.00892639160156
 30
-51.61075210571289
 10
-1000.000122070312
 20
-11.40735626220703
 30
-52.78828048706055
 10
-1000.000122070312
 20
-10.75686264038086
 30
-53.81587219238281
 10
-1000.000122070312
 20
-9.964313507080078
 30
-54.71570587158203
 10
-1000.000122070312
 20
-9.029829025268554
 30
-55.46923828125
 10
-1000.000122070312
 20
-7.998920440673828
 30
-56.05583190917968
 10
-1000.000122070312
 20
-6.867607116699218
 30
-56.49467086791992
 10
-1000.000122070312
 20
-5.676700592041015
 30
-56.77663421630859
 10
-1000.000122070312
 20
-4.946180343627929
 30
-56.89036560058593
 10
-1000.000122070312
 20
-4.719514846801757
 30
-56.97355651855469
 10
-1000.000122070312
 20
-4.558305740356445
 30
-57.15315246582031
 10
-1000.000122070312
 20
-4.499996185302734
 30
-57.38745880126953
 10
-1000.000122070312
 20
-4.499994277954101
 30
-59.49997711181641
 10
-1000.000122070312
 20
-4.433008193969726
 30
-59.7499771118164
 10
-1000.000122070312
 20
-4.249994277954101
 30
-59.93299102783203
 10
-1000.000122070312
 20
-65.3062744140625
 30
-7.178421020507812
 10
-1000.000122070312
 20
-63.17684555053711
 30
-9.721391677856445
 10
-1000.000122070312
 20
-60.4831428527832
 30
-11.65640830993652
 10
999.9998779296875
 20
0.0000038146972656
 30
-59.99997711181641
 10
999.9998779296875
 20
-3.999996185302734
 30
-59.99997711181641
 10
999.9998779296875
 20
-4.249996185302734
 30
-59.93299102783203
 10
999.9998779296875
 20
-4.433010101318359
 30
-59.7499771118164
 10
999.9998779296875
 20
-4.499996185302734
 30
-59.49997711181641
 10
999.9998779296875
 20
-4.499996185302734
 30
-57.38745880126953
 10
999.9998779296875
 20
0.0
 30
-54.23202514648437
 10
999.9998779296875
 20
-66.53445434570312
 30
-4.964981079101562
 10
999.9998779296875
 20
-66.70703125
 30
-4.744827270507812
 10
999.9998779296875
 20
-64.10264587402344
 30
-0.0170249938964844
 10
999.9998779296875
 20
-63.9820556640625
 30
-0.0669631958007813
 10
999.9998779296875
 20
-66.97085571289062
 30
-4.651813507080078
 10
999.9998779296875
 20
-64.2320556640625
 30
0.0000228881835938
 10
999.9998779296875
 20
-69.26580810546875
 30
-4.524528503417968
 10
999.9998779296875
 20
-69.49476623535156
 30
-4.454387664794921
 10
999.9998779296875
 20
-69.66481018066406
 30
-4.285930633544921
 10
999.9998779296875
 20
-69.73707580566406
 30
-4.057628631591796
 10
999.9998779296875
 20
-70.0
 30
0.0000190734863281
 10
999.9998779296875
 20
-65.3062744140625
 30
-7.178421020507812
 10
999.9998779296875
 20
-61.75
 30
-1.355640411376953
 10
999.9998779296875
 20
-61.5
 30
-1.422626495361328
 10
999.9998779296875
 20
-64.36878967285156
 30
-8.45952033996582
 10
999.9998779296875
 20
-61.25
 30
-1.355640411376953
 10
999.9998779296875
 20
-59.01795196533203
 30
-0.0669631958007813
 10
999.9998779296875
 20
-58.89735412597656
 30
-0.0170249938964844
 10
999.9998779296875
 20
-58.76795196533203
 30
0.0000228881835938
 10
999.9998779296875
 20
-56.0
 30
0.0000228881835938
 10
999.9998779296875
 20
-55.6171646118164
 30
-0.0761947631835938
 10
999.9998779296875
 20
-55.29293823242188
 30
-0.2929115295410156
 10
999.9998779296875
 20
-55.07621765136718
 30
-0.6171417236328125
 10
999.9998779296875
 20
-55.0
 30
-0.9999771118164062
 10
999.9998779296875
 20
-55.0
 30
-2.666797637939453
 10
999.9998779296875
 20
-63.17684555053711
 30
-9.721391677856445
 10
999.9998779296875
 20
-54.8232192993164
 30
-3.488910675048828
 10
999.9998779296875
 20
-61.95098495483398
 30
-10.72995567321777
 10
999.9998779296875
 20
-54.32413482666015
 30
-4.165691375732421
 10
999.9998779296875
 20
-60.4831428527832
 30
-11.65640830993652
 10
999.9998779296875
 20
-53.59096527099609
 30
-4.577503204345703
 10
999.9998779296875
 20
-59.04542541503906
 30
-12.32952499389648
 10
999.9998779296875
 20
-51.72996520996093
 30
-5.39324951171875
 10
999.9998779296875
 20
-56.43507385253906
 30
-13.19613456726074
 10
999.9998779296875
 20
-56.63761138916015
 30
-13.10805320739746
 10
999.9998779296875
 20
-50.09993743896484
 30
-6.605093002319335
 10
999.9998779296875
 20
-56.23136138916016
 30
-13.57565498352051
 10
999.9998779296875
 20
-56.29027557373047
 30
-13.3627986907959
 10
999.9998779296875
 20
-48.78261566162109
 30
-8.152309417724609
 10
999.9998779296875
 20
-56.15084838867187
 30
-15.27703762054443
 10
999.9998779296875
 20
-56.08949661254882
 30
-15.49438285827636
 10
999.9998779296875
 20
-55.93885040283203
 30
-15.66251182556152
 10
999.9998779296875
 20
-55.72952270507812
 30
-15.74726390838623
 10
999.9998779296875
 20
-52.60407257080078
 30
-16.41206741333007
 10
999.9998779296875
 20
-54.37041473388672
 30
-15.99176216125488
 10
999.9998779296875
 20
-44.26982116699218
 30
-9.999286651611328
 10
999.9998779296875
 20
-50.88573455810546
 30
-16.94617080688476
 10
999.9998779296875
 20
-49.25968170166015
 30
-17.59030532836914
 10
999.9998779296875
 20
-47.74799346923828
 30
-18.34251403808593
 10
999.9998779296875
 20
-45.42779541015625
 30
-19.86392974853515
 10
999.9998779296875
 20
-46.51819610595703
 30
-19.08350563049316
 10
999.9998779296875
 20
-40.32722091674805
 30
-12.44374465942383
 10
999.9998779296875
 20
-43.50959777832031
 30
-21.57921600341797
 10
999.9998779296875
 20
-44.39106750488281
 30
-20.73143005371094
 10
999.9998779296875
 20
-36.91487884521484
 30
-15.44667339324951
 10
999.9998779296875
 20
-42.68828582763672
 30
-22.48005104064942
 10
999.9998779296875
 20
-41.8879165649414
 30
-23.47068214416504
 10
999.9998779296875
 20
-40.46438980102538
 30
-25.52449989318848
 10
999.9998779296875
 20
-41.13150024414062
 30
-24.51167106628418
 10
999.9998779296875
 20
-33.09604644775391
 30
-20.37597274780273
 10
999.9998779296875
 20
-39.81199264526367
 30
-26.60455131530762
 10
999.9998779296875
 20
-39.15841293334961
 30
-27.74119758605957
 10
999.9998779296875
 20
-37.92808914184571
 30
-30.02677345275879
 10
999.9998779296875
 20
-38.51723861694336
 30
-28.91271018981934
 10
999.9998779296875
 20
-30.63060569763184
 30
-24.58449554443359
 10
999.9998779296875
 20
-36.72625732421875
 30
-32.23033142089844
 10
999.9998779296875
 20
-37.33174896240234
 30
-31.13288879394531
 10
999.9998779296875
 20
-29.12133598327637
 30
-27.38888359069824
 10
999.9998779296875
 20
-36.11357116699219
 30
-33.3197250366211
 10
999.9998779296875
 20
-27.80902862548828
 30
-29.65258026123047
 10
999.9998779296875
 20
-35.43748474121094
 30
-34.4482536315918
 10
999.9998779296875
 20
-34.03208160400391
 30
-36.52246856689453
 10
999.9998779296875
 20
-34.73843765258789
 30
-35.52175140380859
 10
999.9998779296875
 20
-26.16444396972656
 30
-31.94558715820313
 10
999.9998779296875
 20
-33.31136322021484
 30
-37.44904327392578
 10
999.9998779296875
 20
-32.39077758789063
 30
-38.49757385253906
 10
999.9998779296875
 20
-24.53730773925781
 30
-33.49335479736328
 10
999.9998779296875
 20
-31.37970161437988
 30
-39.5041732788086
 10
999.9998779296875
 20
-30.34053611755371
 30
-40.39838790893554
 10
999.9998779296875
 20
-29.24390411376953
 30
-41.20297241210937
 10
999.9998779296875
 20
-22.68064117431641
 30
-34.58835601806641
 10
999.9998779296875
 20
-28.06341743469238
 30
-41.94242858886719
 10
999.9998779296875
 20
-26.80049896240234
 30
-42.60865020751952
 10
999.9998779296875
 20
-24.0078239440918
 30
-43.71726989746093
 10
999.9998779296875
 20
-25.44144821166992
 30
-43.20204162597656
 10
999.9998779296875
 20
-19.52468681335449
 30
-35.60886001586914
 10
999.9998779296875
 20
-22.51993560791015
 30
-44.14533996582031
 10
999.9998779296875
 20
-18.90255355834961
 30
-44.83818817138671
 10
999.9998779296875
 20
-20.75900268554688
 30
-44.53597640991211
 10
999.9998779296875
 20
-16.29273223876953
 30
-36.06715393066406
 10
999.9998779296875
 20
-17.26356887817383
 30
-45.07719421386719
 10
999.9998779296875
 20
-17.49326515197754
 30
-44.99590682983398
 10
999.9998779296875
 20
-14.33145141601562
 30
-36.47878265380859
 10
999.9998779296875
 20
-17.09956169128418
 30
-45.25738906860351
 10
999.9998779296875
 20
-11.93903732299804
 30
-37.64958953857422
 10
999.9998779296875
 20
-17.04019165039062
 30
-45.49370193481445
 10
999.9998779296875
 20
-9.996023178100585
 30
-39.47057342529297
 10
999.9998779296875
 20
-16.98187637329101
 30
-47.91098022460937
 10
999.9998779296875
 20
-17.04019165039062
 30
-47.67666625976562
 10
999.9998779296875
 20
-8.915235519409179
 30
-41.15833282470703
 10
999.9998779296875
 20
-16.8206558227539
 30
-48.09058380126953
 10
999.9998779296875
 20
-16.5939712524414
 30
-48.17376708984375
 10
999.9998779296875
 20
-15.95142936706543
 30
-48.28062438964844
 10
999.9998779296875
 20
-8.429666519165039
 30
-42.40643310546874
 10
999.9998779296875
 20
-15.06601142883301
 30
-48.51736068725585
 10
999.9998779296875
 20
-8.093118667602539
 30
-43.05315399169922
 10
999.9998779296875
 20
-14.35385322570801
 30
-48.84118270874023
 10
999.9998779296875
 20
-7.547132492065429
 30
-43.53628540039062
 10
999.9998779296875
 20
-13.51420593261719
 30
-49.46001434326172
 10
999.9998779296875
 20
-6.864255905151367
 30
-43.79162216186523
 10
999.9998779296875
 20
-12.66658210754394
 30
-50.460693359375
 10
999.9998779296875
 20
-0.8263473510742187
 30
-44.85626983642577
 10
999.9998779296875
 20
-0.4028396606445313
 30
-45.0389518737793
 10
999.9998779296875
 20
-0.1063652038574219
 30
-45.39227676391601
 10
999.9998779296875
 20
0.0
 30
-45.84107589721679
 10
999.9998779296875
 20
-4.946180343627929
 30
-56.89036560058593
 10
999.9998779296875
 20
-5.676700592041015
 30
-56.77663421630859
 10
999.9998779296875
 20
-1.355659484863281
 30
-51.7499771118164
 10
999.9998779296875
 20
-0.066986083984375
 30
-53.98202514648438
 10
999.9998779296875
 20
-4.558305740356445
 30
-57.15315246582031
 10
999.9998779296875
 20
-0.0170440673828125
 30
-54.10262298583984
 10
999.9998779296875
 20
-4.719514846801757
 30
-56.97355651855469
 10
999.9998779296875
 20
-6.867607116699218
 30
-56.49467086791992
 10
999.9998779296875
 20
-7.998920440673828
 30
-56.05583190917968
 10
999.9998779296875
 20
-1.422645568847656
 30
-51.4999771118164
 10
999.9998779296875
 20
-9.029829025268554
 30
-55.46923828125
 10
999.9998779296875
 20
-9.964313507080078
 30
-54.71570587158203
 10
999.9998779296875
 20
-1.355659484863281
 30
-51.24997711181641
 10
999.9998779296875
 20
-10.75686264038086
 30
-53.81587219238281
 10
999.9998779296875
 20
-11.40735626220703
 30
-52.78828048706055
 10
999.9998779296875
 20
-0.066986083984375
 30
-49.01792526245117
 10
999.9998779296875
 20
-12.00892639160156
 30
-51.61075210571289
 10
999.9998779296875
 20
0.0
 30
-48.76792526245117
 10
999.9998779296875
 20
-0.0170440673828125
 30
-48.89733123779297
 93
     1589
 90
        4
 90
       56
 90
       57
 90
      157
 90
      158
 90
        4
 90
       57
 90
       58
 90
      156
 90
      157
 90
        4
 90
       58
 90
       59
 90
      155
 90
      156
 90
        4
 90
       59
 90
       60
 90
      154
 90
      155
 90
        4
 90
       60
 90
       61
 90
      152
 90
      154
 90
        4
 90
       61
 90
       62
 90
      149
 90
      152
 90
        4
 90
       62
 90
       63
 90
      148
 90
      149
 90
        4
 90
       63
 90
      138
 90
      159
 90
      148
 90
        4
 90
       64
 90
      139
 90
      173
 90
      162
 90
        4
 90
       65
 90
      140
 90
      177
 90
      175
 90
        4
 90
       66
 90
       67
 90
      182
 90
      179
 90
        4
 90
       67
 90
       68
 90
      181
 90
      182
 90
        4
 90
       68
 90
       69
 90
      185
 90
      181
 90
        4
 90
       69
 90
       70
 90
      184
 90
      185
 90
        4
 90
       70
 90
       71
 90
      187
 90
      184
 90
        4
 90
       71
 90
       72
 90
      188
 90
      187
 90
        4
 90
       72
 90
       73
 90
      189
 90
      188
 90
        4
 90
       73
 90
       74
 90
      190
 90
      189
 90
        4
 90
       74
 90
       75
 90
      192
 90
      190
 90
        4
 90
       75
 90
       76
 90
      191
 90
      192
 90
        4
 90
       76
 90
       77
 90
      194
 90
      191
 90
        4
 90
       77
 90
       78
 90
      195
 90
      194
 90
        4
 90
       78
 90
       79
 90
      196
 90
      195
 90
        4
 90
       79
 90
       80
 90
      198
 90
      196
 90
        4
 90
       80
 90
       81
 90
      197
 90
      198
 90
        4
 90
       81
 90
       82
 90
      201
 90
      197
 90
        4
 90
       82
 90
       83
 90
      200
 90
      201
 90
        4
 90
       83
 90
       84
 90
      203
 90
      200
 90
        4
 90
       84
 90
       85
 90
      204
 90
      203
 90
        4
 90
       85
 90
       86
 90
      206
 90
      204
 90
        4
 90
       86
 90
       87
 90
      205
 90
      206
 90
        4
 90
       87
 90
       88
 90
      208
 90
      205
 90
        4
 90
       88
 90
       89
 90
      209
 90
      208
 90
        4
 90
       89
 90
       90
 90
      211
 90
      209
 90
        4
 90
       90
 90
       91
 90
      210
 90
      211
 90
        4
 90
       91
 90
       92
 90
      214
 90
      210
 90
        4
 90
       92
 90
       93
 90
      213
 90
      214
 90
        4
 90
       93
 90
       94
 90
      216
 90
      213
 90
        4
 90
       94
 90
       95
 90
      218
 90
      216
 90
        4
 90
       95
 90
       96
 90
      220
 90
      218
 90
        4
 90
       96
 90
       97
 90
      219
 90
      220
 90
        4
 90
       97
 90
       98
 90
      222
 90
      219
 90
        4
 90
       98
 90
       99
 90
      223
 90
      222
 90
        4
 90
       99
 90
      100
 90
      225
 90
      223
 90
        4
 90
      100
 90
      101
 90
      226
 90
      225
 90
        4
 90
      101
 90
      102
 90
      227
 90
      226
 90
        4
 90
      102
 90
      103
 90
      229
 90
      227
 90
        4
 90
      103
 90
      104
 90
      230
 90
      229
 90
        4
 90
      104
 90
      105
 90
      232
 90
      230
 90
        4
 90
      105
 90
      106
 90
      231
 90
      232
 90
        4
 90
      106
 90
      107
 90
      234
 90
      231
 90
        4
 90
      107
 90
      108
 90
      236
 90
      234
 90
        4
 90
      108
 90
      109
 90
      235
 90
      236
 90
        4
 90
      109
 90
      110
 90
      239
 90
      235
 90
        4
 90
      110
 90
      111
 90
      238
 90
      239
 90
        4
 90
      111
 90
      112
 90
      241
 90
      238
 90
        4
 90
      112
 90
      113
 90
      243
 90
      241
 90
        4
 90
      113
 90
      114
 90
      246
 90
      243
 90
        4
 90
      114
 90
      115
 90
      245
 90
      246
 90
        4
 90
      115
 90
      116
 90
      248
 90
      245
 90
        4
 90
      116
 90
      117
 90
      249
 90
      248
 90
        4
 90
      117
 90
      118
 90
      250
 90
      249
 90
        4
 90
      118
 90
      119
 90
      252
 90
      250
 90
        4
 90
      119
 90
      120
 90
      254
 90
      252
 90
        4
 90
      120
 90
      121
 90
      256
 90
      254
 90
        4
 90
      121
 90
      122
 90
      258
 90
      256
 90
        4
 90
      122
 90
      123
 90
      279
 90
      258
 90
        4
 90
      123
 90
      124
 90
      277
 90
      279
 90
        4
 90
      124
 90
      125
 90
      276
 90
      277
 90
        4
 90
      125
 90
      126
 90
      274
 90
      276
 90
        4
 90
      126
 90
      127
 90
      273
 90
      274
 90
        4
 90
      127
 90
      128
 90
      271
 90
      273
 90
        4
 90
      128
 90
      129
 90
      270
 90
      271
 90
        4
 90
      129
 90
      130
 90
      264
 90
      270
 90
        4
 90
      130
 90
      131
 90
      263
 90
      264
 90
        4
 90
      131
 90
      132
 90
      269
 90
      263
 90
        4
 90
      132
 90
      133
 90
      267
 90
      269
 90
        4
 90
      133
 90
      134
 90
      146
 90
      267
 90
        4
 90
      134
 90
      135
 90
      145
 90
      146
 90
        4
 90
      135
 90
      136
 90
      144
 90
      145
 90
        4
 90
      136
 90
      137
 90
      143
 90
      144
 90
        4
 90
      137
 90
        0
 90
      142
 90
      143
 90
        4
 90
        0
 90
        1
 90
      141
 90
      142
 90
        4
 90
        1
 90
        2
 90
      147
 90
      141
 90
        4
 90
        2
 90
        3
 90
      268
 90
      147
 90
        4
 90
        3
 90
        4
 90
      266
 90
      268
 90
        4
 90
        4
 90
        5
 90
      265
 90
      266
 90
        4
 90
        5
 90
        6
 90
      272
 90
      265
 90
        4
 90
        6
 90
        7
 90
      275
 90
      272
 90
        4
 90
        7
 90
        8
 90
      278
 90
      275
 90
        4
 90
        8
 90
        9
 90
      281
 90
      278
 90
        4
 90
        9
 90
       10
 90
      280
 90
      281
 90
        4
 90
       10
 90
       11
 90
      262
 90
      280
 90
        4
 90
       11
 90
       12
 90
      261
 90
      262
 90
        4
 90
       12
 90
       13
 90
      260
 90
      261
 90
        4
 90
       13
 90
       14
 90
      259
 90
      260
 90
        4
 90
       14
 90
       15
 90
      257
 90
      259
 90
        4
 90
       15
 90
       16
 90
      255
 90
      257
 90
        4
 90
       16
 90
       17
 90
      253
 90
      255
 90
        4
 90
       17
 90
       18
 90
      251
 90
      253
 90
        4
 90
       18
 90
       19
 90
      247
 90
      251
 90
        4
 90
       19
 90
       20
 90
      244
 90
      247
 90
        4
 90
       20
 90
       21
 90
      242
 90
      244
 90
        4
 90
       21
 90
       22
 90
      240
 90
      242
 90
        4
 90
       22
 90
       23
 90
      237
 90
      240
 90
        4
 90
       23
 90
       24
 90
      233
 90
      237
 90
        4
 90
       24
 90
       25
 90
      228
 90
      233
 90
        4
 90
       25
 90
       26
 90
      224
 90
      228
 90
        4
 90
       26
 90
       27
 90
      221
 90
      224
 90
        4
 90
       27
 90
       28
 90
      217
 90
      221
 90
        4
 90
       28
 90
       29
 90
      215
 90
      217
 90
        4
 90
       29
 90
       30
 90
      212
 90
      215
 90
        4
 90
       30
 90
       31
 90
      207
 90
      212
 90
        4
 90
       31
 90
       32
 90
      202
 90
      207
 90
        4
 90
       32
 90
       33
 90
      199
 90
      202
 90
        4
 90
       33
 90
       34
 90
      193
 90
      199
 90
        4
 90
       34
 90
       35
 90
      186
 90
      193
 90
        4
 90
       35
 90
       36
 90
      183
 90
      186
 90
        4
 90
       36
 90
       37
 90
      180
 90
      183
 90
        4
 90
       37
 90
       38
 90
      178
 90
      180
 90
        4
 90
       38
 90
       39
 90
      176
 90
      178
 90
        4
 90
       39
 90
       40
 90
      174
 90
      176
 90
        4
 90
       40
 90
       41
 90
      172
 90
      174
 90
        4
 90
       41
 90
       42
 90
      171
 90
      172
 90
        4
 90
       42
 90
       43
 90
      170
 90
      171
 90
        4
 90
       43
 90
       44
 90
      169
 90
      170
 90
        4
 90
       44
 90
       45
 90
      168
 90
      169
 90
        4
 90
       45
 90
       46
 90
      167
 90
      168
 90
        4
 90
       46
 90
       47
 90
      166
 90
      167
 90
        4
 90
       47
 90
       48
 90
      165
 90
      166
 90
        4
 90
       48
 90
       49
 90
      164
 90
      165
 90
        4
 90
       49
 90
       50
 90
      163
 90
      164
 90
        4
 90
       50
 90
       51
 90
      161
 90
      163
 90
        4
 90
       51
 90
       52
 90
      160
 90
      161
 90
        4
 90
       52
 90
       53
 90
      151
 90
      160
 90
        4
 90
       53
 90
       54
 90
      150
 90
      151
 90
        4
 90
       54
 90
       55
 90
      153
 90
      150
 90
        4
 90
       55
 90
       56
 90
      158
 90
      153
 90
        4
 90
      138
 90
       64
 90
      162
 90
      159
 90
        4
 90
      139
 90
       65
 90
      175
 90
      173
 90
        4
 90
      140
 90
       66
 90
      179
 90
      177
 90
        3
 90
        1
 90
        0
 90
        2
 90
        4
 90
       63
 90
       62
 90
       54
 90
       53
 90
        4
 90
       62
 90
       61
 90
       55
 90
       54
 90
        3
 90
       61
 90
       60
 90
       55
 90
        3
 90
       60
 90
       59
 90
       55
 90
        3
 90
       59
 90
       58
 90
       55
 90
        3
 90
       58
 90
       57
 90
       55
 90
        3
 90
       57
 90
       56
 90
       55
 90
        4
 90
      138
 90
       63
 90
       53
 90
       52
 90
        3
 90
      138
 90
       52
 90
       51
 90
        4
 90
       64
 90
      138
 90
       51
 90
       50
 90
        3
 90
       64
 90
       50
 90
       49
 90
        3
 90
       64
 90
       49
 90
       48
 90
        3
 90
       64
 90
       48
 90
       47
 90
        3
 90
       64
 90
       47
 90
       46
 90
        3
 90
       64
 90
       46
 90
       45
 90
        3
 90
       64
 90
       45
 90
       44
 90
        3
 90
       64
 90
       44
 90
       43
 90
        3
 90
       64
 90
       43
 90
       42
 90
        3
 90
       64
 90
       42
 90
       41
 90
        4
 90
      139
 90
       64
 90
       41
 90
       40
 90
        4
 90
       65
 90
      139
 90
       40
 90
       39
 90
        4
 90
      140
 90
       65
 90
       39
 90
       38
 90
        4
 90
       66
 90
      140
 90
       38
 90
       37
 90
        3
 90
       68
 90
       67
 90
       36
 90
        4
 90
       67
 90
       66
 90
       37
 90
       36
 90
        3
 90
       70
 90
       69
 90
       35
 90
        4
 90
       69
 90
       68
 90
       36
 90
       35
 90
        3
 90
       71
 90
       70
 90
       35
 90
        3
 90
       72
 90
       71
 90
       35
 90
        3
 90
       73
 90
       72
 90
       35
 90
        3
 90
       74
 90
       73
 90
       35
 90
        3
 90
       76
 90
       75
 90
       34
 90
        4
 90
       75
 90
       74
 90
       35
 90
       34
 90
        3
 90
       77
 90
       76
 90
       34
 90
        3
 90
       78
 90
       77
 90
       34
 90
        3
 90
       79
 90
       78
 90
       34
 90
        3
 90
       81
 90
       80
 90
       33
 90
        4
 90
       80
 90
       79
 90
       34
 90
       33
 90
        3
 90
       83
 90
       82
 90
       32
 90
        4
 90
       82
 90
       81
 90
       33
 90
       32
 90
        3
 90
       84
 90
       83
 90
       32
 90
        3
 90
       85
 90
       84
 90
       32
 90
        3
 90
       87
 90
       86
 90
       31
 90
        4
 90
       86
 90
       85
 90
       32
 90
       31
 90
        3
 90
       88
 90
       87
 90
       31
 90
        3
 90
       89
 90
       88
 90
       31
 90
        3
 90
       91
 90
       90
 90
       30
 90
        4
 90
       90
 90
       89
 90
       31
 90
       30
 90
        3
 90
       93
 90
       92
 90
       29
 90
        4
 90
       92
 90
       91
 90
       30
 90
       29
 90
        4
 90
       94
 90
       93
 90
       29
 90
       28
 90
        3
 90
       95
 90
       94
 90
       28
 90
        3
 90
       97
 90
       96
 90
       27
 90
        4
 90
       96
 90
       95
 90
       28
 90
       27
 90
        3
 90
       98
 90
       97
 90
       27
 90
        4
 90
       99
 90
       98
 90
       27
 90
       26
 90
        3
 90
      100
 90
       99
 90
       26
 90
        3
 90
      101
 90
      100
 90
       26
 90
        4
 90
      102
 90
      101
 90
       26
 90
       25
 90
        3
 90
      103
 90
      102
 90
       25
 90
        3
 90
      104
 90
      103
 90
       25
 90
        3
 90
      106
 90
      105
 90
       24
 90
        4
 90
      105
 90
      104
 90
       25
 90
       24
 90
        3
 90
      107
 90
      106
 90
       24
 90
        3
 90
      109
 90
      108
 90
       23
 90
        4
 90
      108
 90
      107
 90
       24
 90
       23
 90
        3
 90
      111
 90
      110
 90
       22
 90
        4
 90
      110
 90
      109
 90
       23
 90
       22
 90
        4
 90
      112
 90
      111
 90
       22
 90
       21
 90
        4
 90
      113
 90
      112
 90
       21
 90
       20
 90
        3
 90
      115
 90
      114
 90
       19
 90
        4
 90
      114
 90
      113
 90
       20
 90
       19
 90
        3
 90
      116
 90
      115
 90
       19
 90
        3
 90
      117
 90
      116
 90
       19
 90
        4
 90
      118
 90
      117
 90
       19
 90
       18
 90
        4
 90
      119
 90
      118
 90
       18
 90
       17
 90
        4
 90
      120
 90
      119
 90
       17
 90
       16
 90
        4
 90
      121
 90
      120
 90
       16
 90
       15
 90
        4
 90
      122
 90
      121
 90
       15
 90
       14
 90
        3
 90
      122
 90
       14
 90
       13
 90
        3
 90
      122
 90
       13
 90
       12
 90
        3
 90
      122
 90
       12
 90
       11
 90
        4
 90
      131
 90
      130
 90
        5
 90
        4
 90
        4
 90
      134
 90
      133
 90
        3
 90
        2
 90
        3
 90
      133
 90
      132
 90
        3
 90
        4
 90
      132
 90
      131
 90
        4
 90
        3
 90
        3
 90
      130
 90
      129
 90
        5
 90
        4
 90
      129
 90
      128
 90
        6
 90
        5
 90
        4
 90
      127
 90
      126
 90
        7
 90
        6
 90
        3
 90
      128
 90
      127
 90
        6
 90
        3
 90
      126
 90
      125
 90
        7
 90
        4
 90
      125
 90
      124
 90
        8
 90
        7
 90
        4
 90
      123
 90
      122
 90
       11
 90
       10
 90
        3
 90
      124
 90
        9
 90
        8
 90
        3
 90
      124
 90
      123
 90
        9
 90
        3
 90
      123
 90
       10
 90
        9
 90
        3
 90
      141
 90
      147
 90
      142
 90
        4
 90
      148
 90
      151
 90
      150
 90
      149
 90
        4
 90
      149
 90
      150
 90
      153
 90
      152
 90
        3
 90
      152
 90
      153
 90
      154
 90
        3
 90
      154
 90
      153
 90
      155
 90
        3
 90
      155
 90
      153
 90
      156
 90
        3
 90
      156
 90
      153
 90
      157
 90
        3
 90
      157
 90
      153
 90
      158
 90
        4
 90
      159
 90
      160
 90
      151
 90
      148
 90
        3
 90
      159
 90
      161
 90
      160
 90
        4
 90
      162
 90
      163
 90
      161
 90
      159
 90
        3
 90
      162
 90
      164
 90
      163
 90
        3
 90
      162
 90
      165
 90
      164
 90
        3
 90
      162
 90
      166
 90
      165
 90
        3
 90
      162
 90
      167
 90
      166
 90
        3
 90
      162
 90
      168
 90
      167
 90
        3
 90
      162
 90
      169
 90
      168
 90
        3
 90
      162
 90
      170
 90
      169
 90
        3
 90
      162
 90
      171
 90
      170
 90
        3
 90
      162
 90
      172
 90
      171
 90
        4
 90
      173
 90
      174
 90
      172
 90
      162
 90
        4
 90
      175
 90
      176
 90
      174
 90
      173
 90
        4
 90
      177
 90
      178
 90
      176
 90
      175
 90
        4
 90
      179
 90
      180
 90
      178
 90
      177
 90
        3
 90
      181
 90
      183
 90
      182
 90
        4
 90
      182
 90
      183
 90
      180
 90
      179
 90
        3
 90
      184
 90
      186
 90
      185
 90
        4
 90
      185
 90
      186
 90
      183
 90
      181
 90
        3
 90
      187
 90
      186
 90
      184
 90
        3
 90
      188
 90
      186
 90
      187
 90
        3
 90
      189
 90
      186
 90
      188
 90
        3
 90
      190
 90
      186
 90
      189
 90
        3
 90
      191
 90
      193
 90
      192
 90
        4
 90
      192
 90
      193
 90
      186
 90
      190
 90
        3
 90
      194
 90
      193
 90
      191
 90
        3
 90
      195
 90
      193
 90
      194
 90
        3
 90
      196
 90
      193
 90
      195
 90
        3
 90
      197
 90
      199
 90
      198
 90
        4
 90
      198
 90
      199
 90
      193
 90
      196
 90
        3
 90
      200
 90
      202
 90
      201
 90
        4
 90
      201
 90
      202
 90
      199
 90
      197
 90
        3
 90
      203
 90
      202
 90
      200
 90
        3
 90
      204
 90
      202
 90
      203
 90
        3
 90
      205
 90
      207
 90
      206
 90
        4
 90
      206
 90
      207
 90
      202
 90
      204
 90
        3
 90
      208
 90
      207
 90
      205
 90
        3
 90
      209
 90
      207
 90
      208
 90
        3
 90
      210
 90
      212
 90
      211
 90
        4
 90
      211
 90
      212
 90
      207
 90
      209
 90
        3
 90
      213
 90
      215
 90
      214
 90
        4
 90
      214
 90
      215
 90
      212
 90
      210
 90
        4
 90
      216
 90
      217
 90
      215
 90
      213
 90
        3
 90
      218
 90
      217
 90
      216
 90
        3
 90
      219
 90
      221
 90
      220
 90
        4
 90
      220
 90
      221
 90
      217
 90
      218
 90
        3
 90
      222
 90
      221
 90
      219
 90
        4
 90
      223
 90
      224
 90
      221
 90
      222
 90
        3
 90
      225
 90
      224
 90
      223
 90
        3
 90
      226
 90
      224
 90
      225
 90
        4
 90
      227
 90
      228
 90
      224
 90
      226
 90
        3
 90
      229
 90
      228
 90
      227
 90
        3
 90
      230
 90
      228
 90
      229
 90
        3
 90
      231
 90
      233
 90
      232
 90
        4
 90
      232
 90
      233
 90
      228
 90
      230
 90
        3
 90
      234
 90
      233
 90
      231
 90
        3
 90
      235
 90
      237
 90
      236
 90
        4
 90
      236
 90
      237
 90
      233
 90
      234
 90
        3
 90
      238
 90
      240
 90
      239
 90
        4
 90
      239
 90
      240
 90
      237
 90
      235
 90
        4
 90
      241
 90
      242
 90
      240
 90
      238
 90
        4
 90
      243
 90
      244
 90
      242
 90
      241
 90
        3
 90
      245
 90
      247
 90
      246
 90
        4
 90
      246
 90
      247
 90
      244
 90
      243
 90
        3
 90
      248
 90
      247
 90
      245
 90
        3
 90
      249
 90
      247
 90
      248
 90
        4
 90
      250
 90
      251
 90
      247
 90
      249
 90
        4
 90
      252
 90
      253
 90
      251
 90
      250
 90
        4
 90
      254
 90
      255
 90
      253
 90
      252
 90
        4
 90
      256
 90
      257
 90
      255
 90
      254
 90
        4
 90
      258
 90
      259
 90
      257
 90
      256
 90
        3
 90
      258
 90
      260
 90
      259
 90
        3
 90
      258
 90
      261
 90
      260
 90
        3
 90
      258
 90
      262
 90
      261
 90
        4
 90
      263
 90
      266
 90
      265
 90
      264
 90
        4
 90
      146
 90
      147
 90
      268
 90
      267
 90
        3
 90
      267
 90
      268
 90
      269
 90
        4
 90
      269
 90
      268
 90
      266
 90
      263
 90
        3
 90
      264
 90
      265
 90
      270
 90
        4
 90
      270
 90
      265
 90
      272
 90
      271
 90
        4
 90
      273
 90
      272
 90
      275
 90
      274
 90
        3
 90
      271
 90
      272
 90
      273
 90
        3
 90
      274
 90
      275
 90
      276
 90
        4
 90
      276
 90
      275
 90
      278
 90
      277
 90
        4
 90
      279
 90
      280
 90
      262
 90
      258
 90
        3
 90
      277
 90
      278
 90
      281
 90
        3
 90
      277
 90
      281
 90
      279
 90
        3
 90
      279
 90
      281
 90
      280
 90
        3
 90
      136
 90
      135
 90
        2
 90
        3
 90
      135
 90
      134
 90
        2
 90
        3
 90
        0
 90
      137
 90
        2
 90
        3
 90
      137
 90
      136
 90
        2
 90
        3
 90
      147
 90
      146
 90
      145
 90
        3
 90
      147
 90
      145
 90
      144
 90
        3
 90
      147
 90
      143
 90
      142
 90
        3
 90
      147
 90
      144
 90
      143
 94
      623
 90
       56
 90
       57
 90
       57
 90
      157
 90
      157
 90
      158
 90
       56
 90
      158
 90
       57
 90
       58
 90
       58
 90
      156
 90
      156
 90
      157
 90
       58
 90
       59
 90
       59
 90
      155
 90
      155
 90
      156
 90
       59
 90
       60
 90
       60
 90
      154
 90
      154
 90
      155
 90
       60
 90
       61
 90
       61
 90
      152
 90
      152
 90
      154
 90
       61
 90
       62
 90
       62
 90
      149
 90
      149
 90
      152
 90
       62
 90
       63
 90
       63
 90
      148
 90
      148
 90
      149
 90
       63
 90
      138
 90
      138
 90
      159
 90
      148
 90
      159
 90
       64
 90
      139
 90
      139
 90
      173
 90
      162
 90
      173
 90
       64
 90
      162
 90
       65
 90
      140
 90
      140
 90
      177
 90
      175
 90
      177
 90
       65
 90
      175
 90
       66
 90
       67
 90
       67
 90
      182
 90
      179
 90
      182
 90
       66
 90
      179
 90
       67
 90
       68
 90
       68
 90
      181
 90
      181
 90
      182
 90
       68
 90
       69
 90
       69
 90
      185
 90
      181
 90
      185
 90
       69
 90
       70
 90
       70
 90
      184
 90
      184
 90
      185
 90
       70
 90
       71
 90
       71
 90
      187
 90
      184
 90
      187
 90
       71
 90
       72
 90
       72
 90
      188
 90
      187
 90
      188
 90
       72
 90
       73
 90
       73
 90
      189
 90
      188
 90
      189
 90
       73
 90
       74
 90
       74
 90
      190
 90
      189
 90
      190
 90
       74
 90
       75
 90
       75
 90
      192
 90
      190
 90
      192
 90
       75
 90
       76
 90
       76
 90
      191
 90
      191
 90
      192
 90
       76
 90
       77
 90
       77
 90
      194
 90
      191
 90
      194
 90
       77
 90
       78
 90
       78
 90
      195
 90
      194
 90
      195
 90
       78
 90
       79
 90
       79
 90
      196
 90
      195
 90
      196
 90
       79
 90
       80
 90
       80
 90
      198
 90
      196
 90
      198
 90
       80
 90
       81
 90
       81
 90
      197
 90
      197
 90
      198
 90
       81
 90
       82
 90
       82
 90
      201
 90
      197
 90
      201
 90
       82
 90
       83
 90
       83
 90
      200
 90
      200
 90
      201
 90
       83
 90
       84
 90
       84
 90
      203
 90
      200
 90
      203
 90
       84
 90
       85
 90
       85
 90
      204
 90
      203
 90
      204
 90
       85
 90
       86
 90
       86
 90
      206
 90
      204
 90
      206
 90
       86
 90
       87
 90
       87
 90
      205
 90
      205
 90
      206
 90
       87
 90
       88
 90
       88
 90
      208
 90
      205
 90
      208
 90
       88
 90
       89
 90
       89
 90
      209
 90
      208
 90
      209
 90
       89
 90
       90
 90
       90
 90
      211
 90
      209
 90
      211
 90
       90
 90
       91
 90
       91
 90
      210
 90
      210
 90
      211
 90
       91
 90
       92
 90
       92
 90
      214
 90
      210
 90
      214
 90
       92
 90
       93
 90
       93
 90
      213
 90
      213
 90
      214
 90
       93
 90
       94
 90
       94
 90
      216
 90
      213
 90
      216
 90
       94
 90
       95
 90
       95
 90
      218
 90
      216
 90
      218
 90
       95
 90
       96
 90
       96
 90
      220
 90
      218
 90
      220
 90
       96
 90
       97
 90
       97
 90
      219
 90
      219
 90
      220
 90
       97
 90
       98
 90
       98
 90
      222
 90
      219
 90
      222
 90
       98
 90
       99
 90
       99
 90
      223
 90
      222
 90
      223
 90
       99
 90
      100
 90
      100
 90
      225
 90
      223
 90
      225
 90
      100
 90
      101
 90
      101
 90
      226
 90
      225
 90
      226
 90
      101
 90
      102
 90
      102
 90
      227
 90
      226
 90
      227
 90
      102
 90
      103
 90
      103
 90
      229
 90
      227
 90
      229
 90
      103
 90
      104
 90
      104
 90
      230
 90
      229
 90
      230
 90
      104
 90
      105
 90
      105
 90
      232
 90
      230
 90
      232
 90
      105
 90
      106
 90
      106
 90
      231
 90
      231
 90
      232
 90
      106
 90
      107
 90
      107
 90
      234
 90
      231
 90
      234
 90
      107
 90
      108
 90
      108
 90
      236
 90
      234
 90
      236
 90
      108
 90
      109
 90
      109
 90
      235
 90
      235
 90
      236
 90
      109
 90
      110
 90
      110
 90
      239
 90
      235
 90
      239
 90
      110
 90
      111
 90
      111
 90
      238
 90
      238
 90
      239
 90
      111
 90
      112
 90
      112
 90
      241
 90
      238
 90
      241
 90
      112
 90
      113
 90
      113
 90
      243
 90
      241
 90
      243
 90
      113
 90
      114
 90
      114
 90
      246
 90
      243
 90
      246
 90
      114
 90
      115
 90
      115
 90
      245
 90
      245
 90
      246
 90
      115
 90
      116
 90
      116
 90
      248
 90
      245
 90
      248
 90
      116
 90
      117
 90
      117
 90
      249
 90
      248
 90
      249
 90
      117
 90
      118
 90
      118
 90
      250
 90
      249
 90
      250
 90
      118
 90
      119
 90
      119
 90
      252
 90
      250
 90
      252
 90
      119
 90
      120
 90
      120
 90
      254
 90
      252
 90
      254
 90
      120
 90
      121
 90
      121
 90
      256
 90
      254
 90
      256
 90
      121
 90
      122
 90
      122
 90
      258
 90
      256
 90
      258
 90
      122
 90
      123
 90
      123
 90
      279
 90
      258
 90
      279
 90
      123
 90
      124
 90
      124
 90
      277
 90
      277
 90
      279
 90
      124
 90
      125
 90
      125
 90
      276
 90
      276
 90
      277
 90
      125
 90
      126
 90
      126
 90
      274
 90
      274
 90
      276
 90
      126
 90
      127
 90
      127
 90
      273
 90
      273
 90
      274
 90
      127
 90
      128
 90
      128
 90
      271
 90
      271
 90
      273
 90
      128
 90
      129
 90
      129
 90
      270
 90
      270
 90
      271
 90
      129
 90
      130
 90
      130
 90
      264
 90
      264
 90
      270
 90
      130
 90
      131
 90
      131
 90
      263
 90
      263
 90
      264
 90
      131
 90
      132
 90
      132
 90
      269
 90
      263
 90
      269
 90
      132
 90
      133
 90
      133
 90
      267
 90
      267
 90
      269
 90
      133
 90
      134
 90
      134
 90
      146
 90
      146
 90
      267
 90
      134
 90
      135
 90
      135
 90
      145
 90
      145
 90
      146
 90
      135
 90
      136
 90
      136
 90
      144
 90
      144
 90
      145
 90
      136
 90
      137
 90
      137
 90
      143
 90
      143
 90
      144
 90
        0
 90
      137
 90
        0
 90
      142
 90
      142
 90
      143
 90
        0
 90
        1
 90
        1
 90
      141
 90
      141
 90
      142
 90
        1
 90
        2
 90
        2
 90
      147
 90
      141
 90
      147
 90
        2
 90
        3
 90
        3
 90
      268
 90
      147
 90
      268
 90
        3
 90
        4
 90
        4
 90
      266
 90
      266
 90
      268
 90
        4
 90
        5
 90
        5
 90
      265
 90
      265
 90
      266
 90
        5
 90
        6
 90
        6
 90
      272
 90
      265
 90
      272
 90
        6
 90
        7
 90
        7
 90
      275
 90
      272
 90
      275
 90
        7
 90
        8
 90
        8
 90
      278
 90
      275
 90
      278
 90
        8
 90
        9
 90
        9
 90
      281
 90
      278
 90
      281
 90
        9
 90
       10
 90
       10
 90
      280
 90
      280
 90
      281
 90
       10
 90
       11
 90
       11
 90
      262
 90
      262
 90
      280
 90
       11
 90
       12
 90
       12
 90
      261
 90
      261
 90
      262
 90
       12
 90
       13
 90
       13
 90
      260
 90
      260
 90
      261
 90
       13
 90
       14
 90
       14
 90
      259
 90
      259
 90
      260
 90
       14
 90
       15
 90
       15
 90
      257
 90
      257
 90
      259
 90
       15
 90
       16
 90
       16
 90
      255
 90
      255
 90
      257
 90
       16
 90
       17
 90
       17
 90
      253
 90
      253
 90
      255
 90
       17
 90
       18
 90
       18
 90
      251
 90
      251
 90
      253
 90
       18
 90
       19
 90
       19
 90
      247
 90
      247
 90
      251
 90
       19
 90
       20
 90
       20
 90
      244
 90
      244
 90
      247
 90
       20
 90
       21
 90
       21
 90
      242
 90
      242
 90
      244
 90
       21
 90
       22
 90
       22
 90
      240
 90
      240
 90
      242
 90
       22
 90
       23
 90
       23
 90
      237
 90
      237
 90
      240
 90
       23
 90
       24
 90
       24
 90
      233
 90
      233
 90
      237
 90
       24
 90
       25
 90
       25
 90
      228
 90
      228
 90
      233
 90
       25
 90
       26
 90
       26
 90
      224
 90
      224
 90
      228
 90
       26
 90
       27
 90
       27
 90
      221
 90
      221
 90
      224
 90
       27
 90
       28
 90
       28
 90
      217
 90
      217
 90
      221
 90
       28
 90
       29
 90
       29
 90
      215
 90
      215
 90
      217
 90
       29
 90
       30
 90
       30
 90
      212
 90
      212
 90
      215
 90
       30
 90
       31
 90
       31
 90
      207
 90
      207
 90
      212
 90
       31
 90
       32
 90
       32
 90
      202
 90
      202
 90
      207
 90
       32
 90
       33
 90
       33
 90
      199
 90
      199
 90
      202
 90
       33
 90
       34
 90
       34
 90
      193
 90
      193
 90
      199
 90
       34
 90
       35
 90
       35
 90
      186
 90
      186
 90
      193
 90
       35
 90
       36
 90
       36
 90
      183
 90
      183
 90
      186
 90
       36
 90
       37
 90
       37
 90
      180
 90
      180
 90
      183
 90
       37
 90
       38
 90
       38
 90
      178
 90
      178
 90
      180
 90
       38
 90
       39
 90
       39
 90
      176
 90
      176
 90
      178
 90
       39
 90
       40
 90
       40
 90
      174
 90
      174
 90
      176
 90
       40
 90
       41
 90
       41
 90
      172
 90
      172
 90
      174
 90
       41
 90
       42
 90
       42
 90
      171
 90
      171
 90
      172
 90
       42
 90
       43
 90
       43
 90
      170
 90
      170
 90
      171
 90
       43
 90
       44
 90
       44
 90
      169
 90
      169
 90
      170
 90
       44
 90
       45
 90
       45
 90
      168
 90
      168
 90
      169
 90
       45
 90
       46
 90
       46
 90
      167
 90
      167
 90
      168
 90
       46
 90
       47
 90
       47
 90
      166
 90
      166
 90
      167
 90
       47
 90
       48
 90
       48
 90
      165
 90
      165
 90
      166
 90
       48
 90
       49
 90
       49
 90
      164
 90
      164
 90
      165
 90
       49
 90
       50
 90
       50
 90
      163
 90
      163
 90
      164
 90
       50
 90
       51
 90
       51
 90
      161
 90
      161
 90
      163
 90
       51
 90
       52
 90
       52
 90
      160
 90
      160
 90
      161
 90
       52
 90
       53
 90
       53
 90
      151
 90
      151
 90
      160
 90
       53
 90
       54
 90
       54
 90
      150
 90
      150
 90
      151
 90
       54
 90
       55
 90
       55
 90
      153
 90
      150
 90
      153
 90
       55
 90
       56
 90
      153
 90
      158
 90
       64
 90
      138
 90
      159
 90
      162
 90
       65
 90
      139
 90
      173
 90
      175
 90
       66
 90
      140
 90
      177
 90
      179
 90
        0
 90
        2
 90
       54
 90
       62
 90
       53
 90
       63
 90
       55
 90
       61
 90
       55
 90
       60
 90
       55
 90
       59
 90
       55
 90
       58
 90
       55
 90
       57
 90
       52
 90
      138
 90
       51
 90
      138
 90
       50
 90
       64
 90
       49
 90
       64
 90
       48
 90
       64
 90
       47
 90
       64
 90
       46
 90
       64
 90
       45
 90
       64
 90
       44
 90
       64
 90
       43
 90
       64
 90
       42
 90
       64
 90
       41
 90
       64
 90
       40
 90
      139
 90
       39
 90
       65
 90
       38
 90
      140
 90
       37
 90
       66
 90
       36
 90
       67
 90
       36
 90
       68
 90
       35
 90
       69
 90
       35
 90
       70
 90
       35
 90
       71
 90
       35
 90
       72
 90
       35
 90
       73
 90
       35
 90
       74
 90
       34
 90
       75
 90
       34
 90
       76
 90
       34
 90
       77
 90
       34
 90
       78
 90
       34
 90
       79
 90
       33
 90
       80
 90
       33
 90
       81
 90
       32
 90
       82
 90
       32
 90
       83
 90
       32
 90
       84
 90
       32
 90
       85
 90
       31
 90
       86
 90
       31
 90
       87
 90
       31
 90
       88
 90
       31
 90
       89
 90
       30
 90
       90
 90
       30
 90
       91
 90
       29
 90
       92
 90
       29
 90
       93
 90
       28
 90
       94
 90
       28
 90
       95
 90
       27
 90
       96
 90
       27
 90
       97
 90
       27
 90
       98
 90
       26
 90
       99
 90
       26
 90
      100
 90
       26
 90
      101
 90
       25
 90
      102
 90
       25
 90
      103
 90
       25
 90
      104
 90
       24
 90
      105
 90
       24
 90
      106
 90
       24
 90
      107
 90
       23
 90
      108
 90
       23
 90
      109
 90
       22
 90
      110
 90
       22
 90
      111
 90
       21
 90
      112
 90
       20
 90
      113
 90
       19
 90
      114
 90
       19
 90
      115
 90
       19
 90
      116
 90
       19
 90
      117
 90
       18
 90
      118
 90
       17
 90
      119
 90
       16
 90
      120
 90
       15
 90
      121
 90
       14
 90
      122
 90
       13
 90
      122
 90
       12
 90
      122
 90
       11
 90
      122
 90
        5
 90
      130
 90
        4
 90
      131
 90
        3
 90
      133
 90
        2
 90
      134
 90
        3
 90
      132
 90
        5
 90
      129
 90
        6
 90
      128
 90
        7
 90
      126
 90
        6
 90
      127
 90
        7
 90
      125
 90
        8
 90
      124
 90
       10
 90
      123
 90
        9
 90
      124
 90
        9
 90
      123
 90
      142
 90
      147
 90
      148
 90
      151
 90
      149
 90
      150
 90
      152
 90
      153
 90
      153
 90
      154
 90
      153
 90
      155
 90
      153
 90
      156
 90
      153
 90
      157
 90
      159
 90
      160
 90
      159
 90
      161
 90
      162
 90
      163
 90
      162
 90
      164
 90
      162
 90
      165
 90
      162
 90
      166
 90
      162
 90
      167
 90
      162
 90
      168
 90
      162
 90
      169
 90
      162
 90
      170
 90
      162
 90
      171
 90
      162
 90
      172
 90
      173
 90
      174
 90
      175
 90
      176
 90
      177
 90
      178
 90
      179
 90
      180
 90
      181
 90
      183
 90
      182
 90
      183
 90
      184
 90
      186
 90
      185
 90
      186
 90
      186
 90
      187
 90
      186
 90
      188
 90
      186
 90
      189
 90
      186
 90
      190
 90
      191
 90
      193
 90
      192
 90
      193
 90
      193
 90
      194
 90
      193
 90
      195
 90
      193
 90
      196
 90
      197
 90
      199
 90
      198
 90
      199
 90
      200
 90
      202
 90
      201
 90
      202
 90
      202
 90
      203
 90
      202
 90
      204
 90
      205
 90
      207
 90
      206
 90
      207
 90
      207
 90
      208
 90
      207
 90
      209
 90
      210
 90
      212
 90
      211
 90
      212
 90
      213
 90
      215
 90
      214
 90
      215
 90
      216
 90
      217
 90
      217
 90
      218
 90
      219
 90
      221
 90
      220
 90
      221
 90
      221
 90
      222
 90
      223
 90
      224
 90
      224
 90
      225
 90
      224
 90
      226
 90
      227
 90
      228
 90
      228
 90
      229
 90
      228
 90
      230
 90
      231
 90
      233
 90
      232
 90
      233
 90
      233
 90
      234
 90
      235
 90
      237
 90
      236
 90
      237
 90
      238
 90
      240
 90
      239
 90
      240
 90
      241
 90
      242
 90
      243
 90
      244
 90
      245
 90
      247
 90
      246
 90
      247
 90
      247
 90
      248
 90
      247
 90
      249
 90
      250
 90
      251
 90
      252
 90
      253
 90
      254
 90
      255
 90
      256
 90
      257
 90
      258
 90
      259
 90
      258
 90
      260
 90
      258
 90
      261
 90
      258
 90
      262
 90
      263
 90
      266
 90
      264
 90
      265
 90
      146
 90
      147
 90
      267
 90
      268
 90
      268
 90
      269
 90
      265
 90
      270
 90
      271
 90
      272
 90
      272
 90
      273
 90
      274
 90
      275
 90
      275
 90
      276
 90
      277
 90
      278
 90
      279
 90
      280
 90
      277
 90
      281
 90
      279
 90
      281
 90
        2
 90
      135
 90
        2
 90
      136
 90
        2
 90
      137
 90
      145
 90
      147
 90
      144
 90
      147
 90
      143
 90
      147
 95
      623
140
0.0
140
0.0
140
0.0
140
0.0
140
0.0
140
0.0
140
0.0
140
0.0
140
0.0
140
0.0
140
0.0
140
0.0
140
0.0
140
0.0
140
0.0
140
0.0
140
0.0
140
0.0
140
0.0
140
0.0
140
0.0
140
0.0
140
0.0
140
0.0
140
0.0
140
0.0
140
0.0
140
0.0
140
0.0
140
0.0
140
0.0
140
0.0
140
0.0
140
0.0
140
0.0
140
0.0
140
0.0
140
0.0
140
0.0
140
0.0
140
0.0
140
0.0
140
0.0
140
0.0
140
0.0
140
0.0
140
0.0
140
0.0
140
0.0
140
0.0
140
0.0
140
0.0
140
0.0
140
0.0
140
0.0
140
0.0
140
0.0
140
0.0
140
0.0
140
0.0
140
0.0
140
0.0
140
0.0
140
0.0
140
0.0
140
0.0
140
0.0
140
0.0
140
0.0
140
0.0
140
0.0
140
0.0
140
0.0
140
0.0
140
0.0
140
0.0
140
0.0
140
0.0
140
0.0
140
0.0
140
0.0
140
0.0
140
0.0
140
0.0
140
0.0
140
0.0
140
0.0
140
0.0
140
0.0
140
0.0
140
0.0
140
0.0
140
0.0
140
0.0
140
0.0
140
0.0
140
0.0
140
0.0
140
0.0
140
0.0
140
0.0
140
0.0
140
0.0
140
0.0
140
0.0
140
0.0
140
0.0
140
0.0
140
0.0
140
0.0
140
0.0
140
0.0
140
0.0
140
0.0
140
0.0
140
0.0
140
0.0
140
0.0
140
0.0
140
0.0
140
0.0
140
0.0
140
0.0
140
0.0
140
0.0
140
0.0
140
0.0
140
0.0
140
0.0
140
0.0
140
0.0
140
0.0
140
0.0
140
0.0
140
0.0
140
0.0
140
0.0
140
0.0
140
0.0
140
0.0
140
0.0
140
0.0
140
0.0
140
0.0
140
0.0
140
0.0
140
0.0
140
0.0
140
0.0
140
0.0
140
0.0
140
0.0
140
0.0
140
0.0
140
0.0
140
0.0
140
0.0
140
0.0
140
0.0
140
0.0
140
0.0
140
0.0
140
0.0
140
0.0
140
0.0
140
0.0
140
0.0
140
0.0
140
0.0
140
0.0
140
0.0
140
0.0
140
0.0
140
0.0
140
0.0
140
0.0
140
0.0
140
0.0
140
0.0
140
0.0
140
0.0
140
0.0
140
0.0
140
0.0
140
0.0
140
0.0
140
0.0
140
0.0
140
0.0
140
0.0
140
0.0
140
0.0
140
0.0
140
0.0
140
0.0
140
0.0
140
0.0
140
0.0
140
0.0
140
0.0
140
0.0
140
0.0
140
0.0
140
0.0
140
0.0
140
0.0
140
0.0
140
0.0
140
0.0
140
0.0
140
0.0
140
0.0
140
0.0
140
0.0
140
0.0
140
0.0
140
0.0
140
0.0
140
0.0
140
0.0
140
0.0
140
0.0
140
0.0
140
0.0
140
0.0
140
0.0
140
0.0
140
0.0
140
0.0
140
0.0
140
0.0
140
0.0
140
0.0
140
0.0
140
0.0
140
0.0
140
0.0
140
0.0
140
0.0
140
0.0
140
0.0
140
0.0
140
0.0
140
0.0
140
0.0
140
0.0
140
0.0
140
0.0
140
0.0
140
0.0
140
0.0
140
0.0
140
0.0
140
0.0
140
0.0
140
0.0
140
0.0
140
0.0
140
0.0
140
0.0
140
0.0
140
0.0
140
0.0
140
0.0
140
0.0
140
0.0
140
0.0
140
0.0
140
0.0
140
0.0
140
0.0
140
0.0
140
0.0
140
0.0
140
0.0
140
0.0
140
0.0
140
0.0
140
0.0
140
0.0
140
0.0
140
0.0
140
0.0
140
0.0
140
0.0
140
0.0
140
0.0
140
0.0
140
0.0
140
0.0
140
0.0
140
0.0
140
0.0
140
0.0
140
0.0
140
0.0
140
0.0
140
0.0
140
0.0
140
0.0
140
0.0
140
0.0
140
0.0
140
0.0
140
0.0
140
0.0
140
0.0
140
0.0
140
0.0
140
0.0
140
0.0
140
0.0
140
0.0
140
0.0
140
0.0
140
0.0
140
0.0
140
0.0
140
0.0
140
0.0
140
0.0
140
0.0
140
0.0
140
0.0
140
0.0
140
0.0
140
0.0
140
0.0
140
0.0
140
0.0
140
0.0
140
0.0
140
0.0
140
0.0
140
0.0
140
0.0
140
0.0
140
0.0
140
0.0
140
0.0
140
0.0
140
0.0
140
0.0
140
0.0
140
0.0
140
0.0
140
0.0
140
0.0
140
0.0
140
0.0
140
0.0
140
0.0
140
0.0
140
0.0
140
0.0
140
0.0
140
0.0
140
0.0
140
0.0
140
0.0
140
0.0
140
0.0
140
0.0
140
0.0
140
0.0
140
0.0
140
0.0
140
0.0
140
0.0
140
0.0
140
0.0
140
0.0
140
0.0
140
0.0
140
0.0
140
0.0
140
0.0
140
0.0
140
0.0
140
0.0
140
0.0
140
0.0
140
0.0
140
0.0
140
0.0
140
0.0
140
0.0
140
0.0
140
0.0
140
0.0
140
0.0
140
0.0
140
0.0
140
0.0
140
0.0
140
0.0
140
0.0
140
0.0
140
0.0
140
0.0
140
0.0
140
0.0
140
0.0
140
0.0
140
0.0
140
0.0
140
0.0
140
0.0
140
0.0
140
0.0
140
0.0
140
0.0
140
0.0
140
0.0
140
0.0
140
0.0
140
0.0
140
0.0
140
0.0
140
0.0
140
0.0
140
0.0
140
0.0
140
0.0
140
0.0
140
0.0
140
0.0
140
0.0
140
0.0
140
0.0
140
0.0
140
0.0
140
0.0
140
0.0
140
0.0
140
0.0
140
0.0
140
0.0
140
0.0
140
0.0
140
0.0
140
0.0
140
0.0
140
0.0
140
0.0
140
0.0
140
0.0
140
0.0
140
0.0
140
0.0
140
0.0
140
0.0
140
0.0
140
0.0
140
0.0
140
0.0
140
0.0
140
0.0
140
0.0
140
0.0
140
0.0
140
0.0
140
0.0
140
0.0
140
0.0
140
0.0
140
0.0
140
0.0
140
0.0
140
0.0
140
0.0
140
0.0
140
0.0
140
0.0
140
0.0
140
0.0
140
0.0
140
0.0
140
0.0
140
0.0
140
0.0
140
0.0
140
0.0
140
0.0
140
0.0
140
0.0
140
0.0
140
0.0
140
0.0
140
0.0
140
0.0
140
0.0
140
0.0
140
0.0
140
0.0
140
0.0
140
0.0
140
0.0
140
0.0
140
0.0
140
0.0
140
0.0
140
0.0
140
0.0
140
0.0
140
0.0
140
0.0
140
0.0
140
0.0
140
0.0
140
0.0
140
0.0
140
0.0
140
0.0
140
0.0
140
0.0
140
0.0
140
0.0
140
0.0
140
0.0
140
0.0
140
0.0
140
0.0
140
0.0
140
0.0
140
0.0
140
0.0
140
0.0
140
0.0
140
0.0
140
0.0
140
0.0
140
0.0
140
0.0
140
0.0
140
0.0
140
0.0
140
0.0
140
0.0
140
0.0
140
0.0
140
0.0
140
0.0
140
0.0
140
0.0
140
0.0
140
0.0
140
0.0
140
0.0
140
0.0
140
0.0
140
0.0
140
0.0
140
0.0
140
0.0
140
0.0
140
0.0
140
0.0
140
0.0
140
0.0
140
0.0
140
0.0
140
0.0
140
0.0
140
0.0
140
0.0
140
0.0
140
0.0
140
0.0
140
0.0
140
0.0
140
0.0
140
0.0
140
0.0
140
0.0
140
0.0
140
0.0
140
0.0
140
0.0
140
0.0
140
0.0
140
0.0
140
0.0
140
0.0
140
0.0
140
0.0
140
0.0
140
0.0
140
0.0
140
0.0
140
0.0
140
0.0
140
0.0
140
0.0
140
0.0
140
0.0
140
0.0
140
0.0
140
0.0
140
0.0
140
0.0
140
0.0
140
0.0
140
0.0
140
0.0
140
0.0
140
0.0
140
0.0
140
0.0
140
0.0
140
0.0
140
0.0
140
0.0
140
0.0
140
0.0
140
0.0
140
0.0
140
0.0
140
0.0
140
0.0
140
0.0
140
0.0
140
0.0
 90
        0
  0
POLYLINE
  5
FA
330
1F
100
AcDbEntity
  8
OracDecor_cornice_mouldings
 62
    53
420
 13033815
100
AcDb3dPolyline
 66
     1
 10
0.0
 20
0.0
 30
0.0
 70
     9
  0
VERTEX
  5
FB
330
FA
100
AcDbEntity
  8
OracDecor_cornice_mouldings
 62
    53
420
 13033815
100
AcDbVertex
100
AcDb3dPolylineVertex
 10
-0.0000076293945313
 20
-0.0000057220458984
 30
-59.99997711181641
 70
    32
  0
VERTEX
  5
FC
330
FA
100
AcDbEntity
  8
OracDecor_cornice_mouldings
 62
    53
420
 13033815
100
AcDbVertex
100
AcDb3dPolylineVertex
 10
-0.0000076293936218
 20
-0.0000019073486328
 30
-54.23202514648437
 70
    32
  0
VERTEX
  5
FD
330
FA
100
AcDbEntity
  8
OracDecor_cornice_mouldings
 62
    53
420
 13033815
100
AcDbVertex
100
AcDb3dPolylineVertex
 10
-0.0000076293940765
 20
0.0170459747314453
 30
-54.10262298583984
 70
    32
  0
VERTEX
  5
FE
330
FA
100
AcDbEntity
  8
OracDecor_cornice_mouldings
 62
    53
420
 13033815
100
AcDbVertex
100
AcDb3dPolylineVertex
 10
-0.0000076293945313
 20
0.0669841766357422
 30
-53.98202514648438
 70
    32
  0
VERTEX
  5
FF
330
FA
100
AcDbEntity
  8
OracDecor_cornice_mouldings
 62
    53
420
 13033815
100
AcDbVertex
100
AcDb3dPolylineVertex
 10
-0.0000076293945313
 20
1.355659484863281
 30
-51.7499771118164
 70
    32
  0
VERTEX
  5
100
330
FA
100
AcDbEntity
  8
OracDecor_cornice_mouldings
 62
    53
420
 13033815
100
AcDbVertex
100
AcDb3dPolylineVertex
 10
-0.0000076293945313
 20
1.422647476196289
 30
-51.4999771118164
 70
    32
  0
VERTEX
  5
101
330
FA
100
AcDbEntity
  8
OracDecor_cornice_mouldings
 62
    53
420
 13033815
100
AcDbVertex
100
AcDb3dPolylineVertex
 10
-0.0000076293945313
 20
1.355659484863281
 30
-51.24997711181641
 70
    32
  0
VERTEX
  5
102
330
FA
100
AcDbEntity
  8
OracDecor_cornice_mouldings
 62
    53
420
 13033815
100
AcDbVertex
100
AcDb3dPolylineVertex
 10
-0.0000076293945313
 20
0.0669841766357422
 30
-49.01792526245117
 70
    32
  0
VERTEX
  5
103
330
FA
100
AcDbEntity
  8
OracDecor_cornice_mouldings
 62
    53
420
 13033815
100
AcDbVertex
100
AcDb3dPolylineVertex
 10
-0.0000076293936218
 20
0.0170459747314453
 30
-48.89733123779297
 70
    32
  0
VERTEX
  5
104
330
FA
100
AcDbEntity
  8
OracDecor_cornice_mouldings
 62
    53
420
 13033815
100
AcDbVertex
100
AcDb3dPolylineVertex
 10
-0.0000076293945313
 20
-0.0000019073486328
 30
-48.76792526245117
 70
    32
  0
VERTEX
  5
105
330
FA
100
AcDbEntity
  8
OracDecor_cornice_mouldings
 62
    53
420
 13033815
100
AcDbVertex
100
AcDb3dPolylineVertex
 10
0.0000076293945313
 20
-0.0000019073486328
 30
-45.84107589721679
 70
    32
  0
VERTEX
  5
106
330
FA
100
AcDbEntity
  8
OracDecor_cornice_mouldings
 62
    53
420
 13033815
100
AcDbVertex
100
AcDb3dPolylineVertex
 10
0.0000076293945313
 20
0.1063652038574219
 30
-45.39227676391601
 70
    32
  0
VERTEX
  5
107
330
FA
100
AcDbEntity
  8
OracDecor_cornice_mouldings
 62
    53
420
 13033815
100
AcDbVertex
100
AcDb3dPolylineVertex
 10
0.0000076293945313
 20
0.4028396606445313
 30
-45.0389518737793
 70
    32
  0
VERTEX
  5
108
330
FA
100
AcDbEntity
  8
OracDecor_cornice_mouldings
 62
    53
420
 13033815
100
AcDbVertex
100
AcDb3dPolylineVertex
 10
0.0000076293945313
 20
0.8263492584228515
 30
-44.85626983642577
 70
    32
  0
VERTEX
  5
109
330
FA
100
AcDbEntity
  8
OracDecor_cornice_mouldings
 62
    53
420
 13033815
100
AcDbVertex
100
AcDb3dPolylineVertex
 10
-0.0000076293945313
 20
6.864255905151367
 30
-43.79162216186523
 70
    32
  0
VERTEX
  5
10A
330
FA
100
AcDbEntity
  8
OracDecor_cornice_mouldings
 62
    53
420
 13033815
100
AcDbVertex
100
AcDb3dPolylineVertex
 10
-0.0000076293945313
 20
7.547132492065429
 30
-43.53628540039062
 70
    32
  0
VERTEX
  5
10B
330
FA
100
AcDbEntity
  8
OracDecor_cornice_mouldings
 62
    53
420
 13033815
100
AcDbVertex
100
AcDb3dPolylineVertex
 10
0.0000076293945313
 20
8.093118667602539
 30
-43.05315399169922
 70
    32
  0
VERTEX
  5
10C
330
FA
100
AcDbEntity
  8
OracDecor_cornice_mouldings
 62
    53
420
 13033815
100
AcDbVertex
100
AcDb3dPolylineVertex
 10
0.0000076293945313
 20
8.429666519165039
 30
-42.40643310546874
 70
    32
  0
VERTEX
  5
10D
330
FA
100
AcDbEntity
  8
OracDecor_cornice_mouldings
 62
    53
420
 13033815
100
AcDbVertex
100
AcDb3dPolylineVertex
 10
0.0000076293945313
 20
8.915235519409179
 30
-41.15833282470703
 70
    32
  0
VERTEX
  5
10E
330
FA
100
AcDbEntity
  8
OracDecor_cornice_mouldings
 62
    53
420
 13033815
100
AcDbVertex
100
AcDb3dPolylineVertex
 10
0.0000076293945313
 20
9.996023178100585
 30
-39.47057342529297
 70
    32
  0
VERTEX
  5
10F
330
FA
100
AcDbEntity
  8
OracDecor_cornice_mouldings
 62
    53
420
 13033815
100
AcDbVertex
100
AcDb3dPolylineVertex
 10
0.0000076293940765
 20
11.93903732299804
 30
-37.64958953857422
 70
    32
  0
VERTEX
  5
110
330
FA
100
AcDbEntity
  8
OracDecor_cornice_mouldings
 62
    53
420
 13033815
100
AcDbVertex
100
AcDb3dPolylineVertex
 10
0.0000076293945313
 20
14.33145141601562
 30
-36.47878265380859
 70
    32
  0
VERTEX
  5
111
330
FA
100
AcDbEntity
  8
OracDecor_cornice_mouldings
 62
    53
420
 13033815
100
AcDbVertex
100
AcDb3dPolylineVertex
 10
0.0000076293945313
 20
16.29273223876953
 30
-36.06715393066406
 70
    32
  0
VERTEX
  5
112
330
FA
100
AcDbEntity
  8
OracDecor_cornice_mouldings
 62
    53
420
 13033815
100
AcDbVertex
100
AcDb3dPolylineVertex
 10
0.0000076293945313
 20
19.52468681335449
 30
-35.60886001586914
 70
    32
  0
VERTEX
  5
113
330
FA
100
AcDbEntity
  8
OracDecor_cornice_mouldings
 62
    53
420
 13033815
100
AcDbVertex
100
AcDb3dPolylineVertex
 10
0.0000076293945313
 20
22.68064117431641
 30
-34.58835601806641
 70
    32
  0
VERTEX
  5
114
330
FA
100
AcDbEntity
  8
OracDecor_cornice_mouldings
 62
    53
420
 13033815
100
AcDbVertex
100
AcDb3dPolylineVertex
 10
0.0000076293945313
 20
24.53730773925781
 30
-33.49335479736328
 70
    32
  0
VERTEX
  5
115
330
FA
100
AcDbEntity
  8
OracDecor_cornice_mouldings
 62
    53
420
 13033815
100
AcDbVertex
100
AcDb3dPolylineVertex
 10
0.0000076293945313
 20
26.16444396972656
 30
-31.94558715820313
 70
    32
  0
VERTEX
  5
116
330
FA
100
AcDbEntity
  8
OracDecor_cornice_mouldings
 62
    53
420
 13033815
100
AcDbVertex
100
AcDb3dPolylineVertex
 10
0.0000076293945313
 20
27.80902862548828
 30
-29.65258026123047
 70
    32
  0
VERTEX
  5
117
330
FA
100
AcDbEntity
  8
OracDecor_cornice_mouldings
 62
    53
420
 13033815
100
AcDbVertex
100
AcDb3dPolylineVertex
 10
0.0000076293945313
 20
29.12133598327637
 30
-27.38888359069824
 70
    32
  0
VERTEX
  5
118
330
FA
100
AcDbEntity
  8
OracDecor_cornice_mouldings
 62
    53
420
 13033815
100
AcDbVertex
100
AcDb3dPolylineVertex
 10
0.0000076293945313
 20
30.63060569763184
 30
-24.58449554443359
 70
    32
  0
VERTEX
  5
119
330
FA
100
AcDbEntity
  8
OracDecor_cornice_mouldings
 62
    53
420
 13033815
100
AcDbVertex
100
AcDb3dPolylineVertex
 10
0.0000076293945313
 20
33.09604644775391
 30
-20.37597274780273
 70
    32
  0
VERTEX
  5
11A
330
FA
100
AcDbEntity
  8
OracDecor_cornice_mouldings
 62
    53
420
 13033815
100
AcDbVertex
100
AcDb3dPolylineVertex
 10
0.0000076293945313
 20
36.91487884521484
 30
-15.44667434692383
 70
    32
  0
VERTEX
  5
11B
330
FA
100
AcDbEntity
  8
OracDecor_cornice_mouldings
 62
    53
420
 13033815
100
AcDbVertex
100
AcDb3dPolylineVertex
 10
0.0
 20
40.32722091674805
 30
-12.44374465942383
 70
    32
  0
VERTEX
  5
11C
330
FA
100
AcDbEntity
  8
OracDecor_cornice_mouldings
 62
    53
420
 13033815
100
AcDbVertex
100
AcDb3dPolylineVertex
 10
0.0
 20
44.26982116699218
 30
-9.999286651611328
 70
    32
  0
VERTEX
  5
11D
330
FA
100
AcDbEntity
  8
OracDecor_cornice_mouldings
 62
    53
420
 13033815
100
AcDbVertex
100
AcDb3dPolylineVertex
 10
0.0
 20
48.78261566162109
 30
-8.152309417724609
 70
    32
  0
VERTEX
  5
11E
330
FA
100
AcDbEntity
  8
OracDecor_cornice_mouldings
 62
    53
420
 13033815
100
AcDbVertex
100
AcDb3dPolylineVertex
 10
0.0
 20
50.09993743896484
 30
-6.605093002319335
 70
    32
  0
VERTEX
  5
11F
330
FA
100
AcDbEntity
  8
OracDecor_cornice_mouldings
 62
    53
420
 13033815
100
AcDbVertex
100
AcDb3dPolylineVertex
 10
0.0
 20
51.72996520996093
 30
-5.39324951171875
 70
    32
  0
VERTEX
  5
120
330
FA
100
AcDbEntity
  8
OracDecor_cornice_mouldings
 62
    53
420
 13033815
100
AcDbVertex
100
AcDb3dPolylineVertex
 10
0.0
 20
53.59096527099609
 30
-4.577503204345703
 70
    32
  0
VERTEX
  5
121
330
FA
100
AcDbEntity
  8
OracDecor_cornice_mouldings
 62
    53
420
 13033815
100
AcDbVertex
100
AcDb3dPolylineVertex
 10
0.0
 20
54.32413482666015
 30
-4.165691375732421
 70
    32
  0
VERTEX
  5
122
330
FA
100
AcDbEntity
  8
OracDecor_cornice_mouldings
 62
    53
420
 13033815
100
AcDbVertex
100
AcDb3dPolylineVertex
 10
0.0
 20
54.8232192993164
 30
-3.488910675048828
 70
    32
  0
VERTEX
  5
123
330
FA
100
AcDbEntity
  8
OracDecor_cornice_mouldings
 62
    53
420
 13033815
100
AcDbVertex
100
AcDb3dPolylineVertex
 10
0.0
 20
55.0
 30
-2.666797637939453
 70
    32
  0
VERTEX
  5
124
330
FA
100
AcDbEntity
  8
OracDecor_cornice_mouldings
 62
    53
420
 13033815
100
AcDbVertex
100
AcDb3dPolylineVertex
 10
0.0
 20
55.0
 30
-0.9999771118164062
 70
    32
  0
VERTEX
  5
125
330
FA
100
AcDbEntity
  8
OracDecor_cornice_mouldings
 62
    53
420
 13033815
100
AcDbVertex
100
AcDb3dPolylineVertex
 10
0.0
 20
55.07621765136718
 30
-0.6171417236328125
 70
    32
  0
VERTEX
  5
126
330
FA
100
AcDbEntity
  8
OracDecor_cornice_mouldings
 62
    53
420
 13033815
100
AcDbVertex
100
AcDb3dPolylineVertex
 10
0.0
 20
55.29293823242188
 30
-0.2929115295410156
 70
    32
  0
VERTEX
  5
127
330
FA
100
AcDbEntity
  8
OracDecor_cornice_mouldings
 62
    53
420
 13033815
100
AcDbVertex
100
AcDb3dPolylineVertex
 10
0.0
 20
55.6171646118164
 30
-0.0761947631835938
 70
    32
  0
VERTEX
  5
128
330
FA
100
AcDbEntity
  8
OracDecor_cornice_mouldings
 62
    53
420
 13033815
100
AcDbVertex
100
AcDb3dPolylineVertex
 10
0.0
 20
56.0
 30
0.0000228881835938
 70
    32
  0
VERTEX
  5
129
330
FA
100
AcDbEntity
  8
OracDecor_cornice_mouldings
 62
    53
420
 13033815
100
AcDbVertex
100
AcDb3dPolylineVertex
 10
0.0
 20
58.76795196533203
 30
0.0000228881835938
 70
    32
  0
VERTEX
  5
12A
330
FA
100
AcDbEntity
  8
OracDecor_cornice_mouldings
 62
    53
420
 13033815
100
AcDbVertex
100
AcDb3dPolylineVertex
 10
0.0
 20
58.89735412597656
 30
-0.0170249938964844
 70
    32
  0
VERTEX
  5
12B
330
FA
100
AcDbEntity
  8
OracDecor_cornice_mouldings
 62
    53
420
 13033815
100
AcDbVertex
100
AcDb3dPolylineVertex
 10
0.0
 20
59.01795196533203
 30
-0.0669631958007813
 70
    32
  0
VERTEX
  5
12C
330
FA
100
AcDbEntity
  8
OracDecor_cornice_mouldings
 62
    53
420
 13033815
100
AcDbVertex
100
AcDb3dPolylineVertex
 10
0.0
 20
61.25
 30
-1.355640411376953
 70
    32
  0
VERTEX
  5
12D
330
FA
100
AcDbEntity
  8
OracDecor_cornice_mouldings
 62
    53
420
 13033815
100
AcDbVertex
100
AcDb3dPolylineVertex
 10
0.0
 20
61.5
 30
-1.422626495361328
 70
    32
  0
VERTEX
  5
12E
330
FA
100
AcDbEntity
  8
OracDecor_cornice_mouldings
 62
    53
420
 13033815
100
AcDbVertex
100
AcDb3dPolylineVertex
 10
0.0
 20
61.75
 30
-1.355640411376953
 70
    32
  0
VERTEX
  5
12F
330
FA
100
AcDbEntity
  8
OracDecor_cornice_mouldings
 62
    53
420
 13033815
100
AcDbVertex
100
AcDb3dPolylineVertex
 10
0.0
 20
63.9820556640625
 30
-0.0669631958007813
 70
    32
  0
VERTEX
  5
130
330
FA
100
AcDbEntity
  8
OracDecor_cornice_mouldings
 62
    53
420
 13033815
100
AcDbVertex
100
AcDb3dPolylineVertex
 10
0.0
 20
64.10264587402344
 30
-0.0170249938964844
 70
    32
  0
VERTEX
  5
131
330
FA
100
AcDbEntity
  8
OracDecor_cornice_mouldings
 62
    53
420
 13033815
100
AcDbVertex
100
AcDb3dPolylineVertex
 10
0.0
 20
64.23204803466797
 30
0.0000228881835938
 70
    32
  0
VERTEX
  5
132
330
FA
100
AcDbEntity
  8
OracDecor_cornice_mouldings
 62
    53
420
 13033815
100
AcDbVertex
100
AcDb3dPolylineVertex
 10
0.0
 20
70.0
 30
0.0000190734863281
 70
    32
  0
VERTEX
  5
133
330
FA
100
AcDbEntity
  8
OracDecor_cornice_mouldings
 62
    53
420
 13033815
100
AcDbVertex
100
AcDb3dPolylineVertex
 10
0.0
 20
69.73706817626953
 30
-4.057628631591796
 70
    32
  0
VERTEX
  5
134
330
FA
100
AcDbEntity
  8
OracDecor_cornice_mouldings
 62
    53
420
 13033815
100
AcDbVertex
100
AcDb3dPolylineVertex
 10
0.0
 20
69.66480255126953
 30
-4.285930633544921
 70
    32
  0
VERTEX
  5
135
330
FA
100
AcDbEntity
  8
OracDecor_cornice_mouldings
 62
    53
420
 13033815
100
AcDbVertex
100
AcDb3dPolylineVertex
 10
0.0
 20
69.49476623535156
 30
-4.454387664794921
 70
    32
  0
VERTEX
  5
136
330
FA
100
AcDbEntity
  8
OracDecor_cornice_mouldings
 62
    53
420
 13033815
100
AcDbVertex
100
AcDb3dPolylineVertex
 10
0.0
 20
69.26580810546875
 30
-4.524528503417968
 70
    32
  0
VERTEX
  5
137
330
FA
100
AcDbEntity
  8
OracDecor_cornice_mouldings
 62
    53
420
 13033815
100
AcDbVertex
100
AcDb3dPolylineVertex
 10
0.0
 20
66.97084808349609
 30
-4.651813507080078
 70
    32
  0
VERTEX
  5
138
330
FA
100
AcDbEntity
  8
OracDecor_cornice_mouldings
 62
    53
420
 13033815
100
AcDbVertex
100
AcDb3dPolylineVertex
 10
0.0
 20
66.70702362060547
 30
-4.744827270507812
 70
    32
  0
VERTEX
  5
139
330
FA
100
AcDbEntity
  8
OracDecor_cornice_mouldings
 62
    53
420
 13033815
100
AcDbVertex
100
AcDb3dPolylineVertex
 10
0.0
 20
66.53444671630859
 30
-4.964981079101562
 70
    32
  0
VERTEX
  5
13A
330
FA
100
AcDbEntity
  8
OracDecor_cornice_mouldings
 62
    53
420
 13033815
100
AcDbVertex
100
AcDb3dPolylineVertex
 10
0.0
 20
65.3062744140625
 30
-7.178421020507812
 70
    32
  0
VERTEX
  5
13B
330
FA
100
AcDbEntity
  8
OracDecor_cornice_mouldings
 62
    53
420
 13033815
100
AcDbVertex
100
AcDb3dPolylineVertex
 10
0.0
 20
64.36878967285156
 30
-8.45952033996582
 70
    32
  0
VERTEX
  5
13C
330
FA
100
AcDbEntity
  8
OracDecor_cornice_mouldings
 62
    53
420
 13033815
100
AcDbVertex
100
AcDb3dPolylineVertex
 10
0.0
 20
63.17684555053711
 30
-9.721391677856445
 70
    32
  0
VERTEX
  5
13D
330
FA
100
AcDbEntity
  8
OracDecor_cornice_mouldings
 62
    53
420
 13033815
100
AcDbVertex
100
AcDb3dPolylineVertex
 10
0.0
 20
61.95098495483398
 30
-10.72995567321777
 70
    32
  0
VERTEX
  5
13E
330
FA
100
AcDbEntity
  8
OracDecor_cornice_mouldings
 62
    53
420
 13033815
100
AcDbVertex
100
AcDb3dPolylineVertex
 10
0.0
 20
60.4831428527832
 30
-11.65640830993652
 70
    32
  0
VERTEX
  5
13F
330
FA
100
AcDbEntity
  8
OracDecor_cornice_mouldings
 62
    53
420
 13033815
100
AcDbVertex
100
AcDb3dPolylineVertex
 10
0.0
 20
59.04542541503906
 30
-12.32952499389648
 70
    32
  0
VERTEX
  5
140
330
FA
100
AcDbEntity
  8
OracDecor_cornice_mouldings
 62
    53
420
 13033815
100
AcDbVertex
100
AcDb3dPolylineVertex
 10
0.0
 20
56.63761138916015
 30
-13.10805511474609
 70
    32
  0
VERTEX
  5
141
330
FA
100
AcDbEntity
  8
OracDecor_cornice_mouldings
 62
    53
420
 13033815
100
AcDbVertex
100
AcDb3dPolylineVertex
 10
0.0000076293945313
 20
56.43507385253906
 30
-13.19613647460937
 70
    32
  0
VERTEX
  5
142
330
FA
100
AcDbEntity
  8
OracDecor_cornice_mouldings
 62
    53
420
 13033815
100
AcDbVertex
100
AcDb3dPolylineVertex
 10
0.0000076293945313
 20
56.29027557373047
 30
-13.3627986907959
 70
    32
  0
VERTEX
  5
143
330
FA
100
AcDbEntity
  8
OracDecor_cornice_mouldings
 62
    53
420
 13033815
100
AcDbVertex
100
AcDb3dPolylineVertex
 10
0.0000076293945313
 20
56.23136138916016
 30
-13.57565689086914
 70
    32
  0
VERTEX
  5
144
330
FA
100
AcDbEntity
  8
OracDecor_cornice_mouldings
 62
    53
420
 13033815
100
AcDbVertex
100
AcDb3dPolylineVertex
 10
0.0000076293940765
 20
56.15084838867187
 30
-15.27703857421875
 70
    32
  0
VERTEX
  5
145
330
FA
100
AcDbEntity
  8
OracDecor_cornice_mouldings
 62
    53
420
 13033815
100
AcDbVertex
100
AcDb3dPolylineVertex
 10
0.0000076293945313
 20
56.08949661254882
 30
-15.49438285827636
 70
    32
  0
VERTEX
  5
146
330
FA
100
AcDbEntity
  8
OracDecor_cornice_mouldings
 62
    53
420
 13033815
100
AcDbVertex
100
AcDb3dPolylineVertex
 10
0.0000076293945313
 20
55.93885040283203
 30
-15.66251182556152
 70
    32
  0
VERTEX
  5
147
330
FA
100
AcDbEntity
  8
OracDecor_cornice_mouldings
 62
    53
420
 13033815
100
AcDbVertex
100
AcDb3dPolylineVertex
 10
0.0000076293945313
 20
55.72952270507812
 30
-15.74726486206055
 70
    32
  0
VERTEX
  5
148
330
FA
100
AcDbEntity
  8
OracDecor_cornice_mouldings
 62
    53
420
 13033815
100
AcDbVertex
100
AcDb3dPolylineVertex
 10
0.0000076293945313
 20
54.37041473388672
 30
-15.99176216125488
 70
    32
  0
VERTEX
  5
149
330
FA
100
AcDbEntity
  8
OracDecor_cornice_mouldings
 62
    53
420
 13033815
100
AcDbVertex
100
AcDb3dPolylineVertex
 10
0.0000076293945313
 20
52.60407257080078
 30
-16.41206741333007
 70
    32
  0
VERTEX
  5
14A
330
FA
100
AcDbEntity
  8
OracDecor_cornice_mouldings
 62
    53
420
 13033815
100
AcDbVertex
100
AcDb3dPolylineVertex
 10
0.0000076293945313
 20
50.88573455810546
 30
-16.94617080688476
 70
    32
  0
VERTEX
  5
14B
330
FA
100
AcDbEntity
  8
OracDecor_cornice_mouldings
 62
    53
420
 13033815
100
AcDbVertex
100
AcDb3dPolylineVertex
 10
0.0000076293945313
 20
49.25968170166015
 30
-17.59030532836914
 70
    32
  0
VERTEX
  5
14C
330
FA
100
AcDbEntity
  8
OracDecor_cornice_mouldings
 62
    53
420
 13033815
100
AcDbVertex
100
AcDb3dPolylineVertex
 10
0.0000076293945313
 20
47.74799346923828
 30
-18.34251403808593
 70
    32
  0
VERTEX
  5
14D
330
FA
100
AcDbEntity
  8
OracDecor_cornice_mouldings
 62
    53
420
 13033815
100
AcDbVertex
100
AcDb3dPolylineVertex
 10
0.0000076293940765
 20
46.51819610595703
 30
-19.08350563049316
 70
    32
  0
VERTEX
  5
14E
330
FA
100
AcDbEntity
  8
OracDecor_cornice_mouldings
 62
    53
420
 13033815
100
AcDbVertex
100
AcDb3dPolylineVertex
 10
0.0000076293945313
 20
45.42779541015625
 30
-19.86392974853515
 70
    32
  0
VERTEX
  5
14F
330
FA
100
AcDbEntity
  8
OracDecor_cornice_mouldings
 62
    53
420
 13033815
100
AcDbVertex
100
AcDb3dPolylineVertex
 10
0.0000076293940765
 20
44.39106750488281
 30
-20.73143005371094
 70
    32
  0
VERTEX
  5
150
330
FA
100
AcDbEntity
  8
OracDecor_cornice_mouldings
 62
    53
420
 13033815
100
AcDbVertex
100
AcDb3dPolylineVertex
 10
0.0000076293945313
 20
43.50959777832031
 30
-21.57921600341797
 70
    32
  0
VERTEX
  5
151
330
FA
100
AcDbEntity
  8
OracDecor_cornice_mouldings
 62
    53
420
 13033815
100
AcDbVertex
100
AcDb3dPolylineVertex
 10
0.0000076293945313
 20
42.68828582763672
 30
-22.48005104064942
 70
    32
  0
VERTEX
  5
152
330
FA
100
AcDbEntity
  8
OracDecor_cornice_mouldings
 62
    53
420
 13033815
100
AcDbVertex
100
AcDb3dPolylineVertex
 10
0.0000076293945313
 20
41.8879165649414
 30
-23.47068214416504
 70
    32
  0
VERTEX
  5
153
330
FA
100
AcDbEntity
  8
OracDecor_cornice_mouldings
 62
    53
420
 13033815
100
AcDbVertex
100
AcDb3dPolylineVertex
 10
0.0000076293940765
 20
41.13150024414062
 30
-24.51167106628418
 70
    32
  0
VERTEX
  5
154
330
FA
100
AcDbEntity
  8
OracDecor_cornice_mouldings
 62
    53
420
 13033815
100
AcDbVertex
100
AcDb3dPolylineVertex
 10
0.0000076293945313
 20
40.46438980102538
 30
-25.52449989318848
 70
    32
  0
VERTEX
  5
155
330
FA
100
AcDbEntity
  8
OracDecor_cornice_mouldings
 62
    53
420
 13033815
100
AcDbVertex
100
AcDb3dPolylineVertex
 10
0.0000076293945313
 20
39.81199264526367
 30
-26.60455131530762
 70
    32
  0
VERTEX
  5
156
330
FA
100
AcDbEntity
  8
OracDecor_cornice_mouldings
 62
    53
420
 13033815
100
AcDbVertex
100
AcDb3dPolylineVertex
 10
0.0000076293945313
 20
39.15841293334961
 30
-27.74119758605957
 70
    32
  0
VERTEX
  5
157
330
FA
100
AcDbEntity
  8
OracDecor_cornice_mouldings
 62
    53
420
 13033815
100
AcDbVertex
100
AcDb3dPolylineVertex
 10
0.0
 20
38.51723861694336
 30
-28.91271018981934
 70
    32
  0
VERTEX
  5
158
330
FA
100
AcDbEntity
  8
OracDecor_cornice_mouldings
 62
    53
420
 13033815
100
AcDbVertex
100
AcDb3dPolylineVertex
 10
-0.0000076293945313
 20
37.92808914184571
 30
-30.02677345275879
 70
    32
  0
VERTEX
  5
159
330
FA
100
AcDbEntity
  8
OracDecor_cornice_mouldings
 62
    53
420
 13033815
100
AcDbVertex
100
AcDb3dPolylineVertex
 10
-0.0000076293940765
 20
37.33174896240234
 30
-31.13288879394531
 70
    32
  0
VERTEX
  5
15A
330
FA
100
AcDbEntity
  8
OracDecor_cornice_mouldings
 62
    53
420
 13033815
100
AcDbVertex
100
AcDb3dPolylineVertex
 10
-0.0000076293954407
 20
36.72625732421875
 30
-32.23033142089844
 70
    32
  0
VERTEX
  5
15B
330
FA
100
AcDbEntity
  8
OracDecor_cornice_mouldings
 62
    53
420
 13033815
100
AcDbVertex
100
AcDb3dPolylineVertex
 10
-0.0000076293945313
 20
36.11357116699219
 30
-33.3197250366211
 70
    32
  0
VERTEX
  5
15C
330
FA
100
AcDbEntity
  8
OracDecor_cornice_mouldings
 62
    53
420
 13033815
100
AcDbVertex
100
AcDb3dPolylineVertex
 10
-0.0000076293954407
 20
35.43748474121094
 30
-34.4482536315918
 70
    32
  0
VERTEX
  5
15D
330
FA
100
AcDbEntity
  8
OracDecor_cornice_mouldings
 62
    53
420
 13033815
100
AcDbVertex
100
AcDb3dPolylineVertex
 10
-0.0000076293945313
 20
34.73843765258789
 30
-35.52175140380859
 70
    32
  0
VERTEX
  5
15E
330
FA
100
AcDbEntity
  8
OracDecor_cornice_mouldings
 62
    53
420
 13033815
100
AcDbVertex
100
AcDb3dPolylineVertex
 10
-0.0000076293945313
 20
34.03208160400391
 30
-36.52246856689453
 70
    32
  0
VERTEX
  5
15F
330
FA
100
AcDbEntity
  8
OracDecor_cornice_mouldings
 62
    53
420
 13033815
100
AcDbVertex
100
AcDb3dPolylineVertex
 10
-0.0000076293936218
 20
33.31136322021484
 30
-37.44904327392578
 70
    32
  0
VERTEX
  5
160
330
FA
100
AcDbEntity
  8
OracDecor_cornice_mouldings
 62
    53
420
 13033815
100
AcDbVertex
100
AcDb3dPolylineVertex
 10
-0.0000076293945313
 20
32.39077758789063
 30
-38.49757385253906
 70
    32
  0
VERTEX
  5
161
330
FA
100
AcDbEntity
  8
OracDecor_cornice_mouldings
 62
    53
420
 13033815
100
AcDbVertex
100
AcDb3dPolylineVertex
 10
-0.0000076293945313
 20
31.37970161437988
 30
-39.5041732788086
 70
    32
  0
VERTEX
  5
162
330
FA
100
AcDbEntity
  8
OracDecor_cornice_mouldings
 62
    53
420
 13033815
100
AcDbVertex
100
AcDb3dPolylineVertex
 10
-0.0000076293945313
 20
30.34053611755371
 30
-40.39838790893554
 70
    32
  0
VERTEX
  5
163
330
FA
100
AcDbEntity
  8
OracDecor_cornice_mouldings
 62
    53
420
 13033815
100
AcDbVertex
100
AcDb3dPolylineVertex
 10
-0.0000076293945313
 20
29.24390411376953
 30
-41.20297241210937
 70
    32
  0
VERTEX
  5
164
330
FA
100
AcDbEntity
  8
OracDecor_cornice_mouldings
 62
    53
420
 13033815
100
AcDbVertex
100
AcDb3dPolylineVertex
 10
-0.0000076293954407
 20
28.06341743469238
 30
-41.94242858886719
 70
    32
  0
VERTEX
  5
165
330
FA
100
AcDbEntity
  8
OracDecor_cornice_mouldings
 62
    53
420
 13033815
100
AcDbVertex
100
AcDb3dPolylineVertex
 10
-0.0000076293945313
 20
26.80049896240234
 30
-42.60865020751952
 70
    32
  0
VERTEX
  5
166
330
FA
100
AcDbEntity
  8
OracDecor_cornice_mouldings
 62
    53
420
 13033815
100
AcDbVertex
100
AcDb3dPolylineVertex
 10
-0.0000076293945313
 20
25.44144821166992
 30
-43.20204162597656
 70
    32
  0
VERTEX
  5
167
330
FA
100
AcDbEntity
  8
OracDecor_cornice_mouldings
 62
    53
420
 13033815
100
AcDbVertex
100
AcDb3dPolylineVertex
 10
-0.0000076293945313
 20
24.0078239440918
 30
-43.71726989746093
 70
    32
  0
VERTEX
  5
168
330
FA
100
AcDbEntity
  8
OracDecor_cornice_mouldings
 62
    53
420
 13033815
100
AcDbVertex
100
AcDb3dPolylineVertex
 10
-0.0000076293945313
 20
22.51993560791015
 30
-44.14533996582031
 70
    32
  0
VERTEX
  5
169
330
FA
100
AcDbEntity
  8
OracDecor_cornice_mouldings
 62
    53
420
 13033815
100
AcDbVertex
100
AcDb3dPolylineVertex
 10
-0.0000076293945313
 20
20.75900268554688
 30
-44.53597640991211
 70
    32
  0
VERTEX
  5
16A
330
FA
100
AcDbEntity
  8
OracDecor_cornice_mouldings
 62
    53
420
 13033815
100
AcDbVertex
100
AcDb3dPolylineVertex
 10
-0.0000076293945313
 20
18.90255355834961
 30
-44.83818817138671
 70
    32
  0
VERTEX
  5
16B
330
FA
100
AcDbEntity
  8
OracDecor_cornice_mouldings
 62
    53
420
 13033815
100
AcDbVertex
100
AcDb3dPolylineVertex
 10
-0.0000076293940765
 20
17.49326515197754
 30
-44.99590682983398
 70
    32
  0
VERTEX
  5
16C
330
FA
100
AcDbEntity
  8
OracDecor_cornice_mouldings
 62
    53
420
 13033815
100
AcDbVertex
100
AcDb3dPolylineVertex
 10
-0.0000076293945313
 20
17.26356887817383
 30
-45.07719421386719
 70
    32
  0
VERTEX
  5
16D
330
FA
100
AcDbEntity
  8
OracDecor_cornice_mouldings
 62
    53
420
 13033815
100
AcDbVertex
100
AcDb3dPolylineVertex
 10
-0.0000076293940765
 20
17.09956169128418
 30
-45.25738906860351
 70
    32
  0
VERTEX
  5
16E
330
FA
100
AcDbEntity
  8
OracDecor_cornice_mouldings
 62
    53
420
 13033815
100
AcDbVertex
100
AcDb3dPolylineVertex
 10
-0.0000076293945313
 20
17.04019165039062
 30
-45.49370193481445
 70
    32
  0
VERTEX
  5
16F
330
FA
100
AcDbEntity
  8
OracDecor_cornice_mouldings
 62
    53
420
 13033815
100
AcDbVertex
100
AcDb3dPolylineVertex
 10
-0.0000076293945313
 20
17.04019165039062
 30
-47.67666625976562
 70
    32
  0
VERTEX
  5
170
330
FA
100
AcDbEntity
  8
OracDecor_cornice_mouldings
 62
    53
420
 13033815
100
AcDbVertex
100
AcDb3dPolylineVertex
 10
-0.0000076293945313
 20
16.98187637329101
 30
-47.91098022460937
 70
    32
  0
VERTEX
  5
171
330
FA
100
AcDbEntity
  8
OracDecor_cornice_mouldings
 62
    53
420
 13033815
100
AcDbVertex
100
AcDb3dPolylineVertex
 10
-0.0000076293945313
 20
16.8206558227539
 30
-48.09058380126953
 70
    32
  0
VERTEX
  5
172
330
FA
100
AcDbEntity
  8
OracDecor_cornice_mouldings
 62
    53
420
 13033815
100
AcDbVertex
100
AcDb3dPolylineVertex
 10
-0.0000076293945313
 20
16.5939712524414
 30
-48.17376708984375
 70
    32
  0
VERTEX
  5
173
330
FA
100
AcDbEntity
  8
OracDecor_cornice_mouldings
 62
    53
420
 13033815
100
AcDbVertex
100
AcDb3dPolylineVertex
 10
-0.0000076293945313
 20
15.95142936706543
 30
-48.28062438964844
 70
    32
  0
VERTEX
  5
174
330
FA
100
AcDbEntity
  8
OracDecor_cornice_mouldings
 62
    53
420
 13033815
100
AcDbVertex
100
AcDb3dPolylineVertex
 10
-0.0000076293945313
 20
15.06601142883301
 30
-48.51736068725585
 70
    32
  0
VERTEX
  5
175
330
FA
100
AcDbEntity
  8
OracDecor_cornice_mouldings
 62
    53
420
 13033815
100
AcDbVertex
100
AcDb3dPolylineVertex
 10
-0.0000076293954407
 20
14.35385322570801
 30
-48.84118270874023
 70
    32
  0
VERTEX
  5
176
330
FA
100
AcDbEntity
  8
OracDecor_cornice_mouldings
 62
    53
420
 13033815
100
AcDbVertex
100
AcDb3dPolylineVertex
 10
-0.0000076293945313
 20
13.5142068862915
 30
-49.46001434326172
 70
    32
  0
VERTEX
  5
177
330
FA
100
AcDbEntity
  8
OracDecor_cornice_mouldings
 62
    53
420
 13033815
100
AcDbVertex
100
AcDb3dPolylineVertex
 10
-0.0000076293945313
 20
12.66658210754394
 30
-50.460693359375
 70
    32
  0
VERTEX
  5
178
330
FA
100
AcDbEntity
  8
OracDecor_cornice_mouldings
 62
    53
420
 13033815
100
AcDbVertex
100
AcDb3dPolylineVertex
 10
-0.0000076293954407
 20
12.00892734527588
 30
-51.61075210571289
 70
    32
  0
VERTEX
  5
179
330
FA
100
AcDbEntity
  8
OracDecor_cornice_mouldings
 62
    53
420
 13033815
100
AcDbVertex
100
AcDb3dPolylineVertex
 10
-0.0000076293945313
 20
11.40735530853271
 30
-52.78828048706055
 70
    32
  0
VERTEX
  5
17A
330
FA
100
AcDbEntity
  8
OracDecor_cornice_mouldings
 62
    53
420
 13033815
100
AcDbVertex
100
AcDb3dPolylineVertex
 10
-0.0000076293945313
 20
10.75686168670654
 30
-53.81587219238281
 70
    32
  0
VERTEX
  5
17B
330
FA
100
AcDbEntity
  8
OracDecor_cornice_mouldings
 62
    53
420
 13033815
100
AcDbVertex
100
AcDb3dPolylineVertex
 10
-0.0000076293940765
 20
9.964313507080078
 30
-54.71570587158203
 70
    32
  0
VERTEX
  5
17C
330
FA
100
AcDbEntity
  8
OracDecor_cornice_mouldings
 62
    53
420
 13033815
100
AcDbVertex
100
AcDb3dPolylineVertex
 10
-0.0000076293945313
 20
9.029829025268554
 30
-55.46923828125
 70
    32
  0
VERTEX
  5
17D
330
FA
100
AcDbEntity
  8
OracDecor_cornice_mouldings
 62
    53
420
 13033815
100
AcDbVertex
100
AcDb3dPolylineVertex
 10
-0.0000076293945313
 20
7.998920917510986
 30
-56.05583190917968
 70
    32
  0
VERTEX
  5
17E
330
FA
100
AcDbEntity
  8
OracDecor_cornice_mouldings
 62
    53
420
 13033815
100
AcDbVertex
100
AcDb3dPolylineVertex
 10
-0.0000076293940765
 20
6.867606163024902
 30
-56.49467086791992
 70
    32
  0
VERTEX
  5
17F
330
FA
100
AcDbEntity
  8
OracDecor_cornice_mouldings
 62
    53
420
 13033815
100
AcDbVertex
100
AcDb3dPolylineVertex
 10
-0.0000076293945313
 20
5.676700592041015
 30
-56.77663421630859
 70
    32
  0
VERTEX
  5
180
330
FA
100
AcDbEntity
  8
OracDecor_cornice_mouldings
 62
    53
420
 13033815
100
AcDbVertex
100
AcDb3dPolylineVertex
 10
-0.0000076293945313
 20
4.946180343627929
 30
-56.89036560058593
 70
    32
  0
VERTEX
  5
181
330
FA
100
AcDbEntity
  8
OracDecor_cornice_mouldings
 62
    53
420
 13033815
100
AcDbVertex
100
AcDb3dPolylineVertex
 10
-0.0000076293945313
 20
4.719514846801757
 30
-56.97355651855469
 70
    32
  0
VERTEX
  5
182
330
FA
100
AcDbEntity
  8
OracDecor_cornice_mouldings
 62
    53
420
 13033815
100
AcDbVertex
100
AcDb3dPolylineVertex
 10
-0.0000076293945313
 20
4.558305740356445
 30
-57.15315246582031
 70
    32
  0
VERTEX
  5
183
330
FA
100
AcDbEntity
  8
OracDecor_cornice_mouldings
 62
    53
420
 13033815
100
AcDbVertex
100
AcDb3dPolylineVertex
 10
-0.0000076293945313
 20
4.499996185302734
 30
-57.38745880126953
 70
    32
  0
VERTEX
  5
184
330
FA
100
AcDbEntity
  8
OracDecor_cornice_mouldings
 62
    53
420
 13033815
100
AcDbVertex
100
AcDb3dPolylineVertex
 10
-0.0000076293945313
 20
4.499994277954101
 30
-59.49997711181641
 70
    32
  0
VERTEX
  5
185
330
FA
100
AcDbEntity
  8
OracDecor_cornice_mouldings
 62
    53
420
 13033815
100
AcDbVertex
100
AcDb3dPolylineVertex
 10
-0.0000076293945313
 20
4.433008193969726
 30
-59.7499771118164
 70
    32
  0
VERTEX
  5
186
330
FA
100
AcDbEntity
  8
OracDecor_cornice_mouldings
 62
    53
420
 13033815
100
AcDbVertex
100
AcDb3dPolylineVertex
 10
-0.0000076293945313
 20
4.249994277954101
 30
-59.93299102783203
 70
    32
  0
VERTEX
  5
187
330
FA
100
AcDbEntity
  8
OracDecor_cornice_mouldings
 62
    53
420
 13033815
100
AcDbVertex
100
AcDb3dPolylineVertex
 10
-0.0000076293945313
 20
3.999994277954101
 30
-59.99997711181641
 70
    32
  0
SEQEND
  5
188
330
FA
100
AcDbEntity
  8
OracDecor_cornice_mouldings
 62
    53
420
 13033815
  0
ENDSEC
  0
SECTION
  2
OBJECTS
  0
DICTIONARY
  5
C
330
0
100
AcDbDictionary
281
     1
  3
ACAD_COLOR
350
DC
  3
ACAD_DETAILVIEWSTYLE
350
F5
  3
ACAD_GROUP
350
D
  3
ACAD_LAYOUT
350
1A
  3
ACAD_MATERIAL
350
AA
  3
ACAD_MLEADERSTYLE
350
F1
  3
ACAD_MLINESTYLE
350
17
  3
ACAD_PLOTSETTINGS
350
19
  3
ACAD_PLOTSTYLENAME
350
E
  3
ACAD_SCALELIST
350
DF
  3
ACAD_SECTIONVIEWSTYLE
350
F3
  3
ACAD_TABLESTYLE
350
DD
  3
ACAD_VISUALSTYLE
350
C3
  3
ACDB_RECOMPOSE_DATA
350
195
  3
AcDbVariableDictionary
350
189
  0
DICTIONARY
  5
DC
102
{ACAD_REACTORS
330
C
102
}
330
C
100
AcDbDictionary
281
     1
  0
DICTIONARY
  5
F5
102
{ACAD_REACTORS
330
C
102
}
330
C
100
AcDbDictionary
281
     1
  3
Imperial24
350
F6
  0
DICTIONARY
  5
D
102
{ACAD_REACTORS
330
C
102
}
330
C
100
AcDbDictionary
281
     1
  0
DICTIONARY
  5
1A
102
{ACAD_REACTORS
330
C
102
}
330
C
100
AcDbDictionary
281
     1
  3
Layout1
350
1E
  3
Layout2
350
26
  3
Model
350
22
  0
DICTIONARY
  5
AA
102
{ACAD_REACTORS
330
C
102
}
330
C
100
AcDbDictionary
281
     1
  3
ByBlock
350
B3
  3
ByLayer
350
AB
  3
Global
350
BB
  0
DICTIONARY
  5
F1
102
{ACAD_REACTORS
330
C
102
}
330
C
100
AcDbDictionary
281
     1
  3
Standard
350
F2
  0
DICTIONARY
  5
17
102
{ACAD_REACTORS
330
C
102
}
330
C
100
AcDbDictionary
281
     1
  3
Standard
350
18
  0
DICTIONARY
  5
19
102
{ACAD_REACTORS
330
C
102
}
330
C
100
AcDbDictionary
281
     1
  0
ACDBDICTIONARYWDFLT
  5
E
102
{ACAD_REACTORS
330
C
102
}
330
C
100
AcDbDictionary
281
     1
  3
ByLayer
350
2D
  3
Normal
350
F
100
AcDbDictionaryWithDefault
340
F
  0
DICTIONARY
  5
DF
102
{ACAD_REACTORS
330
C
102
}
330
C
100
AcDbDictionary
281
     1
  3
A0
350
E0
  3
A1
350
E1
  3
A2
350
E2
  3
A3
350
E3
  3
A4
350
E4
  3
A5
350
E5
  3
A6
350
E6
  3
A7
350
E7
  3
A8
350
E8
  3
A9
350
E9
  3
B0
350
EA
  3
B1
350
EB
  3
B2
350
EC
  3
B3
350
ED
  3
B4
350
EE
  3
B5
350
EF
  3
B6
350
F0
  0
DICTIONARY
  5
F3
102
{ACAD_REACTORS
330
C
102
}
330
C
100
AcDbDictionary
281
     1
  3
Imperial24
350
F4
  0
DICTIONARY
  5
DD
102
{ACAD_REACTORS
330
C
102
}
330
C
100
AcDbDictionary
281
     1
  3
Standard
350
DE
  0
DICTIONARY
  5
C3
102
{ACAD_REACTORS
330
C
102
}
330
C
100
AcDbDictionary
281
     1
  3
2dWireframe
350
C9
  3
Basic
350
C8
  3
Brighten
350
CF
  3
ColorChange
350
D3
  3
Conceptual
350
CC
  3
Dim
350
CE
  3
EdgeColorOff
350
DB
  3
Facepattern
350
D2
  3
Flat
350
C4
  3
FlatWithEdges
350
C5
  3
Gouraud
350
C6
  3
GouraudWithEdges
350
C7
  3
Hidden
350
CB
  3
JitterOff
350
D9
  3
Linepattern
350
D1
  3
OverhangOff
350
DA
  3
Realistic
350
CD
  3
Shaded
350
D8
  3
Shaded with edges
350
D7
  3
Shades of Gray
350
D4
  3
Sketchy
350
D5
  3
Thicken
350
D0
  3
Wireframe
350
CA
  3
X-Ray
350
D6
  0
XRECORD
  5
195
102
{ACAD_REACTORS
330
C
102
}
330
C
100
AcDbXrecord
280
     1
 90
        1
330
DE
  0
DICTIONARY
  5
189
102
{ACAD_REACTORS
330
C
102
}
330
C
100
AcDbDictionary
281
     1
  3
CANNOSCALE
350
18F
  3
CMLEADERSTYLE
350
18B
  3
CTABLESTYLE
350
18A
  3
CVIEWDETAILSTYLE
350
18C
  3
CVIEWSECTIONSTYLE
350
18D
  3
LAYEREVAL
350
191
  3
LAYERNOTIFY
350
192
  3
LIGHTINGUNITS
350
190
  3
MSLTSCALE
350
18E
  0
ACDBDETAILVIEWSTYLE
  5
F6
102
{ACAD_XDICTIONARY
360
1CA
102
}
102
{ACAD_REACTORS
330
F5
102
}
330
F5
100
AcDbModelDocViewStyle
 70
     0
  3
Imperial24
290
     0
100
AcDbDetailViewStyle
 70
     0
 71
     0
 90
        3
 71
     1
340
11
 62
   256
 40
0.24
340
0
 62
   256
 40
0.24
300

 40
0.36
280
     3
 71
     2
340
16
 90
       25
 62
   256
 71
     3
340
11
 62
   256
 40
0.24
 90
        1
 40
0.75
 90
        1
300
%<\AcVar ViewType \f "%tc1">% %<\AcVar ViewDetailId>%\PSCALE %<\AcVar ViewScale \f "%sn">%
 71
     4
340
16
 90
       25
 62
   256
340
16
 90
       25
 62
   256
280
     0
  0
LAYOUT
  5
1E
102
{ACAD_REACTORS
330
1A
102
}
330
1A
100
AcDbPlotSettings
  1

  2
\\KTXNTBDC\CASF2PN1
  4

  6

 40
0.0
 41
0.0
 42
0.0
 43
0.0
 44
0.0
 45
0.0
 46
0.0
 47
0.0
 48
0.0
 49
0.0
140
0.0
141
0.0
142
1.0
143
1.0
 70
   688
 72
     0
 73
     0
 74
     5
  7

 75
    16
147
1.0
 76
     0
 77
     2
 78
   300
148
0.0
149
0.0
100
AcDbLayout
  1
Layout1
 70
     1
 71
     1
 10
0.0
 20
0.0
 11
12.0
 21
9.0
 12
0.0
 22
0.0
 32
0.0
 14
1.000000000000000E+20
 24
1.000000000000000E+20
 34
1.000000000000000E+20
 15
-1.000000000000000E+20
 25
-1.000000000000000E+20
 35
-1.000000000000000E+20
146
0.0
 13
0.0
 23
0.0
 33
0.0
 16
1.0
 26
0.0
 36
0.0
 17
0.0
 27
1.0
 37
0.0
 76
     0
330
1B
  0
LAYOUT
  5
26
102
{ACAD_REACTORS
330
1A
102
}
330
1A
100
AcDbPlotSettings
  1

  2
\\KTXNTBDC\CASF2PN1
  4

  6

 40
0.0
 41
0.0
 42
0.0
 43
0.0
 44
0.0
 45
0.0
 46
0.0
 47
0.0
 48
0.0
 49
0.0
140
0.0
141
0.0
142
1.0
143
1.0
 70
   688
 72
     0
 73
     0
 74
     5
  7

 75
    16
147
1.0
 76
     0
 77
     2
 78
   300
148
0.0
149
0.0
100
AcDbLayout
  1
Layout2
 70
     1
 71
     2
 10
0.0
 20
0.0
 11
12.0
 21
9.0
 12
0.0
 22
0.0
 32
0.0
 14
0.0
 24
0.0
 34
0.0
 15
0.0
 25
0.0
 35
0.0
146
0.0
 13
0.0
 23
0.0
 33
0.0
 16
1.0
 26
0.0
 36
0.0
 17
0.0
 27
1.0
 37
0.0
 76
     0
330
23
  0
LAYOUT
  5
22
102
{ACAD_REACTORS
330
1A
102
}
330
1A
100
AcDbPlotSettings
  1

  2
\\KTXNTBDC\CASF2PN1
  4

  6

 40
0.0
 41
0.0
 42
0.0
 43
0.0
 44
0.0
 45
0.0
 46
0.0
 47
0.0
 48
0.0
 49
0.0
140
0.0
141
0.0
142
1.0
143
1.0
 70
  1712
 72
     0
 73
     0
 74
     0
  7

 75
     0
147
1.0
 76
     0
 77
     2
 78
   300
148
0.0
149
0.0
100
AcDbLayout
  1
Model
 70
     1
 71
     0
 10
0.0
 20
0.0
 11
12.0
 21
9.0
 12
0.0
 22
0.0
 32
0.0
 14
0.0
 24
0.0
 34
0.0
 15
0.0
 25
0.0
 35
0.0
146
0.0
 13
0.0
 23
0.0
 33
0.0
 16
1.0
 26
0.0
 36
0.0
 17
0.0
 27
1.0
 37
0.0
 76
     0
330
1F
  0
MATERIAL
  5
B3
102
{ACAD_XDICTIONARY
360
B4
102
}
102
{ACAD_REACTORS
330
AA
102
}
330
AA
100
AcDbMaterial
  1
ByBlock
 72
     0
 43
0.0208333333333333
 43
0.0
 43
0.0
 43
0.0
 43
0.0
 43
0.0208333333333333
 43
0.0
 43
0.0
 43
0.0
 43
0.0
 43
1.0
 43
0.0
 43
0.0
 43
0.0
 43
0.0
 43
1.0
 77
     0
 47
0.0208333333333333
 47
0.0
 47
0.0
 47
0.0
 47
0.0
 47
0.0208333333333333
 47
0.0
 47
0.0
 47
0.0
 47
0.0
 47
1.0
 47
0.0
 47
0.0
 47
0.0
 47
0.0
 47
1.0
171
     0
 49
0.0208333333333333
 49
0.0
 49
0.0
 49
0.0
 49
0.0
 49
0.0208333333333333
 49
0.0
 49
0.0
 49
0.0
 49
0.0
 49
1.0
 49
0.0
 49
0.0
 49
0.0
 49
0.0
 49
1.0
175
     0
142
0.0208333333333333
142
0.0
142
0.0
142
0.0
142
0.0
142
0.0208333333333333
142
0.0
142
0.0
142
0.0
142
0.0
142
1.0
142
0.0
142
0.0
142
0.0
142
0.0
142
1.0
179
     0
144
0.0208333333333333
144
0.0
144
0.0
144
0.0
144
0.0
144
0.0208333333333333
144
0.0
144
0.0
144
0.0
144
0.0
144
1.0
144
0.0
144
0.0
144
0.0
144
0.0
144
1.0
147
0.0208333333333333
147
0.0
147
0.0
147
0.0
147
0.0
147
0.0208333333333333
147
0.0
147
0.0
147
0.0
147
0.0
147
1.0
147
0.0
147
0.0
147
0.0
147
0.0
147
1.0
  0
MATERIAL
  5
AB
102
{ACAD_XDICTIONARY
360
AC
102
}
102
{ACAD_REACTORS
330
AA
102
}
330
AA
100
AcDbMaterial
  1
ByLayer
 72
     0
 43
0.0208333333333333
 43
0.0
 43
0.0
 43
0.0
 43
0.0
 43
0.0208333333333333
 43
0.0
 43
0.0
 43
0.0
 43
0.0
 43
1.0
 43
0.0
 43
0.0
 43
0.0
 43
0.0
 43
1.0
 77
     0
 47
0.0208333333333333
 47
0.0
 47
0.0
 47
0.0
 47
0.0
 47
0.0208333333333333
 47
0.0
 47
0.0
 47
0.0
 47
0.0
 47
1.0
 47
0.0
 47
0.0
 47
0.0
 47
0.0
 47
1.0
171
     0
 49
0.0208333333333333
 49
0.0
 49
0.0
 49
0.0
 49
0.0
 49
0.0208333333333333
 49
0.0
 49
0.0
 49
0.0
 49
0.0
 49
1.0
 49
0.0
 49
0.0
 49
0.0
 49
0.0
 49
1.0
175
     0
142
0.0208333333333333
142
0.0
142
0.0
142
0.0
142
0.0
142
0.0208333333333333
142
0.0
142
0.0
142
0.0
142
0.0
142
1.0
142
0.0
142
0.0
142
0.0
142
0.0
142
1.0
179
     0
144
0.0208333333333333
144
0.0
144
0.0
144
0.0
144
0.0
144
0.0208333333333333
144
0.0
144
0.0
144
0.0
144
0.0
144
1.0
144
0.0
144
0.0
144
0.0
144
0.0
144
1.0
147
0.0208333333333333
147
0.0
147
0.0
147
0.0
147
0.0
147
0.0208333333333333
147
0.0
147
0.0
147
0.0
147
0.0
147
1.0
147
0.0
147
0.0
147
0.0
147
0.0
147
1.0
  0
MATERIAL
  5
BB
102
{ACAD_XDICTIONARY
360
BC
102
}
102
{ACAD_REACTORS
330
AA
102
}
330
AA
100
AcDbMaterial
  1
Global
 72
     0
 43
0.0208333333333333
 43
0.0
 43
0.0
 43
0.0
 43
0.0
 43
0.0208333333333333
 43
0.0
 43
0.0
 43
0.0
 43
0.0
 43
1.0
 43
0.0
 43
0.0
 43
0.0
 43
0.0
 43
1.0
 77
     0
 47
0.0208333333333333
 47
0.0
 47
0.0
 47
0.0
 47
0.0
 47
0.0208333333333333
 47
0.0
 47
0.0
 47
0.0
 47
0.0
 47
1.0
 47
0.0
 47
0.0
 47
0.0
 47
0.0
 47
1.0
171
     0
 49
0.0208333333333333
 49
0.0
 49
0.0
 49
0.0
 49
0.0
 49
0.0208333333333333
 49
0.0
 49
0.0
 49
0.0
 49
0.0
 49
1.0
 49
0.0
 49
0.0
 49
0.0
 49
0.0
 49
1.0
175
     0
142
0.0208333333333333
142
0.0
142
0.0
142
0.0
142
0.0
142
0.0208333333333333
142
0.0
142
0.0
142
0.0
142
0.0
142
1.0
142
0.0
142
0.0
142
0.0
142
0.0
142
1.0
179
     0
144
0.0208333333333333
144
0.0
144
0.0
144
0.0
144
0.0
144
0.0208333333333333
144
0.0
144
0.0
144
0.0
144
0.0
144
1.0
144
0.0
144
0.0
144
0.0
144
0.0
144
1.0
147
0.0208333333333333
147
0.0
147
0.0
147
0.0
147
0.0
147
0.0208333333333333
147
0.0
147
0.0
147
0.0
147
0.0
147
1.0
147
0.0
147
0.0
147
0.0
147
0.0
147
1.0
  0
MLEADERSTYLE
  5
F2
102
{ACAD_XDICTIONARY
360
1C6
102
}
102
{ACAD_REACTORS
330
F1
102
}
330
F1
100
AcDbMLeaderStyle
179
     2
170
     2
171
     1
172
     0
 90
        2
 40
0.0
 41
0.0
173
     1
 91
-1056964608
340
14
 92
       -2
290
     1
 42
0.09
291
     1
 43
0.36
  3
Standard
 44
0.18
300

342
11
174
     1
178
     6
175
     1
176
     0
 93
-1056964608
 45
0.18
292
     0
297
     0
 46
0.18
 94
-1056964608
 47
1.0
 49
1.0
140
1.0
293
     1
141
0.0
294
     1
177
     0
142
1.0
295
     0
296
     0
143
0.125
271
     0
272
     9
273
     9
  0
MLINESTYLE
  5
18
102
{ACAD_REACTORS
330
17
102
}
330
17
100
AcDbMlineStyle
  2
STANDARD
 70
     0
  3

 62
   256
 51
90.0
 52
90.0
 71
     2
 49
0.5
 62
   256
  6
BYLAYER
 49
-0.5
 62
   256
  6
BYLAYER
  0
ACDBPLACEHOLDER
  5
2D
102
{ACAD_REACTORS
330
E
102
}
330
E
  0
ACDBPLACEHOLDER
  5
F
102
{ACAD_REACTORS
330
E
102
}
330
E
  0
SCALE
  5
E0
102
{ACAD_REACTORS
330
DF
102
}
330
DF
100
AcDbScale
 70
     0
300
1:1
140
1.0
141
1.0
290
     1
  0
SCALE
  5
E1
102
{ACAD_REACTORS
330
DF
102
}
330
DF
100
AcDbScale
 70
     0
300
1/128" = 1'-0"
140
0.0078125
141
12.0
290
     0
  0
SCALE
  5
E2
102
{ACAD_REACTORS
330
DF
102
}
330
DF
100
AcDbScale
 70
     0
300
1/64" = 1'-0"
140
0.015625
141
12.0
290
     0
  0
SCALE
  5
E3
102
{ACAD_REACTORS
330
DF
102
}
330
DF
100
AcDbScale
 70
     0
300
1/32" = 1'-0"
140
0.03125
141
12.0
290
     0
  0
SCALE
  5
E4
102
{ACAD_REACTORS
330
DF
102
}
330
DF
100
AcDbScale
 70
     0
300
1/16" = 1'-0"
140
0.0625
141
12.0
290
     0
  0
SCALE
  5
E5
102
{ACAD_REACTORS
330
DF
102
}
330
DF
100
AcDbScale
 70
     0
300
3/32" = 1'-0"
140
0.09375
141
12.0
290
     0
  0
SCALE
  5
E6
102
{ACAD_REACTORS
330
DF
102
}
330
DF
100
AcDbScale
 70
     0
300
1/8" = 1'-0"
140
0.125
141
12.0
290
     0
  0
SCALE
  5
E7
102
{ACAD_REACTORS
330
DF
102
}
330
DF
100
AcDbScale
 70
     0
300
3/16" = 1'-0"
140
0.1875
141
12.0
290
     0
  0
SCALE
  5
E8
102
{ACAD_REACTORS
330
DF
102
}
330
DF
100
AcDbScale
 70
     0
300
1/4" = 1'-0"
140
0.25
141
12.0
290
     0
  0
SCALE
  5
E9
102
{ACAD_REACTORS
330
DF
102
}
330
DF
100
AcDbScale
 70
     0
300
3/8" = 1'-0"
140
0.375
141
12.0
290
     0
  0
SCALE
  5
EA
102
{ACAD_REACTORS
330
DF
102
}
330
DF
100
AcDbScale
 70
     0
300
1/2" = 1'-0"
140
0.5
141
12.0
290
     0
  0
SCALE
  5
EB
102
{ACAD_REACTORS
330
DF
102
}
330
DF
100
AcDbScale
 70
     0
300
3/4" = 1'-0"
140
0.75
141
12.0
290
     0
  0
SCALE
  5
EC
102
{ACAD_REACTORS
330
DF
102
}
330
DF
100
AcDbScale
 70
     0
300
1" = 1'-0"
140
1.0
141
12.0
290
     0
  0
SCALE
  5
ED
102
{ACAD_REACTORS
330
DF
102
}
330
DF
100
AcDbScale
 70
     0
300
1-1/2" = 1'-0"
140
1.5
141
12.0
290
     0
  0
SCALE
  5
EE
102
{ACAD_REACTORS
330
DF
102
}
330
DF
100
AcDbScale
 70
     0
300
3" = 1'-0"
140
3.0
141
12.0
290
     0
  0
SCALE
  5
EF
102
{ACAD_REACTORS
330
DF
102
}
330
DF
100
AcDbScale
 70
     0
300
6" = 1'-0"
140
6.0
141
12.0
290
     0
  0
SCALE
  5
F0
102
{ACAD_REACTORS
330
DF
102
}
330
DF
100
AcDbScale
 70
     0
300
1'-0" = 1'-0"
140
12.0
141
12.0
290
     0
  0
ACDBSECTIONVIEWSTYLE
  5
F4
102
{ACAD_XDICTIONARY
360
1C8
102
}
102
{ACAD_REACTORS
330
F3
102
}
330
F3
100
AcDbModelDocViewStyle
 70
     0
  3
Imperial24
290
     0
100
AcDbSectionViewStyle
 70
     0
 71
     0
 90
       78
 71
     1
340
11
 62
   256
 40
0.24
340
0
340
0
 62
   256
 40
0.24
300
I, O, Q, S, X, Z
 40
0.48
 90
        3
 40
0.18
 90
        1
 71
     2
340
16
 90
       25
 62
   256
340
16
 90
       50
 62
   256
 40
0.24
 40
0.0
 40
0.24
 71
     3
340
11
 62
   256
 40
0.24
 90
        1
 40
0.75
 90
        1
300
%<\AcVar ViewType \f "%tc1">% %<\AcVar ViewSectionStartId>%-%<\AcVar ViewSectionEndId>%\PSCALE %<\AcVar ViewScale \f "%sn">%
 71
     4
 62
   256
 62
   257
300
ANSI31
 40
1.0
 90
        0
290
     0
290
     0
 90
        6
 40
0.0
 40
1.570796326794896
 40
0.2617993877991494
 40
1.308996938995747
 40
-0.2617993877991494
 40
1.832595714594046
  0
TABLESTYLE
  5
DE
102
{ACAD_XDICTIONARY
360
193
102
}
102
{ACAD_REACTORS
330
DD
102
}
330
DD
100
AcDbTableStyle
280
     0
  3
Standard
 70
     0
 71
     0
 40
0.06
 41
0.06
280
     0
281
     0
  7
Standard
140
0.18
170
     2
 62
     0
 63
     7
283
     0
 90
      512
 91
        0
  1

274
    -2
284
     1
 64
     0
275
    -2
285
     1
 65
     0
276
    -2
286
     1
 66
     0
277
    -2
287
     1
 67
     0
278
    -2
288
     1
 68
     0
279
    -2
289
     1
 69
     0
  7
Standard
140
0.25
170
     5
 62
     0
 63
     7
283
     0
 90
      512
 91
        0
  1

274
    -2
284
     1
 64
     0
275
    -2
285
     1
 65
     0
276
    -2
286
     1
 66
     0
277
    -2
287
     1
 67
     0
278
    -2
288
     1
 68
     0
279
    -2
289
     1
 69
     0
  7
Standard
140
0.18
170
     5
 62
     0
 63
     7
283
     0
 90
      512
 91
        0
  1

274
    -2
284
     1
 64
     0
275
    -2
285
     1
 65
     0
276
    -2
286
     1
 66
     0
277
    -2
287
     1
 67
     0
278
    -2
288
     1
 68
     0
279
    -2
289
     1
 69
     0
  0
VISUALSTYLE
  5
C9
102
{ACAD_XDICTIONARY
360
1A0
102
}
102
{ACAD_REACTORS
330
C3
102
}
330
C3
100
AcDbVisualStyle
  2
2dWireframe
 70
     4
177
     2
291
     0
 71
     0
176
     1
 72
     2
176
     1
 73
     0
176
     1
 90
        0
176
     1
 40
0.6
176
     1
 41
30.0
176
     1
 63
     7
421
 16777215
176
     1
 74
     1
176
     1
 91
        4
176
     1
 64
     7
176
     1
 65
   257
176
     1
 75
     1
176
     1
175
     1
176
     1
 42
1.0
176
     1
 92
        0
176
     1
 66
   257
176
     1
 43
1.0
176
     1
 76
     1
176
     1
 77
     6
176
     1
 78
     2
176
     1
 67
     7
176
     1
 79
     5
176
     1
170
     0
176
     1
171
     0
176
     1
290
     0
176
     1
 93
        1
176
     1
 44
0.0
176
     1
173
     0
176
     1
1001
ACAD
1000
AcDbSavedByObjectVersion
1070
     0
  0
VISUALSTYLE
  5
C8
102
{ACAD_XDICTIONARY
360
19E
102
}
102
{ACAD_REACTORS
330
C3
102
}
330
C3
100
AcDbVisualStyle
  2
Basic
 70
     7
177
     2
291
     1
 71
     1
176
     1
 72
     0
176
     1
 73
     1
176
     1
 90
        0
176
     1
 40
0.6
176
     1
 41
30.0
176
     1
 63
     7
421
 16777215
176
     1
 74
     0
176
     1
 91
        4
176
     1
 64
     7
176
     1
 65
   257
176
     1
 75
     1
176
     1
175
     1
176
     1
 42
1.0
176
     1
 92
        8
176
     1
 66
     7
176
     1
 43
1.0
176
     1
 76
     1
176
     1
 77
     6
176
     1
 78
     2
176
     1
 67
     7
176
     1
 79
     5
176
     1
170
     0
176
     1
171
     0
176
     1
290
     0
176
     1
 93
        1
176
     1
 44
0.0
176
     1
173
     0
176
     1
1001
ACAD
1000
AcDbSavedByObjectVersion
1070
     0
  0
VISUALSTYLE
  5
CF
102
{ACAD_XDICTIONARY
360
1AC
102
}
102
{ACAD_REACTORS
330
C3
102
}
330
C3
100
AcDbVisualStyle
  2
Brighten
 70
    12
177
     2
291
     1
 71
     2
176
     1
 72
     2
176
     1
 73
     0
176
     1
 90
        0
176
     1
 40
0.6
176
     1
 41
30.0
176
     1
 63
     7
421
 16777215
176
     1
 74
     1
176
     1
 91
        4
176
     1
 64
     7
176
     1
 65
   257
176
     1
 75
     1
176
     1
175
     1
176
     1
 42
1.0
176
     1
 92
        8
176
     1
 66
     7
176
     1
 43
1.0
176
     1
 76
     1
176
     1
 77
     6
176
     1
 78
     2
176
     1
 67
     7
176
     1
 79
     5
176
     1
170
     0
176
     1
171
     0
176
     1
290
     0
176
     1
 93
        1
176
     1
 44
50.0
176
     1
173
     0
176
     1
1001
ACAD
1000
AcDbSavedByObjectVersion
1070
     0
  0
VISUALSTYLE
  5
D3
102
{ACAD_XDICTIONARY
360
1B4
102
}
102
{ACAD_REACTORS
330
C3
102
}
330
C3
100
AcDbVisualStyle
  2
ColorChange
 70
    16
177
     2
291
     1
 71
     2
176
     1
 72
     2
176
     1
 73
     3
176
     1
 90
        0
176
     1
 40
0.6
176
     1
 41
30.0
176
     1
 63
     8
421
  8421504
176
     1
 74
     1
176
     1
 91
        4
176
     1
 64
     7
176
     1
 65
   257
176
     1
 75
     1
176
     1
175
     1
176
     1
 42
1.0
176
     1
 92
        8
176
     1
 66
     8
424
  8421504
176
     1
 43
1.0
176
     1
 76
     1
176
     1
 77
     6
176
     1
 78
     2
176
     1
 67
     7
176
     1
 79
     5
176
     1
170
     0
176
     1
171
     0
176
     1
290
     0
176
     1
 93
        1
176
     1
 44
0.0
176
     1
173
     0
176
     1
1001
ACAD
1000
AcDbSavedByObjectVersion
1070
     0
  0
VISUALSTYLE
  5
CC
102
{ACAD_XDICTIONARY
360
1A6
102
}
102
{ACAD_REACTORS
330
C3
102
}
330
C3
100
AcDbVisualStyle
  2
Conceptual
 70
     9
177
     2
291
     0
 71
     3
176
     1
 72
     2
176
     1
 73
     0
176
     1
 90
        0
176
     1
 40
0.6
176
     1
 41
30.0
176
     1
 63
     7
421
 16777215
176
     1
 74
     2
176
     1
 91
        2
176
     1
 64
     7
176
     1
 65
   257
176
     1
 75
     1
176
     1
175
     1
176
     1
 42
179.0
176
     1
 92
        8
176
     1
 66
     7
176
     1
 43
1.0
176
     1
 76
     1
176
     1
 77
     6
176
     1
 78
     2
176
     1
 67
     7
176
     1
 79
     3
176
     1
170
     0
176
     1
171
     0
176
     1
290
     0
176
     1
 93
        1
176
     1
 44
0.0
176
     1
173
     0
176
     1
1001
ACAD
1000
AcDbSavedByObjectVersion
1070
     0
  0
VISUALSTYLE
  5
CE
102
{ACAD_XDICTIONARY
360
1AA
102
}
102
{ACAD_REACTORS
330
C3
102
}
330
C3
100
AcDbVisualStyle
  2
Dim
 70
    11
177
     2
291
     1
 71
     2
176
     1
 72
     2
176
     1
 73
     0
176
     1
 90
        0
176
     1
 40
0.6
176
     1
 41
30.0
176
     1
 63
     7
421
 16777215
176
     1
 74
     1
176
     1
 91
        4
176
     1
 64
     7
176
     1
 65
   257
176
     1
 75
     1
176
     1
175
     1
176
     1
 42
1.0
176
     1
 92
        8
176
     1
 66
     7
176
     1
 43
1.0
176
     1
 76
     1
176
     1
 77
     6
176
     1
 78
     2
176
     1
 67
     7
176
     1
 79
     5
176
     1
170
     0
176
     1
171
     0
176
     1
290
     0
176
     1
 93
        1
176
     1
 44
-50.0
176
     1
173
     0
176
     1
1001
ACAD
1000
AcDbSavedByObjectVersion
1070
     0
  0
VISUALSTYLE
  5
DB
102
{ACAD_XDICTIONARY
360
1C4
102
}
102
{ACAD_REACTORS
330
C3
102
}
330
C3
100
AcDbVisualStyle
  2
EdgeColorOff
 70
    22
177
     2
291
     1
 71
     2
176
     0
 72
     2
176
     0
 73
     0
176
     0
 90
        0
176
     0
 40
0.6
176
     0
 41
30.0
176
     0
 63
     7
421
 16777215
176
     0
 74
     1
176
     0
 91
        4
176
     0
 64
     7
176
     0
 65
   257
176
     0
 75
     1
176
     0
175
     1
176
     0
 42
1.0
176
     0
 92
        8
176
     2
 66
     7
176
     0
 43
1.0
176
     0
 76
     1
176
     0
 77
     6
176
     0
 78
     2
176
     0
 67
     7
176
     0
 79
     5
176
     0
170
     0
176
     0
171
     0
176
     0
290
     0
176
     0
 93
        1
176
     0
 44
0.0
176
     0
173
     0
176
     0
1001
ACAD
1000
AcDbSavedByObjectVersion
1070
     0
  0
VISUALSTYLE
  5
D2
102
{ACAD_XDICTIONARY
360
1B2
102
}
102
{ACAD_REACTORS
330
C3
102
}
330
C3
100
AcDbVisualStyle
  2
Facepattern
 70
    15
177
     2
291
     1
 71
     2
176
     1
 72
     2
176
     1
 73
     0
176
     1
 90
        0
176
     1
 40
0.6
176
     1
 41
30.0
176
     1
 63
     7
421
 16777215
176
     1
 74
     1
176
     1
 91
        4
176
     1
 64
     7
176
     1
 65
   257
176
     1
 75
     1
176
     1
175
     1
176
     1
 42
1.0
176
     1
 92
        8
176
     1
 66
     7
176
     1
 43
1.0
176
     1
 76
     1
176
     1
 77
     6
176
     1
 78
     2
176
     1
 67
     7
176
     1
 79
     5
176
     1
170
     0
176
     1
171
     0
176
     1
290
     0
176
     1
 93
        1
176
     1
 44
0.0
176
     1
173
     0
176
     1
1001
ACAD
1000
AcDbSavedByObjectVersion
1070
     0
  0
VISUALSTYLE
  5
C4
102
{ACAD_XDICTIONARY
360
196
102
}
102
{ACAD_REACTORS
330
C3
102
}
330
C3
100
AcDbVisualStyle
  2
Flat
 70
     0
177
     2
291
     1
 71
     2
176
     1
 72
     1
176
     1
 73
     1
176
     1
 90
        2
176
     1
 40
0.6
176
     1
 41
30.0
176
     1
 63
     7
421
 16777215
176
     1
 74
     0
176
     1
 91
        0
176
     1
 64
     7
176
     1
 65
   257
176
     1
 75
     1
176
     1
175
     1
176
     1
 42
1.0
176
     1
 92
        8
176
     1
 66
     7
176
     1
 43
1.0
176
     1
 76
     1
176
     1
 77
     6
176
     1
 78
     2
176
     1
 67
     7
176
     1
 79
     5
176
     1
170
     0
176
     1
171
     0
176
     1
290
     0
176
     1
 93
       13
176
     1
 44
0.0
176
     1
173
     0
176
     1
1001
ACAD
1000
AcDbSavedByObjectVersion
1070
     0
  0
VISUALSTYLE
  5
C5
102
{ACAD_XDICTIONARY
360
198
102
}
102
{ACAD_REACTORS
330
C3
102
}
330
C3
100
AcDbVisualStyle
  2
FlatWithEdges
 70
     1
177
     2
291
     1
 71
     2
176
     1
 72
     1
176
     1
 73
     1
176
     1
 90
        2
176
     1
 40
0.6
176
     1
 41
30.0
176
     1
 63
     7
421
 16777215
176
     1
 74
     1
176
     1
 91
        0
176
     1
 64
     7
176
     1
 65
   257
176
     1
 75
     1
176
     1
175
     1
176
     1
 42
1.0
176
     1
 92
        0
176
     1
 66
   257
176
     1
 43
1.0
176
     1
 76
     1
176
     1
 77
     6
176
     1
 78
     2
176
     1
 67
     7
176
     1
 79
     5
176
     1
170
     0
176
     1
171
     0
176
     1
290
     0
176
     1
 93
       13
176
     1
 44
0.0
176
     1
173
     0
176
     1
1001
ACAD
1000
AcDbSavedByObjectVersion
1070
     0
  0
VISUALSTYLE
  5
C6
102
{ACAD_XDICTIONARY
360
19A
102
}
102
{ACAD_REACTORS
330
C3
102
}
330
C3
100
AcDbVisualStyle
  2
Gouraud
 70
     2
177
     2
291
     1
 71
     2
176
     1
 72
     2
176
     1
 73
     1
176
     1
 90
        2
176
     1
 40
0.6
176
     1
 41
30.0
176
     1
 63
     7
421
 16777215
176
     1
 74
     0
176
     1
 91
        0
176
     1
 64
     7
176
     1
 65
   257
176
     1
 75
     1
176
     1
175
     1
176
     1
 42
1.0
176
     1
 92
        0
176
     1
 66
     7
176
     1
 43
1.0
176
     1
 76
     1
176
     1
 77
     6
176
     1
 78
     2
176
     1
 67
     7
176
     1
 79
     5
176
     1
170
     0
176
     1
171
     0
176
     1
290
     0
176
     1
 93
       13
176
     1
 44
0.0
176
     1
173
     0
176
     1
1001
ACAD
1000
AcDbSavedByObjectVersion
1070
     0
  0
VISUALSTYLE
  5
C7
102
{ACAD_XDICTIONARY
360
19C
102
}
102
{ACAD_REACTORS
330
C3
102
}
330
C3
100
AcDbVisualStyle
  2
GouraudWithEdges
 70
     3
177
     2
291
     1
 71
     2
176
     1
 72
     2
176
     1
 73
     1
176
     1
 90
        2
176
     1
 40
0.6
176
     1
 41
30.0
176
     1
 63
     7
421
 16777215
176
     1
 74
     1
176
     1
 91
        0
176
     1
 64
     7
176
     1
 65
   257
176
     1
 75
     1
176
     1
175
     1
176
     1
 42
1.0
176
     1
 92
        0
176
     1
 66
   257
176
     1
 43
1.0
176
     1
 76
     1
176
     1
 77
     6
176
     1
 78
     2
176
     1
 67
     7
176
     1
 79
     5
176
     1
170
     0
176
     1
171
     0
176
     1
290
     0
176
     1
 93
       13
176
     1
 44
0.0
176
     1
173
     0
176
     1
1001
ACAD
1000
AcDbSavedByObjectVersion
1070
     0
  0
VISUALSTYLE
  5
CB
102
{ACAD_XDICTIONARY
360
1A4
102
}
102
{ACAD_REACTORS
330
C3
102
}
330
C3
100
AcDbVisualStyle
  2
Hidden
 70
     6
177
     2
291
     0
 71
     1
176
     1
 72
     2
176
     1
 73
     2
176
     1
 90
        0
176
     1
 40
0.6
176
     1
 41
30.0
176
     1
 63
     7
421
 16777215
176
     1
 74
     2
176
     1
 91
        2
176
     1
 64
     7
176
     1
 65
   257
176
     1
 75
     2
176
     1
175
     1
176
     1
 42
40.0
176
     1
 92
        0
176
     1
 66
   257
176
     1
 43
1.0
176
     1
 76
     1
176
     1
 77
     6
176
     1
 78
     2
176
     1
 67
     7
176
     1
 79
     3
176
     1
170
     0
176
     1
171
     0
176
     1
290
     0
176
     1
 93
        1
176
     1
 44
0.0
176
     1
173
     0
176
     1
1001
ACAD
1000
AcDbSavedByObjectVersion
1070
     0
  0
VISUALSTYLE
  5
D9
102
{ACAD_XDICTIONARY
360
1C0
102
}
102
{ACAD_REACTORS
330
C3
102
}
330
C3
100
AcDbVisualStyle
  2
JitterOff
 70
    20
177
     2
291
     1
 71
     2
176
     0
 72
     2
176
     0
 73
     0
176
     0
 90
        0
176
     0
 40
0.6
176
     0
 41
30.0
176
     0
 63
     7
421
 16777215
176
     0
 74
     1
176
     0
 91
        4
176
     0
 64
     7
176
     0
 65
   257
176
     0
 75
     1
176
     0
175
     1
176
     0
 42
1.0
176
     0
 92
       10
176
     2
 66
     7
176
     0
 43
1.0
176
     0
 76
     1
176
     0
 77
     6
176
     0
 78
     2
176
     0
 67
     7
176
     0
 79
     5
176
     0
170
     0
176
     0
171
     0
176
     0
290
     0
176
     0
 93
        1
176
     0
 44
0.0
176
     0
173
     0
176
     0
1001
ACAD
1000
AcDbSavedByObjectVersion
1070
     0
  0
VISUALSTYLE
  5
D1
102
{ACAD_XDICTIONARY
360
1B0
102
}
102
{ACAD_REACTORS
330
C3
102
}
330
C3
100
AcDbVisualStyle
  2
Linepattern
 70
    14
177
     2
291
     1
 71
     2
176
     1
 72
     2
176
     1
 73
     0
176
     1
 90
        0
176
     1
 40
0.6
176
     1
 41
30.0
176
     1
 63
     7
421
 16777215
176
     1
 74
     1
176
     1
 91
        4
176
     1
 64
     7
176
     1
 65
   257
176
     1
 75
     7
176
     1
175
     7
176
     1
 42
1.0
176
     1
 92
        8
176
     1
 66
     7
176
     1
 43
1.0
176
     1
 76
     1
176
     1
 77
     6
176
     1
 78
     2
176
     1
 67
     7
176
     1
 79
     5
176
     1
170
     0
176
     1
171
     0
176
     1
290
     0
176
     1
 93
        1
176
     1
 44
0.0
176
     1
173
     0
176
     1
1001
ACAD
1000
AcDbSavedByObjectVersion
1070
     0
  0
VISUALSTYLE
  5
DA
102
{ACAD_XDICTIONARY
360
1C2
102
}
102
{ACAD_REACTORS
330
C3
102
}
330
C3
100
AcDbVisualStyle
  2
OverhangOff
 70
    21
177
     2
291
     1
 71
     2
176
     0
 72
     2
176
     0
 73
     0
176
     0
 90
        0
176
     0
 40
0.6
176
     0
 41
30.0
176
     0
 63
     7
421
 16777215
176
     0
 74
     1
176
     0
 91
        4
176
     0
 64
     7
176
     0
 65
   257
176
     0
 75
     1
176
     0
175
     1
176
     0
 42
1.0
176
     0
 92
        9
176
     2
 66
     7
176
     0
 43
1.0
176
     0
 76
     1
176
     0
 77
     6
176
     0
 78
     2
176
     0
 67
     7
176
     0
 79
     5
176
     0
170
     0
176
     0
171
     0
176
     0
290
     0
176
     0
 93
        1
176
     0
 44
0.0
176
     0
173
     0
176
     0
1001
ACAD
1000
AcDbSavedByObjectVersion
1070
     0
  0
VISUALSTYLE
  5
CD
102
{ACAD_XDICTIONARY
360
1A8
102
}
102
{ACAD_REACTORS
330
C3
102
}
330
C3
100
AcDbVisualStyle
  2
Realistic
 70
     8
177
     2
291
     0
 71
     2
176
     1
 72
     3
176
     1
 73
     0
176
     1
 90
        2
176
     1
 40
0.6
176
     1
 41
30.0
176
     1
 63
     7
421
 16777215
176
     1
 74
     0
176
     1
 91
        0
176
     1
 64
     7
176
     1
 65
   257
176
     1
 75
     1
176
     1
175
     1
176
     1
 42
1.0
176
     1
 92
        8
176
     1
 66
   257
176
     1
 43
1.0
176
     1
 76
     1
176
     1
 77
     6
176
     1
 78
     2
176
     1
 67
     7
176
     1
 79
     3
176
     1
170
     0
176
     1
171
     0
176
     1
290
     0
176
     1
 93
       13
176
     1
 44
0.0
176
     1
173
     0
176
     1
1001
ACAD
1000
AcDbSavedByObjectVersion
1070
     0
  0
VISUALSTYLE
  5
D8
102
{ACAD_XDICTIONARY
360
1BE
102
}
102
{ACAD_REACTORS
330
C3
102
}
330
C3
100
AcDbVisualStyle
  2
Shaded
 70
    27
177
     2
291
     0
 71
     2
176
     1
 72
     2
176
     1
 73
     1
176
     1
 90
        2
176
     1
 40
0.6
176
     1
 41
30.0
176
     1
 63
     7
421
 16777215
176
     1
 74
     0
176
     1
 91
        4
176
     1
 64
     7
176
     1
 65
   257
176
     1
 75
     1
176
     1
175
     1
176
     1
 42
1.0
176
     1
 92
        8
176
     1
 66
   257
176
     1
 43
1.0
176
     1
 76
     1
176
     1
 77
     6
176
     1
 78
     2
176
     1
 67
     8
425
  7895160
176
     1
 79
     3
176
     1
170
     0
176
     1
171
     0
176
     1
290
     0
176
     1
 93
        5
176
     1
 44
0.0
176
     1
173
     0
176
     1
1001
ACAD
1000
AcDbSavedByObjectVersion
1070
     0
  0
VISUALSTYLE
  5
D7
102
{ACAD_XDICTIONARY
360
1BC
102
}
102
{ACAD_REACTORS
330
C3
102
}
330
C3
100
AcDbVisualStyle
  2
Shaded with edges
 70
    26
177
     2
291
     0
 71
     2
176
     1
 72
     2
176
     1
 73
     1
176
     1
 90
        2
176
     1
 40
0.6
176
     1
 41
30.0
176
     1
 63
     7
421
 16777215
176
     1
 74
     1
176
     1
 91
       10
176
     1
 64
     7
176
     1
 65
   257
176
     1
 75
     2
176
     1
175
     1
176
     1
 42
1.0
176
     1
 92
        8
176
     1
 66
   257
176
     1
 43
1.0
176
     1
 76
     1
176
     1
 77
     6
176
     1
 78
     2
176
     1
 67
     7
176
     1
 79
     3
176
     1
170
     0
176
     1
171
     0
176
     1
290
     0
176
     1
 93
        5
176
     1
 44
0.0
176
     1
173
     0
176
     1
1001
ACAD
1000
AcDbSavedByObjectVersion
1070
     0
  0
VISUALSTYLE
  5
D4
102
{ACAD_XDICTIONARY
360
1B6
102
}
102
{ACAD_REACTORS
330
C3
102
}
330
C3
100
AcDbVisualStyle
  2
Shades of Gray
 70
    23
177
     2
291
     0
 71
     2
176
     1
 72
     2
176
     1
 73
     3
176
     1
 90
        0
176
     1
 40
0.6
176
     1
 41
30.0
176
     1
 63
     7
421
 16777215
176
     1
 74
     2
176
     1
 91
        2
176
     1
 64
     7
176
     1
 65
     7
176
     1
 75
     1
176
     1
175
     1
176
     1
 42
40.0
176
     1
 92
        8
176
     1
 66
     7
176
     1
 43
1.0
176
     1
 76
     1
176
     1
 77
     6
176
     1
 78
     2
176
     1
 67
     7
176
     1
 79
     3
176
     1
170
     0
176
     1
171
     0
176
     1
290
     0
176
     1
 93
        1
176
     1
 44
0.0
176
     1
173
     0
176
     1
1001
ACAD
1000
AcDbSavedByObjectVersion
1070
     0
  0
VISUALSTYLE
  5
D5
102
{ACAD_XDICTIONARY
360
1B8
102
}
102
{ACAD_REACTORS
330
C3
102
}
330
C3
100
AcDbVisualStyle
  2
Sketchy
 70
    24
177
     2
291
     0
 71
     1
176
     1
 72
     2
176
     1
 73
     2
176
     1
 90
        0
176
     1
 40
0.6
176
     1
 41
30.0
176
     1
 63
     7
421
 16777215
176
     1
 74
     2
176
     1
 91
        2
176
     1
 64
     7
176
     1
 65
     7
176
     1
 75
     1
176
     1
175
     1
176
     1
 42
40.0
176
     1
 92
       11
176
     1
 66
     7
176
     1
 43
1.0
176
     1
 76
     1
176
     1
 77
     6
176
     1
 78
     2
176
     1
 67
     7
176
     1
 79
     6
176
     1
170
     0
176
     1
171
     0
176
     1
290
     0
176
     1
 93
        1
176
     1
 44
0.0
176
     1
173
     0
176
     1
1001
ACAD
1000
AcDbSavedByObjectVersion
1070
     0
  0
VISUALSTYLE
  5
D0
102
{ACAD_XDICTIONARY
360
1AE
102
}
102
{ACAD_REACTORS
330
C3
102
}
330
C3
100
AcDbVisualStyle
  2
Thicken
 70
    13
177
     2
291
     1
 71
     2
176
     1
 72
     2
176
     1
 73
     0
176
     1
 90
        0
176
     1
 40
0.6
176
     1
 41
30.0
176
     1
 63
     7
421
 16777215
176
     1
 74
     1
176
     1
 91
        4
176
     1
 64
     7
176
     1
 65
   257
176
     1
 75
     1
176
     1
175
     1
176
     1
 42
1.0
176
     1
 92
       12
176
     1
 66
     7
176
     1
 43
1.0
176
     1
 76
     1
176
     1
 77
     6
176
     1
 78
     2
176
     1
 67
     7
176
     1
 79
     5
176
     1
170
     0
176
     1
171
     0
176
     1
290
     0
176
     1
 93
        1
176
     1
 44
0.0
176
     1
173
     0
176
     1
1001
ACAD
1000
AcDbSavedByObjectVersion
1070
     0
  0
VISUALSTYLE
  5
CA
102
{ACAD_XDICTIONARY
360
1A2
102
}
102
{ACAD_REACTORS
330
C3
102
}
330
C3
100
AcDbVisualStyle
  2
Wireframe
 70
     5
177
     2
291
     0
 71
     0
176
     1
 72
     2
176
     1
 73
     0
176
     1
 90
        0
176
     1
 40
0.6
176
     1
 41
30.0
176
     1
 63
     7
421
 16777215
176
     1
 74
     1
176
     1
 91
        4
176
     1
 64
     7
176
     1
 65
   257
176
     1
 75
     1
176
     1
175
     1
176
     1
 42
1.0
176
     1
 92
        0
176
     1
 66
   257
176
     1
 43
1.0
176
     1
 76
     1
176
     1
 77
     6
176
     1
 78
     2
176
     1
 67
     7
176
     1
 79
     3
176
     1
170
     0
176
     1
171
     0
176
     1
290
     0
176
     1
 93
        1
176
     1
 44
0.0
176
     1
173
     0
176
     1
1001
ACAD
1000
AcDbSavedByObjectVersion
1070
     0
  0
VISUALSTYLE
  5
D6
102
{ACAD_XDICTIONARY
360
1BA
102
}
102
{ACAD_REACTORS
330
C3
102
}
330
C3
100
AcDbVisualStyle
  2
X-Ray
 70
    25
177
     2
291
     0
 71
     2
176
     1
 72
     2
176
     1
 73
     1
176
     1
 90
        1
176
     1
 40
0.5
176
     1
 41
30.0
176
     1
 63
     7
421
 16777215
176
     1
 74
     1
176
     1
 91
        0
176
     1
 64
     7
176
     1
 65
   257
176
     1
 75
     1
176
     1
175
     1
176
     1
 42
1.0
176
     1
 92
        8
176
     1
 66
     7
176
     1
 43
1.0
176
     1
 76
     1
176
     1
 77
     6
176
     1
 78
     2
176
     1
 67
     7
176
     1
 79
     3
176
     1
170
     0
176
     1
171
     0
176
     1
290
     0
176
     1
 93
       13
176
     1
 44
0.0
176
     1
173
     0
176
     1
1001
ACAD
1000
AcDbSavedByObjectVersion
1070
     0
  0
DICTIONARYVAR
  5
18F
102
{ACAD_REACTORS
330
189
102
}
330
189
100
DictionaryVariables
280
     0
  1
1:1
  0
DICTIONARYVAR
  5
18B
102
{ACAD_REACTORS
330
189
102
}
330
189
100
DictionaryVariables
280
     0
  1
STANDARD
  0
DICTIONARYVAR
  5
18A
102
{ACAD_REACTORS
330
189
102
}
330
189
100
DictionaryVariables
280
     0
  1
STANDARD
  0
DICTIONARYVAR
  5
18C
102
{ACAD_REACTORS
330
189
102
}
330
189
100
DictionaryVariables
280
     0
  1
Imperial24
  0
DICTIONARYVAR
  5
18D
102
{ACAD_REACTORS
330
189
102
}
330
189
100
DictionaryVariables
280
     0
  1
Imperial24
  0
DICTIONARYVAR
  5
191
102
{ACAD_REACTORS
330
189
102
}
330
189
100
DictionaryVariables
280
     0
  1
1
  0
DICTIONARYVAR
  5
192
102
{ACAD_REACTORS
330
189
102
}
330
189
100
DictionaryVariables
280
     0
  1
15
  0
DICTIONARYVAR
  5
190
102
{ACAD_REACTORS
330
189
102
}
330
189
100
DictionaryVariables
280
     0
  1
0
  0
DICTIONARYVAR
  5
18E
102
{ACAD_REACTORS
330
189
102
}
330
189
100
DictionaryVariables
280
     0
  1
0
  0
DICTIONARY
  5
1CA
330
F6
100
AcDbDictionary
280
     1
281
     1
  3
ACAD_XREC_ROUNDTRIP
360
1CB
  0
DICTIONARY
  5
B4
330
B3
100
AcDbDictionary
280
     1
281
     1
  3
BUMPTILE
360
B6
  3
DIFFUSETILE
360
B5
  3
OPACITYTILE
360
B9
  3
REFLECTIONTILE
360
B8
  3
REFRACTIONTILE
360
BA
  3
SPECULARTILE
360
B7
  0
DICTIONARY
  5
AC
330
AB
100
AcDbDictionary
280
     1
281
     1
  3
BUMPTILE
360
AE
  3
DIFFUSETILE
360
AD
  3
OPACITYTILE
360
B1
  3
REFLECTIONTILE
360
B0
  3
REFRACTIONTILE
360
B2
  3
SPECULARTILE
360
AF
  0
DICTIONARY
  5
BC
330
BB
100
AcDbDictionary
280
     1
281
     1
  3
BUMPTILE
360
BE
  3
DIFFUSETILE
360
BD
  3
OPACITYTILE
360
C1
  3
REFLECTIONTILE
360
C0
  3
REFRACTIONTILE
360
C2
  3
SPECULARTILE
360
BF
  0
DICTIONARY
  5
1C6
330
F2
100
AcDbDictionary
280
     1
281
     1
  3
ACAD_XREC_ROUNDTRIP
360
1C7
  0
DICTIONARY
  5
1C8
330
F4
100
AcDbDictionary
280
     1
281
     1
  3
ACAD_XREC_ROUNDTRIP
360
1C9
  0
DICTIONARY
  5
193
330
DE
100
AcDbDictionary
280
     1
281
     1
  3
ACAD_ROUNDTRIP_2008_TABLESTYLE_CELLSTYLEMAP
360
194
  0
DICTIONARY
  5
1A0
330
C9
100
AcDbDictionary
280
     1
281
     1
  3
ACAD_XREC_ROUNDTRIP
360
1A1
  0
DICTIONARY
  5
19E
330
C8
100
AcDbDictionary
280
     1
281
     1
  3
ACAD_XREC_ROUNDTRIP
360
19F
  0
DICTIONARY
  5
1AC
330
CF
100
AcDbDictionary
280
     1
281
     1
  3
ACAD_XREC_ROUNDTRIP
360
1AD
  0
DICTIONARY
  5
1B4
330
D3
100
AcDbDictionary
280
     1
281
     1
  3
ACAD_XREC_ROUNDTRIP
360
1B5
  0
DICTIONARY
  5
1A6
330
CC
100
AcDbDictionary
280
     1
281
     1
  3
ACAD_XREC_ROUNDTRIP
360
1A7
  0
DICTIONARY
  5
1AA
330
CE
100
AcDbDictionary
280
     1
281
     1
  3
ACAD_XREC_ROUNDTRIP
360
1AB
  0
DICTIONARY
  5
1C4
330
DB
100
AcDbDictionary
280
     1
281
     1
  3
ACAD_XREC_ROUNDTRIP
360
1C5
  0
DICTIONARY
  5
1B2
330
D2
100
AcDbDictionary
280
     1
281
     1
  3
ACAD_XREC_ROUNDTRIP
360
1B3
  0
DICTIONARY
  5
196
330
C4
100
AcDbDictionary
280
     1
281
     1
  3
ACAD_XREC_ROUNDTRIP
360
197
  0
DICTIONARY
  5
198
330
C5
100
AcDbDictionary
280
     1
281
     1
  3
ACAD_XREC_ROUNDTRIP
360
199
  0
DICTIONARY
  5
19A
330
C6
100
AcDbDictionary
280
     1
281
     1
  3
ACAD_XREC_ROUNDTRIP
360
19B
  0
DICTIONARY
  5
19C
330
C7
100
AcDbDictionary
280
     1
281
     1
  3
ACAD_XREC_ROUNDTRIP
360
19D
  0
DICTIONARY
  5
1A4
330
CB
100
AcDbDictionary
280
     1
281
     1
  3
ACAD_XREC_ROUNDTRIP
360
1A5
  0
DICTIONARY
  5
1C0
330
D9
100
AcDbDictionary
280
     1
281
     1
  3
ACAD_XREC_ROUNDTRIP
360
1C1
  0
DICTIONARY
  5
1B0
330
D1
100
AcDbDictionary
280
     1
281
     1
  3
ACAD_XREC_ROUNDTRIP
360
1B1
  0
DICTIONARY
  5
1C2
330
DA
100
AcDbDictionary
280
     1
281
     1
  3
ACAD_XREC_ROUNDTRIP
360
1C3
  0
DICTIONARY
  5
1A8
330
CD
100
AcDbDictionary
280
     1
281
     1
  3
ACAD_XREC_ROUNDTRIP
360
1A9
  0
DICTIONARY
  5
1BE
330
D8
100
AcDbDictionary
280
     1
281
     1
  3
ACAD_XREC_ROUNDTRIP
360
1BF
  0
DICTIONARY
  5
1BC
330
D7
100
AcDbDictionary
280
     1
281
     1
  3
ACAD_XREC_ROUNDTRIP
360
1BD
  0
DICTIONARY
  5
1B6
330
D4
100
AcDbDictionary
280
     1
281
     1
  3
ACAD_XREC_ROUNDTRIP
360
1B7
  0
DICTIONARY
  5
1B8
330
D5
100
AcDbDictionary
280
     1
281
     1
  3
ACAD_XREC_ROUNDTRIP
360
1B9
  0
DICTIONARY
  5
1AE
330
D0
100
AcDbDictionary
280
     1
281
     1
  3
ACAD_XREC_ROUNDTRIP
360
1AF
  0
DICTIONARY
  5
1A2
330
CA
100
AcDbDictionary
280
     1
281
     1
  3
ACAD_XREC_ROUNDTRIP
360
1A3
  0
DICTIONARY
  5
1BA
330
D6
100
AcDbDictionary
280
     1
281
     1
  3
ACAD_XREC_ROUNDTRIP
360
1BB
  0
XRECORD
  5
1CB
102
{ACAD_REACTORS
330
1CA
102
}
330
1CA
100
AcDbXrecord
280
     1
102
DISPLAYNAME
  1
Imperial24
102
FLAGS
 90
        0
  0
XRECORD
  5
B6
102
{ACAD_REACTORS
330
B4
102
}
330
B4
100
AcDbXrecord
280
     1
270
     1
271
     1
  0
XRECORD
  5
B5
102
{ACAD_REACTORS
330
B4
102
}
330
B4
100
AcDbXrecord
280
     1
270
     1
271
     1
  0
XRECORD
  5
B9
102
{ACAD_REACTORS
330
B4
102
}
330
B4
100
AcDbXrecord
280
     1
270
     1
271
     1
  0
XRECORD
  5
B8
102
{ACAD_REACTORS
330
B4
102
}
330
B4
100
AcDbXrecord
280
     1
270
     1
271
     1
  0
XRECORD
  5
BA
102
{ACAD_REACTORS
330
B4
102
}
330
B4
100
AcDbXrecord
280
     1
270
     1
271
     1
  0
XRECORD
  5
B7
102
{ACAD_REACTORS
330
B4
102
}
330
B4
100
AcDbXrecord
280
     1
270
     1
271
     1
  0
XRECORD
  5
AE
102
{ACAD_REACTORS
330
AC
102
}
330
AC
100
AcDbXrecord
280
     1
270
     1
271
     1
  0
XRECORD
  5
AD
102
{ACAD_REACTORS
330
AC
102
}
330
AC
100
AcDbXrecord
280
     1
270
     1
271
     1
  0
XRECORD
  5
B1
102
{ACAD_REACTORS
330
AC
102
}
330
AC
100
AcDbXrecord
280
     1
270
     1
271
     1
  0
XRECORD
  5
B0
102
{ACAD_REACTORS
330
AC
102
}
330
AC
100
AcDbXrecord
280
     1
270
     1
271
     1
  0
XRECORD
  5
B2
102
{ACAD_REACTORS
330
AC
102
}
330
AC
100
AcDbXrecord
280
     1
270
     1
271
     1
  0
XRECORD
  5
AF
102
{ACAD_REACTORS
330
AC
102
}
330
AC
100
AcDbXrecord
280
     1
270
     1
271
     1
  0
XRECORD
  5
BE
102
{ACAD_REACTORS
330
BC
102
}
330
BC
100
AcDbXrecord
280
     1
270
     1
271
     1
  0
XRECORD
  5
BD
102
{ACAD_REACTORS
330
BC
102
}
330
BC
100
AcDbXrecord
280
     1
270
     1
271
     1
  0
XRECORD
  5
C1
102
{ACAD_REACTORS
330
BC
102
}
330
BC
100
AcDbXrecord
280
     1
270
     1
271
     1
  0
XRECORD
  5
C0
102
{ACAD_REACTORS
330
BC
102
}
330
BC
100
AcDbXrecord
280
     1
270
     1
271
     1
  0
XRECORD
  5
C2
102
{ACAD_REACTORS
330
BC
102
}
330
BC
100
AcDbXrecord
280
     1
270
     1
271
     1
  0
XRECORD
  5
BF
102
{ACAD_REACTORS
330
BC
102
}
330
BC
100
AcDbXrecord
280
     1
270
     1
271
     1
  0
XRECORD
  5
1C7
102
{ACAD_REACTORS
330
1C6
102
}
330
1C6
100
AcDbXrecord
280
     1
102
ACAD_ROUNDTRIP_2012_MLEADER_STYLE
298
     1
  0
XRECORD
  5
1C9
102
{ACAD_REACTORS
330
1C8
102
}
330
1C8
100
AcDbXrecord
280
     1
102
DISPLAYNAME
  1
Imperial24
102
FLAGS
 90
        0
  0
CELLSTYLEMAP
  5
194
102
{ACAD_REACTORS
330
193
102
}
330
193
100
AcDbCellStyleMap
 90
        3
300
CELLSTYLE
  1
TABLEFORMAT_BEGIN
 90
        5
170
     1
 91
        0
 92
    32768
 62
   257
 93
        1
300
CONTENTFORMAT
  1
CONTENTFORMAT_BEGIN
 90
        0
 91
        0
 92
      512
 93
        0
300

 40
0.0
140
1.0
 94
        5
 62
     0
340
11
144
0.25
309
CONTENTFORMAT_END
171
     0
 94
        0
309
TABLEFORMAT_END
  1
CELLSTYLE_BEGIN
 90
        1
 91
        1
300
_TITLE
309
CELLSTYLE_END
300
CELLSTYLE
  1
TABLEFORMAT_BEGIN
 90
        5
170
     1
 91
        0
 92
        0
 62
   257
 93
        1
300
CONTENTFORMAT
  1
CONTENTFORMAT_BEGIN
 90
        0
 91
        0
 92
      512
 93
        0
300

 40
0.0
140
1.0
 94
        5
 62
     0
340
11
144
0.18
309
CONTENTFORMAT_END
171
     0
 94
        0
309
TABLEFORMAT_END
  1
CELLSTYLE_BEGIN
 90
        2
 91
        1
300
_HEADER
309
CELLSTYLE_END
300
CELLSTYLE
  1
TABLEFORMAT_BEGIN
 90
        5
170
     1
 91
        0
 92
        0
 62
   257
 93
        1
300
CONTENTFORMAT
  1
CONTENTFORMAT_BEGIN
 90
        0
 91
        0
 92
      512
 93
        0
300

 40
0.0
140
1.0
 94
        2
 62
     0
340
11
144
0.18
309
CONTENTFORMAT_END
171
     0
 94
        0
309
TABLEFORMAT_END
  1
CELLSTYLE_BEGIN
 90
        3
 91
        2
300
_DATA
309
CELLSTYLE_END
  0
XRECORD
  5
1A1
102
{ACAD_REACTORS
330
1A0
102
}
330
1A0
100
AcDbXrecord
280
     1
102
RTVSPost2010Prop28
280
     1
102
RTVSPost2010PropOp28
 70
     1
102
RTVSPost2010Prop29
280
     1
102
RTVSPost2010PropOp29
 70
     1
102
RTVSPost2010Prop30
280
     0
102
RTVSPost2010PropOp30
 70
     1
102
RTVSPost2010Prop31
280
     0
102
RTVSPost2010PropOp31
 70
     1
102
RTVSPost2010Prop32
280
     0
102
RTVSPost2010PropOp32
 70
     1
102
RTVSPost2010Prop33
280
     0
102
RTVSPost2010PropOp33
 70
     1
102
RTVSPost2010Prop34
280
     0
102
RTVSPost2010PropOp34
 70
     1
102
RTVSPost2010Prop35
280
     0
102
RTVSPost2010PropOp35
 70
     1
102
RTVSPost2010Prop36
280
     0
102
RTVSPost2010PropOp36
 70
     1
102
RTVSPost2010Prop37
 90
       50
102
RTVSPost2010PropOp37
 70
     1
102
RTVSPost2010Prop38
140
0.0
102
RTVSPost2010PropOp38
 70
     1
102
RTVSPost2010Prop39
140
1.0
102
RTVSPost2010PropOp39
 70
     1
102
RTVSPost2010Prop40
 90
        0
102
RTVSPost2010PropOp40
 70
     1
102
RTVSPost2010Prop41ColorIndex
 90
       18
102
RTVSPost2010Prop41ColorRGB
 90
        0
102
RTVSPost2010PropOp41
 70
     1
102
RTVSPost2010Prop42
 90
       50
102
RTVSPost2010PropOp42
 70
     1
102
RTVSPost2010Prop43
 90
        3
102
RTVSPost2010PropOp43
 70
     1
102
RTVSPost2010Prop44ColorIndex
 90
        5
102
RTVSPost2010Prop44ColorRGB
 90
      255
102
RTVSPost2010PropOp44
 70
     1
102
RTVSPost2010Prop45
280
     0
102
RTVSPost2010PropOp45
 70
     1
102
RTVSPost2010Prop46
 90
       50
102
RTVSPost2010PropOp46
 70
     1
102
RTVSPost2010Prop47
 90
       50
102
RTVSPost2010PropOp47
 70
     1
102
RTVSPost2010Prop48
 90
       50
102
RTVSPost2010PropOp48
 70
     1
102
RTVSPost2010Prop49
280
     0
102
RTVSPost2010PropOp49
 70
     1
102
RTVSPost2010Prop50
 90
       50
102
RTVSPost2010PropOp50
 70
     1
102
RTVSPost2010Prop51ColorIndex
 90
      256
102
RTVSPost2010Prop51ColorRGB
 90
-16777216
102
RTVSPost2010PropOp51
 70
     0
102
RTVSPost2010Prop52
140
1.0
102
RTVSPost2010PropOp52
 70
     0
102
RTVSPost2010Prop53
 90
        2
102
RTVSPost2010PropOp53
 70
     1
102
RTVSPost2010Prop54
  1
strokes_ogs.tif
102
RTVSPost2010PropOp54
 70
     1
102
RTVSPost2010Prop55
280
     0
102
RTVSPost2010PropOp55
 70
     1
102
RTVSPost2010Prop56
140
1.0
102
RTVSPost2010PropOp56
 70
     1
102
RTVSPost2010Prop57
140
1.0
102
RTVSPost2010PropOp57
 70
     1
  0
XRECORD
  5
19F
102
{ACAD_REACTORS
330
19E
102
}
330
19E
100
AcDbXrecord
280
     1
102
RTVSPost2010Prop28
280
     0
102
RTVSPost2010PropOp28
 70
     1
102
RTVSPost2010Prop29
280
     1
102
RTVSPost2010PropOp29
 70
     1
102
RTVSPost2010Prop30
280
     1
102
RTVSPost2010PropOp30
 70
     1
102
RTVSPost2010Prop31
280
     0
102
RTVSPost2010PropOp31
 70
     1
102
RTVSPost2010Prop32
280
     0
102
RTVSPost2010PropOp32
 70
     1
102
RTVSPost2010Prop33
280
     0
102
RTVSPost2010PropOp33
 70
     1
102
RTVSPost2010Prop34
280
     0
102
RTVSPost2010PropOp34
 70
     1
102
RTVSPost2010Prop35
280
     0
102
RTVSPost2010PropOp35
 70
     1
102
RTVSPost2010Prop36
280
     0
102
RTVSPost2010PropOp36
 70
     1
102
RTVSPost2010Prop37
 90
       50
102
RTVSPost2010PropOp37
 70
     1
102
RTVSPost2010Prop38
140
0.0
102
RTVSPost2010PropOp38
 70
     1
102
RTVSPost2010Prop39
140
1.0
102
RTVSPost2010PropOp39
 70
     1
102
RTVSPost2010Prop40
 90
        0
102
RTVSPost2010PropOp40
 70
     1
102
RTVSPost2010Prop41ColorIndex
 90
       18
102
RTVSPost2010Prop41ColorRGB
 90
        0
102
RTVSPost2010PropOp41
 70
     1
102
RTVSPost2010Prop42
 90
       50
102
RTVSPost2010PropOp42
 70
     1
102
RTVSPost2010Prop43
 90
        3
102
RTVSPost2010PropOp43
 70
     1
102
RTVSPost2010Prop44ColorIndex
 90
        5
102
RTVSPost2010Prop44ColorRGB
 90
      255
102
RTVSPost2010PropOp44
 70
     1
102
RTVSPost2010Prop45
280
     0
102
RTVSPost2010PropOp45
 70
     1
102
RTVSPost2010Prop46
 90
       50
102
RTVSPost2010PropOp46
 70
     1
102
RTVSPost2010Prop47
 90
       50
102
RTVSPost2010PropOp47
 70
     1
102
RTVSPost2010Prop48
 90
       50
102
RTVSPost2010PropOp48
 70
     1
102
RTVSPost2010Prop49
280
     0
102
RTVSPost2010PropOp49
 70
     1
102
RTVSPost2010Prop50
 90
       50
102
RTVSPost2010PropOp50
 70
     1
102
RTVSPost2010Prop51ColorIndex
 90
      256
102
RTVSPost2010Prop51ColorRGB
 90
-16777216
102
RTVSPost2010PropOp51
 70
     0
102
RTVSPost2010Prop52
140
1.0
102
RTVSPost2010PropOp52
 70
     0
102
RTVSPost2010Prop53
 90
        2
102
RTVSPost2010PropOp53
 70
     1
102
RTVSPost2010Prop54
  1
strokes_ogs.tif
102
RTVSPost2010PropOp54
 70
     1
102
RTVSPost2010Prop55
280
     0
102
RTVSPost2010PropOp55
 70
     1
102
RTVSPost2010Prop56
140
1.0
102
RTVSPost2010PropOp56
 70
     1
102
RTVSPost2010Prop57
140
1.0
102
RTVSPost2010PropOp57
 70
     1
  0
XRECORD
  5
1AD
102
{ACAD_REACTORS
330
1AC
102
}
330
1AC
100
AcDbXrecord
280
     1
102
RTVSPost2010Prop28
280
     0
102
RTVSPost2010PropOp28
 70
     1
102
RTVSPost2010Prop29
280
     1
102
RTVSPost2010PropOp29
 70
     1
102
RTVSPost2010Prop30
280
     1
102
RTVSPost2010PropOp30
 70
     1
102
RTVSPost2010Prop31
280
     0
102
RTVSPost2010PropOp31
 70
     1
102
RTVSPost2010Prop32
280
     0
102
RTVSPost2010PropOp32
 70
     1
102
RTVSPost2010Prop33
280
     0
102
RTVSPost2010PropOp33
 70
     1
102
RTVSPost2010Prop34
280
     0
102
RTVSPost2010PropOp34
 70
     1
102
RTVSPost2010Prop35
280
     0
102
RTVSPost2010PropOp35
 70
     1
102
RTVSPost2010Prop36
280
     0
102
RTVSPost2010PropOp36
 70
     1
102
RTVSPost2010Prop37
 90
       50
102
RTVSPost2010PropOp37
 70
     1
102
RTVSPost2010Prop38
140
0.0
102
RTVSPost2010PropOp38
 70
     1
102
RTVSPost2010Prop39
140
1.0
102
RTVSPost2010PropOp39
 70
     1
102
RTVSPost2010Prop40
 90
        0
102
RTVSPost2010PropOp40
 70
     1
102
RTVSPost2010Prop41ColorIndex
 90
       18
102
RTVSPost2010Prop41ColorRGB
 90
        0
102
RTVSPost2010PropOp41
 70
     1
102
RTVSPost2010Prop42
 90
       50
102
RTVSPost2010PropOp42
 70
     1
102
RTVSPost2010Prop43
 90
        3
102
RTVSPost2010PropOp43
 70
     1
102
RTVSPost2010Prop44ColorIndex
 90
        5
102
RTVSPost2010Prop44ColorRGB
 90
      255
102
RTVSPost2010PropOp44
 70
     1
102
RTVSPost2010Prop45
280
     0
102
RTVSPost2010PropOp45
 70
     1
102
RTVSPost2010Prop46
 90
       50
102
RTVSPost2010PropOp46
 70
     1
102
RTVSPost2010Prop47
 90
       50
102
RTVSPost2010PropOp47
 70
     1
102
RTVSPost2010Prop48
 90
       50
102
RTVSPost2010PropOp48
 70
     1
102
RTVSPost2010Prop49
280
     0
102
RTVSPost2010PropOp49
 70
     1
102
RTVSPost2010Prop50
 90
       50
102
RTVSPost2010PropOp50
 70
     1
102
RTVSPost2010Prop51ColorIndex
 90
      256
102
RTVSPost2010Prop51ColorRGB
 90
-16777216
102
RTVSPost2010PropOp51
 70
     0
102
RTVSPost2010Prop52
140
1.0
102
RTVSPost2010PropOp52
 70
     0
102
RTVSPost2010Prop53
 90
        2
102
RTVSPost2010PropOp53
 70
     1
102
RTVSPost2010Prop54
  1
strokes_ogs.tif
102
RTVSPost2010PropOp54
 70
     1
102
RTVSPost2010Prop55
280
     0
102
RTVSPost2010PropOp55
 70
     1
102
RTVSPost2010Prop56
140
1.0
102
RTVSPost2010PropOp56
 70
     1
102
RTVSPost2010Prop57
140
1.0
102
RTVSPost2010PropOp57
 70
     1
  0
XRECORD
  5
1B5
102
{ACAD_REACTORS
330
1B4
102
}
330
1B4
100
AcDbXrecord
280
     1
102
RTVSPost2010Prop28
280
     0
102
RTVSPost2010PropOp28
 70
     1
102
RTVSPost2010Prop29
280
     1
102
RTVSPost2010PropOp29
 70
     1
102
RTVSPost2010Prop30
280
     1
102
RTVSPost2010PropOp30
 70
     1
102
RTVSPost2010Prop31
280
     0
102
RTVSPost2010PropOp31
 70
     1
102
RTVSPost2010Prop32
280
     0
102
RTVSPost2010PropOp32
 70
     1
102
RTVSPost2010Prop33
280
     0
102
RTVSPost2010PropOp33
 70
     1
102
RTVSPost2010Prop34
280
     0
102
RTVSPost2010PropOp34
 70
     1
102
RTVSPost2010Prop35
280
     0
102
RTVSPost2010PropOp35
 70
     1
102
RTVSPost2010Prop36
280
     0
102
RTVSPost2010PropOp36
 70
     1
102
RTVSPost2010Prop37
 90
       50
102
RTVSPost2010PropOp37
 70
     1
102
RTVSPost2010Prop38
140
0.0
102
RTVSPost2010PropOp38
 70
     1
102
RTVSPost2010Prop39
140
1.0
102
RTVSPost2010PropOp39
 70
     1
102
RTVSPost2010Prop40
 90
        0
102
RTVSPost2010PropOp40
 70
     1
102
RTVSPost2010Prop41ColorIndex
 90
       18
102
RTVSPost2010Prop41ColorRGB
 90
        0
102
RTVSPost2010PropOp41
 70
     1
102
RTVSPost2010Prop42
 90
       50
102
RTVSPost2010PropOp42
 70
     1
102
RTVSPost2010Prop43
 90
        3
102
RTVSPost2010PropOp43
 70
     1
102
RTVSPost2010Prop44ColorIndex
 90
        5
102
RTVSPost2010Prop44ColorRGB
 90
      255
102
RTVSPost2010PropOp44
 70
     1
102
RTVSPost2010Prop45
280
     0
102
RTVSPost2010PropOp45
 70
     1
102
RTVSPost2010Prop46
 90
       50
102
RTVSPost2010PropOp46
 70
     1
102
RTVSPost2010Prop47
 90
       50
102
RTVSPost2010PropOp47
 70
     1
102
RTVSPost2010Prop48
 90
       50
102
RTVSPost2010PropOp48
 70
     1
102
RTVSPost2010Prop49
280
     0
102
RTVSPost2010PropOp49
 70
     1
102
RTVSPost2010Prop50
 90
       50
102
RTVSPost2010PropOp50
 70
     1
102
RTVSPost2010Prop51ColorIndex
 90
      256
102
RTVSPost2010Prop51ColorRGB
 90
-16777216
102
RTVSPost2010PropOp51
 70
     0
102
RTVSPost2010Prop52
140
1.0
102
RTVSPost2010PropOp52
 70
     0
102
RTVSPost2010Prop53
 90
        2
102
RTVSPost2010PropOp53
 70
     1
102
RTVSPost2010Prop54
  1
strokes_ogs.tif
102
RTVSPost2010PropOp54
 70
     1
102
RTVSPost2010Prop55
280
     0
102
RTVSPost2010PropOp55
 70
     1
102
RTVSPost2010Prop56
140
1.0
102
RTVSPost2010PropOp56
 70
     1
102
RTVSPost2010Prop57
140
1.0
102
RTVSPost2010PropOp57
 70
     1
  0
XRECORD
  5
1A7
102
{ACAD_REACTORS
330
1A6
102
}
330
1A6
100
AcDbXrecord
280
     1
102
RTVSPost2010Prop28
280
     0
102
RTVSPost2010PropOp28
 70
     1
102
RTVSPost2010Prop29
280
     1
102
RTVSPost2010PropOp29
 70
     1
102
RTVSPost2010Prop30
280
     1
102
RTVSPost2010PropOp30
 70
     1
102
RTVSPost2010Prop31
280
     0
102
RTVSPost2010PropOp31
 70
     1
102
RTVSPost2010Prop32
280
     0
102
RTVSPost2010PropOp32
 70
     1
102
RTVSPost2010Prop33
280
     0
102
RTVSPost2010PropOp33
 70
     1
102
RTVSPost2010Prop34
280
     0
102
RTVSPost2010PropOp34
 70
     1
102
RTVSPost2010Prop35
280
     0
102
RTVSPost2010PropOp35
 70
     1
102
RTVSPost2010Prop36
280
     0
102
RTVSPost2010PropOp36
 70
     1
102
RTVSPost2010Prop37
 90
       50
102
RTVSPost2010PropOp37
 70
     1
102
RTVSPost2010Prop38
140
0.0
102
RTVSPost2010PropOp38
 70
     1
102
RTVSPost2010Prop39
140
1.0
102
RTVSPost2010PropOp39
 70
     1
102
RTVSPost2010Prop40
 90
        0
102
RTVSPost2010PropOp40
 70
     1
102
RTVSPost2010Prop41ColorIndex
 90
       18
102
RTVSPost2010Prop41ColorRGB
 90
        0
102
RTVSPost2010PropOp41
 70
     1
102
RTVSPost2010Prop42
 90
       50
102
RTVSPost2010PropOp42
 70
     1
102
RTVSPost2010Prop43
 90
        3
102
RTVSPost2010PropOp43
 70
     1
102
RTVSPost2010Prop44ColorIndex
 90
        5
102
RTVSPost2010Prop44ColorRGB
 90
      255
102
RTVSPost2010PropOp44
 70
     1
102
RTVSPost2010Prop45
280
     0
102
RTVSPost2010PropOp45
 70
     1
102
RTVSPost2010Prop46
 90
       50
102
RTVSPost2010PropOp46
 70
     1
102
RTVSPost2010Prop47
 90
       50
102
RTVSPost2010PropOp47
 70
     1
102
RTVSPost2010Prop48
 90
       50
102
RTVSPost2010PropOp48
 70
     1
102
RTVSPost2010Prop49
280
     0
102
RTVSPost2010PropOp49
 70
     1
102
RTVSPost2010Prop50
 90
       50
102
RTVSPost2010PropOp50
 70
     1
102
RTVSPost2010Prop51ColorIndex
 90
      256
102
RTVSPost2010Prop51ColorRGB
 90
-16777216
102
RTVSPost2010PropOp51
 70
     0
102
RTVSPost2010Prop52
140
1.0
102
RTVSPost2010PropOp52
 70
     0
102
RTVSPost2010Prop53
 90
        2
102
RTVSPost2010PropOp53
 70
     1
102
RTVSPost2010Prop54
  1
strokes_ogs.tif
102
RTVSPost2010PropOp54
 70
     1
102
RTVSPost2010Prop55
280
     0
102
RTVSPost2010PropOp55
 70
     1
102
RTVSPost2010Prop56
140
1.0
102
RTVSPost2010PropOp56
 70
     1
102
RTVSPost2010Prop57
140
1.0
102
RTVSPost2010PropOp57
 70
     1
  0
XRECORD
  5
1AB
102
{ACAD_REACTORS
330
1AA
102
}
330
1AA
100
AcDbXrecord
280
     1
102
RTVSPost2010Prop28
280
     0
102
RTVSPost2010PropOp28
 70
     1
102
RTVSPost2010Prop29
280
     1
102
RTVSPost2010PropOp29
 70
     1
102
RTVSPost2010Prop30
280
     1
102
RTVSPost2010PropOp30
 70
     1
102
RTVSPost2010Prop31
280
     0
102
RTVSPost2010PropOp31
 70
     1
102
RTVSPost2010Prop32
280
     0
102
RTVSPost2010PropOp32
 70
     1
102
RTVSPost2010Prop33
280
     0
102
RTVSPost2010PropOp33
 70
     1
102
RTVSPost2010Prop34
280
     0
102
RTVSPost2010PropOp34
 70
     1
102
RTVSPost2010Prop35
280
     0
102
RTVSPost2010PropOp35
 70
     1
102
RTVSPost2010Prop36
280
     0
102
RTVSPost2010PropOp36
 70
     1
102
RTVSPost2010Prop37
 90
       50
102
RTVSPost2010PropOp37
 70
     1
102
RTVSPost2010Prop38
140
0.0
102
RTVSPost2010PropOp38
 70
     1
102
RTVSPost2010Prop39
140
1.0
102
RTVSPost2010PropOp39
 70
     1
102
RTVSPost2010Prop40
 90
        0
102
RTVSPost2010PropOp40
 70
     1
102
RTVSPost2010Prop41ColorIndex
 90
       18
102
RTVSPost2010Prop41ColorRGB
 90
        0
102
RTVSPost2010PropOp41
 70
     1
102
RTVSPost2010Prop42
 90
       50
102
RTVSPost2010PropOp42
 70
     1
102
RTVSPost2010Prop43
 90
        3
102
RTVSPost2010PropOp43
 70
     1
102
RTVSPost2010Prop44ColorIndex
 90
        5
102
RTVSPost2010Prop44ColorRGB
 90
      255
102
RTVSPost2010PropOp44
 70
     1
102
RTVSPost2010Prop45
280
     0
102
RTVSPost2010PropOp45
 70
     1
102
RTVSPost2010Prop46
 90
       50
102
RTVSPost2010PropOp46
 70
     1
102
RTVSPost2010Prop47
 90
       50
102
RTVSPost2010PropOp47
 70
     1
102
RTVSPost2010Prop48
 90
       50
102
RTVSPost2010PropOp48
 70
     1
102
RTVSPost2010Prop49
280
     0
102
RTVSPost2010PropOp49
 70
     1
102
RTVSPost2010Prop50
 90
       50
102
RTVSPost2010PropOp50
 70
     1
102
RTVSPost2010Prop51ColorIndex
 90
      256
102
RTVSPost2010Prop51ColorRGB
 90
-16777216
102
RTVSPost2010PropOp51
 70
     0
102
RTVSPost2010Prop52
140
1.0
102
RTVSPost2010PropOp52
 70
     0
102
RTVSPost2010Prop53
 90
        2
102
RTVSPost2010PropOp53
 70
     1
102
RTVSPost2010Prop54
  1
strokes_ogs.tif
102
RTVSPost2010PropOp54
 70
     1
102
RTVSPost2010Prop55
280
     0
102
RTVSPost2010PropOp55
 70
     1
102
RTVSPost2010Prop56
140
1.0
102
RTVSPost2010PropOp56
 70
     1
102
RTVSPost2010Prop57
140
1.0
102
RTVSPost2010PropOp57
 70
     1
  0
XRECORD
  5
1C5
102
{ACAD_REACTORS
330
1C4
102
}
330
1C4
100
AcDbXrecord
280
     1
102
RTVSPost2010Prop28
280
     0
102
RTVSPost2010PropOp28
 70
     0
102
RTVSPost2010Prop29
280
     1
102
RTVSPost2010PropOp29
 70
     0
102
RTVSPost2010Prop30
280
     1
102
RTVSPost2010PropOp30
 70
     0
102
RTVSPost2010Prop31
280
     0
102
RTVSPost2010PropOp31
 70
     0
102
RTVSPost2010Prop32
280
     0
102
RTVSPost2010PropOp32
 70
     0
102
RTVSPost2010Prop33
280
     0
102
RTVSPost2010PropOp33
 70
     0
102
RTVSPost2010Prop34
280
     0
102
RTVSPost2010PropOp34
 70
     0
102
RTVSPost2010Prop35
280
     0
102
RTVSPost2010PropOp35
 70
     0
102
RTVSPost2010Prop36
280
     0
102
RTVSPost2010PropOp36
 70
     0
102
RTVSPost2010Prop37
 90
       50
102
RTVSPost2010PropOp37
 70
     0
102
RTVSPost2010Prop38
140
0.0
102
RTVSPost2010PropOp38
 70
     0
102
RTVSPost2010Prop39
140
1.0
102
RTVSPost2010PropOp39
 70
     0
102
RTVSPost2010Prop40
 90
        0
102
RTVSPost2010PropOp40
 70
     0
102
RTVSPost2010Prop41ColorIndex
 90
       18
102
RTVSPost2010Prop41ColorRGB
 90
        0
102
RTVSPost2010PropOp41
 70
     0
102
RTVSPost2010Prop42
 90
       50
102
RTVSPost2010PropOp42
 70
     0
102
RTVSPost2010Prop43
 90
        3
102
RTVSPost2010PropOp43
 70
     0
102
RTVSPost2010Prop44ColorIndex
 90
        5
102
RTVSPost2010Prop44ColorRGB
 90
      255
102
RTVSPost2010PropOp44
 70
     0
102
RTVSPost2010Prop45
280
     0
102
RTVSPost2010PropOp45
 70
     0
102
RTVSPost2010Prop46
 90
       50
102
RTVSPost2010PropOp46
 70
     0
102
RTVSPost2010Prop47
 90
       50
102
RTVSPost2010PropOp47
 70
     0
102
RTVSPost2010Prop48
 90
       50
102
RTVSPost2010PropOp48
 70
     0
102
RTVSPost2010Prop49
280
     0
102
RTVSPost2010PropOp49
 70
     0
102
RTVSPost2010Prop50
 90
       50
102
RTVSPost2010PropOp50
 70
     0
102
RTVSPost2010Prop51ColorIndex
 90
      256
102
RTVSPost2010Prop51ColorRGB
 90
-16777216
102
RTVSPost2010PropOp51
 70
     0
102
RTVSPost2010Prop52
140
1.0
102
RTVSPost2010PropOp52
 70
     0
102
RTVSPost2010Prop53
 90
        2
102
RTVSPost2010PropOp53
 70
     0
102
RTVSPost2010Prop54
  1
strokes_ogs.tif
102
RTVSPost2010PropOp54
 70
     0
102
RTVSPost2010Prop55
280
     0
102
RTVSPost2010PropOp55
 70
     0
102
RTVSPost2010Prop56
140
1.0
102
RTVSPost2010PropOp56
 70
     0
102
RTVSPost2010Prop57
140
1.0
102
RTVSPost2010PropOp57
 70
     0
  0
XRECORD
  5
1B3
102
{ACAD_REACTORS
330
1B2
102
}
330
1B2
100
AcDbXrecord
280
     1
102
RTVSPost2010Prop28
280
     0
102
RTVSPost2010PropOp28
 70
     1
102
RTVSPost2010Prop29
280
     1
102
RTVSPost2010PropOp29
 70
     1
102
RTVSPost2010Prop30
280
     1
102
RTVSPost2010PropOp30
 70
     1
102
RTVSPost2010Prop31
280
     0
102
RTVSPost2010PropOp31
 70
     1
102
RTVSPost2010Prop32
280
     0
102
RTVSPost2010PropOp32
 70
     1
102
RTVSPost2010Prop33
280
     0
102
RTVSPost2010PropOp33
 70
     1
102
RTVSPost2010Prop34
280
     0
102
RTVSPost2010PropOp34
 70
     1
102
RTVSPost2010Prop35
280
     0
102
RTVSPost2010PropOp35
 70
     1
102
RTVSPost2010Prop36
280
     0
102
RTVSPost2010PropOp36
 70
     1
102
RTVSPost2010Prop37
 90
       50
102
RTVSPost2010PropOp37
 70
     1
102
RTVSPost2010Prop38
140
0.0
102
RTVSPost2010PropOp38
 70
     1
102
RTVSPost2010Prop39
140
1.0
102
RTVSPost2010PropOp39
 70
     1
102
RTVSPost2010Prop40
 90
        0
102
RTVSPost2010PropOp40
 70
     1
102
RTVSPost2010Prop41ColorIndex
 90
       18
102
RTVSPost2010Prop41ColorRGB
 90
        0
102
RTVSPost2010PropOp41
 70
     1
102
RTVSPost2010Prop42
 90
       50
102
RTVSPost2010PropOp42
 70
     1
102
RTVSPost2010Prop43
 90
        3
102
RTVSPost2010PropOp43
 70
     1
102
RTVSPost2010Prop44ColorIndex
 90
        5
102
RTVSPost2010Prop44ColorRGB
 90
      255
102
RTVSPost2010PropOp44
 70
     1
102
RTVSPost2010Prop45
280
     0
102
RTVSPost2010PropOp45
 70
     1
102
RTVSPost2010Prop46
 90
       50
102
RTVSPost2010PropOp46
 70
     1
102
RTVSPost2010Prop47
 90
       50
102
RTVSPost2010PropOp47
 70
     1
102
RTVSPost2010Prop48
 90
       50
102
RTVSPost2010PropOp48
 70
     1
102
RTVSPost2010Prop49
280
     0
102
RTVSPost2010PropOp49
 70
     1
102
RTVSPost2010Prop50
 90
       50
102
RTVSPost2010PropOp50
 70
     1
102
RTVSPost2010Prop51ColorIndex
 90
      256
102
RTVSPost2010Prop51ColorRGB
 90
-16777216
102
RTVSPost2010PropOp51
 70
     0
102
RTVSPost2010Prop52
140
1.0
102
RTVSPost2010PropOp52
 70
     0
102
RTVSPost2010Prop53
 90
        2
102
RTVSPost2010PropOp53
 70
     1
102
RTVSPost2010Prop54
  1
strokes_ogs.tif
102
RTVSPost2010PropOp54
 70
     1
102
RTVSPost2010Prop55
280
     0
102
RTVSPost2010PropOp55
 70
     1
102
RTVSPost2010Prop56
140
1.0
102
RTVSPost2010PropOp56
 70
     1
102
RTVSPost2010Prop57
140
1.0
102
RTVSPost2010PropOp57
 70
     1
  0
XRECORD
  5
197
102
{ACAD_REACTORS
330
196
102
}
330
196
100
AcDbXrecord
280
     1
102
RTVSPost2010Prop28
280
     0
102
RTVSPost2010PropOp28
 70
     1
102
RTVSPost2010Prop29
280
     1
102
RTVSPost2010PropOp29
 70
     1
102
RTVSPost2010Prop30
280
     1
102
RTVSPost2010PropOp30
 70
     1
102
RTVSPost2010Prop31
280
     0
102
RTVSPost2010PropOp31
 70
     1
102
RTVSPost2010Prop32
280
     0
102
RTVSPost2010PropOp32
 70
     1
102
RTVSPost2010Prop33
280
     0
102
RTVSPost2010PropOp33
 70
     1
102
RTVSPost2010Prop34
280
     0
102
RTVSPost2010PropOp34
 70
     1
102
RTVSPost2010Prop35
280
     0
102
RTVSPost2010PropOp35
 70
     1
102
RTVSPost2010Prop36
280
     0
102
RTVSPost2010PropOp36
 70
     1
102
RTVSPost2010Prop37
 90
       50
102
RTVSPost2010PropOp37
 70
     1
102
RTVSPost2010Prop38
140
0.0
102
RTVSPost2010PropOp38
 70
     1
102
RTVSPost2010Prop39
140
1.0
102
RTVSPost2010PropOp39
 70
     1
102
RTVSPost2010Prop40
 90
        0
102
RTVSPost2010PropOp40
 70
     1
102
RTVSPost2010Prop41ColorIndex
 90
       18
102
RTVSPost2010Prop41ColorRGB
 90
        0
102
RTVSPost2010PropOp41
 70
     1
102
RTVSPost2010Prop42
 90
       50
102
RTVSPost2010PropOp42
 70
     1
102
RTVSPost2010Prop43
 90
        3
102
RTVSPost2010PropOp43
 70
     1
102
RTVSPost2010Prop44ColorIndex
 90
        5
102
RTVSPost2010Prop44ColorRGB
 90
      255
102
RTVSPost2010PropOp44
 70
     1
102
RTVSPost2010Prop45
280
     0
102
RTVSPost2010PropOp45
 70
     1
102
RTVSPost2010Prop46
 90
       50
102
RTVSPost2010PropOp46
 70
     1
102
RTVSPost2010Prop47
 90
       50
102
RTVSPost2010PropOp47
 70
     1
102
RTVSPost2010Prop48
 90
       50
102
RTVSPost2010PropOp48
 70
     1
102
RTVSPost2010Prop49
280
     0
102
RTVSPost2010PropOp49
 70
     1
102
RTVSPost2010Prop50
 90
       50
102
RTVSPost2010PropOp50
 70
     1
102
RTVSPost2010Prop51ColorIndex
 90
      256
102
RTVSPost2010Prop51ColorRGB
 90
-16777216
102
RTVSPost2010PropOp51
 70
     0
102
RTVSPost2010Prop52
140
1.0
102
RTVSPost2010PropOp52
 70
     0
102
RTVSPost2010Prop53
 90
        2
102
RTVSPost2010PropOp53
 70
     1
102
RTVSPost2010Prop54
  1
strokes_ogs.tif
102
RTVSPost2010PropOp54
 70
     1
102
RTVSPost2010Prop55
280
     0
102
RTVSPost2010PropOp55
 70
     1
102
RTVSPost2010Prop56
140
1.0
102
RTVSPost2010PropOp56
 70
     1
102
RTVSPost2010Prop57
140
1.0
102
RTVSPost2010PropOp57
 70
     1
  0
XRECORD
  5
199
102
{ACAD_REACTORS
330
198
102
}
330
198
100
AcDbXrecord
280
     1
102
RTVSPost2010Prop28
280
     0
102
RTVSPost2010PropOp28
 70
     1
102
RTVSPost2010Prop29
280
     1
102
RTVSPost2010PropOp29
 70
     1
102
RTVSPost2010Prop30
280
     1
102
RTVSPost2010PropOp30
 70
     1
102
RTVSPost2010Prop31
280
     0
102
RTVSPost2010PropOp31
 70
     1
102
RTVSPost2010Prop32
280
     0
102
RTVSPost2010PropOp32
 70
     1
102
RTVSPost2010Prop33
280
     0
102
RTVSPost2010PropOp33
 70
     1
102
RTVSPost2010Prop34
280
     0
102
RTVSPost2010PropOp34
 70
     1
102
RTVSPost2010Prop35
280
     0
102
RTVSPost2010PropOp35
 70
     1
102
RTVSPost2010Prop36
280
     0
102
RTVSPost2010PropOp36
 70
     1
102
RTVSPost2010Prop37
 90
       50
102
RTVSPost2010PropOp37
 70
     1
102
RTVSPost2010Prop38
140
0.0
102
RTVSPost2010PropOp38
 70
     1
102
RTVSPost2010Prop39
140
1.0
102
RTVSPost2010PropOp39
 70
     1
102
RTVSPost2010Prop40
 90
        0
102
RTVSPost2010PropOp40
 70
     1
102
RTVSPost2010Prop41ColorIndex
 90
       18
102
RTVSPost2010Prop41ColorRGB
 90
        0
102
RTVSPost2010PropOp41
 70
     1
102
RTVSPost2010Prop42
 90
       50
102
RTVSPost2010PropOp42
 70
     1
102
RTVSPost2010Prop43
 90
        3
102
RTVSPost2010PropOp43
 70
     1
102
RTVSPost2010Prop44ColorIndex
 90
        5
102
RTVSPost2010Prop44ColorRGB
 90
      255
102
RTVSPost2010PropOp44
 70
     1
102
RTVSPost2010Prop45
280
     0
102
RTVSPost2010PropOp45
 70
     1
102
RTVSPost2010Prop46
 90
       50
102
RTVSPost2010PropOp46
 70
     1
102
RTVSPost2010Prop47
 90
       50
102
RTVSPost2010PropOp47
 70
     1
102
RTVSPost2010Prop48
 90
       50
102
RTVSPost2010PropOp48
 70
     1
102
RTVSPost2010Prop49
280
     0
102
RTVSPost2010PropOp49
 70
     1
102
RTVSPost2010Prop50
 90
       50
102
RTVSPost2010PropOp50
 70
     1
102
RTVSPost2010Prop51ColorIndex
 90
      256
102
RTVSPost2010Prop51ColorRGB
 90
-16777216
102
RTVSPost2010PropOp51
 70
     0
102
RTVSPost2010Prop52
140
1.0
102
RTVSPost2010PropOp52
 70
     0
102
RTVSPost2010Prop53
 90
        2
102
RTVSPost2010PropOp53
 70
     1
102
RTVSPost2010Prop54
  1
strokes_ogs.tif
102
RTVSPost2010PropOp54
 70
     1
102
RTVSPost2010Prop55
280
     0
102
RTVSPost2010PropOp55
 70
     1
102
RTVSPost2010Prop56
140
1.0
102
RTVSPost2010PropOp56
 70
     1
102
RTVSPost2010Prop57
140
1.0
102
RTVSPost2010PropOp57
 70
     1
  0
XRECORD
  5
19B
102
{ACAD_REACTORS
330
19A
102
}
330
19A
100
AcDbXrecord
280
     1
102
RTVSPost2010Prop28
280
     0
102
RTVSPost2010PropOp28
 70
     1
102
RTVSPost2010Prop29
280
     1
102
RTVSPost2010PropOp29
 70
     1
102
RTVSPost2010Prop30
280
     1
102
RTVSPost2010PropOp30
 70
     1
102
RTVSPost2010Prop31
280
     0
102
RTVSPost2010PropOp31
 70
     1
102
RTVSPost2010Prop32
280
     0
102
RTVSPost2010PropOp32
 70
     1
102
RTVSPost2010Prop33
280
     0
102
RTVSPost2010PropOp33
 70
     1
102
RTVSPost2010Prop34
280
     0
102
RTVSPost2010PropOp34
 70
     1
102
RTVSPost2010Prop35
280
     0
102
RTVSPost2010PropOp35
 70
     1
102
RTVSPost2010Prop36
280
     0
102
RTVSPost2010PropOp36
 70
     1
102
RTVSPost2010Prop37
 90
       50
102
RTVSPost2010PropOp37
 70
     1
102
RTVSPost2010Prop38
140
0.0
102
RTVSPost2010PropOp38
 70
     1
102
RTVSPost2010Prop39
140
1.0
102
RTVSPost2010PropOp39
 70
     1
102
RTVSPost2010Prop40
 90
        0
102
RTVSPost2010PropOp40
 70
     1
102
RTVSPost2010Prop41ColorIndex
 90
       18
102
RTVSPost2010Prop41ColorRGB
 90
        0
102
RTVSPost2010PropOp41
 70
     1
102
RTVSPost2010Prop42
 90
       50
102
RTVSPost2010PropOp42
 70
     1
102
RTVSPost2010Prop43
 90
        3
102
RTVSPost2010PropOp43
 70
     1
102
RTVSPost2010Prop44ColorIndex
 90
        5
102
RTVSPost2010Prop44ColorRGB
 90
      255
102
RTVSPost2010PropOp44
 70
     1
102
RTVSPost2010Prop45
280
     0
102
RTVSPost2010PropOp45
 70
     1
102
RTVSPost2010Prop46
 90
       50
102
RTVSPost2010PropOp46
 70
     1
102
RTVSPost2010Prop47
 90
       50
102
RTVSPost2010PropOp47
 70
     1
102
RTVSPost2010Prop48
 90
       50
102
RTVSPost2010PropOp48
 70
     1
102
RTVSPost2010Prop49
280
     0
102
RTVSPost2010PropOp49
 70
     1
102
RTVSPost2010Prop50
 90
       50
102
RTVSPost2010PropOp50
 70
     1
102
RTVSPost2010Prop51ColorIndex
 90
      256
102
RTVSPost2010Prop51ColorRGB
 90
-16777216
102
RTVSPost2010PropOp51
 70
     0
102
RTVSPost2010Prop52
140
1.0
102
RTVSPost2010PropOp52
 70
     0
102
RTVSPost2010Prop53
 90
        2
102
RTVSPost2010PropOp53
 70
     1
102
RTVSPost2010Prop54
  1
strokes_ogs.tif
102
RTVSPost2010PropOp54
 70
     1
102
RTVSPost2010Prop55
280
     0
102
RTVSPost2010PropOp55
 70
     1
102
RTVSPost2010Prop56
140
1.0
102
RTVSPost2010PropOp56
 70
     1
102
RTVSPost2010Prop57
140
1.0
102
RTVSPost2010PropOp57
 70
     1
  0
XRECORD
  5
19D
102
{ACAD_REACTORS
330
19C
102
}
330
19C
100
AcDbXrecord
280
     1
102
RTVSPost2010Prop28
280
     0
102
RTVSPost2010PropOp28
 70
     1
102
RTVSPost2010Prop29
280
     1
102
RTVSPost2010PropOp29
 70
     1
102
RTVSPost2010Prop30
280
     1
102
RTVSPost2010PropOp30
 70
     1
102
RTVSPost2010Prop31
280
     0
102
RTVSPost2010PropOp31
 70
     1
102
RTVSPost2010Prop32
280
     0
102
RTVSPost2010PropOp32
 70
     1
102
RTVSPost2010Prop33
280
     0
102
RTVSPost2010PropOp33
 70
     1
102
RTVSPost2010Prop34
280
     0
102
RTVSPost2010PropOp34
 70
     1
102
RTVSPost2010Prop35
280
     0
102
RTVSPost2010PropOp35
 70
     1
102
RTVSPost2010Prop36
280
     0
102
RTVSPost2010PropOp36
 70
     1
102
RTVSPost2010Prop37
 90
       50
102
RTVSPost2010PropOp37
 70
     1
102
RTVSPost2010Prop38
140
0.0
102
RTVSPost2010PropOp38
 70
     1
102
RTVSPost2010Prop39
140
1.0
102
RTVSPost2010PropOp39
 70
     1
102
RTVSPost2010Prop40
 90
        0
102
RTVSPost2010PropOp40
 70
     1
102
RTVSPost2010Prop41ColorIndex
 90
       18
102
RTVSPost2010Prop41ColorRGB
 90
        0
102
RTVSPost2010PropOp41
 70
     1
102
RTVSPost2010Prop42
 90
       50
102
RTVSPost2010PropOp42
 70
     1
102
RTVSPost2010Prop43
 90
        3
102
RTVSPost2010PropOp43
 70
     1
102
RTVSPost2010Prop44ColorIndex
 90
        5
102
RTVSPost2010Prop44ColorRGB
 90
      255
102
RTVSPost2010PropOp44
 70
     1
102
RTVSPost2010Prop45
280
     0
102
RTVSPost2010PropOp45
 70
     1
102
RTVSPost2010Prop46
 90
       50
102
RTVSPost2010PropOp46
 70
     1
102
RTVSPost2010Prop47
 90
       50
102
RTVSPost2010PropOp47
 70
     1
102
RTVSPost2010Prop48
 90
       50
102
RTVSPost2010PropOp48
 70
     1
102
RTVSPost2010Prop49
280
     0
102
RTVSPost2010PropOp49
 70
     1
102
RTVSPost2010Prop50
 90
       50
102
RTVSPost2010PropOp50
 70
     1
102
RTVSPost2010Prop51ColorIndex
 90
      256
102
RTVSPost2010Prop51ColorRGB
 90
-16777216
102
RTVSPost2010PropOp51
 70
     0
102
RTVSPost2010Prop52
140
1.0
102
RTVSPost2010PropOp52
 70
     0
102
RTVSPost2010Prop53
 90
        2
102
RTVSPost2010PropOp53
 70
     1
102
RTVSPost2010Prop54
  1
strokes_ogs.tif
102
RTVSPost2010PropOp54
 70
     1
102
RTVSPost2010Prop55
280
     0
102
RTVSPost2010PropOp55
 70
     1
102
RTVSPost2010Prop56
140
1.0
102
RTVSPost2010PropOp56
 70
     1
102
RTVSPost2010Prop57
140
1.0
102
RTVSPost2010PropOp57
 70
     1
  0
XRECORD
  5
1A5
102
{ACAD_REACTORS
330
1A4
102
}
330
1A4
100
AcDbXrecord
280
     1
102
RTVSPost2010Prop28
280
     0
102
RTVSPost2010PropOp28
 70
     1
102
RTVSPost2010Prop29
280
     1
102
RTVSPost2010PropOp29
 70
     1
102
RTVSPost2010Prop30
280
     1
102
RTVSPost2010PropOp30
 70
     1
102
RTVSPost2010Prop31
280
     0
102
RTVSPost2010PropOp31
 70
     1
102
RTVSPost2010Prop32
280
     0
102
RTVSPost2010PropOp32
 70
     1
102
RTVSPost2010Prop33
280
     0
102
RTVSPost2010PropOp33
 70
     1
102
RTVSPost2010Prop34
280
     0
102
RTVSPost2010PropOp34
 70
     1
102
RTVSPost2010Prop35
280
     0
102
RTVSPost2010PropOp35
 70
     1
102
RTVSPost2010Prop36
280
     0
102
RTVSPost2010PropOp36
 70
     1
102
RTVSPost2010Prop37
 90
       50
102
RTVSPost2010PropOp37
 70
     1
102
RTVSPost2010Prop38
140
0.0
102
RTVSPost2010PropOp38
 70
     1
102
RTVSPost2010Prop39
140
1.0
102
RTVSPost2010PropOp39
 70
     1
102
RTVSPost2010Prop40
 90
        0
102
RTVSPost2010PropOp40
 70
     1
102
RTVSPost2010Prop41ColorIndex
 90
       18
102
RTVSPost2010Prop41ColorRGB
 90
        0
102
RTVSPost2010PropOp41
 70
     1
102
RTVSPost2010Prop42
 90
       50
102
RTVSPost2010PropOp42
 70
     1
102
RTVSPost2010Prop43
 90
        3
102
RTVSPost2010PropOp43
 70
     1
102
RTVSPost2010Prop44ColorIndex
 90
        5
102
RTVSPost2010Prop44ColorRGB
 90
      255
102
RTVSPost2010PropOp44
 70
     1
102
RTVSPost2010Prop45
280
     0
102
RTVSPost2010PropOp45
 70
     1
102
RTVSPost2010Prop46
 90
       50
102
RTVSPost2010PropOp46
 70
     1
102
RTVSPost2010Prop47
 90
       50
102
RTVSPost2010PropOp47
 70
     1
102
RTVSPost2010Prop48
 90
       50
102
RTVSPost2010PropOp48
 70
     1
102
RTVSPost2010Prop49
280
     0
102
RTVSPost2010PropOp49
 70
     1
102
RTVSPost2010Prop50
 90
       50
102
RTVSPost2010PropOp50
 70
     1
102
RTVSPost2010Prop51ColorIndex
 90
      256
102
RTVSPost2010Prop51ColorRGB
 90
-16777216
102
RTVSPost2010PropOp51
 70
     0
102
RTVSPost2010Prop52
140
1.0
102
RTVSPost2010PropOp52
 70
     0
102
RTVSPost2010Prop53
 90
        2
102
RTVSPost2010PropOp53
 70
     1
102
RTVSPost2010Prop54
  1
strokes_ogs.tif
102
RTVSPost2010PropOp54
 70
     1
102
RTVSPost2010Prop55
280
     0
102
RTVSPost2010PropOp55
 70
     1
102
RTVSPost2010Prop56
140
1.0
102
RTVSPost2010PropOp56
 70
     1
102
RTVSPost2010Prop57
140
1.0
102
RTVSPost2010PropOp57
 70
     1
  0
XRECORD
  5
1C1
102
{ACAD_REACTORS
330
1C0
102
}
330
1C0
100
AcDbXrecord
280
     1
102
RTVSPost2010Prop28
280
     0
102
RTVSPost2010PropOp28
 70
     0
102
RTVSPost2010Prop29
280
     1
102
RTVSPost2010PropOp29
 70
     0
102
RTVSPost2010Prop30
280
     1
102
RTVSPost2010PropOp30
 70
     0
102
RTVSPost2010Prop31
280
     0
102
RTVSPost2010PropOp31
 70
     0
102
RTVSPost2010Prop32
280
     0
102
RTVSPost2010PropOp32
 70
     0
102
RTVSPost2010Prop33
280
     0
102
RTVSPost2010PropOp33
 70
     0
102
RTVSPost2010Prop34
280
     0
102
RTVSPost2010PropOp34
 70
     0
102
RTVSPost2010Prop35
280
     0
102
RTVSPost2010PropOp35
 70
     0
102
RTVSPost2010Prop36
280
     0
102
RTVSPost2010PropOp36
 70
     0
102
RTVSPost2010Prop37
 90
       50
102
RTVSPost2010PropOp37
 70
     0
102
RTVSPost2010Prop38
140
0.0
102
RTVSPost2010PropOp38
 70
     0
102
RTVSPost2010Prop39
140
1.0
102
RTVSPost2010PropOp39
 70
     0
102
RTVSPost2010Prop40
 90
        0
102
RTVSPost2010PropOp40
 70
     0
102
RTVSPost2010Prop41ColorIndex
 90
       18
102
RTVSPost2010Prop41ColorRGB
 90
        0
102
RTVSPost2010PropOp41
 70
     0
102
RTVSPost2010Prop42
 90
       50
102
RTVSPost2010PropOp42
 70
     0
102
RTVSPost2010Prop43
 90
        3
102
RTVSPost2010PropOp43
 70
     0
102
RTVSPost2010Prop44ColorIndex
 90
        5
102
RTVSPost2010Prop44ColorRGB
 90
      255
102
RTVSPost2010PropOp44
 70
     0
102
RTVSPost2010Prop45
280
     0
102
RTVSPost2010PropOp45
 70
     0
102
RTVSPost2010Prop46
 90
       50
102
RTVSPost2010PropOp46
 70
     0
102
RTVSPost2010Prop47
 90
       50
102
RTVSPost2010PropOp47
 70
     0
102
RTVSPost2010Prop48
 90
       50
102
RTVSPost2010PropOp48
 70
     0
102
RTVSPost2010Prop49
280
     0
102
RTVSPost2010PropOp49
 70
     0
102
RTVSPost2010Prop50
 90
       50
102
RTVSPost2010PropOp50
 70
     0
102
RTVSPost2010Prop51ColorIndex
 90
      256
102
RTVSPost2010Prop51ColorRGB
 90
-16777216
102
RTVSPost2010PropOp51
 70
     0
102
RTVSPost2010Prop52
140
1.0
102
RTVSPost2010PropOp52
 70
     0
102
RTVSPost2010Prop53
 90
        2
102
RTVSPost2010PropOp53
 70
     0
102
RTVSPost2010Prop54
  1
strokes_ogs.tif
102
RTVSPost2010PropOp54
 70
     0
102
RTVSPost2010Prop55
280
     0
102
RTVSPost2010PropOp55
 70
     0
102
RTVSPost2010Prop56
140
1.0
102
RTVSPost2010PropOp56
 70
     0
102
RTVSPost2010Prop57
140
1.0
102
RTVSPost2010PropOp57
 70
     0
  0
XRECORD
  5
1B1
102
{ACAD_REACTORS
330
1B0
102
}
330
1B0
100
AcDbXrecord
280
     1
102
RTVSPost2010Prop28
280
     0
102
RTVSPost2010PropOp28
 70
     1
102
RTVSPost2010Prop29
280
     1
102
RTVSPost2010PropOp29
 70
     1
102
RTVSPost2010Prop30
280
     1
102
RTVSPost2010PropOp30
 70
     1
102
RTVSPost2010Prop31
280
     0
102
RTVSPost2010PropOp31
 70
     1
102
RTVSPost2010Prop32
280
     0
102
RTVSPost2010PropOp32
 70
     1
102
RTVSPost2010Prop33
280
     0
102
RTVSPost2010PropOp33
 70
     1
102
RTVSPost2010Prop34
280
     0
102
RTVSPost2010PropOp34
 70
     1
102
RTVSPost2010Prop35
280
     0
102
RTVSPost2010PropOp35
 70
     1
102
RTVSPost2010Prop36
280
     0
102
RTVSPost2010PropOp36
 70
     1
102
RTVSPost2010Prop37
 90
       50
102
RTVSPost2010PropOp37
 70
     1
102
RTVSPost2010Prop38
140
0.0
102
RTVSPost2010PropOp38
 70
     1
102
RTVSPost2010Prop39
140
1.0
102
RTVSPost2010PropOp39
 70
     1
102
RTVSPost2010Prop40
 90
        0
102
RTVSPost2010PropOp40
 70
     1
102
RTVSPost2010Prop41ColorIndex
 90
       18
102
RTVSPost2010Prop41ColorRGB
 90
        0
102
RTVSPost2010PropOp41
 70
     1
102
RTVSPost2010Prop42
 90
       50
102
RTVSPost2010PropOp42
 70
     1
102
RTVSPost2010Prop43
 90
        3
102
RTVSPost2010PropOp43
 70
     1
102
RTVSPost2010Prop44ColorIndex
 90
        5
102
RTVSPost2010Prop44ColorRGB
 90
      255
102
RTVSPost2010PropOp44
 70
     1
102
RTVSPost2010Prop45
280
     0
102
RTVSPost2010PropOp45
 70
     1
102
RTVSPost2010Prop46
 90
       50
102
RTVSPost2010PropOp46
 70
     1
102
RTVSPost2010Prop47
 90
       50
102
RTVSPost2010PropOp47
 70
     1
102
RTVSPost2010Prop48
 90
       50
102
RTVSPost2010PropOp48
 70
     1
102
RTVSPost2010Prop49
280
     0
102
RTVSPost2010PropOp49
 70
     1
102
RTVSPost2010Prop50
 90
       50
102
RTVSPost2010PropOp50
 70
     1
102
RTVSPost2010Prop51ColorIndex
 90
      256
102
RTVSPost2010Prop51ColorRGB
 90
-16777216
102
RTVSPost2010PropOp51
 70
     0
102
RTVSPost2010Prop52
140
1.0
102
RTVSPost2010PropOp52
 70
     0
102
RTVSPost2010Prop53
 90
        2
102
RTVSPost2010PropOp53
 70
     1
102
RTVSPost2010Prop54
  1
strokes_ogs.tif
102
RTVSPost2010PropOp54
 70
     1
102
RTVSPost2010Prop55
280
     0
102
RTVSPost2010PropOp55
 70
     1
102
RTVSPost2010Prop56
140
1.0
102
RTVSPost2010PropOp56
 70
     1
102
RTVSPost2010Prop57
140
1.0
102
RTVSPost2010PropOp57
 70
     1
  0
XRECORD
  5
1C3
102
{ACAD_REACTORS
330
1C2
102
}
330
1C2
100
AcDbXrecord
280
     1
102
RTVSPost2010Prop28
280
     0
102
RTVSPost2010PropOp28
 70
     0
102
RTVSPost2010Prop29
280
     1
102
RTVSPost2010PropOp29
 70
     0
102
RTVSPost2010Prop30
280
     1
102
RTVSPost2010PropOp30
 70
     0
102
RTVSPost2010Prop31
280
     0
102
RTVSPost2010PropOp31
 70
     0
102
RTVSPost2010Prop32
280
     0
102
RTVSPost2010PropOp32
 70
     0
102
RTVSPost2010Prop33
280
     0
102
RTVSPost2010PropOp33
 70
     0
102
RTVSPost2010Prop34
280
     0
102
RTVSPost2010PropOp34
 70
     0
102
RTVSPost2010Prop35
280
     0
102
RTVSPost2010PropOp35
 70
     0
102
RTVSPost2010Prop36
280
     0
102
RTVSPost2010PropOp36
 70
     0
102
RTVSPost2010Prop37
 90
       50
102
RTVSPost2010PropOp37
 70
     0
102
RTVSPost2010Prop38
140
0.0
102
RTVSPost2010PropOp38
 70
     0
102
RTVSPost2010Prop39
140
1.0
102
RTVSPost2010PropOp39
 70
     0
102
RTVSPost2010Prop40
 90
        0
102
RTVSPost2010PropOp40
 70
     0
102
RTVSPost2010Prop41ColorIndex
 90
       18
102
RTVSPost2010Prop41ColorRGB
 90
        0
102
RTVSPost2010PropOp41
 70
     0
102
RTVSPost2010Prop42
 90
       50
102
RTVSPost2010PropOp42
 70
     0
102
RTVSPost2010Prop43
 90
        3
102
RTVSPost2010PropOp43
 70
     0
102
RTVSPost2010Prop44ColorIndex
 90
        5
102
RTVSPost2010Prop44ColorRGB
 90
      255
102
RTVSPost2010PropOp44
 70
     0
102
RTVSPost2010Prop45
280
     0
102
RTVSPost2010PropOp45
 70
     0
102
RTVSPost2010Prop46
 90
       50
102
RTVSPost2010PropOp46
 70
     0
102
RTVSPost2010Prop47
 90
       50
102
RTVSPost2010PropOp47
 70
     0
102
RTVSPost2010Prop48
 90
       50
102
RTVSPost2010PropOp48
 70
     0
102
RTVSPost2010Prop49
280
     0
102
RTVSPost2010PropOp49
 70
     0
102
RTVSPost2010Prop50
 90
       50
102
RTVSPost2010PropOp50
 70
     0
102
RTVSPost2010Prop51ColorIndex
 90
      256
102
RTVSPost2010Prop51ColorRGB
 90
-16777216
102
RTVSPost2010PropOp51
 70
     0
102
RTVSPost2010Prop52
140
1.0
102
RTVSPost2010PropOp52
 70
     0
102
RTVSPost2010Prop53
 90
        2
102
RTVSPost2010PropOp53
 70
     0
102
RTVSPost2010Prop54
  1
strokes_ogs.tif
102
RTVSPost2010PropOp54
 70
     0
102
RTVSPost2010Prop55
280
     0
102
RTVSPost2010PropOp55
 70
     0
102
RTVSPost2010Prop56
140
1.0
102
RTVSPost2010PropOp56
 70
     0
102
RTVSPost2010Prop57
140
1.0
102
RTVSPost2010PropOp57
 70
     0
  0
XRECORD
  5
1A9
102
{ACAD_REACTORS
330
1A8
102
}
330
1A8
100
AcDbXrecord
280
     1
102
RTVSPost2010Prop28
280
     0
102
RTVSPost2010PropOp28
 70
     1
102
RTVSPost2010Prop29
280
     1
102
RTVSPost2010PropOp29
 70
     1
102
RTVSPost2010Prop30
280
     1
102
RTVSPost2010PropOp30
 70
     1
102
RTVSPost2010Prop31
280
     0
102
RTVSPost2010PropOp31
 70
     1
102
RTVSPost2010Prop32
280
     0
102
RTVSPost2010PropOp32
 70
     1
102
RTVSPost2010Prop33
280
     0
102
RTVSPost2010PropOp33
 70
     1
102
RTVSPost2010Prop34
280
     0
102
RTVSPost2010PropOp34
 70
     1
102
RTVSPost2010Prop35
280
     0
102
RTVSPost2010PropOp35
 70
     1
102
RTVSPost2010Prop36
280
     0
102
RTVSPost2010PropOp36
 70
     1
102
RTVSPost2010Prop37
 90
       50
102
RTVSPost2010PropOp37
 70
     1
102
RTVSPost2010Prop38
140
0.0
102
RTVSPost2010PropOp38
 70
     1
102
RTVSPost2010Prop39
140
1.0
102
RTVSPost2010PropOp39
 70
     1
102
RTVSPost2010Prop40
 90
        0
102
RTVSPost2010PropOp40
 70
     1
102
RTVSPost2010Prop41ColorIndex
 90
       18
102
RTVSPost2010Prop41ColorRGB
 90
        0
102
RTVSPost2010PropOp41
 70
     1
102
RTVSPost2010Prop42
 90
       50
102
RTVSPost2010PropOp42
 70
     1
102
RTVSPost2010Prop43
 90
        3
102
RTVSPost2010PropOp43
 70
     1
102
RTVSPost2010Prop44ColorIndex
 90
        5
102
RTVSPost2010Prop44ColorRGB
 90
      255
102
RTVSPost2010PropOp44
 70
     1
102
RTVSPost2010Prop45
280
     0
102
RTVSPost2010PropOp45
 70
     1
102
RTVSPost2010Prop46
 90
       50
102
RTVSPost2010PropOp46
 70
     1
102
RTVSPost2010Prop47
 90
       50
102
RTVSPost2010PropOp47
 70
     1
102
RTVSPost2010Prop48
 90
       50
102
RTVSPost2010PropOp48
 70
     1
102
RTVSPost2010Prop49
280
     0
102
RTVSPost2010PropOp49
 70
     1
102
RTVSPost2010Prop50
 90
       50
102
RTVSPost2010PropOp50
 70
     1
102
RTVSPost2010Prop51ColorIndex
 90
      256
102
RTVSPost2010Prop51ColorRGB
 90
-16777216
102
RTVSPost2010PropOp51
 70
     0
102
RTVSPost2010Prop52
140
1.0
102
RTVSPost2010PropOp52
 70
     0
102
RTVSPost2010Prop53
 90
        2
102
RTVSPost2010PropOp53
 70
     1
102
RTVSPost2010Prop54
  1
strokes_ogs.tif
102
RTVSPost2010PropOp54
 70
     1
102
RTVSPost2010Prop55
280
     0
102
RTVSPost2010PropOp55
 70
     1
102
RTVSPost2010Prop56
140
1.0
102
RTVSPost2010PropOp56
 70
     1
102
RTVSPost2010Prop57
140
1.0
102
RTVSPost2010PropOp57
 70
     1
  0
XRECORD
  5
1BF
102
{ACAD_REACTORS
330
1BE
102
}
330
1BE
100
AcDbXrecord
280
     1
102
RTVSPost2010Prop28
280
     0
102
RTVSPost2010PropOp28
 70
     1
102
RTVSPost2010Prop29
280
     1
102
RTVSPost2010PropOp29
 70
     1
102
RTVSPost2010Prop30
280
     1
102
RTVSPost2010PropOp30
 70
     1
102
RTVSPost2010Prop31
280
     0
102
RTVSPost2010PropOp31
 70
     1
102
RTVSPost2010Prop32
280
     0
102
RTVSPost2010PropOp32
 70
     1
102
RTVSPost2010Prop33
280
     0
102
RTVSPost2010PropOp33
 70
     1
102
RTVSPost2010Prop34
280
     0
102
RTVSPost2010PropOp34
 70
     1
102
RTVSPost2010Prop35
280
     0
102
RTVSPost2010PropOp35
 70
     1
102
RTVSPost2010Prop36
280
     0
102
RTVSPost2010PropOp36
 70
     1
102
RTVSPost2010Prop37
 90
       50
102
RTVSPost2010PropOp37
 70
     1
102
RTVSPost2010Prop38
140
0.0
102
RTVSPost2010PropOp38
 70
     1
102
RTVSPost2010Prop39
140
1.0
102
RTVSPost2010PropOp39
 70
     1
102
RTVSPost2010Prop40
 90
        0
102
RTVSPost2010PropOp40
 70
     1
102
RTVSPost2010Prop41ColorIndex
 90
       18
102
RTVSPost2010Prop41ColorRGB
 90
        0
102
RTVSPost2010PropOp41
 70
     1
102
RTVSPost2010Prop42
 90
       50
102
RTVSPost2010PropOp42
 70
     1
102
RTVSPost2010Prop43
 90
        3
102
RTVSPost2010PropOp43
 70
     1
102
RTVSPost2010Prop44ColorIndex
 90
        5
102
RTVSPost2010Prop44ColorRGB
 90
      255
102
RTVSPost2010PropOp44
 70
     1
102
RTVSPost2010Prop45
280
     0
102
RTVSPost2010PropOp45
 70
     1
102
RTVSPost2010Prop46
 90
       50
102
RTVSPost2010PropOp46
 70
     1
102
RTVSPost2010Prop47
 90
       50
102
RTVSPost2010PropOp47
 70
     1
102
RTVSPost2010Prop48
 90
       50
102
RTVSPost2010PropOp48
 70
     1
102
RTVSPost2010Prop49
280
     0
102
RTVSPost2010PropOp49
 70
     1
102
RTVSPost2010Prop50
 90
       50
102
RTVSPost2010PropOp50
 70
     1
102
RTVSPost2010Prop51ColorIndex
 90
      256
102
RTVSPost2010Prop51ColorRGB
 90
-16777216
102
RTVSPost2010PropOp51
 70
     0
102
RTVSPost2010Prop52
140
1.0
102
RTVSPost2010PropOp52
 70
     0
102
RTVSPost2010Prop53
 90
        2
102
RTVSPost2010PropOp53
 70
     1
102
RTVSPost2010Prop54
  1
strokes_ogs.tif
102
RTVSPost2010PropOp54
 70
     1
102
RTVSPost2010Prop55
280
     0
102
RTVSPost2010PropOp55
 70
     1
102
RTVSPost2010Prop56
140
1.0
102
RTVSPost2010PropOp56
 70
     1
102
RTVSPost2010Prop57
140
1.0
102
RTVSPost2010PropOp57
 70
     1
  0
XRECORD
  5
1BD
102
{ACAD_REACTORS
330
1BC
102
}
330
1BC
100
AcDbXrecord
280
     1
102
RTVSPost2010Prop28
280
     0
102
RTVSPost2010PropOp28
 70
     1
102
RTVSPost2010Prop29
280
     1
102
RTVSPost2010PropOp29
 70
     1
102
RTVSPost2010Prop30
280
     1
102
RTVSPost2010PropOp30
 70
     1
102
RTVSPost2010Prop31
280
     0
102
RTVSPost2010PropOp31
 70
     1
102
RTVSPost2010Prop32
280
     0
102
RTVSPost2010PropOp32
 70
     1
102
RTVSPost2010Prop33
280
     0
102
RTVSPost2010PropOp33
 70
     1
102
RTVSPost2010Prop34
280
     0
102
RTVSPost2010PropOp34
 70
     1
102
RTVSPost2010Prop35
280
     0
102
RTVSPost2010PropOp35
 70
     1
102
RTVSPost2010Prop36
280
     0
102
RTVSPost2010PropOp36
 70
     1
102
RTVSPost2010Prop37
 90
       50
102
RTVSPost2010PropOp37
 70
     1
102
RTVSPost2010Prop38
140
0.0
102
RTVSPost2010PropOp38
 70
     1
102
RTVSPost2010Prop39
140
1.0
102
RTVSPost2010PropOp39
 70
     1
102
RTVSPost2010Prop40
 90
        0
102
RTVSPost2010PropOp40
 70
     1
102
RTVSPost2010Prop41ColorIndex
 90
       18
102
RTVSPost2010Prop41ColorRGB
 90
        0
102
RTVSPost2010PropOp41
 70
     1
102
RTVSPost2010Prop42
 90
       50
102
RTVSPost2010PropOp42
 70
     1
102
RTVSPost2010Prop43
 90
        3
102
RTVSPost2010PropOp43
 70
     1
102
RTVSPost2010Prop44ColorIndex
 90
        5
102
RTVSPost2010Prop44ColorRGB
 90
      255
102
RTVSPost2010PropOp44
 70
     1
102
RTVSPost2010Prop45
280
     0
102
RTVSPost2010PropOp45
 70
     1
102
RTVSPost2010Prop46
 90
       50
102
RTVSPost2010PropOp46
 70
     1
102
RTVSPost2010Prop47
 90
       50
102
RTVSPost2010PropOp47
 70
     1
102
RTVSPost2010Prop48
 90
       50
102
RTVSPost2010PropOp48
 70
     1
102
RTVSPost2010Prop49
280
     0
102
RTVSPost2010PropOp49
 70
     1
102
RTVSPost2010Prop50
 90
       50
102
RTVSPost2010PropOp50
 70
     1
102
RTVSPost2010Prop51ColorIndex
 90
      256
102
RTVSPost2010Prop51ColorRGB
 90
-16777216
102
RTVSPost2010PropOp51
 70
     0
102
RTVSPost2010Prop52
140
1.0
102
RTVSPost2010PropOp52
 70
     0
102
RTVSPost2010Prop53
 90
        2
102
RTVSPost2010PropOp53
 70
     1
102
RTVSPost2010Prop54
  1
strokes_ogs.tif
102
RTVSPost2010PropOp54
 70
     1
102
RTVSPost2010Prop55
280
     0
102
RTVSPost2010PropOp55
 70
     1
102
RTVSPost2010Prop56
140
1.0
102
RTVSPost2010PropOp56
 70
     1
102
RTVSPost2010Prop57
140
1.0
102
RTVSPost2010PropOp57
 70
     1
  0
XRECORD
  5
1B7
102
{ACAD_REACTORS
330
1B6
102
}
330
1B6
100
AcDbXrecord
280
     1
102
RTVSPost2010Prop28
280
     0
102
RTVSPost2010PropOp28
 70
     1
102
RTVSPost2010Prop29
280
     1
102
RTVSPost2010PropOp29
 70
     1
102
RTVSPost2010Prop30
280
     1
102
RTVSPost2010PropOp30
 70
     1
102
RTVSPost2010Prop31
280
     0
102
RTVSPost2010PropOp31
 70
     1
102
RTVSPost2010Prop32
280
     0
102
RTVSPost2010PropOp32
 70
     1
102
RTVSPost2010Prop33
280
     0
102
RTVSPost2010PropOp33
 70
     1
102
RTVSPost2010Prop34
280
     0
102
RTVSPost2010PropOp34
 70
     1
102
RTVSPost2010Prop35
280
     0
102
RTVSPost2010PropOp35
 70
     1
102
RTVSPost2010Prop36
280
     0
102
RTVSPost2010PropOp36
 70
     1
102
RTVSPost2010Prop37
 90
       50
102
RTVSPost2010PropOp37
 70
     1
102
RTVSPost2010Prop38
140
0.0
102
RTVSPost2010PropOp38
 70
     1
102
RTVSPost2010Prop39
140
1.0
102
RTVSPost2010PropOp39
 70
     1
102
RTVSPost2010Prop40
 90
        0
102
RTVSPost2010PropOp40
 70
     1
102
RTVSPost2010Prop41ColorIndex
 90
       18
102
RTVSPost2010Prop41ColorRGB
 90
        0
102
RTVSPost2010PropOp41
 70
     1
102
RTVSPost2010Prop42
 90
       50
102
RTVSPost2010PropOp42
 70
     1
102
RTVSPost2010Prop43
 90
        3
102
RTVSPost2010PropOp43
 70
     1
102
RTVSPost2010Prop44ColorIndex
 90
        5
102
RTVSPost2010Prop44ColorRGB
 90
      255
102
RTVSPost2010PropOp44
 70
     1
102
RTVSPost2010Prop45
280
     0
102
RTVSPost2010PropOp45
 70
     1
102
RTVSPost2010Prop46
 90
       50
102
RTVSPost2010PropOp46
 70
     1
102
RTVSPost2010Prop47
 90
       50
102
RTVSPost2010PropOp47
 70
     1
102
RTVSPost2010Prop48
 90
       50
102
RTVSPost2010PropOp48
 70
     1
102
RTVSPost2010Prop49
280
     0
102
RTVSPost2010PropOp49
 70
     1
102
RTVSPost2010Prop50
 90
       50
102
RTVSPost2010PropOp50
 70
     1
102
RTVSPost2010Prop51ColorIndex
 90
      256
102
RTVSPost2010Prop51ColorRGB
 90
-16777216
102
RTVSPost2010PropOp51
 70
     0
102
RTVSPost2010Prop52
140
1.0
102
RTVSPost2010PropOp52
 70
     0
102
RTVSPost2010Prop53
 90
        2
102
RTVSPost2010PropOp53
 70
     1
102
RTVSPost2010Prop54
  1
strokes_ogs.tif
102
RTVSPost2010PropOp54
 70
     1
102
RTVSPost2010Prop55
280
     0
102
RTVSPost2010PropOp55
 70
     1
102
RTVSPost2010Prop56
140
1.0
102
RTVSPost2010PropOp56
 70
     1
102
RTVSPost2010Prop57
140
1.0
102
RTVSPost2010PropOp57
 70
     1
  0
XRECORD
  5
1B9
102
{ACAD_REACTORS
330
1B8
102
}
330
1B8
100
AcDbXrecord
280
     1
102
RTVSPost2010Prop28
280
     0
102
RTVSPost2010PropOp28
 70
     1
102
RTVSPost2010Prop29
280
     1
102
RTVSPost2010PropOp29
 70
     1
102
RTVSPost2010Prop30
280
     1
102
RTVSPost2010PropOp30
 70
     1
102
RTVSPost2010Prop31
280
     0
102
RTVSPost2010PropOp31
 70
     1
102
RTVSPost2010Prop32
280
     0
102
RTVSPost2010PropOp32
 70
     1
102
RTVSPost2010Prop33
280
     0
102
RTVSPost2010PropOp33
 70
     1
102
RTVSPost2010Prop34
280
     0
102
RTVSPost2010PropOp34
 70
     1
102
RTVSPost2010Prop35
280
     0
102
RTVSPost2010PropOp35
 70
     1
102
RTVSPost2010Prop36
280
     0
102
RTVSPost2010PropOp36
 70
     1
102
RTVSPost2010Prop37
 90
       50
102
RTVSPost2010PropOp37
 70
     1
102
RTVSPost2010Prop38
140
0.0
102
RTVSPost2010PropOp38
 70
     1
102
RTVSPost2010Prop39
140
1.0
102
RTVSPost2010PropOp39
 70
     1
102
RTVSPost2010Prop40
 90
        0
102
RTVSPost2010PropOp40
 70
     1
102
RTVSPost2010Prop41ColorIndex
 90
       18
102
RTVSPost2010Prop41ColorRGB
 90
        0
102
RTVSPost2010PropOp41
 70
     1
102
RTVSPost2010Prop42
 90
       50
102
RTVSPost2010PropOp42
 70
     1
102
RTVSPost2010Prop43
 90
        3
102
RTVSPost2010PropOp43
 70
     1
102
RTVSPost2010Prop44ColorIndex
 90
        5
102
RTVSPost2010Prop44ColorRGB
 90
      255
102
RTVSPost2010PropOp44
 70
     1
102
RTVSPost2010Prop45
280
     0
102
RTVSPost2010PropOp45
 70
     1
102
RTVSPost2010Prop46
 90
       50
102
RTVSPost2010PropOp46
 70
     1
102
RTVSPost2010Prop47
 90
       50
102
RTVSPost2010PropOp47
 70
     1
102
RTVSPost2010Prop48
 90
       50
102
RTVSPost2010PropOp48
 70
     1
102
RTVSPost2010Prop49
280
     0
102
RTVSPost2010PropOp49
 70
     1
102
RTVSPost2010Prop50
 90
       50
102
RTVSPost2010PropOp50
 70
     1
102
RTVSPost2010Prop51ColorIndex
 90
      256
102
RTVSPost2010Prop51ColorRGB
 90
-16777216
102
RTVSPost2010PropOp51
 70
     0
102
RTVSPost2010Prop52
140
1.0
102
RTVSPost2010PropOp52
 70
     0
102
RTVSPost2010Prop53
 90
        2
102
RTVSPost2010PropOp53
 70
     1
102
RTVSPost2010Prop54
  1
strokes_ogs.tif
102
RTVSPost2010PropOp54
 70
     1
102
RTVSPost2010Prop55
280
     0
102
RTVSPost2010PropOp55
 70
     1
102
RTVSPost2010Prop56
140
1.0
102
RTVSPost2010PropOp56
 70
     1
102
RTVSPost2010Prop57
140
1.0
102
RTVSPost2010PropOp57
 70
     1
  0
XRECORD
  5
1AF
102
{ACAD_REACTORS
330
1AE
102
}
330
1AE
100
AcDbXrecord
280
     1
102
RTVSPost2010Prop28
280
     0
102
RTVSPost2010PropOp28
 70
     1
102
RTVSPost2010Prop29
280
     1
102
RTVSPost2010PropOp29
 70
     1
102
RTVSPost2010Prop30
280
     1
102
RTVSPost2010PropOp30
 70
     1
102
RTVSPost2010Prop31
280
     0
102
RTVSPost2010PropOp31
 70
     1
102
RTVSPost2010Prop32
280
     0
102
RTVSPost2010PropOp32
 70
     1
102
RTVSPost2010Prop33
280
     0
102
RTVSPost2010PropOp33
 70
     1
102
RTVSPost2010Prop34
280
     0
102
RTVSPost2010PropOp34
 70
     1
102
RTVSPost2010Prop35
280
     0
102
RTVSPost2010PropOp35
 70
     1
102
RTVSPost2010Prop36
280
     0
102
RTVSPost2010PropOp36
 70
     1
102
RTVSPost2010Prop37
 90
       50
102
RTVSPost2010PropOp37
 70
     1
102
RTVSPost2010Prop38
140
0.0
102
RTVSPost2010PropOp38
 70
     1
102
RTVSPost2010Prop39
140
1.0
102
RTVSPost2010PropOp39
 70
     1
102
RTVSPost2010Prop40
 90
        0
102
RTVSPost2010PropOp40
 70
     1
102
RTVSPost2010Prop41ColorIndex
 90
       18
102
RTVSPost2010Prop41ColorRGB
 90
        0
102
RTVSPost2010PropOp41
 70
     1
102
RTVSPost2010Prop42
 90
       50
102
RTVSPost2010PropOp42
 70
     1
102
RTVSPost2010Prop43
 90
        3
102
RTVSPost2010PropOp43
 70
     1
102
RTVSPost2010Prop44ColorIndex
 90
        5
102
RTVSPost2010Prop44ColorRGB
 90
      255
102
RTVSPost2010PropOp44
 70
     1
102
RTVSPost2010Prop45
280
     0
102
RTVSPost2010PropOp45
 70
     1
102
RTVSPost2010Prop46
 90
       50
102
RTVSPost2010PropOp46
 70
     1
102
RTVSPost2010Prop47
 90
       50
102
RTVSPost2010PropOp47
 70
     1
102
RTVSPost2010Prop48
 90
       50
102
RTVSPost2010PropOp48
 70
     1
102
RTVSPost2010Prop49
280
     0
102
RTVSPost2010PropOp49
 70
     1
102
RTVSPost2010Prop50
 90
       50
102
RTVSPost2010PropOp50
 70
     1
102
RTVSPost2010Prop51ColorIndex
 90
      256
102
RTVSPost2010Prop51ColorRGB
 90
-16777216
102
RTVSPost2010PropOp51
 70
     0
102
RTVSPost2010Prop52
140
1.0
102
RTVSPost2010PropOp52
 70
     0
102
RTVSPost2010Prop53
 90
        2
102
RTVSPost2010PropOp53
 70
     1
102
RTVSPost2010Prop54
  1
strokes_ogs.tif
102
RTVSPost2010PropOp54
 70
     1
102
RTVSPost2010Prop55
280
     0
102
RTVSPost2010PropOp55
 70
     1
102
RTVSPost2010Prop56
140
1.0
102
RTVSPost2010PropOp56
 70
     1
102
RTVSPost2010Prop57
140
1.0
102
RTVSPost2010PropOp57
 70
     1
  0
XRECORD
  5
1A3
102
{ACAD_REACTORS
330
1A2
102
}
330
1A2
100
AcDbXrecord
280
     1
102
RTVSPost2010Prop28
280
     0
102
RTVSPost2010PropOp28
 70
     1
102
RTVSPost2010Prop29
280
     1
102
RTVSPost2010PropOp29
 70
     1
102
RTVSPost2010Prop30
280
     1
102
RTVSPost2010PropOp30
 70
     1
102
RTVSPost2010Prop31
280
     0
102
RTVSPost2010PropOp31
 70
     1
102
RTVSPost2010Prop32
280
     0
102
RTVSPost2010PropOp32
 70
     1
102
RTVSPost2010Prop33
280
     0
102
RTVSPost2010PropOp33
 70
     1
102
RTVSPost2010Prop34
280
     0
102
RTVSPost2010PropOp34
 70
     1
102
RTVSPost2010Prop35
280
     0
102
RTVSPost2010PropOp35
 70
     1
102
RTVSPost2010Prop36
280
     0
102
RTVSPost2010PropOp36
 70
     1
102
RTVSPost2010Prop37
 90
       50
102
RTVSPost2010PropOp37
 70
     1
102
RTVSPost2010Prop38
140
0.0
102
RTVSPost2010PropOp38
 70
     1
102
RTVSPost2010Prop39
140
1.0
102
RTVSPost2010PropOp39
 70
     1
102
RTVSPost2010Prop40
 90
        0
102
RTVSPost2010PropOp40
 70
     1
102
RTVSPost2010Prop41ColorIndex
 90
       18
102
RTVSPost2010Prop41ColorRGB
 90
        0
102
RTVSPost2010PropOp41
 70
     1
102
RTVSPost2010Prop42
 90
       50
102
RTVSPost2010PropOp42
 70
     1
102
RTVSPost2010Prop43
 90
        3
102
RTVSPost2010PropOp43
 70
     1
102
RTVSPost2010Prop44ColorIndex
 90
        5
102
RTVSPost2010Prop44ColorRGB
 90
      255
102
RTVSPost2010PropOp44
 70
     1
102
RTVSPost2010Prop45
280
     0
102
RTVSPost2010PropOp45
 70
     1
102
RTVSPost2010Prop46
 90
       50
102
RTVSPost2010PropOp46
 70
     1
102
RTVSPost2010Prop47
 90
       50
102
RTVSPost2010PropOp47
 70
     1
102
RTVSPost2010Prop48
 90
       50
102
RTVSPost2010PropOp48
 70
     1
102
RTVSPost2010Prop49
280
     0
102
RTVSPost2010PropOp49
 70
     1
102
RTVSPost2010Prop50
 90
       50
102
RTVSPost2010PropOp50
 70
     1
102
RTVSPost2010Prop51ColorIndex
 90
      256
102
RTVSPost2010Prop51ColorRGB
 90
-16777216
102
RTVSPost2010PropOp51
 70
     0
102
RTVSPost2010Prop52
140
1.0
102
RTVSPost2010PropOp52
 70
     0
102
RTVSPost2010Prop53
 90
        2
102
RTVSPost2010PropOp53
 70
     1
102
RTVSPost2010Prop54
  1
strokes_ogs.tif
102
RTVSPost2010PropOp54
 70
     1
102
RTVSPost2010Prop55
280
     0
102
RTVSPost2010PropOp55
 70
     1
102
RTVSPost2010Prop56
140
1.0
102
RTVSPost2010PropOp56
 70
     1
102
RTVSPost2010Prop57
140
1.0
102
RTVSPost2010PropOp57
 70
     1
  0
XRECORD
  5
1BB
102
{ACAD_REACTORS
330
1BA
102
}
330
1BA
100
AcDbXrecord
280
     1
102
RTVSPost2010Prop28
280
     0
102
RTVSPost2010PropOp28
 70
     1
102
RTVSPost2010Prop29
280
     1
102
RTVSPost2010PropOp29
 70
     1
102
RTVSPost2010Prop30
280
     1
102
RTVSPost2010PropOp30
 70
     1
102
RTVSPost2010Prop31
280
     0
102
RTVSPost2010PropOp31
 70
     1
102
RTVSPost2010Prop32
280
     0
102
RTVSPost2010PropOp32
 70
     1
102
RTVSPost2010Prop33
280
     0
102
RTVSPost2010PropOp33
 70
     1
102
RTVSPost2010Prop34
280
     0
102
RTVSPost2010PropOp34
 70
     1
102
RTVSPost2010Prop35
280
     0
102
RTVSPost2010PropOp35
 70
     1
102
RTVSPost2010Prop36
280
     0
102
RTVSPost2010PropOp36
 70
     1
102
RTVSPost2010Prop37
 90
       50
102
RTVSPost2010PropOp37
 70
     1
102
RTVSPost2010Prop38
140
0.0
102
RTVSPost2010PropOp38
 70
     1
102
RTVSPost2010Prop39
140
1.0
102
RTVSPost2010PropOp39
 70
     1
102
RTVSPost2010Prop40
 90
        0
102
RTVSPost2010PropOp40
 70
     1
102
RTVSPost2010Prop41ColorIndex
 90
       18
102
RTVSPost2010Prop41ColorRGB
 90
        0
102
RTVSPost2010PropOp41
 70
     1
102
RTVSPost2010Prop42
 90
       50
102
RTVSPost2010PropOp42
 70
     1
102
RTVSPost2010Prop43
 90
        3
102
RTVSPost2010PropOp43
 70
     1
102
RTVSPost2010Prop44ColorIndex
 90
        5
102
RTVSPost2010Prop44ColorRGB
 90
      255
102
RTVSPost2010PropOp44
 70
     1
102
RTVSPost2010Prop45
280
     0
102
RTVSPost2010PropOp45
 70
     1
102
RTVSPost2010Prop46
 90
       50
102
RTVSPost2010PropOp46
 70
     1
102
RTVSPost2010Prop47
 90
       50
102
RTVSPost2010PropOp47
 70
     1
102
RTVSPost2010Prop48
 90
       50
102
RTVSPost2010PropOp48
 70
     1
102
RTVSPost2010Prop49
280
     0
102
RTVSPost2010PropOp49
 70
     1
102
RTVSPost2010Prop50
 90
       50
102
RTVSPost2010PropOp50
 70
     1
102
RTVSPost2010Prop51ColorIndex
 90
      256
102
RTVSPost2010Prop51ColorRGB
 90
-16777216
102
RTVSPost2010PropOp51
 70
     0
102
RTVSPost2010Prop52
140
1.0
102
RTVSPost2010PropOp52
 70
     0
102
RTVSPost2010Prop53
 90
        2
102
RTVSPost2010PropOp53
 70
     1
102
RTVSPost2010Prop54
  1
strokes_ogs.tif
102
RTVSPost2010PropOp54
 70
     1
102
RTVSPost2010Prop55
280
     0
102
RTVSPost2010PropOp55
 70
     1
102
RTVSPost2010Prop56
140
1.0
102
RTVSPost2010PropOp56
 70
     1
102
RTVSPost2010Prop57
140
1.0
102
RTVSPost2010PropOp57
 70
     1
  0
ENDSEC
  0
EOF
