  0
SECTION
  2
HEADER
  9
$ACADVER
  1
AC1024
  9
$ACADMAINTVER
 70
   205
  9
$DWGCODEPAGE
  3
ANSI_1251
  9
$INSBASE
 10
0.0
 20
0.0
 30
0.0
  9
$EXTMIN
 10
1.000000000000000E+20
 20
1.000000000000000E+20
 30
1.000000000000000E+20
  9
$EXTMAX
 10
-1.000000000000000E+20
 20
-1.000000000000000E+20
 30
-1.000000000000000E+20
  9
$LIMMIN
 10
0.0
 20
0.0
  9
$LIMMAX
 10
12.0
 20
9.0
  9
$ORTHOMODE
 70
     0
  9
$REGENMODE
 70
     1
  9
$FILLMODE
 70
     1
  9
$QTEXTMODE
 70
     0
  9
$MIRRTEXT
 70
     1
  9
$LTSCALE
 40
1.0
  9
$ATTMODE
 70
     1
  9
$TEXTSIZE
 40
0.2
  9
$TRACEWID
 40
0.05
  9
$TEXTSTYLE
  7
Standard
  9
$CLAYER
  8
OracDecor_cornice_mouldings
  9
$CELTYPE
  6
ByLayer
  9
$CECOLOR
 62
   256
  9
$CELTSCALE
 40
1.0
  9
$DISPSILH
 70
     0
  9
$DIMSCALE
 40
1.0
  9
$DIMASZ
 40
0.18
  9
$DIMEXO
 40
0.0625
  9
$DIMDLI
 40
0.38
  9
$DIMRND
 40
0.0
  9
$DIMDLE
 40
0.0
  9
$DIMEXE
 40
0.18
  9
$DIMTP
 40
0.0
  9
$DIMTM
 40
0.0
  9
$DIMTXT
 40
0.18
  9
$DIMCEN
 40
0.09
  9
$DIMTSZ
 40
0.0
  9
$DIMTOL
 70
     0
  9
$DIMLIM
 70
     0
  9
$DIMTIH
 70
     1
  9
$DIMTOH
 70
     1
  9
$DIMSE1
 70
     0
  9
$DIMSE2
 70
     0
  9
$DIMTAD
 70
     0
  9
$DIMZIN
 70
     0
  9
$DIMBLK
  1

  9
$DIMASO
 70
     1
  9
$DIMSHO
 70
     1
  9
$DIMPOST
  1

  9
$DIMAPOST
  1

  9
$DIMALT
 70
     0
  9
$DIMALTD
 70
     2
  9
$DIMALTF
 40
25.4
  9
$DIMLFAC
 40
1.0
  9
$DIMTOFL
 70
     0
  9
$DIMTVP
 40
0.0
  9
$DIMTIX
 70
     0
  9
$DIMSOXD
 70
     0
  9
$DIMSAH
 70
     0
  9
$DIMBLK1
  1

  9
$DIMBLK2
  1

  9
$DIMSTYLE
  2
Standard
  9
$DIMCLRD
 70
     0
  9
$DIMCLRE
 70
     0
  9
$DIMCLRT
 70
     0
  9
$DIMTFAC
 40
1.0
  9
$DIMGAP
 40
0.09
  9
$DIMJUST
 70
     0
  9
$DIMSD1
 70
     0
  9
$DIMSD2
 70
     0
  9
$DIMTOLJ
 70
     1
  9
$DIMTZIN
 70
     0
  9
$DIMALTZ
 70
     0
  9
$DIMALTTZ
 70
     0
  9
$DIMUPT
 70
     0
  9
$DIMDEC
 70
     4
  9
$DIMTDEC
 70
     4
  9
$DIMALTU
 70
     2
  9
$DIMALTTD
 70
     2
  9
$DIMTXSTY
  7
Standard
  9
$DIMAUNIT
 70
     0
  9
$DIMADEC
 70
     0
  9
$DIMALTRND
 40
0.0
  9
$DIMAZIN
 70
     0
  9
$DIMDSEP
 70
    46
  9
$DIMATFIT
 70
     3
  9
$DIMFRAC
 70
     0
  9
$DIMLDRBLK
  1

  9
$DIMLUNIT
 70
     2
  9
$DIMLWD
 70
    -2
  9
$DIMLWE
 70
    -2
  9
$DIMTMOVE
 70
     0
  9
$DIMFXL
 40
1.0
  9
$DIMFXLON
 70
     0
  9
$DIMJOGANG
 40
0.7853981633974483
  9
$DIMTFILL
 70
     0
  9
$DIMTFILLCLR
 70
     0
  9
$DIMARCSYM
 70
     0
  9
$DIMLTYPE
  6

  9
$DIMLTEX1
  6

  9
$DIMLTEX2
  6

  9
$DIMTXTDIRECTION
 70
     0
  9
$LUNITS
 70
     2
  9
$LUPREC
 70
     4
  9
$SKETCHINC
 40
0.1
  9
$FILLETRAD
 40
0.5
  9
$AUNITS
 70
     0
  9
$AUPREC
 70
     0
  9
$MENU
  1
.
  9
$ELEVATION
 40
0.0
  9
$PELEVATION
 40
0.0
  9
$THICKNESS
 40
0.0
  9
$LIMCHECK
 70
     0
  9
$CHAMFERA
 40
0.5
  9
$CHAMFERB
 40
0.5
  9
$CHAMFERC
 40
1.0
  9
$CHAMFERD
 40
0.0
  9
$SKPOLY
 70
     0
  9
$TDCREATE
 40
2451380.930432396
  9
$TDUCREATE
 40
2451380.805432396
  9
$TDUPDATE
 40
2451380.966180555
  9
$TDUUPDATE
 40
2451380.841180556
  9
$TDINDWG
 40
0.0075635301
  9
$TDUSRTIMER
 40
0.0075544907
  9
$USRTIMER
 70
     1
  9
$ANGBASE
 50
0.0
  9
$ANGDIR
 70
     0
  9
$PDMODE
 70
     0
  9
$PDSIZE
 40
0.0
  9
$PLINEWID
 40
0.0
  9
$SPLFRAME
 70
     0
  9
$SPLINETYPE
 70
     6
  9
$SPLINESEGS
 70
     8
  9
$HANDSEED
  5
1E4
  9
$SURFTAB1
 70
     6
  9
$SURFTAB2
 70
     6
  9
$SURFTYPE
 70
     6
  9
$SURFU
 70
     6
  9
$SURFV
 70
     6
  9
$UCSBASE
  2

  9
$UCSNAME
  2

  9
$UCSORG
 10
0.0
 20
0.0
 30
0.0
  9
$UCSXDIR
 10
1.0
 20
0.0
 30
0.0
  9
$UCSYDIR
 10
0.0
 20
1.0
 30
0.0
  9
$UCSORTHOREF
  2

  9
$UCSORTHOVIEW
 70
     0
  9
$UCSORGTOP
 10
0.0
 20
0.0
 30
0.0
  9
$UCSORGBOTTOM
 10
0.0
 20
0.0
 30
0.0
  9
$UCSORGLEFT
 10
0.0
 20
0.0
 30
0.0
  9
$UCSORGRIGHT
 10
0.0
 20
0.0
 30
0.0
  9
$UCSORGFRONT
 10
0.0
 20
0.0
 30
0.0
  9
$UCSORGBACK
 10
0.0
 20
0.0
 30
0.0
  9
$PUCSBASE
  2

  9
$PUCSNAME
  2

  9
$PUCSORG
 10
0.0
 20
0.0
 30
0.0
  9
$PUCSXDIR
 10
1.0
 20
0.0
 30
0.0
  9
$PUCSYDIR
 10
0.0
 20
1.0
 30
0.0
  9
$PUCSORTHOREF
  2

  9
$PUCSORTHOVIEW
 70
     0
  9
$PUCSORGTOP
 10
0.0
 20
0.0
 30
0.0
  9
$PUCSORGBOTTOM
 10
0.0
 20
0.0
 30
0.0
  9
$PUCSORGLEFT
 10
0.0
 20
0.0
 30
0.0
  9
$PUCSORGRIGHT
 10
0.0
 20
0.0
 30
0.0
  9
$PUCSORGFRONT
 10
0.0
 20
0.0
 30
0.0
  9
$PUCSORGBACK
 10
0.0
 20
0.0
 30
0.0
  9
$USERI1
 70
     0
  9
$USERI2
 70
     0
  9
$USERI3
 70
     0
  9
$USERI4
 70
     0
  9
$USERI5
 70
     0
  9
$USERR1
 40
0.0
  9
$USERR2
 40
0.0
  9
$USERR3
 40
0.0
  9
$USERR4
 40
0.0
  9
$USERR5
 40
0.0
  9
$WORLDVIEW
 70
     1
  9
$SHADEDGE
 70
     3
  9
$SHADEDIF
 70
    70
  9
$TILEMODE
 70
     1
  9
$MAXACTVP
 70
    64
  9
$PINSBASE
 10
0.0
 20
0.0
 30
0.0
  9
$PLIMCHECK
 70
     0
  9
$PEXTMIN
 10
1.000000000000000E+20
 20
1.000000000000000E+20
 30
1.000000000000000E+20
  9
$PEXTMAX
 10
-1.000000000000000E+20
 20
-1.000000000000000E+20
 30
-1.000000000000000E+20
  9
$PLIMMIN
 10
0.0
 20
0.0
  9
$PLIMMAX
 10
12.0
 20
9.0
  9
$UNITMODE
 70
     0
  9
$VISRETAIN
 70
     1
  9
$PLINEGEN
 70
     0
  9
$PSLTSCALE
 70
     1
  9
$TREEDEPTH
 70
  3020
  9
$CMLSTYLE
  2
Standard
  9
$CMLJUST
 70
     0
  9
$CMLSCALE
 40
1.0
  9
$PROXYGRAPHICS
 70
     1
  9
$MEASUREMENT
 70
     1
  9
$CELWEIGHT
370
    -1
  9
$ENDCAPS
280
     0
  9
$JOINSTYLE
280
     0
  9
$LWDISPLAY
290
     0
  9
$INSUNITS
 70
     4
  9
$HYPERLINKBASE
  1

  9
$STYLESHEET
  1

  9
$XEDIT
290
     1
  9
$CEPSNTYPE
380
     0
  9
$PSTYLEMODE
290
     1
  9
$FINGERPRINTGUID
  2
{12F50282-3ED8-11D3-A8B7-0060B0F84BC6}
  9
$VERSIONGUID
  2
{12F50293-3ED8-11D3-A8B7-0060B0F84BC6}
  9
$EXTNAMES
290
     1
  9
$PSVPSCALE
 40
0.0
  9
$OLESTARTUP
290
     0
  9
$SORTENTS
280
   127
  9
$INDEXCTL
280
     0
  9
$HIDETEXT
280
     0
  9
$XCLIPFRAME
280
     2
  9
$HALOGAP
280
     0
  9
$OBSCOLOR
 70
   257
  9
$OBSLTYPE
280
     0
  9
$INTERSECTIONDISPLAY
280
     0
  9
$INTERSECTIONCOLOR
 70
   257
  9
$DIMASSOC
280
     1
  9
$PROJECTNAME
  1

  9
$CAMERADISPLAY
290
     0
  9
$LENSLENGTH
 40
50.0
  9
$CAMERAHEIGHT
 40
0.0
  9
$STEPSPERSEC
 40
2.0
  9
$STEPSIZE
 40
6.0
  9
$3DDWFPREC
 40
2.0
  9
$PSOLWIDTH
 40
0.25
  9
$PSOLHEIGHT
 40
4.0
  9
$LOFTANG1
 40
1.570796326794896
  9
$LOFTANG2
 40
1.570796326794896
  9
$LOFTMAG1
 40
0.0
  9
$LOFTMAG2
 40
0.0
  9
$LOFTPARAM
 70
     7
  9
$LOFTNORMALS
280
     1
  9
$LATITUDE
 40
37.795
  9
$LONGITUDE
 40
-122.394
  9
$NORTHDIRECTION
 40
0.0
  9
$TIMEZONE
 70
 -8000
  9
$LIGHTGLYPHDISPLAY
280
     1
  9
$TILEMODELIGHTSYNCH
280
     1
  9
$CMATERIAL
347
AB
  9
$SOLIDHIST
280
     0
  9
$SHOWHIST
280
     1
  9
$DWFFRAME
280
     2
  9
$DGNFRAME
280
     0
  9
$REALWORLDSCALE
290
     1
  9
$INTERFERECOLOR
 62
     1
  9
$INTERFEREOBJVS
345
CD
  9
$INTERFEREVPVS
346
CA
  9
$CSHADOW
280
     0
  9
$SHADOWPLANELOCATION
 40
0.0
  0
ENDSEC
  0
SECTION
  2
CLASSES
  0
CLASS
  1
ACDBDICTIONARYWDFLT
  2
AcDbDictionaryWithDefault
  3
ObjectDBX Classes
 90
        0
 91
        1
280
     0
281
     0
  0
CLASS
  1
ACDBPLACEHOLDER
  2
AcDbPlaceHolder
  3
ObjectDBX Classes
 90
        0
 91
        2
280
     0
281
     0
  0
CLASS
  1
LAYOUT
  2
AcDbLayout
  3
ObjectDBX Classes
 90
        0
 91
        3
280
     0
281
     0
  0
CLASS
  1
MATERIAL
  2
AcDbMaterial
  3
ObjectDBX Classes
 90
     1153
 91
        3
280
     0
281
     0
  0
CLASS
  1
VISUALSTYLE
  2
AcDbVisualStyle
  3
ObjectDBX Classes
 90
     4095
 91
       24
280
     0
281
     0
  0
CLASS
  1
TABLESTYLE
  2
AcDbTableStyle
  3
ObjectDBX Classes
 90
     4095
 91
        1
280
     0
281
     0
  0
CLASS
  1
SCALE
  2
AcDbScale
  3
ObjectDBX Classes
 90
     1153
 91
       17
280
     0
281
     0
  0
CLASS
  1
MLEADERSTYLE
  2
AcDbMLeaderStyle
  3
ACDB_MLEADERSTYLE_CLASS
 90
     4095
 91
        1
280
     0
281
     0
  0
CLASS
  1
ACDBSECTIONVIEWSTYLE
  2
AcDbSectionViewStyle
  3
ObjectDBX Classes
 90
     1025
 91
        1
280
     0
281
     0
  0
CLASS
  1
ACDBDETAILVIEWSTYLE
  2
AcDbDetailViewStyle
  3
ObjectDBX Classes
 90
     1025
 91
        1
280
     0
281
     0
  0
CLASS
  1
MESH
  2
AcDbSubDMesh
  3
ObjectDBX Classes
 90
        0
 91
        1
280
     0
281
     1
  0
CLASS
  1
DICTIONARYVAR
  2
AcDbDictionaryVar
  3
ObjectDBX Classes
 90
        0
 91
        9
280
     0
281
     0
  0
CLASS
  1
CELLSTYLEMAP
  2
AcDbCellStyleMap
  3
ObjectDBX Classes
 90
     1152
 91
        1
280
     0
281
     0
  0
ENDSEC
  0
SECTION
  2
TABLES
  0
TABLE
  2
VPORT
  5
8
330
0
100
AcDbSymbolTable
 70
     1
  0
VPORT
  5
A8
330
8
100
AcDbSymbolTableRecord
100
AcDbViewportTableRecord
  2
*Active
 70
     0
 10
0.0
 20
0.0
 11
1.0
 21
1.0
 12
0.0001078959394363
 22
-32.65980911254883
 13
0.0
 23
0.0
 14
0.5
 24
0.5
 15
0.5
 25
0.5
 16
-1.0
 26
-1.0
 36
1.0
 17
0.0
 27
0.0
 37
0.0
 40
1119.985855075582
 41
1.608331336195147
 42
50.0
 43
0.0
 44
0.0
 50
0.0
 51
0.0
 71
     0
 72
   100
 73
     1
 74
     3
 75
     0
 76
     0
 77
     0
 78
     0
281
     0
 65
     1
110
0.0
120
0.0
130
0.0
111
1.0
121
0.0
131
0.0
112
0.0
122
1.0
132
0.0
 79
     0
146
0.0
348
C9
 60
     3
 61
     5
292
     1
282
     1
141
0.0
142
0.0
 63
   250
421
  3355443
  0
ENDTAB
  0
TABLE
  2
LTYPE
  5
5
330
0
100
AcDbSymbolTable
 70
     1
  0
LTYPE
  5
14
330
5
100
AcDbSymbolTableRecord
100
AcDbLinetypeTableRecord
  2
ByBlock
 70
     0
  3

 72
    65
 73
     0
 40
0.0
  0
LTYPE
  5
15
330
5
100
AcDbSymbolTableRecord
100
AcDbLinetypeTableRecord
  2
ByLayer
 70
     0
  3

 72
    65
 73
     0
 40
0.0
  0
LTYPE
  5
16
330
5
100
AcDbSymbolTableRecord
100
AcDbLinetypeTableRecord
  2
Continuous
 70
     0
  3
Solid line
 72
    65
 73
     0
 40
0.0
  0
ENDTAB
  0
TABLE
  2
LAYER
  5
2
330
0
100
AcDbSymbolTable
 70
     3
  0
LAYER
  5
10
330
2
100
AcDbSymbolTableRecord
100
AcDbLayerTableRecord
  2
0
 70
     0
 62
     7
  6
Continuous
370
    -3
390
F
347
BB
  0
LAYER
  5
2B
330
2
100
AcDbSymbolTableRecord
100
AcDbLayerTableRecord
  2
ASHADE
 70
     4
 62
     7
  6
Continuous
370
    -3
390
2D
347
BB
  0
LAYER
  5
F8
330
2
100
AcDbSymbolTableRecord
100
AcDbLayerTableRecord
  2
OracDecor_cornice_mouldings
 70
     0
 62
    76
420
  4032262
  6
Continuous
370
    -3
390
F
347
BB
  0
ENDTAB
  0
TABLE
  2
STYLE
  5
3
330
0
100
AcDbSymbolTable
 70
     2
  0
STYLE
  5
11
330
3
100
AcDbSymbolTableRecord
100
AcDbTextStyleTableRecord
  2
Standard
 70
     0
 40
0.0
 41
1.0
 50
0.0
 71
     0
 42
0.2
  3
txt
  4

  0
STYLE
  5
2C
330
3
100
AcDbSymbolTableRecord
100
AcDbTextStyleTableRecord
  2
ASHADE
 70
     0
 40
0.2
 41
1.0
 50
0.0
 71
     0
 42
0.2
  3
simplex
  4

  0
ENDTAB
  0
TABLE
  2
VIEW
  5
6
330
0
100
AcDbSymbolTable
 70
     0
  0
ENDTAB
  0
TABLE
  2
UCS
  5
7
330
0
100
AcDbSymbolTable
 70
     0
  0
ENDTAB
  0
TABLE
  2
APPID
  5
9
330
0
100
AcDbSymbolTable
 70
     6
  0
APPID
  5
12
330
9
100
AcDbSymbolTableRecord
100
AcDbRegAppTableRecord
  2
ACAD
 70
     0
  0
APPID
  5
8F
330
9
100
AcDbSymbolTableRecord
100
AcDbRegAppTableRecord
  2
AVE_RENDER
 70
     0
  0
APPID
  5
90
330
9
100
AcDbSymbolTableRecord
100
AcDbRegAppTableRecord
  2
AVE_ENTITY_MATERIAL
 70
     0
  0
APPID
  5
9C
330
9
100
AcDbSymbolTableRecord
100
AcDbRegAppTableRecord
  2
AVE_FINISH
 70
     0
  0
APPID
  5
9D
330
9
100
AcDbSymbolTableRecord
100
AcDbRegAppTableRecord
  2
AVE_MATERIAL
 70
     0
  0
APPID
  5
9E
330
9
100
AcDbSymbolTableRecord
100
AcDbRegAppTableRecord
  2
AVE_GLOBAL
 70
     0
  0
ENDTAB
  0
TABLE
  2
DIMSTYLE
  5
A
330
0
100
AcDbSymbolTable
 70
     1
100
AcDbDimStyleTable
 71
     0
  0
DIMSTYLE
105
27
330
A
100
AcDbSymbolTableRecord
100
AcDbDimStyleTableRecord
  2
Standard
 70
     0
340
11
  0
ENDTAB
  0
TABLE
  2
BLOCK_RECORD
  5
1
330
0
100
AcDbSymbolTable
 70
     6
  0
BLOCK_RECORD
  5
1F
330
1
100
AcDbSymbolTableRecord
100
AcDbBlockTableRecord
  2
*Model_Space
340
22
 70
     0
280
     1
281
     0
  0
BLOCK_RECORD
  5
1B
330
1
100
AcDbSymbolTableRecord
100
AcDbBlockTableRecord
  2
*Paper_Space
340
1E
 70
     0
280
     1
281
     0
  0
BLOCK_RECORD
  5
23
330
1
100
AcDbSymbolTableRecord
100
AcDbBlockTableRecord
  2
*Paper_Space0
340
26
 70
     0
280
     1
281
     0
  0
BLOCK_RECORD
  5
2E
330
1
100
AcDbSymbolTableRecord
100
AcDbBlockTableRecord
  2
direct
340
0
 70
     0
280
     1
281
     0
  0
BLOCK_RECORD
  5
42
330
1
100
AcDbSymbolTableRecord
100
AcDbBlockTableRecord
  2
overhead
340
0
 70
     0
280
     1
281
     0
  0
BLOCK_RECORD
  5
5F
330
1
100
AcDbSymbolTableRecord
100
AcDbBlockTableRecord
  2
sh_spot
340
0
 70
     0
280
     1
281
     0
  0
BLOCK_RECORD
  5
91
330
1
100
AcDbSymbolTableRecord
100
AcDbBlockTableRecord
  2
AVE_RENDER
340
0
102
{BLKREFS
331
94
331
95
331
96
331
97
331
98
331
99
331
9A
331
9B
102
}
 70
     0
280
     1
281
     0
  0
BLOCK_RECORD
  5
9F
330
1
100
AcDbSymbolTableRecord
100
AcDbBlockTableRecord
  2
AVE_GLOBAL
340
0
102
{BLKREFS
331
A2
102
}
 70
     0
280
     1
281
     0
  0
ENDTAB
  0
ENDSEC
  0
SECTION
  2
BLOCKS
  0
BLOCK
  5
20
330
1F
100
AcDbEntity
  8
0
100
AcDbBlockBegin
  2
*Model_Space
 70
     0
 10
0.0
 20
0.0
 30
0.0
  3
*Model_Space
  1

  0
ENDBLK
  5
21
330
1F
100
AcDbEntity
  8
0
100
AcDbBlockEnd
  0
BLOCK
  5
1C
330
1B
100
AcDbEntity
 67
     1
  8
0
100
AcDbBlockBegin
  2
*Paper_Space
 70
     0
 10
0.0
 20
0.0
 30
0.0
  3
*Paper_Space
  1

  0
ENDBLK
  5
1D
330
1B
100
AcDbEntity
 67
     1
  8
0
100
AcDbBlockEnd
  0
BLOCK
  5
24
330
23
100
AcDbEntity
 67
     1
  8
0
100
AcDbBlockBegin
  2
*Paper_Space0
 70
     0
 10
0.0
 20
0.0
 30
0.0
  3
*Paper_Space0
  1

  0
ENDBLK
  5
25
330
23
100
AcDbEntity
 67
     1
  8
0
100
AcDbBlockEnd
  0
BLOCK
  5
40
330
2E
100
AcDbEntity
  8
0
100
AcDbBlockBegin
  2
direct
 70
     2
 10
0.0
 20
0.0
 30
0.0
  3
direct
  1

  0
ATTDEF
  5
2F
330
2E
100
AcDbEntity
  8
ASHADE
  6
Continuous
 62
     1
100
AcDbText
 10
0.0
 20
-0.1
 30
0.0
 40
0.2
  1

  7
ASHADE
 72
     1
 11
0.0
 21
-0.1
 31
0.0
100
AcDbAttributeDefinition
280
     0
  3
Light Name
  2
SNAME
 70
     0
280
     0
  0
ARC
  5
30
330
2E
100
AcDbEntity
  8
ASHADE
  6
Continuous
 62
     7
100
AcDbCircle
 10
0.0
 20
0.0
 30
0.0
 40
0.3
100
AcDbArc
 50
205.6792886194569
 51
334.3207113805431
  0
ARC
  5
31
330
2E
100
AcDbEntity
  8
ASHADE
  6
Continuous
 62
     7
100
AcDbCircle
 10
0.0
 20
0.0
 30
0.0
 40
0.3
100
AcDbArc
 50
25.67928861945685
 51
154.3207113805431
  0
LINE
  5
32
330
2E
100
AcDbEntity
  8
ASHADE
  6
Continuous
 62
     7
100
AcDbLine
 10
-0.21
 20
0.2142428528562855
 30
0.0
 11
-0.21
 21
0.5
 31
0.0
  0
LINE
  5
33
330
2E
100
AcDbEntity
  8
ASHADE
  6
Continuous
 62
     7
100
AcDbLine
 10
-0.11
 20
0.2791057147390572
 30
0.0
 11
-0.11
 21
0.5
 31
0.0
  0
LINE
  5
34
330
2E
100
AcDbEntity
  8
ASHADE
  6
Continuous
 62
     7
100
AcDbLine
 10
0.21
 20
0.2142428528562855
 30
0.0
 11
0.21
 21
0.5
 31
0.0
  0
ATTDEF
  5
35
330
2E
100
AcDbEntity
  8
ASHADE
  6
Continuous
 62
     7
100
AcDbText
 10
0.0
 20
0.25
 30
0.0
 40
0.01
  1

100
AcDbAttributeDefinition
280
     0
  3
Look-at Y
  2
LAY
 70
     1
280
     0
  0
ATTDEF
  5
36
330
2E
100
AcDbEntity
  8
ASHADE
  6
Continuous
 62
     7
100
AcDbText
 10
0.0
 20
0.22
 30
0.0
 40
0.01
  1
1
100
AcDbAttributeDefinition
280
     0
  3
Light Intensity
  2
INTENSITY
 70
     1
280
     0
  0
ATTDEF
  5
37
330
2E
100
AcDbEntity
  8
ASHADE
  6
Continuous
 62
     7
100
AcDbText
 10
0.0
 20
0.16
 30
0.0
 40
0.01
  1
-1
100
AcDbAttributeDefinition
280
     0
  3
*not used*
  2
BEAMD
 70
     1
280
     0
  0
ATTDEF
  5
38
330
2E
100
AcDbEntity
  8
ASHADE
  6
Continuous
 62
     7
100
AcDbText
 10
0.0
 20
0.175
 30
0.0
 40
0.01
  1
-1
100
AcDbAttributeDefinition
280
     0
  3
*not used*
  2
CONED
 70
     1
280
     0
  0
ATTDEF
  5
39
330
2E
100
AcDbEntity
  8
ASHADE
  6
Continuous
 62
     7
100
AcDbText
 10
0.0
 20
0.19
 30
0.0
 40
0.01
  1
0
100
AcDbAttributeDefinition
280
     0
  3
Depth Map Size
  2
CONEA
 70
     1
280
     0
  0
ATTDEF
  5
3A
330
2E
100
AcDbEntity
  8
ASHADE
  6
Continuous
 62
     7
100
AcDbText
 10
0.0
 20
0.2050000000000001
 30
0.0
 40
0.01
  1
1,1,1
100
AcDbAttributeDefinition
280
     0
  3
Light Color (RGB)
  2
COLOR
 70
     1
280
     0
  0
ATTDEF
  5
3B
330
2E
100
AcDbEntity
  8
ASHADE
  6
Continuous
 62
     7
100
AcDbText
 10
0.0
 20
0.235
 30
0.0
 40
0.01
  1

100
AcDbAttributeDefinition
280
     0
  3
Look-at Z
  2
LAZ
 70
     1
280
     0
  0
LINE
  5
3C
330
2E
100
AcDbEntity
  8
ASHADE
  6
Continuous
 62
     7
100
AcDbLine
 10
0.0
 20
0.3
 30
0.0
 11
0.0
 21
0.5
 31
0.0
  0
LINE
  5
3D
330
2E
100
AcDbEntity
  8
ASHADE
  6
Continuous
 62
     7
100
AcDbLine
 10
0.11
 20
0.2791057147390572
 30
0.0
 11
0.11
 21
0.5
 31
0.0
  0
ATTDEF
  5
3E
330
2E
100
AcDbEntity
  8
ASHADE
  6
Continuous
 62
     7
100
AcDbText
 10
0.0
 20
0.265
 30
0.0
 40
0.01
  1

100
AcDbAttributeDefinition
280
     0
  3
Look-at X
  2
LAX
 70
     1
280
     0
  0
ATTDEF
  5
3F
330
2E
100
AcDbEntity
  8
ASHADE
  6
Continuous
 62
     7
100
AcDbText
 10
0.0
 20
0.28
 30
0.0
 40
0.01
  1

100
AcDbAttributeDefinition
280
     0
  3

  2
GNAME
 70
     1
280
     0
  0
ENDBLK
  5
41
330
2E
100
AcDbEntity
  8
0
100
AcDbBlockEnd
  0
BLOCK
  5
5D
330
42
100
AcDbEntity
  8
0
100
AcDbBlockBegin
  2
overhead
 70
     2
 10
0.0
 20
0.0
 30
0.0
  3
overhead
  1

  0
ATTDEF
  5
43
330
42
100
AcDbEntity
  8
ASHADE
  6
Continuous
 62
     1
100
AcDbText
 10
0.0
 20
-0.1
 30
0.0
 40
0.2
  1

  7
ASHADE
 72
     1
 11
0.0
 21
-0.1
 31
0.0
100
AcDbAttributeDefinition
280
     0
  3
Light Name
  2
SNAME
 70
     0
280
     0
  0
ARC
  5
44
330
42
100
AcDbEntity
  8
ASHADE
  6
Continuous
 62
     7
100
AcDbCircle
 10
0.0
 20
0.0
 30
0.0
 40
0.3
100
AcDbArc
 50
205.6792886194569
 51
334.3207113805431
  0
LINE
  5
45
330
42
100
AcDbEntity
  8
ASHADE
  6
Continuous
 62
     7
100
AcDbLine
 10
-0.2041413561583015
 20
-0.2198324514393848
 30
0.0
 11
-0.2721884748777353
 21
-0.2931099352525131
 31
0.0
  0
LINE
  5
46
330
42
100
AcDbEntity
  8
ASHADE
  6
Continuous
 62
     7
100
AcDbLine
 10
-0.1096591641591904
 20
-0.2792398032442862
 30
0.0
 11
-0.1279356915190555
 21
-0.3257797704516673
 31
0.0
  0
LINE
  5
47
330
42
100
AcDbEntity
  8
ASHADE
  6
Continuous
 62
     7
100
AcDbLine
 10
0.0
 20
-0.2999999999999999
 30
0.0
 11
0.0
 21
-0.4
 31
0.0
  0
LINE
  5
48
330
42
100
AcDbEntity
  8
ASHADE
  6
Continuous
 62
     7
100
AcDbLine
 10
0.1096591641591904
 20
-0.2792398032442862
 30
0.0
 11
0.1279356915190555
 21
-0.3257797704516673
 31
0.0
  0
LINE
  5
49
330
42
100
AcDbEntity
  8
ASHADE
  6
Continuous
 62
     7
100
AcDbLine
 10
0.2041413561583015
 20
-0.2198324514393848
 30
0.0
 11
0.2721884748777353
 21
-0.2931099352525131
 31
0.0
  0
ARC
  5
4A
330
42
100
AcDbEntity
  8
ASHADE
  6
Continuous
 62
     7
100
AcDbCircle
 10
0.0
 20
0.0
 30
0.0
 40
0.3
100
AcDbArc
 50
25.67928861945685
 51
154.3207113805431
  0
LINE
  5
4B
330
42
100
AcDbEntity
  8
ASHADE
  6
Continuous
 62
     7
100
AcDbLine
 10
-0.2703701166919155
 20
0.13
 30
0.0
 11
-0.3154318028072347
 21
0.1516666666666666
 31
0.0
  0
LINE
  5
4C
330
42
100
AcDbEntity
  8
ASHADE
  6
Continuous
 62
     7
100
AcDbLine
 10
-0.2703701166919155
 20
-0.13
 30
0.0
 11
-0.3154318028072347
 21
-0.1516666666666666
 31
0.0
  0
LINE
  5
4D
330
42
100
AcDbEntity
  8
ASHADE
  6
Continuous
 62
     7
100
AcDbLine
 10
-0.2041413561583015
 20
0.2198324514393849
 30
0.0
 11
-0.2721884748777353
 21
0.2931099352525131
 31
0.0
  0
LINE
  5
4E
330
42
100
AcDbEntity
  8
ASHADE
  6
Continuous
 62
     7
100
AcDbLine
 10
-0.1096591641591904
 20
0.2792398032442862
 30
0.0
 11
-0.1279356915190555
 21
0.3257797704516674
 31
0.0
  0
LINE
  5
4F
330
42
100
AcDbEntity
  8
ASHADE
  6
Continuous
 62
     7
100
AcDbLine
 10
0.2703701166919155
 20
-0.13
 30
0.0
 11
0.3154318028072347
 21
-0.1516666666666666
 31
0.0
  0
LINE
  5
50
330
42
100
AcDbEntity
  8
ASHADE
  6
Continuous
 62
     7
100
AcDbLine
 10
0.2703701166919155
 20
0.13
 30
0.0
 11
0.3154318028072347
 21
0.1516666666666666
 31
0.0
  0
LINE
  5
51
330
42
100
AcDbEntity
  8
ASHADE
  6
Continuous
 62
     7
100
AcDbLine
 10
0.0
 20
0.3
 30
0.0
 11
0.0
 21
0.4
 31
0.0
  0
ATTDEF
  5
52
330
42
100
AcDbEntity
  8
ASHADE
  6
Continuous
 62
     7
100
AcDbText
 10
0.0
 20
0.22
 30
0.0
 40
0.01
  1
1
100
AcDbAttributeDefinition
280
     0
  3
Light Intensity
  2
INTENSITY
 70
     1
280
     0
  0
ATTDEF
  5
53
330
42
100
AcDbEntity
  8
ASHADE
  6
Continuous
 62
     7
100
AcDbText
 10
0.0
 20
0.16
 30
0.0
 40
0.01
  1
-1
100
AcDbAttributeDefinition
280
     0
  3
*not used*
  2
BEAMD
 70
     1
280
     0
  0
ATTDEF
  5
54
330
42
100
AcDbEntity
  8
ASHADE
  6
Continuous
 62
     7
100
AcDbText
 10
0.0
 20
0.175
 30
0.0
 40
0.01
  1
-1
100
AcDbAttributeDefinition
280
     0
  3
*not used*
  2
CONED
 70
     1
280
     0
  0
ATTDEF
  5
55
330
42
100
AcDbEntity
  8
ASHADE
  6
Continuous
 62
     7
100
AcDbText
 10
0.0
 20
0.19
 30
0.0
 40
0.01
  1
0
100
AcDbAttributeDefinition
280
     0
  3
Depth Map Size
  2
CONEA
 70
     1
280
     0
  0
ATTDEF
  5
56
330
42
100
AcDbEntity
  8
ASHADE
  6
Continuous
 62
     7
100
AcDbText
 10
0.0
 20
0.2050000000000001
 30
0.0
 40
0.01
  1
1,1,1
100
AcDbAttributeDefinition
280
     0
  3
Light Color (RGB)
  2
COLOR
 70
     1
280
     0
  0
ATTDEF
  5
57
330
42
100
AcDbEntity
  8
ASHADE
  6
Continuous
 62
     7
100
AcDbText
 10
0.0
 20
0.235
 30
0.0
 40
0.01
  1

100
AcDbAttributeDefinition
280
     0
  3
Look-at Z
  2
LAZ
 70
     1
280
     0
  0
ATTDEF
  5
58
330
42
100
AcDbEntity
  8
ASHADE
  6
Continuous
 62
     7
100
AcDbText
 10
0.0
 20
0.25
 30
0.0
 40
0.01
  1

100
AcDbAttributeDefinition
280
     0
  3
Look-at Y
  2
LAY
 70
     1
280
     0
  0
ATTDEF
  5
59
330
42
100
AcDbEntity
  8
ASHADE
  6
Continuous
 62
     7
100
AcDbText
 10
0.0
 20
0.265
 30
0.0
 40
0.01
  1

100
AcDbAttributeDefinition
280
     0
  3
Look-at X
  2
LAX
 70
     1
280
     0
  0
ATTDEF
  5
5A
330
42
100
AcDbEntity
  8
ASHADE
  6
Continuous
 62
     7
100
AcDbText
 10
0.0
 20
0.28
 30
0.0
 40
0.01
  1

100
AcDbAttributeDefinition
280
     0
  3

  2
GNAME
 70
     1
280
     0
  0
LINE
  5
5B
330
42
100
AcDbEntity
  8
ASHADE
  6
Continuous
 62
     7
100
AcDbLine
 10
0.1096591641591904
 20
0.2792398032442862
 30
0.0
 11
0.1279356915190555
 21
0.3257797704516674
 31
0.0
  0
LINE
  5
5C
330
42
100
AcDbEntity
  8
ASHADE
  6
Continuous
 62
     7
100
AcDbLine
 10
0.2041413561583015
 20
0.2198324514393849
 30
0.0
 11
0.2721884748777353
 21
0.2931099352525131
 31
0.0
  0
ENDBLK
  5
5E
330
42
100
AcDbEntity
  8
0
100
AcDbBlockEnd
  0
BLOCK
  5
85
330
5F
100
AcDbEntity
  8
0
100
AcDbBlockBegin
  2
sh_spot
 70
     2
 10
0.0
 20
0.0
 30
0.0
  3
sh_spot
  1

  0
LINE
  5
60
330
5F
100
AcDbEntity
  8
ASHADE
  6
Continuous
 62
     7
100
AcDbLine
 10
0.25
 20
0.26
 30
0.0
 11
-0.25
 21
0.26
 31
0.0
  0
LINE
  5
61
330
5F
100
AcDbEntity
  8
ASHADE
  6
Continuous
 62
     7
100
AcDbLine
 10
-0.25
 20
-0.3399999999999999
 30
0.0
 11
0.25
 21
-0.3399999999999999
 31
0.0
  0
ATTDEF
  5
62
330
5F
100
AcDbEntity
  8
ASHADE
  6
Continuous
 62
     1
100
AcDbText
 10
0.0
 20
-0.1
 30
0.0
 40
0.2
  1

  7
ASHADE
 72
     1
 11
0.0
 21
-0.1
 31
0.0
100
AcDbAttributeDefinition
280
     0
  3
Light Name
  2
SNAME
 70
     0
280
     0
  0
LINE
  5
63
330
5F
100
AcDbEntity
  8
ASHADE
  6
Continuous
 62
     7
100
AcDbLine
 10
-0.25
 20
-0.13
 30
0.0
 11
-0.25
 21
-0.3399999999999999
 31
0.0
  0
LINE
  5
64
330
5F
100
AcDbEntity
  8
ASHADE
  6
Continuous
 62
     7
100
AcDbLine
 10
-0.25
 20
-0.18
 30
0.0
 11
-0.29
 21
-0.18
 31
0.0
  0
LINE
  5
65
330
5F
100
AcDbEntity
  8
ASHADE
  6
Continuous
 62
     7
100
AcDbLine
 10
-0.29
 20
-0.22
 30
0.0
 11
-0.25
 21
-0.22
 31
0.0
  0
LINE
  5
66
330
5F
100
AcDbEntity
  8
ASHADE
  6
Continuous
 62
     7
100
AcDbLine
 10
-0.29
 20
-0.18
 30
0.0
 11
-0.29
 21
-0.22
 31
0.0
  0
LINE
  5
67
330
5F
100
AcDbEntity
  8
ASHADE
  6
Continuous
 62
     7
100
AcDbLine
 10
-0.1045454545454545
 20
0.26
 30
0.0
 11
-0.15
 21
0.46
 31
0.0
  0
LINE
  5
68
330
5F
100
AcDbEntity
  8
ASHADE
  6
Continuous
 62
     7
100
AcDbLine
 10
-0.21
 20
0.26
 30
0.0
 11
-0.301304347826087
 21
0.46
 31
0.0
  0
LINE
  5
69
330
5F
100
AcDbEntity
  8
ASHADE
  6
Continuous
 62
     7
100
AcDbLine
 10
-0.25
 20
0.26
 30
0.0
 11
-0.25
 21
0.13
 31
0.0
  0
LINE
  5
6A
330
5F
100
AcDbEntity
  8
ASHADE
  6
Continuous
 62
     7
100
AcDbLine
 10
-0.25
 20
0.22
 30
0.0
 11
-0.29
 21
0.22
 31
0.0
  0
LINE
  5
6B
330
5F
100
AcDbEntity
  8
ASHADE
  6
Continuous
 62
     7
100
AcDbLine
 10
-0.29
 20
0.1799999999999999
 30
0.0
 11
-0.25
 21
0.1799999999999999
 31
0.0
  0
LINE
  5
6C
330
5F
100
AcDbEntity
  8
ASHADE
  6
Continuous
 62
     7
100
AcDbLine
 10
-0.29
 20
0.22
 30
0.0
 11
-0.29
 21
0.1799999999999999
 31
0.0
  0
ATTDEF
  5
6D
330
5F
100
AcDbEntity
  8
ASHADE
  6
Continuous
 62
     7
100
AcDbText
 10
0.0
 20
-0.24
 30
0.0
 40
0.01
  1
0
100
AcDbAttributeDefinition
280
     0
  3
Depth Map Size
  2
ZSIZE
 70
     1
280
     0
  0
ATTDEF
  5
6E
330
5F
100
AcDbEntity
  8
ASHADE
  6
Continuous
 62
     7
100
AcDbText
 10
0.0
 20
-0.3300000000000001
 30
0.0
 40
0.01
  1
0,0,0
100
AcDbAttributeDefinition
280
     0
  3
Look-from XYZ
  2
LFXYZ
 70
     1
280
     0
  0
ATTDEF
  5
6F
330
5F
100
AcDbEntity
  8
ASHADE
  6
Continuous
 62
     7
100
AcDbText
 10
0.0
 20
-0.315
 30
0.0
 40
0.01
  1
0.0
100
AcDbAttributeDefinition
280
     0
  3
Beam Distribution
  2
BEAMDI
 70
     1
280
     0
  0
ATTDEF
  5
70
330
5F
100
AcDbEntity
  8
ASHADE
  6
Continuous
 62
     7
100
AcDbText
 10
0.0
 20
-0.3
 30
0.0
 40
0.01
  1
0.0
100
AcDbAttributeDefinition
280
     0
  3
Cone Delta
  2
CONEDE
 70
     1
280
     0
  0
ATTDEF
  5
71
330
5F
100
AcDbEntity
  8
ASHADE
  6
Continuous
 62
     7
100
AcDbText
 10
0.0
 20
-0.2850000000000001
 30
0.0
 40
0.01
  1
10.0
100
AcDbAttributeDefinition
280
     0
  3
Cone Angle
  2
CONEAN
 70
     1
280
     0
  0
ATTDEF
  5
72
330
5F
100
AcDbEntity
  8
ASHADE
  6
Continuous
 62
     7
100
AcDbText
 10
0.0
 20
-0.27
 30
0.0
 40
0.01
  1
-1
100
AcDbAttributeDefinition
280
     0
  3
*not used*
  2
BIASMAX
 70
     1
280
     0
  0
ATTDEF
  5
73
330
5F
100
AcDbEntity
  8
ASHADE
  6
Continuous
 62
     7
100
AcDbText
 10
0.0
 20
-0.255
 30
0.0
 40
0.01
  1
-1
100
AcDbAttributeDefinition
280
     0
  3
*not used*
  2
BIASMIN
 70
     1
280
     0
  0
ATTDEF
  5
74
330
5F
100
AcDbEntity
  8
ASHADE
  6
Continuous
 62
     7
100
AcDbText
 10
0.0
 20
-0.225
 30
0.0
 40
0.01
  1
1,1,1
100
AcDbAttributeDefinition
280
     0
  3
Light Color (RGB)
  2
COLOR
 70
     1
280
     0
  0
ATTDEF
  5
75
330
5F
100
AcDbEntity
  8
ASHADE
  6
Continuous
 62
     7
100
AcDbText
 10
0.0
 20
-0.21
 30
0.0
 40
0.01
  1
1
100
AcDbAttributeDefinition
280
     0
  3
Light Intensity
  2
INTENSITY
 70
     1
280
     0
  0
ATTDEF
  5
76
330
5F
100
AcDbEntity
  8
ASHADE
  6
Continuous
 62
     7
100
AcDbText
 10
0.0
 20
-0.15
 30
0.0
 40
0.01
  1

100
AcDbAttributeDefinition
280
     0
  3

  2
GNAME
 70
     1
280
     0
  0
ATTDEF
  5
77
330
5F
100
AcDbEntity
  8
ASHADE
  6
Continuous
 62
     7
100
AcDbText
 10
0.0
 20
-0.195
 30
0.0
 40
0.01
  1

100
AcDbAttributeDefinition
280
     0
  3
Look-at Z
  2
LAZ
 70
     1
280
     0
  0
ATTDEF
  5
78
330
5F
100
AcDbEntity
  8
ASHADE
  6
Continuous
 62
     7
100
AcDbText
 10
0.0
 20
-0.18
 30
0.0
 40
0.01
  1

100
AcDbAttributeDefinition
280
     0
  3
Look-at Y
  2
LAY
 70
     1
280
     0
  0
ATTDEF
  5
79
330
5F
100
AcDbEntity
  8
ASHADE
  6
Continuous
 62
     7
100
AcDbText
 10
0.0
 20
-0.165
 30
0.0
 40
0.01
  1

100
AcDbAttributeDefinition
280
     0
  3
Look-at X
  2
LAX
 70
     1
280
     0
  0
LINE
  5
7A
330
5F
100
AcDbEntity
  8
ASHADE
  6
Continuous
 62
     7
100
AcDbLine
 10
0.25
 20
-0.3399999999999999
 30
0.0
 11
0.25
 21
-0.13
 31
0.0
  0
LINE
  5
7B
330
5F
100
AcDbEntity
  8
ASHADE
  6
Continuous
 62
     7
100
AcDbLine
 10
0.25
 20
-0.18
 30
0.0
 11
0.29
 21
-0.18
 31
0.0
  0
LINE
  5
7C
330
5F
100
AcDbEntity
  8
ASHADE
  6
Continuous
 62
     7
100
AcDbLine
 10
0.29
 20
-0.22
 30
0.0
 11
0.25
 21
-0.22
 31
0.0
  0
LINE
  5
7D
330
5F
100
AcDbEntity
  8
ASHADE
  6
Continuous
 62
     7
100
AcDbLine
 10
0.29
 20
-0.18
 30
0.0
 11
0.29
 21
-0.22
 31
0.0
  0
LINE
  5
7E
330
5F
100
AcDbEntity
  8
ASHADE
  6
Continuous
 62
     7
100
AcDbLine
 10
0.21
 20
0.26
 30
0.0
 11
0.301304347826087
 21
0.46
 31
0.0
  0
LINE
  5
7F
330
5F
100
AcDbEntity
  8
ASHADE
  6
Continuous
 62
     7
100
AcDbLine
 10
0.1045454545454545
 20
0.26
 30
0.0
 11
0.15
 21
0.46
 31
0.0
  0
LINE
  5
80
330
5F
100
AcDbEntity
  8
ASHADE
  6
Continuous
 62
     7
100
AcDbLine
 10
0.0
 20
0.26
 30
0.0
 11
0.0
 21
0.46
 31
0.0
  0
LINE
  5
81
330
5F
100
AcDbEntity
  8
ASHADE
  6
Continuous
 62
     7
100
AcDbLine
 10
0.25
 20
0.13
 30
0.0
 11
0.25
 21
0.26
 31
0.0
  0
LINE
  5
82
330
5F
100
AcDbEntity
  8
ASHADE
  6
Continuous
 62
     7
100
AcDbLine
 10
0.25
 20
0.22
 30
0.0
 11
0.29
 21
0.22
 31
0.0
  0
LINE
  5
83
330
5F
100
AcDbEntity
  8
ASHADE
  6
Continuous
 62
     7
100
AcDbLine
 10
0.29
 20
0.1799999999999999
 30
0.0
 11
0.25
 21
0.1799999999999999
 31
0.0
  0
LINE
  5
84
330
5F
100
AcDbEntity
  8
ASHADE
  6
Continuous
 62
     7
100
AcDbLine
 10
0.29
 20
0.22
 30
0.0
 11
0.29
 21
0.1799999999999999
 31
0.0
  0
ENDBLK
  5
86
330
5F
100
AcDbEntity
  8
0
100
AcDbBlockEnd
  0
BLOCK
  5
92
330
91
100
AcDbEntity
  8
ASHADE
100
AcDbBlockBegin
  2
AVE_RENDER
 70
     0
 10
0.0
 20
0.0
 30
0.0
  3
AVE_RENDER
  1
AVE_RENDER
  0
ENDBLK
  5
93
330
91
100
AcDbEntity
  8
0
100
AcDbBlockEnd
  0
BLOCK
  5
A0
330
9F
100
AcDbEntity
  8
ASHADE
100
AcDbBlockBegin
  2
AVE_GLOBAL
 70
     0
 10
0.0
 20
0.0
 30
0.0
  3
AVE_GLOBAL
  1
AVE_GLOBAL
  0
ENDBLK
  5
A1
330
9F
100
AcDbEntity
  8
0
100
AcDbBlockEnd
  0
ENDSEC
  0
SECTION
  2
ENTITIES
  0
INSERT
  5
94
330
1F
100
AcDbEntity
  8
ASHADE
 62
     1
100
AcDbBlockReference
  2
AVE_RENDER
 10
0.0
 20
0.0
 30
0.0
1001
AVE_RENDER
1002
{
1070
     7
1000
Pref
1070
    30
1070
    20
1070
     1
1070
     0
1000

1070
    10
1070
     1
1070
    10
1040
1.0
1070
     1
1040
0.3
1040
0.7
1040
0.0
1040
10.0
1010
-1.0
1020
-1.0
1030
-1.0
1040
0.3
1070
    49
1070
     0
1070
     0
1010
1.0
1020
1.0
1030
1.0
1040
45.0
1070
     1
1070
     0
1000
WCS
1040
0.0
1070
     0
1040
10.0
1002
}
  0
INSERT
  5
95
330
1F
100
AcDbEntity
  8
ASHADE
 62
     3
100
AcDbBlockReference
  2
AVE_RENDER
 10
0.0
 20
0.0
 30
0.0
1001
AVE_RENDER
1002
{
1070
     0
1000
Full Opt
1070
     0
1070
     1
1070
     1
1070
     1
1070
     0
1070
     0
1070
     0
1070
     1
1070
     1
1040
0.0001
1040
0.0001
1002
}
  0
INSERT
  5
96
330
1F
100
AcDbEntity
  8
ASHADE
 62
     4
100
AcDbBlockReference
  2
AVE_RENDER
 10
0.0
 20
0.0
 30
0.0
1001
AVE_RENDER
1002
{
1070
     0
1000
Quick Opt
1070
     0
1070
     1
1070
     1
1070
     1
1070
     0
1070
     0
1070
     1
1002
}
  0
INSERT
  5
97
330
1F
100
AcDbEntity
  8
ASHADE
 62
     5
100
AcDbBlockReference
  2
AVE_RENDER
 10
0.0
 20
0.0
 30
0.0
1001
AVE_RENDER
1002
{
1070
     1
1000
Scanl Opt
1070
     2
1070
     0
1070
     2
1040
2.0
1040
4.0
1070
     0
1070
     1
1070
     0
1040
0.03
1002
}
  0
INSERT
  5
98
330
1F
100
AcDbEntity
  8
ASHADE
 62
     6
100
AcDbBlockReference
  2
AVE_RENDER
 10
0.0
 20
0.0
 30
0.0
1001
AVE_RENDER
1002
{
1070
     2
1000
Raytr Opt
1070
     2
1070
     0
1070
     2
1040
2.0
1040
4.0
1070
     0
1070
     1
1070
     1
1040
0.03
1070
     3
1040
0.03
1002
}
  0
INSERT
  5
99
330
1F
100
AcDbEntity
  8
ASHADE
 62
     7
100
AcDbBlockReference
  2
AVE_RENDER
 10
0.0
 20
0.0
 30
0.0
1001
AVE_RENDER
1002
{
1070
     0
1000
RFile Opt
1070
     1
1070
   640
1070
   480
1070
 10000
1070
     1
1070
     8
1070
     8
1070
     0
1070
     0
1070
     0
1070
     0
1070
     0
1070
     0
1070
     0
1002
}
  0
INSERT
  5
9A
330
1F
100
AcDbEntity
  8
ASHADE
 62
     8
100
AcDbBlockReference
  2
AVE_RENDER
 10
0.0
 20
0.0
 30
0.0
1001
AVE_RENDER
1002
{
1070
     0
1000
Fog Opt
1070
     0
1070
     0
1040
0.0
1040
1.0
1040
0.0
1040
1.0
1010
0.5
1020
0.5
1030
0.5
1002
}
  0
INSERT
  5
9B
330
1F
100
AcDbEntity
  8
ASHADE
 62
     9
100
AcDbBlockReference
  2
AVE_RENDER
 10
0.0
 20
0.0
 30
0.0
1001
AVE_RENDER
1002
{
1070
     0
1000
BG Opt
1070
     0
1070
     1
1010
0.0
1020
0.0
1030
0.0
1010
1.0
1020
0.0
1030
0.0
1010
0.0
1020
1.0
1030
0.0
1010
0.0
1020
0.0
1030
1.0
1040
0.5
1040
0.33
1040
0.0
1000

1070
     1
1000

1070
     1
1070
     1
1040
1.0
1040
1.0
1040
0.0
1040
0.0
1070
     0
1002
}
  0
INSERT
  5
A2
330
1F
100
AcDbEntity
  8
ASHADE
 62
     1
100
AcDbBlockReference
  2
AVE_GLOBAL
 10
0.0
 20
0.0
 30
0.0
1001
AVE_MATERIAL
1002
{
1000
*GLOBAL*
1000
2
1000
Global finish.
1002
{
1002
}
1002
{
1070
    63
1002
{
1002
{
1010
-1.0
1020
-1.0
1030
-1.0
1002
}
1040
0.1000000014901161
1000

1040
0.0
1002
{
1002
}
1040
0.0
1002
{
1002
}
1040
0.0
1002
}
1002
{
1002
{
1010
-1.0
1020
-1.0
1030
-1.0
1002
}
1040
0.6999999880790711
1000

1040
0.0
1002
{
1002
}
1040
0.0
1002
{
1002
}
1040
0.0
1002
}
1002
{
1002
{
1010
-1.0
1020
-1.0
1030
-1.0
1002
}
1040
0.2000000029802322
1000

1040
0.0
1002
{
1002
}
1040
0.0
1002
{
1002
}
1040
0.0
1002
}
1002
{
1070
     0
1002
{
1070
     1
1002
{
1040
1.0
1040
1.0
1000

1040
0.0
1002
{
1002
}
1040
0.0
1002
{
1002
}
1040
0.0
1002
}
1002
}
1040
1.0
1040
0.0
1040
0.0
1002
}
1002
{
1040
1.0
1040
1.0
1000

1040
0.0
1002
{
1002
}
1040
0.0
1002
{
1002
}
1040
0.0
1002
}
1002
{
1040
0.5
1040
1.0
1000

1040
0.0
1002
{
1002
}
1040
0.0
1002
{
1002
}
1040
0.0
1002
}
1002
{
1070
     0
1040
0.0
1002
{
1002
}
1040
1.0
1002
{
1002
}
1040
0.0
1002
}
1002
{
1040
0.0
1002
{
1002
{
1010
0.0
1020
0.0
1030
0.0
1002
}
1040
1.0
1000

1040
0.0
1002
{
1002
}
1040
0.0
1002
{
1002
}
1040
0.0
1002
}
1002
}
1002
{
1002
{
1070
     1
1002
{
1040
0.0
1040
1.0
1000

1040
0.0
1002
{
1002
}
1040
0.0
1002
{
1002
}
1040
0.0
1002
}
1002
}
1040
0.0
1002
{
1002
}
1010
1.0
1020
0.0
1030
0.0
1010
0.0
1020
1.0
1030
0.0
1010
0.0
1020
0.0
1030
1.0
1070
     0
1002
}
1002
{
1002
{
1040
1.0
1040
1.0
1002
{
1070
     1
1002
{
1040
1.0
1040
1.0
1000

1040
0.0
1002
{
1002
}
1040
0.0
1002
{
1002
}
1040
0.0
1002
}
1002
}
1002
}
1070
     0
1040
0.0
1002
{
1002
}
1002
}
1002
{
1002
}
1002
}
1002
{
1071
        3
1070
     3
1070
     0
1002
{
1070
     2
1070
     0
1070
     0
1040
0.0
1002
}
1070
     0
1070
     2
1002
{
1002
}
1002
}
1002
{
1040
8030.0
1040
190.3000030517578
1040
0.3050000071525574
1040
228.0
1040
545.0
1040
14.0
1040
17.39999961853027
1040
0.4560000002384186
1002
}
1002
}
  0
MESH
  5
F9
330
1F
100
AcDbEntity
  8
OracDecor_cornice_mouldings
 62
    36
420
  8862472
160
             52496
310
10CD0000B20500000C00000013000000020000003C0000000600000002000000000000C0FF3F8FC0000000A02FFE43C0000000000000D0BE000000C0FF3F8FC00000008076A440C0000000000000D0BE0C000000130000000A0000003C0000000600000002000000000000C0FF3F8FC0000000A02FFE43C0000000000000D0
310
BE0000006000408F40000000A02FFE43C0000000000000D0BE0C00000013000000120000003C00000006000000020000000000006000408F400000008076A440C0000000000000D0BE0000006000408F40000000A02FFE43C0000000000000D0BE0C000000130000001A0000003C0000000600000002000000000000C0FF3F
310
8FC00000008076A440C0000000000000D0BE0000006000408F400000008076A440C0000000000000D0BE0C00000013000000220000003C0000000600000002000000000000C0FF3F8FC0000000A02FFE43C0000000000000D0BE000000C0FF3F8FC000000060AE9743C000000000A30713C00C000000130000002A0000003C
310
0000000600000002000000000000C0FF3F8FC000000060AE9743C000000000A30713C00000006000408F4000000060AE9743C000000000A30713C00C00000013000000320000003C00000006000000020000000000006000408F4000000060AE9743C000000000A30713C00000006000408F40000000A02FFE43C000000000
310
0000D0BE0C000000130000003A0000003C0000000600000002000000000000C0FF3F8FC000000060AE9743C000000000A30713C0000000C0FF3F8FC0000000C0948E43C000000000418413C00C00000013000000420000003C0000000600000002000000000000C0FF3F8FC0000000C0948E43C000000000418413C0000000
310
6000408F40000000C0948E43C000000000418413C00C000000130000004A0000003C00000006000000020000000000006000408F40000000C0948E43C000000000418413C00000006000408F4000000060AE9743C000000000A30713C00C00000013000000520000003C0000000600000002000000000000C0FF3F8FC00000
310
00A07B7D43C0000000004CB213C0000000C0FF3F8FC0000000C0948E43C000000000418413C00C000000130000005A0000003C0000000600000002000000000000C0FF3F8FC0000000A07B7D43C0000000004CB213C00000006000408F40000000A07B7D43C0000000004CB213C00C00000013000000620000003C00000006
310
000000020000000000006000408F40000000C0948E43C000000000418413C00000006000408F40000000A07B7D43C0000000004CB213C00C000000130000006A0000003C0000000600000002000000000000C0FF3F8FC0000000A07B7D43C0000000004CB213C0000000C0FF3F8FC0000000E0A7F742C000000000CC9713C0
310
0C00000013000000720000003C0000000600000002000000000000C0FF3F8FC0000000E0A7F742C000000000CC9713C00000006000408F40000000E0A7F742C000000000CC9713C00C000000130000007A0000003C00000006000000020000000000006000408F40000000E0A7F742C000000000CC9713C00000006000408F
310
40000000A07B7D43C0000000004CB213C00C00000013000000820000003C0000000600000002000000000000C0FF3F8FC0000000E0A7F742C000000000CC9713C0000000C0FF3F8FC000000060BB4B42C00000000041A413C00C000000130000008A0000003C0000000600000002000000000000C0FF3F8FC000000060BB4B
310
42C00000000041A413C00000006000408F4000000060BB4B42C00000000041A413C00C00000013000000920000003C00000006000000020000000000006000408F40000000E0A7F742C000000000CC9713C00000006000408F4000000060BB4B42C00000000041A413C00C000000130000009A0000003C0000000600000002
310
000000000000C0FF3F8FC000000060BB4B42C00000000041A413C0000000C0FF3F8FC0000000C014AE41C000000000FBE313C00C00000013000000A20000003C0000000600000002000000000000C0FF3F8FC0000000C014AE41C000000000FBE313C00000006000408F40000000C014AE41C000000000FBE313C00C000000
310
13000000AA0000003C00000006000000020000000000006000408F4000000060BB4B42C00000000041A413C00000006000408F40000000C014AE41C000000000FBE313C00C00000013000000B20000003C0000000600000002000000000000C0FF3F8FC0000000C014AE41C000000000FBE313C0000000C0FF3F8FC0000000
310
205B2B41C000000000814B14C00C00000013000000BA0000003C0000000600000002000000000000C0FF3F8FC0000000205B2B41C000000000814B14C00000006000408F40000000205B2B41C000000000814B14C00C00000013000000C20000003C00000006000000020000000000006000408F40000000205B2B41C00000
310
0000814B14C00000006000408F40000000C014AE41C000000000FBE313C00C00000013000000CA0000003C0000000600000002000000000000C0FF3F8FC0000000205B2B41C000000000814B14C0000000C0FF3F8FC0000000A0D07340C0000000005B4715C00C00000013000000D20000003C000000060000000200000000
310
0000C0FF3F8FC0000000A0D07340C0000000005B4715C00000006000408F40000000A0D07340C0000000005B4715C00C00000013000000DA0000003C00000006000000020000000000006000408F40000000205B2B41C000000000814B14C00000006000408F40000000A0D07340C0000000005B4715C00C00000013000000
310
E20000003C0000000600000002000000000000C0FF3F8FC0000000A0D07340C0000000005B4715C0000000C0FF3F8FC000000000DE953FC000000000F0AB16C00C00000013000000EA0000003C0000000600000002000000000000C0FF3F8FC000000000DE953FC000000000F0AB16C00000006000408F4000000020DE953F
310
C000000000F0AB16C00C00000013000000F20000003C00000006000000020000000000006000408F40000000A0D07340C0000000005B4715C00000006000408F4000000020DE953FC000000000F0AB16C00C00000013000000FA0000003C0000000600000002000000000000C0FF3F8FC000000000DE953FC000000000F0AB
310
16C0000000C0FF3F8FC0000000C097723EC000000000A78518C00C00000013000000020100003C0000000600000002000000000000C0FF3F8FC0000000C097723EC000000000A78518C00000006000408F40000000C097723EC000000000A78518C00C000000130000000A0100003C00000006000000020000000000006000
310
408F4000000020DE953FC000000000F0AB16C00000006000408F40000000C097723EC000000000A78518C00C00000013000000120100003C0000000600000002000000000000C0FF3F8FC0000000C097723EC000000000A78518C0000000C0FF3F8FC00000004072473DC000000000E5391BC00C000000130000001A010000
310
3C0000000600000002000000000000C0FF3F8FC00000004072473DC000000000E5391BC00000006000408F400000004072473DC000000000E5391BC00C00000013000000220100003C00000006000000020000000000006000408F40000000C097723EC000000000A78518C00000006000408F400000004072473DC0000000
310
00E5391BC00C000000130000002A0100003C0000000600000002000000000000C0FF3F8FC00000004072473DC000000000E5391BC0000000C0FF3F8FC0000000205F523CC000000000F25B1EC00C00000013000000320100003C0000000600000002000000000000C0FF3F8FC0000000205F523CC000000000F25B1EC00000
310
006000408F40000000205F523CC000000000F25B1EC00C000000130000003A0100003C00000006000000020000000000006000408F400000004072473DC000000000E5391BC00000006000408F40000000205F523CC000000000F25B1EC00C00000013000000420100003C0000000600000002000000000000C0FF3F8FC000
310
0000205F523CC000000000F25B1EC0000000C0FF3F8FC000000040598B3BC000000080ACE420C00C000000130000004A0100003C0000000600000002000000000000C0FF3F8FC000000040598B3BC000000080ACE420C00000006000408F4000000040598B3BC000000080ACE420C00C00000013000000520100003C000000
310
06000000020000000000006000408F40000000205F523CC000000000F25B1EC00000006000408F4000000040598B3BC000000080ACE420C00C000000130000005A0100003C0000000600000002000000000000C0FF3F8FC000000040598B3BC000000080ACE420C0000000C0FF3F8FC0000000C0D7DA3AC0000000C08ADC22
310
C00C00000013000000620100003C0000000600000002000000000000C0FF3F8FC0000000C0D7DA3AC0000000C08ADC22C00000006000408F40000000C0D7DA3AC0000000C08ADC22C00C000000130000006A0100003C00000006000000020000000000006000408F4000000040598B3BC000000080ACE420C0000000600040
310
8F40000000C0D7DA3AC0000000C08ADC22C00C00000013000000720100003C0000000600000002000000000000C0FF3F8FC0000000C0D7DA3AC0000000C08ADC22C0000000C0FF3F8FC00000002073453AC00000000076E924C00C000000130000007A0100003C0000000600000002000000000000C0FF3F8FC00000002073
310
453AC00000000076E924C00000006000408F400000002073453AC00000000076E924C00C00000013000000820100003C00000006000000020000000000006000408F400000002073453AC00000000076E924C00000006000408F40000000C0D7DA3AC0000000C08ADC22C00C000000130000008A0100003C00000006000000
310
02000000000000C0FF3F8FC00000002073453AC00000000076E924C0000000C0FF3F8FC000000080D9B939C000000040482027C00C00000013000000920100003C0000000600000002000000000000C0FF3F8FC000000080D9B939C000000040482027C00000006000408F4000000080D9B939C000000040482027C00C0000
310
00130000009A0100003C00000006000000020000000000006000408F400000002073453AC00000000076E924C00000006000408F4000000080D9B939C000000040482027C00C00000013000000A20100003C0000000600000002000000000000C0FF3F8FC000000080D9B939C000000040482027C0000000C0FF3F8FC00000
310
0000603339C0000000C0355029C00C00000013000000AA0100003C0000000600000002000000000000C0FF3F8FC000000000603339C0000000C0355029C00000006000408F4000000000603339C0000000C0355029C00C00000013000000B20100003C00000006000000020000000000006000408F4000000080D9B939C000
310
000040482027C00000006000408F4000000000603339C0000000C0355029C00C00000013000000BA0100003C0000000600000002000000000000C0FF3F8FC000000000603339C0000000C0355029C0000000C0FF3F8FC0000000606FAE38C000000000FF5A2BC00C00000013000000C20100003C0000000600000002000000
310
000000C0FF3F8FC0000000606FAE38C000000000FF5A2BC00000006000408F40000000606FAE38C000000000FF5A2BC00C00000013000000CA0100003C00000006000000020000000000006000408F40000000606FAE38C000000000FF5A2BC00000006000408F4000000000603339C0000000C0355029C00C000000130000
310
00D20100003C0000000600000002000000000000C0FF3F8FC0000000606FAE38C000000000FF5A2BC0000000C0FF3F8FC000000020F01838C0000000C084452DC00C00000013000000DA0100003C0000000600000002000000000000C0FF3F8FC000000020F01838C0000000C084452DC00000006000408F4000000020F018
310
38C0000000C084452DC00C00000013000000E20100003C00000006000000020000000000006000408F40000000606FAE38C000000000FF5A2BC00000006000408F4000000020F01838C0000000C084452DC00C00000013000000EA0100003C0000000600000002000000000000C0FF3F8FC000000020F01838C0000000C084
310
452DC0000000C0FF3F8FC000000000757137C00000000073F52EC00C00000013000000F20100003C0000000600000002000000000000C0FF3F8FC000000000757137C00000000073F52EC00000006000408F4000000000757137C00000000073F52EC00C00000013000000FA0100003C000000060000000200000000000060
310
00408F4000000020F01838C0000000C084452DC00000006000408F4000000000757137C00000000073F52EC00C00000013000000020200003C0000000600000002000000000000C0FF3F8FC000000000757137C00000000073F52EC0000000C0FF3F8FC00000008054A836C000000060D23A30C00C000000130000000A0200
310
003C0000000600000002000000000000C0FF3F8FC00000008054A836C000000060D23A30C00000006000408F400000008054A836C000000060D23A30C00C00000013000000120200003C00000006000000020000000000006000408F400000008054A836C000000060D23A30C00000006000408F4000000000757137C00000
310
000073F52EC00C000000130000001A0200003C0000000600000002000000000000C0FF3F8FC00000008054A836C000000060D23A30C0000000C0FF3F8FC0000000401CB935C0000000C00BDF30C00C00000013000000220200003C0000000600000002000000000000C0FF3F8FC0000000401CB935C0000000C00BDF30C000
310
00006000408F40000000401CB935C0000000C00BDF30C00C000000130000002A0200003C00000006000000020000000000006000408F400000008054A836C000000060D23A30C00000006000408F40000000401CB935C0000000C00BDF30C00C00000013000000320200003C0000000600000002000000000000C0FF3F8FC0
310
000000401CB935C0000000C00BDF30C0000000C0FF3F8FC000000000199D34C000000000256431C00C000000130000003A0200003C0000000600000002000000000000C0FF3F8FC000000000199D34C000000000256431C00000006000408F4000000000199D34C000000000256431C00C00000013000000420200003C0000
310
0006000000020000000000006000408F40000000401CB935C0000000C00BDF30C00000006000408F4000000000199D34C000000000256431C00C000000130000004A0200003C0000000600000002000000000000C0FF3F8FC000000000199D34C000000000256431C0000000C0FF3F8FC000000040B53C33C0000000C020C9
310
31C00C00000013000000520200003C0000000600000002000000000000C0FF3F8FC000000040B53C33C0000000C020C931C00000006000408F4000000040B53C33C0000000C020C931C00C000000130000005A0200003C00000006000000020000000000006000408F4000000040B53C33C0000000C020C931C00000006000
310
408F4000000000199D34C000000000256431C00C00000013000000620200003C0000000600000002000000000000C0FF3F8FC000000040B53C33C0000000C020C931C0000000C0FF3F8FC000000040A89931C000000080400332C00C000000130000006A0200003C0000000600000002000000000000C0FF3F8FC000000040
310
A89931C000000080400332C00000006000408F4000000040A89931C000000080400332C00C00000013000000720200003C00000006000000020000000000006000408F4000000040B53C33C0000000C020C931C00000006000408F4000000040A89931C000000080400332C00C000000130000007A0200003C000000060000
310
0002000000000000C0FF3F8FC000000040A89931C000000080400332C0000000C0FF3F8FC0000000A0427630C000000080171132C00C00000013000000820200003C0000000600000002000000000000C0FF3F8FC0000000A0427630C000000080171132C00000006000408F40000000A0427630C000000080171132C00C00
310
0000130000008A0200003C00000006000000020000000000006000408F4000000040A89931C000000080400332C00000006000408F40000000A0427630C000000080171132C00C00000013000000920200003C0000000600000002000000000000C0FF3F8FC0000000A0427630C000000080171132C0000000C0FF3F8FC000
310
0000A0AD6430C000000060431832C00C000000130000009A0200003C0000000600000002000000000000C0FF3F8FC0000000A0AD6430C000000060431832C00000006000408F40000000A0AD6430C000000060431832C00C00000013000000A20200003C00000006000000020000000000006000408F40000000A0427630C0
310
00000080171132C00000006000408F40000000A0AD6430C000000060431832C00C00000013000000AA0200003C0000000600000002000000000000C0FF3F8FC000000020D15C30C0000000408C2932C0000000C0FF3F8FC0000000A0AD6430C000000060431832C00C00000013000000B20200003C00000006000000020000
310
00000000C0FF3F8FC000000020D15C30C0000000408C2932C00000006000408F4000000020D15C30C0000000408C2932C00C00000013000000BA0200003C00000006000000020000000000006000408F40000000A0AD6430C000000060431832C00000006000408F4000000020D15C30C0000000408C2932C00C0000001300
310
0000C20200003C0000000600000002000000000000C0FF3F8FC000000020D15C30C0000000408C2932C0000000C0FF3F8FC000000080B53530C0000000803A9435C00C00000013000000CA0200003C0000000600000002000000000000C0FF3F8FC000000080B53530C0000000803A9435C00000006000408F4000000080B5
310
3530C0000000803A9435C00C00000013000000D20200003C00000006000000020000000000006000408F4000000020D15C30C0000000408C2932C00000006000408F4000000080B53530C0000000803A9435C00C00000013000000DA0200003C0000000600000002000000000000C0FF3F8FC000000080B53530C000000080
310
3A9435C0000000C0FF3F8FC0000000803D2730C00000000092B535C00C00000013000000E20200003C0000000600000002000000000000C0FF3F8FC0000000803D2730C00000000092B535C00000006000408F40000000803D2730C00000000092B535C00C00000013000000EA0200003C0000000600000002000000000000
310
6000408F40000000803D2730C00000000092B535C00000006000408F4000000080B53530C0000000803A9435C00C00000013000000F20200003C0000000600000002000000000000C0FF3F8FC000000060550630C0000000A000C535C0000000C0FF3F8FC0000000803D2730C00000000092B535C00C00000013000000FA02
310
00003C0000000600000002000000000000C0FF3F8FC000000060550630C0000000A000C535C00000006000408F4000000060550630C0000000A000C535C00C00000013000000020300003C00000006000000020000000000006000408F40000000803D2730C00000000092B535C00000006000408F4000000060550630C000
310
0000A000C535C00C000000130000000A0300003C0000000600000002000000000000C0FF3F8FC000000060550630C0000000A000C535C0000000C0FF3F8FC00000004007EA2EC0000000000AD335C00C00000013000000120300003C0000000600000002000000000000C0FF3F8FC00000004007EA2EC0000000000AD335C0
310
0000006000408F400000004007EA2EC0000000000AD335C00C000000130000001A0300003C00000006000000020000000000006000408F4000000060550630C0000000A000C535C00000006000408F400000004007EA2EC0000000000AD335C00C00000013000000220300003C0000000600000002000000000000C0FF3F8F
310
C00000004007EA2EC0000000000AD335C0000000C0FF3F8FC0000000601D832DC0000000A0D4EC35C00C000000130000002A0300003C0000000600000002000000000000C0FF3F8FC0000000601D832DC0000000A0D4EC35C00000006000408F40000000601D832DC0000000A0D4EC35C00C00000013000000320300003C00
310
000006000000020000000000006000408F40000000601D832DC0000000A0D4EC35C00000006000408F400000004007EA2EC0000000000AD335C00C000000130000003A0300003C0000000600000002000000000000C0FF3F8FC0000000601D832DC0000000A0D4EC35C0000000C0FF3F8FC000000000033E2CC00000000084
310
0F36C00C00000013000000420300003C0000000600000002000000000000C0FF3F8FC000000000033E2CC000000000840F36C00000006000408F4000000000033E2CC000000000840F36C00C000000130000004A0300003C00000006000000020000000000006000408F40000000601D832DC0000000A0D4EC35C000000060
310
00408F4000000000033E2CC000000000840F36C00C00000013000000520300003C0000000600000002000000000000C0FF3F8FC000000000033E2CC000000000840F36C0000000C0FF3F8FC000000020001B2BC0000000E0DF3A36C00C000000130000005A0300003C0000000600000002000000000000C0FF3F8FC0000000
310
20001B2BC0000000E0DF3A36C00000006000408F4000000020001B2BC0000000E0DF3A36C00C00000013000000620300003C00000006000000020000000000006000408F4000000000033E2CC000000000840F36C00000006000408F4000000020001B2BC0000000E0DF3A36C00C000000130000006A0300003C0000000600
310
000002000000000000C0FF3F8FC000000020001B2BC0000000E0DF3A36C0000000C0FF3F8FC000000040991F2AC0000000A07B6B36C00C00000013000000720300003C0000000600000002000000000000C0FF3F8FC000000040991F2AC0000000A07B6B36C00000006000408F4000000040991F2AC0000000A07B6B36C00C
310
000000130000007A0300003C00000006000000020000000000006000408F4000000020001B2BC0000000E0DF3A36C00000006000408F4000000040991F2AC0000000A07B6B36C00C00000013000000820300003C0000000600000002000000000000C0FF3F8FC000000040991F2AC0000000A07B6B36C0000000C0FF3F8FC0
310
00000000A64D29C000000080F9A036C00C000000130000008A0300003C0000000600000002000000000000C0FF3F8FC000000000A64D29C000000080F9A036C00000006000408F4000000000A64D29C000000080F9A036C00C00000013000000920300003C00000006000000020000000000006000408F4000000040991F2A
310
C0000000A07B6B36C00000006000408F4000000000A64D29C000000080F9A036C00C000000130000009A0300003C0000000600000002000000000000C0FF3F8FC000000000A64D29C000000080F9A036C0000000C0FF3F8FC0000000E0764628C0000000C00FFB36C00C00000013000000A20300003C000000060000000200
310
0000000000C0FF3F8FC0000000E0764628C0000000C00FFB36C00000006000408F40000000E0764628C0000000C00FFB36C00C00000013000000AA0300003C00000006000000020000000000006000408F4000000000A64D29C000000080F9A036C00000006000408F40000000E0764628C0000000C00FFB36C00C00000013
310
000000B20300003C0000000600000002000000000000C0FF3F8FC0000000E0764628C0000000C00FFB36C0000000C0FF3F8FC0000000C00F2E27C000000060F88237C00C00000013000000BA0300003C0000000600000002000000000000C0FF3F8FC0000000C00F2E27C000000060F88237C00000006000408F40000000C0
310
0F2E27C000000060F88237C00C00000013000000C20300003C00000006000000020000000000006000408F40000000E0764628C0000000C00FFB36C00000006000408F40000000C00F2E27C000000060F88237C00C00000013000000CA0300003C0000000600000002000000000000C0FF3F8FC0000000C00F2E27C0000000
310
60F88237C0000000C0FF3F8FC000000060F25D26C000000000511638C00C00000013000000D20300003C0000000600000002000000000000C0FF3F8FC000000060F25D26C000000000511638C00000006000408F4000000060F25D26C000000000511638C00C00000013000000DA0300003C00000006000000020000000000
310
006000408F40000000C00F2E27C000000060F88237C00000006000408F4000000060F25D26C000000000511638C00C00000013000000E20300003C0000000600000002000000000000C0FF3F8FC000000060F25D26C000000000511638C0000000C0FF3F8FC0000000A03EB525C0000000203CBD38C00C00000013000000EA
310
0300003C0000000600000002000000000000C0FF3F8FC0000000A03EB525C0000000203CBD38C00000006000408F40000000A03EB525C0000000203CBD38C00C00000013000000F20300003C00000006000000020000000000006000408F4000000060F25D26C000000000511638C00000006000408F40000000A03EB525C0
310
000000203CBD38C00C00000013000000FA0300003C0000000600000002000000000000C0FF3F8FC0000000A03EB525C0000000203CBD38C0000000C0FF3F8FC000000080E42C25C000000080AD7039C00C00000013000000020400003C0000000600000002000000000000C0FF3F8FC000000080E42C25C000000080AD7039
310
C00000006000408F4000000080E42C25C000000080AD7039C00C000000130000000A0400003C00000006000000020000000000006000408F40000000A03EB525C0000000203CBD38C00000006000408F4000000080E42C25C000000080AD7039C00C00000013000000120400003C0000000600000002000000000000C0FF3F
310
8FC000000080E42C25C000000080AD7039C0000000C0FF3F8FC0000000401ABA24C00000004058353AC00C000000130000001A0400003C0000000600000002000000000000C0FF3F8FC0000000401ABA24C00000004058353AC00000006000408F40000000401ABA24C00000004058353AC00C00000013000000220400003C
310
00000006000000020000000000006000408F4000000080E42C25C000000080AD7039C00000006000408F40000000401ABA24C00000004058353AC00C000000130000002A0400003C0000000600000002000000000000C0FF3F8FC0000000401ABA24C00000004058353AC0000000C0FF3F8FC000000080DF5E24C000000040
310
40033BC00C00000013000000320400003C0000000600000002000000000000C0FF3F8FC000000080DF5E24C00000004040033BC00000006000408F4000000080DF5E24C00000004040033BC00C000000130000003A0400003C00000006000000020000000000006000408F40000000401ABA24C00000004058353AC0000000
310
6000408F4000000080DF5E24C00000004040033BC00C00000013000000420400003C0000000600000002000000000000C0FF3F8FC000000080DF5E24C00000004040033BC0000000C0FF3F8FC000000040FC1424C0000000206FE43BC00C000000130000004A0400003C0000000600000002000000000000C0FF3F8FC00000
310
0040FC1424C0000000206FE43BC00000006000408F4000000040FC1424C0000000206FE43BC00C00000013000000520400003C00000006000000020000000000006000408F4000000080DF5E24C00000004040033BC00000006000408F4000000040FC1424C0000000206FE43BC00C000000130000005A0400003C00000006
310
00000002000000000000C0FF3F8FC000000040FC1424C0000000206FE43BC0000000C0FF3F8FC000000080E0DE23C0000000207CC93CC00C00000013000000620400003C0000000600000002000000000000C0FF3F8FC000000080E0DE23C0000000207CC93CC00000006000408F4000000080E0DE23C0000000207CC93CC0
310
0C000000130000006A0400003C00000006000000020000000000006000408F4000000080E0DE23C0000000207CC93CC00000006000408F4000000040FC1424C0000000206FE43BC00C00000013000000720400003C0000000600000002000000000000C0FF3F8FC000000080E0DE23C0000000207CC93CC0000000C0FF3F8F
310
C0000000209BB623C000000040D6C13DC00C000000130000007A0400003C0000000600000002000000000000C0FF3F8FC0000000209BB623C000000040D6C13DC00000006000408F40000000209BB623C000000040D6C13DC00C00000013000000820400003C00000006000000020000000000006000408F40000000209BB6
310
23C000000040D6C13DC00000006000408F4000000080E0DE23C0000000207CC93CC00C000000130000008A0400003C0000000600000002000000000000C0FF3F8FC0000000209BB623C000000040D6C13DC0000000C0FF3F8FC000000000AD9C23C00000004076B13EC00C00000013000000920400003C0000000600000002
310
000000000000C0FF3F8FC000000000AD9C23C00000004076B13EC00000006000408F4000000000AD9C23C00000004076B13EC00C000000130000009A0400003C00000006000000020000000000006000408F4000000000AD9C23C00000004076B13EC00000006000408F40000000209BB623C000000040D6C13DC00C000000
310
13000000A20400003C0000000600000002000000000000C0FF3F8FC000000000AD9C23C00000004076B13EC0000000C0FF3F8FC0000000805D8B23C000000080F39E3FC00C00000013000000AA0400003C0000000600000002000000000000C0FF3F8FC0000000805D8B23C000000080F39E3FC00000006000408F40000000
310
805D8B23C000000080F39E3FC00C00000013000000B20400003C00000006000000020000000000006000408F40000000805D8B23C000000080F39E3FC00000006000408F4000000000AD9C23C00000004076B13EC00C00000013000000BA0400003C0000000600000002000000000000C0FF3F8FC0000000805D8B23C00000
310
0080F39E3FC0000000C0FF3F8FC000000060D38023C0000000002B4D40C00C00000013000000C20400003C0000000600000002000000000000C0FF3F8FC000000060D38023C0000000002B4D40C00000006000408F4000000060D38023C0000000002B4D40C00C00000013000000CA0400003C000000060000000200000000
310
00006000408F4000000060D38023C0000000002B4D40C00000006000408F40000000805D8B23C000000080F39E3FC00C00000013000000D20400003C0000000600000002000000000000C0FF3F8FC000000000457C23C0000000404DC747C0000000C0FF3F8FC000000060D38023C0000000002B4D40C00C00000013000000
310
DA0400003C0000000600000002000000000000C0FF3F8FC000000000457C23C0000000404DC747C00000006000408F4000000000457C23C0000000404DC747C00C00000013000000E20400003C00000006000000020000000000006000408F4000000060D38023C0000000002B4D40C00000006000408F4000000000457C23
310
C0000000404DC747C00C00000013000000EA0400003C0000000600000002000000000000C0FF3F8FC000000000457C23C0000000404DC747C0000000C0FF3F8FC000000080A87B23C000000060F22448C00C00000013000000F20400003C0000000600000002000000000000C0FF3F8FC000000080A87B23C000000060F224
310
48C00000006000408F4000000080A87B23C000000060F22448C00C00000013000000FA0400003C00000006000000020000000000006000408F4000000080A87B23C000000060F22448C00000006000408F4000000000457C23C0000000404DC747C00C00000013000000020500003C0000000600000002000000000000C0FF
310
3F8FC000000080A87B23C000000060F22448C0000000C0FF3F8FC0000000C0017F23C000000040A87648C00C000000130000000A0500003C0000000600000002000000000000C0FF3F8FC0000000C0017F23C000000040A87648C00000006000408F40000000C0017F23C000000040A87648C00C0000001300000012050000
310
3C00000006000000020000000000006000408F4000000080A87B23C000000060F22448C00000006000408F40000000C0017F23C000000040A87648C00C000000130000001A0500003C0000000600000002000000000000C0FF3F8FC0000000C0017F23C000000040A87648C0000000C0FF3F8FC000000000BC8A23C0000000
310
40ADCD48C00C00000013000000220500003C0000000600000002000000000000C0FF3F8FC000000000BC8A23C000000040ADCD48C00000006000408F4000000000BC8A23C000000040ADCD48C00C000000130000002A0500003C00000006000000020000000000006000408F40000000C0017F23C000000040A87648C00000
310
006000408F4000000000BC8A23C000000040ADCD48C00C00000013000000320500003C0000000600000002000000000000C0FF3F8FC000000000BC8A23C000000040ADCD48C0000000C0FF3F8FC0000000A055A123C0000000805B2649C00C000000130000003A0500003C0000000600000002000000000000C0FF3F8FC000
310
0000A055A123C0000000805B2649C00000006000408F40000000A055A123C0000000805B2649C00C00000013000000420500003C00000006000000020000000000006000408F4000000000BC8A23C000000040ADCD48C00000006000408F40000000A055A123C0000000805B2649C00C000000130000004A0500003C000000
310
0600000002000000000000C0FF3F8FC0000000A055A123C0000000805B2649C0000000C0FF3F8FC00000000034C423C0000000C0847C49C00C00000013000000520500003C0000000600000002000000000000C0FF3F8FC00000000034C423C0000000C0847C49C00000006000408F400000000034C423C0000000C0847C49
310
C00C000000130000005A0500003C00000006000000020000000000006000408F40000000A055A123C0000000805B2649C00000006000408F400000000034C423C0000000C0847C49C00C00000013000000620500003C0000000600000002000000000000C0FF3F8FC00000000034C423C0000000C0847C49C0000000C0FF3F
310
8FC0000000E0C0FA23C000000000E4D649C00C000000130000006A0500003C0000000600000002000000000000C0FF3F8FC0000000E0C0FA23C000000000E4D649C00000006000408F40000000E0C0FA23C000000000E4D649C00C00000013000000720500003C00000006000000020000000000006000408F40000000E0C0
310
FA23C000000000E4D649C00000006000408F400000000034C423C0000000C0847C49C00C000000130000007A0500003C0000000600000002000000000000C0FF3F8FC0000000E0C0FA23C000000000E4D649C0000000C0FF3F8FC0000000E00E4624C000000080902E4AC00C00000013000000820500003C00000006000000
310
02000000000000C0FF3F8FC0000000E00E4624C000000080902E4AC00000006000408F40000000E00E4624C000000080902E4AC00C000000130000008A0500003C00000006000000020000000000006000408F40000000E00E4624C000000080902E4AC00000006000408F40000000E0C0FA23C000000000E4D649C00C0000
310
0013000000920500003C0000000600000002000000000000C0FF3F8FC0000000E00E4624C000000080902E4AC0000000C0FF3F8FC0000000C05DA424C0000000A0AF7D4AC00C000000130000009A0500003C0000000600000002000000000000C0FF3F8FC0000000C05DA424C0000000A0AF7D4AC00000006000408F400000
310
00C05DA424C0000000A0AF7D4AC00C00000013000000A20500003C00000006000000020000000000006000408F40000000C05DA424C0000000A0AF7D4AC00000006000408F40000000E00E4624C000000080902E4AC00C00000013000000AA0500003C0000000600000002000000000000C0FF3F8FC0000000C05DA424C000
310
0000A0AF7D4AC0000000C0FF3F8FC0000000E0502625C0000000C00ACC4AC00C00000013000000B20500003C0000000600000002000000000000C0FF3F8FC0000000E0502625C0000000C00ACC4AC00000006000408F40000000E0502625C0000000C00ACC4AC00C00000013000000BA0500003C0000000600000002000000
310
0000006000408F40000000E0502625C0000000C00ACC4AC00000006000408F40000000C05DA424C0000000A0AF7D4AC00C00000013000000C20500003C0000000600000002000000000000C0FF3F8FC0000000E0502625C0000000C00ACC4AC0000000C0FF3F8FC0000000007CBF25C0000000000A0E4BC00C000000130000
310
00CA0500003C0000000600000002000000000000C0FF3F8FC0000000007CBF25C0000000000A0E4BC00000006000408F40000000007CBF25C0000000000A0E4BC00C00000013000000D20500003C00000006000000020000000000006000408F40000000007CBF25C0000000000A0E4BC00000006000408F40000000E05026
310
25C0000000C00ACC4AC00C00000013000000DA0500003C0000000600000002000000000000C0FF3F8FC0000000007CBF25C0000000000A0E4BC0000000C0FF3F8FC000000040047C26C0000000201B464BC00C00000013000000E20500003C0000000600000002000000000000C0FF3F8FC000000040047C26C0000000201B
310
464BC00000006000408F4000000040047C26C0000000201B464BC00C00000013000000EA0500003C00000006000000020000000000006000408F4000000040047C26C0000000201B464BC00000006000408F40000000007CBF25C0000000000A0E4BC00C00000013000000F20500003C0000000600000002000000000000C0
310
FF3F8FC000000040047C26C0000000201B464BC0000000C0FF3F8FC000000000416427C0000000C05D754BC00C00000013000000FA0500003C0000000600000002000000000000C0FF3F8FC000000000416427C0000000C05D754BC00000006000408F4000000000416427C0000000C05D754BC00C00000013000000020600
310
003C00000006000000020000000000006000408F4000000000416427C0000000C05D754BC00000006000408F4000000040047C26C0000000201B464BC00C000000130000000A0600003C0000000600000002000000000000C0FF3F8FC000000000416427C0000000C05D754BC0000000C0FF3F8FC0000000A0B35828C00000
310
00601D994BC00C00000013000000120600003C0000000600000002000000000000C0FF3F8FC0000000A0B35828C0000000601D994BC00000006000408F40000000A0B35828C0000000601D994BC00C000000130000001A0600003C00000006000000020000000000006000408F40000000A0B35828C0000000601D994BC000
310
00006000408F4000000000416427C0000000C05D754BC00C00000013000000220600003C0000000600000002000000000000C0FF3F8FC0000000A0B35828C0000000601D994BC0000000C0FF3F8FC000000040285A29C000000040E8B54BC00C000000130000002A0600003C0000000600000002000000000000C0FF3F8FC0
310
00000040285A29C000000040E8B54BC00000006000408F4000000040285A29C000000040E8B54BC00C00000013000000320600003C00000006000000020000000000006000408F4000000040285A29C000000040E8B54BC00000006000408F40000000A0B35828C0000000601D994BC00C000000130000003A0600003C0000
310
000600000002000000000000C0FF3F8FC000000040285A29C000000040E8B54BC0000000C0FF3F8FC000000000DE2E2AC0000000A051C94BC00C00000013000000420600003C0000000600000002000000000000C0FF3F8FC000000000DE2E2AC0000000A051C94BC00000006000408F4000000000DE2E2AC0000000A051C9
310
4BC00C000000130000004A0600003C00000006000000020000000000006000408F4000000000DE2E2AC0000000A051C94BC00000006000408F4000000040285A29C000000040E8B54BC00C00000013000000520600003C0000000600000002000000000000C0FF3F8FC000000000DE2E2AC0000000A051C94BC0000000C0FF
310
3F8FC00000002033882AC00000004043D64BC00C000000130000005A0600003C0000000600000002000000000000C0FF3F8FC00000002033882AC00000004043D64BC00000006000408F400000002033882AC00000004043D64BC00C00000013000000620600003C00000006000000020000000000006000408F4000000020
310
33882AC00000004043D64BC00000006000408F4000000000DE2E2AC0000000A051C94BC00C000000130000006A0600003C0000000600000002000000000000C0FF3F8FC000000000E1992AC0000000400AE64BC0000000C0FF3F8FC00000002033882AC00000004043D64BC00C00000013000000720600003C000000060000
310
0002000000000000C0FF3F8FC000000000E1992AC0000000400AE64BC00000006000408F4000000000E1992AC0000000400AE64BC00C000000130000007A0600003C00000006000000020000000000006000408F4000000000E1992AC0000000400AE64BC00000006000408F400000002033882AC00000004043D64BC00C00
310
000013000000820600003C0000000600000002000000000000C0FF3F8FC000000000E1992AC0000000400AE64BC0000000C0FF3F8FC000000060CB462AC00000000090664DC00C000000130000008A0600003C0000000600000002000000000000C0FF3F8FC000000060CB462AC00000000090664DC00000006000408F4000
310
000060CB462AC00000000090664DC00C00000013000000920600003C00000006000000020000000000006000408F4000000060CB462AC00000000090664DC00000006000408F4000000000E1992AC0000000400AE64BC00C000000130000009A0600003C0000000600000002000000000000C0FF3F8FC000000060CB462AC0
310
0000000090664DC0000000C0FF3F8FC000000080902D2AC00000008004764DC00C00000013000000A20600003C0000000600000002000000000000C0FF3F8FC000000080902D2AC00000008004764DC00000006000408F4000000080902D2AC00000008004764DC00C00000013000000AA0600003C00000006000000020000
310
000000006000408F4000000080902D2AC00000008004764DC00000006000408F4000000060CB462AC00000000090664DC00C00000013000000B20600003C0000000600000002000000000000C0FF3F8FC0000000C0AAF329C0000000E0547E4DC0000000C0FF3F8FC000000080902D2AC00000008004764DC00C0000001300
310
0000BA0600003C0000000600000002000000000000C0FF3F8FC0000000C0AAF329C0000000E0547E4DC00000006000408F40000000C0AAF329C0000000E0547E4DC00C00000013000000C20600003C00000006000000020000000000006000408F4000000080902D2AC00000008004764DC00000006000408F40000000C0AA
310
F329C0000000E0547E4DC00C00000013000000CA0600003C0000000600000002000000000000C0FF3F8FC0000000C0AAF329C0000000E0547E4DC0000000C0FF3F8FC00000002086CE22C0000000E041D54DC00C00000013000000D20600003C0000000600000002000000000000C0FF3F8FC00000002086CE22C0000000E0
310
41D54DC00000006000408F400000002086CE22C0000000E041D54DC00C00000013000000DA0600003C00000006000000020000000000006000408F40000000C0AAF329C0000000E0547E4DC00000006000408F400000002086CE22C0000000E041D54DC00C00000013000000E20600003C0000000600000002000000000000
310
C0FF3F8FC00000002086CE22C0000000E041D54DC0000000C0FF3F8FC0000000405CAF22C0000000201ADA4DC00C00000013000000EA0600003C0000000600000002000000000000C0FF3F8FC0000000405CAF22C0000000201ADA4DC00000006000408F40000000405CAF22C0000000201ADA4DC00C00000013000000F206
310
00003C00000006000000020000000000006000408F400000002086CE22C0000000E041D54DC00000006000408F40000000405CAF22C0000000201ADA4DC00C00000013000000FA0600003C0000000600000002000000000000C0FF3F8FC0000000E010A522C000000080E8E24DC0000000C0FF3F8FC0000000405CAF22C000
310
0000201ADA4DC00C00000013000000020700003C0000000600000002000000000000C0FF3F8FC0000000E010A522C000000080E8E24DC00000006000408F40000000E010A522C000000080E8E24DC00C000000130000000A0700003C00000006000000020000000000006000408F40000000405CAF22C0000000201ADA4DC0
310
0000006000408F40000000E010A522C000000080E8E24DC00C00000013000000120700003C0000000600000002000000000000C0FF3F8FC0000000E010A522C000000080E8E24DC0000000C0FF3F8FC0000000E084E722C000000060E2A74EC00C000000130000001A0700003C0000000600000002000000000000C0FF3F8F
310
C0000000E084E722C000000060E2A74EC00000006000408F40000000E084E722C000000060E2A74EC00C00000013000000220700003C00000006000000020000000000006000408F40000000E010A522C000000080E8E24DC00000006000408F40000000E084E722C000000060E2A74EC00C000000130000002A0700003C00
310
00000600000002000000000000C0FF3F8FC0000000E084E722C000000060E2A74EC0000000C0FF3F8FC00000006087F222C0000000E0C8AE4EC00C00000013000000320700003C0000000600000002000000000000C0FF3F8FC00000006087F222C0000000E0C8AE4EC00000006000408F400000006087F222C0000000E0C8
310
AE4EC00C000000130000003A0700003C00000006000000020000000000006000408F40000000E084E722C000000060E2A74EC00000006000408F400000006087F222C0000000E0C8AE4EC00C00000013000000420700003C0000000600000002000000000000C0FF3F8FC000000060FC0A23C00000000001B34EC0000000C0
310
FF3F8FC00000006087F222C0000000E0C8AE4EC00C000000130000004A0700003C0000000600000002000000000000C0FF3F8FC000000060FC0A23C00000000001B34EC00000006000408F4000000060FC0A23C00000000001B34EC00C00000013000000520700003C00000006000000020000000000006000408F40000000
310
6087F222C0000000E0C8AE4EC00000006000408F4000000060FC0A23C00000000001B34EC00C000000130000005A0700003C0000000600000002000000000000C0FF3F8FC000000060FC0A23C00000000001B34EC0000000C0FF3F8FC000000000767D24C0000000009BD54EC00C00000013000000620700003C0000000600
310
000002000000000000C0FF3F8FC000000000767D24C0000000009BD54EC00000006000408F4000000000767D24C0000000009BD54EC00C000000130000006A0700003C00000006000000020000000000006000408F4000000060FC0A23C00000000001B34EC00000006000408F4000000000767D24C0000000009BD54EC00C
310
00000013000000720700003C0000000600000002000000000000C0FF3F8FC000000000767D24C0000000009BD54EC0000000C0FF3F8FC0000000000E1E26C0000000E0F0064FC00C000000130000007A0700003C0000000600000002000000000000C0FF3F8FC0000000000E1E26C0000000E0F0064FC00000006000408F40
310
000000000E1E26C0000000E0F0064FC00C00000013000000820700003C00000006000000020000000000006000408F4000000000767D24C0000000009BD54EC00000006000408F40000000000E1E26C0000000E0F0064FC00C000000130000008A0700003C0000000600000002000000000000C0FF3F8FC0000000000E1E26
310
C0000000E0F0064FC0000000C0FF3F8FC000000080DA6227C000000080053C4FC00C00000013000000920700003C0000000600000002000000000000C0FF3F8FC000000080DA6227C000000080053C4FC00000006000408F4000000080DA6227C000000080053C4FC00C000000130000009A0700003C000000060000000200
310
00000000006000408F40000000000E1E26C0000000E0F0064FC00000006000408F4000000080DA6227C000000080053C4FC00C00000013000000A20700003C0000000600000002000000000000C0FF3F8FC000000080DA6227C000000080053C4FC0000000C0FF3F8FC0000000206D5E28C000000020E6724FC00C00000013
310
000000AA0700003C0000000600000002000000000000C0FF3F8FC0000000206D5E28C000000020E6724FC00000006000408F40000000206D5E28C000000020E6724FC00C00000013000000B20700003C00000006000000020000000000006000408F4000000080DA6227C000000080053C4FC00000006000408F4000000020
310
6D5E28C000000020E6724FC00C00000013000000BA0700003C0000000600000002000000000000C0FF3F8FC0000000206D5E28C000000020E6724FC0000000C0FF3F8FC000000040D41D29C000000040A7AB4FC00C00000013000000C20700003C0000000600000002000000000000C0FF3F8FC000000040D41D29C0000000
310
40A7AB4FC00000006000408F4000000040D41D29C000000040A7AB4FC00C00000013000000CA0700003C00000006000000020000000000006000408F40000000206D5E28C000000020E6724FC00000006000408F4000000040D41D29C000000040A7AB4FC00C00000013000000D20700003C00000006000000020000000000
310
00C0FF3F8FC000000040D41D29C000000040A7AB4FC0000000C0FF3F8FC00000000047AD29C0000000A0B3E64FC00C00000013000000DA0700003C0000000600000002000000000000C0FF3F8FC00000000047AD29C0000000A0B3E64FC00000006000408F400000000047AD29C0000000A0B3E64FC00C00000013000000E2
310
0700003C00000006000000020000000000006000408F400000000047AD29C0000000A0B3E64FC00000006000408F4000000040D41D29C000000040A7AB4FC00C00000013000000EA0700003C0000000600000002000000000000C0FF3F8FC00000000047AD29C0000000A0B3E64FC0000000C0FF3F8FC0000000C031152AC0
310
00000040051350C00C00000013000000F20700003C0000000600000002000000000000C0FF3F8FC0000000C031152AC000000040051350C00000006000408F40000000C031152AC000000040051350C00C00000013000000FA0700003C00000006000000020000000000006000408F400000000047AD29C0000000A0B3E64F
310
C00000006000408F40000000C031152AC000000040051350C00C00000013000000020800003C0000000600000002000000000000C0FF3F8FC0000000C031152AC000000040051350C0000000C0FF3F8FC0000000C038562AC0000000002F3550C00C000000130000000A0800003C0000000600000002000000000000C0FF3F
310
8FC0000000C038562AC0000000002F3550C00000006000408F40000000C038562AC0000000002F3550C00C00000013000000120800003C00000006000000020000000000006000408F40000000C031152AC000000040051350C00000006000408F40000000C038562AC0000000002F3550C00C000000130000001A0800003C
310
0000000600000002000000000000C0FF3F8FC0000000C038562AC0000000002F3550C0000000C0FF3F8FC000000080CC6D2AC000000020976350C00C00000013000000220800003C0000000600000002000000000000C0FF3F8FC000000080CC6D2AC000000020976350C00000006000408F4000000080CC6D2AC000000020
310
976350C00C000000130000002A0800003C00000006000000020000000000006000408F4000000080CC6D2AC000000020976350C00000006000408F40000000C038562AC0000000002F3550C00C00000013000000320800003C0000000600000002000000000000C0FF3F8FC000000080CC6D2AC000000020976350C0000000
310
C0FF3F8FC00000004043392AC000000000ACA150C00C000000130000003A0800003C0000000600000002000000000000C0FF3F8FC00000004043392AC000000000ACA150C00000006000408F400000004043392AC000000000ACA150C00C00000013000000420800003C00000006000000020000000000006000408F400000
310
0080CC6D2AC000000020976350C00000006000408F400000004043392AC000000000ACA150C00C000000130000004A0800003C0000000600000002000000000000C0FF3F8FC00000004043392AC000000000ACA150C0000000C0FF3F8FC0000000609AB329C00000008034DD50C00C00000013000000520800003C00000006
310
00000002000000000000C0FF3F8FC0000000609AB329C00000008034DD50C00000006000408F40000000609AB329C00000008034DD50C00C000000130000005A0800003C00000006000000020000000000006000408F40000000609AB329C00000008034DD50C00000006000408F400000004043392AC000000000ACA150C0
310
0C00000013000000620800003C0000000600000002000000000000C0FF3F8FC0000000609AB329C00000008034DD50C0000000C0FF3F8FC000000080EBF128C000000080410F51C00C000000130000006A0800003C0000000600000002000000000000C0FF3F8FC000000080EBF128C000000080410F51C00000006000408F
310
4000000080EBF128C000000080410F51C00C00000013000000720800003C00000006000000020000000000006000408F40000000609AB329C00000008034DD50C00000006000408F4000000080EBF128C000000080410F51C00C000000130000007A0800003C0000000600000002000000000000C0FF3F8FC000000080EBF1
310
28C000000080410F51C0000000C0FF3F8FC0000000C04AFA27C0000000C0543A51C00C00000013000000820800003C0000000600000002000000000000C0FF3F8FC0000000C04AFA27C0000000C0543A51C00000006000408F40000000C04AFA27C0000000C0543A51C00C000000130000008A0800003C0000000600000002
310
0000000000006000408F40000000C04AFA27C0000000C0543A51C00000006000408F4000000080EBF128C000000080410F51C00C00000013000000920800003C0000000600000002000000000000C0FF3F8FC0000000C04AFA27C0000000C0543A51C0000000C0FF3F8FC0000000E047CC26C000000080496051C00C000000
310
130000009A0800003C0000000600000002000000000000C0FF3F8FC0000000E047CC26C000000080496051C00000006000408F40000000E047CC26C000000080496051C00C00000013000000A20800003C00000006000000020000000000006000408F40000000C04AFA27C0000000C0543A51C00000006000408F40000000
310
E047CC26C000000080496051C00C00000013000000AA0800003C0000000600000002000000000000C0FF3F8FC0000000E047CC26C000000080496051C0000000C0FF3F8FC0000000C0BB9A25C0000000C0757E51C00C00000013000000B20800003C0000000600000002000000000000C0FF3F8FC0000000C0BB9A25C00000
310
00C0757E51C00000006000408F40000000C0BB9A25C0000000C0757E51C00C00000013000000BA0800003C00000006000000020000000000006000408F40000000C0BB9A25C0000000C0757E51C00000006000408F40000000E047CC26C000000080496051C00C00000013000000C20800003C000000060000000200000000
310
0000C0FF3F8FC0000000C0BB9A25C0000000C0757E51C0000000C0FF3F8FC000000040EC9423C00000004057A751C00C00000013000000CA0800003C0000000600000002000000000000C0FF3F8FC000000040EC9423C00000004057A751C00000006000408F4000000040EC9423C00000004057A751C00C00000013000000
310
D20800003C00000006000000020000000000006000408F40000000C0BB9A25C0000000C0757E51C00000006000408F4000000040EC9423C00000004057A751C00C00000013000000DA0800003C0000000600000002000000000000C0FF3F8FC000000040EC9423C00000004057A751C0000000C0FF3F8FC000000000A16821
310
C00000008086CE51C00C00000013000000E20800003C0000000600000002000000000000C0FF3F8FC000000000A16821C00000008086CE51C00000006000408F4000000000A16821C00000008086CE51C00C00000013000000EA0800003C00000006000000020000000000006000408F4000000000A16821C00000008086CE
310
51C00000006000408F4000000040EC9423C00000004057A751C00C00000013000000F20800003C0000000600000002000000000000C0FF3F8FC000000000A16821C00000008086CE51C0000000C0FF3F8FC00000008046E71FC0000000802EE951C00C00000013000000FA0800003C0000000600000002000000000000C0FF
310
3F8FC00000008046E71FC0000000802EE951C00000006000408F400000008046E71FC0000000802EE951C00C00000013000000020900003C00000006000000020000000000006000408F4000000000A16821C00000008086CE51C00000006000408F400000008046E71FC0000000802EE951C00C000000130000000A090000
310
3C0000000600000002000000000000C0FF3F8FC00000008046E71FC0000000802EE951C0000000C0FF3F8FC0000000202E191DC0000000808B0452C00C00000013000000120900003C0000000600000002000000000000C0FF3F8FC0000000202E191DC0000000808B0452C00000006000408F40000000202E191DC0000000
310
808B0452C00C000000130000001A0900003C00000006000000020000000000006000408F40000000202E191DC0000000808B0452C00000006000408F400000008046E71FC0000000802EE951C00C00000013000000220900003C0000000600000002000000000000C0FF3F8FC0000000202E191DC0000000808B0452C00000
310
00C0FF3F8FC0000000E0F8981AC0000000A0A42052C00C000000130000002A0900003C0000000600000002000000000000C0FF3F8FC0000000E0F8981AC0000000A0A42052C00000006000408F40000000E0F8981AC0000000A0A42052C00C00000013000000320900003C00000006000000020000000000006000408F4000
310
0000202E191DC0000000808B0452C00000006000408F40000000E0F8981AC0000000A0A42052C00C000000130000003A0900003C0000000600000002000000000000C0FF3F8FC0000000E0F8981AC0000000A0A42052C0000000C0FF3F8FC000000040AB1518C0000000004B4252C00C00000013000000420900003C000000
310
0600000002000000000000C0FF3F8FC000000040AB1518C0000000004B4252C00000006000408F4000000040AB1518C0000000004B4252C00C000000130000004A0900003C00000006000000020000000000006000408F4000000040AB1518C0000000004B4252C00000006000408F40000000E0F8981AC0000000A0A42052
310
C00C00000013000000520900003C0000000600000002000000000000C0FF3F8FC000000040AB1518C0000000004B4252C0000000C0FF3F8FC000000000A3D615C0000000804E6852C00C000000130000005A0900003C0000000600000002000000000000C0FF3F8FC000000000A3D615C0000000804E6852C0000000600040
310
8F4000000000A3D615C0000000804E6852C00C00000013000000620900003C00000006000000020000000000006000408F4000000000A3D615C0000000804E6852C00000006000408F4000000040AB1518C0000000004B4252C00C000000130000006A0900003C0000000600000002000000000000C0FF3F8FC000000000A3
310
D615C0000000804E6852C0000000C0FF3F8FC00000000077E713C0000000C0D29352C00C00000013000000720900003C0000000600000002000000000000C0FF3F8FC00000000077E713C0000000C0D29352C00000006000408F400000000077E713C0000000C0D29352C00C000000130000007A0900003C00000006000000
310
020000000000006000408F400000000077E713C0000000C0D29352C00000006000408F4000000000A3D615C0000000804E6852C00C00000013000000820900003C0000000600000002000000000000C0FF3F8FC00000000077E713C0000000C0D29352C0000000C0FF3F8FC0000000404F5C12C00000008058C552C00C0000
310
00130000008A0900003C0000000600000002000000000000C0FF3F8FC0000000404F5C12C00000008058C552C00000006000408F40000000004F5C12C00000008058C552C00C00000013000000920900003C00000006000000020000000000006000408F40000000004F5C12C00000008058C552C00000006000408F400000
310
000077E713C0000000C0D29352C00C000000130000009A0900003C0000000600000002000000000000C0FF3F8FC0000000404F5C12C00000008058C552C0000000C0FF3F8FC000000040C34011C000000020A6FD52C00C00000013000000A20900003C0000000600000002000000000000C0FF3F8FC000000040C34011C000
310
000020A6FD52C00000006000408F4000000080C34011C000000020A6FD52C00C00000013000000AA0900003C00000006000000020000000000006000408F40000000004F5C12C00000008058C552C00000006000408F4000000080C34011C000000020A6FD52C00C00000013000000B20900003C0000000600000002000000
310
000000C0FF3F8FC000000040C34011C000000020A6FD52C0000000C0FF3F8FC000000000EF9910C000000040E74053C00C00000013000000BA0900003C0000000600000002000000000000C0FF3F8FC000000000EF9910C000000040E74053C00000006000408F4000000000EF9910C000000040E74053C00C000000130000
310
00C20900003C00000006000000020000000000006000408F4000000080C34011C000000020A6FD52C00000006000408F4000000000EF9910C000000040E74053C00C00000013000000CA0900003C0000000600000002000000000000C0FF3F8FC000000000EF9910C000000040E74053C0000000C0FF3F8FC0000000C0468D
310
10C0000000A03E9153C00C00000013000000D20900003C0000000600000002000000000000C0FF3F8FC0000000C0468D10C0000000A03E9153C00000006000408F40000000C0468D10C0000000A03E9153C00C00000013000000DA0900003C00000006000000020000000000006000408F40000000C0468D10C0000000A03E
310
9153C00000006000408F4000000000EF9910C000000040E74053C00C00000013000000E20900003C0000000600000002000000000000C0FF3F8FC0000000C0468D10C0000000A03E9153C0000000C0FF3F8FC000000080CFD110C0000000E0CFC953C00C00000013000000EA0900003C0000000600000002000000000000C0
310
FF3F8FC000000080CFD110C0000000E0CFC953C00000006000408F4000000080CFD110C0000000E0CFC953C00C00000013000000F20900003C00000006000000020000000000006000408F40000000C0468D10C0000000A03E9153C00000006000408F4000000080CFD110C0000000E0CFC953C00C00000013000000FA0900
310
003C0000000600000002000000000000C0FF3F8FC000000080CFD110C0000000E0CFC953C0000000C0FF3F8FC000000040DDA910C0000000A017D353C00C00000013000000020A00003C0000000600000002000000000000C0FF3F8FC000000040DDA910C0000000A017D353C00000006000408F4000000040DDA910C00000
310
00A017D353C00C000000130000000A0A00003C00000006000000020000000000006000408F4000000040DDA910C0000000A017D353C00000006000408F4000000080CFD110C0000000E0CFC953C00C00000013000000120A00003C0000000600000002000000000000C0FF3F8FC000000080D92510C00000000005D853C000
310
0000C0FF3F8FC000000040DDA910C0000000A017D353C00C000000130000001A0A00003C0000000600000002000000000000C0FF3F8FC000000080D92510C00000000005D853C00000006000408F4000000080D92510C00000000005D853C00C00000013000000220A00003C00000006000000020000000000006000408F40
310
00000080D92510C00000000005D853C00000006000408F4000000040DDA910C0000000A017D353C00C000000130000002A0A00003C0000000600000002000000000000C0FF3F8FC000000080D92510C00000000005D853C0000000C0FF3F8FC0000000000000283F00000000000054C00C00000013000000320A00003C0000
310
000600000002000000000000C0FF3F8FC0000000000000283F00000000000054C00000006000408F40000000000000283F00000000000054C00C000000130000003A0A00003C00000006000000020000000000006000408F4000000080D92510C00000000005D853C00000006000408F40000000000000283F000000000000
310
54C00C00000013000000420A00003C0000000600000002000000000000C0FF3F8FC0000000000000283F00000000000054C0000000C0FF3F8FC00000000000C0273F00000080239352C00C000000130000004A0A00003C0000000600000002000000000000C0FF3F8FC00000000000C0273F00000080239352C00000006000
310
408F400000000000C0273F00000080239352C00C00000013000000520A00003C00000006000000020000000000006000408F400000000000C0273F00000080239352C00000006000408F40000000000000283F00000000000054C00C000000130000005A0A00003C0000000600000002000000000000C0FF3F8FC000000000
310
00C0273F00000080239352C0000000C0FF3F8FC000000000804591BF00000040DB8A52C00C00000013000000620A00003C0000000600000002000000000000C0FF3F8FC000000000804591BF00000040DB8A52C00000006000408F4000000000804591BF00000040DB8A52C00C000000130000006A0A00003C000000060000
310
00020000000000006000408F400000000000C0273F00000080239352C00000006000408F4000000000804591BF00000040DB8A52C00C00000013000000720A00003C0000000600000002000000000000C0FF3F8FC000000000301AB1BF00000080238352C0000000C0FF3F8FC000000000804591BF00000040DB8A52C00C00
310
0000130000007A0A00003C0000000600000002000000000000C0FF3F8FC000000000301AB1BF00000080238352C00000006000408F4000000000301AB1BF00000080238352C00C00000013000000820A00003C00000006000000020000000000006000408F4000000000301AB1BF00000080238352C00000006000408F4000
310
000000804591BF00000040DB8A52C00C000000130000008A0A00003C0000000600000002000000000000C0FF3F8FC000000000301AB1BF00000080238352C0000000C0FF3F8FC0000000000CB0F1BF00000000001052C00C00000013000000920A00003C0000000600000002000000000000C0FF3F8FC0000000000CB0F1BF
310
00000000001052C00000006000408F40000000000CB0F1BF00000000001052C00C000000130000009A0A00003C00000006000000020000000000006000408F40000000000CB0F1BF00000000001052C00000006000408F4000000000301AB1BF00000080238352C00C00000013000000A20A00003C00000006000000020000
310
00000000C0FF3F8FC0000000000CB0F1BF00000000001052C0000000C0FF3F8FC000000000B9C1F2BF00000000000052C00C00000013000000AA0A00003C0000000600000002000000000000C0FF3F8FC000000000B9C1F2BF00000000000052C00000006000408F4000000000B9C1F2BF00000000000052C00C0000001300
310
0000B20A00003C00000006000000020000000000006000408F40000000000CB0F1BF00000000001052C00000006000408F4000000000B9C1F2BF00000000000052C00C00000013000000BA0A00003C0000000600000002000000000000C0FF3F8FC0000000000CB0F1BF0000000000F051C0000000C0FF3F8FC000000000B9
310
C1F2BF00000000000052C00C00000013000000C20A00003C0000000600000002000000000000C0FF3F8FC0000000000CB0F1BF0000000000F051C00000006000408F40000000000CB0F1BF0000000000F051C00C00000013000000CA0A00003C00000006000000020000000000006000408F4000000000B9C1F2BF00000000
310
000052C00000006000408F40000000000CB0F1BF0000000000F051C00C00000013000000D20A00003C0000000600000002000000000000C0FF3F8FC0000000000CB0F1BF0000000000F051C0000000C0FF3F8FC000000000201AB1BF00000080DC7C51C00C00000013000000DA0A00003C0000000600000002000000000000
310
C0FF3F8FC000000000201AB1BF00000080DC7C51C00000006000408F4000000000201AB1BF00000080DC7C51C00C00000013000000E20A00003C00000006000000020000000000006000408F4000000000201AB1BF00000080DC7C51C00000006000408F40000000000CB0F1BF0000000000F051C00C00000013000000EA0A
310
00003C0000000600000002000000000000C0FF3F8FC000000000201AB1BF00000080DC7C51C0000000C0FF3F8FC000000000404591BF000000C0247551C00C00000013000000F20A00003C0000000600000002000000000000C0FF3F8FC000000000404591BF000000C0247551C00000006000408F4000000000404591BF00
310
0000C0247551C00C00000013000000FA0A00003C00000006000000020000000000006000408F4000000000404591BF000000C0247551C00000006000408F4000000000201AB1BF00000080DC7C51C00C00000013000000020B00003C0000000600000002000000000000C0FF3F8FC00000000000E0273F00000080DC6C51C0
310
000000C0FF3F8FC000000000404591BF000000C0247551C00C000000130000000A0B00003C0000000600000002000000000000C0FF3F8FC00000000000E0273F00000080DC6C51C00000006000408F400000000000E0273F00000080DC6C51C00C00000013000000120B00003C00000006000000020000000000006000408F
310
400000000000E0273F00000080DC6C51C00000006000408F4000000000404591BF000000C0247551C00C000000130000001A0B00003C0000000600000002000000000000C0FF3F8FC00000000000E0273F00000080DC6C51C0000000C0FF3F8FC00000000000A0273F00000040F3A450C00C00000013000000220B00003C00
310
00000600000002000000000000C0FF3F8FC00000000000A0273F00000040F3A450C00000006000408F400000000000A0273F00000040F3A450C00C000000130000002A0B00003C00000006000000020000000000006000408F400000000000A0273F00000040F3A450C00000006000408F400000000000E0273F00000080DC
310
6C51C00C00000013000000320B00003C0000000600000002000000000000C0FF3F8FC00000000000A0273F00000040F3A450C0000000C0FF3F8FC0000000003020C1BF00000040F38450C00C000000130000003A0B00003C0000000600000002000000000000C0FF3F8FC0000000003020C1BF00000040F38450C000000060
310
00408F40000000003020C1BF00000040F38450C00C00000013000000420B00003C00000006000000020000000000006000408F40000000003020C1BF00000040F38450C00000006000408F400000000000A0273F00000040F3A450C00C000000130000004A0B00003C0000000600000002000000000000C0FF3F8FC0000000
310
000CFDDFBF00000060866D50C0000000C0FF3F8FC0000000003020C1BF00000040F38450C00C00000013000000520B00003C0000000600000002000000000000C0FF3F8FC0000000000CFDDFBF00000060866D50C00000006000408F40000000000CFDDFBF00000060866D50C00C000000130000005A0B00003C0000000600
310
0000020000000000006000408F40000000000CFDDFBF00000060866D50C00000006000408F40000000003020C1BF00000040F38450C00C00000013000000620B00003C0000000600000002000000000000C0FF3F8FC0000000000CFDDFBF00000060866D50C0000000C0FF3F8FC000000000F8F2F3BF00000040EC5150C00C
310
000000130000006A0B00003C0000000600000002000000000000C0FF3F8FC000000000F8F2F3BF00000040EC5150C00000006000408F4000000000F8F2F3BF00000040EC5150C00C00000013000000720B00003C00000006000000020000000000006000408F4000000000F8F2F3BF00000040EC5150C00000006000408F40
310
000000000CFDDFBF00000060866D50C00C000000130000007A0B00003C0000000600000002000000000000C0FF3F8FC000000000F8F2F3BF00000040EC5150C0000000C0FF3F8FC00000000035CEF9BF000000407F3A50C00C00000013000000820B00003C0000000600000002000000000000C0FF3F8FC00000000035CEF9
310
BF000000407F3A50C00000006000408F400000000035CEF9BF000000407F3A50C00C000000130000008A0B00003C00000006000000020000000000006000408F400000000035CEF9BF000000407F3A50C00000006000408F4000000000F8F2F3BF00000040EC5150C00C00000013000000920B00003C000000060000000200
310
0000000000C0FF3F8FC000000000F8F2FBBF000000407F1A50C0000000C0FF3F8FC00000000035CEF9BF000000407F3A50C00C000000130000009A0B00003C0000000600000002000000000000C0FF3F8FC000000000F8F2FBBF000000407F1A50C00000006000408F4000000000F8F2FBBF000000407F1A50C00C00000013
310
000000A20B00003C00000006000000020000000000006000408F4000000000F8F2FBBF000000407F1A50C00000006000408F400000000035CEF9BF000000407F3A50C00C00000013000000AA0B00003C0000000600000002000000000000C0FF3F8FC000000000F8F2FBBF000000407F1A50C0000000C0FF3F8FC000000000
310
FCF2FBBF00000080034B41C00C00000013000000B20B00003C0000000600000002000000000000C0FF3F8FC000000000FCF2FBBF00000080034B41C00000006000408F4000000000FCF2FBBF00000080034B41C00C00000013000000BA0B00003C00000006000000020000000000006000408F4000000000FCF2FBBF000000
310
80034B41C00000006000408F4000000000F8F2FBBF000000407F1A50C00C00000013000000C20B00003C0000000600000002000000000000C0FF3F8FC000000000FCF2FBBF00000080034B41C0000000C0FF3F8FC0000000003ACEF9BF00000080030B41C00C00000013000000CA0B00003C00000006000000020000000000
310
00C0FF3F8FC0000000003ACEF9BF00000080030B41C00000006000408F40000000003ACEF9BF00000080030B41C00C00000013000000D20B00003C00000006000000020000000000006000408F40000000003ACEF9BF00000080030B41C00000006000408F4000000000FCF2FBBF00000080034B41C00C00000013000000DA
310
0B00003C0000000600000002000000000000C0FF3F8FC000000000FDF2F3BF000000A029DC40C0000000C0FF3F8FC0000000003ACEF9BF00000080030B41C00C00000013000000E20B00003C0000000600000002000000000000C0FF3F8FC000000000FDF2F3BF000000A029DC40C00000006000408F4000000000FDF2F3BF
310
000000A029DC40C00C00000013000000EA0B00003C00000006000000020000000000006000408F40000000003ACEF9BF00000080030B41C00000006000408F4000000000FDF2F3BF000000A029DC40C00C00000013000000F20B00003C0000000600000002000000000000C0FF3F8FC000000000FDF2F3BF000000A029DC40
310
C0000000C0FF3F8FC00000000018FDDFBF00000080F5A440C00C00000013000000FA0B00003C0000000600000002000000000000C0FF3F8FC00000000018FDDFBF00000080F5A440C00000006000408F400000000018FDDFBF00000080F5A440C00C00000013000000020C00003C0000000600000002000000000000600040
310
8F4000000000FDF2F3BF000000A029DC40C00000006000408F400000000018FDDFBF00000080F5A440C00C000000130000000A0C00003C0000000600000002000000000000C0FF3F8FC00000000018FDDFBF00000080F5A440C0000000C0FF3F8FC0000000004820C1BF000000801B7640C00C00000013000000120C00003C
310
0000000600000002000000000000C0FF3F8FC0000000004820C1BF000000801B7640C00000006000408F40000000004820C1BF000000801B7640C00C000000130000001A0C00003C00000006000000020000000000006000408F400000000018FDDFBF00000080F5A440C00000006000408F40000000004820C1BF00000080
310
1B7640C00C00000013000000220C00003C0000000600000002000000000000C0FF3F8FC0000000000040273F000000801B3640C0000000C0FF3F8FC0000000004820C1BF000000801B7640C00C000000130000002A0C00003C0000000600000002000000000000C0FF3F8FC0000000000040273F000000801B3640C0000000
310
6000408F40000000000040273F000000801B3640C00C00000013000000320C00003C00000006000000020000000000006000408F40000000004820C1BF000000801B7640C00000006000408F40000000000040273F000000801B3640C00C000000130000003A0C00003C0000000600000002000000000000C0FF3F8FC00000
310
00000040273F000000801B3640C0000000C0FF3F8FC0000000000000273F000000E08D4C3EC00C00000013000000420C00003C0000000600000002000000000000C0FF3F8FC0000000000000273F000000E08D4C3EC00000006000408F40000000000000273F000000E08D4C3EC00C000000130000004A0C00003C00000006
310
000000020000000000006000408F40000000000000273F000000E08D4C3EC00000006000408F40000000000040273F000000801B3640C00C00000013000000520C00003C0000000600000002000000000000C0FF3F8FC0000000000000273F000000E08D4C3EC0000000C0FF3F8FC000000000004791BF000000006D2B3EC0
310
0C000000130000005A0C00003C0000000600000002000000000000C0FF3F8FC000000000004791BF000000006D2B3EC00000006000408F4000000000004791BF000000006D2B3EC00C00000013000000620C00003C00000006000000020000000000006000408F40000000000000273F000000E08D4C3EC00000006000408F
310
4000000000004791BF000000006D2B3EC00C000000130000006A0C00003C0000000600000002000000000000C0FF3F8FC000000000901AB1BF000000E08D0C3EC0000000C0FF3F8FC000000000004791BF000000006D2B3EC00C00000013000000720C00003C0000000600000002000000000000C0FF3F8FC000000000901A
310
B1BF000000E08D0C3EC00000006000408F4000000000901AB1BF000000E08D0C3EC00C000000130000007A0C00003C00000006000000020000000000006000408F4000000000901AB1BF000000E08D0C3EC00000006000408F4000000000004791BF000000006D2B3EC00C00000013000000820C00003C0000000600000002
310
000000000000C0FF3F8FC000000000901AB1BF000000E08D0C3EC0000000C0FF3F8FC00000000012B0F1BF0000002000403CC00C000000130000008A0C00003C0000000600000002000000000000C0FF3F8FC00000000012B0F1BF0000002000403CC00000006000408F400000000012B0F1BF0000002000403CC00C000000
310
13000000920C00003C00000006000000020000000000006000408F4000000000901AB1BF000000E08D0C3EC00000006000408F400000000012B0F1BF0000002000403CC00C000000130000009A0C00003C0000000600000002000000000000C0FF3F8FC00000000012B0F1BF0000002000403CC0000000C0FF3F8FC0000000
310
00BFC1F2BF0000002000003CC00C00000013000000A20C00003C0000000600000002000000000000C0FF3F8FC000000000BFC1F2BF0000002000003CC00000006000408F4000000000BFC1F2BF0000002000003CC00C00000013000000AA0C00003C00000006000000020000000000006000408F400000000012B0F1BF0000
310
002000403CC00000006000408F4000000000BFC1F2BF0000002000003CC00C00000013000000B20C00003C0000000600000002000000000000C0FF3F8FC00000000012B0F1BF0000002000C03BC0000000C0FF3F8FC000000000BFC1F2BF0000002000003CC00C00000013000000BA0C00003C000000060000000200000000
310
0000C0FF3F8FC00000000012B0F1BF0000002000C03BC00000006000408F400000000012B0F1BF0000002000C03BC00C00000013000000C20C00003C00000006000000020000000000006000408F400000000012B0F1BF0000002000C03BC00000006000408F4000000000BFC1F2BF0000002000003CC00C00000013000000
310
CA0C00003C0000000600000002000000000000C0FF3F8FC00000000012B0F1BF0000002000C03BC0000000C0FF3F8FC000000000801AB1BF0000006072F339C00C00000013000000D20C00003C0000000600000002000000000000C0FF3F8FC000000000801AB1BF0000006072F339C00000006000408F4000000000801AB1
310
BF0000006072F339C00C00000013000000DA0C00003C00000006000000020000000000006000408F4000000000801AB1BF0000006072F339C00000006000408F400000000012B0F1BF0000002000C03BC00C00000013000000E20C00003C0000000600000002000000000000C0FF3F8FC000000000801AB1BF0000006072F3
310
39C0000000C0FF3F8FC000000000004791BF0000004093D439C00C00000013000000EA0C00003C0000000600000002000000000000C0FF3F8FC000000000004791BF0000004093D439C00000006000408F4000000000004791BF0000004093D439C00C00000013000000F20C00003C00000006000000020000000000006000
310
408F4000000000004791BF0000004093D439C00000006000408F4000000000801AB1BF0000006072F339C00C00000013000000FA0C00003C0000000600000002000000000000C0FF3F8FC0000000000020273F0000006072B339C0000000C0FF3F8FC000000000004791BF0000004093D439C00C00000013000000020D0000
310
3C0000000600000002000000000000C0FF3F8FC0000000000020273F0000006072B339C00000006000408F40000000000020273F0000006072B339C00C000000130000000A0D00003C00000006000000020000000000006000408F40000000000020273F0000006072B339C00000006000408F4000000000004791BF000000
310
4093D439C00C00000013000000120D00003C0000000600000002000000000000C0FF3F8FC0000000000020273F0000006072B339C0000000C0FF3F8FC0000000000000273F00000040CBD637C00C000000130000001A0D00003C0000000600000002000000000000C0FF3F8FC0000000000000273F00000040CBD637C00000
310
006000408F40000000000000273F00000040CBD637C00C00000013000000220D00003C00000006000000020000000000006000408F40000000000000273F00000040CBD637C00000006000408F40000000000020273F0000006072B339C00C000000130000002A0D00003C0000000600000002000000000000C0FF3F8FC000
310
0000000000273F00000040CBD637C0000000C0FF3F8FC000000000F03DBBBF00000020DA6337C00C00000013000000320D00003C0000000600000002000000000000C0FF3F8FC000000000F03DBBBF00000020DA6337C00000006000408F4000000000E03DBBBF00000020DA6337C00C000000130000003A0D00003C000000
310
06000000020000000000006000408F4000000000E03DBBBF00000020DA6337C00000006000408F40000000000000273F00000040CBD637C00C00000013000000420D00003C0000000600000002000000000000C0FF3F8FC000000000F03DBBBF00000020DA6337C0000000C0FF3F8FC000000000D4C2D9BF000000C0830937
310
C00C000000130000004A0D00003C0000000600000002000000000000C0FF3F8FC000000000D4C2D9BF000000C0830937C00000006000408F4000000000D4C2D9BF000000C0830937C00C00000013000000520D00003C00000006000000020000000000006000408F4000000000D4C2D9BF000000C0830937C0000000600040
310
8F4000000000E03DBBBF00000020DA6337C00C000000130000005A0D00003C0000000600000002000000000000C0FF3F8FC0000000000C70EABF000000C0AEDA36C0000000C0FF3F8FC000000000D4C2D9BF000000C0830937C00C00000013000000620D00003C0000000600000002000000000000C0FF3F8FC0000000000C
310
70EABF000000C0AEDA36C00000006000408F40000000000C70EABF000000C0AEDA36C00C000000130000006A0D00003C00000006000000020000000000006000408F40000000000C70EABF000000C0AEDA36C00000006000408F4000000000D4C2D9BF000000C0830937C00C00000013000000720D00003C00000006000000
310
02000000000000C0FF3F8FC0000000000C70EABF000000C0AEDA36C0000000C0FF3F8FC000000080167C00C000000040F6A236C00C000000130000007A0D00003C0000000600000002000000000000C0FF3F8FC000000080167C00C000000040F6A236C00000006000408F4000000000167C00C000000040F6A236C00C0000
310
0013000000820D00003C00000006000000020000000000006000408F4000000000167C00C000000040F6A236C00000006000408F40000000000C70EABF000000C0AEDA36C00C000000130000008A0D00003C0000000600000002000000000000C0FF3F8FC000000080167C00C000000040F6A236C0000000C0FF3F8FC00000
310
0000E0EB06C0000000E04B4D36C00C00000013000000920D00003C0000000600000002000000000000C0FF3F8FC000000000E0EB06C0000000E04B4D36C00000006000408F4000000000E0EB06C0000000E04B4D36C00C000000130000009A0D00003C00000006000000020000000000006000408F4000000000E0EB06C000
310
0000E04B4D36C00000006000408F4000000000167C00C000000040F6A236C00C00000013000000A20D00003C0000000600000002000000000000C0FF3F8FC000000080D59B0BC0000000E02CA835C0000000C0FF3F8FC000000000E0EB06C0000000E04B4D36C00C00000013000000AA0D00003C0000000600000002000000
310
000000C0FF3F8FC000000080D59B0BC0000000E02CA835C00000006000408F4000000080D59B0BC0000000E02CA835C00C00000013000000B20D00003C00000006000000020000000000006000408F4000000080D59B0BC0000000E02CA835C00000006000408F4000000000E0EB06C0000000E04B4D36C00C000000130000
310
00BA0D00003C0000000600000002000000000000C0FF3F8FC000000080D59B0BC0000000E02CA835C0000000C0FF3F8FC0000000C0984C1BC00000004087A730C00C00000013000000C20D00003C0000000600000002000000000000C0FF3F8FC0000000C0984C1BC00000004087A730C00000006000408F40000000C0984C
310
1BC00000004087A730C00C00000013000000CA0D00003C00000006000000020000000000006000408F40000000C0984C1BC00000004087A730C00000006000408F4000000080D59B0BC0000000E02CA835C00C00000013000000D20D00003C0000000600000002000000000000C0FF3F8FC0000000C0984C1BC00000004087
310
A730C0000000C0FF3F8FC000000040CAD425C0000000C01C6D28C00C00000013000000DA0D00003C0000000600000002000000000000C0FF3F8FC000000040CAD425C0000000C01C6D28C00000006000408F4000000040CAD425C0000000C01C6D28C00C00000013000000E20D00003C000000060000000200000000000060
310
00408F4000000040CAD425C0000000C01C6D28C00000006000408F40000000C0984C1BC00000004087A730C00C00000013000000EA0D00003C0000000600000002000000000000C0FF3F8FC000000040CAD425C0000000C01C6D28C0000000C0FF3F8FC000000080AE6629C000000040F5E825C00C00000013000000F20D00
310
003C0000000600000002000000000000C0FF3F8FC000000080AE6629C000000040F5E825C00000006000408F4000000080AE6629C000000040F5E825C00C00000013000000FA0D00003C00000006000000020000000000006000408F4000000080AE6629C000000040F5E825C00000006000408F4000000040CAD425C00000
310
00C01C6D28C00C00000013000000020E00003C0000000600000002000000000000C0FF3F8FC000000080AE6629C000000040F5E825C0000000C0FF3F8FC0000000400D842DC0000000C0127424C00C000000130000000A0E00003C0000000600000002000000000000C0FF3F8FC0000000400D842DC0000000C0127424C000
310
00006000408F40000000400D842DC0000000C0127424C00C00000013000000120E00003C00000006000000020000000000006000408F40000000400D842DC0000000C0127424C00000006000408F4000000080AE6629C000000040F5E825C00C000000130000001A0E00003C0000000600000002000000000000C0FF3F8FC0
310
000000400D842DC0000000C0127424C0000000C0FF3F8FC000000080365730C000000040AB5123C00C00000013000000220E00003C0000000600000002000000000000C0FF3F8FC000000080365730C000000040AB5123C00000006000408F4000000080365730C000000040AB5123C00C000000130000002A0E00003C0000
310
0006000000020000000000006000408F4000000080365730C000000040AB5123C00000006000408F40000000400D842DC0000000C0127424C00C00000013000000320E00003C0000000600000002000000000000C0FF3F8FC000000080365730C000000040AB5123C0000000C0FF3F8FC0000000809DB431C0000000002D59
310
21C00C000000130000003A0E00003C0000000600000002000000000000C0FF3F8FC0000000809DB431C0000000002D5921C00000006000408F40000000809DB431C0000000002D5921C00C00000013000000420E00003C00000006000000020000000000006000408F40000000809DB431C0000000002D5921C00000006000
310
408F4000000080365730C000000040AB5123C00C000000130000004A0E00003C0000000600000002000000000000C0FF3F8FC0000000E0F8BD32C000000080CC661DC0000000C0FF3F8FC0000000809DB431C0000000002D5921C00C00000013000000520E00003C0000000600000002000000000000C0FF3F8FC0000000E0
310
F8BD32C000000080CC661DC00000006000408F40000000E0F8BD32C000000000CD661DC00C000000130000005A0E00003C00000006000000020000000000006000408F40000000E0F8BD32C000000000CD661DC00000006000408F40000000809DB431C0000000002D5921C00C00000013000000620E00003C000000060000
310
0002000000000000C0FF3F8FC0000000E0F8BD32C000000080CC661DC0000000C0FF3F8FC0000000A078B236C0000000001000E0BF0C000000130000006A0E00003C0000000600000002000000000000C0FF3F8FC0000000A078B236C0000000001000E0BF0000006000408F40000000A078B236C0000000001000E0BF0C00
310
000013000000720E00003C00000006000000020000000000006000408F40000000A078B236C0000000001000E0BF0000006000408F40000000E0F8BD32C000000000CD661DC00C000000130000007A0E00003C0000000600000002000000000000C0FF3F8FC0000000A078B236C0000000001000E0BF000000C0FF3F8FC000
310
0000602C1037C0000000006026C1BF0C00000013000000820E00003C0000000600000002000000000000C0FF3F8FC0000000602C1037C0000000006026C1BF0000006000408F40000000602C1037C0000000006026C1BF0C000000130000008A0E00003C00000006000000020000000000006000408F40000000602C1037C0
310
000000006026C1BF0000006000408F40000000A078B236C0000000001000E0BF0C00000013000000920E00003C0000000600000002000000000000C0FF3F8FC0000000602C9037C0000000000000E0BE000000C0FF3F8FC0000000602C1037C0000000006026C1BF0C000000130000009A0E00003C00000006000000020000
310
00000000C0FF3F8FC0000000602C9037C0000000000000E0BE0000006000408F40000000602C9037C0000000000000E0BE0C00000013000000A20E00003C00000006000000020000000000006000408F40000000602C9037C0000000000000E0BE0000006000408F40000000602C1037C0000000006026C1BF0C0000001300
310
0000AA0E00003C0000000600000002000000000000C0FF3F8FC0000000602C9037C0000000000000E0BE000000C0FF3F8FC000000060D1AF3CC0000000000000D0BE0C00000013000000B20E00003C0000000600000002000000000000C0FF3F8FC000000060D1AF3CC0000000000000D0BE0000006000408F4000000060D1
310
AF3CC0000000000000D0BE0C00000013000000BA0E00003C00000006000000020000000000006000408F4000000060D1AF3CC0000000000000D0BE0000006000408F40000000602C9037C0000000000000E0BE0C00000013000000C20E00003C0000000600000002000000000000C0FF3F8FC000000060D1AF3CC000000000
310
0000D0BE000000C0FF3F8FC000000000F2D03CC000000000007691BF0C00000013000000CA0E00003C0000000600000002000000000000C0FF3F8FC000000000F2D03CC000000000007691BF0000006000408F4000000020F2D03CC000000000007691BF0C00000013000000D20E00003C0000000600000002000000000000
310
6000408F4000000020F2D03CC000000000007691BF0000006000408F4000000060D1AF3CC0000000000000D0BE0C00000013000000DA0E00003C0000000600000002000000000000C0FF3F8FC000000040D1EF3CC0000000004026B1BF000000C0FF3F8FC000000000F2D03CC000000000007691BF0C00000013000000E20E
310
00003C0000000600000002000000000000C0FF3F8FC000000040D1EF3CC0000000004026B1BF0000006000408F4000000060D1EF3CC0000000004026B1BF0C00000013000000EA0E00003C00000006000000020000000000006000408F4000000060D1EF3CC0000000004026B1BF0000006000408F4000000020F2D03CC000
310
000000007691BF0C00000013000000F20E00003C0000000600000002000000000000C0FF3F8FC000000040D1EF3CC0000000004026B1BF000000C0FF3F8FC0000000005FBC3EC000000000D0B0F1BF0C00000013000000FA0E00003C0000000600000002000000000000C0FF3F8FC0000000005FBC3EC000000000D0B0F1BF
310
0000006000408F40000000205FBC3EC000000000D0B0F1BF0C00000013000000020F00003C00000006000000020000000000006000408F40000000205FBC3EC000000000D0B0F1BF0000006000408F4000000060D1EF3CC0000000004026B1BF0C000000130000000A0F00003C0000000600000002000000000000C0FF3F8F
310
C0000000005FBC3EC000000000D0B0F1BF000000C0FF3F8FC0000000005FFC3EC0000000007CC2F2BF0C00000013000000120F00003C0000000600000002000000000000C0FF3F8FC0000000005FFC3EC0000000007CC2F2BF0000006000408F40000000205FFC3EC0000000007CC2F2BF0C000000130000001A0F00003C00
310
000006000000020000000000006000408F40000000205FFC3EC0000000007CC2F2BF0000006000408F40000000205FBC3EC000000000D0B0F1BF0C00000013000000220F00003C0000000600000002000000000000C0FF3F8FC0000000005F3C3FC000000000D0B0F1BF000000C0FF3F8FC0000000005FFC3EC0000000007C
310
C2F2BF0C000000130000002A0F00003C0000000600000002000000000000C0FF3F8FC0000000005F3C3FC000000000D0B0F1BF0000006000408F40000000205F3C3FC000000000D0B0F1BF0C00000013000000320F00003C00000006000000020000000000006000408F40000000205F3C3FC000000000D0B0F1BF00000060
310
00408F40000000205FFC3EC0000000007CC2F2BF0C000000130000003A0F00003C0000000600000002000000000000C0FF3F8FC0000000005F3C3FC000000000D0B0F1BF000000C0FF3F8FC000000080768440C0000000004026B1BF0C00000013000000420F00003C0000000600000002000000000000C0FF3F8FC0000000
310
80768440C0000000004026B1BF0000006000408F4000000080768440C0000000004026B1BF0C000000130000004A0F00003C00000006000000020000000000006000408F4000000080768440C0000000004026B1BF0000006000408F40000000205F3C3FC000000000D0B0F1BF0C00000013000000520F00003C0000000600
310
000002000000000000C0FF3F8FC000000080768440C0000000004026B1BF000000C0FF3F8FC000000020E69340C000000000007691BF0C000000130000005A0F00003C0000000600000002000000000000C0FF3F8FC000000020E69340C000000000007691BF0000006000408F4000000020E69340C000000000007691BF0C
310
00000013000000620F00003C00000006000000020000000000006000408F4000000020E69340C000000000007691BF0000006000408F4000000080768440C0000000004026B1BF0C000000130000006A0F00003C0000000600000002000000000000C0FF3F8FC00000008076A440C0000000000000D0BE000000C0FF3F8FC0
310
00000020E69340C000000000007691BF0C00000013000000720F00003C00000006000000020000000000006000408F400000008076A440C0000000000000D0BE0000006000408F4000000020E69340C000000000007691BF0C000000130000007A0F00003C0000000600000002000000000000C0FF3F8FC000000080D92510
310
C00000000005D853C0000000C0FF3F8FC00000000000C0273F00000080239352C00C00000013000000820F00003C0000000600000002000000000000C0FF3F8FC000000060AE9743C000000000A30713C0000000C0FF3F8FC00000008076A440C0000000000000D0BE0C000000130000008A0F00003C000000060000000200
310
0000000000C0FF3F8FC00000008076A440C0000000000000D0BE000000C0FF3F8FC0000000C0948E43C000000000418413C00C00000013000000920F00003C0000000600000002000000000000C0FF3F8FC00000008076A440C0000000000000D0BE000000C0FF3F8FC0000000A07B7D43C0000000004CB213C00C00000013
310
0000009A0F00003C0000000600000002000000000000C0FF3F8FC00000008076A440C0000000000000D0BE000000C0FF3F8FC0000000E0A7F742C000000000CC9713C00C00000013000000A20F00003C0000000600000002000000000000C0FF3F8FC000000060BB4B42C00000000041A413C0000000C0FF3F8FC000000020
310
E69340C000000000007691BF0C00000013000000AA0F00003C0000000600000002000000000000C0FF3F8FC0000000C014AE41C000000000FBE313C0000000C0FF3F8FC000000080768440C0000000004026B1BF0C00000013000000B20F00003C0000000600000002000000000000C0FF3F8FC0000000205B2B41C0000000
310
00814B14C0000000C0FF3F8FC0000000005F3C3FC000000000D0B0F1BF0C00000013000000BA0F00003C0000000600000002000000000000C0FF3F8FC0000000A0D07340C0000000005B4715C0000000C0FF3F8FC0000000005FFC3EC0000000007CC2F2BF0C00000013000000C20F00003C00000006000000020000000000
310
00C0FF3F8FC000000000DE953FC000000000F0AB16C0000000C0FF3F8FC0000000005FBC3EC000000000D0B0F1BF0C00000013000000CA0F00003C0000000600000002000000000000C0FF3F8FC0000000C097723EC000000000A78518C0000000C0FF3F8FC000000040D1EF3CC0000000004026B1BF0C00000013000000D2
310
0F00003C0000000600000002000000000000C0FF3F8FC0000000C097723EC000000000A78518C0000000C0FF3F8FC000000000F2D03CC000000000007691BF0C00000013000000DA0F00003C0000000600000002000000000000C0FF3F8FC000000060D1AF3CC0000000000000D0BE000000C0FF3F8FC0000000C097723EC0
310
00000000A78518C00C00000013000000E20F00003C0000000600000002000000000000C0FF3F8FC0000000602C9037C0000000000000E0BE000000C0FF3F8FC00000004072473DC000000000E5391BC00C00000013000000EA0F00003C0000000600000002000000000000C0FF3F8FC0000000205F523CC000000000F25B1E
310
C0000000C0FF3F8FC0000000602C1037C0000000006026C1BF0C00000013000000F20F00003C0000000600000002000000000000C0FF3F8FC000000040598B3BC000000080ACE420C0000000C0FF3F8FC0000000A078B236C0000000001000E0BF0C00000013000000FA0F00003C0000000600000002000000000000C0FF3F
310
8FC0000000C0D7DA3AC0000000C08ADC22C0000000C0FF3F8FC0000000E0F8BD32C000000080CC661DC00C00000013000000021000003C0000000600000002000000000000C0FF3F8FC00000002073453AC00000000076E924C0000000C0FF3F8FC0000000E0F8BD32C000000080CC661DC00C000000130000000A1000003C
310
0000000600000002000000000000C0FF3F8FC000000080D9B939C000000040482027C0000000C0FF3F8FC0000000E0F8BD32C000000080CC661DC00C00000013000000121000003C0000000600000002000000000000C0FF3F8FC000000000603339C0000000C0355029C0000000C0FF3F8FC0000000809DB431C000000000
310
2D5921C00C000000130000001A1000003C0000000600000002000000000000C0FF3F8FC0000000606FAE38C000000000FF5A2BC0000000C0FF3F8FC0000000809DB431C0000000002D5921C00C00000013000000221000003C0000000600000002000000000000C0FF3F8FC000000020F01838C0000000C084452DC0000000
310
C0FF3F8FC0000000809DB431C0000000002D5921C00C000000130000002A1000003C0000000600000002000000000000C0FF3F8FC000000000757137C00000000073F52EC0000000C0FF3F8FC000000080365730C000000040AB5123C00C00000013000000321000003C0000000600000002000000000000C0FF3F8FC00000
310
008054A836C000000060D23A30C0000000C0FF3F8FC000000080365730C000000040AB5123C00C000000130000003A1000003C0000000600000002000000000000C0FF3F8FC0000000401CB935C0000000C00BDF30C0000000C0FF3F8FC000000080365730C000000040AB5123C00C00000013000000421000003C00000006
310
00000002000000000000C0FF3F8FC000000000199D34C000000000256431C0000000C0FF3F8FC0000000400D842DC0000000C0127424C00C000000130000004A1000003C0000000600000002000000000000C0FF3F8FC000000040B53C33C0000000C020C931C0000000C0FF3F8FC0000000400D842DC0000000C0127424C0
310
0C00000013000000521000003C0000000600000002000000000000C0FF3F8FC000000040A89931C000000080400332C0000000C0FF3F8FC0000000400D842DC0000000C0127424C00C000000130000005A1000003C0000000600000002000000000000C0FF3F8FC0000000A0427630C000000080171132C0000000C0FF3F8F
310
C000000080AE6629C000000040F5E825C00C00000013000000621000003C0000000600000002000000000000C0FF3F8FC000000080AE6629C000000040F5E825C0000000C0FF3F8FC0000000A0AD6430C000000060431832C00C000000130000006A1000003C0000000600000002000000000000C0FF3F8FC000000020D15C
310
30C0000000408C2932C0000000C0FF3F8FC000000080AE6629C000000040F5E825C00C00000013000000721000003C0000000600000002000000000000C0FF3F8FC000000080B53530C0000000803A9435C0000000C0FF3F8FC000000040CAD425C0000000C01C6D28C00C000000130000007A1000003C0000000600000002
310
000000000000C0FF3F8FC000000040CAD425C0000000C01C6D28C0000000C0FF3F8FC0000000803D2730C00000000092B535C00C00000013000000821000003C0000000600000002000000000000C0FF3F8FC000000060550630C0000000A000C535C0000000C0FF3F8FC000000040CAD425C0000000C01C6D28C00C000000
310
130000008A1000003C0000000600000002000000000000C0FF3F8FC00000004007EA2EC0000000000AD335C0000000C0FF3F8FC0000000C0984C1BC00000004087A730C00C00000013000000921000003C0000000600000002000000000000C0FF3F8FC0000000601D832DC0000000A0D4EC35C0000000C0FF3F8FC0000000
310
C0984C1BC00000004087A730C00C000000130000009A1000003C0000000600000002000000000000C0FF3F8FC000000000033E2CC000000000840F36C0000000C0FF3F8FC0000000C0984C1BC00000004087A730C00C00000013000000A21000003C0000000600000002000000000000C0FF3F8FC000000020001B2BC00000
310
00E0DF3A36C0000000C0FF3F8FC0000000C0984C1BC00000004087A730C00C00000013000000AA1000003C0000000600000002000000000000C0FF3F8FC000000040991F2AC0000000A07B6B36C0000000C0FF3F8FC0000000C0984C1BC00000004087A730C00C00000013000000B21000003C000000060000000200000000
310
0000C0FF3F8FC000000000A64D29C000000080F9A036C0000000C0FF3F8FC0000000C0984C1BC00000004087A730C00C00000013000000BA1000003C0000000600000002000000000000C0FF3F8FC0000000E0764628C0000000C00FFB36C0000000C0FF3F8FC0000000C0984C1BC00000004087A730C00C00000013000000
310
C21000003C0000000600000002000000000000C0FF3F8FC0000000C00F2E27C000000060F88237C0000000C0FF3F8FC0000000C0984C1BC00000004087A730C00C00000013000000CA1000003C0000000600000002000000000000C0FF3F8FC000000060D38023C0000000002B4D40C0000000C0FF3F8FC0000000003ACEF9
310
BF00000080030B41C00C00000013000000D21000003C0000000600000002000000000000C0FF3F8FC000000060D38023C0000000002B4D40C0000000C0FF3F8FC000000000FCF2FBBF00000080034B41C00C00000013000000DA1000003C0000000600000002000000000000C0FF3F8FC000000060F25D26C0000000005116
310
38C0000000C0FF3F8FC0000000C0984C1BC00000004087A730C00C00000013000000E21000003C0000000600000002000000000000C0FF3F8FC0000000A03EB525C0000000203CBD38C0000000C0FF3F8FC000000080D59B0BC0000000E02CA835C00C00000013000000EA1000003C0000000600000002000000000000C0FF
310
3F8FC0000000A03EB525C0000000203CBD38C0000000C0FF3F8FC000000000E0EB06C0000000E04B4D36C00C00000013000000F21000003C0000000600000002000000000000C0FF3F8FC000000080E42C25C000000080AD7039C0000000C0FF3F8FC000000080167C00C000000040F6A236C00C00000013000000FA100000
310
3C0000000600000002000000000000C0FF3F8FC000000080E42C25C000000080AD7039C0000000C0FF3F8FC0000000000C70EABF000000C0AEDA36C00C00000013000000021100003C0000000600000002000000000000C0FF3F8FC0000000401ABA24C00000004058353AC0000000C0FF3F8FC000000000D4C2D9BF000000
310
C0830937C00C000000130000000A1100003C0000000600000002000000000000C0FF3F8FC0000000401ABA24C00000004058353AC0000000C0FF3F8FC000000000F03DBBBF00000020DA6337C00C00000013000000121100003C0000000600000002000000000000C0FF3F8FC0000000000000273F00000040CBD637C00000
310
00C0FF3F8FC000000080DF5E24C00000004040033BC00C000000130000001A1100003C0000000600000002000000000000C0FF3F8FC0000000000020273F0000006072B339C0000000C0FF3F8FC000000080DF5E24C00000004040033BC00C00000013000000221100003C0000000600000002000000000000C0FF3F8FC000
310
000080DF5E24C00000004040033BC0000000C0FF3F8FC000000000004791BF0000004093D439C00C000000130000002A1100003C0000000600000002000000000000C0FF3F8FC000000080DF5E24C00000004040033BC0000000C0FF3F8FC000000000801AB1BF0000006072F339C00C00000013000000321100003C000000
310
0600000002000000000000C0FF3F8FC0000000805D8B23C000000080F39E3FC0000000C0FF3F8FC000000000FDF2F3BF000000A029DC40C00C000000130000003A1100003C0000000600000002000000000000C0FF3F8FC0000000805D8B23C000000080F39E3FC0000000C0FF3F8FC00000000018FDDFBF00000080F5A440
310
C00C00000013000000421100003C0000000600000002000000000000C0FF3F8FC000000000AD9C23C00000004076B13EC0000000C0FF3F8FC0000000004820C1BF000000801B7640C00C000000130000004A1100003C0000000600000002000000000000C0FF3F8FC0000000000000273F000000E08D4C3EC0000000C0FF3F
310
8FC0000000209BB623C000000040D6C13DC00C00000013000000521100003C0000000600000002000000000000C0FF3F8FC0000000000040273F000000801B3640C0000000C0FF3F8FC000000000AD9C23C00000004076B13EC00C000000130000005A1100003C0000000600000002000000000000C0FF3F8FC0000000209B
310
B623C000000040D6C13DC0000000C0FF3F8FC000000000901AB1BF000000E08D0C3EC00C00000013000000621100003C0000000600000002000000000000C0FF3F8FC0000000209BB623C000000040D6C13DC0000000C0FF3F8FC000000000004791BF000000006D2B3EC00C000000130000006A1100003C00000006000000
310
02000000000000C0FF3F8FC000000080E0DE23C0000000207CC93CC0000000C0FF3F8FC00000000012B0F1BF0000002000403CC00C00000013000000721100003C0000000600000002000000000000C0FF3F8FC000000040FC1424C0000000206FE43BC0000000C0FF3F8FC00000000012B0F1BF0000002000C03BC00C0000
310
00130000007A1100003C0000000600000002000000000000C0FF3F8FC000000040FC1424C0000000206FE43BC0000000C0FF3F8FC000000000BFC1F2BF0000002000003CC00C00000013000000821100003C0000000600000002000000000000C0FF3F8FC000000080E0DE23C0000000207CC93CC0000000C0FF3F8FC00000
310
0000BFC1F2BF0000002000003CC00C000000130000008A1100003C0000000600000002000000000000C0FF3F8FC00000000000C0273F00000080239352C0000000C0FF3F8FC000000040DDA910C0000000A017D353C00C00000013000000921100003C0000000600000002000000000000C0FF3F8FC00000000077E713C000
310
0000C0D29352C0000000C0FF3F8FC0000000000CB0F1BF00000000001052C00C000000130000009A1100003C0000000600000002000000000000C0FF3F8FC0000000404F5C12C00000008058C552C0000000C0FF3F8FC000000000301AB1BF00000080238352C00C00000013000000A21100003C0000000600000002000000
310
000000C0FF3F8FC000000040C34011C000000020A6FD52C0000000C0FF3F8FC000000000301AB1BF00000080238352C00C00000013000000AA1100003C0000000600000002000000000000C0FF3F8FC000000000EF9910C000000040E74053C0000000C0FF3F8FC000000000804591BF00000040DB8A52C00C000000130000
310
00B21100003C0000000600000002000000000000C0FF3F8FC0000000C0468D10C0000000A03E9153C0000000C0FF3F8FC000000000804591BF00000040DB8A52C00C00000013000000BA1100003C0000000600000002000000000000C0FF3F8FC000000080CFD110C0000000E0CFC953C0000000C0FF3F8FC0000000008045
310
91BF00000040DB8A52C00C00000013000000C21100003C0000000600000002000000000000C0FF3F8FC000000000457C23C0000000404DC747C0000000C0FF3F8FC000000000FCF2FBBF00000080034B41C00C00000013000000CA1100003C0000000600000002000000000000C0FF3F8FC000000080A87B23C000000060F2
310
2448C0000000C0FF3F8FC000000000FCF2FBBF00000080034B41C00C00000013000000D21100003C0000000600000002000000000000C0FF3F8FC000000080902D2AC00000008004764DC0000000C0FF3F8FC00000002033882AC00000004043D64BC00C00000013000000DA1100003C0000000600000002000000000000C0
310
FF3F8FC000000000DE2E2AC0000000A051C94BC0000000C0FF3F8FC000000080902D2AC00000008004764DC00C00000013000000E21100003C0000000600000002000000000000C0FF3F8FC0000000C0AAF329C0000000E0547E4DC0000000C0FF3F8FC000000040285A29C000000040E8B54BC00C00000013000000EA1100
310
003C0000000600000002000000000000C0FF3F8FC0000000C0AAF329C0000000E0547E4DC0000000C0FF3F8FC0000000A0B35828C0000000601D994BC00C00000013000000F21100003C0000000600000002000000000000C0FF3F8FC0000000C0AAF329C0000000E0547E4DC0000000C0FF3F8FC000000000416427C00000
310
00C05D754BC00C00000013000000FA1100003C0000000600000002000000000000C0FF3F8FC00000002086CE22C0000000E041D54DC0000000C0FF3F8FC000000040047C26C0000000201B464BC00C00000013000000021200003C0000000600000002000000000000C0FF3F8FC00000002086CE22C0000000E041D54DC000
310
0000C0FF3F8FC0000000007CBF25C0000000000A0E4BC00C000000130000000A1200003C0000000600000002000000000000C0FF3F8FC0000000E0502625C0000000C00ACC4AC0000000C0FF3F8FC0000000405CAF22C0000000201ADA4DC00C00000013000000121200003C0000000600000002000000000000C0FF3F8FC0
310
000000C05DA424C0000000A0AF7D4AC0000000C0FF3F8FC0000000405CAF22C0000000201ADA4DC00C000000130000001A1200003C0000000600000002000000000000C0FF3F8FC0000000E00E4624C000000080902E4AC0000000C0FF3F8FC0000000405CAF22C0000000201ADA4DC00C00000013000000221200003C0000
310
000600000002000000000000C0FF3F8FC0000000E0C0FA23C000000000E4D649C0000000C0FF3F8FC0000000405CAF22C0000000201ADA4DC00C000000130000002A1200003C0000000600000002000000000000C0FF3F8FC0000000C0017F23C000000040A87648C0000000C0FF3F8FC000000000FCF2FBBF00000080034B
310
41C00C00000013000000321200003C0000000600000002000000000000C0FF3F8FC000000000BC8A23C000000040ADCD48C0000000C0FF3F8FC000000000FCF2FBBF00000080034B41C00C000000130000003A1200003C0000000600000002000000000000C0FF3F8FC0000000A055A123C0000000805B2649C0000000C0FF
310
3F8FC000000000FCF2FBBF00000080034B41C00C00000013000000421200003C0000000600000002000000000000C0FF3F8FC00000000034C423C0000000C0847C49C0000000C0FF3F8FC000000000FCF2FBBF00000080034B41C00C000000130000004A1200003C0000000600000002000000000000C0FF3F8FC000000000
310
FCF2FBBF00000080034B41C0000000C0FF3F8FC0000000405CAF22C0000000201ADA4DC00C00000013000000521200003C0000000600000002000000000000C0FF3F8FC0000000E010A522C000000080E8E24DC0000000C0FF3F8FC000000000F8F2FBBF000000407F1A50C00C000000130000005A1200003C000000060000
310
0002000000000000C0FF3F8FC0000000E084E722C000000060E2A74EC0000000C0FF3F8FC000000000F8F2FBBF000000407F1A50C00C00000013000000621200003C0000000600000002000000000000C0FF3F8FC000000000F8F2FBBF000000407F1A50C0000000C0FF3F8FC00000006087F222C0000000E0C8AE4EC00C00
310
0000130000006A1200003C0000000600000002000000000000C0FF3F8FC000000060FC0A23C00000000001B34EC0000000C0FF3F8FC000000000F8F2FBBF000000407F1A50C00C00000013000000721200003C0000000600000002000000000000C0FF3F8FC000000000767D24C0000000009BD54EC0000000C0FF3F8FC000
310
000000F8F2FBBF000000407F1A50C00C000000130000007A1200003C0000000600000002000000000000C0FF3F8FC000000000A3D615C0000000804E6852C0000000C0FF3F8FC0000000000CB0F1BF00000000001052C00C00000013000000821200003C0000000600000002000000000000C0FF3F8FC0000000000E1E26C0
310
000000E0F0064FC0000000C0FF3F8FC000000000F8F2FBBF000000407F1A50C00C000000130000008A1200003C0000000600000002000000000000C0FF3F8FC000000080DA6227C000000080053C4FC0000000C0FF3F8FC00000000035CEF9BF000000407F3A50C00C00000013000000921200003C00000006000000020000
310
00000000C0FF3F8FC0000000206D5E28C000000020E6724FC0000000C0FF3F8FC00000000035CEF9BF000000407F3A50C00C000000130000009A1200003C0000000600000002000000000000C0FF3F8FC000000040D41D29C000000040A7AB4FC0000000C0FF3F8FC000000000F8F2F3BF00000040EC5150C00C0000001300
310
0000A21200003C0000000600000002000000000000C0FF3F8FC00000000047AD29C0000000A0B3E64FC0000000C0FF3F8FC000000000F8F2F3BF00000040EC5150C00C00000013000000AA1200003C0000000600000002000000000000C0FF3F8FC0000000C031152AC000000040051350C0000000C0FF3F8FC000000000F8
310
F2F3BF00000040EC5150C00C00000013000000B21200003C0000000600000002000000000000C0FF3F8FC0000000C038562AC0000000002F3550C0000000C0FF3F8FC0000000000CFDDFBF00000060866D50C00C00000013000000BA1200003C0000000600000002000000000000C0FF3F8FC000000080CC6D2AC000000020
310
976350C0000000C0FF3F8FC0000000000CFDDFBF00000060866D50C00C00000013000000C21200003C0000000600000002000000000000C0FF3F8FC00000004043392AC000000000ACA150C0000000C0FF3F8FC0000000003020C1BF00000040F38450C00C00000013000000CA1200003C0000000600000002000000000000
310
C0FF3F8FC0000000609AB329C00000008034DD50C0000000C0FF3F8FC0000000003020C1BF00000040F38450C00C00000013000000D21200003C0000000600000002000000000000C0FF3F8FC00000000000A0273F00000040F3A450C0000000C0FF3F8FC000000080EBF128C000000080410F51C00C00000013000000DA12
310
00003C0000000600000002000000000000C0FF3F8FC00000000000A0273F00000040F3A450C0000000C0FF3F8FC0000000C04AFA27C0000000C0543A51C00C00000013000000E21200003C0000000600000002000000000000C0FF3F8FC00000000000E0273F00000080DC6C51C0000000C0FF3F8FC0000000E047CC26C000
310
000080496051C00C00000013000000EA1200003C0000000600000002000000000000C0FF3F8FC00000000000E0273F00000080DC6C51C0000000C0FF3F8FC0000000C0BB9A25C0000000C0757E51C00C00000013000000F21200003C0000000600000002000000000000C0FF3F8FC000000040EC9423C00000004057A751C0
310
000000C0FF3F8FC000000000404591BF000000C0247551C00C00000013000000FA1200003C0000000600000002000000000000C0FF3F8FC000000000A16821C00000008086CE51C0000000C0FF3F8FC000000000404591BF000000C0247551C00C00000013000000021300003C0000000600000002000000000000C0FF3F8F
310
C00000008046E71FC0000000802EE951C0000000C0FF3F8FC000000000201AB1BF00000080DC7C51C00C000000130000000A1300003C0000000600000002000000000000C0FF3F8FC0000000202E191DC0000000808B0452C0000000C0FF3F8FC000000000201AB1BF00000080DC7C51C00C00000013000000121300003C00
310
00000600000002000000000000C0FF3F8FC000000040AB1518C0000000004B4252C0000000C0FF3F8FC000000000B9C1F2BF00000000000052C00C000000130000001A1300003C0000000600000002000000000000C0FF3F8FC0000000E0F8981AC0000000A0A42052C0000000C0FF3F8FC0000000000CB0F1BF0000000000
310
F051C00C00000013000000221300003C00000006000000020000000000006000408F4000000080D92510C00000000005D853C00000006000408F400000000000C0273F00000080239352C00C000000130000002A1300003C00000006000000020000000000006000408F40000000C0948E43C000000000418413C000000060
310
00408F400000008076A440C0000000000000D0BE0C00000013000000321300003C00000006000000020000000000006000408F4000000060AE9743C000000000A30713C00000006000408F400000008076A440C0000000000000D0BE0C000000130000003A1300003C00000006000000020000000000006000408F40000000
310
8076A440C0000000000000D0BE0000006000408F40000000E0A7F742C000000000CC9713C00C00000013000000421300003C00000006000000020000000000006000408F400000008076A440C0000000000000D0BE0000006000408F40000000A07B7D43C0000000004CB213C00C000000130000004A1300003C0000000600
310
0000020000000000006000408F4000000060BB4B42C00000000041A413C00000006000408F4000000020E69340C000000000007691BF0C00000013000000521300003C00000006000000020000000000006000408F40000000205B2B41C000000000814B14C00000006000408F40000000205F3C3FC000000000D0B0F1BF0C
310
000000130000005A1300003C00000006000000020000000000006000408F40000000C014AE41C000000000FBE313C00000006000408F4000000080768440C0000000004026B1BF0C00000013000000621300003C00000006000000020000000000006000408F40000000A0D07340C0000000005B4715C00000006000408F40
310
000000205FFC3EC0000000007CC2F2BF0C000000130000006A1300003C00000006000000020000000000006000408F4000000020DE953FC000000000F0AB16C00000006000408F40000000205FBC3EC000000000D0B0F1BF0C00000013000000721300003C00000006000000020000000000006000408F40000000C097723E
310
C000000000A78518C00000006000408F4000000060D1EF3CC0000000004026B1BF0C000000130000007A1300003C00000006000000020000000000006000408F40000000C097723EC000000000A78518C00000006000408F4000000020F2D03CC000000000007691BF0C00000013000000821300003C000000060000000200
310
00000000006000408F40000000C097723EC000000000A78518C00000006000408F4000000060D1AF3CC0000000000000D0BE0C000000130000008A1300003C00000006000000020000000000006000408F400000004072473DC000000000E5391BC00000006000408F40000000602C9037C0000000000000E0BE0C00000013
310
000000921300003C00000006000000020000000000006000408F40000000205F523CC000000000F25B1EC00000006000408F40000000602C1037C0000000006026C1BF0C000000130000009A1300003C00000006000000020000000000006000408F4000000040598B3BC000000080ACE420C00000006000408F40000000A0
310
78B236C0000000001000E0BF0C00000013000000A21300003C00000006000000020000000000006000408F400000002073453AC00000000076E924C00000006000408F40000000E0F8BD32C000000000CD661DC00C00000013000000AA1300003C00000006000000020000000000006000408F40000000C0D7DA3AC0000000
310
C08ADC22C00000006000408F40000000E0F8BD32C000000000CD661DC00C00000013000000B21300003C00000006000000020000000000006000408F40000000E0F8BD32C000000000CD661DC00000006000408F4000000080D9B939C000000040482027C00C00000013000000BA1300003C00000006000000020000000000
310
006000408F40000000606FAE38C000000000FF5A2BC00000006000408F40000000809DB431C0000000002D5921C00C00000013000000C21300003C00000006000000020000000000006000408F4000000000603339C0000000C0355029C00000006000408F40000000809DB431C0000000002D5921C00C00000013000000CA
310
1300003C00000006000000020000000000006000408F40000000809DB431C0000000002D5921C00000006000408F4000000020F01838C0000000C084452DC00C00000013000000D21300003C00000006000000020000000000006000408F400000008054A836C000000060D23A30C00000006000408F4000000080365730C0
310
00000040AB5123C00C00000013000000DA1300003C00000006000000020000000000006000408F4000000000757137C00000000073F52EC00000006000408F4000000080365730C000000040AB5123C00C00000013000000E21300003C00000006000000020000000000006000408F4000000080365730C000000040AB5123
310
C00000006000408F40000000401CB935C0000000C00BDF30C00C00000013000000EA1300003C00000006000000020000000000006000408F4000000040B53C33C0000000C020C931C00000006000408F40000000400D842DC0000000C0127424C00C00000013000000F21300003C0000000600000002000000000000600040
310
8F4000000000199D34C000000000256431C00000006000408F40000000400D842DC0000000C0127424C00C00000013000000FA1300003C00000006000000020000000000006000408F40000000400D842DC0000000C0127424C00000006000408F4000000040A89931C000000080400332C00C00000013000000021400003C
310
00000006000000020000000000006000408F40000000A0427630C000000080171132C00000006000408F4000000080AE6629C000000040F5E825C00C000000130000000A1400003C00000006000000020000000000006000408F4000000080AE6629C000000040F5E825C00000006000408F40000000A0AD6430C000000060
310
431832C00C00000013000000121400003C00000006000000020000000000006000408F4000000080AE6629C000000040F5E825C00000006000408F4000000020D15C30C0000000408C2932C00C000000130000001A1400003C00000006000000020000000000006000408F40000000803D2730C00000000092B535C0000000
310
6000408F4000000040CAD425C0000000C01C6D28C00C00000013000000221400003C00000006000000020000000000006000408F4000000080B53530C0000000803A9435C00000006000408F4000000040CAD425C0000000C01C6D28C00C000000130000002A1400003C00000006000000020000000000006000408F400000
310
0040CAD425C0000000C01C6D28C00000006000408F4000000060550630C0000000A000C535C00C00000013000000321400003C00000006000000020000000000006000408F40000000601D832DC0000000A0D4EC35C00000006000408F40000000C0984C1BC00000004087A730C00C000000130000003A1400003C00000006
310
000000020000000000006000408F400000004007EA2EC0000000000AD335C00000006000408F40000000C0984C1BC00000004087A730C00C00000013000000421400003C00000006000000020000000000006000408F40000000C0984C1BC00000004087A730C00000006000408F4000000000033E2CC000000000840F36C0
310
0C000000130000004A1400003C00000006000000020000000000006000408F40000000C0984C1BC00000004087A730C00000006000408F4000000020001B2BC0000000E0DF3A36C00C00000013000000521400003C00000006000000020000000000006000408F40000000C0984C1BC00000004087A730C00000006000408F
310
4000000040991F2AC0000000A07B6B36C00C000000130000005A1400003C00000006000000020000000000006000408F40000000C0984C1BC00000004087A730C00000006000408F4000000000A64D29C000000080F9A036C00C00000013000000621400003C00000006000000020000000000006000408F40000000C0984C
310
1BC00000004087A730C00000006000408F40000000E0764628C0000000C00FFB36C00C000000130000006A1400003C00000006000000020000000000006000408F40000000C0984C1BC00000004087A730C00000006000408F40000000C00F2E27C000000060F88237C00C00000013000000721400003C0000000600000002
310
0000000000006000408F4000000060D38023C0000000002B4D40C00000006000408F4000000000FCF2FBBF00000080034B41C00C000000130000007A1400003C00000006000000020000000000006000408F4000000060D38023C0000000002B4D40C00000006000408F40000000003ACEF9BF00000080030B41C00C000000
310
13000000821400003C00000006000000020000000000006000408F40000000C0984C1BC00000004087A730C00000006000408F4000000060F25D26C000000000511638C00C000000130000008A1400003C00000006000000020000000000006000408F40000000A03EB525C0000000203CBD38C00000006000408F40000000
310
80D59B0BC0000000E02CA835C00C00000013000000921400003C00000006000000020000000000006000408F40000000A03EB525C0000000203CBD38C00000006000408F4000000000E0EB06C0000000E04B4D36C00C000000130000009A1400003C00000006000000020000000000006000408F4000000080E42C25C00000
310
0080AD7039C00000006000408F4000000000167C00C000000040F6A236C00C00000013000000A21400003C00000006000000020000000000006000408F4000000080E42C25C000000080AD7039C00000006000408F40000000000C70EABF000000C0AEDA36C00C00000013000000AA1400003C000000060000000200000000
310
00006000408F40000000401ABA24C00000004058353AC00000006000408F4000000000D4C2D9BF000000C0830937C00C00000013000000B21400003C00000006000000020000000000006000408F40000000401ABA24C00000004058353AC00000006000408F4000000000E03DBBBF00000020DA6337C00C00000013000000
310
BA1400003C00000006000000020000000000006000408F4000000080DF5E24C00000004040033BC00000006000408F40000000000000273F00000040CBD637C00C00000013000000C21400003C00000006000000020000000000006000408F4000000080DF5E24C00000004040033BC00000006000408F4000000000002027
310
3F0000006072B339C00C00000013000000CA1400003C00000006000000020000000000006000408F4000000080DF5E24C00000004040033BC00000006000408F4000000000004791BF0000004093D439C00C00000013000000D21400003C00000006000000020000000000006000408F4000000080DF5E24C0000000404003
310
3BC00000006000408F4000000000801AB1BF0000006072F339C00C00000013000000DA1400003C00000006000000020000000000006000408F40000000805D8B23C000000080F39E3FC00000006000408F4000000000FDF2F3BF000000A029DC40C00C00000013000000E21400003C00000006000000020000000000006000
310
408F40000000805D8B23C000000080F39E3FC00000006000408F400000000018FDDFBF00000080F5A440C00C00000013000000EA1400003C00000006000000020000000000006000408F4000000000AD9C23C00000004076B13EC00000006000408F40000000004820C1BF000000801B7640C00C00000013000000F2140000
310
3C00000006000000020000000000006000408F4000000000AD9C23C00000004076B13EC00000006000408F40000000000040273F000000801B3640C00C00000013000000FA1400003C00000006000000020000000000006000408F40000000209BB623C000000040D6C13DC00000006000408F40000000000000273F000000
310
E08D4C3EC00C00000013000000021500003C00000006000000020000000000006000408F40000000209BB623C000000040D6C13DC00000006000408F4000000000004791BF000000006D2B3EC00C000000130000000A1500003C00000006000000020000000000006000408F40000000209BB623C000000040D6C13DC00000
310
006000408F4000000000901AB1BF000000E08D0C3EC00C00000013000000121500003C00000006000000020000000000006000408F4000000080E0DE23C0000000207CC93CC00000006000408F400000000012B0F1BF0000002000403CC00C000000130000001A1500003C00000006000000020000000000006000408F4000
310
000040FC1424C0000000206FE43BC00000006000408F400000000012B0F1BF0000002000C03BC00C00000013000000221500003C00000006000000020000000000006000408F4000000040FC1424C0000000206FE43BC00000006000408F4000000000BFC1F2BF0000002000003CC00C000000130000002A1500003C000000
310
06000000020000000000006000408F4000000080E0DE23C0000000207CC93CC00000006000408F4000000000BFC1F2BF0000002000003CC00C00000013000000321500003C00000006000000020000000000006000408F400000000000C0273F00000080239352C00000006000408F4000000040DDA910C0000000A017D353
310
C00C000000130000003A1500003C00000006000000020000000000006000408F40000000004F5C12C00000008058C552C00000006000408F4000000000301AB1BF00000080238352C00C00000013000000421500003C00000006000000020000000000006000408F400000000077E713C0000000C0D29352C0000000600040
310
8F40000000000CB0F1BF00000000001052C00C000000130000004A1500003C00000006000000020000000000006000408F4000000000301AB1BF00000080238352C00000006000408F4000000080C34011C000000020A6FD52C00C00000013000000521500003C00000006000000020000000000006000408F40000000C046
310
8D10C0000000A03E9153C00000006000408F4000000000804591BF00000040DB8A52C00C000000130000005A1500003C00000006000000020000000000006000408F4000000000EF9910C000000040E74053C00000006000408F4000000000804591BF00000040DB8A52C00C00000013000000621500003C00000006000000
310
020000000000006000408F4000000000804591BF00000040DB8A52C00000006000408F4000000080CFD110C0000000E0CFC953C00C000000130000006A1500003C00000006000000020000000000006000408F4000000000FCF2FBBF00000080034B41C00000006000408F4000000080A87B23C000000060F22448C00C0000
310
0013000000721500003C00000006000000020000000000006000408F4000000000FCF2FBBF00000080034B41C00000006000408F4000000000457C23C0000000404DC747C00C000000130000007A1500003C00000006000000020000000000006000408F4000000080902D2AC00000008004764DC00000006000408F400000
310
002033882AC00000004043D64BC00C00000013000000821500003C00000006000000020000000000006000408F4000000080902D2AC00000008004764DC00000006000408F4000000000DE2E2AC0000000A051C94BC00C000000130000008A1500003C00000006000000020000000000006000408F40000000C0AAF329C000
310
0000E0547E4DC00000006000408F4000000040285A29C000000040E8B54BC00C00000013000000921500003C00000006000000020000000000006000408F40000000C0AAF329C0000000E0547E4DC00000006000408F40000000A0B35828C0000000601D994BC00C000000130000009A1500003C0000000600000002000000
310
0000006000408F40000000C0AAF329C0000000E0547E4DC00000006000408F4000000000416427C0000000C05D754BC00C00000013000000A21500003C00000006000000020000000000006000408F400000002086CE22C0000000E041D54DC00000006000408F4000000040047C26C0000000201B464BC00C000000130000
310
00AA1500003C00000006000000020000000000006000408F400000002086CE22C0000000E041D54DC00000006000408F40000000007CBF25C0000000000A0E4BC00C00000013000000B21500003C00000006000000020000000000006000408F40000000405CAF22C0000000201ADA4DC00000006000408F40000000E05026
310
25C0000000C00ACC4AC00C00000013000000BA1500003C00000006000000020000000000006000408F40000000405CAF22C0000000201ADA4DC00000006000408F40000000C05DA424C0000000A0AF7D4AC00C00000013000000C21500003C00000006000000020000000000006000408F40000000405CAF22C0000000201A
310
DA4DC00000006000408F40000000E00E4624C000000080902E4AC00C00000013000000CA1500003C00000006000000020000000000006000408F40000000405CAF22C0000000201ADA4DC00000006000408F40000000E0C0FA23C000000000E4D649C00C00000013000000D21500003C000000060000000200000000000060
310
00408F4000000000FCF2FBBF00000080034B41C00000006000408F40000000C0017F23C000000040A87648C00C00000013000000DA1500003C00000006000000020000000000006000408F4000000000FCF2FBBF00000080034B41C00000006000408F4000000000BC8A23C000000040ADCD48C00C00000013000000E21500
310
003C00000006000000020000000000006000408F4000000000FCF2FBBF00000080034B41C00000006000408F40000000A055A123C0000000805B2649C00C00000013000000EA1500003C00000006000000020000000000006000408F4000000000FCF2FBBF00000080034B41C00000006000408F40000000405CAF22C00000
310
00201ADA4DC00C00000013000000F21500003C00000006000000020000000000006000408F4000000000FCF2FBBF00000080034B41C00000006000408F400000000034C423C0000000C0847C49C00C00000013000000FA1500003C00000006000000020000000000006000408F40000000E010A522C000000080E8E24DC000
310
00006000408F4000000000F8F2FBBF000000407F1A50C00C00000013000000021600003C00000006000000020000000000006000408F4000000000F8F2FBBF000000407F1A50C00000006000408F40000000E084E722C000000060E2A74EC00C000000130000000A1600003C00000006000000020000000000006000408F40
310
00000000F8F2FBBF000000407F1A50C00000006000408F400000006087F222C0000000E0C8AE4EC00C00000013000000121600003C00000006000000020000000000006000408F4000000000F8F2FBBF000000407F1A50C00000006000408F4000000060FC0A23C00000000001B34EC00C000000130000001A1600003C0000
310
0006000000020000000000006000408F4000000000F8F2FBBF000000407F1A50C00000006000408F4000000000767D24C0000000009BD54EC00C00000013000000221600003C00000006000000020000000000006000408F40000000000CB0F1BF00000000001052C00000006000408F4000000000A3D615C0000000804E68
310
52C00C000000130000002A1600003C00000006000000020000000000006000408F4000000000F8F2FBBF000000407F1A50C00000006000408F40000000000E1E26C0000000E0F0064FC00C00000013000000321600003C00000006000000020000000000006000408F4000000080DA6227C000000080053C4FC00000006000
310
408F400000000035CEF9BF000000407F3A50C00C000000130000003A1600003C00000006000000020000000000006000408F400000000035CEF9BF000000407F3A50C00000006000408F40000000206D5E28C000000020E6724FC00C00000013000000421600003C00000006000000020000000000006000408F4000000000
310
47AD29C0000000A0B3E64FC00000006000408F4000000000F8F2F3BF00000040EC5150C00C000000130000004A1600003C00000006000000020000000000006000408F4000000040D41D29C000000040A7AB4FC00000006000408F4000000000F8F2F3BF00000040EC5150C00C00000013000000521600003C000000060000
310
00020000000000006000408F4000000000F8F2F3BF00000040EC5150C00000006000408F40000000C031152AC000000040051350C00C000000130000005A1600003C00000006000000020000000000006000408F4000000080CC6D2AC000000020976350C00000006000408F40000000000CFDDFBF00000060866D50C00C00
310
000013000000621600003C00000006000000020000000000006000408F40000000C038562AC0000000002F3550C00000006000408F40000000000CFDDFBF00000060866D50C00C000000130000006A1600003C00000006000000020000000000006000408F40000000609AB329C00000008034DD50C00000006000408F4000
310
0000003020C1BF00000040F38450C00C00000013000000721600003C00000006000000020000000000006000408F400000004043392AC000000000ACA150C00000006000408F40000000003020C1BF00000040F38450C00C000000130000007A1600003C00000006000000020000000000006000408F40000000C04AFA27C0
310
000000C0543A51C00000006000408F400000000000A0273F00000040F3A450C00C00000013000000821600003C00000006000000020000000000006000408F4000000080EBF128C000000080410F51C00000006000408F400000000000A0273F00000040F3A450C00C000000130000008A1600003C00000006000000020000
310
000000006000408F40000000C0BB9A25C0000000C0757E51C00000006000408F400000000000E0273F00000080DC6C51C00C00000013000000921600003C00000006000000020000000000006000408F40000000E047CC26C000000080496051C00000006000408F400000000000E0273F00000080DC6C51C00C0000001300
310
00009A1600003C00000006000000020000000000006000408F4000000000A16821C00000008086CE51C00000006000408F4000000000404591BF000000C0247551C00C00000013000000A21600003C00000006000000020000000000006000408F4000000040EC9423C00000004057A751C00000006000408F400000000040
310
4591BF000000C0247551C00C00000013000000AA1600003C00000006000000020000000000006000408F40000000202E191DC0000000808B0452C00000006000408F4000000000201AB1BF00000080DC7C51C00C00000013000000B21600003C00000006000000020000000000006000408F400000008046E71FC000000080
310
2EE951C00000006000408F4000000000201AB1BF00000080DC7C51C00C00000013000000BA1600003C00000006000000020000000000006000408F4000000040AB1518C0000000004B4252C00000006000408F4000000000B9C1F2BF00000000000052C00C00000013000000C21600003C0000000600000002000000000000
310
6000408F40000000E0F8981AC0000000A0A42052C00000006000408F40000000000CB0F1BF0000000000F051C0
100
AcDbSubDMesh
 71
     2
 72
     0
 91
        0
 92
      330
 10
-999.9998779296875
 20
-4.036962509155273
 30
-79.37530517578125
 10
-999.9998779296875
 20
0.00018310546875
 30
-80.0
 10
-999.9998779296875
 20
-9.322394371032714
 30
-59.77272033691406
 10
-999.9998779296875
 20
-9.452185630798339
 30
-61.31159591674805
 10
-999.9998779296875
 20
-12.97591209411621
 30
-58.98696517944336
 10
-999.9998779296875
 20
-9.403367042541503
 30
-59.66607284545898
 10
-999.9998779296875
 20
-13.30054473876953
 30
-55.79718780517578
 10
-999.9998779296875
 20
-13.13827037811279
 30
-58.80126953125
 10
-999.9998779296875
 20
-9.742713928222656
 30
-47.55704498291016
 10
-999.9998779296875
 20
-16.36256599426269
 30
-18.16229629516601
 10
-999.9998779296875
 20
-16.20980072021484
 30
-21.57901763916016
 10
-999.9998779296875
 20
-39.9858283996582
 30
-0.0000038146972656
 10
-999.9998779296875
 20
-39.18500900268555
 30
-4.757457733154296
 10
-999.9998779296875
 20
-33.28486633300781
 30
-0.0000038146972656
 10
-999.9998779296875
 20
-23.56317710876465
 30
-0.0000076293945313
 10
-999.9998779296875
 20
-28.68678855895996
 30
-0.0000038146972656
 10
-999.9998779296875
 20
0.0001764297485352
 30
-25.70096397399903
 10
-999.9998779296875
 20
0.0001754760742188
 30
-23.83903884887695
 10
-999.9998779296875
 20
0.0001773834228516
 30
-32.42271423339844
 10
-999.9998779296875
 20
0.0001754760742188
 30
-30.29903984069824
 10
-999.9998779296875
 20
0.0001821517944336
 30
-69.70095825195312
 10
-999.9998779296875
 20
0.0001802444458008
 30
-66.57734680175781
 10
-999.9998779296875
 20
0.0001811981201172
 30
-74.29904174804687
 10
-999.9998779296875
 20
-9.521456718444824
 30
-61.39846801757812
 10
-999.9998779296875
 20
-10.24504089355469
 30
-61.66879272460938
 10
-999.9998779296875
 20
-11.05870056152344
 30
-62.05422592163086
 10
-999.9998779296875
 20
-11.69307327270508
 30
-62.46891784667969
 10
-999.9998779296875
 20
-12.18442630767822
 30
-62.89764785766601
 10
-999.9998779296875
 20
-12.55825996398926
 30
-63.34104156494141
 10
-999.9998779296875
 20
-12.83843231201172
 30
-63.8023567199707
 10
-999.9998779296875
 20
-13.04139518737793
 30
-64.29719543457031
 10
-999.9998779296875
 20
-13.16840171813965
 30
-64.83099365234375
 10
-999.9998779296875
 20
-13.21445083618164
 30
-65.55609893798828
 10
-999.9998779296875
 20
-13.11184120178223
 30
-66.526123046875
 10
-999.9998779296875
 20
-12.85078716278076
 30
-67.45632934570313
 10
-999.9998779296875
 20
-12.47249984741211
 30
-68.23837280273437
 10
-999.9998779296875
 20
-11.98885154724121
 30
-68.91142272949219
 10
-999.9998779296875
 20
-11.39898586273193
 30
-69.50448608398438
 10
-999.9998779296875
 20
-10.80221366882324
 30
-69.97593688964844
 10
-999.9998779296875
 20
-9.790864944458007
 30
-70.61470031738281
 10
-999.9998779296875
 20
-8.704353332519531
 30
-71.22695922851562
 10
-999.9998779296875
 20
-7.975854873657226
 30
-71.64346313476563
 10
-999.9998779296875
 20
-7.274590015411376
 30
-72.07101440429688
 10
-999.9998779296875
 20
-6.649386882781982
 30
-72.51004791259766
 10
-999.9998779296875
 20
-6.021161079406738
 30
-73.03582763671875
 10
-999.9998779296875
 20
-5.459606170654296
 30
-73.62979125976562
 10
-999.9998779296875
 20
-4.976039886474609
 30
-74.30973815917969
 10
-999.9998779296875
 20
-4.5901460647583
 30
-75.08352661132812
 10
-999.9998779296875
 20
-4.313244819641113
 30
-75.96326446533203
 10
-999.9998779296875
 20
-4.150325775146484
 30
-77.01411437988281
 10
-999.9998779296875
 20
-4.137965202331542
 30
-78.26944732666015
 10
-999.9998779296875
 20
-4.204893112182617
 30
-79.15331268310547
 10
-999.9998779296875
 20
-9.741519927978515
 30
-48.28864669799805
 10
-999.9998779296875
 20
-9.748060226440429
 30
-48.92700958251953
 10
-999.9998779296875
 20
-9.770965576171875
 30
-49.60684967041015
 10
-999.9998779296875
 20
-9.815106391906738
 30
-50.29966735839844
 10
-999.9998779296875
 20
-9.883209228515625
 30
-50.97280120849609
 10
-999.9998779296875
 20
-9.989752769470214
 30
-51.6788330078125
 10
-999.9998779296875
 20
-10.13683223724365
 30
-52.36378479003906
 10
-999.9998779296875
 20
-10.3210277557373
 30
-52.9819221496582
 10
-999.9998779296875
 20
-10.57483577728271
 30
-53.59407806396484
 10
-999.9998779296875
 20
-10.87399291992187
 30
-54.10968017578125
 10
-999.9998779296875
 20
-11.24221992492675
 30
-54.54770278930664
 10
-999.9998779296875
 20
-11.69580841064453
 30
-54.91692352294922
 10
-999.9998779296875
 20
-12.17324542999267
 30
-55.19620895385742
 10
-999.9998779296875
 20
-12.67608833312988
 30
-55.42115020751953
 10
-999.9998779296875
 20
-13.09153747558594
 30
-55.57280349731446
 10
-999.9998779296875
 20
-16.02474021911621
 30
-21.76954078674317
 10
-999.9998779296875
 20
-15.45708656311035
 30
-21.82437133789063
 10
-999.9998779296875
 20
-14.75608348846435
 30
-21.92511940002441
 10
-999.9998779296875
 20
-14.12111663818359
 30
-22.06060791015625
 10
-999.9998779296875
 20
-13.55273532867431
 30
-22.22997856140137
 10
-999.9998779296875
 20
-13.06171607971191
 30
-22.41985511779785
 10
-999.9998779296875
 20
-12.65165710449219
 30
-22.62880706787109
 10
-999.9998779296875
 20
-12.1376256942749
 30
-22.98070907592773
 10
-999.9998779296875
 20
-11.58996391296386
 30
-23.5116024017334
 10
-999.9998779296875
 20
-11.18348979949951
 30
-24.08717346191406
 10
-999.9998779296875
 20
-10.85399341583252
 30
-24.73919868469238
 10
-999.9998779296875
 20
-10.58768081665039
 30
-25.44014739990235
 10
-999.9998779296875
 20
-10.36348152160644
 30
-26.20837783813477
 10
-999.9998779296875
 20
-10.18529891967773
 30
-27.01269912719727
 10
-999.9998779296875
 20
-10.04098701477051
 30
-27.89232063293457
 10
-999.9998779296875
 20
-9.935306549072265
 30
-28.78705024719238
 10
-999.9998779296875
 20
-9.85665225982666
 30
-29.75717544555664
 10
-999.9998779296875
 20
-9.806007385253906
 30
-30.69321060180664
 10
-999.9998779296875
 20
-9.772197723388671
 30
-31.62090301513672
 10
-999.9998779296875
 20
-9.751612663269042
 30
-32.60287475585938
 10
-999.9998779296875
 20
-38.98033523559571
 30
-4.924118041992187
 10
-999.9998779296875
 20
-37.93481063842774
 30
-4.898239135742187
 10
-999.9998779296875
 20
-36.59165573120117
 30
-4.910404205322265
 10
-999.9998779296875
 20
-35.36000823974609
 30
-4.972637176513671
 10
-999.9998779296875
 20
-34.33871841430664
 30
-5.073734283447265
 10
-999.9998779296875
 20
-32.90480422973633
 30
-5.319683074951171
 10
-999.9998779296875
 20
-31.58541870117188
 30
-5.66790771484375
 10
-999.9998779296875
 20
-30.44762802124024
 30
-6.130519866943359
 10
-999.9998779296875
 20
-29.27908706665039
 30
-6.806537628173828
 10
-999.9998779296875
 20
-28.32176399230957
 30
-7.589790344238281
 10
-999.9998779296875
 20
-27.54433059692383
 30
-8.44662857055664
 10
-999.9998779296875
 20
-26.85485458374023
 30
-9.43074607849121
 10
-999.9998779296875
 20
-26.27128791809082
 30
-10.45597839355469
 10
-999.9998779296875
 20
-25.72597503662109
 30
-11.56305122375488
 10
-999.9998779296875
 20
-25.20068359375
 30
-12.65666007995605
 10
-999.9998779296875
 20
-24.68138694763184
 30
-13.67772674560547
 10
-999.9998779296875
 20
-24.09741401672363
 30
-14.63577842712402
 10
-999.9998779296875
 20
-23.44319152832031
 30
-15.47939300537109
 10
-999.9998779296875
 20
-22.65753936767578
 30
-16.22977256774902
 10
-999.9998779296875
 20
-21.72308731079102
 30
-16.87127304077148
 10
-999.9998779296875
 20
-20.61366271972656
 30
-17.39118957519531
 10
-999.9998779296875
 20
-19.23714065551758
 30
-17.7856559753418
 10
-999.9998779296875
 20
-17.60022354125976
 30
-18.01270294189453
 10
-999.9998779296875
 20
-16.46195411682129
 30
-18.06676483154297
 10
-999.9998779296875
 20
-0.0668058395385742
 30
-74.04904174804688
 10
-999.9998779296875
 20
-1.105480194091796
 30
-72.25
 10
-999.9998779296875
 20
-1.105480194091796
 30
-71.75
 10
-999.9998779296875
 20
-0.0668048858642578
 30
-69.95095825195313
 10
-999.9998779296875
 20
-0.4998197555541993
 30
-65.71132659912109
 10
-999.9998779296875
 20
-1.246818542480468
 30
-65.28004455566406
 10
-999.9998779296875
 20
-1.746818542480468
 30
-64.41401672363281
 10
-999.9998779296875
 20
-1.746822357177734
 30
-34.58604431152344
 10
-999.9998779296875
 20
-1.24682331085205
 30
-33.72002029418946
 10
-999.9998779296875
 20
-0.4998226165771485
 30
-33.28874206542969
 10
-999.9998779296875
 20
-0.0668115615844727
 30
-30.04903984069824
 10
-999.9998779296875
 20
-1.105485916137695
 30
-28.25000190734863
 10
-999.9998779296875
 20
-1.105485916137695
 30
-27.75000190734863
 10
-999.9998779296875
 20
-0.0668106079101563
 30
-25.95096397399903
 10
-999.9998779296875
 20
-0.8261775970458984
 30
-22.85422897338867
 10
-999.9998779296875
 20
-2.060589790344238
 30
-22.63656997680664
 10
-999.9998779296875
 20
-3.451090812683105
 30
-21.65693473815918
 10
-999.9998779296875
 20
-6.824801445007324
 30
-16.6544075012207
 10
-999.9998779296875
 20
-10.91560554504394
 30
-12.21310997009277
 10
-999.9998779296875
 20
-12.7005500793457
 30
-10.95499610900879
 10
-999.9998779296875
 20
-14.75791358947754
 30
-10.22670555114746
 10
-999.9998779296875
 20
-18.74207878112793
 30
-7.35038948059082
 10
-999.9998779296875
 20
-22.69715309143066
 30
-0.5000076293945313
 10
-999.9998779296875
 20
-28.93678665161133
 30
-0.0669898986816406
 10
-999.9998779296875
 20
-30.73582458496094
 30
-1.105667114257812
 10
-999.9998779296875
 20
-31.23582458496094
 30
-1.105667114257812
 10
-999.9998779296875
 20
-33.03486633300781
 30
-0.0669898986816406
 10
-999.9998779296875
 20
-2.86517333984375
 30
-22.30193901062012
 10
-999.9998779296875
 20
-16.3406753540039
 30
-9.659509658813476
 10
-999.9998779296875
 20
-17.70552825927734
 30
-8.674171447753906
 10
-999.9998779296875
 20
-1.612848281860351
 30
-34.08604431152344
 10
-999.9998779296875
 20
-1.612843513488769
 30
-64.91401672363281
 10
-999.9998779296875
 20
-1.172295570373535
 30
-72.0
 10
-999.9998779296875
 20
-1.172301292419433
 30
-28.00000190734863
 10
-999.9998779296875
 20
-30.98582458496094
 30
-1.172481536865234
 10
-999.9998779296875
 20
-0.1064138412475586
 30
-23.39004707336426
 10
-999.9998779296875
 20
-0.4025163650512696
 30
-23.03716659545898
 10
-999.9998779296875
 20
-23.06317710876465
 30
-0.1339836120605469
 10
-999.9998779296875
 20
-0.1337976455688477
 30
-32.92271423339844
 10
-999.9998779296875
 20
-0.1337947845458984
 30
-66.07734680175781
 10
-999.9998779296875
 20
-0.016866683959961
 30
-74.16963195800781
 10
-999.9998779296875
 20
-0.0168657302856445
 30
-69.83036804199219
 10
-999.9998779296875
 20
-0.0168724060058594
 30
-30.16963195800781
 10
-999.9998779296875
 20
-0.0168724060058594
 30
-25.83037185668946
 10
-999.9998779296875
 20
-33.15546035766602
 30
-0.0170516967773438
 10
-999.9998779296875
 20
-28.81619262695313
 30
-0.0170516967773438
 10
-999.9998779296875
 20
-16.39327430725098
 30
-18.09477806091308
 10
-999.9998779296875
 20
-9.342500686645507
 30
-59.70392227172851
 10
-999.9998779296875
 20
-9.473689079284667
 30
-61.36550521850586
 10
-999.9998779296875
 20
-13.08899307250976
 30
-58.92201232910156
 10
-999.9998779296875
 20
-13.26601505279541
 30
-55.6739273071289
 10
-999.9998779296875
 20
-16.15328216552734
 30
-21.70925903320313
 10
-999.9998779296875
 20
-39.1139144897461
 30
-4.879154205322265
 10
-999.9998779296875
 20
-4.165883064270019
 30
-79.2983169555664
 10
1000.000183105469
 20
-4.036962509155273
 30
-79.37530517578125
 10
1000.000183105469
 20
0.0001811981201172
 30
-74.29904174804687
 10
1000.000183105469
 20
0.00018310546875
 30
-80.0
 10
1000.000183105469
 20
-39.1139144897461
 30
-4.879154205322265
 10
1000.000183105469
 20
-39.18500900268555
 30
-4.757457733154296
 10
1000.000183105469
 20
-33.28486633300781
 30
-0.0000038146972656
 10
1000.000183105469
 20
-39.9858283996582
 30
-0.0000038146972656
 10
1000.000183105469
 20
-37.93481063842774
 30
-4.898239135742187
 10
1000.000183105469
 20
-38.98033523559571
 30
-4.924118041992187
 10
1000.000183105469
 20
-36.59165573120117
 30
-4.910404205322265
 10
1000.000183105469
 20
-33.15546035766602
 30
-0.0170516967773438
 10
1000.000183105469
 20
-34.33871841430664
 30
-5.073734283447265
 10
1000.000183105469
 20
-35.36000823974609
 30
-4.972637176513671
 10
1000.000183105469
 20
-33.03486633300781
 30
-0.0669898986816406
 10
1000.000183105469
 20
-31.23582649230957
 30
-1.105667114257812
 10
1000.000183105469
 20
-32.90480422973633
 30
-5.319683074951171
 10
1000.000183105469
 20
-30.98582649230957
 30
-1.172481536865234
 10
1000.000183105469
 20
-31.58542060852051
 30
-5.66790771484375
 10
1000.000183105469
 20
-30.73582649230957
 30
-1.105667114257812
 10
1000.000183105469
 20
-30.44762802124024
 30
-6.130519866943359
 10
1000.000183105469
 20
-28.93678855895996
 30
-0.0669898986816406
 10
1000.000183105469
 20
-28.81619453430176
 30
-0.0170516967773438
 10
1000.000183105469
 20
-28.68678855895996
 30
-0.0000038146972656
 10
1000.000183105469
 20
-29.27908706665039
 30
-6.806537628173828
 10
1000.000183105469
 20
-23.56317710876465
 30
-0.0000076293945313
 10
1000.000183105469
 20
-28.32176399230957
 30
-7.589790344238281
 10
1000.000183105469
 20
-23.06317710876465
 30
-0.1339836120605469
 10
1000.000183105469
 20
-27.54433059692383
 30
-8.44662857055664
 10
1000.000183105469
 20
-22.69715309143066
 30
-0.5000076293945313
 10
1000.000183105469
 20
-26.27128791809082
 30
-10.45597839355469
 10
1000.000183105469
 20
-26.85485458374023
 30
-9.43074607849121
 10
1000.000183105469
 20
-18.74207878112793
 30
-7.350391387939453
 10
1000.000183105469
 20
-25.72597503662109
 30
-11.56305122375488
 10
1000.000183105469
 20
-24.68138694763184
 30
-13.67772674560547
 10
1000.000183105469
 20
-25.20068359375
 30
-12.65666007995605
 10
1000.000183105469
 20
-17.70552825927734
 30
-8.674171447753906
 10
1000.000183105469
 20
-24.09741401672363
 30
-14.63577842712402
 10
1000.000183105469
 20
-22.65753936767578
 30
-16.22977256774902
 10
1000.000183105469
 20
-23.44319152832031
 30
-15.47939300537109
 10
1000.000183105469
 20
-16.3406753540039
 30
-9.659509658813476
 10
1000.000183105469
 20
-21.72308731079102
 30
-16.87127304077148
 10
1000.000183105469
 20
-19.23714065551758
 30
-17.7856559753418
 10
1000.000183105469
 20
-20.61366271972656
 30
-17.39118957519531
 10
1000.000183105469
 20
-14.75791358947754
 30
-10.22670555114746
 10
1000.000183105469
 20
-17.60022354125976
 30
-18.01270294189453
 10
1000.000183105469
 20
-16.46195411682129
 30
-18.06676483154297
 10
1000.000183105469
 20
-12.7005500793457
 30
-10.95499610900879
 10
1000.000183105469
 20
-16.39327430725098
 30
-18.09477806091308
 10
1000.000183105469
 20
-16.36256599426269
 30
-18.16229629516601
 10
1000.000183105469
 20
-16.15328216552734
 30
-21.70925903320313
 10
1000.000183105469
 20
-16.20980072021484
 30
-21.57901763916016
 10
1000.000183105469
 20
-10.91560554504394
 30
-12.21310997009277
 10
1000.000183105469
 20
-16.02474021911621
 30
-21.76954078674317
 10
1000.000183105469
 20
-14.75608348846435
 30
-21.92511940002441
 10
1000.000183105469
 20
-15.45708656311035
 30
-21.82437133789063
 10
1000.000183105469
 20
-6.824801445007324
 30
-16.6544075012207
 10
1000.000183105469
 20
-14.12111663818359
 30
-22.06060791015625
 10
1000.000183105469
 20
-13.55273532867431
 30
-22.22997856140137
 10
1000.000183105469
 20
-13.06171607971191
 30
-22.41985511779785
 10
1000.000183105469
 20
-12.65165710449219
 30
-22.62880706787109
 10
1000.000183105469
 20
-12.1376256942749
 30
-22.98070907592773
 10
1000.000183105469
 20
-11.58996391296386
 30
-23.5116024017334
 10
1000.000183105469
 20
-9.751612663269042
 30
-32.60287475585938
 10
1000.000183105469
 20
-1.612848281860351
 30
-34.08604431152344
 10
1000.000183105469
 20
-1.746822357177734
 30
-34.58604431152344
 10
1000.000183105469
 20
-11.18348979949951
 30
-24.08717346191406
 10
1000.000183105469
 20
-10.85399341583252
 30
-24.73919868469238
 10
1000.000183105469
 20
-3.451090812683105
 30
-21.65693473815918
 10
1000.000183105469
 20
-2.86517333984375
 30
-22.30193901062012
 10
1000.000183105469
 20
-10.58768081665039
 30
-25.44014739990235
 10
1000.000183105469
 20
-2.060588836669921
 30
-22.63656997680664
 10
1000.000183105469
 20
-0.8261775970458984
 30
-22.85422897338867
 10
1000.000183105469
 20
-10.36348152160644
 30
-26.20837783813477
 10
1000.000183105469
 20
-0.4025163650512696
 30
-23.03716659545898
 10
1000.000183105469
 20
-0.1064128875732422
 30
-23.39004707336426
 10
1000.000183105469
 20
-10.18529891967773
 30
-27.01269912719727
 10
1000.000183105469
 20
0.0001754760742188
 30
-23.83903884887695
 10
1000.000183105469
 20
0.0001764297485352
 30
-25.70096397399903
 10
1000.000183105469
 20
-0.0168724060058594
 30
-25.83037185668946
 10
1000.000183105469
 20
-0.0668106079101563
 30
-25.95096397399903
 10
1000.000183105469
 20
-9.772197723388671
 30
-31.62090301513672
 10
1000.000183105469
 20
-1.24682331085205
 30
-33.72002029418946
 10
1000.000183105469
 20
-0.4998226165771485
 30
-33.28874206542969
 10
1000.000183105469
 20
-9.806007385253906
 30
-30.69321060180664
 10
1000.000183105469
 20
-0.1337976455688477
 30
-32.92271423339844
 10
1000.000183105469
 20
-9.85665225982666
 30
-29.75717544555664
 10
1000.000183105469
 20
0.0001754760742188
 30
-30.29903984069824
 10
1000.000183105469
 20
0.0001773834228516
 30
-32.42271423339844
 10
1000.000183105469
 20
-0.0668115615844727
 30
-30.04903984069824
 10
1000.000183105469
 20
-0.0168724060058594
 30
-30.16963195800781
 10
1000.000183105469
 20
-9.935306549072265
 30
-28.78705024719238
 10
1000.000183105469
 20
-1.105485916137695
 30
-28.25000190734863
 10
1000.000183105469
 20
-10.04098701477051
 30
-27.89232063293457
 10
1000.000183105469
 20
-1.105485916137695
 30
-27.75000190734863
 10
1000.000183105469
 20
-1.172301292419433
 30
-28.00000190734863
 10
1000.000183105469
 20
-4.165883064270019
 30
-79.2983169555664
 10
1000.000183105469
 20
-4.590145111083984
 30
-75.08352661132812
 10
1000.000183105469
 20
-4.976039886474609
 30
-74.30973815917969
 10
1000.000183105469
 20
-1.105480194091796
 30
-72.25
 10
1000.000183105469
 20
-0.0668058395385742
 30
-74.04904174804688
 10
1000.000183105469
 20
-4.313245773315429
 30
-75.96326446533203
 10
1000.000183105469
 20
-4.137965202331542
 30
-78.26944732666015
 10
1000.000183105469
 20
-4.150325775146484
 30
-77.01411437988281
 10
1000.000183105469
 20
-0.016866683959961
 30
-74.16963195800781
 10
1000.000183105469
 20
-4.204893112182617
 30
-79.15331268310547
 10
1000.000183105469
 20
-9.741519927978515
 30
-48.28864669799805
 10
1000.000183105469
 20
-9.742713928222656
 30
-47.55704498291016
 10
1000.000183105469
 20
-13.08899307250976
 30
-58.92201232910156
 10
1000.000183105469
 20
-13.13827037811279
 30
-58.80126953125
 10
1000.000183105469
 20
-13.30054473876953
 30
-55.79718780517578
 10
1000.000183105469
 20
-13.26601505279541
 30
-55.6739273071289
 10
1000.000183105469
 20
-13.09153747558594
 30
-55.57280349731446
 10
1000.000183105469
 20
-12.97591209411621
 30
-58.98696517944336
 10
1000.000183105469
 20
-12.67608833312988
 30
-55.42115020751953
 10
1000.000183105469
 20
-12.17324542999267
 30
-55.19620895385742
 10
1000.000183105469
 20
-11.69580841064453
 30
-54.91692352294922
 10
1000.000183105469
 20
-9.403367042541503
 30
-59.66607284545898
 10
1000.000183105469
 20
-11.24221992492675
 30
-54.54770278930664
 10
1000.000183105469
 20
-10.87399291992187
 30
-54.10968017578125
 10
1000.000183105469
 20
-9.342500686645507
 30
-59.70392227172851
 10
1000.000183105469
 20
-10.57483577728271
 30
-53.59407806396484
 10
1000.000183105469
 20
-10.3210277557373
 30
-52.9819221496582
 10
1000.000183105469
 20
-10.13683223724365
 30
-52.36378479003906
 10
1000.000183105469
 20
-9.989752769470214
 30
-51.6788330078125
 10
1000.000183105469
 20
-9.748060226440429
 30
-48.92700958251953
 10
1000.000183105469
 20
-9.770965576171875
 30
-49.60684967041015
 10
1000.000183105469
 20
-9.815106391906738
 30
-50.29966735839844
 10
1000.000183105469
 20
-9.883209228515625
 30
-50.97280120849609
 10
1000.000183105469
 20
-9.322394371032714
 30
-59.77272033691406
 10
1000.000183105469
 20
-1.746818542480468
 30
-64.41401672363281
 10
1000.000183105469
 20
-9.452185630798339
 30
-61.31159591674805
 10
1000.000183105469
 20
-9.473689079284667
 30
-61.36550521850586
 10
1000.000183105469
 20
-9.521456718444824
 30
-61.39846801757812
 10
1000.000183105469
 20
-10.24504089355469
 30
-61.66879272460938
 10
1000.000183105469
 20
-5.459606170654296
 30
-73.62979125976562
 10
1000.000183105469
 20
-11.05870056152344
 30
-62.05422592163086
 10
1000.000183105469
 20
-11.69307327270508
 30
-62.46891784667969
 10
1000.000183105469
 20
-1.612843513488769
 30
-64.91401672363281
 10
1000.000183105469
 20
-12.18442630767822
 30
-62.89764785766601
 10
1000.000183105469
 20
-12.83843231201172
 30
-63.8023567199707
 10
1000.000183105469
 20
-12.55825996398926
 30
-63.34104156494141
 10
1000.000183105469
 20
-1.246818542480468
 30
-65.28004455566406
 10
1000.000183105469
 20
-13.04139518737793
 30
-64.29719543457031
 10
1000.000183105469
 20
-13.21445083618164
 30
-65.55609893798828
 10
1000.000183105469
 20
-13.16840171813965
 30
-64.83099365234375
 10
1000.000183105469
 20
-0.4998197555541993
 30
-65.71132659912109
 10
1000.000183105469
 20
-12.85078716278076
 30
-67.45632934570313
 10
1000.000183105469
 20
-13.11184120178223
 30
-66.526123046875
 10
1000.000183105469
 20
-0.1337947845458984
 30
-66.07734680175781
 10
1000.000183105469
 20
-11.98885154724121
 30
-68.91142272949219
 10
1000.000183105469
 20
-12.47249984741211
 30
-68.23837280273437
 10
1000.000183105469
 20
0.0001802444458008
 30
-66.57734680175781
 10
1000.000183105469
 20
-10.80221366882324
 30
-69.97593688964844
 10
1000.000183105469
 20
-11.39898586273193
 30
-69.50448608398438
 10
1000.000183105469
 20
0.0001821517944336
 30
-69.70095825195312
 10
1000.000183105469
 20
-8.704353332519531
 30
-71.22695922851562
 10
1000.000183105469
 20
-9.790864944458007
 30
-70.61470031738281
 10
1000.000183105469
 20
-0.0168657302856445
 30
-69.83036804199219
 10
1000.000183105469
 20
-7.274590015411376
 30
-72.07101440429688
 10
1000.000183105469
 20
-7.975854873657226
 30
-71.64346313476563
 10
1000.000183105469
 20
-0.0668048858642578
 30
-69.95095825195313
 10
1000.000183105469
 20
-6.021161079406738
 30
-73.03582763671875
 10
1000.000183105469
 20
-1.172295570373535
 30
-72.0
 10
1000.000183105469
 20
-6.649386882781982
 30
-72.51004791259766
 10
1000.000183105469
 20
-1.105480194091796
 30
-71.75
 93
     1859
 90
        4
 90
       13
 90
       11
 90
      171
 90
      170
 90
        4
 90
       11
 90
       12
 90
      169
 90
      171
 90
        4
 90
       12
 90
      163
 90
      168
 90
      169
 90
        4
 90
      163
 90
       87
 90
      173
 90
      168
 90
        4
 90
       87
 90
       88
 90
      172
 90
      173
 90
        4
 90
       88
 90
       89
 90
      174
 90
      172
 90
        4
 90
       89
 90
       90
 90
      177
 90
      174
 90
        4
 90
       90
 90
       91
 90
      176
 90
      177
 90
        4
 90
       91
 90
       92
 90
      180
 90
      176
 90
        4
 90
       92
 90
       93
 90
      182
 90
      180
 90
        4
 90
       93
 90
       94
 90
      184
 90
      182
 90
        4
 90
       94
 90
       95
 90
      188
 90
      184
 90
        4
 90
       95
 90
       96
 90
      190
 90
      188
 90
        4
 90
       96
 90
       97
 90
      192
 90
      190
 90
        4
 90
       97
 90
       98
 90
      195
 90
      192
 90
        4
 90
       98
 90
       99
 90
      194
 90
      195
 90
        4
 90
       99
 90
      100
 90
      197
 90
      194
 90
        4
 90
      100
 90
      101
 90
      199
 90
      197
 90
        4
 90
      101
 90
      102
 90
      198
 90
      199
 90
        4
 90
      102
 90
      103
 90
      201
 90
      198
 90
        4
 90
      103
 90
      104
 90
      203
 90
      201
 90
        4
 90
      104
 90
      105
 90
      202
 90
      203
 90
        4
 90
      105
 90
      106
 90
      205
 90
      202
 90
        4
 90
      106
 90
      107
 90
      207
 90
      205
 90
        4
 90
      107
 90
      108
 90
      206
 90
      207
 90
        4
 90
      108
 90
      109
 90
      209
 90
      206
 90
        4
 90
      109
 90
      110
 90
      210
 90
      209
 90
        4
 90
      110
 90
      157
 90
      212
 90
      210
 90
        4
 90
      157
 90
        9
 90
      213
 90
      212
 90
        4
 90
        9
 90
       10
 90
      215
 90
      213
 90
        4
 90
       10
 90
      162
 90
      214
 90
      215
 90
        4
 90
      162
 90
       67
 90
      217
 90
      214
 90
        4
 90
       67
 90
       68
 90
      219
 90
      217
 90
        4
 90
       68
 90
       69
 90
      218
 90
      219
 90
        4
 90
       69
 90
       70
 90
      221
 90
      218
 90
        4
 90
       70
 90
       71
 90
      222
 90
      221
 90
        4
 90
       71
 90
       72
 90
      223
 90
      222
 90
        4
 90
       72
 90
       73
 90
      224
 90
      223
 90
        4
 90
       73
 90
       74
 90
      225
 90
      224
 90
        4
 90
       74
 90
       75
 90
      226
 90
      225
 90
        4
 90
       75
 90
       76
 90
      230
 90
      226
 90
        4
 90
       76
 90
       77
 90
      231
 90
      230
 90
        4
 90
       77
 90
       78
 90
      234
 90
      231
 90
        4
 90
       78
 90
       79
 90
      237
 90
      234
 90
        4
 90
       79
 90
       80
 90
      240
 90
      237
 90
        4
 90
       80
 90
       81
 90
      257
 90
      240
 90
        4
 90
       81
 90
       82
 90
      255
 90
      257
 90
        4
 90
       82
 90
       83
 90
      250
 90
      255
 90
        4
 90
       83
 90
       84
 90
      248
 90
      250
 90
        4
 90
       84
 90
       85
 90
      245
 90
      248
 90
        4
 90
       85
 90
       86
 90
      227
 90
      245
 90
        4
 90
       86
 90
        8
 90
      271
 90
      227
 90
        4
 90
        8
 90
       52
 90
      270
 90
      271
 90
        4
 90
       52
 90
       53
 90
      289
 90
      270
 90
        4
 90
       53
 90
       54
 90
      290
 90
      289
 90
        4
 90
       54
 90
       55
 90
      291
 90
      290
 90
        4
 90
       55
 90
       56
 90
      292
 90
      291
 90
        4
 90
       56
 90
       57
 90
      288
 90
      292
 90
        4
 90
       57
 90
       58
 90
      287
 90
      288
 90
        4
 90
       58
 90
       59
 90
      286
 90
      287
 90
        4
 90
       59
 90
       60
 90
      285
 90
      286
 90
        4
 90
       60
 90
       61
 90
      283
 90
      285
 90
        4
 90
       61
 90
       62
 90
      282
 90
      283
 90
        4
 90
       62
 90
       63
 90
      280
 90
      282
 90
        4
 90
       63
 90
       64
 90
      279
 90
      280
 90
        4
 90
       64
 90
       65
 90
      278
 90
      279
 90
        4
 90
       65
 90
       66
 90
      276
 90
      278
 90
        4
 90
       66
 90
      161
 90
      275
 90
      276
 90
        4
 90
      161
 90
        6
 90
      274
 90
      275
 90
        4
 90
        6
 90
        7
 90
      273
 90
      274
 90
        4
 90
        7
 90
      160
 90
      272
 90
      273
 90
        4
 90
      160
 90
        4
 90
      277
 90
      272
 90
        4
 90
        4
 90
        5
 90
      281
 90
      277
 90
        4
 90
        5
 90
      158
 90
      284
 90
      281
 90
        4
 90
      158
 90
        2
 90
      293
 90
      284
 90
        4
 90
        2
 90
        3
 90
      295
 90
      293
 90
        4
 90
        3
 90
      159
 90
      296
 90
      295
 90
        4
 90
      159
 90
       23
 90
      297
 90
      296
 90
        4
 90
       23
 90
       24
 90
      298
 90
      297
 90
        4
 90
       24
 90
       25
 90
      300
 90
      298
 90
        4
 90
       25
 90
       26
 90
      301
 90
      300
 90
        4
 90
       26
 90
       27
 90
      303
 90
      301
 90
        4
 90
       27
 90
       28
 90
      305
 90
      303
 90
        4
 90
       28
 90
       29
 90
      304
 90
      305
 90
        4
 90
       29
 90
       30
 90
      307
 90
      304
 90
        4
 90
       30
 90
       31
 90
      309
 90
      307
 90
        4
 90
       31
 90
       32
 90
      308
 90
      309
 90
        4
 90
       32
 90
       33
 90
      312
 90
      308
 90
        4
 90
       33
 90
       34
 90
      311
 90
      312
 90
        4
 90
       34
 90
       35
 90
      315
 90
      311
 90
        4
 90
       35
 90
       36
 90
      314
 90
      315
 90
        4
 90
       36
 90
       37
 90
      318
 90
      314
 90
        4
 90
       37
 90
       38
 90
      317
 90
      318
 90
        4
 90
       38
 90
       39
 90
      321
 90
      317
 90
        4
 90
       39
 90
       40
 90
      320
 90
      321
 90
        4
 90
       40
 90
       41
 90
      324
 90
      320
 90
        4
 90
       41
 90
       42
 90
      323
 90
      324
 90
        4
 90
       42
 90
       43
 90
      328
 90
      323
 90
        4
 90
       43
 90
       44
 90
      326
 90
      328
 90
        4
 90
       44
 90
       45
 90
      299
 90
      326
 90
        4
 90
       45
 90
       46
 90
      262
 90
      299
 90
        4
 90
       46
 90
       47
 90
      261
 90
      262
 90
        4
 90
       47
 90
       48
 90
      265
 90
      261
 90
        4
 90
       48
 90
       49
 90
      267
 90
      265
 90
        4
 90
       49
 90
       50
 90
      266
 90
      267
 90
        4
 90
       50
 90
       51
 90
      269
 90
      266
 90
        4
 90
       51
 90
      164
 90
      260
 90
      269
 90
        4
 90
      164
 90
        0
 90
      165
 90
      260
 90
        4
 90
        0
 90
        1
 90
      167
 90
      165
 90
        4
 90
        1
 90
       22
 90
      166
 90
      167
 90
        4
 90
       22
 90
      151
 90
      268
 90
      166
 90
        4
 90
      151
 90
      111
 90
      264
 90
      268
 90
        4
 90
      111
 90
      112
 90
      263
 90
      264
 90
        4
 90
      112
 90
      143
 90
      327
 90
      263
 90
        4
 90
      143
 90
      113
 90
      329
 90
      327
 90
        4
 90
      113
 90
      114
 90
      325
 90
      329
 90
        4
 90
      114
 90
      152
 90
      322
 90
      325
 90
        4
 90
      152
 90
       20
 90
      319
 90
      322
 90
        4
 90
       20
 90
       21
 90
      316
 90
      319
 90
        4
 90
       21
 90
      150
 90
      313
 90
      316
 90
        4
 90
      150
 90
      115
 90
      310
 90
      313
 90
        4
 90
      115
 90
      116
 90
      306
 90
      310
 90
        4
 90
      116
 90
      142
 90
      302
 90
      306
 90
        4
 90
      142
 90
      117
 90
      294
 90
      302
 90
        4
 90
      117
 90
      118
 90
      229
 90
      294
 90
        4
 90
      118
 90
      141
 90
      228
 90
      229
 90
        4
 90
      141
 90
      119
 90
      246
 90
      228
 90
        4
 90
      119
 90
      120
 90
      247
 90
      246
 90
        4
 90
      120
 90
      149
 90
      249
 90
      247
 90
        4
 90
      149
 90
       18
 90
      252
 90
      249
 90
        4
 90
       18
 90
       19
 90
      251
 90
      252
 90
        4
 90
       19
 90
      153
 90
      254
 90
      251
 90
        4
 90
      153
 90
      121
 90
      253
 90
      254
 90
        4
 90
      121
 90
      122
 90
      256
 90
      253
 90
        4
 90
      122
 90
      144
 90
      259
 90
      256
 90
        4
 90
      144
 90
      123
 90
      258
 90
      259
 90
        4
 90
      123
 90
      124
 90
      244
 90
      258
 90
        4
 90
      124
 90
      154
 90
      243
 90
      244
 90
        4
 90
      154
 90
       16
 90
      242
 90
      243
 90
        4
 90
       16
 90
       17
 90
      241
 90
      242
 90
        4
 90
       17
 90
      146
 90
      239
 90
      241
 90
        4
 90
      146
 90
      147
 90
      238
 90
      239
 90
        4
 90
      147
 90
      125
 90
      236
 90
      238
 90
        4
 90
      125
 90
      126
 90
      235
 90
      236
 90
        4
 90
      126
 90
      138
 90
      233
 90
      235
 90
        4
 90
      138
 90
      127
 90
      232
 90
      233
 90
        4
 90
      127
 90
      128
 90
      220
 90
      232
 90
        4
 90
      128
 90
      129
 90
      216
 90
      220
 90
        4
 90
      129
 90
      130
 90
      211
 90
      216
 90
        4
 90
      130
 90
      131
 90
      208
 90
      211
 90
        4
 90
      131
 90
      139
 90
      204
 90
      208
 90
        4
 90
      139
 90
      140
 90
      200
 90
      204
 90
        4
 90
      140
 90
      132
 90
      196
 90
      200
 90
        4
 90
      132
 90
      133
 90
      193
 90
      196
 90
        4
 90
      133
 90
      148
 90
      191
 90
      193
 90
        4
 90
      148
 90
       14
 90
      189
 90
      191
 90
        4
 90
       14
 90
       15
 90
      187
 90
      189
 90
        4
 90
       15
 90
      156
 90
      186
 90
      187
 90
        4
 90
      156
 90
      134
 90
      185
 90
      186
 90
        4
 90
      134
 90
      135
 90
      183
 90
      185
 90
        4
 90
      135
 90
      145
 90
      181
 90
      183
 90
        4
 90
      145
 90
      136
 90
      179
 90
      181
 90
        4
 90
      136
 90
      137
 90
      178
 90
      179
 90
        4
 90
      137
 90
      155
 90
      175
 90
      178
 90
        4
 90
      155
 90
       13
 90
      170
 90
      175
 90
        3
 90
        0
 90
       22
 90
        1
 90
        3
 90
      163
 90
       12
 90
       13
 90
        3
 90
       12
 90
       11
 90
       13
 90
        3
 90
       88
 90
       87
 90
       13
 90
        3
 90
       87
 90
      163
 90
       13
 90
        4
 90
       89
 90
       88
 90
       13
 90
      155
 90
        4
 90
       91
 90
       90
 90
      137
 90
      136
 90
        4
 90
       90
 90
       89
 90
      155
 90
      137
 90
        4
 90
       92
 90
       91
 90
      136
 90
      145
 90
        4
 90
       93
 90
       92
 90
      145
 90
      135
 90
        4
 90
       94
 90
       93
 90
      135
 90
      134
 90
        3
 90
       94
 90
      134
 90
      156
 90
        3
 90
       94
 90
      156
 90
       15
 90
        4
 90
       95
 90
       94
 90
       15
 90
       14
 90
        4
 90
       96
 90
       95
 90
       14
 90
      148
 90
        4
 90
       97
 90
       96
 90
      148
 90
      133
 90
        3
 90
       99
 90
       98
 90
      132
 90
        4
 90
       98
 90
       97
 90
      133
 90
      132
 90
        3
 90
      100
 90
       99
 90
      132
 90
        3
 90
      102
 90
      101
 90
      140
 90
        4
 90
      101
 90
      100
 90
      132
 90
      140
 90
        3
 90
      103
 90
      102
 90
      140
 90
        3
 90
      105
 90
      104
 90
      139
 90
        4
 90
      104
 90
      103
 90
      140
 90
      139
 90
        3
 90
      106
 90
      105
 90
      139
 90
        3
 90
      108
 90
      107
 90
      131
 90
        4
 90
      107
 90
      106
 90
      139
 90
      131
 90
        3
 90
      109
 90
      108
 90
      131
 90
        4
 90
      110
 90
      109
 90
      131
 90
      130
 90
        3
 90
      157
 90
      110
 90
      130
 90
        3
 90
        9
 90
      157
 90
      130
 90
        3
 90
      162
 90
       10
 90
      129
 90
        4
 90
       10
 90
        9
 90
      130
 90
      129
 90
        3
 90
       67
 90
      162
 90
      129
 90
        3
 90
       69
 90
       68
 90
      128
 90
        4
 90
       68
 90
       67
 90
      129
 90
      128
 90
        3
 90
       70
 90
       69
 90
      128
 90
        3
 90
       71
 90
       70
 90
      128
 90
        3
 90
       72
 90
       71
 90
      128
 90
        3
 90
       73
 90
       72
 90
      128
 90
        3
 90
       74
 90
       73
 90
      128
 90
        3
 90
       75
 90
       74
 90
      128
 90
        3
 90
       86
 90
      141
 90
      118
 90
        3
 90
       76
 90
       75
 90
      128
 90
        4
 90
       77
 90
       76
 90
      128
 90
      127
 90
        3
 90
       77
 90
      127
 90
      138
 90
        4
 90
       78
 90
       77
 90
      138
 90
      126
 90
        3
 90
       78
 90
      126
 90
      125
 90
        4
 90
       79
 90
       78
 90
      125
 90
      147
 90
        3
 90
       79
 90
      147
 90
      146
 90
        4
 90
       80
 90
       79
 90
      146
 90
       17
 90
        3
 90
       80
 90
       17
 90
       16
 90
        3
 90
       80
 90
       16
 90
      154
 90
        3
 90
       80
 90
      154
 90
      124
 90
        4
 90
       86
 90
       85
 90
      119
 90
      141
 90
        3
 90
       85
 90
      120
 90
      119
 90
        4
 90
       85
 90
       84
 90
      149
 90
      120
 90
        4
 90
       84
 90
       83
 90
       19
 90
       18
 90
        3
 90
       84
 90
       18
 90
      149
 90
        3
 90
       83
 90
      121
 90
      153
 90
        3
 90
       83
 90
      153
 90
       19
 90
        4
 90
       83
 90
       82
 90
      122
 90
      121
 90
        4
 90
       81
 90
       80
 90
      124
 90
      123
 90
        3
 90
       81
 90
      123
 90
      144
 90
        3
 90
       82
 90
       81
 90
      144
 90
        3
 90
       82
 90
      144
 90
      122
 90
        3
 90
        0
 90
      164
 90
       22
 90
        4
 90
       47
 90
       46
 90
      112
 90
      111
 90
        3
 90
       48
 90
       47
 90
      111
 90
        3
 90
       50
 90
       49
 90
      151
 90
        4
 90
       49
 90
       48
 90
      111
 90
      151
 90
        3
 90
       51
 90
       50
 90
      151
 90
        4
 90
      164
 90
       51
 90
      151
 90
       22
 90
        3
 90
       52
 90
        8
 90
      118
 90
        3
 90
        8
 90
       86
 90
      118
 90
        4
 90
      160
 90
        7
 90
        6
 90
      161
 90
        3
 90
      160
 90
      161
 90
       66
 90
        4
 90
        4
 90
      160
 90
       66
 90
       65
 90
        3
 90
        4
 90
       65
 90
       64
 90
        3
 90
        4
 90
       64
 90
       63
 90
        4
 90
        5
 90
        4
 90
       63
 90
       62
 90
        3
 90
        5
 90
       62
 90
       61
 90
        4
 90
      158
 90
        5
 90
       61
 90
       60
 90
        3
 90
      158
 90
       60
 90
       59
 90
        3
 90
      158
 90
       59
 90
       58
 90
        3
 90
      158
 90
       58
 90
       57
 90
        3
 90
       53
 90
       52
 90
      118
 90
        3
 90
       54
 90
       53
 90
      118
 90
        3
 90
       55
 90
       54
 90
      118
 90
        4
 90
      158
 90
       57
 90
       56
 90
      118
 90
        3
 90
       56
 90
       55
 90
      118
 90
        4
 90
        2
 90
      158
 90
      118
 90
      117
 90
        3
 90
        3
 90
        2
 90
      117
 90
        3
 90
      159
 90
        3
 90
      117
 90
        3
 90
       23
 90
      159
 90
      117
 90
        3
 90
       24
 90
       23
 90
      117
 90
        3
 90
       46
 90
       45
 90
      112
 90
        3
 90
       25
 90
       24
 90
      117
 90
        4
 90
       26
 90
       25
 90
      117
 90
      142
 90
        3
 90
       27
 90
       26
 90
      142
 90
        3
 90
       29
 90
       28
 90
      116
 90
        4
 90
       28
 90
       27
 90
      142
 90
      116
 90
        3
 90
       30
 90
       29
 90
      116
 90
        3
 90
       32
 90
       31
 90
      115
 90
        4
 90
       31
 90
       30
 90
      116
 90
      115
 90
        3
 90
       34
 90
       33
 90
      150
 90
        4
 90
       33
 90
       32
 90
      115
 90
      150
 90
        3
 90
       36
 90
       35
 90
       21
 90
        4
 90
       35
 90
       34
 90
      150
 90
       21
 90
        3
 90
       38
 90
       37
 90
       20
 90
        4
 90
       37
 90
       36
 90
       21
 90
       20
 90
        3
 90
       40
 90
       39
 90
      152
 90
        4
 90
       39
 90
       38
 90
       20
 90
      152
 90
        3
 90
       42
 90
       41
 90
      114
 90
        4
 90
       41
 90
       40
 90
      152
 90
      114
 90
        4
 90
       45
 90
       44
 90
      143
 90
      112
 90
        4
 90
       44
 90
       43
 90
      113
 90
      143
 90
        4
 90
       43
 90
       42
 90
      114
 90
      113
 90
        3
 90
      165
 90
      167
 90
      166
 90
        3
 90
      168
 90
      170
 90
      169
 90
        3
 90
      169
 90
      170
 90
      171
 90
        3
 90
      172
 90
      170
 90
      173
 90
        3
 90
      173
 90
      170
 90
      168
 90
        4
 90
      174
 90
      175
 90
      170
 90
      172
 90
        4
 90
      176
 90
      179
 90
      178
 90
      177
 90
        4
 90
      177
 90
      178
 90
      175
 90
      174
 90
        4
 90
      180
 90
      181
 90
      179
 90
      176
 90
        4
 90
      182
 90
      183
 90
      181
 90
      180
 90
        4
 90
      184
 90
      185
 90
      183
 90
      182
 90
        3
 90
      184
 90
      186
 90
      185
 90
        3
 90
      184
 90
      187
 90
      186
 90
        4
 90
      188
 90
      189
 90
      187
 90
      184
 90
        4
 90
      190
 90
      191
 90
      189
 90
      188
 90
        4
 90
      192
 90
      193
 90
      191
 90
      190
 90
        3
 90
      194
 90
      196
 90
      195
 90
        4
 90
      195
 90
      196
 90
      193
 90
      192
 90
        3
 90
      197
 90
      196
 90
      194
 90
        3
 90
      198
 90
      200
 90
      199
 90
        4
 90
      199
 90
      200
 90
      196
 90
      197
 90
        3
 90
      201
 90
      200
 90
      198
 90
        3
 90
      202
 90
      204
 90
      203
 90
        4
 90
      203
 90
      204
 90
      200
 90
      201
 90
        3
 90
      205
 90
      204
 90
      202
 90
        3
 90
      206
 90
      208
 90
      207
 90
        4
 90
      207
 90
      208
 90
      204
 90
      205
 90
        3
 90
      209
 90
      208
 90
      206
 90
        4
 90
      210
 90
      211
 90
      208
 90
      209
 90
        3
 90
      212
 90
      211
 90
      210
 90
        3
 90
      213
 90
      211
 90
      212
 90
        3
 90
      214
 90
      216
 90
      215
 90
        4
 90
      215
 90
      216
 90
      211
 90
      213
 90
        3
 90
      217
 90
      216
 90
      214
 90
        3
 90
      218
 90
      220
 90
      219
 90
        4
 90
      219
 90
      220
 90
      216
 90
      217
 90
        3
 90
      221
 90
      220
 90
      218
 90
        3
 90
      222
 90
      220
 90
      221
 90
        3
 90
      223
 90
      220
 90
      222
 90
        3
 90
      224
 90
      220
 90
      223
 90
        3
 90
      225
 90
      220
 90
      224
 90
        3
 90
      226
 90
      220
 90
      225
 90
        3
 90
      227
 90
      229
 90
      228
 90
        3
 90
      230
 90
      220
 90
      226
 90
        4
 90
      231
 90
      232
 90
      220
 90
      230
 90
        3
 90
      231
 90
      233
 90
      232
 90
        4
 90
      234
 90
      235
 90
      233
 90
      231
 90
        3
 90
      234
 90
      236
 90
      235
 90
        4
 90
      237
 90
      238
 90
      236
 90
      234
 90
        3
 90
      237
 90
      239
 90
      238
 90
        4
 90
      240
 90
      241
 90
      239
 90
      237
 90
        3
 90
      240
 90
      242
 90
      241
 90
        3
 90
      240
 90
      243
 90
      242
 90
        3
 90
      240
 90
      244
 90
      243
 90
        4
 90
      227
 90
      228
 90
      246
 90
      245
 90
        3
 90
      245
 90
      246
 90
      247
 90
        4
 90
      245
 90
      247
 90
      249
 90
      248
 90
        4
 90
      248
 90
      252
 90
      251
 90
      250
 90
        3
 90
      248
 90
      249
 90
      252
 90
        3
 90
      250
 90
      254
 90
      253
 90
        3
 90
      250
 90
      251
 90
      254
 90
        4
 90
      250
 90
      253
 90
      256
 90
      255
 90
        4
 90
      257
 90
      258
 90
      244
 90
      240
 90
        3
 90
      257
 90
      259
 90
      258
 90
        3
 90
      255
 90
      259
 90
      257
 90
        3
 90
      255
 90
      256
 90
      259
 90
        3
 90
      165
 90
      166
 90
      260
 90
        4
 90
      261
 90
      264
 90
      263
 90
      262
 90
        3
 90
      265
 90
      264
 90
      261
 90
        3
 90
      266
 90
      268
 90
      267
 90
        4
 90
      267
 90
      268
 90
      264
 90
      265
 90
        3
 90
      269
 90
      268
 90
      266
 90
        4
 90
      260
 90
      166
 90
      268
 90
      269
 90
        3
 90
      270
 90
      229
 90
      271
 90
        3
 90
      271
 90
      229
 90
      227
 90
        4
 90
      272
 90
      275
 90
      274
 90
      273
 90
        3
 90
      272
 90
      276
 90
      275
 90
        4
 90
      277
 90
      278
 90
      276
 90
      272
 90
        3
 90
      277
 90
      279
 90
      278
 90
        3
 90
      277
 90
      280
 90
      279
 90
        4
 90
      281
 90
      282
 90
      280
 90
      277
 90
        3
 90
      281
 90
      283
 90
      282
 90
        4
 90
      284
 90
      285
 90
      283
 90
      281
 90
        3
 90
      284
 90
      286
 90
      285
 90
        3
 90
      284
 90
      287
 90
      286
 90
        3
 90
      284
 90
      288
 90
      287
 90
        3
 90
      289
 90
      229
 90
      270
 90
        3
 90
      290
 90
      229
 90
      289
 90
        3
 90
      291
 90
      229
 90
      290
 90
        4
 90
      284
 90
      229
 90
      292
 90
      288
 90
        3
 90
      292
 90
      229
 90
      291
 90
        4
 90
      293
 90
      294
 90
      229
 90
      284
 90
        3
 90
      295
 90
      294
 90
      293
 90
        3
 90
      296
 90
      294
 90
      295
 90
        3
 90
      297
 90
      294
 90
      296
 90
        3
 90
      298
 90
      294
 90
      297
 90
        3
 90
      262
 90
      263
 90
      299
 90
        3
 90
      300
 90
      294
 90
      298
 90
        4
 90
      301
 90
      302
 90
      294
 90
      300
 90
        3
 90
      303
 90
      302
 90
      301
 90
        3
 90
      304
 90
      306
 90
      305
 90
        4
 90
      305
 90
      306
 90
      302
 90
      303
 90
        3
 90
      307
 90
      306
 90
      304
 90
        3
 90
      308
 90
      310
 90
      309
 90
        4
 90
      309
 90
      310
 90
      306
 90
      307
 90
        3
 90
      311
 90
      313
 90
      312
 90
        4
 90
      312
 90
      313
 90
      310
 90
      308
 90
        3
 90
      314
 90
      316
 90
      315
 90
        4
 90
      315
 90
      316
 90
      313
 90
      311
 90
        3
 90
      317
 90
      319
 90
      318
 90
        4
 90
      318
 90
      319
 90
      316
 90
      314
 90
        3
 90
      320
 90
      322
 90
      321
 90
        4
 90
      321
 90
      322
 90
      319
 90
      317
 90
        3
 90
      323
 90
      325
 90
      324
 90
        4
 90
      324
 90
      325
 90
      322
 90
      320
 90
        4
 90
      299
 90
      263
 90
      327
 90
      326
 90
        4
 90
      326
 90
      327
 90
      329
 90
      328
 90
        4
 90
      328
 90
      329
 90
      325
 90
      323
 94
      729
 90
       11
 90
       13
 90
       11
 90
      171
 90
      170
 90
      171
 90
       13
 90
      170
 90
       11
 90
       12
 90
       12
 90
      169
 90
      169
 90
      171
 90
       12
 90
      163
 90
      163
 90
      168
 90
      168
 90
      169
 90
       87
 90
      163
 90
       87
 90
      173
 90
      168
 90
      173
 90
       87
 90
       88
 90
       88
 90
      172
 90
      172
 90
      173
 90
       88
 90
       89
 90
       89
 90
      174
 90
      172
 90
      174
 90
       89
 90
       90
 90
       90
 90
      177
 90
      174
 90
      177
 90
       90
 90
       91
 90
       91
 90
      176
 90
      176
 90
      177
 90
       91
 90
       92
 90
       92
 90
      180
 90
      176
 90
      180
 90
       92
 90
       93
 90
       93
 90
      182
 90
      180
 90
      182
 90
       93
 90
       94
 90
       94
 90
      184
 90
      182
 90
      184
 90
       94
 90
       95
 90
       95
 90
      188
 90
      184
 90
      188
 90
       95
 90
       96
 90
       96
 90
      190
 90
      188
 90
      190
 90
       96
 90
       97
 90
       97
 90
      192
 90
      190
 90
      192
 90
       97
 90
       98
 90
       98
 90
      195
 90
      192
 90
      195
 90
       98
 90
       99
 90
       99
 90
      194
 90
      194
 90
      195
 90
       99
 90
      100
 90
      100
 90
      197
 90
      194
 90
      197
 90
      100
 90
      101
 90
      101
 90
      199
 90
      197
 90
      199
 90
      101
 90
      102
 90
      102
 90
      198
 90
      198
 90
      199
 90
      102
 90
      103
 90
      103
 90
      201
 90
      198
 90
      201
 90
      103
 90
      104
 90
      104
 90
      203
 90
      201
 90
      203
 90
      104
 90
      105
 90
      105
 90
      202
 90
      202
 90
      203
 90
      105
 90
      106
 90
      106
 90
      205
 90
      202
 90
      205
 90
      106
 90
      107
 90
      107
 90
      207
 90
      205
 90
      207
 90
      107
 90
      108
 90
      108
 90
      206
 90
      206
 90
      207
 90
      108
 90
      109
 90
      109
 90
      209
 90
      206
 90
      209
 90
      109
 90
      110
 90
      110
 90
      210
 90
      209
 90
      210
 90
      110
 90
      157
 90
      157
 90
      212
 90
      210
 90
      212
 90
        9
 90
      157
 90
        9
 90
      213
 90
      212
 90
      213
 90
        9
 90
       10
 90
       10
 90
      215
 90
      213
 90
      215
 90
       10
 90
      162
 90
      162
 90
      214
 90
      214
 90
      215
 90
       67
 90
      162
 90
       67
 90
      217
 90
      214
 90
      217
 90
       67
 90
       68
 90
       68
 90
      219
 90
      217
 90
      219
 90
       68
 90
       69
 90
       69
 90
      218
 90
      218
 90
      219
 90
       69
 90
       70
 90
       70
 90
      221
 90
      218
 90
      221
 90
       70
 90
       71
 90
       71
 90
      222
 90
      221
 90
      222
 90
       71
 90
       72
 90
       72
 90
      223
 90
      222
 90
      223
 90
       72
 90
       73
 90
       73
 90
      224
 90
      223
 90
      224
 90
       73
 90
       74
 90
       74
 90
      225
 90
      224
 90
      225
 90
       74
 90
       75
 90
       75
 90
      226
 90
      225
 90
      226
 90
       75
 90
       76
 90
       76
 90
      230
 90
      226
 90
      230
 90
       76
 90
       77
 90
       77
 90
      231
 90
      230
 90
      231
 90
       77
 90
       78
 90
       78
 90
      234
 90
      231
 90
      234
 90
       78
 90
       79
 90
       79
 90
      237
 90
      234
 90
      237
 90
       79
 90
       80
 90
       80
 90
      240
 90
      237
 90
      240
 90
       80
 90
       81
 90
       81
 90
      257
 90
      240
 90
      257
 90
       81
 90
       82
 90
       82
 90
      255
 90
      255
 90
      257
 90
       82
 90
       83
 90
       83
 90
      250
 90
      250
 90
      255
 90
       83
 90
       84
 90
       84
 90
      248
 90
      248
 90
      250
 90
       84
 90
       85
 90
       85
 90
      245
 90
      245
 90
      248
 90
       85
 90
       86
 90
       86
 90
      227
 90
      227
 90
      245
 90
        8
 90
       86
 90
        8
 90
      271
 90
      227
 90
      271
 90
        8
 90
       52
 90
       52
 90
      270
 90
      270
 90
      271
 90
       52
 90
       53
 90
       53
 90
      289
 90
      270
 90
      289
 90
       53
 90
       54
 90
       54
 90
      290
 90
      289
 90
      290
 90
       54
 90
       55
 90
       55
 90
      291
 90
      290
 90
      291
 90
       55
 90
       56
 90
       56
 90
      292
 90
      291
 90
      292
 90
       56
 90
       57
 90
       57
 90
      288
 90
      288
 90
      292
 90
       57
 90
       58
 90
       58
 90
      287
 90
      287
 90
      288
 90
       58
 90
       59
 90
       59
 90
      286
 90
      286
 90
      287
 90
       59
 90
       60
 90
       60
 90
      285
 90
      285
 90
      286
 90
       60
 90
       61
 90
       61
 90
      283
 90
      283
 90
      285
 90
       61
 90
       62
 90
       62
 90
      282
 90
      282
 90
      283
 90
       62
 90
       63
 90
       63
 90
      280
 90
      280
 90
      282
 90
       63
 90
       64
 90
       64
 90
      279
 90
      279
 90
      280
 90
       64
 90
       65
 90
       65
 90
      278
 90
      278
 90
      279
 90
       65
 90
       66
 90
       66
 90
      276
 90
      276
 90
      278
 90
       66
 90
      161
 90
      161
 90
      275
 90
      275
 90
      276
 90
        6
 90
      161
 90
        6
 90
      274
 90
      274
 90
      275
 90
        6
 90
        7
 90
        7
 90
      273
 90
      273
 90
      274
 90
        7
 90
      160
 90
      160
 90
      272
 90
      272
 90
      273
 90
        4
 90
      160
 90
        4
 90
      277
 90
      272
 90
      277
 90
        4
 90
        5
 90
        5
 90
      281
 90
      277
 90
      281
 90
        5
 90
      158
 90
      158
 90
      284
 90
      281
 90
      284
 90
        2
 90
      158
 90
        2
 90
      293
 90
      284
 90
      293
 90
        2
 90
        3
 90
        3
 90
      295
 90
      293
 90
      295
 90
        3
 90
      159
 90
      159
 90
      296
 90
      295
 90
      296
 90
       23
 90
      159
 90
       23
 90
      297
 90
      296
 90
      297
 90
       23
 90
       24
 90
       24
 90
      298
 90
      297
 90
      298
 90
       24
 90
       25
 90
       25
 90
      300
 90
      298
 90
      300
 90
       25
 90
       26
 90
       26
 90
      301
 90
      300
 90
      301
 90
       26
 90
       27
 90
       27
 90
      303
 90
      301
 90
      303
 90
       27
 90
       28
 90
       28
 90
      305
 90
      303
 90
      305
 90
       28
 90
       29
 90
       29
 90
      304
 90
      304
 90
      305
 90
       29
 90
       30
 90
       30
 90
      307
 90
      304
 90
      307
 90
       30
 90
       31
 90
       31
 90
      309
 90
      307
 90
      309
 90
       31
 90
       32
 90
       32
 90
      308
 90
      308
 90
      309
 90
       32
 90
       33
 90
       33
 90
      312
 90
      308
 90
      312
 90
       33
 90
       34
 90
       34
 90
      311
 90
      311
 90
      312
 90
       34
 90
       35
 90
       35
 90
      315
 90
      311
 90
      315
 90
       35
 90
       36
 90
       36
 90
      314
 90
      314
 90
      315
 90
       36
 90
       37
 90
       37
 90
      318
 90
      314
 90
      318
 90
       37
 90
       38
 90
       38
 90
      317
 90
      317
 90
      318
 90
       38
 90
       39
 90
       39
 90
      321
 90
      317
 90
      321
 90
       39
 90
       40
 90
       40
 90
      320
 90
      320
 90
      321
 90
       40
 90
       41
 90
       41
 90
      324
 90
      320
 90
      324
 90
       41
 90
       42
 90
       42
 90
      323
 90
      323
 90
      324
 90
       42
 90
       43
 90
       43
 90
      328
 90
      323
 90
      328
 90
       43
 90
       44
 90
       44
 90
      326
 90
      326
 90
      328
 90
       44
 90
       45
 90
       45
 90
      299
 90
      299
 90
      326
 90
       45
 90
       46
 90
       46
 90
      262
 90
      262
 90
      299
 90
       46
 90
       47
 90
       47
 90
      261
 90
      261
 90
      262
 90
       47
 90
       48
 90
       48
 90
      265
 90
      261
 90
      265
 90
       48
 90
       49
 90
       49
 90
      267
 90
      265
 90
      267
 90
       49
 90
       50
 90
       50
 90
      266
 90
      266
 90
      267
 90
       50
 90
       51
 90
       51
 90
      269
 90
      266
 90
      269
 90
       51
 90
      164
 90
      164
 90
      260
 90
      260
 90
      269
 90
        0
 90
      164
 90
        0
 90
      165
 90
      165
 90
      260
 90
        0
 90
        1
 90
        1
 90
      167
 90
      165
 90
      167
 90
        1
 90
       22
 90
       22
 90
      166
 90
      166
 90
      167
 90
       22
 90
      151
 90
      151
 90
      268
 90
      166
 90
      268
 90
      111
 90
      151
 90
      111
 90
      264
 90
      264
 90
      268
 90
      111
 90
      112
 90
      112
 90
      263
 90
      263
 90
      264
 90
      112
 90
      143
 90
      143
 90
      327
 90
      263
 90
      327
 90
      113
 90
      143
 90
      113
 90
      329
 90
      327
 90
      329
 90
      113
 90
      114
 90
      114
 90
      325
 90
      325
 90
      329
 90
      114
 90
      152
 90
      152
 90
      322
 90
      322
 90
      325
 90
       20
 90
      152
 90
       20
 90
      319
 90
      319
 90
      322
 90
       20
 90
       21
 90
       21
 90
      316
 90
      316
 90
      319
 90
       21
 90
      150
 90
      150
 90
      313
 90
      313
 90
      316
 90
      115
 90
      150
 90
      115
 90
      310
 90
      310
 90
      313
 90
      115
 90
      116
 90
      116
 90
      306
 90
      306
 90
      310
 90
      116
 90
      142
 90
      142
 90
      302
 90
      302
 90
      306
 90
      117
 90
      142
 90
      117
 90
      294
 90
      294
 90
      302
 90
      117
 90
      118
 90
      118
 90
      229
 90
      229
 90
      294
 90
      118
 90
      141
 90
      141
 90
      228
 90
      228
 90
      229
 90
      119
 90
      141
 90
      119
 90
      246
 90
      228
 90
      246
 90
      119
 90
      120
 90
      120
 90
      247
 90
      246
 90
      247
 90
      120
 90
      149
 90
      149
 90
      249
 90
      247
 90
      249
 90
       18
 90
      149
 90
       18
 90
      252
 90
      249
 90
      252
 90
       18
 90
       19
 90
       19
 90
      251
 90
      251
 90
      252
 90
       19
 90
      153
 90
      153
 90
      254
 90
      251
 90
      254
 90
      121
 90
      153
 90
      121
 90
      253
 90
      253
 90
      254
 90
      121
 90
      122
 90
      122
 90
      256
 90
      253
 90
      256
 90
      122
 90
      144
 90
      144
 90
      259
 90
      256
 90
      259
 90
      123
 90
      144
 90
      123
 90
      258
 90
      258
 90
      259
 90
      123
 90
      124
 90
      124
 90
      244
 90
      244
 90
      258
 90
      124
 90
      154
 90
      154
 90
      243
 90
      243
 90
      244
 90
       16
 90
      154
 90
       16
 90
      242
 90
      242
 90
      243
 90
       16
 90
       17
 90
       17
 90
      241
 90
      241
 90
      242
 90
       17
 90
      146
 90
      146
 90
      239
 90
      239
 90
      241
 90
      146
 90
      147
 90
      147
 90
      238
 90
      238
 90
      239
 90
      125
 90
      147
 90
      125
 90
      236
 90
      236
 90
      238
 90
      125
 90
      126
 90
      126
 90
      235
 90
      235
 90
      236
 90
      126
 90
      138
 90
      138
 90
      233
 90
      233
 90
      235
 90
      127
 90
      138
 90
      127
 90
      232
 90
      232
 90
      233
 90
      127
 90
      128
 90
      128
 90
      220
 90
      220
 90
      232
 90
      128
 90
      129
 90
      129
 90
      216
 90
      216
 90
      220
 90
      129
 90
      130
 90
      130
 90
      211
 90
      211
 90
      216
 90
      130
 90
      131
 90
      131
 90
      208
 90
      208
 90
      211
 90
      131
 90
      139
 90
      139
 90
      204
 90
      204
 90
      208
 90
      139
 90
      140
 90
      140
 90
      200
 90
      200
 90
      204
 90
      132
 90
      140
 90
      132
 90
      196
 90
      196
 90
      200
 90
      132
 90
      133
 90
      133
 90
      193
 90
      193
 90
      196
 90
      133
 90
      148
 90
      148
 90
      191
 90
      191
 90
      193
 90
       14
 90
      148
 90
       14
 90
      189
 90
      189
 90
      191
 90
       14
 90
       15
 90
       15
 90
      187
 90
      187
 90
      189
 90
       15
 90
      156
 90
      156
 90
      186
 90
      186
 90
      187
 90
      134
 90
      156
 90
      134
 90
      185
 90
      185
 90
      186
 90
      134
 90
      135
 90
      135
 90
      183
 90
      183
 90
      185
 90
      135
 90
      145
 90
      145
 90
      181
 90
      181
 90
      183
 90
      136
 90
      145
 90
      136
 90
      179
 90
      179
 90
      181
 90
      136
 90
      137
 90
      137
 90
      178
 90
      178
 90
      179
 90
      137
 90
      155
 90
      155
 90
      175
 90
      175
 90
      178
 90
       13
 90
      155
 90
      170
 90
      175
 90
        0
 90
       22
 90
       12
 90
       13
 90
       13
 90
      163
 90
       13
 90
       87
 90
       13
 90
       88
 90
       89
 90
      155
 90
       90
 90
      137
 90
       91
 90
      136
 90
       92
 90
      145
 90
       93
 90
      135
 90
       94
 90
      134
 90
       94
 90
      156
 90
       15
 90
       94
 90
       14
 90
       95
 90
       96
 90
      148
 90
       97
 90
      133
 90
       98
 90
      132
 90
       99
 90
      132
 90
      100
 90
      132
 90
      101
 90
      140
 90
      102
 90
      140
 90
      103
 90
      140
 90
      104
 90
      139
 90
      105
 90
      139
 90
      106
 90
      139
 90
      107
 90
      131
 90
      108
 90
      131
 90
      109
 90
      131
 90
      110
 90
      130
 90
      130
 90
      157
 90
        9
 90
      130
 90
       10
 90
      129
 90
      129
 90
      162
 90
       67
 90
      129
 90
       68
 90
      128
 90
       69
 90
      128
 90
       70
 90
      128
 90
       71
 90
      128
 90
       72
 90
      128
 90
       73
 90
      128
 90
       74
 90
      128
 90
       75
 90
      128
 90
       86
 90
      141
 90
       86
 90
      118
 90
       76
 90
      128
 90
       77
 90
      127
 90
       77
 90
      138
 90
       78
 90
      126
 90
       78
 90
      125
 90
       79
 90
      147
 90
       79
 90
      146
 90
       17
 90
       80
 90
       16
 90
       80
 90
       80
 90
      154
 90
       80
 90
      124
 90
       85
 90
      119
 90
       85
 90
      120
 90
       84
 90
      149
 90
       19
 90
       83
 90
       18
 90
       84
 90
       83
 90
      121
 90
       83
 90
      153
 90
       82
 90
      122
 90
       81
 90
      123
 90
       81
 90
      144
 90
       82
 90
      144
 90
       22
 90
      164
 90
       46
 90
      112
 90
       47
 90
      111
 90
       48
 90
      111
 90
       49
 90
      151
 90
       50
 90
      151
 90
       51
 90
      151
 90
        8
 90
      118
 90
       52
 90
      118
 90
      160
 90
      161
 90
       66
 90
      160
 90
        4
 90
       65
 90
        4
 90
       64
 90
        4
 90
       63
 90
        5
 90
       62
 90
        5
 90
       61
 90
       60
 90
      158
 90
       59
 90
      158
 90
       58
 90
      158
 90
       57
 90
      158
 90
       53
 90
      118
 90
       54
 90
      118
 90
       55
 90
      118
 90
       56
 90
      118
 90
      118
 90
      158
 90
        2
 90
      117
 90
        3
 90
      117
 90
      117
 90
      159
 90
       23
 90
      117
 90
       24
 90
      117
 90
       45
 90
      112
 90
       25
 90
      117
 90
       26
 90
      142
 90
       27
 90
      142
 90
       28
 90
      116
 90
       29
 90
      116
 90
       30
 90
      116
 90
       31
 90
      115
 90
       32
 90
      115
 90
       33
 90
      150
 90
       34
 90
      150
 90
       21
 90
       35
 90
       21
 90
       36
 90
       20
 90
       37
 90
       20
 90
       38
 90
       39
 90
      152
 90
       40
 90
      152
 90
       41
 90
      114
 90
       42
 90
      114
 90
       44
 90
      143
 90
       43
 90
      113
 90
      165
 90
      166
 90
      168
 90
      170
 90
      169
 90
      170
 90
      170
 90
      172
 90
      170
 90
      173
 90
      174
 90
      175
 90
      176
 90
      179
 90
      177
 90
      178
 90
      180
 90
      181
 90
      182
 90
      183
 90
      184
 90
      185
 90
      184
 90
      186
 90
      184
 90
      187
 90
      188
 90
      189
 90
      190
 90
      191
 90
      192
 90
      193
 90
      194
 90
      196
 90
      195
 90
      196
 90
      196
 90
      197
 90
      198
 90
      200
 90
      199
 90
      200
 90
      200
 90
      201
 90
      202
 90
      204
 90
      203
 90
      204
 90
      204
 90
      205
 90
      206
 90
      208
 90
      207
 90
      208
 90
      208
 90
      209
 90
      210
 90
      211
 90
      211
 90
      212
 90
      211
 90
      213
 90
      214
 90
      216
 90
      215
 90
      216
 90
      216
 90
      217
 90
      218
 90
      220
 90
      219
 90
      220
 90
      220
 90
      221
 90
      220
 90
      222
 90
      220
 90
      223
 90
      220
 90
      224
 90
      220
 90
      225
 90
      220
 90
      226
 90
      227
 90
      229
 90
      227
 90
      228
 90
      220
 90
      230
 90
      231
 90
      232
 90
      231
 90
      233
 90
      234
 90
      235
 90
      234
 90
      236
 90
      237
 90
      238
 90
      237
 90
      239
 90
      240
 90
      241
 90
      240
 90
      242
 90
      240
 90
      243
 90
      240
 90
      244
 90
      245
 90
      246
 90
      245
 90
      247
 90
      248
 90
      249
 90
      248
 90
      252
 90
      250
 90
      251
 90
      250
 90
      254
 90
      250
 90
      253
 90
      255
 90
      256
 90
      257
 90
      258
 90
      257
 90
      259
 90
      255
 90
      259
 90
      166
 90
      260
 90
      261
 90
      264
 90
      262
 90
      263
 90
      264
 90
      265
 90
      266
 90
      268
 90
      267
 90
      268
 90
      268
 90
      269
 90
      229
 90
      270
 90
      229
 90
      271
 90
      272
 90
      275
 90
      272
 90
      276
 90
      277
 90
      278
 90
      277
 90
      279
 90
      277
 90
      280
 90
      281
 90
      282
 90
      281
 90
      283
 90
      284
 90
      285
 90
      284
 90
      286
 90
      284
 90
      287
 90
      284
 90
      288
 90
      229
 90
      289
 90
      229
 90
      290
 90
      229
 90
      291
 90
      229
 90
      284
 90
      229
 90
      292
 90
      293
 90
      294
 90
      294
 90
      295
 90
      294
 90
      296
 90
      294
 90
      297
 90
      294
 90
      298
 90
      263
 90
      299
 90
      294
 90
      300
 90
      301
 90
      302
 90
      302
 90
      303
 90
      304
 90
      306
 90
      305
 90
      306
 90
      306
 90
      307
 90
      308
 90
      310
 90
      309
 90
      310
 90
      311
 90
      313
 90
      312
 90
      313
 90
      314
 90
      316
 90
      315
 90
      316
 90
      317
 90
      319
 90
      318
 90
      319
 90
      320
 90
      322
 90
      321
 90
      322
 90
      323
 90
      325
 90
      324
 90
      325
 90
      326
 90
      327
 90
      328
 90
      329
 95
      729
140
0.0
140
0.0
140
0.0
140
0.0
140
0.0
140
0.0
140
0.0
140
0.0
140
0.0
140
0.0
140
0.0
140
0.0
140
0.0
140
0.0
140
0.0
140
0.0
140
0.0
140
0.0
140
0.0
140
0.0
140
0.0
140
0.0
140
0.0
140
0.0
140
0.0
140
0.0
140
0.0
140
0.0
140
0.0
140
0.0
140
0.0
140
0.0
140
0.0
140
0.0
140
0.0
140
0.0
140
0.0
140
0.0
140
0.0
140
0.0
140
0.0
140
0.0
140
0.0
140
0.0
140
0.0
140
0.0
140
0.0
140
0.0
140
0.0
140
0.0
140
0.0
140
0.0
140
0.0
140
0.0
140
0.0
140
0.0
140
0.0
140
0.0
140
0.0
140
0.0
140
0.0
140
0.0
140
0.0
140
0.0
140
0.0
140
0.0
140
0.0
140
0.0
140
0.0
140
0.0
140
0.0
140
0.0
140
0.0
140
0.0
140
0.0
140
0.0
140
0.0
140
0.0
140
0.0
140
0.0
140
0.0
140
0.0
140
0.0
140
0.0
140
0.0
140
0.0
140
0.0
140
0.0
140
0.0
140
0.0
140
0.0
140
0.0
140
0.0
140
0.0
140
0.0
140
0.0
140
0.0
140
0.0
140
0.0
140
0.0
140
0.0
140
0.0
140
0.0
140
0.0
140
0.0
140
0.0
140
0.0
140
0.0
140
0.0
140
0.0
140
0.0
140
0.0
140
0.0
140
0.0
140
0.0
140
0.0
140
0.0
140
0.0
140
0.0
140
0.0
140
0.0
140
0.0
140
0.0
140
0.0
140
0.0
140
0.0
140
0.0
140
0.0
140
0.0
140
0.0
140
0.0
140
0.0
140
0.0
140
0.0
140
0.0
140
0.0
140
0.0
140
0.0
140
0.0
140
0.0
140
0.0
140
0.0
140
0.0
140
0.0
140
0.0
140
0.0
140
0.0
140
0.0
140
0.0
140
0.0
140
0.0
140
0.0
140
0.0
140
0.0
140
0.0
140
0.0
140
0.0
140
0.0
140
0.0
140
0.0
140
0.0
140
0.0
140
0.0
140
0.0
140
0.0
140
0.0
140
0.0
140
0.0
140
0.0
140
0.0
140
0.0
140
0.0
140
0.0
140
0.0
140
0.0
140
0.0
140
0.0
140
0.0
140
0.0
140
0.0
140
0.0
140
0.0
140
0.0
140
0.0
140
0.0
140
0.0
140
0.0
140
0.0
140
0.0
140
0.0
140
0.0
140
0.0
140
0.0
140
0.0
140
0.0
140
0.0
140
0.0
140
0.0
140
0.0
140
0.0
140
0.0
140
0.0
140
0.0
140
0.0
140
0.0
140
0.0
140
0.0
140
0.0
140
0.0
140
0.0
140
0.0
140
0.0
140
0.0
140
0.0
140
0.0
140
0.0
140
0.0
140
0.0
140
0.0
140
0.0
140
0.0
140
0.0
140
0.0
140
0.0
140
0.0
140
0.0
140
0.0
140
0.0
140
0.0
140
0.0
140
0.0
140
0.0
140
0.0
140
0.0
140
0.0
140
0.0
140
0.0
140
0.0
140
0.0
140
0.0
140
0.0
140
0.0
140
0.0
140
0.0
140
0.0
140
0.0
140
0.0
140
0.0
140
0.0
140
0.0
140
0.0
140
0.0
140
0.0
140
0.0
140
0.0
140
0.0
140
0.0
140
0.0
140
0.0
140
0.0
140
0.0
140
0.0
140
0.0
140
0.0
140
0.0
140
0.0
140
0.0
140
0.0
140
0.0
140
0.0
140
0.0
140
0.0
140
0.0
140
0.0
140
0.0
140
0.0
140
0.0
140
0.0
140
0.0
140
0.0
140
0.0
140
0.0
140
0.0
140
0.0
140
0.0
140
0.0
140
0.0
140
0.0
140
0.0
140
0.0
140
0.0
140
0.0
140
0.0
140
0.0
140
0.0
140
0.0
140
0.0
140
0.0
140
0.0
140
0.0
140
0.0
140
0.0
140
0.0
140
0.0
140
0.0
140
0.0
140
0.0
140
0.0
140
0.0
140
0.0
140
0.0
140
0.0
140
0.0
140
0.0
140
0.0
140
0.0
140
0.0
140
0.0
140
0.0
140
0.0
140
0.0
140
0.0
140
0.0
140
0.0
140
0.0
140
0.0
140
0.0
140
0.0
140
0.0
140
0.0
140
0.0
140
0.0
140
0.0
140
0.0
140
0.0
140
0.0
140
0.0
140
0.0
140
0.0
140
0.0
140
0.0
140
0.0
140
0.0
140
0.0
140
0.0
140
0.0
140
0.0
140
0.0
140
0.0
140
0.0
140
0.0
140
0.0
140
0.0
140
0.0
140
0.0
140
0.0
140
0.0
140
0.0
140
0.0
140
0.0
140
0.0
140
0.0
140
0.0
140
0.0
140
0.0
140
0.0
140
0.0
140
0.0
140
0.0
140
0.0
140
0.0
140
0.0
140
0.0
140
0.0
140
0.0
140
0.0
140
0.0
140
0.0
140
0.0
140
0.0
140
0.0
140
0.0
140
0.0
140
0.0
140
0.0
140
0.0
140
0.0
140
0.0
140
0.0
140
0.0
140
0.0
140
0.0
140
0.0
140
0.0
140
0.0
140
0.0
140
0.0
140
0.0
140
0.0
140
0.0
140
0.0
140
0.0
140
0.0
140
0.0
140
0.0
140
0.0
140
0.0
140
0.0
140
0.0
140
0.0
140
0.0
140
0.0
140
0.0
140
0.0
140
0.0
140
0.0
140
0.0
140
0.0
140
0.0
140
0.0
140
0.0
140
0.0
140
0.0
140
0.0
140
0.0
140
0.0
140
0.0
140
0.0
140
0.0
140
0.0
140
0.0
140
0.0
140
0.0
140
0.0
140
0.0
140
0.0
140
0.0
140
0.0
140
0.0
140
0.0
140
0.0
140
0.0
140
0.0
140
0.0
140
0.0
140
0.0
140
0.0
140
0.0
140
0.0
140
0.0
140
0.0
140
0.0
140
0.0
140
0.0
140
0.0
140
0.0
140
0.0
140
0.0
140
0.0
140
0.0
140
0.0
140
0.0
140
0.0
140
0.0
140
0.0
140
0.0
140
0.0
140
0.0
140
0.0
140
0.0
140
0.0
140
0.0
140
0.0
140
0.0
140
0.0
140
0.0
140
0.0
140
0.0
140
0.0
140
0.0
140
0.0
140
0.0
140
0.0
140
0.0
140
0.0
140
0.0
140
0.0
140
0.0
140
0.0
140
0.0
140
0.0
140
0.0
140
0.0
140
0.0
140
0.0
140
0.0
140
0.0
140
0.0
140
0.0
140
0.0
140
0.0
140
0.0
140
0.0
140
0.0
140
0.0
140
0.0
140
0.0
140
0.0
140
0.0
140
0.0
140
0.0
140
0.0
140
0.0
140
0.0
140
0.0
140
0.0
140
0.0
140
0.0
140
0.0
140
0.0
140
0.0
140
0.0
140
0.0
140
0.0
140
0.0
140
0.0
140
0.0
140
0.0
140
0.0
140
0.0
140
0.0
140
0.0
140
0.0
140
0.0
140
0.0
140
0.0
140
0.0
140
0.0
140
0.0
140
0.0
140
0.0
140
0.0
140
0.0
140
0.0
140
0.0
140
0.0
140
0.0
140
0.0
140
0.0
140
0.0
140
0.0
140
0.0
140
0.0
140
0.0
140
0.0
140
0.0
140
0.0
140
0.0
140
0.0
140
0.0
140
0.0
140
0.0
140
0.0
140
0.0
140
0.0
140
0.0
140
0.0
140
0.0
140
0.0
140
0.0
140
0.0
140
0.0
140
0.0
140
0.0
140
0.0
140
0.0
140
0.0
140
0.0
140
0.0
140
0.0
140
0.0
140
0.0
140
0.0
140
0.0
140
0.0
140
0.0
140
0.0
140
0.0
140
0.0
140
0.0
140
0.0
140
0.0
140
0.0
140
0.0
140
0.0
140
0.0
140
0.0
140
0.0
140
0.0
140
0.0
140
0.0
140
0.0
140
0.0
140
0.0
140
0.0
140
0.0
140
0.0
140
0.0
140
0.0
140
0.0
140
0.0
140
0.0
140
0.0
140
0.0
140
0.0
140
0.0
140
0.0
140
0.0
140
0.0
140
0.0
140
0.0
140
0.0
140
0.0
140
0.0
140
0.0
140
0.0
140
0.0
140
0.0
140
0.0
140
0.0
140
0.0
140
0.0
140
0.0
140
0.0
140
0.0
140
0.0
140
0.0
140
0.0
140
0.0
140
0.0
140
0.0
140
0.0
140
0.0
140
0.0
140
0.0
140
0.0
140
0.0
140
0.0
140
0.0
140
0.0
140
0.0
140
0.0
140
0.0
140
0.0
140
0.0
140
0.0
140
0.0
140
0.0
140
0.0
140
0.0
140
0.0
140
0.0
140
0.0
140
0.0
140
0.0
140
0.0
140
0.0
140
0.0
140
0.0
140
0.0
140
0.0
140
0.0
140
0.0
140
0.0
140
0.0
140
0.0
140
0.0
140
0.0
140
0.0
140
0.0
140
0.0
140
0.0
140
0.0
140
0.0
140
0.0
140
0.0
140
0.0
140
0.0
140
0.0
140
0.0
140
0.0
140
0.0
140
0.0
140
0.0
140
0.0
140
0.0
140
0.0
140
0.0
140
0.0
140
0.0
140
0.0
140
0.0
140
0.0
140
0.0
140
0.0
140
0.0
140
0.0
140
0.0
140
0.0
140
0.0
140
0.0
140
0.0
140
0.0
140
0.0
140
0.0
140
0.0
140
0.0
140
0.0
140
0.0
140
0.0
140
0.0
140
0.0
140
0.0
140
0.0
140
0.0
140
0.0
140
0.0
140
0.0
140
0.0
 90
        0
  0
POLYLINE
  5
FA
330
1F
100
AcDbEntity
  8
OracDecor_cornice_mouldings
 62
    13
420
 14702166
100
AcDb2dPolyline
 66
     1
 10
0.0
 20
0.0
 30
0.0000086178242782
 70
     1
210
-0.9999999999999769
220
0.0000001788139343
230
-0.0000001192092896
  0
VERTEX
  5
FB
330
FA
100
AcDbEntity
  8
OracDecor_cornice_mouldings
 62
    13
420
 14702166
100
AcDbVertex
100
AcDb2dVertex
 10
-4.036962509155273
 20
-79.37530517578125
 30
0.0000086178242782
  0
VERTEX
  5
FC
330
FA
100
AcDbEntity
  8
OracDecor_cornice_mouldings
 62
    13
420
 14702166
100
AcDbVertex
100
AcDb2dVertex
 10
0.0001833761925809
 20
-80.0
 30
0.0000086178242782
  0
VERTEX
  5
FD
330
FA
100
AcDbEntity
  8
OracDecor_cornice_mouldings
 62
    13
420
 14702166
100
AcDbVertex
100
AcDb2dVertex
 10
0.0001816749281716
 20
-74.29904174804687
 30
0.0000086178242782
  0
VERTEX
  5
FE
330
FA
100
AcDbEntity
  8
OracDecor_cornice_mouldings
 62
    13
420
 14702166
100
AcDbVertex
100
AcDb2dVertex
 10
-0.0168662238866091
 20
-74.16963195800781
 30
0.0000086178242782
  0
VERTEX
  5
FF
330
FA
100
AcDbEntity
  8
OracDecor_cornice_mouldings
 62
    13
420
 14702166
100
AcDbVertex
100
AcDb2dVertex
 10
-0.0668053925037384
 20
-74.04904174804688
 30
0.0000086178242782
  0
VERTEX
  5
100
330
FA
100
AcDbEntity
  8
OracDecor_cornice_mouldings
 62
    13
420
 14702166
100
AcDbVertex
100
AcDb2dVertex
 10
-1.105479955673217
 20
-72.25
 30
0.0000086178242782
  0
VERTEX
  5
101
330
FA
100
AcDbEntity
  8
OracDecor_cornice_mouldings
 62
    13
420
 14702166
100
AcDbVertex
100
AcDb2dVertex
 10
-1.172295451164245
 20
-72.0
 30
0.0000086178242782
  0
VERTEX
  5
102
330
FA
100
AcDbEntity
  8
OracDecor_cornice_mouldings
 62
    13
420
 14702166
100
AcDbVertex
100
AcDb2dVertex
 10
-1.105480074882507
 20
-71.75
 30
0.0000086178242782
  0
VERTEX
  5
103
330
FA
100
AcDbEntity
  8
OracDecor_cornice_mouldings
 62
    13
420
 14702166
100
AcDbVertex
100
AcDb2dVertex
 10
-0.0668049827218056
 20
-69.95095825195313
 30
0.0000086178242782
  0
VERTEX
  5
104
330
FA
100
AcDbEntity
  8
OracDecor_cornice_mouldings
 62
    13
420
 14702166
100
AcDbVertex
100
AcDb2dVertex
 10
-0.0168658401817083
 20
-69.83036804199219
 30
0.0000086178242782
  0
VERTEX
  5
105
330
FA
100
AcDbEntity
  8
OracDecor_cornice_mouldings
 62
    13
420
 14702166
100
AcDbVertex
100
AcDb2dVertex
 10
0.0001820256438805
 20
-69.70095825195312
 30
0.0000086178242782
  0
VERTEX
  5
106
330
FA
100
AcDbEntity
  8
OracDecor_cornice_mouldings
 62
    13
420
 14702166
100
AcDbVertex
100
AcDb2dVertex
 10
0.0001806623622542
 20
-66.57734680175781
 30
0.0000086178242782
  0
VERTEX
  5
107
330
FA
100
AcDbEntity
  8
OracDecor_cornice_mouldings
 62
    13
420
 14702166
100
AcDbVertex
100
AcDb2dVertex
 10
-0.1337944269180298
 20
-66.07734680175781
 30
0.0000086178242782
  0
VERTEX
  5
108
330
FA
100
AcDbEntity
  8
OracDecor_cornice_mouldings
 62
    13
420
 14702166
100
AcDbVertex
100
AcDb2dVertex
 10
-0.4998194575309754
 20
-65.71132659912109
 30
0.0000086178242782
  0
VERTEX
  5
109
330
FA
100
AcDbEntity
  8
OracDecor_cornice_mouldings
 62
    13
420
 14702166
100
AcDbVertex
100
AcDb2dVertex
 10
-1.246818304061889
 20
-65.28004455566406
 30
0.0000086178242782
  0
VERTEX
  5
10A
330
FA
100
AcDbEntity
  8
OracDecor_cornice_mouldings
 62
    13
420
 14702166
100
AcDbVertex
100
AcDb2dVertex
 10
-1.61284327507019
 20
-64.91401672363281
 30
0.0000086178242782
  0
VERTEX
  5
10B
330
FA
100
AcDbEntity
  8
OracDecor_cornice_mouldings
 62
    13
420
 14702166
100
AcDbVertex
100
AcDb2dVertex
 10
-1.746818423271179
 20
-64.41401672363281
 30
0.0000086178242782
  0
VERTEX
  5
10C
330
FA
100
AcDbEntity
  8
OracDecor_cornice_mouldings
 62
    13
420
 14702166
100
AcDbVertex
100
AcDb2dVertex
 10
-1.746822357177734
 20
-34.58604431152344
 30
0.0000086178242782
  0
VERTEX
  5
10D
330
FA
100
AcDbEntity
  8
OracDecor_cornice_mouldings
 62
    13
420
 14702166
100
AcDbVertex
100
AcDb2dVertex
 10
-1.612848281860351
 20
-34.08604431152344
 30
0.0000086178242782
  0
VERTEX
  5
10E
330
FA
100
AcDbEntity
  8
OracDecor_cornice_mouldings
 62
    13
420
 14702166
100
AcDbVertex
100
AcDb2dVertex
 10
-1.24682343006134
 20
-33.72002029418946
 30
0.0000086178242782
  0
VERTEX
  5
10F
330
FA
100
AcDbEntity
  8
OracDecor_cornice_mouldings
 62
    13
420
 14702166
100
AcDbVertex
100
AcDb2dVertex
 10
-0.499822735786438
 20
-33.28874206542969
 30
0.0000086178242782
  0
VERTEX
  5
110
330
FA
100
AcDbEntity
  8
OracDecor_cornice_mouldings
 62
    13
420
 14702166
100
AcDbVertex
100
AcDb2dVertex
 10
-0.133797824382782
 20
-32.92271423339844
 30
0.0000086178242782
  0
VERTEX
  5
111
330
FA
100
AcDbEntity
  8
OracDecor_cornice_mouldings
 62
    13
420
 14702166
100
AcDbVertex
100
AcDb2dVertex
 10
0.000177137189894
 20
-32.42271423339844
 30
0.0000086178242782
  0
VERTEX
  5
112
330
FA
100
AcDbEntity
  8
OracDecor_cornice_mouldings
 62
    13
420
 14702166
100
AcDbVertex
100
AcDb2dVertex
 10
0.0001759050355759
 20
-30.29903984069824
 30
0.0000086178242782
  0
VERTEX
  5
113
330
FA
100
AcDbEntity
  8
OracDecor_cornice_mouldings
 62
    13
420
 14702166
100
AcDbVertex
100
AcDb2dVertex
 10
-0.0168719943612814
 20
-30.16963195800781
 30
0.0000086178242782
  0
VERTEX
  5
114
330
FA
100
AcDbEntity
  8
OracDecor_cornice_mouldings
 62
    13
420
 14702166
100
AcDbVertex
100
AcDb2dVertex
 10
-0.066811166703701
 20
-30.04903984069824
 30
0.0000086178242782
  0
VERTEX
  5
115
330
FA
100
AcDbEntity
  8
OracDecor_cornice_mouldings
 62
    13
420
 14702166
100
AcDbVertex
100
AcDb2dVertex
 10
-1.105485796928405
 20
-28.25000190734863
 30
0.0000086178242782
  0
VERTEX
  5
116
330
FA
100
AcDbEntity
  8
OracDecor_cornice_mouldings
 62
    13
420
 14702166
100
AcDbVertex
100
AcDb2dVertex
 10
-1.172301173210144
 20
-28.00000190734863
 30
0.0000086178242782
  0
VERTEX
  5
117
330
FA
100
AcDbEntity
  8
OracDecor_cornice_mouldings
 62
    13
420
 14702166
100
AcDbVertex
100
AcDb2dVertex
 10
-1.105485796928405
 20
-27.75000190734863
 30
0.0000086178242782
  0
VERTEX
  5
118
330
FA
100
AcDbEntity
  8
OracDecor_cornice_mouldings
 62
    13
420
 14702166
100
AcDbVertex
100
AcDb2dVertex
 10
-0.0668107494711876
 20
-25.95096397399903
 30
0.0000086178242782
  0
VERTEX
  5
119
330
FA
100
AcDbEntity
  8
OracDecor_cornice_mouldings
 62
    13
420
 14702166
100
AcDbVertex
100
AcDb2dVertex
 10
-0.0168725624680519
 20
-25.83037185668946
 30
0.0000086178242782
  0
VERTEX
  5
11A
330
FA
100
AcDbEntity
  8
OracDecor_cornice_mouldings
 62
    13
420
 14702166
100
AcDbVertex
100
AcDb2dVertex
 10
0.0001762557367329
 20
-25.70096397399903
 30
0.0000086178242782
  0
VERTEX
  5
11B
330
FA
100
AcDbEntity
  8
OracDecor_cornice_mouldings
 62
    13
420
 14702166
100
AcDbVertex
100
AcDb2dVertex
 10
0.0001750579103827
 20
-23.83903884887695
 30
0.0000086178242782
  0
VERTEX
  5
11C
330
FA
100
AcDbEntity
  8
OracDecor_cornice_mouldings
 62
    13
420
 14702166
100
AcDbVertex
100
AcDb2dVertex
 10
-0.1064133644104004
 20
-23.39004707336426
 30
0.0000086178242782
  0
VERTEX
  5
11D
330
FA
100
AcDbEntity
  8
OracDecor_cornice_mouldings
 62
    13
420
 14702166
100
AcDbVertex
100
AcDb2dVertex
 10
-0.4025159478187561
 20
-23.03716659545898
 30
0.0000086178242782
  0
VERTEX
  5
11E
330
FA
100
AcDbEntity
  8
OracDecor_cornice_mouldings
 62
    13
420
 14702166
100
AcDbVertex
100
AcDb2dVertex
 10
-0.826177179813385
 20
-22.85422897338867
 30
0.0000086178242782
  0
VERTEX
  5
11F
330
FA
100
AcDbEntity
  8
OracDecor_cornice_mouldings
 62
    13
420
 14702166
100
AcDbVertex
100
AcDb2dVertex
 10
-2.06058931350708
 20
-22.63656997680664
 30
0.0000086178242782
  0
VERTEX
  5
120
330
FA
100
AcDbEntity
  8
OracDecor_cornice_mouldings
 62
    13
420
 14702166
100
AcDbVertex
100
AcDb2dVertex
 10
-2.86517310142517
 20
-22.30193901062012
 30
0.0000086178242782
  0
VERTEX
  5
121
330
FA
100
AcDbEntity
  8
OracDecor_cornice_mouldings
 62
    13
420
 14702166
100
AcDbVertex
100
AcDb2dVertex
 10
-3.451090574264526
 20
-21.65693473815918
 30
0.0000086178242782
  0
VERTEX
  5
122
330
FA
100
AcDbEntity
  8
OracDecor_cornice_mouldings
 62
    13
420
 14702166
100
AcDbVertex
100
AcDb2dVertex
 10
-6.824801445007324
 20
-16.6544075012207
 30
0.0000086178242782
  0
VERTEX
  5
123
330
FA
100
AcDbEntity
  8
OracDecor_cornice_mouldings
 62
    13
420
 14702166
100
AcDbVertex
100
AcDb2dVertex
 10
-10.91560554504394
 20
-12.21311092376709
 30
0.0000086178242782
  0
VERTEX
  5
124
330
FA
100
AcDbEntity
  8
OracDecor_cornice_mouldings
 62
    13
420
 14702166
100
AcDbVertex
100
AcDb2dVertex
 10
-12.7005500793457
 20
-10.9549970626831
 30
0.0000086178242782
  0
VERTEX
  5
125
330
FA
100
AcDbEntity
  8
OracDecor_cornice_mouldings
 62
    13
420
 14702166
100
AcDbVertex
100
AcDb2dVertex
 10
-14.75791358947754
 20
-10.22670650482178
 30
0.0000086178242782
  0
VERTEX
  5
126
330
FA
100
AcDbEntity
  8
OracDecor_cornice_mouldings
 62
    13
420
 14702166
100
AcDbVertex
100
AcDb2dVertex
 10
-16.3406753540039
 20
-9.659510612487792
 30
0.0000086178242782
  0
VERTEX
  5
127
330
FA
100
AcDbEntity
  8
OracDecor_cornice_mouldings
 62
    13
420
 14702166
100
AcDbVertex
100
AcDb2dVertex
 10
-17.70552825927734
 20
-8.674172401428222
 30
0.0000086178242782
  0
VERTEX
  5
128
330
FA
100
AcDbEntity
  8
OracDecor_cornice_mouldings
 62
    13
420
 14702166
100
AcDbVertex
100
AcDb2dVertex
 10
-18.74207878112793
 20
-7.350390911102294
 30
0.0000086178242782
  0
VERTEX
  5
129
330
FA
100
AcDbEntity
  8
OracDecor_cornice_mouldings
 62
    13
420
 14702166
100
AcDbVertex
100
AcDb2dVertex
 10
-22.69715309143066
 20
-0.5000081658363343
 30
0.0000086178242782
  0
VERTEX
  5
12A
330
FA
100
AcDbEntity
  8
OracDecor_cornice_mouldings
 62
    13
420
 14702166
100
AcDbVertex
100
AcDb2dVertex
 10
-23.06317710876465
 20
-0.1339841932058334
 30
0.0000086178242782
  0
VERTEX
  5
12B
330
FA
100
AcDbEntity
  8
OracDecor_cornice_mouldings
 62
    13
420
 14702166
100
AcDbVertex
100
AcDb2dVertex
 10
-23.56317710876465
 20
-0.0000083091108536
 30
0.0000086178242782
  0
VERTEX
  5
12C
330
FA
100
AcDbEntity
  8
OracDecor_cornice_mouldings
 62
    13
420
 14702166
100
AcDbVertex
100
AcDb2dVertex
 10
-28.68678855895996
 20
-0.0000054716842897
 30
0.0000086178242782
  0
VERTEX
  5
12D
330
FA
100
AcDbEntity
  8
OracDecor_cornice_mouldings
 62
    13
420
 14702166
100
AcDbVertex
100
AcDb2dVertex
 10
-28.81619453430176
 20
-0.0170533787459135
 30
0.0000086178242782
  0
VERTEX
  5
12E
330
FA
100
AcDbEntity
  8
OracDecor_cornice_mouldings
 62
    13
420
 14702166
100
AcDbVertex
100
AcDb2dVertex
 10
-28.93678855895996
 20
-0.0669915974140167
 30
0.0000086178242782
  0
VERTEX
  5
12F
330
FA
100
AcDbEntity
  8
OracDecor_cornice_mouldings
 62
    13
420
 14702166
100
AcDbVertex
100
AcDb2dVertex
 10
-30.73582649230957
 20
-1.105669140815734
 30
0.0000086178242782
  0
VERTEX
  5
130
330
FA
100
AcDbEntity
  8
OracDecor_cornice_mouldings
 62
    13
420
 14702166
100
AcDbVertex
100
AcDb2dVertex
 10
-30.98582649230957
 20
-1.172483563423156
 30
0.0000086178242782
  0
VERTEX
  5
131
330
FA
100
AcDbEntity
  8
OracDecor_cornice_mouldings
 62
    13
420
 14702166
100
AcDbVertex
100
AcDb2dVertex
 10
-31.23582649230957
 20
-1.105669260025024
 30
0.0000086178242782
  0
VERTEX
  5
132
330
FA
100
AcDbEntity
  8
OracDecor_cornice_mouldings
 62
    13
420
 14702166
100
AcDbVertex
100
AcDb2dVertex
 10
-33.03486633300781
 20
-0.0669923797249794
 30
0.0000086178242782
  0
VERTEX
  5
133
330
FA
100
AcDbEntity
  8
OracDecor_cornice_mouldings
 62
    13
420
 14702166
100
AcDbVertex
100
AcDb2dVertex
 10
-33.15546035766602
 20
-0.0170542057603598
 30
0.0000086178242782
  0
VERTEX
  5
134
330
FA
100
AcDbEntity
  8
OracDecor_cornice_mouldings
 62
    13
420
 14702166
100
AcDbVertex
100
AcDb2dVertex
 10
-33.28486633300781
 20
-0.0000063487159423
 30
0.0000086178242782
  0
VERTEX
  5
135
330
FA
100
AcDbEntity
  8
OracDecor_cornice_mouldings
 62
    13
420
 14702166
100
AcDbVertex
100
AcDb2dVertex
 10
-39.9858283996582
 20
-0.0000076268497651
 30
0.0000086178242782
  0
VERTEX
  5
136
330
FA
100
AcDbEntity
  8
OracDecor_cornice_mouldings
 62
    13
420
 14702166
100
AcDbVertex
100
AcDb2dVertex
 10
-39.18500900268555
 20
-4.757461547851562
 30
0.0000086178242782
  0
VERTEX
  5
137
330
FA
100
AcDbEntity
  8
OracDecor_cornice_mouldings
 62
    13
420
 14702166
100
AcDbVertex
100
AcDb2dVertex
 10
-39.1139144897461
 20
-4.879158020019531
 30
0.0000086178242782
  0
VERTEX
  5
138
330
FA
100
AcDbEntity
  8
OracDecor_cornice_mouldings
 62
    13
420
 14702166
100
AcDbVertex
100
AcDb2dVertex
 10
-38.98033523559571
 20
-4.924121856689453
 30
0.0000086178242782
  0
VERTEX
  5
139
330
FA
100
AcDbEntity
  8
OracDecor_cornice_mouldings
 62
    13
420
 14702166
100
AcDbVertex
100
AcDb2dVertex
 10
-37.93481063842774
 20
-4.898242473602294
 30
0.0000086178242782
  0
VERTEX
  5
13A
330
FA
100
AcDbEntity
  8
OracDecor_cornice_mouldings
 62
    13
420
 14702166
100
AcDbVertex
100
AcDb2dVertex
 10
-36.59165573120117
 20
-4.91040563583374
 30
0.0000086178242782
  0
VERTEX
  5
13B
330
FA
100
AcDbEntity
  8
OracDecor_cornice_mouldings
 62
    13
420
 14702166
100
AcDbVertex
100
AcDb2dVertex
 10
-35.36000823974609
 20
-4.972640037536621
 30
0.0000086178242782
  0
VERTEX
  5
13C
330
FA
100
AcDbEntity
  8
OracDecor_cornice_mouldings
 62
    13
420
 14702166
100
AcDbVertex
100
AcDb2dVertex
 10
-34.33871841430664
 20
-5.073735237121582
 30
0.0000086178242782
  0
VERTEX
  5
13D
330
FA
100
AcDbEntity
  8
OracDecor_cornice_mouldings
 62
    13
420
 14702166
100
AcDbVertex
100
AcDb2dVertex
 10
-32.90480422973633
 20
-5.319686412811279
 30
0.0000086178242782
  0
VERTEX
  5
13E
330
FA
100
AcDbEntity
  8
OracDecor_cornice_mouldings
 62
    13
420
 14702166
100
AcDbVertex
100
AcDb2dVertex
 10
-31.58542060852051
 20
-5.667910099029541
 30
0.0000086178242782
  0
VERTEX
  5
13F
330
FA
100
AcDbEntity
  8
OracDecor_cornice_mouldings
 62
    13
420
 14702166
100
AcDbVertex
100
AcDb2dVertex
 10
-30.44762802124024
 20
-6.130522727966308
 30
0.0000086178242782
  0
VERTEX
  5
140
330
FA
100
AcDbEntity
  8
OracDecor_cornice_mouldings
 62
    13
420
 14702166
100
AcDbVertex
100
AcDb2dVertex
 10
-29.27908706665039
 20
-6.806540489196777
 30
0.0000086178242782
  0
VERTEX
  5
141
330
FA
100
AcDbEntity
  8
OracDecor_cornice_mouldings
 62
    13
420
 14702166
100
AcDbVertex
100
AcDb2dVertex
 10
-28.32176399230957
 20
-7.589791297912597
 30
0.0000086178242782
  0
VERTEX
  5
142
330
FA
100
AcDbEntity
  8
OracDecor_cornice_mouldings
 62
    13
420
 14702166
100
AcDbVertex
100
AcDb2dVertex
 10
-27.54433059692383
 20
-8.446629524230957
 30
0.0000086178242782
  0
VERTEX
  5
143
330
FA
100
AcDbEntity
  8
OracDecor_cornice_mouldings
 62
    13
420
 14702166
100
AcDbVertex
100
AcDb2dVertex
 10
-26.85485458374023
 20
-9.430747985839843
 30
0.0000086178242782
  0
VERTEX
  5
144
330
FA
100
AcDbEntity
  8
OracDecor_cornice_mouldings
 62
    13
420
 14702166
100
AcDbVertex
100
AcDb2dVertex
 10
-26.27128791809082
 20
-10.45598125457763
 30
0.0000086178242782
  0
VERTEX
  5
145
330
FA
100
AcDbEntity
  8
OracDecor_cornice_mouldings
 62
    13
420
 14702166
100
AcDbVertex
100
AcDb2dVertex
 10
-25.72597503662109
 20
-11.56305313110351
 30
0.0000086178242782
  0
VERTEX
  5
146
330
FA
100
AcDbEntity
  8
OracDecor_cornice_mouldings
 62
    13
420
 14702166
100
AcDbVertex
100
AcDb2dVertex
 10
-25.20068359375
 20
-12.65666198730469
 30
0.0000086178242782
  0
VERTEX
  5
147
330
FA
100
AcDbEntity
  8
OracDecor_cornice_mouldings
 62
    13
420
 14702166
100
AcDbVertex
100
AcDb2dVertex
 10
-24.68138694763184
 20
-13.67772769927978
 30
0.0000086178242782
  0
VERTEX
  5
148
330
FA
100
AcDbEntity
  8
OracDecor_cornice_mouldings
 62
    13
420
 14702166
100
AcDbVertex
100
AcDb2dVertex
 10
-24.09741401672363
 20
-14.63578033447265
 30
0.0000086178242782
  0
VERTEX
  5
149
330
FA
100
AcDbEntity
  8
OracDecor_cornice_mouldings
 62
    13
420
 14702166
100
AcDbVertex
100
AcDb2dVertex
 10
-23.44319152832031
 20
-15.47939300537109
 30
0.0000086178242782
  0
VERTEX
  5
14A
330
FA
100
AcDbEntity
  8
OracDecor_cornice_mouldings
 62
    13
420
 14702166
100
AcDbVertex
100
AcDb2dVertex
 10
-22.65753936767578
 20
-16.22977447509765
 30
0.0000086178242782
  0
VERTEX
  5
14B
330
FA
100
AcDbEntity
  8
OracDecor_cornice_mouldings
 62
    13
420
 14702166
100
AcDbVertex
100
AcDb2dVertex
 10
-21.72308731079102
 20
-16.87127494812012
 30
0.0000086178242782
  0
VERTEX
  5
14C
330
FA
100
AcDbEntity
  8
OracDecor_cornice_mouldings
 62
    13
420
 14702166
100
AcDbVertex
100
AcDb2dVertex
 10
-20.61366271972656
 20
-17.39119148254394
 30
0.0000086178242782
  0
VERTEX
  5
14D
330
FA
100
AcDbEntity
  8
OracDecor_cornice_mouldings
 62
    13
420
 14702166
100
AcDbVertex
100
AcDb2dVertex
 10
-19.23714065551758
 20
-17.78565788269043
 30
0.0000086178242782
  0
VERTEX
  5
14E
330
FA
100
AcDbEntity
  8
OracDecor_cornice_mouldings
 62
    13
420
 14702166
100
AcDbVertex
100
AcDb2dVertex
 10
-17.60022354125976
 20
-18.01270484924316
 30
0.0000086178242782
  0
VERTEX
  5
14F
330
FA
100
AcDbEntity
  8
OracDecor_cornice_mouldings
 62
    13
420
 14702166
100
AcDbVertex
100
AcDb2dVertex
 10
-16.46195411682129
 20
-18.0667667388916
 30
0.0000086178242782
  0
VERTEX
  5
150
330
FA
100
AcDbEntity
  8
OracDecor_cornice_mouldings
 62
    13
420
 14702166
100
AcDbVertex
100
AcDb2dVertex
 10
-16.39327430725098
 20
-18.09477996826172
 30
0.0000086178242782
  0
VERTEX
  5
151
330
FA
100
AcDbEntity
  8
OracDecor_cornice_mouldings
 62
    13
420
 14702166
100
AcDbVertex
100
AcDb2dVertex
 10
-16.36256599426269
 20
-18.16229820251465
 30
0.0000086178242782
  0
VERTEX
  5
152
330
FA
100
AcDbEntity
  8
OracDecor_cornice_mouldings
 62
    13
420
 14702166
100
AcDbVertex
100
AcDb2dVertex
 10
-16.20980072021484
 20
-21.57901954650879
 30
0.0000086178242782
  0
VERTEX
  5
153
330
FA
100
AcDbEntity
  8
OracDecor_cornice_mouldings
 62
    13
420
 14702166
100
AcDbVertex
100
AcDb2dVertex
 10
-16.15328216552734
 20
-21.70926094055176
 30
0.0000086178242782
  0
VERTEX
  5
154
330
FA
100
AcDbEntity
  8
OracDecor_cornice_mouldings
 62
    13
420
 14702166
100
AcDbVertex
100
AcDb2dVertex
 10
-16.02474021911621
 20
-21.7695426940918
 30
0.0000086178242782
  0
VERTEX
  5
155
330
FA
100
AcDbEntity
  8
OracDecor_cornice_mouldings
 62
    13
420
 14702166
100
AcDbVertex
100
AcDb2dVertex
 10
-15.45708656311035
 20
-21.82437133789063
 30
0.0000086178242782
  0
VERTEX
  5
156
330
FA
100
AcDbEntity
  8
OracDecor_cornice_mouldings
 62
    13
420
 14702166
100
AcDbVertex
100
AcDb2dVertex
 10
-14.75608348846435
 20
-21.92511940002441
 30
0.0000086178242782
  0
VERTEX
  5
157
330
FA
100
AcDbEntity
  8
OracDecor_cornice_mouldings
 62
    13
420
 14702166
100
AcDbVertex
100
AcDb2dVertex
 10
-14.12111663818359
 20
-22.06060791015625
 30
0.0000086178242782
  0
VERTEX
  5
158
330
FA
100
AcDbEntity
  8
OracDecor_cornice_mouldings
 62
    13
420
 14702166
100
AcDbVertex
100
AcDb2dVertex
 10
-13.55273532867431
 20
-22.22997856140137
 30
0.0000086178242782
  0
VERTEX
  5
159
330
FA
100
AcDbEntity
  8
OracDecor_cornice_mouldings
 62
    13
420
 14702166
100
AcDbVertex
100
AcDb2dVertex
 10
-13.06171607971191
 20
-22.41985511779785
 30
0.0000086178242782
  0
VERTEX
  5
15A
330
FA
100
AcDbEntity
  8
OracDecor_cornice_mouldings
 62
    13
420
 14702166
100
AcDbVertex
100
AcDb2dVertex
 10
-12.65165710449219
 20
-22.62880706787109
 30
0.0000086178242782
  0
VERTEX
  5
15B
330
FA
100
AcDbEntity
  8
OracDecor_cornice_mouldings
 62
    13
420
 14702166
100
AcDbVertex
100
AcDb2dVertex
 10
-12.1376256942749
 20
-22.98070907592773
 30
0.0000086178242782
  0
VERTEX
  5
15C
330
FA
100
AcDbEntity
  8
OracDecor_cornice_mouldings
 62
    13
420
 14702166
100
AcDbVertex
100
AcDb2dVertex
 10
-11.58996391296386
 20
-23.5116024017334
 30
0.0000086178242782
  0
VERTEX
  5
15D
330
FA
100
AcDbEntity
  8
OracDecor_cornice_mouldings
 62
    13
420
 14702166
100
AcDbVertex
100
AcDb2dVertex
 10
-11.18348979949951
 20
-24.08717346191406
 30
0.0000086178242782
  0
VERTEX
  5
15E
330
FA
100
AcDbEntity
  8
OracDecor_cornice_mouldings
 62
    13
420
 14702166
100
AcDbVertex
100
AcDb2dVertex
 10
-10.85399341583252
 20
-24.73919868469238
 30
0.0000086178242782
  0
VERTEX
  5
15F
330
FA
100
AcDbEntity
  8
OracDecor_cornice_mouldings
 62
    13
420
 14702166
100
AcDbVertex
100
AcDb2dVertex
 10
-10.58768081665039
 20
-25.44014739990235
 30
0.0000086178242782
  0
VERTEX
  5
160
330
FA
100
AcDbEntity
  8
OracDecor_cornice_mouldings
 62
    13
420
 14702166
100
AcDbVertex
100
AcDb2dVertex
 10
-10.36348152160644
 20
-26.20837783813477
 30
0.0000086178242782
  0
VERTEX
  5
161
330
FA
100
AcDbEntity
  8
OracDecor_cornice_mouldings
 62
    13
420
 14702166
100
AcDbVertex
100
AcDb2dVertex
 10
-10.18529891967773
 20
-27.01269912719727
 30
0.0000086178242782
  0
VERTEX
  5
162
330
FA
100
AcDbEntity
  8
OracDecor_cornice_mouldings
 62
    13
420
 14702166
100
AcDbVertex
100
AcDb2dVertex
 10
-10.04098701477051
 20
-27.89232063293457
 30
0.0000086178242782
  0
VERTEX
  5
163
330
FA
100
AcDbEntity
  8
OracDecor_cornice_mouldings
 62
    13
420
 14702166
100
AcDbVertex
100
AcDb2dVertex
 10
-9.935306549072265
 20
-28.78705024719238
 30
0.0000086178242782
  0
VERTEX
  5
164
330
FA
100
AcDbEntity
  8
OracDecor_cornice_mouldings
 62
    13
420
 14702166
100
AcDbVertex
100
AcDb2dVertex
 10
-9.85665225982666
 20
-29.75717544555664
 30
0.0000086178242782
  0
VERTEX
  5
165
330
FA
100
AcDbEntity
  8
OracDecor_cornice_mouldings
 62
    13
420
 14702166
100
AcDbVertex
100
AcDb2dVertex
 10
-9.806007385253906
 20
-30.69321060180664
 30
0.0000086178242782
  0
VERTEX
  5
166
330
FA
100
AcDbEntity
  8
OracDecor_cornice_mouldings
 62
    13
420
 14702166
100
AcDbVertex
100
AcDb2dVertex
 10
-9.772197723388671
 20
-31.62090301513672
 30
0.0000086178242782
  0
VERTEX
  5
167
330
FA
100
AcDbEntity
  8
OracDecor_cornice_mouldings
 62
    13
420
 14702166
100
AcDbVertex
100
AcDb2dVertex
 10
-9.751612663269042
 20
-32.60287475585938
 30
0.0000086178242782
  0
VERTEX
  5
168
330
FA
100
AcDbEntity
  8
OracDecor_cornice_mouldings
 62
    13
420
 14702166
100
AcDbVertex
100
AcDb2dVertex
 10
-9.742713928222656
 20
-47.55704498291016
 30
0.0000086178242782
  0
VERTEX
  5
169
330
FA
100
AcDbEntity
  8
OracDecor_cornice_mouldings
 62
    13
420
 14702166
100
AcDbVertex
100
AcDb2dVertex
 10
-9.741519927978515
 20
-48.28864669799805
 30
0.0000086178242782
  0
VERTEX
  5
16A
330
FA
100
AcDbEntity
  8
OracDecor_cornice_mouldings
 62
    13
420
 14702166
100
AcDbVertex
100
AcDb2dVertex
 10
-9.748060226440429
 20
-48.92700958251953
 30
0.0000086178242782
  0
VERTEX
  5
16B
330
FA
100
AcDbEntity
  8
OracDecor_cornice_mouldings
 62
    13
420
 14702166
100
AcDbVertex
100
AcDb2dVertex
 10
-9.770965576171875
 20
-49.60684967041015
 30
0.0000086178242782
  0
VERTEX
  5
16C
330
FA
100
AcDbEntity
  8
OracDecor_cornice_mouldings
 62
    13
420
 14702166
100
AcDbVertex
100
AcDb2dVertex
 10
-9.815106391906738
 20
-50.29966735839844
 30
0.0000086178242782
  0
VERTEX
  5
16D
330
FA
100
AcDbEntity
  8
OracDecor_cornice_mouldings
 62
    13
420
 14702166
100
AcDbVertex
100
AcDb2dVertex
 10
-9.883209228515625
 20
-50.97280120849609
 30
0.0000086178242782
  0
VERTEX
  5
16E
330
FA
100
AcDbEntity
  8
OracDecor_cornice_mouldings
 62
    13
420
 14702166
100
AcDbVertex
100
AcDb2dVertex
 10
-9.989752769470214
 20
-51.6788330078125
 30
0.0000086178242782
  0
VERTEX
  5
16F
330
FA
100
AcDbEntity
  8
OracDecor_cornice_mouldings
 62
    13
420
 14702166
100
AcDbVertex
100
AcDb2dVertex
 10
-10.13683223724365
 20
-52.36378479003906
 30
0.0000086178242782
  0
VERTEX
  5
170
330
FA
100
AcDbEntity
  8
OracDecor_cornice_mouldings
 62
    13
420
 14702166
100
AcDbVertex
100
AcDb2dVertex
 10
-10.3210277557373
 20
-52.9819221496582
 30
0.0000086178242782
  0
VERTEX
  5
171
330
FA
100
AcDbEntity
  8
OracDecor_cornice_mouldings
 62
    13
420
 14702166
100
AcDbVertex
100
AcDb2dVertex
 10
-10.57483577728271
 20
-53.59407806396484
 30
0.0000086178242782
  0
VERTEX
  5
172
330
FA
100
AcDbEntity
  8
OracDecor_cornice_mouldings
 62
    13
420
 14702166
100
AcDbVertex
100
AcDb2dVertex
 10
-10.87399291992187
 20
-54.10968017578125
 30
0.0000086178242782
  0
VERTEX
  5
173
330
FA
100
AcDbEntity
  8
OracDecor_cornice_mouldings
 62
    13
420
 14702166
100
AcDbVertex
100
AcDb2dVertex
 10
-11.24221992492675
 20
-54.54770278930664
 30
0.0000086178242782
  0
VERTEX
  5
174
330
FA
100
AcDbEntity
  8
OracDecor_cornice_mouldings
 62
    13
420
 14702166
100
AcDbVertex
100
AcDb2dVertex
 10
-11.69580841064453
 20
-54.91692352294922
 30
0.0000086178242782
  0
VERTEX
  5
175
330
FA
100
AcDbEntity
  8
OracDecor_cornice_mouldings
 62
    13
420
 14702166
100
AcDbVertex
100
AcDb2dVertex
 10
-12.17324542999267
 20
-55.19620895385742
 30
0.0000086178242782
  0
VERTEX
  5
176
330
FA
100
AcDbEntity
  8
OracDecor_cornice_mouldings
 62
    13
420
 14702166
100
AcDbVertex
100
AcDb2dVertex
 10
-12.67608833312988
 20
-55.42115020751953
 30
0.0000086178242782
  0
VERTEX
  5
177
330
FA
100
AcDbEntity
  8
OracDecor_cornice_mouldings
 62
    13
420
 14702166
100
AcDbVertex
100
AcDb2dVertex
 10
-13.09153747558594
 20
-55.57280349731446
 30
0.0000086178242782
  0
VERTEX
  5
178
330
FA
100
AcDbEntity
  8
OracDecor_cornice_mouldings
 62
    13
420
 14702166
100
AcDbVertex
100
AcDb2dVertex
 10
-13.26601505279541
 20
-55.6739273071289
 30
0.0000086178242782
  0
VERTEX
  5
179
330
FA
100
AcDbEntity
  8
OracDecor_cornice_mouldings
 62
    13
420
 14702166
100
AcDbVertex
100
AcDb2dVertex
 10
-13.30054473876953
 20
-55.79718780517578
 30
0.0000086178242782
  0
VERTEX
  5
17A
330
FA
100
AcDbEntity
  8
OracDecor_cornice_mouldings
 62
    13
420
 14702166
100
AcDbVertex
100
AcDb2dVertex
 10
-13.13827037811279
 20
-58.80126953125
 30
0.0000086178242782
  0
VERTEX
  5
17B
330
FA
100
AcDbEntity
  8
OracDecor_cornice_mouldings
 62
    13
420
 14702166
100
AcDbVertex
100
AcDb2dVertex
 10
-13.08899307250976
 20
-58.92201232910156
 30
0.0000086178242782
  0
VERTEX
  5
17C
330
FA
100
AcDbEntity
  8
OracDecor_cornice_mouldings
 62
    13
420
 14702166
100
AcDbVertex
100
AcDb2dVertex
 10
-12.97591209411621
 20
-58.98696517944336
 30
0.0000086178242782
  0
VERTEX
  5
17D
330
FA
100
AcDbEntity
  8
OracDecor_cornice_mouldings
 62
    13
420
 14702166
100
AcDbVertex
100
AcDb2dVertex
 10
-9.403367042541503
 20
-59.66607284545898
 30
0.0000086178242782
  0
VERTEX
  5
17E
330
FA
100
AcDbEntity
  8
OracDecor_cornice_mouldings
 62
    13
420
 14702166
100
AcDbVertex
100
AcDb2dVertex
 10
-9.342500686645507
 20
-59.70392227172851
 30
0.0000086178242782
  0
VERTEX
  5
17F
330
FA
100
AcDbEntity
  8
OracDecor_cornice_mouldings
 62
    13
420
 14702166
100
AcDbVertex
100
AcDb2dVertex
 10
-9.322394371032714
 20
-59.77272033691406
 30
0.0000086178242782
  0
VERTEX
  5
180
330
FA
100
AcDbEntity
  8
OracDecor_cornice_mouldings
 62
    13
420
 14702166
100
AcDbVertex
100
AcDb2dVertex
 10
-9.452185630798339
 20
-61.31159591674805
 30
0.0000086178242782
  0
VERTEX
  5
181
330
FA
100
AcDbEntity
  8
OracDecor_cornice_mouldings
 62
    13
420
 14702166
100
AcDbVertex
100
AcDb2dVertex
 10
-9.473689079284667
 20
-61.36550521850586
 30
0.0000086178242782
  0
VERTEX
  5
182
330
FA
100
AcDbEntity
  8
OracDecor_cornice_mouldings
 62
    13
420
 14702166
100
AcDbVertex
100
AcDb2dVertex
 10
-9.521456718444824
 20
-61.39846801757812
 30
0.0000086178242782
  0
VERTEX
  5
183
330
FA
100
AcDbEntity
  8
OracDecor_cornice_mouldings
 62
    13
420
 14702166
100
AcDbVertex
100
AcDb2dVertex
 10
-10.24504089355469
 20
-61.66879272460938
 30
0.0000086178242782
  0
VERTEX
  5
184
330
FA
100
AcDbEntity
  8
OracDecor_cornice_mouldings
 62
    13
420
 14702166
100
AcDbVertex
100
AcDb2dVertex
 10
-11.05870056152344
 20
-62.05422592163086
 30
0.0000086178242782
  0
VERTEX
  5
185
330
FA
100
AcDbEntity
  8
OracDecor_cornice_mouldings
 62
    13
420
 14702166
100
AcDbVertex
100
AcDb2dVertex
 10
-11.69307327270508
 20
-62.46891784667969
 30
0.0000086178242782
  0
VERTEX
  5
186
330
FA
100
AcDbEntity
  8
OracDecor_cornice_mouldings
 62
    13
420
 14702166
100
AcDbVertex
100
AcDb2dVertex
 10
-12.18442630767822
 20
-62.89764785766601
 30
0.0000086178242782
  0
VERTEX
  5
187
330
FA
100
AcDbEntity
  8
OracDecor_cornice_mouldings
 62
    13
420
 14702166
100
AcDbVertex
100
AcDb2dVertex
 10
-12.55825996398926
 20
-63.34104156494141
 30
0.0000086178242782
  0
VERTEX
  5
188
330
FA
100
AcDbEntity
  8
OracDecor_cornice_mouldings
 62
    13
420
 14702166
100
AcDbVertex
100
AcDb2dVertex
 10
-12.83843231201172
 20
-63.8023567199707
 30
0.0000086178242782
  0
VERTEX
  5
189
330
FA
100
AcDbEntity
  8
OracDecor_cornice_mouldings
 62
    13
420
 14702166
100
AcDbVertex
100
AcDb2dVertex
 10
-13.04139518737793
 20
-64.29719543457031
 30
0.0000086178242782
  0
VERTEX
  5
18A
330
FA
100
AcDbEntity
  8
OracDecor_cornice_mouldings
 62
    13
420
 14702166
100
AcDbVertex
100
AcDb2dVertex
 10
-13.16840171813965
 20
-64.83099365234375
 30
0.0000086178242782
  0
VERTEX
  5
18B
330
FA
100
AcDbEntity
  8
OracDecor_cornice_mouldings
 62
    13
420
 14702166
100
AcDbVertex
100
AcDb2dVertex
 10
-13.21445083618164
 20
-65.55609893798828
 30
0.0000086178242782
  0
VERTEX
  5
18C
330
FA
100
AcDbEntity
  8
OracDecor_cornice_mouldings
 62
    13
420
 14702166
100
AcDbVertex
100
AcDb2dVertex
 10
-13.11184120178223
 20
-66.526123046875
 30
0.0000086178242782
  0
VERTEX
  5
18D
330
FA
100
AcDbEntity
  8
OracDecor_cornice_mouldings
 62
    13
420
 14702166
100
AcDbVertex
100
AcDb2dVertex
 10
-12.85078716278076
 20
-67.45632934570313
 30
0.0000086178242782
  0
VERTEX
  5
18E
330
FA
100
AcDbEntity
  8
OracDecor_cornice_mouldings
 62
    13
420
 14702166
100
AcDbVertex
100
AcDb2dVertex
 10
-12.47249984741211
 20
-68.23837280273437
 30
0.0000086178242782
  0
VERTEX
  5
18F
330
FA
100
AcDbEntity
  8
OracDecor_cornice_mouldings
 62
    13
420
 14702166
100
AcDbVertex
100
AcDb2dVertex
 10
-11.98885154724121
 20
-68.91142272949219
 30
0.0000086178242782
  0
VERTEX
  5
190
330
FA
100
AcDbEntity
  8
OracDecor_cornice_mouldings
 62
    13
420
 14702166
100
AcDbVertex
100
AcDb2dVertex
 10
-11.39898586273193
 20
-69.50448608398438
 30
0.0000086178242782
  0
VERTEX
  5
191
330
FA
100
AcDbEntity
  8
OracDecor_cornice_mouldings
 62
    13
420
 14702166
100
AcDbVertex
100
AcDb2dVertex
 10
-10.80221366882324
 20
-69.97593688964844
 30
0.0000086178242782
  0
VERTEX
  5
192
330
FA
100
AcDbEntity
  8
OracDecor_cornice_mouldings
 62
    13
420
 14702166
100
AcDbVertex
100
AcDb2dVertex
 10
-9.790864944458007
 20
-70.61470031738281
 30
0.0000086178242782
  0
VERTEX
  5
193
330
FA
100
AcDbEntity
  8
OracDecor_cornice_mouldings
 62
    13
420
 14702166
100
AcDbVertex
100
AcDb2dVertex
 10
-8.704353332519531
 20
-71.22695922851562
 30
0.0000086178242782
  0
VERTEX
  5
194
330
FA
100
AcDbEntity
  8
OracDecor_cornice_mouldings
 62
    13
420
 14702166
100
AcDbVertex
100
AcDb2dVertex
 10
-7.975854873657226
 20
-71.64346313476563
 30
0.0000086178242782
  0
VERTEX
  5
195
330
FA
100
AcDbEntity
  8
OracDecor_cornice_mouldings
 62
    13
420
 14702166
100
AcDbVertex
100
AcDb2dVertex
 10
-7.274590015411376
 20
-72.07101440429688
 30
0.0000086178242782
  0
VERTEX
  5
196
330
FA
100
AcDbEntity
  8
OracDecor_cornice_mouldings
 62
    13
420
 14702166
100
AcDbVertex
100
AcDb2dVertex
 10
-6.649386882781982
 20
-72.51004791259766
 30
0.0000086178242782
  0
VERTEX
  5
197
330
FA
100
AcDbEntity
  8
OracDecor_cornice_mouldings
 62
    13
420
 14702166
100
AcDbVertex
100
AcDb2dVertex
 10
-6.021161079406738
 20
-73.03582763671875
 30
0.0000086178242782
  0
VERTEX
  5
198
330
FA
100
AcDbEntity
  8
OracDecor_cornice_mouldings
 62
    13
420
 14702166
100
AcDbVertex
100
AcDb2dVertex
 10
-5.459606170654296
 20
-73.62979125976562
 30
0.0000086178242782
  0
VERTEX
  5
199
330
FA
100
AcDbEntity
  8
OracDecor_cornice_mouldings
 62
    13
420
 14702166
100
AcDbVertex
100
AcDb2dVertex
 10
-4.976039886474609
 20
-74.30973815917969
 30
0.0000086178242782
  0
VERTEX
  5
19A
330
FA
100
AcDbEntity
  8
OracDecor_cornice_mouldings
 62
    13
420
 14702166
100
AcDbVertex
100
AcDb2dVertex
 10
-4.590145587921142
 20
-75.08352661132812
 30
0.0000086178242782
  0
VERTEX
  5
19B
330
FA
100
AcDbEntity
  8
OracDecor_cornice_mouldings
 62
    13
420
 14702166
100
AcDbVertex
100
AcDb2dVertex
 10
-4.313245296478271
 20
-75.96326446533203
 30
0.0000086178242782
  0
VERTEX
  5
19C
330
FA
100
AcDbEntity
  8
OracDecor_cornice_mouldings
 62
    13
420
 14702166
100
AcDbVertex
100
AcDb2dVertex
 10
-4.150325775146484
 20
-77.01411437988281
 30
0.0000086178242782
  0
VERTEX
  5
19D
330
FA
100
AcDbEntity
  8
OracDecor_cornice_mouldings
 62
    13
420
 14702166
100
AcDbVertex
100
AcDb2dVertex
 10
-4.137965202331542
 20
-78.26944732666015
 30
0.0000086178242782
  0
VERTEX
  5
19E
330
FA
100
AcDbEntity
  8
OracDecor_cornice_mouldings
 62
    13
420
 14702166
100
AcDbVertex
100
AcDb2dVertex
 10
-4.204893112182617
 20
-79.15331268310547
 30
0.0000086178242782
  0
VERTEX
  5
19F
330
FA
100
AcDbEntity
  8
OracDecor_cornice_mouldings
 62
    13
420
 14702166
100
AcDbVertex
100
AcDb2dVertex
 10
-4.165883064270019
 20
-79.2983169555664
 30
0.0000086178242782
  0
SEQEND
  5
1A0
330
FA
100
AcDbEntity
  8
OracDecor_cornice_mouldings
 62
    13
420
 14702166
  0
ENDSEC
  0
SECTION
  2
OBJECTS
  0
DICTIONARY
  5
C
330
0
100
AcDbDictionary
281
     1
  3
ACAD_COLOR
350
DC
  3
ACAD_DETAILVIEWSTYLE
350
F5
  3
ACAD_GROUP
350
D
  3
ACAD_LAYOUT
350
1A
  3
ACAD_MATERIAL
350
AA
  3
ACAD_MLEADERSTYLE
350
F1
  3
ACAD_MLINESTYLE
350
17
  3
ACAD_PLOTSETTINGS
350
19
  3
ACAD_PLOTSTYLENAME
350
E
  3
ACAD_SCALELIST
350
DF
  3
ACAD_SECTIONVIEWSTYLE
350
F3
  3
ACAD_TABLESTYLE
350
DD
  3
ACAD_VISUALSTYLE
350
C3
  3
ACDB_RECOMPOSE_DATA
350
1AD
  3
AcDbVariableDictionary
350
1A1
  0
DICTIONARY
  5
DC
102
{ACAD_REACTORS
330
C
102
}
330
C
100
AcDbDictionary
281
     1
  0
DICTIONARY
  5
F5
102
{ACAD_REACTORS
330
C
102
}
330
C
100
AcDbDictionary
281
     1
  3
Imperial24
350
F6
  0
DICTIONARY
  5
D
102
{ACAD_REACTORS
330
C
102
}
330
C
100
AcDbDictionary
281
     1
  0
DICTIONARY
  5
1A
102
{ACAD_REACTORS
330
C
102
}
330
C
100
AcDbDictionary
281
     1
  3
Layout1
350
1E
  3
Layout2
350
26
  3
Model
350
22
  0
DICTIONARY
  5
AA
102
{ACAD_REACTORS
330
C
102
}
330
C
100
AcDbDictionary
281
     1
  3
ByBlock
350
B3
  3
ByLayer
350
AB
  3
Global
350
BB
  0
DICTIONARY
  5
F1
102
{ACAD_REACTORS
330
C
102
}
330
C
100
AcDbDictionary
281
     1
  3
Standard
350
F2
  0
DICTIONARY
  5
17
102
{ACAD_REACTORS
330
C
102
}
330
C
100
AcDbDictionary
281
     1
  3
Standard
350
18
  0
DICTIONARY
  5
19
102
{ACAD_REACTORS
330
C
102
}
330
C
100
AcDbDictionary
281
     1
  0
ACDBDICTIONARYWDFLT
  5
E
102
{ACAD_REACTORS
330
C
102
}
330
C
100
AcDbDictionary
281
     1
  3
ByLayer
350
2D
  3
Normal
350
F
100
AcDbDictionaryWithDefault
340
F
  0
DICTIONARY
  5
DF
102
{ACAD_REACTORS
330
C
102
}
330
C
100
AcDbDictionary
281
     1
  3
A0
350
E0
  3
A1
350
E1
  3
A2
350
E2
  3
A3
350
E3
  3
A4
350
E4
  3
A5
350
E5
  3
A6
350
E6
  3
A7
350
E7
  3
A8
350
E8
  3
A9
350
E9
  3
B0
350
EA
  3
B1
350
EB
  3
B2
350
EC
  3
B3
350
ED
  3
B4
350
EE
  3
B5
350
EF
  3
B6
350
F0
  0
DICTIONARY
  5
F3
102
{ACAD_REACTORS
330
C
102
}
330
C
100
AcDbDictionary
281
     1
  3
Imperial24
350
F4
  0
DICTIONARY
  5
DD
102
{ACAD_REACTORS
330
C
102
}
330
C
100
AcDbDictionary
281
     1
  3
Standard
350
DE
  0
DICTIONARY
  5
C3
102
{ACAD_REACTORS
330
C
102
}
330
C
100
AcDbDictionary
281
     1
  3
2dWireframe
350
C9
  3
Basic
350
C8
  3
Brighten
350
CF
  3
ColorChange
350
D3
  3
Conceptual
350
CC
  3
Dim
350
CE
  3
EdgeColorOff
350
DB
  3
Facepattern
350
D2
  3
Flat
350
C4
  3
FlatWithEdges
350
C5
  3
Gouraud
350
C6
  3
GouraudWithEdges
350
C7
  3
Hidden
350
CB
  3
JitterOff
350
D9
  3
Linepattern
350
D1
  3
OverhangOff
350
DA
  3
Realistic
350
CD
  3
Shaded
350
D8
  3
Shaded with edges
350
D7
  3
Shades of Gray
350
D4
  3
Sketchy
350
D5
  3
Thicken
350
D0
  3
Wireframe
350
CA
  3
X-Ray
350
D6
  0
XRECORD
  5
1AD
102
{ACAD_REACTORS
330
C
102
}
330
C
100
AcDbXrecord
280
     1
 90
        1
330
DE
  0
DICTIONARY
  5
1A1
102
{ACAD_REACTORS
330
C
102
}
330
C
100
AcDbDictionary
281
     1
  3
CANNOSCALE
350
1A7
  3
CMLEADERSTYLE
350
1A3
  3
CTABLESTYLE
350
1A2
  3
CVIEWDETAILSTYLE
350
1A4
  3
CVIEWSECTIONSTYLE
350
1A5
  3
LAYEREVAL
350
1A9
  3
LAYERNOTIFY
350
1AA
  3
LIGHTINGUNITS
350
1A8
  3
MSLTSCALE
350
1A6
  0
ACDBDETAILVIEWSTYLE
  5
F6
102
{ACAD_XDICTIONARY
360
1E2
102
}
102
{ACAD_REACTORS
330
F5
102
}
330
F5
100
AcDbModelDocViewStyle
 70
     0
  3
Imperial24
290
     0
100
AcDbDetailViewStyle
 70
     0
 71
     0
 90
        3
 71
     1
340
11
 62
   256
 40
0.24
340
0
 62
   256
 40
0.24
300

 40
0.36
280
     3
 71
     2
340
16
 90
       25
 62
   256
 71
     3
340
11
 62
   256
 40
0.24
 90
        1
 40
0.75
 90
        1
300
%<\AcVar ViewType \f "%tc1">% %<\AcVar ViewDetailId>%\PSCALE %<\AcVar ViewScale \f "%sn">%
 71
     4
340
16
 90
       25
 62
   256
340
16
 90
       25
 62
   256
280
     0
  0
LAYOUT
  5
1E
102
{ACAD_REACTORS
330
1A
102
}
330
1A
100
AcDbPlotSettings
  1

  2
\\KTXNTBDC\CASF2PN1
  4

  6

 40
0.0
 41
0.0
 42
0.0
 43
0.0
 44
0.0
 45
0.0
 46
0.0
 47
0.0
 48
0.0
 49
0.0
140
0.0
141
0.0
142
1.0
143
1.0
 70
   688
 72
     0
 73
     0
 74
     5
  7

 75
    16
147
1.0
 76
     0
 77
     2
 78
   300
148
0.0
149
0.0
100
AcDbLayout
  1
Layout1
 70
     1
 71
     1
 10
0.0
 20
0.0
 11
12.0
 21
9.0
 12
0.0
 22
0.0
 32
0.0
 14
1.000000000000000E+20
 24
1.000000000000000E+20
 34
1.000000000000000E+20
 15
-1.000000000000000E+20
 25
-1.000000000000000E+20
 35
-1.000000000000000E+20
146
0.0
 13
0.0
 23
0.0
 33
0.0
 16
1.0
 26
0.0
 36
0.0
 17
0.0
 27
1.0
 37
0.0
 76
     0
330
1B
  0
LAYOUT
  5
26
102
{ACAD_REACTORS
330
1A
102
}
330
1A
100
AcDbPlotSettings
  1

  2
\\KTXNTBDC\CASF2PN1
  4

  6

 40
0.0
 41
0.0
 42
0.0
 43
0.0
 44
0.0
 45
0.0
 46
0.0
 47
0.0
 48
0.0
 49
0.0
140
0.0
141
0.0
142
1.0
143
1.0
 70
   688
 72
     0
 73
     0
 74
     5
  7

 75
    16
147
1.0
 76
     0
 77
     2
 78
   300
148
0.0
149
0.0
100
AcDbLayout
  1
Layout2
 70
     1
 71
     2
 10
0.0
 20
0.0
 11
12.0
 21
9.0
 12
0.0
 22
0.0
 32
0.0
 14
0.0
 24
0.0
 34
0.0
 15
0.0
 25
0.0
 35
0.0
146
0.0
 13
0.0
 23
0.0
 33
0.0
 16
1.0
 26
0.0
 36
0.0
 17
0.0
 27
1.0
 37
0.0
 76
     0
330
23
  0
LAYOUT
  5
22
102
{ACAD_REACTORS
330
1A
102
}
330
1A
100
AcDbPlotSettings
  1

  2
\\KTXNTBDC\CASF2PN1
  4

  6

 40
0.0
 41
0.0
 42
0.0
 43
0.0
 44
0.0
 45
0.0
 46
0.0
 47
0.0
 48
0.0
 49
0.0
140
0.0
141
0.0
142
1.0
143
1.0
 70
  1712
 72
     0
 73
     0
 74
     0
  7

 75
     0
147
1.0
 76
     0
 77
     2
 78
   300
148
0.0
149
0.0
100
AcDbLayout
  1
Model
 70
     1
 71
     0
 10
0.0
 20
0.0
 11
12.0
 21
9.0
 12
0.0
 22
0.0
 32
0.0
 14
0.0
 24
0.0
 34
0.0
 15
0.0
 25
0.0
 35
0.0
146
0.0
 13
0.0
 23
0.0
 33
0.0
 16
1.0
 26
0.0
 36
0.0
 17
0.0
 27
1.0
 37
0.0
 76
     0
330
1F
  0
MATERIAL
  5
B3
102
{ACAD_XDICTIONARY
360
B4
102
}
102
{ACAD_REACTORS
330
AA
102
}
330
AA
100
AcDbMaterial
  1
ByBlock
 72
     0
 43
0.0208333333333333
 43
0.0
 43
0.0
 43
0.0
 43
0.0
 43
0.0208333333333333
 43
0.0
 43
0.0
 43
0.0
 43
0.0
 43
1.0
 43
0.0
 43
0.0
 43
0.0
 43
0.0
 43
1.0
 77
     0
 47
0.0208333333333333
 47
0.0
 47
0.0
 47
0.0
 47
0.0
 47
0.0208333333333333
 47
0.0
 47
0.0
 47
0.0
 47
0.0
 47
1.0
 47
0.0
 47
0.0
 47
0.0
 47
0.0
 47
1.0
171
     0
 49
0.0208333333333333
 49
0.0
 49
0.0
 49
0.0
 49
0.0
 49
0.0208333333333333
 49
0.0
 49
0.0
 49
0.0
 49
0.0
 49
1.0
 49
0.0
 49
0.0
 49
0.0
 49
0.0
 49
1.0
175
     0
142
0.0208333333333333
142
0.0
142
0.0
142
0.0
142
0.0
142
0.0208333333333333
142
0.0
142
0.0
142
0.0
142
0.0
142
1.0
142
0.0
142
0.0
142
0.0
142
0.0
142
1.0
179
     0
144
0.0208333333333333
144
0.0
144
0.0
144
0.0
144
0.0
144
0.0208333333333333
144
0.0
144
0.0
144
0.0
144
0.0
144
1.0
144
0.0
144
0.0
144
0.0
144
0.0
144
1.0
147
0.0208333333333333
147
0.0
147
0.0
147
0.0
147
0.0
147
0.0208333333333333
147
0.0
147
0.0
147
0.0
147
0.0
147
1.0
147
0.0
147
0.0
147
0.0
147
0.0
147
1.0
  0
MATERIAL
  5
AB
102
{ACAD_XDICTIONARY
360
AC
102
}
102
{ACAD_REACTORS
330
AA
102
}
330
AA
100
AcDbMaterial
  1
ByLayer
 72
     0
 43
0.0208333333333333
 43
0.0
 43
0.0
 43
0.0
 43
0.0
 43
0.0208333333333333
 43
0.0
 43
0.0
 43
0.0
 43
0.0
 43
1.0
 43
0.0
 43
0.0
 43
0.0
 43
0.0
 43
1.0
 77
     0
 47
0.0208333333333333
 47
0.0
 47
0.0
 47
0.0
 47
0.0
 47
0.0208333333333333
 47
0.0
 47
0.0
 47
0.0
 47
0.0
 47
1.0
 47
0.0
 47
0.0
 47
0.0
 47
0.0
 47
1.0
171
     0
 49
0.0208333333333333
 49
0.0
 49
0.0
 49
0.0
 49
0.0
 49
0.0208333333333333
 49
0.0
 49
0.0
 49
0.0
 49
0.0
 49
1.0
 49
0.0
 49
0.0
 49
0.0
 49
0.0
 49
1.0
175
     0
142
0.0208333333333333
142
0.0
142
0.0
142
0.0
142
0.0
142
0.0208333333333333
142
0.0
142
0.0
142
0.0
142
0.0
142
1.0
142
0.0
142
0.0
142
0.0
142
0.0
142
1.0
179
     0
144
0.0208333333333333
144
0.0
144
0.0
144
0.0
144
0.0
144
0.0208333333333333
144
0.0
144
0.0
144
0.0
144
0.0
144
1.0
144
0.0
144
0.0
144
0.0
144
0.0
144
1.0
147
0.0208333333333333
147
0.0
147
0.0
147
0.0
147
0.0
147
0.0208333333333333
147
0.0
147
0.0
147
0.0
147
0.0
147
1.0
147
0.0
147
0.0
147
0.0
147
0.0
147
1.0
  0
MATERIAL
  5
BB
102
{ACAD_XDICTIONARY
360
BC
102
}
102
{ACAD_REACTORS
330
AA
102
}
330
AA
100
AcDbMaterial
  1
Global
 72
     0
 43
0.0208333333333333
 43
0.0
 43
0.0
 43
0.0
 43
0.0
 43
0.0208333333333333
 43
0.0
 43
0.0
 43
0.0
 43
0.0
 43
1.0
 43
0.0
 43
0.0
 43
0.0
 43
0.0
 43
1.0
 77
     0
 47
0.0208333333333333
 47
0.0
 47
0.0
 47
0.0
 47
0.0
 47
0.0208333333333333
 47
0.0
 47
0.0
 47
0.0
 47
0.0
 47
1.0
 47
0.0
 47
0.0
 47
0.0
 47
0.0
 47
1.0
171
     0
 49
0.0208333333333333
 49
0.0
 49
0.0
 49
0.0
 49
0.0
 49
0.0208333333333333
 49
0.0
 49
0.0
 49
0.0
 49
0.0
 49
1.0
 49
0.0
 49
0.0
 49
0.0
 49
0.0
 49
1.0
175
     0
142
0.0208333333333333
142
0.0
142
0.0
142
0.0
142
0.0
142
0.0208333333333333
142
0.0
142
0.0
142
0.0
142
0.0
142
1.0
142
0.0
142
0.0
142
0.0
142
0.0
142
1.0
179
     0
144
0.0208333333333333
144
0.0
144
0.0
144
0.0
144
0.0
144
0.0208333333333333
144
0.0
144
0.0
144
0.0
144
0.0
144
1.0
144
0.0
144
0.0
144
0.0
144
0.0
144
1.0
147
0.0208333333333333
147
0.0
147
0.0
147
0.0
147
0.0
147
0.0208333333333333
147
0.0
147
0.0
147
0.0
147
0.0
147
1.0
147
0.0
147
0.0
147
0.0
147
0.0
147
1.0
  0
MLEADERSTYLE
  5
F2
102
{ACAD_XDICTIONARY
360
1DE
102
}
102
{ACAD_REACTORS
330
F1
102
}
330
F1
100
AcDbMLeaderStyle
179
     2
170
     2
171
     1
172
     0
 90
        2
 40
0.0
 41
0.0
173
     1
 91
-1056964608
340
14
 92
       -2
290
     1
 42
0.09
291
     1
 43
0.36
  3
Standard
 44
0.18
300

342
11
174
     1
178
     6
175
     1
176
     0
 93
-1056964608
 45
0.18
292
     0
297
     0
 46
0.18
 94
-1056964608
 47
1.0
 49
1.0
140
1.0
293
     1
141
0.0
294
     1
177
     0
142
1.0
295
     0
296
     0
143
0.125
271
     0
272
     9
273
     9
  0
MLINESTYLE
  5
18
102
{ACAD_REACTORS
330
17
102
}
330
17
100
AcDbMlineStyle
  2
STANDARD
 70
     0
  3

 62
   256
 51
90.0
 52
90.0
 71
     2
 49
0.5
 62
   256
  6
BYLAYER
 49
-0.5
 62
   256
  6
BYLAYER
  0
ACDBPLACEHOLDER
  5
2D
102
{ACAD_REACTORS
330
E
102
}
330
E
  0
ACDBPLACEHOLDER
  5
F
102
{ACAD_REACTORS
330
E
102
}
330
E
  0
SCALE
  5
E0
102
{ACAD_REACTORS
330
DF
102
}
330
DF
100
AcDbScale
 70
     0
300
1:1
140
1.0
141
1.0
290
     1
  0
SCALE
  5
E1
102
{ACAD_REACTORS
330
DF
102
}
330
DF
100
AcDbScale
 70
     0
300
1/128" = 1'-0"
140
0.0078125
141
12.0
290
     0
  0
SCALE
  5
E2
102
{ACAD_REACTORS
330
DF
102
}
330
DF
100
AcDbScale
 70
     0
300
1/64" = 1'-0"
140
0.015625
141
12.0
290
     0
  0
SCALE
  5
E3
102
{ACAD_REACTORS
330
DF
102
}
330
DF
100
AcDbScale
 70
     0
300
1/32" = 1'-0"
140
0.03125
141
12.0
290
     0
  0
SCALE
  5
E4
102
{ACAD_REACTORS
330
DF
102
}
330
DF
100
AcDbScale
 70
     0
300
1/16" = 1'-0"
140
0.0625
141
12.0
290
     0
  0
SCALE
  5
E5
102
{ACAD_REACTORS
330
DF
102
}
330
DF
100
AcDbScale
 70
     0
300
3/32" = 1'-0"
140
0.09375
141
12.0
290
     0
  0
SCALE
  5
E6
102
{ACAD_REACTORS
330
DF
102
}
330
DF
100
AcDbScale
 70
     0
300
1/8" = 1'-0"
140
0.125
141
12.0
290
     0
  0
SCALE
  5
E7
102
{ACAD_REACTORS
330
DF
102
}
330
DF
100
AcDbScale
 70
     0
300
3/16" = 1'-0"
140
0.1875
141
12.0
290
     0
  0
SCALE
  5
E8
102
{ACAD_REACTORS
330
DF
102
}
330
DF
100
AcDbScale
 70
     0
300
1/4" = 1'-0"
140
0.25
141
12.0
290
     0
  0
SCALE
  5
E9
102
{ACAD_REACTORS
330
DF
102
}
330
DF
100
AcDbScale
 70
     0
300
3/8" = 1'-0"
140
0.375
141
12.0
290
     0
  0
SCALE
  5
EA
102
{ACAD_REACTORS
330
DF
102
}
330
DF
100
AcDbScale
 70
     0
300
1/2" = 1'-0"
140
0.5
141
12.0
290
     0
  0
SCALE
  5
EB
102
{ACAD_REACTORS
330
DF
102
}
330
DF
100
AcDbScale
 70
     0
300
3/4" = 1'-0"
140
0.75
141
12.0
290
     0
  0
SCALE
  5
EC
102
{ACAD_REACTORS
330
DF
102
}
330
DF
100
AcDbScale
 70
     0
300
1" = 1'-0"
140
1.0
141
12.0
290
     0
  0
SCALE
  5
ED
102
{ACAD_REACTORS
330
DF
102
}
330
DF
100
AcDbScale
 70
     0
300
1-1/2" = 1'-0"
140
1.5
141
12.0
290
     0
  0
SCALE
  5
EE
102
{ACAD_REACTORS
330
DF
102
}
330
DF
100
AcDbScale
 70
     0
300
3" = 1'-0"
140
3.0
141
12.0
290
     0
  0
SCALE
  5
EF
102
{ACAD_REACTORS
330
DF
102
}
330
DF
100
AcDbScale
 70
     0
300
6" = 1'-0"
140
6.0
141
12.0
290
     0
  0
SCALE
  5
F0
102
{ACAD_REACTORS
330
DF
102
}
330
DF
100
AcDbScale
 70
     0
300
1'-0" = 1'-0"
140
12.0
141
12.0
290
     0
  0
ACDBSECTIONVIEWSTYLE
  5
F4
102
{ACAD_XDICTIONARY
360
1E0
102
}
102
{ACAD_REACTORS
330
F3
102
}
330
F3
100
AcDbModelDocViewStyle
 70
     0
  3
Imperial24
290
     0
100
AcDbSectionViewStyle
 70
     0
 71
     0
 90
       78
 71
     1
340
11
 62
   256
 40
0.24
340
0
340
0
 62
   256
 40
0.24
300
I, O, Q, S, X, Z
 40
0.48
 90
        3
 40
0.18
 90
        1
 71
     2
340
16
 90
       25
 62
   256
340
16
 90
       50
 62
   256
 40
0.24
 40
0.0
 40
0.24
 71
     3
340
11
 62
   256
 40
0.24
 90
        1
 40
0.75
 90
        1
300
%<\AcVar ViewType \f "%tc1">% %<\AcVar ViewSectionStartId>%-%<\AcVar ViewSectionEndId>%\PSCALE %<\AcVar ViewScale \f "%sn">%
 71
     4
 62
   256
 62
   257
300
ANSI31
 40
1.0
 90
        0
290
     0
290
     0
 90
        6
 40
0.0
 40
1.570796326794896
 40
0.2617993877991494
 40
1.308996938995747
 40
-0.2617993877991494
 40
1.832595714594046
  0
TABLESTYLE
  5
DE
102
{ACAD_XDICTIONARY
360
1AB
102
}
102
{ACAD_REACTORS
330
DD
102
}
330
DD
100
AcDbTableStyle
280
     0
  3
Standard
 70
     0
 71
     0
 40
0.06
 41
0.06
280
     0
281
     0
  7
Standard
140
0.18
170
     2
 62
     0
 63
     7
283
     0
 90
      512
 91
        0
  1

274
    -2
284
     1
 64
     0
275
    -2
285
     1
 65
     0
276
    -2
286
     1
 66
     0
277
    -2
287
     1
 67
     0
278
    -2
288
     1
 68
     0
279
    -2
289
     1
 69
     0
  7
Standard
140
0.25
170
     5
 62
     0
 63
     7
283
     0
 90
      512
 91
        0
  1

274
    -2
284
     1
 64
     0
275
    -2
285
     1
 65
     0
276
    -2
286
     1
 66
     0
277
    -2
287
     1
 67
     0
278
    -2
288
     1
 68
     0
279
    -2
289
     1
 69
     0
  7
Standard
140
0.18
170
     5
 62
     0
 63
     7
283
     0
 90
      512
 91
        0
  1

274
    -2
284
     1
 64
     0
275
    -2
285
     1
 65
     0
276
    -2
286
     1
 66
     0
277
    -2
287
     1
 67
     0
278
    -2
288
     1
 68
     0
279
    -2
289
     1
 69
     0
  0
VISUALSTYLE
  5
C9
102
{ACAD_XDICTIONARY
360
1B8
102
}
102
{ACAD_REACTORS
330
C3
102
}
330
C3
100
AcDbVisualStyle
  2
2dWireframe
 70
     4
177
     2
291
     0
 71
     0
176
     1
 72
     2
176
     1
 73
     0
176
     1
 90
        0
176
     1
 40
0.6
176
     1
 41
30.0
176
     1
 63
     7
421
 16777215
176
     1
 74
     1
176
     1
 91
        4
176
     1
 64
     7
176
     1
 65
   257
176
     1
 75
     1
176
     1
175
     1
176
     1
 42
1.0
176
     1
 92
        0
176
     1
 66
   257
176
     1
 43
1.0
176
     1
 76
     1
176
     1
 77
     6
176
     1
 78
     2
176
     1
 67
     7
176
     1
 79
     5
176
     1
170
     0
176
     1
171
     0
176
     1
290
     0
176
     1
 93
        1
176
     1
 44
0.0
176
     1
173
     0
176
     1
1001
ACAD
1000
AcDbSavedByObjectVersion
1070
     0
  0
VISUALSTYLE
  5
C8
102
{ACAD_XDICTIONARY
360
1B6
102
}
102
{ACAD_REACTORS
330
C3
102
}
330
C3
100
AcDbVisualStyle
  2
Basic
 70
     7
177
     2
291
     1
 71
     1
176
     1
 72
     0
176
     1
 73
     1
176
     1
 90
        0
176
     1
 40
0.6
176
     1
 41
30.0
176
     1
 63
     7
421
 16777215
176
     1
 74
     0
176
     1
 91
        4
176
     1
 64
     7
176
     1
 65
   257
176
     1
 75
     1
176
     1
175
     1
176
     1
 42
1.0
176
     1
 92
        8
176
     1
 66
     7
176
     1
 43
1.0
176
     1
 76
     1
176
     1
 77
     6
176
     1
 78
     2
176
     1
 67
     7
176
     1
 79
     5
176
     1
170
     0
176
     1
171
     0
176
     1
290
     0
176
     1
 93
        1
176
     1
 44
0.0
176
     1
173
     0
176
     1
1001
ACAD
1000
AcDbSavedByObjectVersion
1070
     0
  0
VISUALSTYLE
  5
CF
102
{ACAD_XDICTIONARY
360
1C4
102
}
102
{ACAD_REACTORS
330
C3
102
}
330
C3
100
AcDbVisualStyle
  2
Brighten
 70
    12
177
     2
291
     1
 71
     2
176
     1
 72
     2
176
     1
 73
     0
176
     1
 90
        0
176
     1
 40
0.6
176
     1
 41
30.0
176
     1
 63
     7
421
 16777215
176
     1
 74
     1
176
     1
 91
        4
176
     1
 64
     7
176
     1
 65
   257
176
     1
 75
     1
176
     1
175
     1
176
     1
 42
1.0
176
     1
 92
        8
176
     1
 66
     7
176
     1
 43
1.0
176
     1
 76
     1
176
     1
 77
     6
176
     1
 78
     2
176
     1
 67
     7
176
     1
 79
     5
176
     1
170
     0
176
     1
171
     0
176
     1
290
     0
176
     1
 93
        1
176
     1
 44
50.0
176
     1
173
     0
176
     1
1001
ACAD
1000
AcDbSavedByObjectVersion
1070
     0
  0
VISUALSTYLE
  5
D3
102
{ACAD_XDICTIONARY
360
1CC
102
}
102
{ACAD_REACTORS
330
C3
102
}
330
C3
100
AcDbVisualStyle
  2
ColorChange
 70
    16
177
     2
291
     1
 71
     2
176
     1
 72
     2
176
     1
 73
     3
176
     1
 90
        0
176
     1
 40
0.6
176
     1
 41
30.0
176
     1
 63
     8
421
  8421504
176
     1
 74
     1
176
     1
 91
        4
176
     1
 64
     7
176
     1
 65
   257
176
     1
 75
     1
176
     1
175
     1
176
     1
 42
1.0
176
     1
 92
        8
176
     1
 66
     8
424
  8421504
176
     1
 43
1.0
176
     1
 76
     1
176
     1
 77
     6
176
     1
 78
     2
176
     1
 67
     7
176
     1
 79
     5
176
     1
170
     0
176
     1
171
     0
176
     1
290
     0
176
     1
 93
        1
176
     1
 44
0.0
176
     1
173
     0
176
     1
1001
ACAD
1000
AcDbSavedByObjectVersion
1070
     0
  0
VISUALSTYLE
  5
CC
102
{ACAD_XDICTIONARY
360
1BE
102
}
102
{ACAD_REACTORS
330
C3
102
}
330
C3
100
AcDbVisualStyle
  2
Conceptual
 70
     9
177
     2
291
     0
 71
     3
176
     1
 72
     2
176
     1
 73
     0
176
     1
 90
        0
176
     1
 40
0.6
176
     1
 41
30.0
176
     1
 63
     7
421
 16777215
176
     1
 74
     2
176
     1
 91
        2
176
     1
 64
     7
176
     1
 65
   257
176
     1
 75
     1
176
     1
175
     1
176
     1
 42
179.0
176
     1
 92
        8
176
     1
 66
     7
176
     1
 43
1.0
176
     1
 76
     1
176
     1
 77
     6
176
     1
 78
     2
176
     1
 67
     7
176
     1
 79
     3
176
     1
170
     0
176
     1
171
     0
176
     1
290
     0
176
     1
 93
        1
176
     1
 44
0.0
176
     1
173
     0
176
     1
1001
ACAD
1000
AcDbSavedByObjectVersion
1070
     0
  0
VISUALSTYLE
  5
CE
102
{ACAD_XDICTIONARY
360
1C2
102
}
102
{ACAD_REACTORS
330
C3
102
}
330
C3
100
AcDbVisualStyle
  2
Dim
 70
    11
177
     2
291
     1
 71
     2
176
     1
 72
     2
176
     1
 73
     0
176
     1
 90
        0
176
     1
 40
0.6
176
     1
 41
30.0
176
     1
 63
     7
421
 16777215
176
     1
 74
     1
176
     1
 91
        4
176
     1
 64
     7
176
     1
 65
   257
176
     1
 75
     1
176
     1
175
     1
176
     1
 42
1.0
176
     1
 92
        8
176
     1
 66
     7
176
     1
 43
1.0
176
     1
 76
     1
176
     1
 77
     6
176
     1
 78
     2
176
     1
 67
     7
176
     1
 79
     5
176
     1
170
     0
176
     1
171
     0
176
     1
290
     0
176
     1
 93
        1
176
     1
 44
-50.0
176
     1
173
     0
176
     1
1001
ACAD
1000
AcDbSavedByObjectVersion
1070
     0
  0
VISUALSTYLE
  5
DB
102
{ACAD_XDICTIONARY
360
1DC
102
}
102
{ACAD_REACTORS
330
C3
102
}
330
C3
100
AcDbVisualStyle
  2
EdgeColorOff
 70
    22
177
     2
291
     1
 71
     2
176
     0
 72
     2
176
     0
 73
     0
176
     0
 90
        0
176
     0
 40
0.6
176
     0
 41
30.0
176
     0
 63
     7
421
 16777215
176
     0
 74
     1
176
     0
 91
        4
176
     0
 64
     7
176
     0
 65
   257
176
     0
 75
     1
176
     0
175
     1
176
     0
 42
1.0
176
     0
 92
        8
176
     2
 66
     7
176
     0
 43
1.0
176
     0
 76
     1
176
     0
 77
     6
176
     0
 78
     2
176
     0
 67
     7
176
     0
 79
     5
176
     0
170
     0
176
     0
171
     0
176
     0
290
     0
176
     0
 93
        1
176
     0
 44
0.0
176
     0
173
     0
176
     0
1001
ACAD
1000
AcDbSavedByObjectVersion
1070
     0
  0
VISUALSTYLE
  5
D2
102
{ACAD_XDICTIONARY
360
1CA
102
}
102
{ACAD_REACTORS
330
C3
102
}
330
C3
100
AcDbVisualStyle
  2
Facepattern
 70
    15
177
     2
291
     1
 71
     2
176
     1
 72
     2
176
     1
 73
     0
176
     1
 90
        0
176
     1
 40
0.6
176
     1
 41
30.0
176
     1
 63
     7
421
 16777215
176
     1
 74
     1
176
     1
 91
        4
176
     1
 64
     7
176
     1
 65
   257
176
     1
 75
     1
176
     1
175
     1
176
     1
 42
1.0
176
     1
 92
        8
176
     1
 66
     7
176
     1
 43
1.0
176
     1
 76
     1
176
     1
 77
     6
176
     1
 78
     2
176
     1
 67
     7
176
     1
 79
     5
176
     1
170
     0
176
     1
171
     0
176
     1
290
     0
176
     1
 93
        1
176
     1
 44
0.0
176
     1
173
     0
176
     1
1001
ACAD
1000
AcDbSavedByObjectVersion
1070
     0
  0
VISUALSTYLE
  5
C4
102
{ACAD_XDICTIONARY
360
1AE
102
}
102
{ACAD_REACTORS
330
C3
102
}
330
C3
100
AcDbVisualStyle
  2
Flat
 70
     0
177
     2
291
     1
 71
     2
176
     1
 72
     1
176
     1
 73
     1
176
     1
 90
        2
176
     1
 40
0.6
176
     1
 41
30.0
176
     1
 63
     7
421
 16777215
176
     1
 74
     0
176
     1
 91
        0
176
     1
 64
     7
176
     1
 65
   257
176
     1
 75
     1
176
     1
175
     1
176
     1
 42
1.0
176
     1
 92
        8
176
     1
 66
     7
176
     1
 43
1.0
176
     1
 76
     1
176
     1
 77
     6
176
     1
 78
     2
176
     1
 67
     7
176
     1
 79
     5
176
     1
170
     0
176
     1
171
     0
176
     1
290
     0
176
     1
 93
       13
176
     1
 44
0.0
176
     1
173
     0
176
     1
1001
ACAD
1000
AcDbSavedByObjectVersion
1070
     0
  0
VISUALSTYLE
  5
C5
102
{ACAD_XDICTIONARY
360
1B0
102
}
102
{ACAD_REACTORS
330
C3
102
}
330
C3
100
AcDbVisualStyle
  2
FlatWithEdges
 70
     1
177
     2
291
     1
 71
     2
176
     1
 72
     1
176
     1
 73
     1
176
     1
 90
        2
176
     1
 40
0.6
176
     1
 41
30.0
176
     1
 63
     7
421
 16777215
176
     1
 74
     1
176
     1
 91
        0
176
     1
 64
     7
176
     1
 65
   257
176
     1
 75
     1
176
     1
175
     1
176
     1
 42
1.0
176
     1
 92
        0
176
     1
 66
   257
176
     1
 43
1.0
176
     1
 76
     1
176
     1
 77
     6
176
     1
 78
     2
176
     1
 67
     7
176
     1
 79
     5
176
     1
170
     0
176
     1
171
     0
176
     1
290
     0
176
     1
 93
       13
176
     1
 44
0.0
176
     1
173
     0
176
     1
1001
ACAD
1000
AcDbSavedByObjectVersion
1070
     0
  0
VISUALSTYLE
  5
C6
102
{ACAD_XDICTIONARY
360
1B2
102
}
102
{ACAD_REACTORS
330
C3
102
}
330
C3
100
AcDbVisualStyle
  2
Gouraud
 70
     2
177
     2
291
     1
 71
     2
176
     1
 72
     2
176
     1
 73
     1
176
     1
 90
        2
176
     1
 40
0.6
176
     1
 41
30.0
176
     1
 63
     7
421
 16777215
176
     1
 74
     0
176
     1
 91
        0
176
     1
 64
     7
176
     1
 65
   257
176
     1
 75
     1
176
     1
175
     1
176
     1
 42
1.0
176
     1
 92
        0
176
     1
 66
     7
176
     1
 43
1.0
176
     1
 76
     1
176
     1
 77
     6
176
     1
 78
     2
176
     1
 67
     7
176
     1
 79
     5
176
     1
170
     0
176
     1
171
     0
176
     1
290
     0
176
     1
 93
       13
176
     1
 44
0.0
176
     1
173
     0
176
     1
1001
ACAD
1000
AcDbSavedByObjectVersion
1070
     0
  0
VISUALSTYLE
  5
C7
102
{ACAD_XDICTIONARY
360
1B4
102
}
102
{ACAD_REACTORS
330
C3
102
}
330
C3
100
AcDbVisualStyle
  2
GouraudWithEdges
 70
     3
177
     2
291
     1
 71
     2
176
     1
 72
     2
176
     1
 73
     1
176
     1
 90
        2
176
     1
 40
0.6
176
     1
 41
30.0
176
     1
 63
     7
421
 16777215
176
     1
 74
     1
176
     1
 91
        0
176
     1
 64
     7
176
     1
 65
   257
176
     1
 75
     1
176
     1
175
     1
176
     1
 42
1.0
176
     1
 92
        0
176
     1
 66
   257
176
     1
 43
1.0
176
     1
 76
     1
176
     1
 77
     6
176
     1
 78
     2
176
     1
 67
     7
176
     1
 79
     5
176
     1
170
     0
176
     1
171
     0
176
     1
290
     0
176
     1
 93
       13
176
     1
 44
0.0
176
     1
173
     0
176
     1
1001
ACAD
1000
AcDbSavedByObjectVersion
1070
     0
  0
VISUALSTYLE
  5
CB
102
{ACAD_XDICTIONARY
360
1BC
102
}
102
{ACAD_REACTORS
330
C3
102
}
330
C3
100
AcDbVisualStyle
  2
Hidden
 70
     6
177
     2
291
     0
 71
     1
176
     1
 72
     2
176
     1
 73
     2
176
     1
 90
        0
176
     1
 40
0.6
176
     1
 41
30.0
176
     1
 63
     7
421
 16777215
176
     1
 74
     2
176
     1
 91
        2
176
     1
 64
     7
176
     1
 65
   257
176
     1
 75
     2
176
     1
175
     1
176
     1
 42
40.0
176
     1
 92
        0
176
     1
 66
   257
176
     1
 43
1.0
176
     1
 76
     1
176
     1
 77
     6
176
     1
 78
     2
176
     1
 67
     7
176
     1
 79
     3
176
     1
170
     0
176
     1
171
     0
176
     1
290
     0
176
     1
 93
        1
176
     1
 44
0.0
176
     1
173
     0
176
     1
1001
ACAD
1000
AcDbSavedByObjectVersion
1070
     0
  0
VISUALSTYLE
  5
D9
102
{ACAD_XDICTIONARY
360
1D8
102
}
102
{ACAD_REACTORS
330
C3
102
}
330
C3
100
AcDbVisualStyle
  2
JitterOff
 70
    20
177
     2
291
     1
 71
     2
176
     0
 72
     2
176
     0
 73
     0
176
     0
 90
        0
176
     0
 40
0.6
176
     0
 41
30.0
176
     0
 63
     7
421
 16777215
176
     0
 74
     1
176
     0
 91
        4
176
     0
 64
     7
176
     0
 65
   257
176
     0
 75
     1
176
     0
175
     1
176
     0
 42
1.0
176
     0
 92
       10
176
     2
 66
     7
176
     0
 43
1.0
176
     0
 76
     1
176
     0
 77
     6
176
     0
 78
     2
176
     0
 67
     7
176
     0
 79
     5
176
     0
170
     0
176
     0
171
     0
176
     0
290
     0
176
     0
 93
        1
176
     0
 44
0.0
176
     0
173
     0
176
     0
1001
ACAD
1000
AcDbSavedByObjectVersion
1070
     0
  0
VISUALSTYLE
  5
D1
102
{ACAD_XDICTIONARY
360
1C8
102
}
102
{ACAD_REACTORS
330
C3
102
}
330
C3
100
AcDbVisualStyle
  2
Linepattern
 70
    14
177
     2
291
     1
 71
     2
176
     1
 72
     2
176
     1
 73
     0
176
     1
 90
        0
176
     1
 40
0.6
176
     1
 41
30.0
176
     1
 63
     7
421
 16777215
176
     1
 74
     1
176
     1
 91
        4
176
     1
 64
     7
176
     1
 65
   257
176
     1
 75
     7
176
     1
175
     7
176
     1
 42
1.0
176
     1
 92
        8
176
     1
 66
     7
176
     1
 43
1.0
176
     1
 76
     1
176
     1
 77
     6
176
     1
 78
     2
176
     1
 67
     7
176
     1
 79
     5
176
     1
170
     0
176
     1
171
     0
176
     1
290
     0
176
     1
 93
        1
176
     1
 44
0.0
176
     1
173
     0
176
     1
1001
ACAD
1000
AcDbSavedByObjectVersion
1070
     0
  0
VISUALSTYLE
  5
DA
102
{ACAD_XDICTIONARY
360
1DA
102
}
102
{ACAD_REACTORS
330
C3
102
}
330
C3
100
AcDbVisualStyle
  2
OverhangOff
 70
    21
177
     2
291
     1
 71
     2
176
     0
 72
     2
176
     0
 73
     0
176
     0
 90
        0
176
     0
 40
0.6
176
     0
 41
30.0
176
     0
 63
     7
421
 16777215
176
     0
 74
     1
176
     0
 91
        4
176
     0
 64
     7
176
     0
 65
   257
176
     0
 75
     1
176
     0
175
     1
176
     0
 42
1.0
176
     0
 92
        9
176
     2
 66
     7
176
     0
 43
1.0
176
     0
 76
     1
176
     0
 77
     6
176
     0
 78
     2
176
     0
 67
     7
176
     0
 79
     5
176
     0
170
     0
176
     0
171
     0
176
     0
290
     0
176
     0
 93
        1
176
     0
 44
0.0
176
     0
173
     0
176
     0
1001
ACAD
1000
AcDbSavedByObjectVersion
1070
     0
  0
VISUALSTYLE
  5
CD
102
{ACAD_XDICTIONARY
360
1C0
102
}
102
{ACAD_REACTORS
330
C3
102
}
330
C3
100
AcDbVisualStyle
  2
Realistic
 70
     8
177
     2
291
     0
 71
     2
176
     1
 72
     3
176
     1
 73
     0
176
     1
 90
        2
176
     1
 40
0.6
176
     1
 41
30.0
176
     1
 63
     7
421
 16777215
176
     1
 74
     0
176
     1
 91
        0
176
     1
 64
     7
176
     1
 65
   257
176
     1
 75
     1
176
     1
175
     1
176
     1
 42
1.0
176
     1
 92
        8
176
     1
 66
   257
176
     1
 43
1.0
176
     1
 76
     1
176
     1
 77
     6
176
     1
 78
     2
176
     1
 67
     7
176
     1
 79
     3
176
     1
170
     0
176
     1
171
     0
176
     1
290
     0
176
     1
 93
       13
176
     1
 44
0.0
176
     1
173
     0
176
     1
1001
ACAD
1000
AcDbSavedByObjectVersion
1070
     0
  0
VISUALSTYLE
  5
D8
102
{ACAD_XDICTIONARY
360
1D6
102
}
102
{ACAD_REACTORS
330
C3
102
}
330
C3
100
AcDbVisualStyle
  2
Shaded
 70
    27
177
     2
291
     0
 71
     2
176
     1
 72
     2
176
     1
 73
     1
176
     1
 90
        2
176
     1
 40
0.6
176
     1
 41
30.0
176
     1
 63
     7
421
 16777215
176
     1
 74
     0
176
     1
 91
        4
176
     1
 64
     7
176
     1
 65
   257
176
     1
 75
     1
176
     1
175
     1
176
     1
 42
1.0
176
     1
 92
        8
176
     1
 66
   257
176
     1
 43
1.0
176
     1
 76
     1
176
     1
 77
     6
176
     1
 78
     2
176
     1
 67
     8
425
  7895160
176
     1
 79
     3
176
     1
170
     0
176
     1
171
     0
176
     1
290
     0
176
     1
 93
        5
176
     1
 44
0.0
176
     1
173
     0
176
     1
1001
ACAD
1000
AcDbSavedByObjectVersion
1070
     0
  0
VISUALSTYLE
  5
D7
102
{ACAD_XDICTIONARY
360
1D4
102
}
102
{ACAD_REACTORS
330
C3
102
}
330
C3
100
AcDbVisualStyle
  2
Shaded with edges
 70
    26
177
     2
291
     0
 71
     2
176
     1
 72
     2
176
     1
 73
     1
176
     1
 90
        2
176
     1
 40
0.6
176
     1
 41
30.0
176
     1
 63
     7
421
 16777215
176
     1
 74
     1
176
     1
 91
       10
176
     1
 64
     7
176
     1
 65
   257
176
     1
 75
     2
176
     1
175
     1
176
     1
 42
1.0
176
     1
 92
        8
176
     1
 66
   257
176
     1
 43
1.0
176
     1
 76
     1
176
     1
 77
     6
176
     1
 78
     2
176
     1
 67
     7
176
     1
 79
     3
176
     1
170
     0
176
     1
171
     0
176
     1
290
     0
176
     1
 93
        5
176
     1
 44
0.0
176
     1
173
     0
176
     1
1001
ACAD
1000
AcDbSavedByObjectVersion
1070
     0
  0
VISUALSTYLE
  5
D4
102
{ACAD_XDICTIONARY
360
1CE
102
}
102
{ACAD_REACTORS
330
C3
102
}
330
C3
100
AcDbVisualStyle
  2
Shades of Gray
 70
    23
177
     2
291
     0
 71
     2
176
     1
 72
     2
176
     1
 73
     3
176
     1
 90
        0
176
     1
 40
0.6
176
     1
 41
30.0
176
     1
 63
     7
421
 16777215
176
     1
 74
     2
176
     1
 91
        2
176
     1
 64
     7
176
     1
 65
     7
176
     1
 75
     1
176
     1
175
     1
176
     1
 42
40.0
176
     1
 92
        8
176
     1
 66
     7
176
     1
 43
1.0
176
     1
 76
     1
176
     1
 77
     6
176
     1
 78
     2
176
     1
 67
     7
176
     1
 79
     3
176
     1
170
     0
176
     1
171
     0
176
     1
290
     0
176
     1
 93
        1
176
     1
 44
0.0
176
     1
173
     0
176
     1
1001
ACAD
1000
AcDbSavedByObjectVersion
1070
     0
  0
VISUALSTYLE
  5
D5
102
{ACAD_XDICTIONARY
360
1D0
102
}
102
{ACAD_REACTORS
330
C3
102
}
330
C3
100
AcDbVisualStyle
  2
Sketchy
 70
    24
177
     2
291
     0
 71
     1
176
     1
 72
     2
176
     1
 73
     2
176
     1
 90
        0
176
     1
 40
0.6
176
     1
 41
30.0
176
     1
 63
     7
421
 16777215
176
     1
 74
     2
176
     1
 91
        2
176
     1
 64
     7
176
     1
 65
     7
176
     1
 75
     1
176
     1
175
     1
176
     1
 42
40.0
176
     1
 92
       11
176
     1
 66
     7
176
     1
 43
1.0
176
     1
 76
     1
176
     1
 77
     6
176
     1
 78
     2
176
     1
 67
     7
176
     1
 79
     6
176
     1
170
     0
176
     1
171
     0
176
     1
290
     0
176
     1
 93
        1
176
     1
 44
0.0
176
     1
173
     0
176
     1
1001
ACAD
1000
AcDbSavedByObjectVersion
1070
     0
  0
VISUALSTYLE
  5
D0
102
{ACAD_XDICTIONARY
360
1C6
102
}
102
{ACAD_REACTORS
330
C3
102
}
330
C3
100
AcDbVisualStyle
  2
Thicken
 70
    13
177
     2
291
     1
 71
     2
176
     1
 72
     2
176
     1
 73
     0
176
     1
 90
        0
176
     1
 40
0.6
176
     1
 41
30.0
176
     1
 63
     7
421
 16777215
176
     1
 74
     1
176
     1
 91
        4
176
     1
 64
     7
176
     1
 65
   257
176
     1
 75
     1
176
     1
175
     1
176
     1
 42
1.0
176
     1
 92
       12
176
     1
 66
     7
176
     1
 43
1.0
176
     1
 76
     1
176
     1
 77
     6
176
     1
 78
     2
176
     1
 67
     7
176
     1
 79
     5
176
     1
170
     0
176
     1
171
     0
176
     1
290
     0
176
     1
 93
        1
176
     1
 44
0.0
176
     1
173
     0
176
     1
1001
ACAD
1000
AcDbSavedByObjectVersion
1070
     0
  0
VISUALSTYLE
  5
CA
102
{ACAD_XDICTIONARY
360
1BA
102
}
102
{ACAD_REACTORS
330
C3
102
}
330
C3
100
AcDbVisualStyle
  2
Wireframe
 70
     5
177
     2
291
     0
 71
     0
176
     1
 72
     2
176
     1
 73
     0
176
     1
 90
        0
176
     1
 40
0.6
176
     1
 41
30.0
176
     1
 63
     7
421
 16777215
176
     1
 74
     1
176
     1
 91
        4
176
     1
 64
     7
176
     1
 65
   257
176
     1
 75
     1
176
     1
175
     1
176
     1
 42
1.0
176
     1
 92
        0
176
     1
 66
   257
176
     1
 43
1.0
176
     1
 76
     1
176
     1
 77
     6
176
     1
 78
     2
176
     1
 67
     7
176
     1
 79
     3
176
     1
170
     0
176
     1
171
     0
176
     1
290
     0
176
     1
 93
        1
176
     1
 44
0.0
176
     1
173
     0
176
     1
1001
ACAD
1000
AcDbSavedByObjectVersion
1070
     0
  0
VISUALSTYLE
  5
D6
102
{ACAD_XDICTIONARY
360
1D2
102
}
102
{ACAD_REACTORS
330
C3
102
}
330
C3
100
AcDbVisualStyle
  2
X-Ray
 70
    25
177
     2
291
     0
 71
     2
176
     1
 72
     2
176
     1
 73
     1
176
     1
 90
        1
176
     1
 40
0.5
176
     1
 41
30.0
176
     1
 63
     7
421
 16777215
176
     1
 74
     1
176
     1
 91
        0
176
     1
 64
     7
176
     1
 65
   257
176
     1
 75
     1
176
     1
175
     1
176
     1
 42
1.0
176
     1
 92
        8
176
     1
 66
     7
176
     1
 43
1.0
176
     1
 76
     1
176
     1
 77
     6
176
     1
 78
     2
176
     1
 67
     7
176
     1
 79
     3
176
     1
170
     0
176
     1
171
     0
176
     1
290
     0
176
     1
 93
       13
176
     1
 44
0.0
176
     1
173
     0
176
     1
1001
ACAD
1000
AcDbSavedByObjectVersion
1070
     0
  0
DICTIONARYVAR
  5
1A7
102
{ACAD_REACTORS
330
1A1
102
}
330
1A1
100
DictionaryVariables
280
     0
  1
1:1
  0
DICTIONARYVAR
  5
1A3
102
{ACAD_REACTORS
330
1A1
102
}
330
1A1
100
DictionaryVariables
280
     0
  1
STANDARD
  0
DICTIONARYVAR
  5
1A2
102
{ACAD_REACTORS
330
1A1
102
}
330
1A1
100
DictionaryVariables
280
     0
  1
STANDARD
  0
DICTIONARYVAR
  5
1A4
102
{ACAD_REACTORS
330
1A1
102
}
330
1A1
100
DictionaryVariables
280
     0
  1
Imperial24
  0
DICTIONARYVAR
  5
1A5
102
{ACAD_REACTORS
330
1A1
102
}
330
1A1
100
DictionaryVariables
280
     0
  1
Imperial24
  0
DICTIONARYVAR
  5
1A9
102
{ACAD_REACTORS
330
1A1
102
}
330
1A1
100
DictionaryVariables
280
     0
  1
1
  0
DICTIONARYVAR
  5
1AA
102
{ACAD_REACTORS
330
1A1
102
}
330
1A1
100
DictionaryVariables
280
     0
  1
15
  0
DICTIONARYVAR
  5
1A8
102
{ACAD_REACTORS
330
1A1
102
}
330
1A1
100
DictionaryVariables
280
     0
  1
0
  0
DICTIONARYVAR
  5
1A6
102
{ACAD_REACTORS
330
1A1
102
}
330
1A1
100
DictionaryVariables
280
     0
  1
0
  0
DICTIONARY
  5
1E2
330
F6
100
AcDbDictionary
280
     1
281
     1
  3
ACAD_XREC_ROUNDTRIP
360
1E3
  0
DICTIONARY
  5
B4
330
B3
100
AcDbDictionary
280
     1
281
     1
  3
BUMPTILE
360
B6
  3
DIFFUSETILE
360
B5
  3
OPACITYTILE
360
B9
  3
REFLECTIONTILE
360
B8
  3
REFRACTIONTILE
360
BA
  3
SPECULARTILE
360
B7
  0
DICTIONARY
  5
AC
330
AB
100
AcDbDictionary
280
     1
281
     1
  3
BUMPTILE
360
AE
  3
DIFFUSETILE
360
AD
  3
OPACITYTILE
360
B1
  3
REFLECTIONTILE
360
B0
  3
REFRACTIONTILE
360
B2
  3
SPECULARTILE
360
AF
  0
DICTIONARY
  5
BC
330
BB
100
AcDbDictionary
280
     1
281
     1
  3
BUMPTILE
360
BE
  3
DIFFUSETILE
360
BD
  3
OPACITYTILE
360
C1
  3
REFLECTIONTILE
360
C0
  3
REFRACTIONTILE
360
C2
  3
SPECULARTILE
360
BF
  0
DICTIONARY
  5
1DE
330
F2
100
AcDbDictionary
280
     1
281
     1
  3
ACAD_XREC_ROUNDTRIP
360
1DF
  0
DICTIONARY
  5
1E0
330
F4
100
AcDbDictionary
280
     1
281
     1
  3
ACAD_XREC_ROUNDTRIP
360
1E1
  0
DICTIONARY
  5
1AB
330
DE
100
AcDbDictionary
280
     1
281
     1
  3
ACAD_ROUNDTRIP_2008_TABLESTYLE_CELLSTYLEMAP
360
1AC
  0
DICTIONARY
  5
1B8
330
C9
100
AcDbDictionary
280
     1
281
     1
  3
ACAD_XREC_ROUNDTRIP
360
1B9
  0
DICTIONARY
  5
1B6
330
C8
100
AcDbDictionary
280
     1
281
     1
  3
ACAD_XREC_ROUNDTRIP
360
1B7
  0
DICTIONARY
  5
1C4
330
CF
100
AcDbDictionary
280
     1
281
     1
  3
ACAD_XREC_ROUNDTRIP
360
1C5
  0
DICTIONARY
  5
1CC
330
D3
100
AcDbDictionary
280
     1
281
     1
  3
ACAD_XREC_ROUNDTRIP
360
1CD
  0
DICTIONARY
  5
1BE
330
CC
100
AcDbDictionary
280
     1
281
     1
  3
ACAD_XREC_ROUNDTRIP
360
1BF
  0
DICTIONARY
  5
1C2
330
CE
100
AcDbDictionary
280
     1
281
     1
  3
ACAD_XREC_ROUNDTRIP
360
1C3
  0
DICTIONARY
  5
1DC
330
DB
100
AcDbDictionary
280
     1
281
     1
  3
ACAD_XREC_ROUNDTRIP
360
1DD
  0
DICTIONARY
  5
1CA
330
D2
100
AcDbDictionary
280
     1
281
     1
  3
ACAD_XREC_ROUNDTRIP
360
1CB
  0
DICTIONARY
  5
1AE
330
C4
100
AcDbDictionary
280
     1
281
     1
  3
ACAD_XREC_ROUNDTRIP
360
1AF
  0
DICTIONARY
  5
1B0
330
C5
100
AcDbDictionary
280
     1
281
     1
  3
ACAD_XREC_ROUNDTRIP
360
1B1
  0
DICTIONARY
  5
1B2
330
C6
100
AcDbDictionary
280
     1
281
     1
  3
ACAD_XREC_ROUNDTRIP
360
1B3
  0
DICTIONARY
  5
1B4
330
C7
100
AcDbDictionary
280
     1
281
     1
  3
ACAD_XREC_ROUNDTRIP
360
1B5
  0
DICTIONARY
  5
1BC
330
CB
100
AcDbDictionary
280
     1
281
     1
  3
ACAD_XREC_ROUNDTRIP
360
1BD
  0
DICTIONARY
  5
1D8
330
D9
100
AcDbDictionary
280
     1
281
     1
  3
ACAD_XREC_ROUNDTRIP
360
1D9
  0
DICTIONARY
  5
1C8
330
D1
100
AcDbDictionary
280
     1
281
     1
  3
ACAD_XREC_ROUNDTRIP
360
1C9
  0
DICTIONARY
  5
1DA
330
DA
100
AcDbDictionary
280
     1
281
     1
  3
ACAD_XREC_ROUNDTRIP
360
1DB
  0
DICTIONARY
  5
1C0
330
CD
100
AcDbDictionary
280
     1
281
     1
  3
ACAD_XREC_ROUNDTRIP
360
1C1
  0
DICTIONARY
  5
1D6
330
D8
100
AcDbDictionary
280
     1
281
     1
  3
ACAD_XREC_ROUNDTRIP
360
1D7
  0
DICTIONARY
  5
1D4
330
D7
100
AcDbDictionary
280
     1
281
     1
  3
ACAD_XREC_ROUNDTRIP
360
1D5
  0
DICTIONARY
  5
1CE
330
D4
100
AcDbDictionary
280
     1
281
     1
  3
ACAD_XREC_ROUNDTRIP
360
1CF
  0
DICTIONARY
  5
1D0
330
D5
100
AcDbDictionary
280
     1
281
     1
  3
ACAD_XREC_ROUNDTRIP
360
1D1
  0
DICTIONARY
  5
1C6
330
D0
100
AcDbDictionary
280
     1
281
     1
  3
ACAD_XREC_ROUNDTRIP
360
1C7
  0
DICTIONARY
  5
1BA
330
CA
100
AcDbDictionary
280
     1
281
     1
  3
ACAD_XREC_ROUNDTRIP
360
1BB
  0
DICTIONARY
  5
1D2
330
D6
100
AcDbDictionary
280
     1
281
     1
  3
ACAD_XREC_ROUNDTRIP
360
1D3
  0
XRECORD
  5
1E3
102
{ACAD_REACTORS
330
1E2
102
}
330
1E2
100
AcDbXrecord
280
     1
102
DISPLAYNAME
  1
Imperial24
102
FLAGS
 90
        0
  0
XRECORD
  5
B6
102
{ACAD_REACTORS
330
B4
102
}
330
B4
100
AcDbXrecord
280
     1
270
     1
271
     1
  0
XRECORD
  5
B5
102
{ACAD_REACTORS
330
B4
102
}
330
B4
100
AcDbXrecord
280
     1
270
     1
271
     1
  0
XRECORD
  5
B9
102
{ACAD_REACTORS
330
B4
102
}
330
B4
100
AcDbXrecord
280
     1
270
     1
271
     1
  0
XRECORD
  5
B8
102
{ACAD_REACTORS
330
B4
102
}
330
B4
100
AcDbXrecord
280
     1
270
     1
271
     1
  0
XRECORD
  5
BA
102
{ACAD_REACTORS
330
B4
102
}
330
B4
100
AcDbXrecord
280
     1
270
     1
271
     1
  0
XRECORD
  5
B7
102
{ACAD_REACTORS
330
B4
102
}
330
B4
100
AcDbXrecord
280
     1
270
     1
271
     1
  0
XRECORD
  5
AE
102
{ACAD_REACTORS
330
AC
102
}
330
AC
100
AcDbXrecord
280
     1
270
     1
271
     1
  0
XRECORD
  5
AD
102
{ACAD_REACTORS
330
AC
102
}
330
AC
100
AcDbXrecord
280
     1
270
     1
271
     1
  0
XRECORD
  5
B1
102
{ACAD_REACTORS
330
AC
102
}
330
AC
100
AcDbXrecord
280
     1
270
     1
271
     1
  0
XRECORD
  5
B0
102
{ACAD_REACTORS
330
AC
102
}
330
AC
100
AcDbXrecord
280
     1
270
     1
271
     1
  0
XRECORD
  5
B2
102
{ACAD_REACTORS
330
AC
102
}
330
AC
100
AcDbXrecord
280
     1
270
     1
271
     1
  0
XRECORD
  5
AF
102
{ACAD_REACTORS
330
AC
102
}
330
AC
100
AcDbXrecord
280
     1
270
     1
271
     1
  0
XRECORD
  5
BE
102
{ACAD_REACTORS
330
BC
102
}
330
BC
100
AcDbXrecord
280
     1
270
     1
271
     1
  0
XRECORD
  5
BD
102
{ACAD_REACTORS
330
BC
102
}
330
BC
100
AcDbXrecord
280
     1
270
     1
271
     1
  0
XRECORD
  5
C1
102
{ACAD_REACTORS
330
BC
102
}
330
BC
100
AcDbXrecord
280
     1
270
     1
271
     1
  0
XRECORD
  5
C0
102
{ACAD_REACTORS
330
BC
102
}
330
BC
100
AcDbXrecord
280
     1
270
     1
271
     1
  0
XRECORD
  5
C2
102
{ACAD_REACTORS
330
BC
102
}
330
BC
100
AcDbXrecord
280
     1
270
     1
271
     1
  0
XRECORD
  5
BF
102
{ACAD_REACTORS
330
BC
102
}
330
BC
100
AcDbXrecord
280
     1
270
     1
271
     1
  0
XRECORD
  5
1DF
102
{ACAD_REACTORS
330
1DE
102
}
330
1DE
100
AcDbXrecord
280
     1
102
ACAD_ROUNDTRIP_2012_MLEADER_STYLE
298
     1
  0
XRECORD
  5
1E1
102
{ACAD_REACTORS
330
1E0
102
}
330
1E0
100
AcDbXrecord
280
     1
102
DISPLAYNAME
  1
Imperial24
102
FLAGS
 90
        0
  0
CELLSTYLEMAP
  5
1AC
102
{ACAD_REACTORS
330
1AB
102
}
330
1AB
100
AcDbCellStyleMap
 90
        3
300
CELLSTYLE
  1
TABLEFORMAT_BEGIN
 90
        5
170
     1
 91
        0
 92
    32768
 62
   257
 93
        1
300
CONTENTFORMAT
  1
CONTENTFORMAT_BEGIN
 90
        0
 91
        0
 92
      512
 93
        0
300

 40
0.0
140
1.0
 94
        5
 62
     0
340
11
144
0.25
309
CONTENTFORMAT_END
171
     0
 94
        0
309
TABLEFORMAT_END
  1
CELLSTYLE_BEGIN
 90
        1
 91
        1
300
_TITLE
309
CELLSTYLE_END
300
CELLSTYLE
  1
TABLEFORMAT_BEGIN
 90
        5
170
     1
 91
        0
 92
        0
 62
   257
 93
        1
300
CONTENTFORMAT
  1
CONTENTFORMAT_BEGIN
 90
        0
 91
        0
 92
      512
 93
        0
300

 40
0.0
140
1.0
 94
        5
 62
     0
340
11
144
0.18
309
CONTENTFORMAT_END
171
     0
 94
        0
309
TABLEFORMAT_END
  1
CELLSTYLE_BEGIN
 90
        2
 91
        1
300
_HEADER
309
CELLSTYLE_END
300
CELLSTYLE
  1
TABLEFORMAT_BEGIN
 90
        5
170
     1
 91
        0
 92
        0
 62
   257
 93
        1
300
CONTENTFORMAT
  1
CONTENTFORMAT_BEGIN
 90
        0
 91
        0
 92
      512
 93
        0
300

 40
0.0
140
1.0
 94
        2
 62
     0
340
11
144
0.18
309
CONTENTFORMAT_END
171
     0
 94
        0
309
TABLEFORMAT_END
  1
CELLSTYLE_BEGIN
 90
        3
 91
        2
300
_DATA
309
CELLSTYLE_END
  0
XRECORD
  5
1B9
102
{ACAD_REACTORS
330
1B8
102
}
330
1B8
100
AcDbXrecord
280
     1
102
RTVSPost2010Prop28
280
     1
102
RTVSPost2010PropOp28
 70
     1
102
RTVSPost2010Prop29
280
     1
102
RTVSPost2010PropOp29
 70
     1
102
RTVSPost2010Prop30
280
     0
102
RTVSPost2010PropOp30
 70
     1
102
RTVSPost2010Prop31
280
     0
102
RTVSPost2010PropOp31
 70
     1
102
RTVSPost2010Prop32
280
     0
102
RTVSPost2010PropOp32
 70
     1
102
RTVSPost2010Prop33
280
     0
102
RTVSPost2010PropOp33
 70
     1
102
RTVSPost2010Prop34
280
     0
102
RTVSPost2010PropOp34
 70
     1
102
RTVSPost2010Prop35
280
     0
102
RTVSPost2010PropOp35
 70
     1
102
RTVSPost2010Prop36
280
     0
102
RTVSPost2010PropOp36
 70
     1
102
RTVSPost2010Prop37
 90
       50
102
RTVSPost2010PropOp37
 70
     1
102
RTVSPost2010Prop38
140
0.0
102
RTVSPost2010PropOp38
 70
     1
102
RTVSPost2010Prop39
140
1.0
102
RTVSPost2010PropOp39
 70
     1
102
RTVSPost2010Prop40
 90
        0
102
RTVSPost2010PropOp40
 70
     1
102
RTVSPost2010Prop41ColorIndex
 90
       18
102
RTVSPost2010Prop41ColorRGB
 90
        0
102
RTVSPost2010PropOp41
 70
     1
102
RTVSPost2010Prop42
 90
       50
102
RTVSPost2010PropOp42
 70
     1
102
RTVSPost2010Prop43
 90
        3
102
RTVSPost2010PropOp43
 70
     1
102
RTVSPost2010Prop44ColorIndex
 90
        5
102
RTVSPost2010Prop44ColorRGB
 90
      255
102
RTVSPost2010PropOp44
 70
     1
102
RTVSPost2010Prop45
280
     0
102
RTVSPost2010PropOp45
 70
     1
102
RTVSPost2010Prop46
 90
       50
102
RTVSPost2010PropOp46
 70
     1
102
RTVSPost2010Prop47
 90
       50
102
RTVSPost2010PropOp47
 70
     1
102
RTVSPost2010Prop48
 90
       50
102
RTVSPost2010PropOp48
 70
     1
102
RTVSPost2010Prop49
280
     0
102
RTVSPost2010PropOp49
 70
     1
102
RTVSPost2010Prop50
 90
       50
102
RTVSPost2010PropOp50
 70
     1
102
RTVSPost2010Prop51ColorIndex
 90
      256
102
RTVSPost2010Prop51ColorRGB
 90
-16777216
102
RTVSPost2010PropOp51
 70
     0
102
RTVSPost2010Prop52
140
1.0
102
RTVSPost2010PropOp52
 70
     0
102
RTVSPost2010Prop53
 90
        2
102
RTVSPost2010PropOp53
 70
     1
102
RTVSPost2010Prop54
  1
strokes_ogs.tif
102
RTVSPost2010PropOp54
 70
     1
102
RTVSPost2010Prop55
280
     0
102
RTVSPost2010PropOp55
 70
     1
102
RTVSPost2010Prop56
140
1.0
102
RTVSPost2010PropOp56
 70
     1
102
RTVSPost2010Prop57
140
1.0
102
RTVSPost2010PropOp57
 70
     1
  0
XRECORD
  5
1B7
102
{ACAD_REACTORS
330
1B6
102
}
330
1B6
100
AcDbXrecord
280
     1
102
RTVSPost2010Prop28
280
     0
102
RTVSPost2010PropOp28
 70
     1
102
RTVSPost2010Prop29
280
     1
102
RTVSPost2010PropOp29
 70
     1
102
RTVSPost2010Prop30
280
     1
102
RTVSPost2010PropOp30
 70
     1
102
RTVSPost2010Prop31
280
     0
102
RTVSPost2010PropOp31
 70
     1
102
RTVSPost2010Prop32
280
     0
102
RTVSPost2010PropOp32
 70
     1
102
RTVSPost2010Prop33
280
     0
102
RTVSPost2010PropOp33
 70
     1
102
RTVSPost2010Prop34
280
     0
102
RTVSPost2010PropOp34
 70
     1
102
RTVSPost2010Prop35
280
     0
102
RTVSPost2010PropOp35
 70
     1
102
RTVSPost2010Prop36
280
     0
102
RTVSPost2010PropOp36
 70
     1
102
RTVSPost2010Prop37
 90
       50
102
RTVSPost2010PropOp37
 70
     1
102
RTVSPost2010Prop38
140
0.0
102
RTVSPost2010PropOp38
 70
     1
102
RTVSPost2010Prop39
140
1.0
102
RTVSPost2010PropOp39
 70
     1
102
RTVSPost2010Prop40
 90
        0
102
RTVSPost2010PropOp40
 70
     1
102
RTVSPost2010Prop41ColorIndex
 90
       18
102
RTVSPost2010Prop41ColorRGB
 90
        0
102
RTVSPost2010PropOp41
 70
     1
102
RTVSPost2010Prop42
 90
       50
102
RTVSPost2010PropOp42
 70
     1
102
RTVSPost2010Prop43
 90
        3
102
RTVSPost2010PropOp43
 70
     1
102
RTVSPost2010Prop44ColorIndex
 90
        5
102
RTVSPost2010Prop44ColorRGB
 90
      255
102
RTVSPost2010PropOp44
 70
     1
102
RTVSPost2010Prop45
280
     0
102
RTVSPost2010PropOp45
 70
     1
102
RTVSPost2010Prop46
 90
       50
102
RTVSPost2010PropOp46
 70
     1
102
RTVSPost2010Prop47
 90
       50
102
RTVSPost2010PropOp47
 70
     1
102
RTVSPost2010Prop48
 90
       50
102
RTVSPost2010PropOp48
 70
     1
102
RTVSPost2010Prop49
280
     0
102
RTVSPost2010PropOp49
 70
     1
102
RTVSPost2010Prop50
 90
       50
102
RTVSPost2010PropOp50
 70
     1
102
RTVSPost2010Prop51ColorIndex
 90
      256
102
RTVSPost2010Prop51ColorRGB
 90
-16777216
102
RTVSPost2010PropOp51
 70
     0
102
RTVSPost2010Prop52
140
1.0
102
RTVSPost2010PropOp52
 70
     0
102
RTVSPost2010Prop53
 90
        2
102
RTVSPost2010PropOp53
 70
     1
102
RTVSPost2010Prop54
  1
strokes_ogs.tif
102
RTVSPost2010PropOp54
 70
     1
102
RTVSPost2010Prop55
280
     0
102
RTVSPost2010PropOp55
 70
     1
102
RTVSPost2010Prop56
140
1.0
102
RTVSPost2010PropOp56
 70
     1
102
RTVSPost2010Prop57
140
1.0
102
RTVSPost2010PropOp57
 70
     1
  0
XRECORD
  5
1C5
102
{ACAD_REACTORS
330
1C4
102
}
330
1C4
100
AcDbXrecord
280
     1
102
RTVSPost2010Prop28
280
     0
102
RTVSPost2010PropOp28
 70
     1
102
RTVSPost2010Prop29
280
     1
102
RTVSPost2010PropOp29
 70
     1
102
RTVSPost2010Prop30
280
     1
102
RTVSPost2010PropOp30
 70
     1
102
RTVSPost2010Prop31
280
     0
102
RTVSPost2010PropOp31
 70
     1
102
RTVSPost2010Prop32
280
     0
102
RTVSPost2010PropOp32
 70
     1
102
RTVSPost2010Prop33
280
     0
102
RTVSPost2010PropOp33
 70
     1
102
RTVSPost2010Prop34
280
     0
102
RTVSPost2010PropOp34
 70
     1
102
RTVSPost2010Prop35
280
     0
102
RTVSPost2010PropOp35
 70
     1
102
RTVSPost2010Prop36
280
     0
102
RTVSPost2010PropOp36
 70
     1
102
RTVSPost2010Prop37
 90
       50
102
RTVSPost2010PropOp37
 70
     1
102
RTVSPost2010Prop38
140
0.0
102
RTVSPost2010PropOp38
 70
     1
102
RTVSPost2010Prop39
140
1.0
102
RTVSPost2010PropOp39
 70
     1
102
RTVSPost2010Prop40
 90
        0
102
RTVSPost2010PropOp40
 70
     1
102
RTVSPost2010Prop41ColorIndex
 90
       18
102
RTVSPost2010Prop41ColorRGB
 90
        0
102
RTVSPost2010PropOp41
 70
     1
102
RTVSPost2010Prop42
 90
       50
102
RTVSPost2010PropOp42
 70
     1
102
RTVSPost2010Prop43
 90
        3
102
RTVSPost2010PropOp43
 70
     1
102
RTVSPost2010Prop44ColorIndex
 90
        5
102
RTVSPost2010Prop44ColorRGB
 90
      255
102
RTVSPost2010PropOp44
 70
     1
102
RTVSPost2010Prop45
280
     0
102
RTVSPost2010PropOp45
 70
     1
102
RTVSPost2010Prop46
 90
       50
102
RTVSPost2010PropOp46
 70
     1
102
RTVSPost2010Prop47
 90
       50
102
RTVSPost2010PropOp47
 70
     1
102
RTVSPost2010Prop48
 90
       50
102
RTVSPost2010PropOp48
 70
     1
102
RTVSPost2010Prop49
280
     0
102
RTVSPost2010PropOp49
 70
     1
102
RTVSPost2010Prop50
 90
       50
102
RTVSPost2010PropOp50
 70
     1
102
RTVSPost2010Prop51ColorIndex
 90
      256
102
RTVSPost2010Prop51ColorRGB
 90
-16777216
102
RTVSPost2010PropOp51
 70
     0
102
RTVSPost2010Prop52
140
1.0
102
RTVSPost2010PropOp52
 70
     0
102
RTVSPost2010Prop53
 90
        2
102
RTVSPost2010PropOp53
 70
     1
102
RTVSPost2010Prop54
  1
strokes_ogs.tif
102
RTVSPost2010PropOp54
 70
     1
102
RTVSPost2010Prop55
280
     0
102
RTVSPost2010PropOp55
 70
     1
102
RTVSPost2010Prop56
140
1.0
102
RTVSPost2010PropOp56
 70
     1
102
RTVSPost2010Prop57
140
1.0
102
RTVSPost2010PropOp57
 70
     1
  0
XRECORD
  5
1CD
102
{ACAD_REACTORS
330
1CC
102
}
330
1CC
100
AcDbXrecord
280
     1
102
RTVSPost2010Prop28
280
     0
102
RTVSPost2010PropOp28
 70
     1
102
RTVSPost2010Prop29
280
     1
102
RTVSPost2010PropOp29
 70
     1
102
RTVSPost2010Prop30
280
     1
102
RTVSPost2010PropOp30
 70
     1
102
RTVSPost2010Prop31
280
     0
102
RTVSPost2010PropOp31
 70
     1
102
RTVSPost2010Prop32
280
     0
102
RTVSPost2010PropOp32
 70
     1
102
RTVSPost2010Prop33
280
     0
102
RTVSPost2010PropOp33
 70
     1
102
RTVSPost2010Prop34
280
     0
102
RTVSPost2010PropOp34
 70
     1
102
RTVSPost2010Prop35
280
     0
102
RTVSPost2010PropOp35
 70
     1
102
RTVSPost2010Prop36
280
     0
102
RTVSPost2010PropOp36
 70
     1
102
RTVSPost2010Prop37
 90
       50
102
RTVSPost2010PropOp37
 70
     1
102
RTVSPost2010Prop38
140
0.0
102
RTVSPost2010PropOp38
 70
     1
102
RTVSPost2010Prop39
140
1.0
102
RTVSPost2010PropOp39
 70
     1
102
RTVSPost2010Prop40
 90
        0
102
RTVSPost2010PropOp40
 70
     1
102
RTVSPost2010Prop41ColorIndex
 90
       18
102
RTVSPost2010Prop41ColorRGB
 90
        0
102
RTVSPost2010PropOp41
 70
     1
102
RTVSPost2010Prop42
 90
       50
102
RTVSPost2010PropOp42
 70
     1
102
RTVSPost2010Prop43
 90
        3
102
RTVSPost2010PropOp43
 70
     1
102
RTVSPost2010Prop44ColorIndex
 90
        5
102
RTVSPost2010Prop44ColorRGB
 90
      255
102
RTVSPost2010PropOp44
 70
     1
102
RTVSPost2010Prop45
280
     0
102
RTVSPost2010PropOp45
 70
     1
102
RTVSPost2010Prop46
 90
       50
102
RTVSPost2010PropOp46
 70
     1
102
RTVSPost2010Prop47
 90
       50
102
RTVSPost2010PropOp47
 70
     1
102
RTVSPost2010Prop48
 90
       50
102
RTVSPost2010PropOp48
 70
     1
102
RTVSPost2010Prop49
280
     0
102
RTVSPost2010PropOp49
 70
     1
102
RTVSPost2010Prop50
 90
       50
102
RTVSPost2010PropOp50
 70
     1
102
RTVSPost2010Prop51ColorIndex
 90
      256
102
RTVSPost2010Prop51ColorRGB
 90
-16777216
102
RTVSPost2010PropOp51
 70
     0
102
RTVSPost2010Prop52
140
1.0
102
RTVSPost2010PropOp52
 70
     0
102
RTVSPost2010Prop53
 90
        2
102
RTVSPost2010PropOp53
 70
     1
102
RTVSPost2010Prop54
  1
strokes_ogs.tif
102
RTVSPost2010PropOp54
 70
     1
102
RTVSPost2010Prop55
280
     0
102
RTVSPost2010PropOp55
 70
     1
102
RTVSPost2010Prop56
140
1.0
102
RTVSPost2010PropOp56
 70
     1
102
RTVSPost2010Prop57
140
1.0
102
RTVSPost2010PropOp57
 70
     1
  0
XRECORD
  5
1BF
102
{ACAD_REACTORS
330
1BE
102
}
330
1BE
100
AcDbXrecord
280
     1
102
RTVSPost2010Prop28
280
     0
102
RTVSPost2010PropOp28
 70
     1
102
RTVSPost2010Prop29
280
     1
102
RTVSPost2010PropOp29
 70
     1
102
RTVSPost2010Prop30
280
     1
102
RTVSPost2010PropOp30
 70
     1
102
RTVSPost2010Prop31
280
     0
102
RTVSPost2010PropOp31
 70
     1
102
RTVSPost2010Prop32
280
     0
102
RTVSPost2010PropOp32
 70
     1
102
RTVSPost2010Prop33
280
     0
102
RTVSPost2010PropOp33
 70
     1
102
RTVSPost2010Prop34
280
     0
102
RTVSPost2010PropOp34
 70
     1
102
RTVSPost2010Prop35
280
     0
102
RTVSPost2010PropOp35
 70
     1
102
RTVSPost2010Prop36
280
     0
102
RTVSPost2010PropOp36
 70
     1
102
RTVSPost2010Prop37
 90
       50
102
RTVSPost2010PropOp37
 70
     1
102
RTVSPost2010Prop38
140
0.0
102
RTVSPost2010PropOp38
 70
     1
102
RTVSPost2010Prop39
140
1.0
102
RTVSPost2010PropOp39
 70
     1
102
RTVSPost2010Prop40
 90
        0
102
RTVSPost2010PropOp40
 70
     1
102
RTVSPost2010Prop41ColorIndex
 90
       18
102
RTVSPost2010Prop41ColorRGB
 90
        0
102
RTVSPost2010PropOp41
 70
     1
102
RTVSPost2010Prop42
 90
       50
102
RTVSPost2010PropOp42
 70
     1
102
RTVSPost2010Prop43
 90
        3
102
RTVSPost2010PropOp43
 70
     1
102
RTVSPost2010Prop44ColorIndex
 90
        5
102
RTVSPost2010Prop44ColorRGB
 90
      255
102
RTVSPost2010PropOp44
 70
     1
102
RTVSPost2010Prop45
280
     0
102
RTVSPost2010PropOp45
 70
     1
102
RTVSPost2010Prop46
 90
       50
102
RTVSPost2010PropOp46
 70
     1
102
RTVSPost2010Prop47
 90
       50
102
RTVSPost2010PropOp47
 70
     1
102
RTVSPost2010Prop48
 90
       50
102
RTVSPost2010PropOp48
 70
     1
102
RTVSPost2010Prop49
280
     0
102
RTVSPost2010PropOp49
 70
     1
102
RTVSPost2010Prop50
 90
       50
102
RTVSPost2010PropOp50
 70
     1
102
RTVSPost2010Prop51ColorIndex
 90
      256
102
RTVSPost2010Prop51ColorRGB
 90
-16777216
102
RTVSPost2010PropOp51
 70
     0
102
RTVSPost2010Prop52
140
1.0
102
RTVSPost2010PropOp52
 70
     0
102
RTVSPost2010Prop53
 90
        2
102
RTVSPost2010PropOp53
 70
     1
102
RTVSPost2010Prop54
  1
strokes_ogs.tif
102
RTVSPost2010PropOp54
 70
     1
102
RTVSPost2010Prop55
280
     0
102
RTVSPost2010PropOp55
 70
     1
102
RTVSPost2010Prop56
140
1.0
102
RTVSPost2010PropOp56
 70
     1
102
RTVSPost2010Prop57
140
1.0
102
RTVSPost2010PropOp57
 70
     1
  0
XRECORD
  5
1C3
102
{ACAD_REACTORS
330
1C2
102
}
330
1C2
100
AcDbXrecord
280
     1
102
RTVSPost2010Prop28
280
     0
102
RTVSPost2010PropOp28
 70
     1
102
RTVSPost2010Prop29
280
     1
102
RTVSPost2010PropOp29
 70
     1
102
RTVSPost2010Prop30
280
     1
102
RTVSPost2010PropOp30
 70
     1
102
RTVSPost2010Prop31
280
     0
102
RTVSPost2010PropOp31
 70
     1
102
RTVSPost2010Prop32
280
     0
102
RTVSPost2010PropOp32
 70
     1
102
RTVSPost2010Prop33
280
     0
102
RTVSPost2010PropOp33
 70
     1
102
RTVSPost2010Prop34
280
     0
102
RTVSPost2010PropOp34
 70
     1
102
RTVSPost2010Prop35
280
     0
102
RTVSPost2010PropOp35
 70
     1
102
RTVSPost2010Prop36
280
     0
102
RTVSPost2010PropOp36
 70
     1
102
RTVSPost2010Prop37
 90
       50
102
RTVSPost2010PropOp37
 70
     1
102
RTVSPost2010Prop38
140
0.0
102
RTVSPost2010PropOp38
 70
     1
102
RTVSPost2010Prop39
140
1.0
102
RTVSPost2010PropOp39
 70
     1
102
RTVSPost2010Prop40
 90
        0
102
RTVSPost2010PropOp40
 70
     1
102
RTVSPost2010Prop41ColorIndex
 90
       18
102
RTVSPost2010Prop41ColorRGB
 90
        0
102
RTVSPost2010PropOp41
 70
     1
102
RTVSPost2010Prop42
 90
       50
102
RTVSPost2010PropOp42
 70
     1
102
RTVSPost2010Prop43
 90
        3
102
RTVSPost2010PropOp43
 70
     1
102
RTVSPost2010Prop44ColorIndex
 90
        5
102
RTVSPost2010Prop44ColorRGB
 90
      255
102
RTVSPost2010PropOp44
 70
     1
102
RTVSPost2010Prop45
280
     0
102
RTVSPost2010PropOp45
 70
     1
102
RTVSPost2010Prop46
 90
       50
102
RTVSPost2010PropOp46
 70
     1
102
RTVSPost2010Prop47
 90
       50
102
RTVSPost2010PropOp47
 70
     1
102
RTVSPost2010Prop48
 90
       50
102
RTVSPost2010PropOp48
 70
     1
102
RTVSPost2010Prop49
280
     0
102
RTVSPost2010PropOp49
 70
     1
102
RTVSPost2010Prop50
 90
       50
102
RTVSPost2010PropOp50
 70
     1
102
RTVSPost2010Prop51ColorIndex
 90
      256
102
RTVSPost2010Prop51ColorRGB
 90
-16777216
102
RTVSPost2010PropOp51
 70
     0
102
RTVSPost2010Prop52
140
1.0
102
RTVSPost2010PropOp52
 70
     0
102
RTVSPost2010Prop53
 90
        2
102
RTVSPost2010PropOp53
 70
     1
102
RTVSPost2010Prop54
  1
strokes_ogs.tif
102
RTVSPost2010PropOp54
 70
     1
102
RTVSPost2010Prop55
280
     0
102
RTVSPost2010PropOp55
 70
     1
102
RTVSPost2010Prop56
140
1.0
102
RTVSPost2010PropOp56
 70
     1
102
RTVSPost2010Prop57
140
1.0
102
RTVSPost2010PropOp57
 70
     1
  0
XRECORD
  5
1DD
102
{ACAD_REACTORS
330
1DC
102
}
330
1DC
100
AcDbXrecord
280
     1
102
RTVSPost2010Prop28
280
     0
102
RTVSPost2010PropOp28
 70
     0
102
RTVSPost2010Prop29
280
     1
102
RTVSPost2010PropOp29
 70
     0
102
RTVSPost2010Prop30
280
     1
102
RTVSPost2010PropOp30
 70
     0
102
RTVSPost2010Prop31
280
     0
102
RTVSPost2010PropOp31
 70
     0
102
RTVSPost2010Prop32
280
     0
102
RTVSPost2010PropOp32
 70
     0
102
RTVSPost2010Prop33
280
     0
102
RTVSPost2010PropOp33
 70
     0
102
RTVSPost2010Prop34
280
     0
102
RTVSPost2010PropOp34
 70
     0
102
RTVSPost2010Prop35
280
     0
102
RTVSPost2010PropOp35
 70
     0
102
RTVSPost2010Prop36
280
     0
102
RTVSPost2010PropOp36
 70
     0
102
RTVSPost2010Prop37
 90
       50
102
RTVSPost2010PropOp37
 70
     0
102
RTVSPost2010Prop38
140
0.0
102
RTVSPost2010PropOp38
 70
     0
102
RTVSPost2010Prop39
140
1.0
102
RTVSPost2010PropOp39
 70
     0
102
RTVSPost2010Prop40
 90
        0
102
RTVSPost2010PropOp40
 70
     0
102
RTVSPost2010Prop41ColorIndex
 90
       18
102
RTVSPost2010Prop41ColorRGB
 90
        0
102
RTVSPost2010PropOp41
 70
     0
102
RTVSPost2010Prop42
 90
       50
102
RTVSPost2010PropOp42
 70
     0
102
RTVSPost2010Prop43
 90
        3
102
RTVSPost2010PropOp43
 70
     0
102
RTVSPost2010Prop44ColorIndex
 90
        5
102
RTVSPost2010Prop44ColorRGB
 90
      255
102
RTVSPost2010PropOp44
 70
     0
102
RTVSPost2010Prop45
280
     0
102
RTVSPost2010PropOp45
 70
     0
102
RTVSPost2010Prop46
 90
       50
102
RTVSPost2010PropOp46
 70
     0
102
RTVSPost2010Prop47
 90
       50
102
RTVSPost2010PropOp47
 70
     0
102
RTVSPost2010Prop48
 90
       50
102
RTVSPost2010PropOp48
 70
     0
102
RTVSPost2010Prop49
280
     0
102
RTVSPost2010PropOp49
 70
     0
102
RTVSPost2010Prop50
 90
       50
102
RTVSPost2010PropOp50
 70
     0
102
RTVSPost2010Prop51ColorIndex
 90
      256
102
RTVSPost2010Prop51ColorRGB
 90
-16777216
102
RTVSPost2010PropOp51
 70
     0
102
RTVSPost2010Prop52
140
1.0
102
RTVSPost2010PropOp52
 70
     0
102
RTVSPost2010Prop53
 90
        2
102
RTVSPost2010PropOp53
 70
     0
102
RTVSPost2010Prop54
  1
strokes_ogs.tif
102
RTVSPost2010PropOp54
 70
     0
102
RTVSPost2010Prop55
280
     0
102
RTVSPost2010PropOp55
 70
     0
102
RTVSPost2010Prop56
140
1.0
102
RTVSPost2010PropOp56
 70
     0
102
RTVSPost2010Prop57
140
1.0
102
RTVSPost2010PropOp57
 70
     0
  0
XRECORD
  5
1CB
102
{ACAD_REACTORS
330
1CA
102
}
330
1CA
100
AcDbXrecord
280
     1
102
RTVSPost2010Prop28
280
     0
102
RTVSPost2010PropOp28
 70
     1
102
RTVSPost2010Prop29
280
     1
102
RTVSPost2010PropOp29
 70
     1
102
RTVSPost2010Prop30
280
     1
102
RTVSPost2010PropOp30
 70
     1
102
RTVSPost2010Prop31
280
     0
102
RTVSPost2010PropOp31
 70
     1
102
RTVSPost2010Prop32
280
     0
102
RTVSPost2010PropOp32
 70
     1
102
RTVSPost2010Prop33
280
     0
102
RTVSPost2010PropOp33
 70
     1
102
RTVSPost2010Prop34
280
     0
102
RTVSPost2010PropOp34
 70
     1
102
RTVSPost2010Prop35
280
     0
102
RTVSPost2010PropOp35
 70
     1
102
RTVSPost2010Prop36
280
     0
102
RTVSPost2010PropOp36
 70
     1
102
RTVSPost2010Prop37
 90
       50
102
RTVSPost2010PropOp37
 70
     1
102
RTVSPost2010Prop38
140
0.0
102
RTVSPost2010PropOp38
 70
     1
102
RTVSPost2010Prop39
140
1.0
102
RTVSPost2010PropOp39
 70
     1
102
RTVSPost2010Prop40
 90
        0
102
RTVSPost2010PropOp40
 70
     1
102
RTVSPost2010Prop41ColorIndex
 90
       18
102
RTVSPost2010Prop41ColorRGB
 90
        0
102
RTVSPost2010PropOp41
 70
     1
102
RTVSPost2010Prop42
 90
       50
102
RTVSPost2010PropOp42
 70
     1
102
RTVSPost2010Prop43
 90
        3
102
RTVSPost2010PropOp43
 70
     1
102
RTVSPost2010Prop44ColorIndex
 90
        5
102
RTVSPost2010Prop44ColorRGB
 90
      255
102
RTVSPost2010PropOp44
 70
     1
102
RTVSPost2010Prop45
280
     0
102
RTVSPost2010PropOp45
 70
     1
102
RTVSPost2010Prop46
 90
       50
102
RTVSPost2010PropOp46
 70
     1
102
RTVSPost2010Prop47
 90
       50
102
RTVSPost2010PropOp47
 70
     1
102
RTVSPost2010Prop48
 90
       50
102
RTVSPost2010PropOp48
 70
     1
102
RTVSPost2010Prop49
280
     0
102
RTVSPost2010PropOp49
 70
     1
102
RTVSPost2010Prop50
 90
       50
102
RTVSPost2010PropOp50
 70
     1
102
RTVSPost2010Prop51ColorIndex
 90
      256
102
RTVSPost2010Prop51ColorRGB
 90
-16777216
102
RTVSPost2010PropOp51
 70
     0
102
RTVSPost2010Prop52
140
1.0
102
RTVSPost2010PropOp52
 70
     0
102
RTVSPost2010Prop53
 90
        2
102
RTVSPost2010PropOp53
 70
     1
102
RTVSPost2010Prop54
  1
strokes_ogs.tif
102
RTVSPost2010PropOp54
 70
     1
102
RTVSPost2010Prop55
280
     0
102
RTVSPost2010PropOp55
 70
     1
102
RTVSPost2010Prop56
140
1.0
102
RTVSPost2010PropOp56
 70
     1
102
RTVSPost2010Prop57
140
1.0
102
RTVSPost2010PropOp57
 70
     1
  0
XRECORD
  5
1AF
102
{ACAD_REACTORS
330
1AE
102
}
330
1AE
100
AcDbXrecord
280
     1
102
RTVSPost2010Prop28
280
     0
102
RTVSPost2010PropOp28
 70
     1
102
RTVSPost2010Prop29
280
     1
102
RTVSPost2010PropOp29
 70
     1
102
RTVSPost2010Prop30
280
     1
102
RTVSPost2010PropOp30
 70
     1
102
RTVSPost2010Prop31
280
     0
102
RTVSPost2010PropOp31
 70
     1
102
RTVSPost2010Prop32
280
     0
102
RTVSPost2010PropOp32
 70
     1
102
RTVSPost2010Prop33
280
     0
102
RTVSPost2010PropOp33
 70
     1
102
RTVSPost2010Prop34
280
     0
102
RTVSPost2010PropOp34
 70
     1
102
RTVSPost2010Prop35
280
     0
102
RTVSPost2010PropOp35
 70
     1
102
RTVSPost2010Prop36
280
     0
102
RTVSPost2010PropOp36
 70
     1
102
RTVSPost2010Prop37
 90
       50
102
RTVSPost2010PropOp37
 70
     1
102
RTVSPost2010Prop38
140
0.0
102
RTVSPost2010PropOp38
 70
     1
102
RTVSPost2010Prop39
140
1.0
102
RTVSPost2010PropOp39
 70
     1
102
RTVSPost2010Prop40
 90
        0
102
RTVSPost2010PropOp40
 70
     1
102
RTVSPost2010Prop41ColorIndex
 90
       18
102
RTVSPost2010Prop41ColorRGB
 90
        0
102
RTVSPost2010PropOp41
 70
     1
102
RTVSPost2010Prop42
 90
       50
102
RTVSPost2010PropOp42
 70
     1
102
RTVSPost2010Prop43
 90
        3
102
RTVSPost2010PropOp43
 70
     1
102
RTVSPost2010Prop44ColorIndex
 90
        5
102
RTVSPost2010Prop44ColorRGB
 90
      255
102
RTVSPost2010PropOp44
 70
     1
102
RTVSPost2010Prop45
280
     0
102
RTVSPost2010PropOp45
 70
     1
102
RTVSPost2010Prop46
 90
       50
102
RTVSPost2010PropOp46
 70
     1
102
RTVSPost2010Prop47
 90
       50
102
RTVSPost2010PropOp47
 70
     1
102
RTVSPost2010Prop48
 90
       50
102
RTVSPost2010PropOp48
 70
     1
102
RTVSPost2010Prop49
280
     0
102
RTVSPost2010PropOp49
 70
     1
102
RTVSPost2010Prop50
 90
       50
102
RTVSPost2010PropOp50
 70
     1
102
RTVSPost2010Prop51ColorIndex
 90
      256
102
RTVSPost2010Prop51ColorRGB
 90
-16777216
102
RTVSPost2010PropOp51
 70
     0
102
RTVSPost2010Prop52
140
1.0
102
RTVSPost2010PropOp52
 70
     0
102
RTVSPost2010Prop53
 90
        2
102
RTVSPost2010PropOp53
 70
     1
102
RTVSPost2010Prop54
  1
strokes_ogs.tif
102
RTVSPost2010PropOp54
 70
     1
102
RTVSPost2010Prop55
280
     0
102
RTVSPost2010PropOp55
 70
     1
102
RTVSPost2010Prop56
140
1.0
102
RTVSPost2010PropOp56
 70
     1
102
RTVSPost2010Prop57
140
1.0
102
RTVSPost2010PropOp57
 70
     1
  0
XRECORD
  5
1B1
102
{ACAD_REACTORS
330
1B0
102
}
330
1B0
100
AcDbXrecord
280
     1
102
RTVSPost2010Prop28
280
     0
102
RTVSPost2010PropOp28
 70
     1
102
RTVSPost2010Prop29
280
     1
102
RTVSPost2010PropOp29
 70
     1
102
RTVSPost2010Prop30
280
     1
102
RTVSPost2010PropOp30
 70
     1
102
RTVSPost2010Prop31
280
     0
102
RTVSPost2010PropOp31
 70
     1
102
RTVSPost2010Prop32
280
     0
102
RTVSPost2010PropOp32
 70
     1
102
RTVSPost2010Prop33
280
     0
102
RTVSPost2010PropOp33
 70
     1
102
RTVSPost2010Prop34
280
     0
102
RTVSPost2010PropOp34
 70
     1
102
RTVSPost2010Prop35
280
     0
102
RTVSPost2010PropOp35
 70
     1
102
RTVSPost2010Prop36
280
     0
102
RTVSPost2010PropOp36
 70
     1
102
RTVSPost2010Prop37
 90
       50
102
RTVSPost2010PropOp37
 70
     1
102
RTVSPost2010Prop38
140
0.0
102
RTVSPost2010PropOp38
 70
     1
102
RTVSPost2010Prop39
140
1.0
102
RTVSPost2010PropOp39
 70
     1
102
RTVSPost2010Prop40
 90
        0
102
RTVSPost2010PropOp40
 70
     1
102
RTVSPost2010Prop41ColorIndex
 90
       18
102
RTVSPost2010Prop41ColorRGB
 90
        0
102
RTVSPost2010PropOp41
 70
     1
102
RTVSPost2010Prop42
 90
       50
102
RTVSPost2010PropOp42
 70
     1
102
RTVSPost2010Prop43
 90
        3
102
RTVSPost2010PropOp43
 70
     1
102
RTVSPost2010Prop44ColorIndex
 90
        5
102
RTVSPost2010Prop44ColorRGB
 90
      255
102
RTVSPost2010PropOp44
 70
     1
102
RTVSPost2010Prop45
280
     0
102
RTVSPost2010PropOp45
 70
     1
102
RTVSPost2010Prop46
 90
       50
102
RTVSPost2010PropOp46
 70
     1
102
RTVSPost2010Prop47
 90
       50
102
RTVSPost2010PropOp47
 70
     1
102
RTVSPost2010Prop48
 90
       50
102
RTVSPost2010PropOp48
 70
     1
102
RTVSPost2010Prop49
280
     0
102
RTVSPost2010PropOp49
 70
     1
102
RTVSPost2010Prop50
 90
       50
102
RTVSPost2010PropOp50
 70
     1
102
RTVSPost2010Prop51ColorIndex
 90
      256
102
RTVSPost2010Prop51ColorRGB
 90
-16777216
102
RTVSPost2010PropOp51
 70
     0
102
RTVSPost2010Prop52
140
1.0
102
RTVSPost2010PropOp52
 70
     0
102
RTVSPost2010Prop53
 90
        2
102
RTVSPost2010PropOp53
 70
     1
102
RTVSPost2010Prop54
  1
strokes_ogs.tif
102
RTVSPost2010PropOp54
 70
     1
102
RTVSPost2010Prop55
280
     0
102
RTVSPost2010PropOp55
 70
     1
102
RTVSPost2010Prop56
140
1.0
102
RTVSPost2010PropOp56
 70
     1
102
RTVSPost2010Prop57
140
1.0
102
RTVSPost2010PropOp57
 70
     1
  0
XRECORD
  5
1B3
102
{ACAD_REACTORS
330
1B2
102
}
330
1B2
100
AcDbXrecord
280
     1
102
RTVSPost2010Prop28
280
     0
102
RTVSPost2010PropOp28
 70
     1
102
RTVSPost2010Prop29
280
     1
102
RTVSPost2010PropOp29
 70
     1
102
RTVSPost2010Prop30
280
     1
102
RTVSPost2010PropOp30
 70
     1
102
RTVSPost2010Prop31
280
     0
102
RTVSPost2010PropOp31
 70
     1
102
RTVSPost2010Prop32
280
     0
102
RTVSPost2010PropOp32
 70
     1
102
RTVSPost2010Prop33
280
     0
102
RTVSPost2010PropOp33
 70
     1
102
RTVSPost2010Prop34
280
     0
102
RTVSPost2010PropOp34
 70
     1
102
RTVSPost2010Prop35
280
     0
102
RTVSPost2010PropOp35
 70
     1
102
RTVSPost2010Prop36
280
     0
102
RTVSPost2010PropOp36
 70
     1
102
RTVSPost2010Prop37
 90
       50
102
RTVSPost2010PropOp37
 70
     1
102
RTVSPost2010Prop38
140
0.0
102
RTVSPost2010PropOp38
 70
     1
102
RTVSPost2010Prop39
140
1.0
102
RTVSPost2010PropOp39
 70
     1
102
RTVSPost2010Prop40
 90
        0
102
RTVSPost2010PropOp40
 70
     1
102
RTVSPost2010Prop41ColorIndex
 90
       18
102
RTVSPost2010Prop41ColorRGB
 90
        0
102
RTVSPost2010PropOp41
 70
     1
102
RTVSPost2010Prop42
 90
       50
102
RTVSPost2010PropOp42
 70
     1
102
RTVSPost2010Prop43
 90
        3
102
RTVSPost2010PropOp43
 70
     1
102
RTVSPost2010Prop44ColorIndex
 90
        5
102
RTVSPost2010Prop44ColorRGB
 90
      255
102
RTVSPost2010PropOp44
 70
     1
102
RTVSPost2010Prop45
280
     0
102
RTVSPost2010PropOp45
 70
     1
102
RTVSPost2010Prop46
 90
       50
102
RTVSPost2010PropOp46
 70
     1
102
RTVSPost2010Prop47
 90
       50
102
RTVSPost2010PropOp47
 70
     1
102
RTVSPost2010Prop48
 90
       50
102
RTVSPost2010PropOp48
 70
     1
102
RTVSPost2010Prop49
280
     0
102
RTVSPost2010PropOp49
 70
     1
102
RTVSPost2010Prop50
 90
       50
102
RTVSPost2010PropOp50
 70
     1
102
RTVSPost2010Prop51ColorIndex
 90
      256
102
RTVSPost2010Prop51ColorRGB
 90
-16777216
102
RTVSPost2010PropOp51
 70
     0
102
RTVSPost2010Prop52
140
1.0
102
RTVSPost2010PropOp52
 70
     0
102
RTVSPost2010Prop53
 90
        2
102
RTVSPost2010PropOp53
 70
     1
102
RTVSPost2010Prop54
  1
strokes_ogs.tif
102
RTVSPost2010PropOp54
 70
     1
102
RTVSPost2010Prop55
280
     0
102
RTVSPost2010PropOp55
 70
     1
102
RTVSPost2010Prop56
140
1.0
102
RTVSPost2010PropOp56
 70
     1
102
RTVSPost2010Prop57
140
1.0
102
RTVSPost2010PropOp57
 70
     1
  0
XRECORD
  5
1B5
102
{ACAD_REACTORS
330
1B4
102
}
330
1B4
100
AcDbXrecord
280
     1
102
RTVSPost2010Prop28
280
     0
102
RTVSPost2010PropOp28
 70
     1
102
RTVSPost2010Prop29
280
     1
102
RTVSPost2010PropOp29
 70
     1
102
RTVSPost2010Prop30
280
     1
102
RTVSPost2010PropOp30
 70
     1
102
RTVSPost2010Prop31
280
     0
102
RTVSPost2010PropOp31
 70
     1
102
RTVSPost2010Prop32
280
     0
102
RTVSPost2010PropOp32
 70
     1
102
RTVSPost2010Prop33
280
     0
102
RTVSPost2010PropOp33
 70
     1
102
RTVSPost2010Prop34
280
     0
102
RTVSPost2010PropOp34
 70
     1
102
RTVSPost2010Prop35
280
     0
102
RTVSPost2010PropOp35
 70
     1
102
RTVSPost2010Prop36
280
     0
102
RTVSPost2010PropOp36
 70
     1
102
RTVSPost2010Prop37
 90
       50
102
RTVSPost2010PropOp37
 70
     1
102
RTVSPost2010Prop38
140
0.0
102
RTVSPost2010PropOp38
 70
     1
102
RTVSPost2010Prop39
140
1.0
102
RTVSPost2010PropOp39
 70
     1
102
RTVSPost2010Prop40
 90
        0
102
RTVSPost2010PropOp40
 70
     1
102
RTVSPost2010Prop41ColorIndex
 90
       18
102
RTVSPost2010Prop41ColorRGB
 90
        0
102
RTVSPost2010PropOp41
 70
     1
102
RTVSPost2010Prop42
 90
       50
102
RTVSPost2010PropOp42
 70
     1
102
RTVSPost2010Prop43
 90
        3
102
RTVSPost2010PropOp43
 70
     1
102
RTVSPost2010Prop44ColorIndex
 90
        5
102
RTVSPost2010Prop44ColorRGB
 90
      255
102
RTVSPost2010PropOp44
 70
     1
102
RTVSPost2010Prop45
280
     0
102
RTVSPost2010PropOp45
 70
     1
102
RTVSPost2010Prop46
 90
       50
102
RTVSPost2010PropOp46
 70
     1
102
RTVSPost2010Prop47
 90
       50
102
RTVSPost2010PropOp47
 70
     1
102
RTVSPost2010Prop48
 90
       50
102
RTVSPost2010PropOp48
 70
     1
102
RTVSPost2010Prop49
280
     0
102
RTVSPost2010PropOp49
 70
     1
102
RTVSPost2010Prop50
 90
       50
102
RTVSPost2010PropOp50
 70
     1
102
RTVSPost2010Prop51ColorIndex
 90
      256
102
RTVSPost2010Prop51ColorRGB
 90
-16777216
102
RTVSPost2010PropOp51
 70
     0
102
RTVSPost2010Prop52
140
1.0
102
RTVSPost2010PropOp52
 70
     0
102
RTVSPost2010Prop53
 90
        2
102
RTVSPost2010PropOp53
 70
     1
102
RTVSPost2010Prop54
  1
strokes_ogs.tif
102
RTVSPost2010PropOp54
 70
     1
102
RTVSPost2010Prop55
280
     0
102
RTVSPost2010PropOp55
 70
     1
102
RTVSPost2010Prop56
140
1.0
102
RTVSPost2010PropOp56
 70
     1
102
RTVSPost2010Prop57
140
1.0
102
RTVSPost2010PropOp57
 70
     1
  0
XRECORD
  5
1BD
102
{ACAD_REACTORS
330
1BC
102
}
330
1BC
100
AcDbXrecord
280
     1
102
RTVSPost2010Prop28
280
     0
102
RTVSPost2010PropOp28
 70
     1
102
RTVSPost2010Prop29
280
     1
102
RTVSPost2010PropOp29
 70
     1
102
RTVSPost2010Prop30
280
     1
102
RTVSPost2010PropOp30
 70
     1
102
RTVSPost2010Prop31
280
     0
102
RTVSPost2010PropOp31
 70
     1
102
RTVSPost2010Prop32
280
     0
102
RTVSPost2010PropOp32
 70
     1
102
RTVSPost2010Prop33
280
     0
102
RTVSPost2010PropOp33
 70
     1
102
RTVSPost2010Prop34
280
     0
102
RTVSPost2010PropOp34
 70
     1
102
RTVSPost2010Prop35
280
     0
102
RTVSPost2010PropOp35
 70
     1
102
RTVSPost2010Prop36
280
     0
102
RTVSPost2010PropOp36
 70
     1
102
RTVSPost2010Prop37
 90
       50
102
RTVSPost2010PropOp37
 70
     1
102
RTVSPost2010Prop38
140
0.0
102
RTVSPost2010PropOp38
 70
     1
102
RTVSPost2010Prop39
140
1.0
102
RTVSPost2010PropOp39
 70
     1
102
RTVSPost2010Prop40
 90
        0
102
RTVSPost2010PropOp40
 70
     1
102
RTVSPost2010Prop41ColorIndex
 90
       18
102
RTVSPost2010Prop41ColorRGB
 90
        0
102
RTVSPost2010PropOp41
 70
     1
102
RTVSPost2010Prop42
 90
       50
102
RTVSPost2010PropOp42
 70
     1
102
RTVSPost2010Prop43
 90
        3
102
RTVSPost2010PropOp43
 70
     1
102
RTVSPost2010Prop44ColorIndex
 90
        5
102
RTVSPost2010Prop44ColorRGB
 90
      255
102
RTVSPost2010PropOp44
 70
     1
102
RTVSPost2010Prop45
280
     0
102
RTVSPost2010PropOp45
 70
     1
102
RTVSPost2010Prop46
 90
       50
102
RTVSPost2010PropOp46
 70
     1
102
RTVSPost2010Prop47
 90
       50
102
RTVSPost2010PropOp47
 70
     1
102
RTVSPost2010Prop48
 90
       50
102
RTVSPost2010PropOp48
 70
     1
102
RTVSPost2010Prop49
280
     0
102
RTVSPost2010PropOp49
 70
     1
102
RTVSPost2010Prop50
 90
       50
102
RTVSPost2010PropOp50
 70
     1
102
RTVSPost2010Prop51ColorIndex
 90
      256
102
RTVSPost2010Prop51ColorRGB
 90
-16777216
102
RTVSPost2010PropOp51
 70
     0
102
RTVSPost2010Prop52
140
1.0
102
RTVSPost2010PropOp52
 70
     0
102
RTVSPost2010Prop53
 90
        2
102
RTVSPost2010PropOp53
 70
     1
102
RTVSPost2010Prop54
  1
strokes_ogs.tif
102
RTVSPost2010PropOp54
 70
     1
102
RTVSPost2010Prop55
280
     0
102
RTVSPost2010PropOp55
 70
     1
102
RTVSPost2010Prop56
140
1.0
102
RTVSPost2010PropOp56
 70
     1
102
RTVSPost2010Prop57
140
1.0
102
RTVSPost2010PropOp57
 70
     1
  0
XRECORD
  5
1D9
102
{ACAD_REACTORS
330
1D8
102
}
330
1D8
100
AcDbXrecord
280
     1
102
RTVSPost2010Prop28
280
     0
102
RTVSPost2010PropOp28
 70
     0
102
RTVSPost2010Prop29
280
     1
102
RTVSPost2010PropOp29
 70
     0
102
RTVSPost2010Prop30
280
     1
102
RTVSPost2010PropOp30
 70
     0
102
RTVSPost2010Prop31
280
     0
102
RTVSPost2010PropOp31
 70
     0
102
RTVSPost2010Prop32
280
     0
102
RTVSPost2010PropOp32
 70
     0
102
RTVSPost2010Prop33
280
     0
102
RTVSPost2010PropOp33
 70
     0
102
RTVSPost2010Prop34
280
     0
102
RTVSPost2010PropOp34
 70
     0
102
RTVSPost2010Prop35
280
     0
102
RTVSPost2010PropOp35
 70
     0
102
RTVSPost2010Prop36
280
     0
102
RTVSPost2010PropOp36
 70
     0
102
RTVSPost2010Prop37
 90
       50
102
RTVSPost2010PropOp37
 70
     0
102
RTVSPost2010Prop38
140
0.0
102
RTVSPost2010PropOp38
 70
     0
102
RTVSPost2010Prop39
140
1.0
102
RTVSPost2010PropOp39
 70
     0
102
RTVSPost2010Prop40
 90
        0
102
RTVSPost2010PropOp40
 70
     0
102
RTVSPost2010Prop41ColorIndex
 90
       18
102
RTVSPost2010Prop41ColorRGB
 90
        0
102
RTVSPost2010PropOp41
 70
     0
102
RTVSPost2010Prop42
 90
       50
102
RTVSPost2010PropOp42
 70
     0
102
RTVSPost2010Prop43
 90
        3
102
RTVSPost2010PropOp43
 70
     0
102
RTVSPost2010Prop44ColorIndex
 90
        5
102
RTVSPost2010Prop44ColorRGB
 90
      255
102
RTVSPost2010PropOp44
 70
     0
102
RTVSPost2010Prop45
280
     0
102
RTVSPost2010PropOp45
 70
     0
102
RTVSPost2010Prop46
 90
       50
102
RTVSPost2010PropOp46
 70
     0
102
RTVSPost2010Prop47
 90
       50
102
RTVSPost2010PropOp47
 70
     0
102
RTVSPost2010Prop48
 90
       50
102
RTVSPost2010PropOp48
 70
     0
102
RTVSPost2010Prop49
280
     0
102
RTVSPost2010PropOp49
 70
     0
102
RTVSPost2010Prop50
 90
       50
102
RTVSPost2010PropOp50
 70
     0
102
RTVSPost2010Prop51ColorIndex
 90
      256
102
RTVSPost2010Prop51ColorRGB
 90
-16777216
102
RTVSPost2010PropOp51
 70
     0
102
RTVSPost2010Prop52
140
1.0
102
RTVSPost2010PropOp52
 70
     0
102
RTVSPost2010Prop53
 90
        2
102
RTVSPost2010PropOp53
 70
     0
102
RTVSPost2010Prop54
  1
strokes_ogs.tif
102
RTVSPost2010PropOp54
 70
     0
102
RTVSPost2010Prop55
280
     0
102
RTVSPost2010PropOp55
 70
     0
102
RTVSPost2010Prop56
140
1.0
102
RTVSPost2010PropOp56
 70
     0
102
RTVSPost2010Prop57
140
1.0
102
RTVSPost2010PropOp57
 70
     0
  0
XRECORD
  5
1C9
102
{ACAD_REACTORS
330
1C8
102
}
330
1C8
100
AcDbXrecord
280
     1
102
RTVSPost2010Prop28
280
     0
102
RTVSPost2010PropOp28
 70
     1
102
RTVSPost2010Prop29
280
     1
102
RTVSPost2010PropOp29
 70
     1
102
RTVSPost2010Prop30
280
     1
102
RTVSPost2010PropOp30
 70
     1
102
RTVSPost2010Prop31
280
     0
102
RTVSPost2010PropOp31
 70
     1
102
RTVSPost2010Prop32
280
     0
102
RTVSPost2010PropOp32
 70
     1
102
RTVSPost2010Prop33
280
     0
102
RTVSPost2010PropOp33
 70
     1
102
RTVSPost2010Prop34
280
     0
102
RTVSPost2010PropOp34
 70
     1
102
RTVSPost2010Prop35
280
     0
102
RTVSPost2010PropOp35
 70
     1
102
RTVSPost2010Prop36
280
     0
102
RTVSPost2010PropOp36
 70
     1
102
RTVSPost2010Prop37
 90
       50
102
RTVSPost2010PropOp37
 70
     1
102
RTVSPost2010Prop38
140
0.0
102
RTVSPost2010PropOp38
 70
     1
102
RTVSPost2010Prop39
140
1.0
102
RTVSPost2010PropOp39
 70
     1
102
RTVSPost2010Prop40
 90
        0
102
RTVSPost2010PropOp40
 70
     1
102
RTVSPost2010Prop41ColorIndex
 90
       18
102
RTVSPost2010Prop41ColorRGB
 90
        0
102
RTVSPost2010PropOp41
 70
     1
102
RTVSPost2010Prop42
 90
       50
102
RTVSPost2010PropOp42
 70
     1
102
RTVSPost2010Prop43
 90
        3
102
RTVSPost2010PropOp43
 70
     1
102
RTVSPost2010Prop44ColorIndex
 90
        5
102
RTVSPost2010Prop44ColorRGB
 90
      255
102
RTVSPost2010PropOp44
 70
     1
102
RTVSPost2010Prop45
280
     0
102
RTVSPost2010PropOp45
 70
     1
102
RTVSPost2010Prop46
 90
       50
102
RTVSPost2010PropOp46
 70
     1
102
RTVSPost2010Prop47
 90
       50
102
RTVSPost2010PropOp47
 70
     1
102
RTVSPost2010Prop48
 90
       50
102
RTVSPost2010PropOp48
 70
     1
102
RTVSPost2010Prop49
280
     0
102
RTVSPost2010PropOp49
 70
     1
102
RTVSPost2010Prop50
 90
       50
102
RTVSPost2010PropOp50
 70
     1
102
RTVSPost2010Prop51ColorIndex
 90
      256
102
RTVSPost2010Prop51ColorRGB
 90
-16777216
102
RTVSPost2010PropOp51
 70
     0
102
RTVSPost2010Prop52
140
1.0
102
RTVSPost2010PropOp52
 70
     0
102
RTVSPost2010Prop53
 90
        2
102
RTVSPost2010PropOp53
 70
     1
102
RTVSPost2010Prop54
  1
strokes_ogs.tif
102
RTVSPost2010PropOp54
 70
     1
102
RTVSPost2010Prop55
280
     0
102
RTVSPost2010PropOp55
 70
     1
102
RTVSPost2010Prop56
140
1.0
102
RTVSPost2010PropOp56
 70
     1
102
RTVSPost2010Prop57
140
1.0
102
RTVSPost2010PropOp57
 70
     1
  0
XRECORD
  5
1DB
102
{ACAD_REACTORS
330
1DA
102
}
330
1DA
100
AcDbXrecord
280
     1
102
RTVSPost2010Prop28
280
     0
102
RTVSPost2010PropOp28
 70
     0
102
RTVSPost2010Prop29
280
     1
102
RTVSPost2010PropOp29
 70
     0
102
RTVSPost2010Prop30
280
     1
102
RTVSPost2010PropOp30
 70
     0
102
RTVSPost2010Prop31
280
     0
102
RTVSPost2010PropOp31
 70
     0
102
RTVSPost2010Prop32
280
     0
102
RTVSPost2010PropOp32
 70
     0
102
RTVSPost2010Prop33
280
     0
102
RTVSPost2010PropOp33
 70
     0
102
RTVSPost2010Prop34
280
     0
102
RTVSPost2010PropOp34
 70
     0
102
RTVSPost2010Prop35
280
     0
102
RTVSPost2010PropOp35
 70
     0
102
RTVSPost2010Prop36
280
     0
102
RTVSPost2010PropOp36
 70
     0
102
RTVSPost2010Prop37
 90
       50
102
RTVSPost2010PropOp37
 70
     0
102
RTVSPost2010Prop38
140
0.0
102
RTVSPost2010PropOp38
 70
     0
102
RTVSPost2010Prop39
140
1.0
102
RTVSPost2010PropOp39
 70
     0
102
RTVSPost2010Prop40
 90
        0
102
RTVSPost2010PropOp40
 70
     0
102
RTVSPost2010Prop41ColorIndex
 90
       18
102
RTVSPost2010Prop41ColorRGB
 90
        0
102
RTVSPost2010PropOp41
 70
     0
102
RTVSPost2010Prop42
 90
       50
102
RTVSPost2010PropOp42
 70
     0
102
RTVSPost2010Prop43
 90
        3
102
RTVSPost2010PropOp43
 70
     0
102
RTVSPost2010Prop44ColorIndex
 90
        5
102
RTVSPost2010Prop44ColorRGB
 90
      255
102
RTVSPost2010PropOp44
 70
     0
102
RTVSPost2010Prop45
280
     0
102
RTVSPost2010PropOp45
 70
     0
102
RTVSPost2010Prop46
 90
       50
102
RTVSPost2010PropOp46
 70
     0
102
RTVSPost2010Prop47
 90
       50
102
RTVSPost2010PropOp47
 70
     0
102
RTVSPost2010Prop48
 90
       50
102
RTVSPost2010PropOp48
 70
     0
102
RTVSPost2010Prop49
280
     0
102
RTVSPost2010PropOp49
 70
     0
102
RTVSPost2010Prop50
 90
       50
102
RTVSPost2010PropOp50
 70
     0
102
RTVSPost2010Prop51ColorIndex
 90
      256
102
RTVSPost2010Prop51ColorRGB
 90
-16777216
102
RTVSPost2010PropOp51
 70
     0
102
RTVSPost2010Prop52
140
1.0
102
RTVSPost2010PropOp52
 70
     0
102
RTVSPost2010Prop53
 90
        2
102
RTVSPost2010PropOp53
 70
     0
102
RTVSPost2010Prop54
  1
strokes_ogs.tif
102
RTVSPost2010PropOp54
 70
     0
102
RTVSPost2010Prop55
280
     0
102
RTVSPost2010PropOp55
 70
     0
102
RTVSPost2010Prop56
140
1.0
102
RTVSPost2010PropOp56
 70
     0
102
RTVSPost2010Prop57
140
1.0
102
RTVSPost2010PropOp57
 70
     0
  0
XRECORD
  5
1C1
102
{ACAD_REACTORS
330
1C0
102
}
330
1C0
100
AcDbXrecord
280
     1
102
RTVSPost2010Prop28
280
     0
102
RTVSPost2010PropOp28
 70
     1
102
RTVSPost2010Prop29
280
     1
102
RTVSPost2010PropOp29
 70
     1
102
RTVSPost2010Prop30
280
     1
102
RTVSPost2010PropOp30
 70
     1
102
RTVSPost2010Prop31
280
     0
102
RTVSPost2010PropOp31
 70
     1
102
RTVSPost2010Prop32
280
     0
102
RTVSPost2010PropOp32
 70
     1
102
RTVSPost2010Prop33
280
     0
102
RTVSPost2010PropOp33
 70
     1
102
RTVSPost2010Prop34
280
     0
102
RTVSPost2010PropOp34
 70
     1
102
RTVSPost2010Prop35
280
     0
102
RTVSPost2010PropOp35
 70
     1
102
RTVSPost2010Prop36
280
     0
102
RTVSPost2010PropOp36
 70
     1
102
RTVSPost2010Prop37
 90
       50
102
RTVSPost2010PropOp37
 70
     1
102
RTVSPost2010Prop38
140
0.0
102
RTVSPost2010PropOp38
 70
     1
102
RTVSPost2010Prop39
140
1.0
102
RTVSPost2010PropOp39
 70
     1
102
RTVSPost2010Prop40
 90
        0
102
RTVSPost2010PropOp40
 70
     1
102
RTVSPost2010Prop41ColorIndex
 90
       18
102
RTVSPost2010Prop41ColorRGB
 90
        0
102
RTVSPost2010PropOp41
 70
     1
102
RTVSPost2010Prop42
 90
       50
102
RTVSPost2010PropOp42
 70
     1
102
RTVSPost2010Prop43
 90
        3
102
RTVSPost2010PropOp43
 70
     1
102
RTVSPost2010Prop44ColorIndex
 90
        5
102
RTVSPost2010Prop44ColorRGB
 90
      255
102
RTVSPost2010PropOp44
 70
     1
102
RTVSPost2010Prop45
280
     0
102
RTVSPost2010PropOp45
 70
     1
102
RTVSPost2010Prop46
 90
       50
102
RTVSPost2010PropOp46
 70
     1
102
RTVSPost2010Prop47
 90
       50
102
RTVSPost2010PropOp47
 70
     1
102
RTVSPost2010Prop48
 90
       50
102
RTVSPost2010PropOp48
 70
     1
102
RTVSPost2010Prop49
280
     0
102
RTVSPost2010PropOp49
 70
     1
102
RTVSPost2010Prop50
 90
       50
102
RTVSPost2010PropOp50
 70
     1
102
RTVSPost2010Prop51ColorIndex
 90
      256
102
RTVSPost2010Prop51ColorRGB
 90
-16777216
102
RTVSPost2010PropOp51
 70
     0
102
RTVSPost2010Prop52
140
1.0
102
RTVSPost2010PropOp52
 70
     0
102
RTVSPost2010Prop53
 90
        2
102
RTVSPost2010PropOp53
 70
     1
102
RTVSPost2010Prop54
  1
strokes_ogs.tif
102
RTVSPost2010PropOp54
 70
     1
102
RTVSPost2010Prop55
280
     0
102
RTVSPost2010PropOp55
 70
     1
102
RTVSPost2010Prop56
140
1.0
102
RTVSPost2010PropOp56
 70
     1
102
RTVSPost2010Prop57
140
1.0
102
RTVSPost2010PropOp57
 70
     1
  0
XRECORD
  5
1D7
102
{ACAD_REACTORS
330
1D6
102
}
330
1D6
100
AcDbXrecord
280
     1
102
RTVSPost2010Prop28
280
     0
102
RTVSPost2010PropOp28
 70
     1
102
RTVSPost2010Prop29
280
     1
102
RTVSPost2010PropOp29
 70
     1
102
RTVSPost2010Prop30
280
     1
102
RTVSPost2010PropOp30
 70
     1
102
RTVSPost2010Prop31
280
     0
102
RTVSPost2010PropOp31
 70
     1
102
RTVSPost2010Prop32
280
     0
102
RTVSPost2010PropOp32
 70
     1
102
RTVSPost2010Prop33
280
     0
102
RTVSPost2010PropOp33
 70
     1
102
RTVSPost2010Prop34
280
     0
102
RTVSPost2010PropOp34
 70
     1
102
RTVSPost2010Prop35
280
     0
102
RTVSPost2010PropOp35
 70
     1
102
RTVSPost2010Prop36
280
     0
102
RTVSPost2010PropOp36
 70
     1
102
RTVSPost2010Prop37
 90
       50
102
RTVSPost2010PropOp37
 70
     1
102
RTVSPost2010Prop38
140
0.0
102
RTVSPost2010PropOp38
 70
     1
102
RTVSPost2010Prop39
140
1.0
102
RTVSPost2010PropOp39
 70
     1
102
RTVSPost2010Prop40
 90
        0
102
RTVSPost2010PropOp40
 70
     1
102
RTVSPost2010Prop41ColorIndex
 90
       18
102
RTVSPost2010Prop41ColorRGB
 90
        0
102
RTVSPost2010PropOp41
 70
     1
102
RTVSPost2010Prop42
 90
       50
102
RTVSPost2010PropOp42
 70
     1
102
RTVSPost2010Prop43
 90
        3
102
RTVSPost2010PropOp43
 70
     1
102
RTVSPost2010Prop44ColorIndex
 90
        5
102
RTVSPost2010Prop44ColorRGB
 90
      255
102
RTVSPost2010PropOp44
 70
     1
102
RTVSPost2010Prop45
280
     0
102
RTVSPost2010PropOp45
 70
     1
102
RTVSPost2010Prop46
 90
       50
102
RTVSPost2010PropOp46
 70
     1
102
RTVSPost2010Prop47
 90
       50
102
RTVSPost2010PropOp47
 70
     1
102
RTVSPost2010Prop48
 90
       50
102
RTVSPost2010PropOp48
 70
     1
102
RTVSPost2010Prop49
280
     0
102
RTVSPost2010PropOp49
 70
     1
102
RTVSPost2010Prop50
 90
       50
102
RTVSPost2010PropOp50
 70
     1
102
RTVSPost2010Prop51ColorIndex
 90
      256
102
RTVSPost2010Prop51ColorRGB
 90
-16777216
102
RTVSPost2010PropOp51
 70
     0
102
RTVSPost2010Prop52
140
1.0
102
RTVSPost2010PropOp52
 70
     0
102
RTVSPost2010Prop53
 90
        2
102
RTVSPost2010PropOp53
 70
     1
102
RTVSPost2010Prop54
  1
strokes_ogs.tif
102
RTVSPost2010PropOp54
 70
     1
102
RTVSPost2010Prop55
280
     0
102
RTVSPost2010PropOp55
 70
     1
102
RTVSPost2010Prop56
140
1.0
102
RTVSPost2010PropOp56
 70
     1
102
RTVSPost2010Prop57
140
1.0
102
RTVSPost2010PropOp57
 70
     1
  0
XRECORD
  5
1D5
102
{ACAD_REACTORS
330
1D4
102
}
330
1D4
100
AcDbXrecord
280
     1
102
RTVSPost2010Prop28
280
     0
102
RTVSPost2010PropOp28
 70
     1
102
RTVSPost2010Prop29
280
     1
102
RTVSPost2010PropOp29
 70
     1
102
RTVSPost2010Prop30
280
     1
102
RTVSPost2010PropOp30
 70
     1
102
RTVSPost2010Prop31
280
     0
102
RTVSPost2010PropOp31
 70
     1
102
RTVSPost2010Prop32
280
     0
102
RTVSPost2010PropOp32
 70
     1
102
RTVSPost2010Prop33
280
     0
102
RTVSPost2010PropOp33
 70
     1
102
RTVSPost2010Prop34
280
     0
102
RTVSPost2010PropOp34
 70
     1
102
RTVSPost2010Prop35
280
     0
102
RTVSPost2010PropOp35
 70
     1
102
RTVSPost2010Prop36
280
     0
102
RTVSPost2010PropOp36
 70
     1
102
RTVSPost2010Prop37
 90
       50
102
RTVSPost2010PropOp37
 70
     1
102
RTVSPost2010Prop38
140
0.0
102
RTVSPost2010PropOp38
 70
     1
102
RTVSPost2010Prop39
140
1.0
102
RTVSPost2010PropOp39
 70
     1
102
RTVSPost2010Prop40
 90
        0
102
RTVSPost2010PropOp40
 70
     1
102
RTVSPost2010Prop41ColorIndex
 90
       18
102
RTVSPost2010Prop41ColorRGB
 90
        0
102
RTVSPost2010PropOp41
 70
     1
102
RTVSPost2010Prop42
 90
       50
102
RTVSPost2010PropOp42
 70
     1
102
RTVSPost2010Prop43
 90
        3
102
RTVSPost2010PropOp43
 70
     1
102
RTVSPost2010Prop44ColorIndex
 90
        5
102
RTVSPost2010Prop44ColorRGB
 90
      255
102
RTVSPost2010PropOp44
 70
     1
102
RTVSPost2010Prop45
280
     0
102
RTVSPost2010PropOp45
 70
     1
102
RTVSPost2010Prop46
 90
       50
102
RTVSPost2010PropOp46
 70
     1
102
RTVSPost2010Prop47
 90
       50
102
RTVSPost2010PropOp47
 70
     1
102
RTVSPost2010Prop48
 90
       50
102
RTVSPost2010PropOp48
 70
     1
102
RTVSPost2010Prop49
280
     0
102
RTVSPost2010PropOp49
 70
     1
102
RTVSPost2010Prop50
 90
       50
102
RTVSPost2010PropOp50
 70
     1
102
RTVSPost2010Prop51ColorIndex
 90
      256
102
RTVSPost2010Prop51ColorRGB
 90
-16777216
102
RTVSPost2010PropOp51
 70
     0
102
RTVSPost2010Prop52
140
1.0
102
RTVSPost2010PropOp52
 70
     0
102
RTVSPost2010Prop53
 90
        2
102
RTVSPost2010PropOp53
 70
     1
102
RTVSPost2010Prop54
  1
strokes_ogs.tif
102
RTVSPost2010PropOp54
 70
     1
102
RTVSPost2010Prop55
280
     0
102
RTVSPost2010PropOp55
 70
     1
102
RTVSPost2010Prop56
140
1.0
102
RTVSPost2010PropOp56
 70
     1
102
RTVSPost2010Prop57
140
1.0
102
RTVSPost2010PropOp57
 70
     1
  0
XRECORD
  5
1CF
102
{ACAD_REACTORS
330
1CE
102
}
330
1CE
100
AcDbXrecord
280
     1
102
RTVSPost2010Prop28
280
     0
102
RTVSPost2010PropOp28
 70
     1
102
RTVSPost2010Prop29
280
     1
102
RTVSPost2010PropOp29
 70
     1
102
RTVSPost2010Prop30
280
     1
102
RTVSPost2010PropOp30
 70
     1
102
RTVSPost2010Prop31
280
     0
102
RTVSPost2010PropOp31
 70
     1
102
RTVSPost2010Prop32
280
     0
102
RTVSPost2010PropOp32
 70
     1
102
RTVSPost2010Prop33
280
     0
102
RTVSPost2010PropOp33
 70
     1
102
RTVSPost2010Prop34
280
     0
102
RTVSPost2010PropOp34
 70
     1
102
RTVSPost2010Prop35
280
     0
102
RTVSPost2010PropOp35
 70
     1
102
RTVSPost2010Prop36
280
     0
102
RTVSPost2010PropOp36
 70
     1
102
RTVSPost2010Prop37
 90
       50
102
RTVSPost2010PropOp37
 70
     1
102
RTVSPost2010Prop38
140
0.0
102
RTVSPost2010PropOp38
 70
     1
102
RTVSPost2010Prop39
140
1.0
102
RTVSPost2010PropOp39
 70
     1
102
RTVSPost2010Prop40
 90
        0
102
RTVSPost2010PropOp40
 70
     1
102
RTVSPost2010Prop41ColorIndex
 90
       18
102
RTVSPost2010Prop41ColorRGB
 90
        0
102
RTVSPost2010PropOp41
 70
     1
102
RTVSPost2010Prop42
 90
       50
102
RTVSPost2010PropOp42
 70
     1
102
RTVSPost2010Prop43
 90
        3
102
RTVSPost2010PropOp43
 70
     1
102
RTVSPost2010Prop44ColorIndex
 90
        5
102
RTVSPost2010Prop44ColorRGB
 90
      255
102
RTVSPost2010PropOp44
 70
     1
102
RTVSPost2010Prop45
280
     0
102
RTVSPost2010PropOp45
 70
     1
102
RTVSPost2010Prop46
 90
       50
102
RTVSPost2010PropOp46
 70
     1
102
RTVSPost2010Prop47
 90
       50
102
RTVSPost2010PropOp47
 70
     1
102
RTVSPost2010Prop48
 90
       50
102
RTVSPost2010PropOp48
 70
     1
102
RTVSPost2010Prop49
280
     0
102
RTVSPost2010PropOp49
 70
     1
102
RTVSPost2010Prop50
 90
       50
102
RTVSPost2010PropOp50
 70
     1
102
RTVSPost2010Prop51ColorIndex
 90
      256
102
RTVSPost2010Prop51ColorRGB
 90
-16777216
102
RTVSPost2010PropOp51
 70
     0
102
RTVSPost2010Prop52
140
1.0
102
RTVSPost2010PropOp52
 70
     0
102
RTVSPost2010Prop53
 90
        2
102
RTVSPost2010PropOp53
 70
     1
102
RTVSPost2010Prop54
  1
strokes_ogs.tif
102
RTVSPost2010PropOp54
 70
     1
102
RTVSPost2010Prop55
280
     0
102
RTVSPost2010PropOp55
 70
     1
102
RTVSPost2010Prop56
140
1.0
102
RTVSPost2010PropOp56
 70
     1
102
RTVSPost2010Prop57
140
1.0
102
RTVSPost2010PropOp57
 70
     1
  0
XRECORD
  5
1D1
102
{ACAD_REACTORS
330
1D0
102
}
330
1D0
100
AcDbXrecord
280
     1
102
RTVSPost2010Prop28
280
     0
102
RTVSPost2010PropOp28
 70
     1
102
RTVSPost2010Prop29
280
     1
102
RTVSPost2010PropOp29
 70
     1
102
RTVSPost2010Prop30
280
     1
102
RTVSPost2010PropOp30
 70
     1
102
RTVSPost2010Prop31
280
     0
102
RTVSPost2010PropOp31
 70
     1
102
RTVSPost2010Prop32
280
     0
102
RTVSPost2010PropOp32
 70
     1
102
RTVSPost2010Prop33
280
     0
102
RTVSPost2010PropOp33
 70
     1
102
RTVSPost2010Prop34
280
     0
102
RTVSPost2010PropOp34
 70
     1
102
RTVSPost2010Prop35
280
     0
102
RTVSPost2010PropOp35
 70
     1
102
RTVSPost2010Prop36
280
     0
102
RTVSPost2010PropOp36
 70
     1
102
RTVSPost2010Prop37
 90
       50
102
RTVSPost2010PropOp37
 70
     1
102
RTVSPost2010Prop38
140
0.0
102
RTVSPost2010PropOp38
 70
     1
102
RTVSPost2010Prop39
140
1.0
102
RTVSPost2010PropOp39
 70
     1
102
RTVSPost2010Prop40
 90
        0
102
RTVSPost2010PropOp40
 70
     1
102
RTVSPost2010Prop41ColorIndex
 90
       18
102
RTVSPost2010Prop41ColorRGB
 90
        0
102
RTVSPost2010PropOp41
 70
     1
102
RTVSPost2010Prop42
 90
       50
102
RTVSPost2010PropOp42
 70
     1
102
RTVSPost2010Prop43
 90
        3
102
RTVSPost2010PropOp43
 70
     1
102
RTVSPost2010Prop44ColorIndex
 90
        5
102
RTVSPost2010Prop44ColorRGB
 90
      255
102
RTVSPost2010PropOp44
 70
     1
102
RTVSPost2010Prop45
280
     0
102
RTVSPost2010PropOp45
 70
     1
102
RTVSPost2010Prop46
 90
       50
102
RTVSPost2010PropOp46
 70
     1
102
RTVSPost2010Prop47
 90
       50
102
RTVSPost2010PropOp47
 70
     1
102
RTVSPost2010Prop48
 90
       50
102
RTVSPost2010PropOp48
 70
     1
102
RTVSPost2010Prop49
280
     0
102
RTVSPost2010PropOp49
 70
     1
102
RTVSPost2010Prop50
 90
       50
102
RTVSPost2010PropOp50
 70
     1
102
RTVSPost2010Prop51ColorIndex
 90
      256
102
RTVSPost2010Prop51ColorRGB
 90
-16777216
102
RTVSPost2010PropOp51
 70
     0
102
RTVSPost2010Prop52
140
1.0
102
RTVSPost2010PropOp52
 70
     0
102
RTVSPost2010Prop53
 90
        2
102
RTVSPost2010PropOp53
 70
     1
102
RTVSPost2010Prop54
  1
strokes_ogs.tif
102
RTVSPost2010PropOp54
 70
     1
102
RTVSPost2010Prop55
280
     0
102
RTVSPost2010PropOp55
 70
     1
102
RTVSPost2010Prop56
140
1.0
102
RTVSPost2010PropOp56
 70
     1
102
RTVSPost2010Prop57
140
1.0
102
RTVSPost2010PropOp57
 70
     1
  0
XRECORD
  5
1C7
102
{ACAD_REACTORS
330
1C6
102
}
330
1C6
100
AcDbXrecord
280
     1
102
RTVSPost2010Prop28
280
     0
102
RTVSPost2010PropOp28
 70
     1
102
RTVSPost2010Prop29
280
     1
102
RTVSPost2010PropOp29
 70
     1
102
RTVSPost2010Prop30
280
     1
102
RTVSPost2010PropOp30
 70
     1
102
RTVSPost2010Prop31
280
     0
102
RTVSPost2010PropOp31
 70
     1
102
RTVSPost2010Prop32
280
     0
102
RTVSPost2010PropOp32
 70
     1
102
RTVSPost2010Prop33
280
     0
102
RTVSPost2010PropOp33
 70
     1
102
RTVSPost2010Prop34
280
     0
102
RTVSPost2010PropOp34
 70
     1
102
RTVSPost2010Prop35
280
     0
102
RTVSPost2010PropOp35
 70
     1
102
RTVSPost2010Prop36
280
     0
102
RTVSPost2010PropOp36
 70
     1
102
RTVSPost2010Prop37
 90
       50
102
RTVSPost2010PropOp37
 70
     1
102
RTVSPost2010Prop38
140
0.0
102
RTVSPost2010PropOp38
 70
     1
102
RTVSPost2010Prop39
140
1.0
102
RTVSPost2010PropOp39
 70
     1
102
RTVSPost2010Prop40
 90
        0
102
RTVSPost2010PropOp40
 70
     1
102
RTVSPost2010Prop41ColorIndex
 90
       18
102
RTVSPost2010Prop41ColorRGB
 90
        0
102
RTVSPost2010PropOp41
 70
     1
102
RTVSPost2010Prop42
 90
       50
102
RTVSPost2010PropOp42
 70
     1
102
RTVSPost2010Prop43
 90
        3
102
RTVSPost2010PropOp43
 70
     1
102
RTVSPost2010Prop44ColorIndex
 90
        5
102
RTVSPost2010Prop44ColorRGB
 90
      255
102
RTVSPost2010PropOp44
 70
     1
102
RTVSPost2010Prop45
280
     0
102
RTVSPost2010PropOp45
 70
     1
102
RTVSPost2010Prop46
 90
       50
102
RTVSPost2010PropOp46
 70
     1
102
RTVSPost2010Prop47
 90
       50
102
RTVSPost2010PropOp47
 70
     1
102
RTVSPost2010Prop48
 90
       50
102
RTVSPost2010PropOp48
 70
     1
102
RTVSPost2010Prop49
280
     0
102
RTVSPost2010PropOp49
 70
     1
102
RTVSPost2010Prop50
 90
       50
102
RTVSPost2010PropOp50
 70
     1
102
RTVSPost2010Prop51ColorIndex
 90
      256
102
RTVSPost2010Prop51ColorRGB
 90
-16777216
102
RTVSPost2010PropOp51
 70
     0
102
RTVSPost2010Prop52
140
1.0
102
RTVSPost2010PropOp52
 70
     0
102
RTVSPost2010Prop53
 90
        2
102
RTVSPost2010PropOp53
 70
     1
102
RTVSPost2010Prop54
  1
strokes_ogs.tif
102
RTVSPost2010PropOp54
 70
     1
102
RTVSPost2010Prop55
280
     0
102
RTVSPost2010PropOp55
 70
     1
102
RTVSPost2010Prop56
140
1.0
102
RTVSPost2010PropOp56
 70
     1
102
RTVSPost2010Prop57
140
1.0
102
RTVSPost2010PropOp57
 70
     1
  0
XRECORD
  5
1BB
102
{ACAD_REACTORS
330
1BA
102
}
330
1BA
100
AcDbXrecord
280
     1
102
RTVSPost2010Prop28
280
     0
102
RTVSPost2010PropOp28
 70
     1
102
RTVSPost2010Prop29
280
     1
102
RTVSPost2010PropOp29
 70
     1
102
RTVSPost2010Prop30
280
     1
102
RTVSPost2010PropOp30
 70
     1
102
RTVSPost2010Prop31
280
     0
102
RTVSPost2010PropOp31
 70
     1
102
RTVSPost2010Prop32
280
     0
102
RTVSPost2010PropOp32
 70
     1
102
RTVSPost2010Prop33
280
     0
102
RTVSPost2010PropOp33
 70
     1
102
RTVSPost2010Prop34
280
     0
102
RTVSPost2010PropOp34
 70
     1
102
RTVSPost2010Prop35
280
     0
102
RTVSPost2010PropOp35
 70
     1
102
RTVSPost2010Prop36
280
     0
102
RTVSPost2010PropOp36
 70
     1
102
RTVSPost2010Prop37
 90
       50
102
RTVSPost2010PropOp37
 70
     1
102
RTVSPost2010Prop38
140
0.0
102
RTVSPost2010PropOp38
 70
     1
102
RTVSPost2010Prop39
140
1.0
102
RTVSPost2010PropOp39
 70
     1
102
RTVSPost2010Prop40
 90
        0
102
RTVSPost2010PropOp40
 70
     1
102
RTVSPost2010Prop41ColorIndex
 90
       18
102
RTVSPost2010Prop41ColorRGB
 90
        0
102
RTVSPost2010PropOp41
 70
     1
102
RTVSPost2010Prop42
 90
       50
102
RTVSPost2010PropOp42
 70
     1
102
RTVSPost2010Prop43
 90
        3
102
RTVSPost2010PropOp43
 70
     1
102
RTVSPost2010Prop44ColorIndex
 90
        5
102
RTVSPost2010Prop44ColorRGB
 90
      255
102
RTVSPost2010PropOp44
 70
     1
102
RTVSPost2010Prop45
280
     0
102
RTVSPost2010PropOp45
 70
     1
102
RTVSPost2010Prop46
 90
       50
102
RTVSPost2010PropOp46
 70
     1
102
RTVSPost2010Prop47
 90
       50
102
RTVSPost2010PropOp47
 70
     1
102
RTVSPost2010Prop48
 90
       50
102
RTVSPost2010PropOp48
 70
     1
102
RTVSPost2010Prop49
280
     0
102
RTVSPost2010PropOp49
 70
     1
102
RTVSPost2010Prop50
 90
       50
102
RTVSPost2010PropOp50
 70
     1
102
RTVSPost2010Prop51ColorIndex
 90
      256
102
RTVSPost2010Prop51ColorRGB
 90
-16777216
102
RTVSPost2010PropOp51
 70
     0
102
RTVSPost2010Prop52
140
1.0
102
RTVSPost2010PropOp52
 70
     0
102
RTVSPost2010Prop53
 90
        2
102
RTVSPost2010PropOp53
 70
     1
102
RTVSPost2010Prop54
  1
strokes_ogs.tif
102
RTVSPost2010PropOp54
 70
     1
102
RTVSPost2010Prop55
280
     0
102
RTVSPost2010PropOp55
 70
     1
102
RTVSPost2010Prop56
140
1.0
102
RTVSPost2010PropOp56
 70
     1
102
RTVSPost2010Prop57
140
1.0
102
RTVSPost2010PropOp57
 70
     1
  0
XRECORD
  5
1D3
102
{ACAD_REACTORS
330
1D2
102
}
330
1D2
100
AcDbXrecord
280
     1
102
RTVSPost2010Prop28
280
     0
102
RTVSPost2010PropOp28
 70
     1
102
RTVSPost2010Prop29
280
     1
102
RTVSPost2010PropOp29
 70
     1
102
RTVSPost2010Prop30
280
     1
102
RTVSPost2010PropOp30
 70
     1
102
RTVSPost2010Prop31
280
     0
102
RTVSPost2010PropOp31
 70
     1
102
RTVSPost2010Prop32
280
     0
102
RTVSPost2010PropOp32
 70
     1
102
RTVSPost2010Prop33
280
     0
102
RTVSPost2010PropOp33
 70
     1
102
RTVSPost2010Prop34
280
     0
102
RTVSPost2010PropOp34
 70
     1
102
RTVSPost2010Prop35
280
     0
102
RTVSPost2010PropOp35
 70
     1
102
RTVSPost2010Prop36
280
     0
102
RTVSPost2010PropOp36
 70
     1
102
RTVSPost2010Prop37
 90
       50
102
RTVSPost2010PropOp37
 70
     1
102
RTVSPost2010Prop38
140
0.0
102
RTVSPost2010PropOp38
 70
     1
102
RTVSPost2010Prop39
140
1.0
102
RTVSPost2010PropOp39
 70
     1
102
RTVSPost2010Prop40
 90
        0
102
RTVSPost2010PropOp40
 70
     1
102
RTVSPost2010Prop41ColorIndex
 90
       18
102
RTVSPost2010Prop41ColorRGB
 90
        0
102
RTVSPost2010PropOp41
 70
     1
102
RTVSPost2010Prop42
 90
       50
102
RTVSPost2010PropOp42
 70
     1
102
RTVSPost2010Prop43
 90
        3
102
RTVSPost2010PropOp43
 70
     1
102
RTVSPost2010Prop44ColorIndex
 90
        5
102
RTVSPost2010Prop44ColorRGB
 90
      255
102
RTVSPost2010PropOp44
 70
     1
102
RTVSPost2010Prop45
280
     0
102
RTVSPost2010PropOp45
 70
     1
102
RTVSPost2010Prop46
 90
       50
102
RTVSPost2010PropOp46
 70
     1
102
RTVSPost2010Prop47
 90
       50
102
RTVSPost2010PropOp47
 70
     1
102
RTVSPost2010Prop48
 90
       50
102
RTVSPost2010PropOp48
 70
     1
102
RTVSPost2010Prop49
280
     0
102
RTVSPost2010PropOp49
 70
     1
102
RTVSPost2010Prop50
 90
       50
102
RTVSPost2010PropOp50
 70
     1
102
RTVSPost2010Prop51ColorIndex
 90
      256
102
RTVSPost2010Prop51ColorRGB
 90
-16777216
102
RTVSPost2010PropOp51
 70
     0
102
RTVSPost2010Prop52
140
1.0
102
RTVSPost2010PropOp52
 70
     0
102
RTVSPost2010Prop53
 90
        2
102
RTVSPost2010PropOp53
 70
     1
102
RTVSPost2010Prop54
  1
strokes_ogs.tif
102
RTVSPost2010PropOp54
 70
     1
102
RTVSPost2010Prop55
280
     0
102
RTVSPost2010PropOp55
 70
     1
102
RTVSPost2010Prop56
140
1.0
102
RTVSPost2010PropOp56
 70
     1
102
RTVSPost2010Prop57
140
1.0
102
RTVSPost2010PropOp57
 70
     1
  0
ENDSEC
  0
EOF
