  0
SECTION
  2
HEADER
  9
$ACADVER
  1
AC1024
  9
$ACADMAINTVER
 70
   205
  9
$DWGCODEPAGE
  3
ANSI_1251
  9
$INSBASE
 10
0.0
 20
0.0
 30
0.0
  9
$EXTMIN
 10
1.000000000000000E+20
 20
1.000000000000000E+20
 30
1.000000000000000E+20
  9
$EXTMAX
 10
-1.000000000000000E+20
 20
-1.000000000000000E+20
 30
-1.000000000000000E+20
  9
$LIMMIN
 10
0.0
 20
0.0
  9
$LIMMAX
 10
12.0
 20
9.0
  9
$ORTHOMODE
 70
     0
  9
$REGENMODE
 70
     1
  9
$FILLMODE
 70
     1
  9
$QTEXTMODE
 70
     0
  9
$MIRRTEXT
 70
     1
  9
$LTSCALE
 40
1.0
  9
$ATTMODE
 70
     1
  9
$TEXTSIZE
 40
0.2
  9
$TRACEWID
 40
0.05
  9
$TEXTSTYLE
  7
Standard
  9
$CLAYER
  8
OracDecor_cornice_mouldings
  9
$CELTYPE
  6
ByLayer
  9
$CECOLOR
 62
   256
  9
$CELTSCALE
 40
1.0
  9
$DISPSILH
 70
     0
  9
$DIMSCALE
 40
1.0
  9
$DIMASZ
 40
0.18
  9
$DIMEXO
 40
0.0625
  9
$DIMDLI
 40
0.38
  9
$DIMRND
 40
0.0
  9
$DIMDLE
 40
0.0
  9
$DIMEXE
 40
0.18
  9
$DIMTP
 40
0.0
  9
$DIMTM
 40
0.0
  9
$DIMTXT
 40
0.18
  9
$DIMCEN
 40
0.09
  9
$DIMTSZ
 40
0.0
  9
$DIMTOL
 70
     0
  9
$DIMLIM
 70
     0
  9
$DIMTIH
 70
     1
  9
$DIMTOH
 70
     1
  9
$DIMSE1
 70
     0
  9
$DIMSE2
 70
     0
  9
$DIMTAD
 70
     0
  9
$DIMZIN
 70
     0
  9
$DIMBLK
  1

  9
$DIMASO
 70
     1
  9
$DIMSHO
 70
     1
  9
$DIMPOST
  1

  9
$DIMAPOST
  1

  9
$DIMALT
 70
     0
  9
$DIMALTD
 70
     2
  9
$DIMALTF
 40
25.4
  9
$DIMLFAC
 40
1.0
  9
$DIMTOFL
 70
     0
  9
$DIMTVP
 40
0.0
  9
$DIMTIX
 70
     0
  9
$DIMSOXD
 70
     0
  9
$DIMSAH
 70
     0
  9
$DIMBLK1
  1

  9
$DIMBLK2
  1

  9
$DIMSTYLE
  2
Standard
  9
$DIMCLRD
 70
     0
  9
$DIMCLRE
 70
     0
  9
$DIMCLRT
 70
     0
  9
$DIMTFAC
 40
1.0
  9
$DIMGAP
 40
0.09
  9
$DIMJUST
 70
     0
  9
$DIMSD1
 70
     0
  9
$DIMSD2
 70
     0
  9
$DIMTOLJ
 70
     1
  9
$DIMTZIN
 70
     0
  9
$DIMALTZ
 70
     0
  9
$DIMALTTZ
 70
     0
  9
$DIMUPT
 70
     0
  9
$DIMDEC
 70
     4
  9
$DIMTDEC
 70
     4
  9
$DIMALTU
 70
     2
  9
$DIMALTTD
 70
     2
  9
$DIMTXSTY
  7
Standard
  9
$DIMAUNIT
 70
     0
  9
$DIMADEC
 70
     0
  9
$DIMALTRND
 40
0.0
  9
$DIMAZIN
 70
     0
  9
$DIMDSEP
 70
    46
  9
$DIMATFIT
 70
     3
  9
$DIMFRAC
 70
     0
  9
$DIMLDRBLK
  1

  9
$DIMLUNIT
 70
     2
  9
$DIMLWD
 70
    -2
  9
$DIMLWE
 70
    -2
  9
$DIMTMOVE
 70
     0
  9
$DIMFXL
 40
1.0
  9
$DIMFXLON
 70
     0
  9
$DIMJOGANG
 40
0.7853981633974483
  9
$DIMTFILL
 70
     0
  9
$DIMTFILLCLR
 70
     0
  9
$DIMARCSYM
 70
     0
  9
$DIMLTYPE
  6

  9
$DIMLTEX1
  6

  9
$DIMLTEX2
  6

  9
$DIMTXTDIRECTION
 70
     0
  9
$LUNITS
 70
     2
  9
$LUPREC
 70
     4
  9
$SKETCHINC
 40
0.1
  9
$FILLETRAD
 40
0.5
  9
$AUNITS
 70
     0
  9
$AUPREC
 70
     0
  9
$MENU
  1
.
  9
$ELEVATION
 40
0.0
  9
$PELEVATION
 40
0.0
  9
$THICKNESS
 40
0.0
  9
$LIMCHECK
 70
     0
  9
$CHAMFERA
 40
0.5
  9
$CHAMFERB
 40
0.5
  9
$CHAMFERC
 40
1.0
  9
$CHAMFERD
 40
0.0
  9
$SKPOLY
 70
     0
  9
$TDCREATE
 40
2451380.930432396
  9
$TDUCREATE
 40
2451380.805432396
  9
$TDUPDATE
 40
2451380.966180555
  9
$TDUUPDATE
 40
2451380.841180556
  9
$TDINDWG
 40
0.0075631481
  9
$TDUSRTIMER
 40
0.0075541088
  9
$USRTIMER
 70
     1
  9
$ANGBASE
 50
0.0
  9
$ANGDIR
 70
     0
  9
$PDMODE
 70
     0
  9
$PDSIZE
 40
0.0
  9
$PLINEWID
 40
0.0
  9
$SPLFRAME
 70
     0
  9
$SPLINETYPE
 70
     6
  9
$SPLINESEGS
 70
     8
  9
$HANDSEED
  5
196
  9
$SURFTAB1
 70
     6
  9
$SURFTAB2
 70
     6
  9
$SURFTYPE
 70
     6
  9
$SURFU
 70
     6
  9
$SURFV
 70
     6
  9
$UCSBASE
  2

  9
$UCSNAME
  2

  9
$UCSORG
 10
0.0
 20
0.0
 30
0.0
  9
$UCSXDIR
 10
1.0
 20
0.0
 30
0.0
  9
$UCSYDIR
 10
0.0
 20
1.0
 30
0.0
  9
$UCSORTHOREF
  2

  9
$UCSORTHOVIEW
 70
     0
  9
$UCSORGTOP
 10
0.0
 20
0.0
 30
0.0
  9
$UCSORGBOTTOM
 10
0.0
 20
0.0
 30
0.0
  9
$UCSORGLEFT
 10
0.0
 20
0.0
 30
0.0
  9
$UCSORGRIGHT
 10
0.0
 20
0.0
 30
0.0
  9
$UCSORGFRONT
 10
0.0
 20
0.0
 30
0.0
  9
$UCSORGBACK
 10
0.0
 20
0.0
 30
0.0
  9
$PUCSBASE
  2

  9
$PUCSNAME
  2

  9
$PUCSORG
 10
0.0
 20
0.0
 30
0.0
  9
$PUCSXDIR
 10
1.0
 20
0.0
 30
0.0
  9
$PUCSYDIR
 10
0.0
 20
1.0
 30
0.0
  9
$PUCSORTHOREF
  2

  9
$PUCSORTHOVIEW
 70
     0
  9
$PUCSORGTOP
 10
0.0
 20
0.0
 30
0.0
  9
$PUCSORGBOTTOM
 10
0.0
 20
0.0
 30
0.0
  9
$PUCSORGLEFT
 10
0.0
 20
0.0
 30
0.0
  9
$PUCSORGRIGHT
 10
0.0
 20
0.0
 30
0.0
  9
$PUCSORGFRONT
 10
0.0
 20
0.0
 30
0.0
  9
$PUCSORGBACK
 10
0.0
 20
0.0
 30
0.0
  9
$USERI1
 70
     0
  9
$USERI2
 70
     0
  9
$USERI3
 70
     0
  9
$USERI4
 70
     0
  9
$USERI5
 70
     0
  9
$USERR1
 40
0.0
  9
$USERR2
 40
0.0
  9
$USERR3
 40
0.0
  9
$USERR4
 40
0.0
  9
$USERR5
 40
0.0
  9
$WORLDVIEW
 70
     1
  9
$SHADEDGE
 70
     3
  9
$SHADEDIF
 70
    70
  9
$TILEMODE
 70
     1
  9
$MAXACTVP
 70
    64
  9
$PINSBASE
 10
0.0
 20
0.0
 30
0.0
  9
$PLIMCHECK
 70
     0
  9
$PEXTMIN
 10
1.000000000000000E+20
 20
1.000000000000000E+20
 30
1.000000000000000E+20
  9
$PEXTMAX
 10
-1.000000000000000E+20
 20
-1.000000000000000E+20
 30
-1.000000000000000E+20
  9
$PLIMMIN
 10
0.0
 20
0.0
  9
$PLIMMAX
 10
12.0
 20
9.0
  9
$UNITMODE
 70
     0
  9
$VISRETAIN
 70
     1
  9
$PLINEGEN
 70
     0
  9
$PSLTSCALE
 70
     1
  9
$TREEDEPTH
 70
  3020
  9
$CMLSTYLE
  2
Standard
  9
$CMLJUST
 70
     0
  9
$CMLSCALE
 40
1.0
  9
$PROXYGRAPHICS
 70
     1
  9
$MEASUREMENT
 70
     1
  9
$CELWEIGHT
370
    -1
  9
$ENDCAPS
280
     0
  9
$JOINSTYLE
280
     0
  9
$LWDISPLAY
290
     0
  9
$INSUNITS
 70
     4
  9
$HYPERLINKBASE
  1

  9
$STYLESHEET
  1

  9
$XEDIT
290
     1
  9
$CEPSNTYPE
380
     0
  9
$PSTYLEMODE
290
     1
  9
$FINGERPRINTGUID
  2
{12F50282-3ED8-11D3-A8B7-0060B0F84BC6}
  9
$VERSIONGUID
  2
{12F50293-3ED8-11D3-A8B7-0060B0F84BC6}
  9
$EXTNAMES
290
     1
  9
$PSVPSCALE
 40
0.0
  9
$OLESTARTUP
290
     0
  9
$SORTENTS
280
   127
  9
$INDEXCTL
280
     0
  9
$HIDETEXT
280
     0
  9
$XCLIPFRAME
280
     2
  9
$HALOGAP
280
     0
  9
$OBSCOLOR
 70
   257
  9
$OBSLTYPE
280
     0
  9
$INTERSECTIONDISPLAY
280
     0
  9
$INTERSECTIONCOLOR
 70
   257
  9
$DIMASSOC
280
     1
  9
$PROJECTNAME
  1

  9
$CAMERADISPLAY
290
     0
  9
$LENSLENGTH
 40
50.0
  9
$CAMERAHEIGHT
 40
0.0
  9
$STEPSPERSEC
 40
2.0
  9
$STEPSIZE
 40
6.0
  9
$3DDWFPREC
 40
2.0
  9
$PSOLWIDTH
 40
0.25
  9
$PSOLHEIGHT
 40
4.0
  9
$LOFTANG1
 40
1.570796326794896
  9
$LOFTANG2
 40
1.570796326794896
  9
$LOFTMAG1
 40
0.0
  9
$LOFTMAG2
 40
0.0
  9
$LOFTPARAM
 70
     7
  9
$LOFTNORMALS
280
     1
  9
$LATITUDE
 40
37.795
  9
$LONGITUDE
 40
-122.394
  9
$NORTHDIRECTION
 40
0.0
  9
$TIMEZONE
 70
 -8000
  9
$LIGHTGLYPHDISPLAY
280
     1
  9
$TILEMODELIGHTSYNCH
280
     1
  9
$CMATERIAL
347
AB
  9
$SOLIDHIST
280
     0
  9
$SHOWHIST
280
     1
  9
$DWFFRAME
280
     2
  9
$DGNFRAME
280
     0
  9
$REALWORLDSCALE
290
     1
  9
$INTERFERECOLOR
 62
     1
  9
$INTERFEREOBJVS
345
CD
  9
$INTERFEREVPVS
346
CA
  9
$CSHADOW
280
     0
  9
$SHADOWPLANELOCATION
 40
0.0
  0
ENDSEC
  0
SECTION
  2
CLASSES
  0
CLASS
  1
ACDBDICTIONARYWDFLT
  2
AcDbDictionaryWithDefault
  3
ObjectDBX Classes
 90
        0
 91
        1
280
     0
281
     0
  0
CLASS
  1
ACDBPLACEHOLDER
  2
AcDbPlaceHolder
  3
ObjectDBX Classes
 90
        0
 91
        2
280
     0
281
     0
  0
CLASS
  1
LAYOUT
  2
AcDbLayout
  3
ObjectDBX Classes
 90
        0
 91
        3
280
     0
281
     0
  0
CLASS
  1
MATERIAL
  2
AcDbMaterial
  3
ObjectDBX Classes
 90
     1153
 91
        3
280
     0
281
     0
  0
CLASS
  1
VISUALSTYLE
  2
AcDbVisualStyle
  3
ObjectDBX Classes
 90
     4095
 91
       24
280
     0
281
     0
  0
CLASS
  1
TABLESTYLE
  2
AcDbTableStyle
  3
ObjectDBX Classes
 90
     4095
 91
        1
280
     0
281
     0
  0
CLASS
  1
SCALE
  2
AcDbScale
  3
ObjectDBX Classes
 90
     1153
 91
       17
280
     0
281
     0
  0
CLASS
  1
MLEADERSTYLE
  2
AcDbMLeaderStyle
  3
ACDB_MLEADERSTYLE_CLASS
 90
     4095
 91
        1
280
     0
281
     0
  0
CLASS
  1
ACDBSECTIONVIEWSTYLE
  2
AcDbSectionViewStyle
  3
ObjectDBX Classes
 90
     1025
 91
        1
280
     0
281
     0
  0
CLASS
  1
ACDBDETAILVIEWSTYLE
  2
AcDbDetailViewStyle
  3
ObjectDBX Classes
 90
     1025
 91
        1
280
     0
281
     0
  0
CLASS
  1
MESH
  2
AcDbSubDMesh
  3
ObjectDBX Classes
 90
        0
 91
        1
280
     0
281
     1
  0
CLASS
  1
DICTIONARYVAR
  2
AcDbDictionaryVar
  3
ObjectDBX Classes
 90
        0
 91
        9
280
     0
281
     0
  0
CLASS
  1
CELLSTYLEMAP
  2
AcDbCellStyleMap
  3
ObjectDBX Classes
 90
     1152
 91
        1
280
     0
281
     0
  0
ENDSEC
  0
SECTION
  2
TABLES
  0
TABLE
  2
VPORT
  5
8
330
0
100
AcDbSymbolTable
 70
     1
  0
VPORT
  5
A8
330
8
100
AcDbSymbolTableRecord
100
AcDbViewportTableRecord
  2
*Active
 70
     0
 10
0.0
 20
0.0
 11
1.0
 21
1.0
 12
0.0
 22
-17.5546703338623
 13
0.0
 23
0.0
 14
0.5
 24
0.5
 15
0.5
 25
0.5
 16
-1.0
 26
-1.0
 36
1.0
 17
0.0
 27
0.0
 37
0.0
 40
1072.000010058378
 41
1.662574885723382
 42
50.0
 43
0.0
 44
0.0
 50
0.0
 51
0.0
 71
     0
 72
   100
 73
     1
 74
     3
 75
     0
 76
     0
 77
     0
 78
     0
281
     0
 65
     1
110
0.0
120
0.0
130
0.0
111
1.0
121
0.0
131
0.0
112
0.0
122
1.0
132
0.0
 79
     0
146
0.0
348
C9
 60
     3
 61
     5
292
     1
282
     1
141
0.0
142
0.0
 63
   250
421
  3355443
  0
ENDTAB
  0
TABLE
  2
LTYPE
  5
5
330
0
100
AcDbSymbolTable
 70
     1
  0
LTYPE
  5
14
330
5
100
AcDbSymbolTableRecord
100
AcDbLinetypeTableRecord
  2
ByBlock
 70
     0
  3

 72
    65
 73
     0
 40
0.0
  0
LTYPE
  5
15
330
5
100
AcDbSymbolTableRecord
100
AcDbLinetypeTableRecord
  2
ByLayer
 70
     0
  3

 72
    65
 73
     0
 40
0.0
  0
LTYPE
  5
16
330
5
100
AcDbSymbolTableRecord
100
AcDbLinetypeTableRecord
  2
Continuous
 70
     0
  3
Solid line
 72
    65
 73
     0
 40
0.0
  0
ENDTAB
  0
TABLE
  2
LAYER
  5
2
330
0
100
AcDbSymbolTable
 70
     3
  0
LAYER
  5
10
330
2
100
AcDbSymbolTableRecord
100
AcDbLayerTableRecord
  2
0
 70
     0
 62
     7
  6
Continuous
370
    -3
390
F
347
BB
  0
LAYER
  5
2B
330
2
100
AcDbSymbolTableRecord
100
AcDbLayerTableRecord
  2
ASHADE
 70
     4
 62
     7
  6
Continuous
370
    -3
390
2D
347
BB
  0
LAYER
  5
F8
330
2
100
AcDbSymbolTableRecord
100
AcDbLayerTableRecord
  2
OracDecor_cornice_mouldings
 70
     0
 62
   153
420
  5804257
  6
Continuous
370
    -3
390
F
347
BB
  0
ENDTAB
  0
TABLE
  2
STYLE
  5
3
330
0
100
AcDbSymbolTable
 70
     2
  0
STYLE
  5
11
330
3
100
AcDbSymbolTableRecord
100
AcDbTextStyleTableRecord
  2
Standard
 70
     0
 40
0.0
 41
1.0
 50
0.0
 71
     0
 42
0.2
  3
txt
  4

  0
STYLE
  5
2C
330
3
100
AcDbSymbolTableRecord
100
AcDbTextStyleTableRecord
  2
ASHADE
 70
     0
 40
0.2
 41
1.0
 50
0.0
 71
     0
 42
0.2
  3
simplex
  4

  0
ENDTAB
  0
TABLE
  2
VIEW
  5
6
330
0
100
AcDbSymbolTable
 70
     0
  0
ENDTAB
  0
TABLE
  2
UCS
  5
7
330
0
100
AcDbSymbolTable
 70
     0
  0
ENDTAB
  0
TABLE
  2
APPID
  5
9
330
0
100
AcDbSymbolTable
 70
     6
  0
APPID
  5
12
330
9
100
AcDbSymbolTableRecord
100
AcDbRegAppTableRecord
  2
ACAD
 70
     0
  0
APPID
  5
8F
330
9
100
AcDbSymbolTableRecord
100
AcDbRegAppTableRecord
  2
AVE_RENDER
 70
     0
  0
APPID
  5
90
330
9
100
AcDbSymbolTableRecord
100
AcDbRegAppTableRecord
  2
AVE_ENTITY_MATERIAL
 70
     0
  0
APPID
  5
9C
330
9
100
AcDbSymbolTableRecord
100
AcDbRegAppTableRecord
  2
AVE_FINISH
 70
     0
  0
APPID
  5
9D
330
9
100
AcDbSymbolTableRecord
100
AcDbRegAppTableRecord
  2
AVE_MATERIAL
 70
     0
  0
APPID
  5
9E
330
9
100
AcDbSymbolTableRecord
100
AcDbRegAppTableRecord
  2
AVE_GLOBAL
 70
     0
  0
ENDTAB
  0
TABLE
  2
DIMSTYLE
  5
A
330
0
100
AcDbSymbolTable
 70
     1
100
AcDbDimStyleTable
 71
     0
  0
DIMSTYLE
105
27
330
A
100
AcDbSymbolTableRecord
100
AcDbDimStyleTableRecord
  2
Standard
 70
     0
340
11
  0
ENDTAB
  0
TABLE
  2
BLOCK_RECORD
  5
1
330
0
100
AcDbSymbolTable
 70
     6
  0
BLOCK_RECORD
  5
1F
330
1
100
AcDbSymbolTableRecord
100
AcDbBlockTableRecord
  2
*Model_Space
340
22
 70
     0
280
     1
281
     0
  0
BLOCK_RECORD
  5
1B
330
1
100
AcDbSymbolTableRecord
100
AcDbBlockTableRecord
  2
*Paper_Space
340
1E
 70
     0
280
     1
281
     0
  0
BLOCK_RECORD
  5
23
330
1
100
AcDbSymbolTableRecord
100
AcDbBlockTableRecord
  2
*Paper_Space0
340
26
 70
     0
280
     1
281
     0
  0
BLOCK_RECORD
  5
2E
330
1
100
AcDbSymbolTableRecord
100
AcDbBlockTableRecord
  2
direct
340
0
 70
     0
280
     1
281
     0
  0
BLOCK_RECORD
  5
42
330
1
100
AcDbSymbolTableRecord
100
AcDbBlockTableRecord
  2
overhead
340
0
 70
     0
280
     1
281
     0
  0
BLOCK_RECORD
  5
5F
330
1
100
AcDbSymbolTableRecord
100
AcDbBlockTableRecord
  2
sh_spot
340
0
 70
     0
280
     1
281
     0
  0
BLOCK_RECORD
  5
91
330
1
100
AcDbSymbolTableRecord
100
AcDbBlockTableRecord
  2
AVE_RENDER
340
0
102
{BLKREFS
331
94
331
95
331
96
331
97
331
98
331
99
331
9A
331
9B
102
}
 70
     0
280
     1
281
     0
  0
BLOCK_RECORD
  5
9F
330
1
100
AcDbSymbolTableRecord
100
AcDbBlockTableRecord
  2
AVE_GLOBAL
340
0
102
{BLKREFS
331
A2
102
}
 70
     0
280
     1
281
     0
  0
ENDTAB
  0
ENDSEC
  0
SECTION
  2
BLOCKS
  0
BLOCK
  5
20
330
1F
100
AcDbEntity
  8
0
100
AcDbBlockBegin
  2
*Model_Space
 70
     0
 10
0.0
 20
0.0
 30
0.0
  3
*Model_Space
  1

  0
ENDBLK
  5
21
330
1F
100
AcDbEntity
  8
0
100
AcDbBlockEnd
  0
BLOCK
  5
1C
330
1B
100
AcDbEntity
 67
     1
  8
0
100
AcDbBlockBegin
  2
*Paper_Space
 70
     0
 10
0.0
 20
0.0
 30
0.0
  3
*Paper_Space
  1

  0
ENDBLK
  5
1D
330
1B
100
AcDbEntity
 67
     1
  8
0
100
AcDbBlockEnd
  0
BLOCK
  5
24
330
23
100
AcDbEntity
 67
     1
  8
0
100
AcDbBlockBegin
  2
*Paper_Space0
 70
     0
 10
0.0
 20
0.0
 30
0.0
  3
*Paper_Space0
  1

  0
ENDBLK
  5
25
330
23
100
AcDbEntity
 67
     1
  8
0
100
AcDbBlockEnd
  0
BLOCK
  5
40
330
2E
100
AcDbEntity
  8
0
100
AcDbBlockBegin
  2
direct
 70
     2
 10
0.0
 20
0.0
 30
0.0
  3
direct
  1

  0
ATTDEF
  5
2F
330
2E
100
AcDbEntity
  8
ASHADE
  6
Continuous
 62
     1
100
AcDbText
 10
0.0
 20
-0.1
 30
0.0
 40
0.2
  1

  7
ASHADE
 72
     1
 11
0.0
 21
-0.1
 31
0.0
100
AcDbAttributeDefinition
280
     0
  3
Light Name
  2
SNAME
 70
     0
280
     0
  0
ARC
  5
30
330
2E
100
AcDbEntity
  8
ASHADE
  6
Continuous
 62
     7
100
AcDbCircle
 10
0.0
 20
0.0
 30
0.0
 40
0.3
100
AcDbArc
 50
205.6792886194569
 51
334.3207113805431
  0
ARC
  5
31
330
2E
100
AcDbEntity
  8
ASHADE
  6
Continuous
 62
     7
100
AcDbCircle
 10
0.0
 20
0.0
 30
0.0
 40
0.3
100
AcDbArc
 50
25.67928861945685
 51
154.3207113805431
  0
LINE
  5
32
330
2E
100
AcDbEntity
  8
ASHADE
  6
Continuous
 62
     7
100
AcDbLine
 10
-0.21
 20
0.2142428528562855
 30
0.0
 11
-0.21
 21
0.5
 31
0.0
  0
LINE
  5
33
330
2E
100
AcDbEntity
  8
ASHADE
  6
Continuous
 62
     7
100
AcDbLine
 10
-0.11
 20
0.2791057147390572
 30
0.0
 11
-0.11
 21
0.5
 31
0.0
  0
LINE
  5
34
330
2E
100
AcDbEntity
  8
ASHADE
  6
Continuous
 62
     7
100
AcDbLine
 10
0.21
 20
0.2142428528562855
 30
0.0
 11
0.21
 21
0.5
 31
0.0
  0
ATTDEF
  5
35
330
2E
100
AcDbEntity
  8
ASHADE
  6
Continuous
 62
     7
100
AcDbText
 10
0.0
 20
0.25
 30
0.0
 40
0.01
  1

100
AcDbAttributeDefinition
280
     0
  3
Look-at Y
  2
LAY
 70
     1
280
     0
  0
ATTDEF
  5
36
330
2E
100
AcDbEntity
  8
ASHADE
  6
Continuous
 62
     7
100
AcDbText
 10
0.0
 20
0.22
 30
0.0
 40
0.01
  1
1
100
AcDbAttributeDefinition
280
     0
  3
Light Intensity
  2
INTENSITY
 70
     1
280
     0
  0
ATTDEF
  5
37
330
2E
100
AcDbEntity
  8
ASHADE
  6
Continuous
 62
     7
100
AcDbText
 10
0.0
 20
0.16
 30
0.0
 40
0.01
  1
-1
100
AcDbAttributeDefinition
280
     0
  3
*not used*
  2
BEAMD
 70
     1
280
     0
  0
ATTDEF
  5
38
330
2E
100
AcDbEntity
  8
ASHADE
  6
Continuous
 62
     7
100
AcDbText
 10
0.0
 20
0.175
 30
0.0
 40
0.01
  1
-1
100
AcDbAttributeDefinition
280
     0
  3
*not used*
  2
CONED
 70
     1
280
     0
  0
ATTDEF
  5
39
330
2E
100
AcDbEntity
  8
ASHADE
  6
Continuous
 62
     7
100
AcDbText
 10
0.0
 20
0.19
 30
0.0
 40
0.01
  1
0
100
AcDbAttributeDefinition
280
     0
  3
Depth Map Size
  2
CONEA
 70
     1
280
     0
  0
ATTDEF
  5
3A
330
2E
100
AcDbEntity
  8
ASHADE
  6
Continuous
 62
     7
100
AcDbText
 10
0.0
 20
0.2050000000000001
 30
0.0
 40
0.01
  1
1,1,1
100
AcDbAttributeDefinition
280
     0
  3
Light Color (RGB)
  2
COLOR
 70
     1
280
     0
  0
ATTDEF
  5
3B
330
2E
100
AcDbEntity
  8
ASHADE
  6
Continuous
 62
     7
100
AcDbText
 10
0.0
 20
0.235
 30
0.0
 40
0.01
  1

100
AcDbAttributeDefinition
280
     0
  3
Look-at Z
  2
LAZ
 70
     1
280
     0
  0
LINE
  5
3C
330
2E
100
AcDbEntity
  8
ASHADE
  6
Continuous
 62
     7
100
AcDbLine
 10
0.0
 20
0.3
 30
0.0
 11
0.0
 21
0.5
 31
0.0
  0
LINE
  5
3D
330
2E
100
AcDbEntity
  8
ASHADE
  6
Continuous
 62
     7
100
AcDbLine
 10
0.11
 20
0.2791057147390572
 30
0.0
 11
0.11
 21
0.5
 31
0.0
  0
ATTDEF
  5
3E
330
2E
100
AcDbEntity
  8
ASHADE
  6
Continuous
 62
     7
100
AcDbText
 10
0.0
 20
0.265
 30
0.0
 40
0.01
  1

100
AcDbAttributeDefinition
280
     0
  3
Look-at X
  2
LAX
 70
     1
280
     0
  0
ATTDEF
  5
3F
330
2E
100
AcDbEntity
  8
ASHADE
  6
Continuous
 62
     7
100
AcDbText
 10
0.0
 20
0.28
 30
0.0
 40
0.01
  1

100
AcDbAttributeDefinition
280
     0
  3

  2
GNAME
 70
     1
280
     0
  0
ENDBLK
  5
41
330
2E
100
AcDbEntity
  8
0
100
AcDbBlockEnd
  0
BLOCK
  5
5D
330
42
100
AcDbEntity
  8
0
100
AcDbBlockBegin
  2
overhead
 70
     2
 10
0.0
 20
0.0
 30
0.0
  3
overhead
  1

  0
ATTDEF
  5
43
330
42
100
AcDbEntity
  8
ASHADE
  6
Continuous
 62
     1
100
AcDbText
 10
0.0
 20
-0.1
 30
0.0
 40
0.2
  1

  7
ASHADE
 72
     1
 11
0.0
 21
-0.1
 31
0.0
100
AcDbAttributeDefinition
280
     0
  3
Light Name
  2
SNAME
 70
     0
280
     0
  0
ARC
  5
44
330
42
100
AcDbEntity
  8
ASHADE
  6
Continuous
 62
     7
100
AcDbCircle
 10
0.0
 20
0.0
 30
0.0
 40
0.3
100
AcDbArc
 50
205.6792886194569
 51
334.3207113805431
  0
LINE
  5
45
330
42
100
AcDbEntity
  8
ASHADE
  6
Continuous
 62
     7
100
AcDbLine
 10
-0.2041413561583015
 20
-0.2198324514393848
 30
0.0
 11
-0.2721884748777353
 21
-0.2931099352525131
 31
0.0
  0
LINE
  5
46
330
42
100
AcDbEntity
  8
ASHADE
  6
Continuous
 62
     7
100
AcDbLine
 10
-0.1096591641591904
 20
-0.2792398032442862
 30
0.0
 11
-0.1279356915190555
 21
-0.3257797704516673
 31
0.0
  0
LINE
  5
47
330
42
100
AcDbEntity
  8
ASHADE
  6
Continuous
 62
     7
100
AcDbLine
 10
0.0
 20
-0.2999999999999999
 30
0.0
 11
0.0
 21
-0.4
 31
0.0
  0
LINE
  5
48
330
42
100
AcDbEntity
  8
ASHADE
  6
Continuous
 62
     7
100
AcDbLine
 10
0.1096591641591904
 20
-0.2792398032442862
 30
0.0
 11
0.1279356915190555
 21
-0.3257797704516673
 31
0.0
  0
LINE
  5
49
330
42
100
AcDbEntity
  8
ASHADE
  6
Continuous
 62
     7
100
AcDbLine
 10
0.2041413561583015
 20
-0.2198324514393848
 30
0.0
 11
0.2721884748777353
 21
-0.2931099352525131
 31
0.0
  0
ARC
  5
4A
330
42
100
AcDbEntity
  8
ASHADE
  6
Continuous
 62
     7
100
AcDbCircle
 10
0.0
 20
0.0
 30
0.0
 40
0.3
100
AcDbArc
 50
25.67928861945685
 51
154.3207113805431
  0
LINE
  5
4B
330
42
100
AcDbEntity
  8
ASHADE
  6
Continuous
 62
     7
100
AcDbLine
 10
-0.2703701166919155
 20
0.13
 30
0.0
 11
-0.3154318028072347
 21
0.1516666666666666
 31
0.0
  0
LINE
  5
4C
330
42
100
AcDbEntity
  8
ASHADE
  6
Continuous
 62
     7
100
AcDbLine
 10
-0.2703701166919155
 20
-0.13
 30
0.0
 11
-0.3154318028072347
 21
-0.1516666666666666
 31
0.0
  0
LINE
  5
4D
330
42
100
AcDbEntity
  8
ASHADE
  6
Continuous
 62
     7
100
AcDbLine
 10
-0.2041413561583015
 20
0.2198324514393849
 30
0.0
 11
-0.2721884748777353
 21
0.2931099352525131
 31
0.0
  0
LINE
  5
4E
330
42
100
AcDbEntity
  8
ASHADE
  6
Continuous
 62
     7
100
AcDbLine
 10
-0.1096591641591904
 20
0.2792398032442862
 30
0.0
 11
-0.1279356915190555
 21
0.3257797704516674
 31
0.0
  0
LINE
  5
4F
330
42
100
AcDbEntity
  8
ASHADE
  6
Continuous
 62
     7
100
AcDbLine
 10
0.2703701166919155
 20
-0.13
 30
0.0
 11
0.3154318028072347
 21
-0.1516666666666666
 31
0.0
  0
LINE
  5
50
330
42
100
AcDbEntity
  8
ASHADE
  6
Continuous
 62
     7
100
AcDbLine
 10
0.2703701166919155
 20
0.13
 30
0.0
 11
0.3154318028072347
 21
0.1516666666666666
 31
0.0
  0
LINE
  5
51
330
42
100
AcDbEntity
  8
ASHADE
  6
Continuous
 62
     7
100
AcDbLine
 10
0.0
 20
0.3
 30
0.0
 11
0.0
 21
0.4
 31
0.0
  0
ATTDEF
  5
52
330
42
100
AcDbEntity
  8
ASHADE
  6
Continuous
 62
     7
100
AcDbText
 10
0.0
 20
0.22
 30
0.0
 40
0.01
  1
1
100
AcDbAttributeDefinition
280
     0
  3
Light Intensity
  2
INTENSITY
 70
     1
280
     0
  0
ATTDEF
  5
53
330
42
100
AcDbEntity
  8
ASHADE
  6
Continuous
 62
     7
100
AcDbText
 10
0.0
 20
0.16
 30
0.0
 40
0.01
  1
-1
100
AcDbAttributeDefinition
280
     0
  3
*not used*
  2
BEAMD
 70
     1
280
     0
  0
ATTDEF
  5
54
330
42
100
AcDbEntity
  8
ASHADE
  6
Continuous
 62
     7
100
AcDbText
 10
0.0
 20
0.175
 30
0.0
 40
0.01
  1
-1
100
AcDbAttributeDefinition
280
     0
  3
*not used*
  2
CONED
 70
     1
280
     0
  0
ATTDEF
  5
55
330
42
100
AcDbEntity
  8
ASHADE
  6
Continuous
 62
     7
100
AcDbText
 10
0.0
 20
0.19
 30
0.0
 40
0.01
  1
0
100
AcDbAttributeDefinition
280
     0
  3
Depth Map Size
  2
CONEA
 70
     1
280
     0
  0
ATTDEF
  5
56
330
42
100
AcDbEntity
  8
ASHADE
  6
Continuous
 62
     7
100
AcDbText
 10
0.0
 20
0.2050000000000001
 30
0.0
 40
0.01
  1
1,1,1
100
AcDbAttributeDefinition
280
     0
  3
Light Color (RGB)
  2
COLOR
 70
     1
280
     0
  0
ATTDEF
  5
57
330
42
100
AcDbEntity
  8
ASHADE
  6
Continuous
 62
     7
100
AcDbText
 10
0.0
 20
0.235
 30
0.0
 40
0.01
  1

100
AcDbAttributeDefinition
280
     0
  3
Look-at Z
  2
LAZ
 70
     1
280
     0
  0
ATTDEF
  5
58
330
42
100
AcDbEntity
  8
ASHADE
  6
Continuous
 62
     7
100
AcDbText
 10
0.0
 20
0.25
 30
0.0
 40
0.01
  1

100
AcDbAttributeDefinition
280
     0
  3
Look-at Y
  2
LAY
 70
     1
280
     0
  0
ATTDEF
  5
59
330
42
100
AcDbEntity
  8
ASHADE
  6
Continuous
 62
     7
100
AcDbText
 10
0.0
 20
0.265
 30
0.0
 40
0.01
  1

100
AcDbAttributeDefinition
280
     0
  3
Look-at X
  2
LAX
 70
     1
280
     0
  0
ATTDEF
  5
5A
330
42
100
AcDbEntity
  8
ASHADE
  6
Continuous
 62
     7
100
AcDbText
 10
0.0
 20
0.28
 30
0.0
 40
0.01
  1

100
AcDbAttributeDefinition
280
     0
  3

  2
GNAME
 70
     1
280
     0
  0
LINE
  5
5B
330
42
100
AcDbEntity
  8
ASHADE
  6
Continuous
 62
     7
100
AcDbLine
 10
0.1096591641591904
 20
0.2792398032442862
 30
0.0
 11
0.1279356915190555
 21
0.3257797704516674
 31
0.0
  0
LINE
  5
5C
330
42
100
AcDbEntity
  8
ASHADE
  6
Continuous
 62
     7
100
AcDbLine
 10
0.2041413561583015
 20
0.2198324514393849
 30
0.0
 11
0.2721884748777353
 21
0.2931099352525131
 31
0.0
  0
ENDBLK
  5
5E
330
42
100
AcDbEntity
  8
0
100
AcDbBlockEnd
  0
BLOCK
  5
85
330
5F
100
AcDbEntity
  8
0
100
AcDbBlockBegin
  2
sh_spot
 70
     2
 10
0.0
 20
0.0
 30
0.0
  3
sh_spot
  1

  0
LINE
  5
60
330
5F
100
AcDbEntity
  8
ASHADE
  6
Continuous
 62
     7
100
AcDbLine
 10
0.25
 20
0.26
 30
0.0
 11
-0.25
 21
0.26
 31
0.0
  0
LINE
  5
61
330
5F
100
AcDbEntity
  8
ASHADE
  6
Continuous
 62
     7
100
AcDbLine
 10
-0.25
 20
-0.3399999999999999
 30
0.0
 11
0.25
 21
-0.3399999999999999
 31
0.0
  0
ATTDEF
  5
62
330
5F
100
AcDbEntity
  8
ASHADE
  6
Continuous
 62
     1
100
AcDbText
 10
0.0
 20
-0.1
 30
0.0
 40
0.2
  1

  7
ASHADE
 72
     1
 11
0.0
 21
-0.1
 31
0.0
100
AcDbAttributeDefinition
280
     0
  3
Light Name
  2
SNAME
 70
     0
280
     0
  0
LINE
  5
63
330
5F
100
AcDbEntity
  8
ASHADE
  6
Continuous
 62
     7
100
AcDbLine
 10
-0.25
 20
-0.13
 30
0.0
 11
-0.25
 21
-0.3399999999999999
 31
0.0
  0
LINE
  5
64
330
5F
100
AcDbEntity
  8
ASHADE
  6
Continuous
 62
     7
100
AcDbLine
 10
-0.25
 20
-0.18
 30
0.0
 11
-0.29
 21
-0.18
 31
0.0
  0
LINE
  5
65
330
5F
100
AcDbEntity
  8
ASHADE
  6
Continuous
 62
     7
100
AcDbLine
 10
-0.29
 20
-0.22
 30
0.0
 11
-0.25
 21
-0.22
 31
0.0
  0
LINE
  5
66
330
5F
100
AcDbEntity
  8
ASHADE
  6
Continuous
 62
     7
100
AcDbLine
 10
-0.29
 20
-0.18
 30
0.0
 11
-0.29
 21
-0.22
 31
0.0
  0
LINE
  5
67
330
5F
100
AcDbEntity
  8
ASHADE
  6
Continuous
 62
     7
100
AcDbLine
 10
-0.1045454545454545
 20
0.26
 30
0.0
 11
-0.15
 21
0.46
 31
0.0
  0
LINE
  5
68
330
5F
100
AcDbEntity
  8
ASHADE
  6
Continuous
 62
     7
100
AcDbLine
 10
-0.21
 20
0.26
 30
0.0
 11
-0.301304347826087
 21
0.46
 31
0.0
  0
LINE
  5
69
330
5F
100
AcDbEntity
  8
ASHADE
  6
Continuous
 62
     7
100
AcDbLine
 10
-0.25
 20
0.26
 30
0.0
 11
-0.25
 21
0.13
 31
0.0
  0
LINE
  5
6A
330
5F
100
AcDbEntity
  8
ASHADE
  6
Continuous
 62
     7
100
AcDbLine
 10
-0.25
 20
0.22
 30
0.0
 11
-0.29
 21
0.22
 31
0.0
  0
LINE
  5
6B
330
5F
100
AcDbEntity
  8
ASHADE
  6
Continuous
 62
     7
100
AcDbLine
 10
-0.29
 20
0.1799999999999999
 30
0.0
 11
-0.25
 21
0.1799999999999999
 31
0.0
  0
LINE
  5
6C
330
5F
100
AcDbEntity
  8
ASHADE
  6
Continuous
 62
     7
100
AcDbLine
 10
-0.29
 20
0.22
 30
0.0
 11
-0.29
 21
0.1799999999999999
 31
0.0
  0
ATTDEF
  5
6D
330
5F
100
AcDbEntity
  8
ASHADE
  6
Continuous
 62
     7
100
AcDbText
 10
0.0
 20
-0.24
 30
0.0
 40
0.01
  1
0
100
AcDbAttributeDefinition
280
     0
  3
Depth Map Size
  2
ZSIZE
 70
     1
280
     0
  0
ATTDEF
  5
6E
330
5F
100
AcDbEntity
  8
ASHADE
  6
Continuous
 62
     7
100
AcDbText
 10
0.0
 20
-0.3300000000000001
 30
0.0
 40
0.01
  1
0,0,0
100
AcDbAttributeDefinition
280
     0
  3
Look-from XYZ
  2
LFXYZ
 70
     1
280
     0
  0
ATTDEF
  5
6F
330
5F
100
AcDbEntity
  8
ASHADE
  6
Continuous
 62
     7
100
AcDbText
 10
0.0
 20
-0.315
 30
0.0
 40
0.01
  1
0.0
100
AcDbAttributeDefinition
280
     0
  3
Beam Distribution
  2
BEAMDI
 70
     1
280
     0
  0
ATTDEF
  5
70
330
5F
100
AcDbEntity
  8
ASHADE
  6
Continuous
 62
     7
100
AcDbText
 10
0.0
 20
-0.3
 30
0.0
 40
0.01
  1
0.0
100
AcDbAttributeDefinition
280
     0
  3
Cone Delta
  2
CONEDE
 70
     1
280
     0
  0
ATTDEF
  5
71
330
5F
100
AcDbEntity
  8
ASHADE
  6
Continuous
 62
     7
100
AcDbText
 10
0.0
 20
-0.2850000000000001
 30
0.0
 40
0.01
  1
10.0
100
AcDbAttributeDefinition
280
     0
  3
Cone Angle
  2
CONEAN
 70
     1
280
     0
  0
ATTDEF
  5
72
330
5F
100
AcDbEntity
  8
ASHADE
  6
Continuous
 62
     7
100
AcDbText
 10
0.0
 20
-0.27
 30
0.0
 40
0.01
  1
-1
100
AcDbAttributeDefinition
280
     0
  3
*not used*
  2
BIASMAX
 70
     1
280
     0
  0
ATTDEF
  5
73
330
5F
100
AcDbEntity
  8
ASHADE
  6
Continuous
 62
     7
100
AcDbText
 10
0.0
 20
-0.255
 30
0.0
 40
0.01
  1
-1
100
AcDbAttributeDefinition
280
     0
  3
*not used*
  2
BIASMIN
 70
     1
280
     0
  0
ATTDEF
  5
74
330
5F
100
AcDbEntity
  8
ASHADE
  6
Continuous
 62
     7
100
AcDbText
 10
0.0
 20
-0.225
 30
0.0
 40
0.01
  1
1,1,1
100
AcDbAttributeDefinition
280
     0
  3
Light Color (RGB)
  2
COLOR
 70
     1
280
     0
  0
ATTDEF
  5
75
330
5F
100
AcDbEntity
  8
ASHADE
  6
Continuous
 62
     7
100
AcDbText
 10
0.0
 20
-0.21
 30
0.0
 40
0.01
  1
1
100
AcDbAttributeDefinition
280
     0
  3
Light Intensity
  2
INTENSITY
 70
     1
280
     0
  0
ATTDEF
  5
76
330
5F
100
AcDbEntity
  8
ASHADE
  6
Continuous
 62
     7
100
AcDbText
 10
0.0
 20
-0.15
 30
0.0
 40
0.01
  1

100
AcDbAttributeDefinition
280
     0
  3

  2
GNAME
 70
     1
280
     0
  0
ATTDEF
  5
77
330
5F
100
AcDbEntity
  8
ASHADE
  6
Continuous
 62
     7
100
AcDbText
 10
0.0
 20
-0.195
 30
0.0
 40
0.01
  1

100
AcDbAttributeDefinition
280
     0
  3
Look-at Z
  2
LAZ
 70
     1
280
     0
  0
ATTDEF
  5
78
330
5F
100
AcDbEntity
  8
ASHADE
  6
Continuous
 62
     7
100
AcDbText
 10
0.0
 20
-0.18
 30
0.0
 40
0.01
  1

100
AcDbAttributeDefinition
280
     0
  3
Look-at Y
  2
LAY
 70
     1
280
     0
  0
ATTDEF
  5
79
330
5F
100
AcDbEntity
  8
ASHADE
  6
Continuous
 62
     7
100
AcDbText
 10
0.0
 20
-0.165
 30
0.0
 40
0.01
  1

100
AcDbAttributeDefinition
280
     0
  3
Look-at X
  2
LAX
 70
     1
280
     0
  0
LINE
  5
7A
330
5F
100
AcDbEntity
  8
ASHADE
  6
Continuous
 62
     7
100
AcDbLine
 10
0.25
 20
-0.3399999999999999
 30
0.0
 11
0.25
 21
-0.13
 31
0.0
  0
LINE
  5
7B
330
5F
100
AcDbEntity
  8
ASHADE
  6
Continuous
 62
     7
100
AcDbLine
 10
0.25
 20
-0.18
 30
0.0
 11
0.29
 21
-0.18
 31
0.0
  0
LINE
  5
7C
330
5F
100
AcDbEntity
  8
ASHADE
  6
Continuous
 62
     7
100
AcDbLine
 10
0.29
 20
-0.22
 30
0.0
 11
0.25
 21
-0.22
 31
0.0
  0
LINE
  5
7D
330
5F
100
AcDbEntity
  8
ASHADE
  6
Continuous
 62
     7
100
AcDbLine
 10
0.29
 20
-0.18
 30
0.0
 11
0.29
 21
-0.22
 31
0.0
  0
LINE
  5
7E
330
5F
100
AcDbEntity
  8
ASHADE
  6
Continuous
 62
     7
100
AcDbLine
 10
0.21
 20
0.26
 30
0.0
 11
0.301304347826087
 21
0.46
 31
0.0
  0
LINE
  5
7F
330
5F
100
AcDbEntity
  8
ASHADE
  6
Continuous
 62
     7
100
AcDbLine
 10
0.1045454545454545
 20
0.26
 30
0.0
 11
0.15
 21
0.46
 31
0.0
  0
LINE
  5
80
330
5F
100
AcDbEntity
  8
ASHADE
  6
Continuous
 62
     7
100
AcDbLine
 10
0.0
 20
0.26
 30
0.0
 11
0.0
 21
0.46
 31
0.0
  0
LINE
  5
81
330
5F
100
AcDbEntity
  8
ASHADE
  6
Continuous
 62
     7
100
AcDbLine
 10
0.25
 20
0.13
 30
0.0
 11
0.25
 21
0.26
 31
0.0
  0
LINE
  5
82
330
5F
100
AcDbEntity
  8
ASHADE
  6
Continuous
 62
     7
100
AcDbLine
 10
0.25
 20
0.22
 30
0.0
 11
0.29
 21
0.22
 31
0.0
  0
LINE
  5
83
330
5F
100
AcDbEntity
  8
ASHADE
  6
Continuous
 62
     7
100
AcDbLine
 10
0.29
 20
0.1799999999999999
 30
0.0
 11
0.25
 21
0.1799999999999999
 31
0.0
  0
LINE
  5
84
330
5F
100
AcDbEntity
  8
ASHADE
  6
Continuous
 62
     7
100
AcDbLine
 10
0.29
 20
0.22
 30
0.0
 11
0.29
 21
0.1799999999999999
 31
0.0
  0
ENDBLK
  5
86
330
5F
100
AcDbEntity
  8
0
100
AcDbBlockEnd
  0
BLOCK
  5
92
330
91
100
AcDbEntity
  8
ASHADE
100
AcDbBlockBegin
  2
AVE_RENDER
 70
     0
 10
0.0
 20
0.0
 30
0.0
  3
AVE_RENDER
  1
AVE_RENDER
  0
ENDBLK
  5
93
330
91
100
AcDbEntity
  8
0
100
AcDbBlockEnd
  0
BLOCK
  5
A0
330
9F
100
AcDbEntity
  8
ASHADE
100
AcDbBlockBegin
  2
AVE_GLOBAL
 70
     0
 10
0.0
 20
0.0
 30
0.0
  3
AVE_GLOBAL
  1
AVE_GLOBAL
  0
ENDBLK
  5
A1
330
9F
100
AcDbEntity
  8
0
100
AcDbBlockEnd
  0
ENDSEC
  0
SECTION
  2
ENTITIES
  0
INSERT
  5
94
330
1F
100
AcDbEntity
  8
ASHADE
 62
     1
100
AcDbBlockReference
  2
AVE_RENDER
 10
0.0
 20
0.0
 30
0.0
1001
AVE_RENDER
1002
{
1070
     7
1000
Pref
1070
    30
1070
    20
1070
     1
1070
     0
1000

1070
    10
1070
     1
1070
    10
1040
1.0
1070
     1
1040
0.3
1040
0.7
1040
0.0
1040
10.0
1010
-1.0
1020
-1.0
1030
-1.0
1040
0.3
1070
    49
1070
     0
1070
     0
1010
1.0
1020
1.0
1030
1.0
1040
45.0
1070
     1
1070
     0
1000
WCS
1040
0.0
1070
     0
1040
10.0
1002
}
  0
INSERT
  5
95
330
1F
100
AcDbEntity
  8
ASHADE
 62
     3
100
AcDbBlockReference
  2
AVE_RENDER
 10
0.0
 20
0.0
 30
0.0
1001
AVE_RENDER
1002
{
1070
     0
1000
Full Opt
1070
     0
1070
     1
1070
     1
1070
     1
1070
     0
1070
     0
1070
     0
1070
     1
1070
     1
1040
0.0001
1040
0.0001
1002
}
  0
INSERT
  5
96
330
1F
100
AcDbEntity
  8
ASHADE
 62
     4
100
AcDbBlockReference
  2
AVE_RENDER
 10
0.0
 20
0.0
 30
0.0
1001
AVE_RENDER
1002
{
1070
     0
1000
Quick Opt
1070
     0
1070
     1
1070
     1
1070
     1
1070
     0
1070
     0
1070
     1
1002
}
  0
INSERT
  5
97
330
1F
100
AcDbEntity
  8
ASHADE
 62
     5
100
AcDbBlockReference
  2
AVE_RENDER
 10
0.0
 20
0.0
 30
0.0
1001
AVE_RENDER
1002
{
1070
     1
1000
Scanl Opt
1070
     2
1070
     0
1070
     2
1040
2.0
1040
4.0
1070
     0
1070
     1
1070
     0
1040
0.03
1002
}
  0
INSERT
  5
98
330
1F
100
AcDbEntity
  8
ASHADE
 62
     6
100
AcDbBlockReference
  2
AVE_RENDER
 10
0.0
 20
0.0
 30
0.0
1001
AVE_RENDER
1002
{
1070
     2
1000
Raytr Opt
1070
     2
1070
     0
1070
     2
1040
2.0
1040
4.0
1070
     0
1070
     1
1070
     1
1040
0.03
1070
     3
1040
0.03
1002
}
  0
INSERT
  5
99
330
1F
100
AcDbEntity
  8
ASHADE
 62
     7
100
AcDbBlockReference
  2
AVE_RENDER
 10
0.0
 20
0.0
 30
0.0
1001
AVE_RENDER
1002
{
1070
     0
1000
RFile Opt
1070
     1
1070
   640
1070
   480
1070
 10000
1070
     1
1070
     8
1070
     8
1070
     0
1070
     0
1070
     0
1070
     0
1070
     0
1070
     0
1070
     0
1002
}
  0
INSERT
  5
9A
330
1F
100
AcDbEntity
  8
ASHADE
 62
     8
100
AcDbBlockReference
  2
AVE_RENDER
 10
0.0
 20
0.0
 30
0.0
1001
AVE_RENDER
1002
{
1070
     0
1000
Fog Opt
1070
     0
1070
     0
1040
0.0
1040
1.0
1040
0.0
1040
1.0
1010
0.5
1020
0.5
1030
0.5
1002
}
  0
INSERT
  5
9B
330
1F
100
AcDbEntity
  8
ASHADE
 62
     9
100
AcDbBlockReference
  2
AVE_RENDER
 10
0.0
 20
0.0
 30
0.0
1001
AVE_RENDER
1002
{
1070
     0
1000
BG Opt
1070
     0
1070
     1
1010
0.0
1020
0.0
1030
0.0
1010
1.0
1020
0.0
1030
0.0
1010
0.0
1020
1.0
1030
0.0
1010
0.0
1020
0.0
1030
1.0
1040
0.5
1040
0.33
1040
0.0
1000

1070
     1
1000

1070
     1
1070
     1
1040
1.0
1040
1.0
1040
0.0
1040
0.0
1070
     0
1002
}
  0
INSERT
  5
A2
330
1F
100
AcDbEntity
  8
ASHADE
 62
     1
100
AcDbBlockReference
  2
AVE_GLOBAL
 10
0.0
 20
0.0
 30
0.0
1001
AVE_MATERIAL
1002
{
1000
*GLOBAL*
1000
2
1000
Global finish.
1002
{
1002
}
1002
{
1070
    63
1002
{
1002
{
1010
-1.0
1020
-1.0
1030
-1.0
1002
}
1040
0.1000000014901161
1000

1040
0.0
1002
{
1002
}
1040
0.0
1002
{
1002
}
1040
0.0
1002
}
1002
{
1002
{
1010
-1.0
1020
-1.0
1030
-1.0
1002
}
1040
0.6999999880790711
1000

1040
0.0
1002
{
1002
}
1040
0.0
1002
{
1002
}
1040
0.0
1002
}
1002
{
1002
{
1010
-1.0
1020
-1.0
1030
-1.0
1002
}
1040
0.2000000029802322
1000

1040
0.0
1002
{
1002
}
1040
0.0
1002
{
1002
}
1040
0.0
1002
}
1002
{
1070
     0
1002
{
1070
     1
1002
{
1040
1.0
1040
1.0
1000

1040
0.0
1002
{
1002
}
1040
0.0
1002
{
1002
}
1040
0.0
1002
}
1002
}
1040
1.0
1040
0.0
1040
0.0
1002
}
1002
{
1040
1.0
1040
1.0
1000

1040
0.0
1002
{
1002
}
1040
0.0
1002
{
1002
}
1040
0.0
1002
}
1002
{
1040
0.5
1040
1.0
1000

1040
0.0
1002
{
1002
}
1040
0.0
1002
{
1002
}
1040
0.0
1002
}
1002
{
1070
     0
1040
0.0
1002
{
1002
}
1040
1.0
1002
{
1002
}
1040
0.0
1002
}
1002
{
1040
0.0
1002
{
1002
{
1010
0.0
1020
0.0
1030
0.0
1002
}
1040
1.0
1000

1040
0.0
1002
{
1002
}
1040
0.0
1002
{
1002
}
1040
0.0
1002
}
1002
}
1002
{
1002
{
1070
     1
1002
{
1040
0.0
1040
1.0
1000

1040
0.0
1002
{
1002
}
1040
0.0
1002
{
1002
}
1040
0.0
1002
}
1002
}
1040
0.0
1002
{
1002
}
1010
1.0
1020
0.0
1030
0.0
1010
0.0
1020
1.0
1030
0.0
1010
0.0
1020
0.0
1030
1.0
1070
     0
1002
}
1002
{
1002
{
1040
1.0
1040
1.0
1002
{
1070
     1
1002
{
1040
1.0
1040
1.0
1000

1040
0.0
1002
{
1002
}
1040
0.0
1002
{
1002
}
1040
0.0
1002
}
1002
}
1002
}
1070
     0
1040
0.0
1002
{
1002
}
1002
}
1002
{
1002
}
1002
}
1002
{
1071
        3
1070
     3
1070
     0
1002
{
1070
     2
1070
     0
1070
     0
1040
0.0
1002
}
1070
     0
1070
     2
1002
{
1002
}
1002
}
1002
{
1040
8030.0
1040
190.3000030517578
1040
0.3050000071525574
1040
228.0
1040
545.0
1040
14.0
1040
17.39999961853027
1040
0.4560000002384186
1002
}
1002
}
  0
MESH
  5
F9
330
1F
100
AcDbEntity
  8
OracDecor_cornice_mouldings
 62
   134
420
  1814932
160
             28016
310
706D00000A0300000C00000013000000020000003C00000006000000020000000000000000408FC00000000057550DC0000000C0FF7F45C00000000000408FC0000000000000C0BE000000C0FF7F45C00C000000130000000A0000003C00000006000000020000000000000000408FC0000000000000C0BE000000C0FF7F45
310
C00000000000408F40000000000000C0BE000000C0FF7F45C00C00000013000000120000003C00000006000000020000000000000000408F40000000000000C0BE000000C0FF7F45C00000000000408F400000000057550DC0000000C0FF7F45C00C000000130000001A0000003C0000000600000002000000000000000040
310
8FC00000000057550DC0000000C0FF7F45C00000000000408F400000000057550DC0000000C0FF7F45C00C00000013000000220000003C00000006000000020000000000000000408FC0000000000000C0BE000000C0FF7F45C00000000000408FC00000000000000000000000C0A66535C00C000000130000002A0000003C
310
00000006000000020000000000000000408FC00000000000000000000000C0A66535C00000000000408F400000000000000000000000C0A66535C00C00000013000000320000003C00000006000000020000000000000000408F400000000000000000000000C0A66535C00000000000408F40000000000000C0BE000000C0
310
FF7F45C00C000000130000003A0000003C00000006000000020000000000000000408FC00000000000000000000000C0A66535C00000000000408FC000000000900ECABF000000803BF633C00C00000013000000420000003C00000006000000020000000000000000408FC000000000900ECABF000000803BF633C0000000
310
0000408F4000000000900ECABF000000803BF633C00C000000130000004A0000003C00000006000000020000000000000000408F4000000000900ECABF000000803BF633C00000000000408F400000000000000000000000C0A66535C00C00000013000000520000003C00000006000000020000000000000000408FC00000
310
0000900ECABF000000803BF633C00000000000408FC000000000467DE9BF00000080B7A532C00C000000130000005A0000003C00000006000000020000000000000000408FC000000000467DE9BF00000080B7A532C00000000000408F4000000000467DE9BF00000080B7A532C00C00000013000000620000003C00000006
310
000000020000000000000000408F4000000000467DE9BF00000080B7A532C00000000000408F4000000000900ECABF000000803BF633C00C000000130000006A0000003C00000006000000020000000000000000408FC000000000467DE9BF00000080B7A532C00000000000408FC00000000044ACFBBF000000407F9031C0
310
0C00000013000000720000003C00000006000000020000000000000000408FC00000000044ACFBBF000000407F9031C00000000000408F400000000044ACFBBF000000407F9031C00C000000130000007A0000003C00000006000000020000000000000000408F400000000044ACFBBF000000407F9031C00000000000408F
310
4000000000467DE9BF00000080B7A532C00C00000013000000820000003C00000006000000020000000000000000408FC000000000976307C000000020CDCD30C00000000000408FC00000000044ACFBBF000000407F9031C00C000000130000008A0000003C00000006000000020000000000000000408FC0000000009763
310
07C000000020CDCD30C00000000000408F4000000000976307C000000000CDCD30C00C00000013000000920000003C00000006000000020000000000000000408F4000000000976307C000000000CDCD30C00000000000408F400000000044ACFBBF000000407F9031C00C000000130000009A0000003C0000000600000002
310
0000000000000000408FC000000000976307C000000020CDCD30C00000000000408FC0000000E031F015C00000004092212FC00C00000013000000A20000003C00000006000000020000000000000000408FC0000000E031F015C00000004092212FC00000000000408F40000000C031F015C00000004092212FC00C000000
310
13000000AA0000003C00000006000000020000000000000000408F40000000C031F015C00000004092212FC00000000000408F4000000000976307C000000000CDCD30C00C00000013000000B20000003C00000006000000020000000000000000408FC0000000E031F015C00000004092212FC00000000000408FC0000000
310
2093FE1EC000000020A48B2CC00C00000013000000BA0000003C00000006000000020000000000000000408FC00000002093FE1EC000000020A48B2CC00000000000408F400000002093FE1EC000000000A48B2CC00C00000013000000C20000003C00000006000000020000000000000000408F40000000C031F015C00000
310
004092212FC00000000000408F400000002093FE1EC000000000A48B2CC00C00000013000000CA0000003C00000006000000020000000000000000408FC00000002093FE1EC000000020A48B2CC00000000000408FC000000060CA7123C0000000606DDD29C00C00000013000000D20000003C000000060000000200000000
310
00000000408FC000000060CA7123C0000000606DDD29C00000000000408F4000000040CA7123C0000000406DDD29C00C00000013000000DA0000003C00000006000000020000000000000000408F400000002093FE1EC000000000A48B2CC00000000000408F4000000040CA7123C0000000406DDD29C00C00000013000000
310
E20000003C00000006000000020000000000000000408FC000000060CA7123C0000000606DDD29C00000000000408FC0000000E0DBD326C000000060611C27C00C00000013000000EA0000003C00000006000000020000000000000000408FC0000000E0DBD326C000000060611C27C00000000000408F40000000C0DBD326
310
C000000040611C27C00C00000013000000F20000003C00000006000000020000000000000000408F4000000040CA7123C0000000406DDD29C00000000000408F40000000C0DBD326C000000040611C27C00C00000013000000FA0000003C00000006000000020000000000000000408FC0000000E0DBD326C000000060611C
310
27C00000000000408FC0000000C042A929C000000040C25124C00C00000013000000020100003C00000006000000020000000000000000408FC0000000C042A929C000000040C25124C00000000000408F40000000C042A929C000000040C25124C00C000000130000000A0100003C00000006000000020000000000000000
310
408F40000000C0DBD326C000000040611C27C00000000000408F40000000C042A929C000000040C25124C00C00000013000000120100003C00000006000000020000000000000000408FC0000000C042A929C000000040C25124C00000000000408FC0000000A07BFA2BC0000000409A8821C00C000000130000001A010000
310
3C00000006000000020000000000000000408FC0000000A07BFA2BC0000000409A8821C00000000000408F40000000A07BFA2BC0000000409A8821C00C00000013000000220100003C00000006000000020000000000000000408F40000000C042A929C000000040C25124C00000000000408F40000000A07BFA2BC0000000
310
409A8821C00C000000130000002A0100003C00000006000000020000000000000000408FC0000000A07BFA2BC0000000409A8821C00000000000408FC0000000A04FD52DC0000000007E831DC00C00000013000000320100003C00000006000000020000000000000000408FC0000000A04FD52DC0000000007E831DC00000
310
000000408F40000000A04FD52DC0000000007E831DC00C000000130000003A0100003C00000006000000020000000000000000408F40000000A07BFA2BC0000000409A8821C00000000000408F40000000A04FD52DC0000000007E831DC00C00000013000000420100003C00000006000000020000000000000000408FC000
310
0000A04FD52DC0000000007E831DC00000000000408FC000000040C1482FC00000008039F417C00C000000130000004A0100003C00000006000000020000000000000000408FC000000040C1482FC00000008039F417C00000000000408F4000000040C1482FC00000008039F417C00C00000013000000520100003C000000
310
06000000020000000000000000408F40000000A04FD52DC0000000007E831DC00000000000408F4000000040C1482FC00000008039F417C00C000000130000005A0100003C00000006000000020000000000000000408FC000000040C1482FC00000008039F417C00000000000408FC0000000C0AF9730C00000000027FB08
310
C00C00000013000000620100003C00000006000000020000000000000000408FC0000000C0AF9730C00000000027FB08C00000000000408F40000000C0AF9730C00000000027FB08C00C000000130000006A0100003C00000006000000020000000000000000408F4000000040C1482FC00000008039F417C0000000000040
310
8F40000000C0AF9730C00000000027FB08C00C00000013000000720100003C00000006000000020000000000000000408FC0000000C0AF9730C00000000027FB08C00000000000408FC000000000ABEA30C0000000000000E43E0C000000130000007A0100003C00000006000000020000000000000000408FC000000000AB
310
EA30C0000000000000E43E0000000000408F4000000000ABEA30C0000000000000E43E0C00000013000000820100003C00000006000000020000000000000000408F40000000C0AF9730C00000000027FB08C00000000000408F4000000000ABEA30C0000000000000E43E0C000000130000008A0100003C00000006000000
310
020000000000000000408FC000000000ABEA30C0000000000000E43E0000000000408FC00000008000003DC0000000000000E43E0C00000013000000920100003C00000006000000020000000000000000408FC00000008000003DC0000000000000E43E0000000000408F400000008000003DC0000000000000E43E0C0000
310
00130000009A0100003C00000006000000020000000000000000408F400000008000003DC0000000000000E43E0000000000408F4000000000ABEA30C0000000000000E43E0C00000013000000A20100003C00000006000000020000000000000000408FC00000008000003DC0000000000000E43E0000000000408FC00000
310
008000003DC00000000061660EC00C00000013000000AA0100003C00000006000000020000000000000000408F400000008000003DC00000000061660EC00000000000408FC00000008000003DC00000000061660EC00C00000013000000B20100003C00000006000000020000000000000000408F400000008000003DC000
310
0000000000E43E0000000000408F400000008000003DC00000000061660EC00C00000013000000BA0100003C00000006000000020000000000000000408FC000000040CDCC3CC000000000FBFF0FC00000000000408FC000000040075A3BC000000000FBFF0FC00C00000013000000C20100003C0000000600000002000000
310
0000000000408F4000000040075A3BC000000000FBFF0FC00000000000408FC000000040075A3BC000000000FBFF0FC00C00000013000000CA0100003C00000006000000020000000000000000408F4000000040075A3BC000000000FBFF0FC00000000000408F4000000040CDCC3CC000000000FBFF0FC00C000000130000
310
00D20100003C00000006000000020000000000000000408FC000000040CDCC3CC000000000FBFF0FC00000000000408F4000000040CDCC3CC000000000FBFF0FC00C00000013000000DA0100003C00000006000000020000000000000000408FC0000000E09BC93AC000000000DF3A10C00000000000408FC000000080433C
310
3AC00000000056AF10C00C00000013000000E20100003C00000006000000020000000000000000408F4000000080433C3AC00000000056AF10C00000000000408FC000000080433C3AC00000000056AF10C00C00000013000000EA0100003C00000006000000020000000000000000408F4000000080433C3AC00000000056
310
AF10C00000000000408F40000000C09BC93AC000000000DF3A10C00C00000013000000F20100003C00000006000000020000000000000000408FC0000000E09BC93AC000000000DF3A10C00000000000408F40000000C09BC93AC000000000DF3A10C00C00000013000000FA0100003C000000060000000200000000000000
310
00408FC000000060CBB839C000000080349011C00000000000408FC000000020274039C000000000E6DD12C00C00000013000000020200003C00000006000000020000000000000000408F4000000000274039C000000000E6DD12C00000000000408FC000000020274039C000000000E6DD12C00C000000130000000A0200
310
003C00000006000000020000000000000000408F4000000000274039C000000000E6DD12C00000000000408F4000000040CBB839C000000040349011C00C00000013000000120200003C00000006000000020000000000000000408FC000000060CBB839C000000080349011C00000000000408F4000000040CBB839C00000
310
0040349011C00C000000130000001A0200003C00000006000000020000000000000000408FC0000000C08BDC38C000000080017914C00000000000408FC0000000E0DE8A38C0000000009B7216C00C00000013000000220200003C00000006000000020000000000000000408F40000000C0DE8A38C0000000009B7216C000
310
00000000408FC0000000E0DE8A38C0000000009B7216C00C000000130000002A0200003C00000006000000020000000000000000408F40000000C0DE8A38C0000000009B7216C00000000000408F40000000C08BDC38C000000080017914C00C00000013000000320200003C00000006000000020000000000000000408FC0
310
000000C08BDC38C000000080017914C00000000000408F40000000C08BDC38C000000080017914C00C000000130000003A0200003C00000006000000020000000000000000408FC0000000807B5538C0000000004E8618C00000000000408FC0000000A0583438C000000000E2361BC00C00000013000000420200003C0000
310
0006000000020000000000000000408F4000000080583438C0000000C0E1361BC00000000000408FC0000000A0583438C000000000E2361BC00C000000130000004A0200003C00000006000000020000000000000000408F4000000080583438C0000000C0E1361BC00000000000408F40000000807B5538C0000000C04D86
310
18C00C00000013000000520200003C00000006000000020000000000000000408FC0000000807B5538C0000000004E8618C00000000000408F40000000807B5538C0000000C04D8618C00C000000130000005A0200003C00000006000000020000000000000000408FC0000000E077F737C000000080FDFF1BC00000000000
310
408FC000000060EF6E36C000000080FDFF1BC00C00000013000000620200003C00000006000000020000000000000000408F4000000040EF6E36C000000080FDFF1BC00000000000408FC000000060EF6E36C000000080FDFF1BC00C000000130000006A0200003C00000006000000020000000000000000408F4000000040
310
EF6E36C000000080FDFF1BC00000000000408F40000000C077F737C000000040FDFF1BC00C00000013000000720200003C00000006000000020000000000000000408FC0000000E077F737C000000080FDFF1BC00000000000408F40000000C077F737C000000040FDFF1BC00C000000130000007A0200003C000000060000
310
00020000000000000000408FC0000000409B3936C0000000009DCC1CC00000000000408FC0000000A0FF2D36C000000060399420C00C00000013000000820200003C00000006000000020000000000000000408FC0000000A0FF2D36C000000060399420C00000000000408F4000000080FF2D36C000000040399420C00C00
310
0000130000008A0200003C00000006000000020000000000000000408F4000000080FF2D36C000000040399420C00000000000408F40000000409B3936C0000000009DCC1CC00C00000013000000920200003C00000006000000020000000000000000408FC0000000409B3936C0000000009DCC1CC00000000000408F4000
310
0000409B3936C0000000009DCC1CC00C000000130000009A0200003C00000006000000020000000000000000408FC0000000A0FF2D36C000000060399420C00000000000408FC0000000C0A60836C00000002009EF22C00C00000013000000A20200003C00000006000000020000000000000000408FC0000000C0A60836C0
310
0000002009EF22C00000000000408F40000000C0A60836C00000000009EF22C00C00000013000000AA0200003C00000006000000020000000000000000408F40000000C0A60836C00000000009EF22C00000000000408F4000000080FF2D36C000000040399420C00C00000013000000B20200003C00000006000000020000
310
000000000000408FC0000000C0A60836C00000002009EF22C00000000000408FC0000000600ACC35C0000000C0581025C00C00000013000000BA0200003C00000006000000020000000000000000408FC0000000600ACC35C0000000C0581025C00000000000408F40000000400ACC35C0000000C0581025C00C0000001300
310
0000C20200003C00000006000000020000000000000000408F40000000400ACC35C0000000C0581025C00000000000408F40000000C0A60836C00000000009EF22C00C00000013000000CA0200003C00000006000000020000000000000000408FC0000000600ACC35C0000000C0581025C00000000000408FC00000004096
310
7D35C0000000C058F126C00C00000013000000D20200003C00000006000000020000000000000000408FC000000040967D35C0000000C058F126C00000000000408F4000000040967D35C0000000C058F126C00C00000013000000DA0200003C00000006000000020000000000000000408F40000000400ACC35C0000000C0
310
581025C00000000000408F4000000040967D35C0000000C058F126C00C00000013000000E20200003C00000006000000020000000000000000408FC000000040967D35C0000000C058F126C00000000000408FC0000000801C1935C0000000E09EAA28C00C00000013000000EA0200003C0000000600000002000000000000
310
0000408FC0000000801C1935C0000000E09EAA28C00000000000408F40000000801C1935C0000000C09EAA28C00C00000013000000F20200003C00000006000000020000000000000000408F40000000801C1935C0000000C09EAA28C00000000000408F4000000040967D35C0000000C058F126C00C00000013000000FA02
310
00003C00000006000000020000000000000000408FC0000000801C1935C0000000E09EAA28C00000000000408FC000000020459C34C0000000E05F4E2AC00C00000013000000020300003C00000006000000020000000000000000408FC000000020459C34C0000000E05F4E2AC00000000000408F4000000020459C34C000
310
0000C05F4E2AC00C000000130000000A0300003C00000006000000020000000000000000408F4000000020459C34C0000000C05F4E2AC00000000000408F40000000801C1935C0000000C09EAA28C00C00000013000000120300003C00000006000000020000000000000000408FC000000020459C34C0000000E05F4E2AC0
310
0000000000408FC00000002042FC33C000000020BAF82BC00C000000130000001A0300003C00000006000000020000000000000000408FC00000002042FC33C000000020BAF82BC00000000000408F400000002042FC33C000000000BAF82BC00C00000013000000220300003C00000006000000020000000000000000408F
310
4000000020459C34C0000000C05F4E2AC00000000000408F400000002042FC33C000000000BAF82BC00C000000130000002A0300003C00000006000000020000000000000000408FC00000002042FC33C000000020BAF82BC00000000000408FC0000000A04A3833C0000000805CA52DC00C00000013000000320300003C00
310
000006000000020000000000000000408FC0000000A04A3833C0000000805CA52DC00000000000408F40000000A04A3833C0000000805CA52DC00C000000130000003A0300003C00000006000000020000000000000000408F40000000A04A3833C0000000805CA52DC00000000000408F400000002042FC33C000000000BA
310
F82BC00C00000013000000420300003C00000006000000020000000000000000408FC0000000A04A3833C0000000805CA52DC00000000000408FC0000000C0B04D32C0000000002F502FC00C000000130000004A0300003C00000006000000020000000000000000408FC0000000C0B04D32C0000000002F502FC000000000
310
00408F40000000C0B04D32C0000000002F502FC00C00000013000000520300003C00000006000000020000000000000000408F40000000C0B04D32C0000000002F502FC00000000000408F40000000A04A3833C0000000805CA52DC00C000000130000005A0300003C00000006000000020000000000000000408FC0000000
310
C0B04D32C0000000002F502FC00000000000408FC0000000E0C54331C000000020E76F30C00C00000013000000620300003C00000006000000020000000000000000408FC0000000E0C54331C000000020E76F30C00000000000408F40000000E0C54331C000000020E76F30C00C000000130000006A0300003C0000000600
310
0000020000000000000000408F40000000C0B04D32C0000000002F502FC00000000000408F40000000E0C54331C000000020E76F30C00C00000013000000720300003C00000006000000020000000000000000408FC0000000E0C54331C000000020E76F30C00000000000408FC0000000E0748230C000000080B7EB30C00C
310
000000130000007A0300003C00000006000000020000000000000000408FC0000000E0748230C000000080B7EB30C00000000000408F40000000E0748230C000000080B7EB30C00C00000013000000820300003C00000006000000020000000000000000408F40000000E0C54331C000000020E76F30C00000000000408F40
310
000000E0748230C000000080B7EB30C00C000000130000008A0300003C00000006000000020000000000000000408FC0000000E0748230C000000080B7EB30C00000000000408FC0000000C0FE842FC000000020F25731C00C00000013000000920300003C00000006000000020000000000000000408FC0000000C0FE842F
310
C000000020F25731C00000000000408F40000000C0FE842FC000000020F25731C00C000000130000009A0300003C00000006000000020000000000000000408F40000000E0748230C000000080B7EB30C00000000000408F40000000C0FE842FC000000020F25731C00C00000013000000A20300003C000000060000000200
310
00000000000000408FC0000000C0FE842FC000000020F25731C00000000000408FC0000000A031052EC000000020D6B331C00C00000013000000AA0300003C00000006000000020000000000000000408FC0000000A031052EC000000020D6B331C00000000000408F40000000A031052EC000000020D6B331C00C00000013
310
000000B20300003C00000006000000020000000000000000408F40000000C0FE842FC000000020F25731C00000000000408F40000000A031052EC000000020D6B331C00C00000013000000BA0300003C00000006000000020000000000000000408FC0000000A031052EC000000020D6B331C00000000000408FC000000000
310
CFDB2BC000000060A22632C00C00000013000000C20300003C00000006000000020000000000000000408FC000000000CFDB2BC000000060A22632C00000000000408F4000000000CFDB2BC000000060A22632C00C00000013000000CA0300003C00000006000000020000000000000000408F40000000A031052EC0000000
310
20D6B331C00000000000408F4000000000CFDB2BC000000060A22632C00C00000013000000D20300003C00000006000000020000000000000000408FC000000000CFDB2BC000000060A22632C00000000000408FC00000004026D529C000000020847F32C00C00000013000000DA0300003C00000006000000020000000000
310
000000408FC00000004026D529C000000020847F32C00000000000408F400000004026D529C000000020847F32C00C00000013000000E20300003C00000006000000020000000000000000408F4000000000CFDB2BC000000060A22632C00000000000408F400000004026D529C000000020847F32C00C00000013000000EA
310
0300003C00000006000000020000000000000000408FC00000004026D529C000000020847F32C00000000000408FC0000000402EF027C00000008011CD32C00C00000013000000F20300003C00000006000000020000000000000000408FC0000000402EF027C00000008011CD32C00000000000408F40000000402EF027C0
310
0000008011CD32C00C00000013000000FA0300003C00000006000000020000000000000000408F400000004026D529C000000020847F32C00000000000408F40000000402EF027C00000008011CD32C00C00000013000000020400003C00000006000000020000000000000000408FC0000000402EF027C00000008011CD32
310
C00000000000408FC000000080FF2B26C000000040E31333C00C000000130000000A0400003C00000006000000020000000000000000408FC000000080FF2B26C000000040E31333C00000000000408F4000000080FF2B26C000000040E31333C00C00000013000000120400003C0000000600000002000000000000000040
310
8F40000000402EF027C00000008011CD32C00000000000408F4000000080FF2B26C000000040E31333C00C000000130000001A0400003C00000006000000020000000000000000408FC000000080FF2B26C000000040E31333C00000000000408FC0000000A0A88724C000000000195A33C00C00000013000000220400003C
310
00000006000000020000000000000000408FC0000000A0A88724C000000000195A33C00000000000408F40000000A0A88724C000000000195A33C00C000000130000002A0400003C00000006000000020000000000000000408F4000000080FF2B26C000000040E31333C00000000000408F40000000A0A88724C000000000
310
195A33C00C00000013000000320400003C00000006000000020000000000000000408FC0000000A0A88724C000000000195A33C00000000000408FC0000000A03B0323C0000000E07FA333C00C000000130000003A0400003C00000006000000020000000000000000408FC0000000A03B0323C0000000E07FA333C0000000
310
0000408F40000000A03B0323C0000000E07FA333C00C00000013000000420400003C00000006000000020000000000000000408F40000000A0A88724C000000000195A33C00000000000408F40000000A03B0323C0000000E07FA333C00C000000130000004A0400003C00000006000000020000000000000000408FC00000
310
00A03B0323C0000000E07FA333C00000000000408FC0000000C0859F21C0000000407BF133C00C00000013000000520400003C00000006000000020000000000000000408FC0000000C0859F21C0000000407BF133C00000000000408F40000000C0859F21C0000000407BF133C00C000000130000005A0400003C00000006
310
000000020000000000000000408F40000000A03B0323C0000000E07FA333C00000000000408F40000000C0859F21C0000000407BF133C00C00000013000000620400003C00000006000000020000000000000000408FC0000000C0859F21C0000000407BF133C00000000000408FC0000000A02A5E20C0000000E0894634C0
310
0C000000130000006A0400003C00000006000000020000000000000000408FC0000000A02A5E20C0000000E0894634C00000000000408F40000000A02A5E20C0000000E0894634C00C00000013000000720400003C00000006000000020000000000000000408F40000000C0859F21C0000000407BF133C00000000000408F
310
40000000A02A5E20C0000000E0894634C00C000000130000007A0400003C00000006000000020000000000000000408FC0000000A02A5E20C0000000E0894634C00000000000408FC000000020A99B1CC0000000402D0535C00C00000013000000820400003C00000006000000020000000000000000408FC000000020A99B
310
1CC0000000402D0535C00000000000408F4000000000A99B1CC0000000402D0535C00C000000130000008A0400003C00000006000000020000000000000000408F40000000A02A5E20C0000000E0894634C00000000000408F4000000000A99B1CC0000000402D0535C00C00000013000000920400003C0000000600000002
310
0000000000000000408FC000000020A99B1CC0000000402D0535C00000000000408FC0000000003BB619C0000000A0D3D535C00C000000130000009A0400003C00000006000000020000000000000000408FC0000000003BB619C0000000A0D3D535C00000000000408F40000000003BB619C000000080D3D535C00C000000
310
13000000A20400003C00000006000000020000000000000000408F4000000000A99B1CC0000000402D0535C00000000000408F40000000003BB619C000000080D3D535C00C00000013000000AA0400003C00000006000000020000000000000000408FC0000000003BB619C0000000A0D3D535C00000000000408FC0000000
310
403A0618C000000040A5AA36C00C00000013000000B20400003C00000006000000020000000000000000408FC0000000403A0618C000000040A5AA36C00000000000408F40000000403A0618C000000040A5AA36C00C00000013000000BA0400003C00000006000000020000000000000000408F40000000003BB619C00000
310
0080D3D535C00000000000408F40000000403A0618C000000040A5AA36C00C00000013000000C20400003C00000006000000020000000000000000408FC0000000403A0618C000000040A5AA36C00000000000408FC0000000E0D26717C0000000C0978137C00C00000013000000CA0400003C000000060000000200000000
310
00000000408FC0000000E0D26717C0000000C0978137C00000000000408F40000000C0D26717C0000000C0978137C00C00000013000000D20400003C00000006000000020000000000000000408F40000000403A0618C000000040A5AA36C00000000000408F40000000C0D26717C0000000C0978137C00C00000013000000
310
DA0400003C00000006000000020000000000000000408FC0000000E0D26717C0000000C0978137C00000000000408FC0000000804FC417C000000060DB5F38C00C00000013000000E20400003C00000006000000020000000000000000408FC0000000804FC417C000000060DB5F38C00000000000408F40000000804FC417
310
C000000060DB5F38C00C00000013000000EA0400003C00000006000000020000000000000000408F40000000C0D26717C0000000C0978137C00000000000408F40000000804FC417C000000060DB5F38C00C00000013000000F20400003C00000006000000020000000000000000408FC0000000804FC417C000000060DB5F
310
38C00000000000408FC000000040422419C0000000407D3A39C00C00000013000000FA0400003C00000006000000020000000000000000408FC000000040422419C0000000407D3A39C00000000000408F4000000040422419C0000000407D3A39C00C00000013000000020500003C00000006000000020000000000000000
310
408F40000000804FC417C000000060DB5F38C00000000000408F4000000040422419C0000000407D3A39C00C000000130000000A0500003C00000006000000020000000000000000408FC000000040422419C0000000407D3A39C00000000000408FC0000000C0E7791BC0000000C040FC39C00C0000001300000012050000
310
3C00000006000000020000000000000000408FC0000000C0E7791BC0000000C040FC39C00000000000408F40000000C0E7791BC0000000C040FC39C00C000000130000001A0500003C00000006000000020000000000000000408F4000000040422419C0000000407D3A39C00000000000408F40000000C0E7791BC0000000
310
C040FC39C00C00000013000000220500003C00000006000000020000000000000000408FC0000000C0E7791BC0000000C040FC39C00000000000408FC00000008029B81EC000000060B2933AC00C000000130000002A0500003C00000006000000020000000000000000408FC00000008029B81EC000000060B2933AC00000
310
000000408F400000008029B81EC000000060B2933AC00C00000013000000320500003C00000006000000020000000000000000408F40000000C0E7791BC0000000C040FC39C00000000000408F400000008029B81EC000000060B2933AC00C000000130000003A0500003C00000006000000020000000000000000408FC000
310
00008029B81EC000000060B2933AC00000000000408FC000000000C62421C0000000E04BED3AC00C00000013000000420500003C00000006000000020000000000000000408F4000000000C62421C0000000C04BED3AC00000000000408FC000000000C62421C0000000E04BED3AC00C000000130000004A0500003C000000
310
06000000020000000000000000408F400000008029B81EC000000060B2933AC00000000000408F4000000000C62421C0000000C04BED3AC00C00000013000000520500003C00000006000000020000000000000000408FC000000000198421C0000000C032333BC00000000000408FC000000020198421C000000040CCCC3C
310
C00C000000130000005A0500003C00000006000000020000000000000000408F4000000020198421C000000040CCCC3CC00000000000408FC000000020198421C000000040CCCC3CC00C00000013000000620500003C00000006000000020000000000000000408F4000000020198421C000000040CCCC3CC0000000000040
310
8F4000000000198421C0000000C032333BC00C000000130000006A0500003C00000006000000020000000000000000408FC000000000198421C0000000C032333BC00000000000408F4000000000198421C0000000C032333BC00C00000013000000720500003C00000006000000020000000000000000408FC0000000C0B2
310
1D21C000000080FFFF3CC00000000000408FC0000000C020F71FC000000080FFFF3CC00C000000130000007A0500003C00000006000000020000000000000000408F40000000C020F71FC000000080FFFF3CC00000000000408FC0000000C020F71FC000000080FFFF3CC00C00000013000000820500003C00000006000000
310
020000000000000000408F40000000C020F71FC000000080FFFF3CC00000000000408F40000000C0B21D21C000000080FFFF3CC00C000000130000008A0500003C00000006000000020000000000000000408FC0000000C0B21D21C000000080FFFF3CC00000000000408F40000000C0B21D21C000000080FFFF3CC00C0000
310
0013000000920500003C00000006000000020000000000000000408FC000000000542A1FC0000000C032333DC00000000000408FC000000000542A1FC000000060A1D03DC00C000000130000009A0500003C00000006000000020000000000000000408F4000000000542A1FC000000040A1D03DC00000000000408FC00000
310
0000542A1FC000000060A1D03DC00C00000013000000A20500003C00000006000000020000000000000000408F4000000000542A1FC000000040A1D03DC00000000000408F4000000000542A1FC0000000C032333DC00C00000013000000AA0500003C00000006000000020000000000000000408FC000000000542A1FC000
310
0000C032333DC00000000000408F4000000000542A1FC0000000C032333DC00C00000013000000B20500003C00000006000000020000000000000000408FC000000040CA931EC0000000E0821640C00000000000408FC000000040C9ED1DC0000000607CBC40C00C00000013000000BA0500003C0000000600000002000000
310
0000000000408F4000000040C9ED1DC0000000607CBC40C00000000000408FC000000040C9ED1DC0000000607CBC40C00C00000013000000C20500003C00000006000000020000000000000000408F4000000040C9ED1DC0000000607CBC40C00000000000408F4000000040CA931EC0000000C0821640C00C000000130000
310
00CA0500003C00000006000000020000000000000000408FC000000040CA931EC0000000E0821640C00000000000408F4000000040CA931EC0000000C0821640C00C00000013000000D20500003C00000006000000020000000000000000408FC0000000E0EB9B1BC00000006032E041C00000000000408FC0000000006FB9
310
19C000000040DE7942C00C00000013000000DA0500003C00000006000000020000000000000000408F40000000006FB919C000000040DE7942C00000000000408FC0000000006FB919C000000040DE7942C00C00000013000000E20500003C00000006000000020000000000000000408F40000000006FB919C000000040DE
310
7942C00000000000408F40000000C0EB9B1BC00000006032E041C00C00000013000000EA0500003C00000006000000020000000000000000408FC0000000E0EB9B1BC00000006032E041C00000000000408F40000000C0EB9B1BC00000006032E041C00C00000013000000F20500003C000000060000000200000000000000
310
00408FC0000000209A3615C0000000E0F08143C00000000000408FC0000000801ADF0FC0000000E0426B44C00C00000013000000FA0500003C00000006000000020000000000000000408F40000000801ADF0FC0000000E0426B44C00000000000408FC0000000801ADF0FC0000000E0426B44C00C00000013000000020600
310
003C00000006000000020000000000000000408F40000000801ADF0FC0000000E0426B44C00000000000408F40000000009A3615C0000000E0F08143C00C000000130000000A0600003C00000006000000020000000000000000408FC0000000209A3615C0000000E0F08143C00000000000408F40000000009A3615C00000
310
00E0F08143C00C00000013000000120600003C00000006000000020000000000000000408FC000000080F0EE0EC000000060999944C00000000000408FC000000080F0EE0EC000000020666645C00C000000130000001A0600003C00000006000000020000000000000000408F4000000000F0EE0EC000000020666645C000
310
00000000408FC000000080F0EE0EC000000020666645C00C00000013000000220600003C00000006000000020000000000000000408F4000000000F0EE0EC000000020666645C00000000000408F4000000080F0EE0EC000000060999944C00C000000130000002A0600003C00000006000000020000000000000000408FC0
310
00000080F0EE0EC000000060999944C00000000000408F4000000080F0EE0EC000000060999944C00C00000013000000320600003C00000006000000020000000000000000408FC000000000542A1FC000000060A1D03DC00000000000408FC0000000A0B1041FC00000008069FF3EC00C000000130000003A0600003C0000
310
0006000000020000000000000000408FC0000000A0B1041FC00000008069FF3EC00000000000408F4000000080B1041FC00000008069FF3EC00C00000013000000420600003C00000006000000020000000000000000408F4000000000542A1FC000000040A1D03DC00000000000408F4000000080B1041FC00000008069FF
310
3EC00C000000130000004A0600003C00000006000000020000000000000000408FC000000040C9ED1DC0000000607CBC40C00000000000408FC0000000000D0E1DC000000080AB5041C00C00000013000000520600003C00000006000000020000000000000000408FC0000000000D0E1DC000000080AB5041C00000000000
310
408F40000000000D0E1DC000000080AB5041C00C000000130000005A0600003C00000006000000020000000000000000408F4000000040C9ED1DC0000000607CBC40C00000000000408F40000000000D0E1DC000000080AB5041C00C00000013000000620600003C00000006000000020000000000000000408FC000000000
310
6FB919C000000040DE7942C00000000000408FC00000000010BB17C0000000607C0243C00C000000130000006A0600003C00000006000000020000000000000000408FC00000000010BB17C0000000607C0243C00000000000408F400000000010BB17C0000000607C0243C00C00000013000000720600003C000000060000
310
00020000000000000000408F40000000006FB919C000000040DE7942C00000000000408F400000000010BB17C0000000607C0243C00C000000130000007A0600003C00000006000000020000000000000000408FC000000040CA931EC0000000E0821640C00000000000408FC0000000A0B1041FC00000008069FF3EC00C00
310
000013000000820600003C00000006000000020000000000000000408F4000000040CA931EC0000000C0821640C00000000000408F4000000080B1041FC00000008069FF3EC00C000000130000008A0600003C00000006000000020000000000000000408FC0000000E0EB9B1BC00000006032E041C00000000000408FC000
310
0000000D0E1DC000000080AB5041C00C00000013000000920600003C00000006000000020000000000000000408F40000000C0EB9B1BC00000006032E041C00000000000408F40000000000D0E1DC000000080AB5041C00C000000130000009A0600003C00000006000000020000000000000000408FC0000000209A3615C0
310
000000E0F08143C00000000000408FC00000000010BB17C0000000607C0243C00C00000013000000A20600003C00000006000000020000000000000000408F40000000009A3615C0000000E0F08143C00000000000408F400000000010BB17C0000000607C0243C00C00000013000000AA0600003C00000006000000020000
310
000000000000408FC0000000E09BC93AC000000000DF3A10C00000000000408FC000000040075A3BC000000000FBFF0FC00C00000013000000B20600003C00000006000000020000000000000000408F4000000040075A3BC000000000FBFF0FC00000000000408F40000000C09BC93AC000000000DF3A10C00C0000001300
310
0000BA0600003C00000006000000020000000000000000408FC000000060CBB839C000000080349011C00000000000408FC000000080433C3AC00000000056AF10C00C00000013000000C20600003C00000006000000020000000000000000408F4000000080433C3AC00000000056AF10C00000000000408F4000000040CB
310
B839C000000040349011C00C00000013000000CA0600003C00000006000000020000000000000000408FC0000000C08BDC38C000000080017914C00000000000408FC000000020274039C000000000E6DD12C00C00000013000000D20600003C00000006000000020000000000000000408F4000000000274039C000000000
310
E6DD12C00000000000408F40000000C08BDC38C000000080017914C00C00000013000000DA0600003C00000006000000020000000000000000408FC0000000807B5538C0000000004E8618C00000000000408FC0000000E0DE8A38C0000000009B7216C00C00000013000000E20600003C0000000600000002000000000000
310
0000408F40000000C0DE8A38C0000000009B7216C00000000000408F40000000807B5538C0000000C04D8618C00C00000013000000EA0600003C00000006000000020000000000000000408FC000000080F0EE0EC000000020666645C00000000000408FC0000000008A880EC000000060997945C00C00000013000000F206
310
00003C00000006000000020000000000000000408FC0000000008A880EC000000060997945C00000000000408F40000000008A880EC000000060997945C00C00000013000000FA0600003C00000006000000020000000000000000408F4000000000F0EE0EC000000020666645C00000000000408F40000000008A880EC000
310
000060997945C00C00000013000000020700003C00000006000000020000000000000000408FC00000008000003DC00000000061660EC00000000000408FC0000000C033F33CC00000008094990FC00C000000130000000A0700003C00000006000000020000000000000000408FC0000000C033F33CC00000008094990FC0
310
0000000000408F40000000C033F33CC00000008094990FC00C00000013000000120700003C00000006000000020000000000000000408F400000008000003DC00000000061660EC00000000000408F40000000C033F33CC00000008094990FC00C000000130000001A0700003C00000006000000020000000000000000408F
310
C0000000A0583438C000000000E2361BC00000000000408FC0000000C0492038C000000080B6CD1BC00C00000013000000220700003C00000006000000020000000000000000408FC0000000C0492038C000000080B6CD1BC00000000000408F40000000C0492038C000000080B6CD1BC00C000000130000002A0700003C00
310
000006000000020000000000000000408F4000000080583438C0000000C0E1361BC00000000000408F40000000C0492038C000000080B6CD1BC00C00000013000000320700003C00000006000000020000000000000000408FC000000060EF6E36C000000080FDFF1BC00000000000408FC0000000C0004836C00000008025
310
331CC00C000000130000003A0700003C00000006000000020000000000000000408FC0000000C0004836C00000008025331CC00000000000408F40000000C0004836C00000004025331CC00C00000013000000420700003C00000006000000020000000000000000408F4000000040EF6E36C000000080FDFF1BC000000000
310
00408F40000000C0004836C00000004025331CC00C000000130000004A0700003C00000006000000020000000000000000408FC000000000C62421C0000000E04BED3AC00000000000408FC000000040446C21C0000000601F083BC00C00000013000000520700003C00000006000000020000000000000000408FC0000000
310
40446C21C0000000601F083BC00000000000408F4000000040446C21C0000000401F083BC00C000000130000005A0700003C00000006000000020000000000000000408F4000000000C62421C0000000C04BED3AC00000000000408F4000000040446C21C0000000401F083BC00C00000013000000620700003C0000000600
310
0000020000000000000000408FC000000020198421C000000040CCCC3CC00000000000408FC0000000807F6A21C0000000C032F33CC00C000000130000006A0700003C00000006000000020000000000000000408FC0000000807F6A21C0000000C032F33CC00000000000408F40000000807F6A21C0000000C032F33CC00C
310
00000013000000720700003C00000006000000020000000000000000408F4000000020198421C000000040CCCC3CC00000000000408F40000000807F6A21C0000000C032F33CC00C000000130000007A0700003C00000006000000020000000000000000408FC0000000C020F71FC000000080FFFF3CC00000000000408FC0
310
00000040875D1FC000000040CC0C3DC00C00000013000000820700003C00000006000000020000000000000000408FC000000040875D1FC000000040CC0C3DC00000000000408F4000000040875D1FC000000040CC0C3DC00C000000130000008A0700003C00000006000000020000000000000000408F40000000C020F71F
310
C000000080FFFF3CC00000000000408F4000000040875D1FC000000040CC0C3DC00C00000013000000920700003C00000006000000020000000000000000408FC0000000801ADF0FC0000000E0426B44C00000000000408FC000000000FB2A0FC000000000378144C00C000000130000009A0700003C000000060000000200
310
00000000000000408FC000000000FB2A0FC000000000378144C00000000000408F4000000000FB2A0FC000000000378144C00C00000013000000A20700003C00000006000000020000000000000000408F40000000801ADF0FC0000000E0426B44C00000000000408F4000000000FB2A0FC000000000378144C00C00000013
310
000000AA0700003C00000006000000020000000000000000408FC00000000057550DC0000000C0FF7F45C00000000000408FC0000000008A880EC000000060997945C00C00000013000000B20700003C00000006000000020000000000000000408F400000000057550DC0000000C0FF7F45C00000000000408F4000000000
310
8A880EC000000060997945C00C00000013000000BA0700003C00000006000000020000000000000000408FC000000040CDCC3CC000000000FBFF0FC00000000000408FC0000000C033F33CC00000008094990FC00C00000013000000C20700003C00000006000000020000000000000000408F4000000040CDCC3CC0000000
310
00FBFF0FC00000000000408F40000000C033F33CC00000008094990FC00C00000013000000CA0700003C00000006000000020000000000000000408FC0000000E077F737C000000080FDFF1BC00000000000408FC0000000C0492038C000000080B6CD1BC00C00000013000000D20700003C00000006000000020000000000
310
000000408F40000000C077F737C000000040FDFF1BC00000000000408F40000000C0492038C000000080B6CD1BC00C00000013000000DA0700003C00000006000000020000000000000000408FC0000000409B3936C0000000009DCC1CC00000000000408FC0000000C0004836C00000008025331CC00C00000013000000E2
310
0700003C00000006000000020000000000000000408F40000000409B3936C0000000009DCC1CC00000000000408F40000000C0004836C00000004025331CC00C00000013000000EA0700003C00000006000000020000000000000000408FC000000000198421C0000000C032333BC00000000000408FC000000040446C21C0
310
000000601F083BC00C00000013000000F20700003C00000006000000020000000000000000408F4000000000198421C0000000C032333BC00000000000408F4000000040446C21C0000000401F083BC00C00000013000000FA0700003C00000006000000020000000000000000408FC0000000C0B21D21C000000080FFFF3C
310
C00000000000408FC0000000807F6A21C0000000C032F33CC00C00000013000000020800003C00000006000000020000000000000000408F40000000C0B21D21C000000080FFFF3CC00000000000408F40000000807F6A21C0000000C032F33CC00C000000130000000A0800003C0000000600000002000000000000000040
310
8FC000000000542A1FC0000000C032333DC00000000000408FC000000040875D1FC000000040CC0C3DC00C00000013000000120800003C00000006000000020000000000000000408F4000000000542A1FC0000000C032333DC00000000000408F4000000040875D1FC000000040CC0C3DC00C000000130000001A0800003C
310
00000006000000020000000000000000408FC000000080F0EE0EC000000060999944C00000000000408FC000000000FB2A0FC000000000378144C00C00000013000000220800003C00000006000000020000000000000000408F4000000080F0EE0EC000000060999944C00000000000408F4000000000FB2A0FC000000000
310
378144C00C000000130000002A0800003C00000006000000020000000000000000408FC000000000976307C000000020CDCD30C00000000000408FC000000020A99B1CC0000000402D0535C00C00000013000000320800003C00000006000000020000000000000000408FC0000000E031F015C00000004092212FC0000000
310
0000408FC0000000A02A5E20C0000000E0894634C00C000000130000003A0800003C00000006000000020000000000000000408FC000000000ABEA30C0000000000000E43E0000000000408FC00000008000003DC00000000061660EC00C00000013000000420800003C00000006000000020000000000000000408FC00000
310
0000ABEA30C0000000000000E43E0000000000408FC0000000C033F33CC00000008094990FC00C000000130000004A0800003C00000006000000020000000000000000408FC000000000ABEA30C0000000000000E43E0000000000408FC000000040CDCC3CC000000000FBFF0FC00C00000013000000520800003C00000006
310
000000020000000000000000408FC000000000ABEA30C0000000000000E43E0000000000408FC000000040075A3BC000000000FBFF0FC00C000000130000005A0800003C00000006000000020000000000000000408FC000000000ABEA30C0000000000000E43E0000000000408FC0000000E09BC93AC000000000DF3A10C0
310
0C00000013000000620800003C00000006000000020000000000000000408FC000000000ABEA30C0000000000000E43E0000000000408FC000000080433C3AC00000000056AF10C00C000000130000006A0800003C00000006000000020000000000000000408FC0000000C0AF9730C00000000027FB08C00000000000408F
310
C0000000C0492038C000000080B6CD1BC00C00000013000000720800003C00000006000000020000000000000000408FC0000000C0AF9730C00000000027FB08C00000000000408FC0000000E077F737C000000080FDFF1BC00C000000130000007A0800003C00000006000000020000000000000000408FC0000000C0AF97
310
30C00000000027FB08C00000000000408FC0000000A0583438C000000000E2361BC00C00000013000000820800003C00000006000000020000000000000000408FC0000000C0AF9730C00000000027FB08C00000000000408FC0000000807B5538C0000000004E8618C00C000000130000008A0800003C0000000600000002
310
0000000000000000408FC0000000C0AF9730C00000000027FB08C00000000000408FC0000000E0DE8A38C0000000009B7216C00C00000013000000920800003C00000006000000020000000000000000408FC0000000C0AF9730C00000000027FB08C00000000000408FC0000000C08BDC38C000000080017914C00C000000
310
130000009A0800003C00000006000000020000000000000000408FC000000000ABEA30C0000000000000E43E0000000000408FC000000020274039C000000000E6DD12C00C00000013000000A20800003C00000006000000020000000000000000408FC000000000ABEA30C0000000000000E43E0000000000408FC0000000
310
60CBB839C000000080349011C00C00000013000000AA0800003C00000006000000020000000000000000408FC0000000C0AF9730C00000000027FB08C00000000000408FC000000060EF6E36C000000080FDFF1BC00C00000013000000B20800003C00000006000000020000000000000000408FC0000000C0AF9730C00000
310
000027FB08C00000000000408FC0000000C0004836C00000008025331CC00C00000013000000BA0800003C00000006000000020000000000000000408FC000000040C1482FC00000008039F417C00000000000408FC0000000409B3936C0000000009DCC1CC00C00000013000000C20800003C000000060000000200000000
310
00000000408FC000000040C1482FC00000008039F417C00000000000408FC0000000A0FF2D36C000000060399420C00C00000013000000CA0800003C00000006000000020000000000000000408FC0000000A04FD52DC0000000007E831DC00000000000408FC0000000C0A60836C00000002009EF22C00C00000013000000
310
D20800003C00000006000000020000000000000000408FC0000000A04FD52DC0000000007E831DC00000000000408FC0000000600ACC35C0000000C0581025C00C00000013000000DA0800003C00000006000000020000000000000000408FC0000000A07BFA2BC0000000409A8821C00000000000408FC000000040967D35
310
C0000000C058F126C00C00000013000000E20800003C00000006000000020000000000000000408FC0000000A07BFA2BC0000000409A8821C00000000000408FC0000000801C1935C0000000E09EAA28C00C00000013000000EA0800003C00000006000000020000000000000000408FC0000000A07BFA2BC0000000409A88
310
21C00000000000408FC000000020459C34C0000000E05F4E2AC00C00000013000000F20800003C00000006000000020000000000000000408FC0000000C042A929C000000040C25124C00000000000408FC00000002042FC33C000000020BAF82BC00C00000013000000FA0800003C00000006000000020000000000000000
310
408FC0000000C042A929C000000040C25124C00000000000408FC0000000A04A3833C0000000805CA52DC00C00000013000000020900003C00000006000000020000000000000000408FC0000000C042A929C000000040C25124C00000000000408FC0000000C0B04D32C0000000002F502FC00C000000130000000A090000
310
3C00000006000000020000000000000000408FC0000000E0DBD326C000000060611C27C00000000000408FC0000000E0C54331C000000020E76F30C00C00000013000000120900003C00000006000000020000000000000000408FC0000000E0DBD326C000000060611C27C00000000000408FC0000000E0748230C0000000
310
80B7EB30C00C000000130000001A0900003C00000006000000020000000000000000408FC0000000E0DBD326C000000060611C27C00000000000408FC0000000C0FE842FC000000020F25731C00C00000013000000220900003C00000006000000020000000000000000408FC0000000E0DBD326C000000060611C27C00000
310
000000408FC0000000A031052EC000000020D6B331C00C000000130000002A0900003C00000006000000020000000000000000408FC000000060CA7123C0000000606DDD29C00000000000408FC000000000CFDB2BC000000060A22632C00C00000013000000320900003C00000006000000020000000000000000408FC000
310
000060CA7123C0000000606DDD29C00000000000408FC00000004026D529C000000020847F32C00C000000130000003A0900003C00000006000000020000000000000000408FC000000060CA7123C0000000606DDD29C00000000000408FC0000000402EF027C00000008011CD32C00C00000013000000420900003C000000
310
06000000020000000000000000408FC00000002093FE1EC000000020A48B2CC00000000000408FC000000080FF2B26C000000040E31333C00C000000130000004A0900003C00000006000000020000000000000000408FC00000002093FE1EC000000020A48B2CC00000000000408FC0000000A0A88724C000000000195A33
310
C00C00000013000000520900003C00000006000000020000000000000000408FC00000002093FE1EC000000020A48B2CC00000000000408FC0000000A03B0323C0000000E07FA333C00C000000130000005A0900003C00000006000000020000000000000000408FC0000000E031F015C00000004092212FC0000000000040
310
8FC0000000C0859F21C0000000407BF133C00C00000013000000620900003C00000006000000020000000000000000408FC0000000003BB619C0000000A0D3D535C00000000000408FC00000000044ACFBBF000000407F9031C00C000000130000006A0900003C00000006000000020000000000000000408FC0000000403A
310
0618C000000040A5AA36C00000000000408FC000000000467DE9BF00000080B7A532C00C00000013000000720900003C00000006000000020000000000000000408FC0000000E0D26717C0000000C0978137C00000000000408FC000000000900ECABF000000803BF633C00C000000130000007A0900003C00000006000000
310
020000000000000000408FC0000000804FC417C000000060DB5F38C00000000000408FC00000000000000000000000C0A66535C00C00000013000000820900003C00000006000000020000000000000000408FC00000000000000000000000C0A66535C00000000000408FC000000040875D1FC000000040CC0C3DC00C0000
310
00130000008A0900003C00000006000000020000000000000000408FC0000000C0E7791BC0000000C040FC39C00000000000408FC000000040875D1FC000000040CC0C3DC00C00000013000000920900003C00000006000000020000000000000000408FC000000040422419C0000000407D3A39C00000000000408FC00000
310
000000000000000000C0A66535C00C000000130000009A0900003C00000006000000020000000000000000408FC000000040446C21C0000000601F083BC00000000000408FC0000000807F6A21C0000000C032F33CC00C00000013000000A20900003C00000006000000020000000000000000408FC0000000C0B21D21C000
310
000080FFFF3CC00000000000408FC000000000C62421C0000000E04BED3AC00C00000013000000AA0900003C00000006000000020000000000000000408FC00000008029B81EC000000060B2933AC00000000000408FC0000000C020F71FC000000080FFFF3CC00C00000013000000B20900003C0000000600000002000000
310
0000000000408FC00000000000000000000000C0A66535C00000000000408FC000000000542A1FC000000060A1D03DC00C00000013000000BA0900003C00000006000000020000000000000000408FC000000000542A1FC0000000C032333DC00000000000408FC00000000000000000000000C0A66535C00C000000130000
310
00C20900003C00000006000000020000000000000000408FC000000040CA931EC0000000E0821640C00000000000408FC00000000000000000000000C0A66535C00C00000013000000CA0900003C00000006000000020000000000000000408FC00000000000000000000000C0A66535C00000000000408FC0000000A0B104
310
1FC00000008069FF3EC00C00000013000000D20900003C00000006000000020000000000000000408FC00000000000000000000000C0A66535C00000000000408FC0000000000D0E1DC000000080AB5041C00C00000013000000DA0900003C00000006000000020000000000000000408FC00000000000000000000000C0A6
310
6535C00000000000408FC000000040C9ED1DC0000000607CBC40C00C00000013000000E20900003C00000006000000020000000000000000408FC00000000000000000000000C0A66535C00000000000408FC0000000006FB919C000000040DE7942C00C00000013000000EA0900003C000000060000000200000000000000
310
00408FC0000000E0EB9B1BC00000006032E041C00000000000408FC00000000000000000000000C0A66535C00C00000013000000F20900003C00000006000000020000000000000000408FC0000000209A3615C0000000E0F08143C00000000000408FC00000000000000000000000C0A66535C00C00000013000000FA0900
310
003C00000006000000020000000000000000408FC00000000000000000000000C0A66535C00000000000408FC00000000010BB17C0000000607C0243C00C00000013000000020A00003C00000006000000020000000000000000408FC00000000000000000000000C0A66535C00000000000408FC000000000FB2A0FC00000
310
0000378144C00C000000130000000A0A00003C00000006000000020000000000000000408FC00000000000000000000000C0A66535C00000000000408FC0000000801ADF0FC0000000E0426B44C00C00000013000000120A00003C00000006000000020000000000000000408FC000000080F0EE0EC000000060999944C000
310
00000000408FC0000000000000C0BE000000C0FF7F45C00C000000130000001A0A00003C00000006000000020000000000000000408FC0000000000000C0BE000000C0FF7F45C00000000000408FC0000000008A880EC000000060997945C00C00000013000000220A00003C00000006000000020000000000000000408FC0
310
000000000000C0BE000000C0FF7F45C00000000000408FC000000080F0EE0EC000000020666645C00C000000130000002A0A00003C00000006000000020000000000000000408F40000000C031F015C00000004092212FC00000000000408F40000000A02A5E20C0000000E0894634C00C00000013000000320A00003C0000
310
0006000000020000000000000000408F4000000000976307C000000000CDCD30C00000000000408F4000000000A99B1CC0000000402D0535C00C000000130000003A0A00003C00000006000000020000000000000000408F4000000000ABEA30C0000000000000E43E0000000000408F40000000C033F33CC0000000809499
310
0FC00C00000013000000420A00003C00000006000000020000000000000000408F4000000000ABEA30C0000000000000E43E0000000000408F400000008000003DC00000000061660EC00C000000130000004A0A00003C00000006000000020000000000000000408F4000000040075A3BC000000000FBFF0FC00000000000
310
408F4000000000ABEA30C0000000000000E43E0C00000013000000520A00003C00000006000000020000000000000000408F4000000000ABEA30C0000000000000E43E0000000000408F4000000040CDCC3CC000000000FBFF0FC00C000000130000005A0A00003C00000006000000020000000000000000408F4000000000
310
ABEA30C0000000000000E43E0000000000408F40000000C09BC93AC000000000DF3A10C00C00000013000000620A00003C00000006000000020000000000000000408F4000000080433C3AC00000000056AF10C00000000000408F4000000000ABEA30C0000000000000E43E0C000000130000006A0A00003C000000060000
310
00020000000000000000408F40000000C0AF9730C00000000027FB08C00000000000408F40000000C077F737C000000040FDFF1BC00C00000013000000720A00003C00000006000000020000000000000000408F40000000C0AF9730C00000000027FB08C00000000000408F40000000C0492038C000000080B6CD1BC00C00
310
0000130000007A0A00003C00000006000000020000000000000000408F40000000C0AF9730C00000000027FB08C00000000000408F4000000080583438C0000000C0E1361BC00C00000013000000820A00003C00000006000000020000000000000000408F40000000C0AF9730C00000000027FB08C00000000000408F4000
310
0000807B5538C0000000C04D8618C00C000000130000008A0A00003C00000006000000020000000000000000408F40000000C0AF9730C00000000027FB08C00000000000408F40000000C0DE8A38C0000000009B7216C00C00000013000000920A00003C00000006000000020000000000000000408F40000000C0AF9730C0
310
0000000027FB08C00000000000408F40000000C08BDC38C000000080017914C00C000000130000009A0A00003C00000006000000020000000000000000408F4000000000274039C000000000E6DD12C00000000000408F4000000000ABEA30C0000000000000E43E0C00000013000000A20A00003C00000006000000020000
310
000000000000408F4000000000ABEA30C0000000000000E43E0000000000408F4000000040CBB839C000000040349011C00C00000013000000AA0A00003C00000006000000020000000000000000408F4000000040EF6E36C000000080FDFF1BC00000000000408F40000000C0AF9730C00000000027FB08C00C0000001300
310
0000B20A00003C00000006000000020000000000000000408F40000000C0AF9730C00000000027FB08C00000000000408F40000000C0004836C00000004025331CC00C00000013000000BA0A00003C00000006000000020000000000000000408F4000000040C1482FC00000008039F417C00000000000408F40000000409B
310
3936C0000000009DCC1CC00C00000013000000C20A00003C00000006000000020000000000000000408F4000000080FF2D36C000000040399420C00000000000408F4000000040C1482FC00000008039F417C00C00000013000000CA0A00003C00000006000000020000000000000000408F40000000400ACC35C0000000C0
310
581025C00000000000408F40000000A04FD52DC0000000007E831DC00C00000013000000D20A00003C00000006000000020000000000000000408F40000000C0A60836C00000000009EF22C00000000000408F40000000A04FD52DC0000000007E831DC00C00000013000000DA0A00003C0000000600000002000000000000
310
0000408F40000000801C1935C0000000C09EAA28C00000000000408F40000000A07BFA2BC0000000409A8821C00C00000013000000E20A00003C00000006000000020000000000000000408F4000000040967D35C0000000C058F126C00000000000408F40000000A07BFA2BC0000000409A8821C00C00000013000000EA0A
310
00003C00000006000000020000000000000000408F4000000020459C34C0000000C05F4E2AC00000000000408F40000000A07BFA2BC0000000409A8821C00C00000013000000F20A00003C00000006000000020000000000000000408F40000000A04A3833C0000000805CA52DC00000000000408F40000000C042A929C000
310
000040C25124C00C00000013000000FA0A00003C00000006000000020000000000000000408F400000002042FC33C000000000BAF82BC00000000000408F40000000C042A929C000000040C25124C00C00000013000000020B00003C00000006000000020000000000000000408F40000000C0B04D32C0000000002F502FC0
310
0000000000408F40000000C042A929C000000040C25124C00C000000130000000A0B00003C00000006000000020000000000000000408F40000000E0748230C000000080B7EB30C00000000000408F40000000C0DBD326C000000040611C27C00C00000013000000120B00003C00000006000000020000000000000000408F
310
40000000E0C54331C000000020E76F30C00000000000408F40000000C0DBD326C000000040611C27C00C000000130000001A0B00003C00000006000000020000000000000000408F40000000C0DBD326C000000040611C27C00000000000408F40000000C0FE842FC000000020F25731C00C00000013000000220B00003C00
310
000006000000020000000000000000408F40000000C0DBD326C000000040611C27C00000000000408F40000000A031052EC000000020D6B331C00C000000130000002A0B00003C00000006000000020000000000000000408F4000000040CA7123C0000000406DDD29C00000000000408F400000004026D529C00000002084
310
7F32C00C00000013000000320B00003C00000006000000020000000000000000408F4000000040CA7123C0000000406DDD29C00000000000408F4000000000CFDB2BC000000060A22632C00C000000130000003A0B00003C00000006000000020000000000000000408F4000000040CA7123C0000000406DDD29C000000000
310
00408F40000000402EF027C00000008011CD32C00C00000013000000420B00003C00000006000000020000000000000000408F400000002093FE1EC000000000A48B2CC00000000000408F40000000A0A88724C000000000195A33C00C000000130000004A0B00003C00000006000000020000000000000000408F40000000
310
2093FE1EC000000000A48B2CC00000000000408F4000000080FF2B26C000000040E31333C00C00000013000000520B00003C00000006000000020000000000000000408F400000002093FE1EC000000000A48B2CC00000000000408F40000000A03B0323C0000000E07FA333C00C000000130000005A0B00003C0000000600
310
0000020000000000000000408F40000000C031F015C00000004092212FC00000000000408F40000000C0859F21C0000000407BF133C00C00000013000000620B00003C00000006000000020000000000000000408F400000000044ACFBBF000000407F9031C00000000000408F40000000003BB619C000000080D3D535C00C
310
000000130000006A0B00003C00000006000000020000000000000000408F4000000000467DE9BF00000080B7A532C00000000000408F40000000403A0618C000000040A5AA36C00C00000013000000720B00003C00000006000000020000000000000000408F4000000000900ECABF000000803BF633C00000000000408F40
310
000000C0D26717C0000000C0978137C00C000000130000007A0B00003C00000006000000020000000000000000408F400000000000000000000000C0A66535C00000000000408F40000000804FC417C000000060DB5F38C00C00000013000000820B00003C00000006000000020000000000000000408F4000000000000000
310
00000000C0A66535C00000000000408F4000000040422419C0000000407D3A39C00C000000130000008A0B00003C00000006000000020000000000000000408F40000000C0E7791BC0000000C040FC39C00000000000408F4000000040875D1FC000000040CC0C3DC00C00000013000000920B00003C000000060000000200
310
00000000000000408F400000000000000000000000C0A66535C00000000000408F4000000040875D1FC000000040CC0C3DC00C000000130000009A0B00003C00000006000000020000000000000000408F4000000040446C21C0000000401F083BC00000000000408F40000000807F6A21C0000000C032F33CC00C00000013
310
000000A20B00003C00000006000000020000000000000000408F4000000000C62421C0000000C04BED3AC00000000000408F40000000C0B21D21C000000080FFFF3CC00C00000013000000AA0B00003C00000006000000020000000000000000408F400000008029B81EC000000060B2933AC00000000000408F40000000C0
310
20F71FC000000080FFFF3CC00C00000013000000B20B00003C00000006000000020000000000000000408F400000000000000000000000C0A66535C00000000000408F4000000000542A1FC0000000C032333DC00C00000013000000BA0B00003C00000006000000020000000000000000408F400000000000000000000000
310
C0A66535C00000000000408F4000000000542A1FC000000040A1D03DC00C00000013000000C20B00003C00000006000000020000000000000000408F400000000000000000000000C0A66535C00000000000408F4000000080B1041FC00000008069FF3EC00C00000013000000CA0B00003C00000006000000020000000000
310
000000408F400000000000000000000000C0A66535C00000000000408F4000000040CA931EC0000000C0821640C00C00000013000000D20B00003C00000006000000020000000000000000408F400000000000000000000000C0A66535C00000000000408F4000000040C9ED1DC0000000607CBC40C00C00000013000000DA
310
0B00003C00000006000000020000000000000000408F400000000000000000000000C0A66535C00000000000408F40000000000D0E1DC000000080AB5041C00C00000013000000E20B00003C00000006000000020000000000000000408F400000000000000000000000C0A66535C00000000000408F40000000C0EB9B1BC0
310
0000006032E041C00C00000013000000EA0B00003C00000006000000020000000000000000408F400000000000000000000000C0A66535C00000000000408F40000000006FB919C000000040DE7942C00C00000013000000F20B00003C00000006000000020000000000000000408F400000000000000000000000C0A66535
310
C00000000000408F400000000010BB17C0000000607C0243C00C00000013000000FA0B00003C00000006000000020000000000000000408F400000000000000000000000C0A66535C00000000000408F40000000009A3615C0000000E0F08143C00C00000013000000020C00003C0000000600000002000000000000000040
310
8F400000000000000000000000C0A66535C00000000000408F40000000801ADF0FC0000000E0426B44C00C000000130000000A0C00003C00000006000000020000000000000000408F400000000000000000000000C0A66535C00000000000408F4000000000FB2A0FC000000000378144C00C00000013000000120C00003C
310
00000006000000020000000000000000408F40000000000000C0BE000000C0FF7F45C00000000000408F4000000080F0EE0EC000000060999944C00C000000130000001A0C00003C00000006000000020000000000000000408F40000000000000C0BE000000C0FF7F45C00000000000408F4000000000F0EE0EC000000020
310
666645C00C00000013000000220C00003C00000006000000020000000000000000408F40000000000000C0BE000000C0FF7F45C00000000000408F40000000008A880EC000000060997945C0
100
AcDbSubDMesh
 71
     2
 72
     0
 91
        0
 92
      174
 10
-1000.0
 20
-2.923627853393554
 30
-16.80391120910644
 10
-1000.0
 20
-5.484565258026123
 30
-15.56556892395019
 10
-1000.0
 20
-7.748608112335205
 30
-14.27273654937744
 10
-1000.0
 20
-9.722247123718261
 30
-12.93247509002685
 10
-1000.0
 20
-11.41378688812256
 30
-11.55543041229248
 10
-1000.0
 20
-12.83058738708496
 30
-10.15968513488769
 10
-1000.0
 20
-13.98922443389892
 30
-8.766801834106445
 10
-1000.0
 20
-14.91662311553955
 30
-7.378410339355468
 10
-1000.0
 20
-15.64209938049316
 30
-5.988500595092773
 10
-1000.0
 20
-16.59252548217773
 30
-3.122632980346679
 10
-1000.0
 20
-16.91667175292969
 30
0.0000095367431641
 10
-1000.0
 20
-29.00000762939453
 30
0.0000095367431641
 10
-1000.0
 20
-28.80000686645508
 30
-3.999990463256835
 10
-1000.0
 20
-26.78753471374512
 30
-4.057491302490234
 10
-1000.0
 20
-25.72185325622559
 30
-4.390825271606445
 10
-1000.0
 20
-24.86150741577148
 30
-5.118169784545898
 10
-1000.0
 20
-24.33391571044922
 30
-6.131156921386718
 10
-1000.0
 20
-23.96667289733887
 30
-6.999990463256835
 10
-1000.0
 20
-22.22502517700196
 30
-7.199817657470703
 10
-1000.0
 20
-22.1796817779541
 30
-8.28950023651123
 10
-1000.0
 20
-22.03379440307617
 30
-9.466866493225097
 10
-1000.0
 20
-21.79703330993652
 30
-10.53192710876465
 10
-1000.0
 20
-21.49057388305664
 30
-11.47138023376465
 10
-1000.0
 20
-21.09809112548828
 30
-12.33324337005615
 10
-1000.0
 20
-20.61042976379395
 30
-13.15307521820068
 10
-1000.0
 20
-19.98538398742676
 30
-13.98579502105713
 10
-1000.0
 20
-19.21988868713379
 30
-14.82297134399414
 10
-1000.0
 20
-18.3034782409668
 30
-15.65660858154297
 10
-1000.0
 20
-17.26473808288574
 30
-16.43712043762207
 10
-1000.0
 20
-16.50959587097168
 30
-16.92076873779297
 10
-1000.0
 20
-15.75975608825683
 30
-17.34353828430176
 10
-1000.0
 20
-15.01014423370361
 30
-17.70248603820801
 10
-1000.0
 20
-13.92931365966797
 30
-18.15091514587402
 10
-1000.0
 20
-12.91630744934082
 30
-18.49810981750488
 10
-1000.0
 20
-11.96910285949707
 30
-18.80104827880859
 10
-1000.0
 20
-11.08593368530273
 30
-19.07768630981445
 10
-1000.0
 20
-10.26495838165283
 30
-19.35194396972656
 10
-1000.0
 20
-9.506314277648925
 30
-19.63866996765137
 10
-1000.0
 20
-8.811567306518554
 30
-19.94328689575195
 10
-1000.0
 20
-8.183918952941894
 30
-20.27554130554199
 10
-1000.0
 20
-7.152012348175048
 30
-21.02022171020508
 10
-1000.0
 20
-6.427959442138671
 30
-21.83526039123535
 10
-1000.0
 20
-6.006081581115722
 30
-22.66658401489258
 10
-1000.0
 20
-5.851390361785888
 30
-23.50622177124023
 10
-1000.0
 20
-5.941709518432617
 30
-24.37444114685059
 10
-1000.0
 20
-6.285408973693847
 30
-25.22847366333008
 10
-1000.0
 20
-6.869048118591308
 30
-25.9853630065918
 10
-1000.0
 20
-7.679845809936523
 30
-26.57694053649902
 10
-1000.0
 20
-8.758003234863281
 30
-27.19999313354492
 10
-1000.0
 20
-8.55800437927246
 30
-28.99999237060547
 10
-1000.0
 20
-7.791336059570312
 30
-29.19999313354492
 10
-1000.0
 20
-7.644326210021972
 30
-32.17586898803711
 10
-1000.0
 20
-6.902266979217529
 30
-35.75153732299805
 10
-1000.0
 20
-5.303322315216064
 30
-39.01516342163086
 10
-1000.0
 20
-3.866669654846191
 30
-41.19999313354492
 10
-1000.0
 20
-3.666669845581054
 30
-42.99999237060546
 10
-1000.0
 20
-0.0000019073486328
 30
-42.99999237060546
 10
-1000.0
 20
0.0
 30
-21.39707565307617
 10
-1000.0
 20
-0.2035694122314453
 30
-19.96184539794922
 10
-1000.0
 20
-0.7965421676635743
 30
-18.64733123779297
 10
-1000.0
 20
-1.729557037353515
 30
-17.5644416809082
 10
1000.0
 20
-18.3034782409668
 30
-15.65660858154297
 10
1000.0
 20
-5.484564781188964
 30
-15.56556892395019
 10
1000.0
 20
-2.923627853393554
 30
-16.80390930175781
 10
1000.0
 20
-17.26473808288574
 30
-16.43712043762207
 10
1000.0
 20
-16.50959587097168
 30
-16.92076873779297
 10
1000.0
 20
-1.729557037353515
 30
-17.5644416809082
 10
1000.0
 20
-19.21988868713379
 30
-14.82297134399414
 10
1000.0
 20
-7.748608112335205
 30
-14.27273559570312
 10
1000.0
 20
-20.61042976379395
 30
-13.15307426452636
 10
1000.0
 20
-9.722246170043945
 30
-12.93247413635254
 10
1000.0
 20
-19.98538398742676
 30
-13.98579406738281
 10
1000.0
 20
-21.09809112548828
 30
-12.33324241638183
 10
1000.0
 20
-11.41378593444824
 30
-11.55542945861816
 10
1000.0
 20
-21.79703140258789
 30
-10.53192710876465
 10
1000.0
 20
-12.83058738708496
 30
-10.15968513488769
 10
1000.0
 20
-21.49057388305664
 30
-11.47138023376465
 10
1000.0
 20
-22.03379440307617
 30
-9.466865539550781
 10
1000.0
 20
-13.98922443389892
 30
-8.766801834106445
 10
1000.0
 20
-22.17967987060547
 30
-8.289499282836914
 10
1000.0
 20
-14.91662311553955
 30
-7.378410339355468
 10
1000.0
 20
-22.4333381652832
 30
-6.999990463256835
 10
1000.0
 20
-15.64209938049316
 30
-5.988500595092773
 10
1000.0
 20
-27.35167312622071
 30
-3.999990463256835
 10
1000.0
 20
-16.59252548217773
 30
-3.122632980346679
 10
1000.0
 20
-26.23540496826172
 30
-4.171226501464843
 10
1000.0
 20
-25.25059509277344
 30
-4.716697692871093
 10
1000.0
 20
-24.54246139526367
 30
-5.611919403076171
 10
1000.0
 20
-29.00000762939453
 30
0.0000095367431641
 10
1000.0
 20
-16.91667175292969
 30
0.0000095367431641
 10
1000.0
 20
-29.00000762939453
 30
-3.799989700317382
 10
1000.0
 20
-24.20447540283203
 30
-6.803595542907714
 10
1000.0
 20
-15.75975608825683
 30
-17.34353828430176
 10
1000.0
 20
-15.01014423370361
 30
-17.70248603820801
 10
1000.0
 20
-0.7965421676635743
 30
-18.64733123779297
 10
1000.0
 20
-13.92931365966797
 30
-18.15091514587402
 10
1000.0
 20
-12.91630744934082
 30
-18.49810981750488
 10
1000.0
 20
-11.96910285949707
 30
-18.80104827880859
 10
1000.0
 20
-0.2035694122314453
 30
-19.96184539794922
 10
1000.0
 20
-11.08593368530273
 30
-19.07768630981445
 10
1000.0
 20
-10.26495838165283
 30
-19.35194396972656
 10
1000.0
 20
-9.506314277648925
 30
-19.63866996765137
 10
1000.0
 20
-8.811567306518554
 30
-19.94328689575195
 10
1000.0
 20
-8.183918952941894
 30
-20.27554130554199
 10
1000.0
 20
0.0
 30
-21.39707565307617
 10
1000.0
 20
-7.15201187133789
 30
-21.02022171020508
 10
1000.0
 20
-6.427959442138671
 30
-21.83525848388672
 10
1000.0
 20
-6.006081581115722
 30
-22.66658401489258
 10
1000.0
 20
-0.0000019073486328
 30
-42.99999237060546
 10
1000.0
 20
-5.85138988494873
 30
-23.50622177124023
 10
1000.0
 20
-5.941709518432617
 30
-24.37444114685059
 10
1000.0
 20
-6.285408973693847
 30
-25.22847366333008
 10
1000.0
 20
-6.869048118591308
 30
-25.9853630065918
 10
1000.0
 20
-7.679845809936523
 30
-26.57694053649902
 10
1000.0
 20
-8.571823120117187
 30
-26.92693710327148
 10
1000.0
 20
-7.991335868835449
 30
-28.99999237060547
 10
1000.0
 20
-8.758004188537597
 30
-28.79999160766601
 10
1000.0
 20
-7.791336059570312
 30
-29.81496047973633
 10
1000.0
 20
-7.482213020324707
 30
-33.4725456237793
 10
1000.0
 20
-6.431087493896484
 30
-36.95209503173828
 10
1000.0
 20
-3.983937263488769
 30
-40.83797836303711
 10
1000.0
 20
-3.866668701171875
 30
-42.79999160766601
 10
-1000.0
 20
-7.791336059570312
 30
-29.81496238708496
 10
-1000.0
 20
-7.482213020324707
 30
-33.4725456237793
 10
-1000.0
 20
-6.431087493896484
 30
-36.95209503173828
 10
1000.0
 20
-7.644326210021972
 30
-32.17586517333984
 10
1000.0
 20
-6.902266502380371
 30
-35.75153732299805
 10
1000.0
 20
-5.303321838378906
 30
-39.01516342163086
 10
-1000.0
 20
-7.754583835601806
 30
-30.9977035522461
 10
-1000.0
 20
-7.263721466064453
 30
-34.63023376464844
 10
-1000.0
 20
-5.93267822265625
 30
-38.0194206237793
 10
1000.0
 20
-7.754583358764648
 30
-30.9977035522461
 10
1000.0
 20
-7.263721466064453
 30
-34.63023376464844
 10
1000.0
 20
-5.93267822265625
 30
-38.0194206237793
 10
-1000.0
 20
-27.35167312622071
 30
-3.999990463256835
 10
-1000.0
 20
-26.23540496826172
 30
-4.171226501464843
 10
-1000.0
 20
-25.25059700012207
 30
-4.716697692871093
 10
-1000.0
 20
-24.54246330261231
 30
-5.611919403076171
 10
1000.0
 20
-26.78753280639649
 30
-4.057491302490234
 10
1000.0
 20
-25.72185134887695
 30
-4.390824317932128
 10
1000.0
 20
-24.86150741577148
 30
-5.118169784545898
 10
1000.0
 20
-24.33391571044922
 30
-6.131155967712402
 10
-1000.0
 20
-29.00000762939453
 30
-3.799989700317382
 10
-1000.0
 20
-24.20447731018067
 30
-6.803596496582031
 10
-1000.0
 20
-22.43334007263184
 30
-6.999990463256835
 10
-1000.0
 20
-8.571823120117187
 30
-26.92693901062012
 10
-1000.0
 20
-8.758004188537597
 30
-28.79999160766601
 10
-1000.0
 20
-7.991335868835449
 30
-28.99999237060547
 10
-1000.0
 20
-3.983937263488769
 30
-40.83797836303711
 10
-1000.0
 20
-3.866669654846191
 30
-42.79999160766601
 10
1000.0
 20
-22.22502517700196
 30
-7.199817657470703
 10
1000.0
 20
-28.80000686645508
 30
-3.999990463256835
 10
1000.0
 20
-23.96667098999023
 30
-6.999989509582519
 10
1000.0
 20
-8.758003234863281
 30
-27.19999313354492
 10
1000.0
 20
-7.791336059570312
 30
-29.19999313354492
 10
1000.0
 20
-8.55800437927246
 30
-28.99999237060547
 10
1000.0
 20
-3.866669654846191
 30
-41.19999313354492
 10
1000.0
 20
-3.666669845581054
 30
-42.99999237060546
 10
-1000.0
 20
-28.95000839233399
 30
-3.949990272521972
 10
-1000.0
 20
-24.12612533569336
 30
-6.950891494750976
 10
-1000.0
 20
-22.2812614440918
 30
-7.04994773864746
 10
-1000.0
 20
-8.711458206176757
 30
-27.03172874450684
 10
-1000.0
 20
-8.708003997802734
 30
-28.94999313354492
 10
-1000.0
 20
-7.841336250305175
 30
-29.04999160766602
 10
-1000.0
 20
-3.895986557006835
 30
-41.00949096679687
 10
-1000.0
 20
-3.816669464111328
 30
-42.94999313354492
 10
1000.0
 20
-22.2812614440918
 30
-7.049946784973144
 10
1000.0
 20
-28.95000839233399
 30
-3.949990272521972
 10
1000.0
 20
-24.12612533569336
 30
-6.950891494750976
 10
1000.0
 20
-8.711458206176757
 30
-27.0317268371582
 10
1000.0
 20
-7.841336250305175
 30
-29.04999160766602
 10
1000.0
 20
-8.708003997802734
 30
-28.94999313354492
 10
1000.0
 20
-3.895986557006835
 30
-41.00949096679687
 10
1000.0
 20
-3.816669464111328
 30
-42.94999313354492
 93
      995
 90
        4
 90
       55
 90
       56
 90
      108
 90
      157
 90
        4
 90
       56
 90
       57
 90
      104
 90
      108
 90
        4
 90
       57
 90
       58
 90
       98
 90
      104
 90
        4
 90
       58
 90
       59
 90
       94
 90
       98
 90
        4
 90
       59
 90
       60
 90
       66
 90
       94
 90
        4
 90
       60
 90
        0
 90
       63
 90
       66
 90
        4
 90
        0
 90
        1
 90
       62
 90
       63
 90
        4
 90
        1
 90
        2
 90
       68
 90
       62
 90
        4
 90
        2
 90
        3
 90
       70
 90
       68
 90
        4
 90
        3
 90
        4
 90
       73
 90
       70
 90
        4
 90
        4
 90
        5
 90
       75
 90
       73
 90
        4
 90
        5
 90
        6
 90
       78
 90
       75
 90
        4
 90
        6
 90
        7
 90
       80
 90
       78
 90
        4
 90
        7
 90
        8
 90
       82
 90
       80
 90
        4
 90
        8
 90
        9
 90
       84
 90
       82
 90
        4
 90
        9
 90
       10
 90
       89
 90
       84
 90
        4
 90
       10
 90
       11
 90
       88
 90
       89
 90
        4
 90
       11
 90
      142
 90
       90
 90
       88
 90
        4
 90
       12
 90
      134
 90
       83
 90
      151
 90
        4
 90
       13
 90
      135
 90
       85
 90
      138
 90
        4
 90
       14
 90
      136
 90
       86
 90
      139
 90
        4
 90
       15
 90
      137
 90
       87
 90
      140
 90
        4
 90
       16
 90
      143
 90
       91
 90
      141
 90
        4
 90
       17
 90
      144
 90
       81
 90
      152
 90
        4
 90
       18
 90
       19
 90
       79
 90
      150
 90
        4
 90
       19
 90
       20
 90
       77
 90
       79
 90
        4
 90
       20
 90
       21
 90
       74
 90
       77
 90
        4
 90
       21
 90
       22
 90
       76
 90
       74
 90
        4
 90
       22
 90
       23
 90
       72
 90
       76
 90
        4
 90
       23
 90
       24
 90
       69
 90
       72
 90
        4
 90
       24
 90
       25
 90
       71
 90
       69
 90
        4
 90
       25
 90
       26
 90
       67
 90
       71
 90
        4
 90
       26
 90
       27
 90
       61
 90
       67
 90
        4
 90
       27
 90
       28
 90
       64
 90
       61
 90
        4
 90
       28
 90
       29
 90
       65
 90
       64
 90
        4
 90
       29
 90
       30
 90
       92
 90
       65
 90
        4
 90
       30
 90
       31
 90
       93
 90
       92
 90
        4
 90
       31
 90
       32
 90
       95
 90
       93
 90
        4
 90
       32
 90
       33
 90
       96
 90
       95
 90
        4
 90
       33
 90
       34
 90
       97
 90
       96
 90
        4
 90
       34
 90
       35
 90
       99
 90
       97
 90
        4
 90
       35
 90
       36
 90
      100
 90
       99
 90
        4
 90
       36
 90
       37
 90
      101
 90
      100
 90
        4
 90
       37
 90
       38
 90
      102
 90
      101
 90
        4
 90
       38
 90
       39
 90
      103
 90
      102
 90
        4
 90
       39
 90
       40
 90
      105
 90
      103
 90
        4
 90
       40
 90
       41
 90
      106
 90
      105
 90
        4
 90
       41
 90
       42
 90
      107
 90
      106
 90
        4
 90
       42
 90
       43
 90
      109
 90
      107
 90
        4
 90
       43
 90
       44
 90
      110
 90
      109
 90
        4
 90
       44
 90
       45
 90
      111
 90
      110
 90
        4
 90
       45
 90
       46
 90
      112
 90
      111
 90
        4
 90
       46
 90
       47
 90
      113
 90
      112
 90
        4
 90
       47
 90
      145
 90
      114
 90
      113
 90
        4
 90
       48
 90
      146
 90
      116
 90
      153
 90
        4
 90
       49
 90
      147
 90
      115
 90
      155
 90
        4
 90
       50
 90
      122
 90
      117
 90
      154
 90
        4
 90
       51
 90
      123
 90
      118
 90
      125
 90
        4
 90
       52
 90
      124
 90
      119
 90
      126
 90
        4
 90
       53
 90
      148
 90
      120
 90
      127
 90
        4
 90
       54
 90
      149
 90
      121
 90
      156
 90
        4
 90
      122
 90
      128
 90
      131
 90
      117
 90
        4
 90
      123
 90
      129
 90
      132
 90
      118
 90
        4
 90
      124
 90
      130
 90
      133
 90
      119
 90
        4
 90
      128
 90
       51
 90
      125
 90
      131
 90
        4
 90
      129
 90
       52
 90
      126
 90
      132
 90
        4
 90
      130
 90
       53
 90
      127
 90
      133
 90
        4
 90
      134
 90
       13
 90
      138
 90
       83
 90
        4
 90
      135
 90
       14
 90
      139
 90
       85
 90
        4
 90
      136
 90
       15
 90
      140
 90
       86
 90
        4
 90
      137
 90
       16
 90
      141
 90
       87
 90
        4
 90
      149
 90
      165
 90
      173
 90
      121
 90
        4
 90
      142
 90
      158
 90
      167
 90
       90
 90
        4
 90
      143
 90
      159
 90
      168
 90
       91
 90
        4
 90
      144
 90
      160
 90
      166
 90
       81
 90
        4
 90
      145
 90
      161
 90
      169
 90
      114
 90
        4
 90
      146
 90
      162
 90
      171
 90
      116
 90
        4
 90
      147
 90
      163
 90
      170
 90
      115
 90
        4
 90
      148
 90
      164
 90
      172
 90
      120
 90
        4
 90
      165
 90
       55
 90
      157
 90
      173
 90
        4
 90
      158
 90
       12
 90
      151
 90
      167
 90
        4
 90
      159
 90
       17
 90
      152
 90
      168
 90
        4
 90
      160
 90
       18
 90
      150
 90
      166
 90
        4
 90
      161
 90
       48
 90
      153
 90
      169
 90
        4
 90
      162
 90
       49
 90
      155
 90
      171
 90
        4
 90
      163
 90
       50
 90
      154
 90
      170
 90
        4
 90
      164
 90
       54
 90
      156
 90
      172
 90
        4
 90
        0
 90
       40
 90
       39
 90
        1
 90
        3
 90
      158
 90
      142
 90
       10
 90
        3
 90
      142
 90
       11
 90
       10
 90
        3
 90
      134
 90
       12
 90
       10
 90
        3
 90
       12
 90
      158
 90
       10
 90
        3
 90
       13
 90
      134
 90
       10
 90
        3
 90
      135
 90
       13
 90
       10
 90
        3
 90
       17
 90
      159
 90
        9
 90
        3
 90
      159
 90
      143
 90
        9
 90
        3
 90
      143
 90
       16
 90
        9
 90
        3
 90
       16
 90
      137
 90
        9
 90
        3
 90
      137
 90
       15
 90
        9
 90
        4
 90
       15
 90
      136
 90
       10
 90
        9
 90
        3
 90
       14
 90
      135
 90
       10
 90
        3
 90
      136
 90
       14
 90
       10
 90
        3
 90
      144
 90
       17
 90
        9
 90
        3
 90
      160
 90
      144
 90
        9
 90
        4
 90
       18
 90
      160
 90
        9
 90
        8
 90
        3
 90
       19
 90
       18
 90
        8
 90
        3
 90
       21
 90
       20
 90
        7
 90
        4
 90
       20
 90
       19
 90
        8
 90
        7
 90
        3
 90
       23
 90
       22
 90
        6
 90
        4
 90
       22
 90
       21
 90
        7
 90
        6
 90
        3
 90
       24
 90
       23
 90
        6
 90
        3
 90
       26
 90
       25
 90
        5
 90
        4
 90
       25
 90
       24
 90
        6
 90
        5
 90
        3
 90
       27
 90
       26
 90
        5
 90
        3
 90
       29
 90
       28
 90
        4
 90
        4
 90
       28
 90
       27
 90
        5
 90
        4
 90
        3
 90
       30
 90
       29
 90
        4
 90
        3
 90
       31
 90
       30
 90
        4
 90
        3
 90
       33
 90
       32
 90
        3
 90
        4
 90
       32
 90
       31
 90
        4
 90
        3
 90
        3
 90
       34
 90
       33
 90
        3
 90
        3
 90
       36
 90
       35
 90
        2
 90
        4
 90
       35
 90
       34
 90
        3
 90
        2
 90
        3
 90
       37
 90
       36
 90
        2
 90
        3
 90
       39
 90
       38
 90
        1
 90
        4
 90
       38
 90
       37
 90
        2
 90
        1
 90
        4
 90
        0
 90
       60
 90
       41
 90
       40
 90
        4
 90
       60
 90
       59
 90
       42
 90
       41
 90
        4
 90
       59
 90
       58
 90
       43
 90
       42
 90
        4
 90
       58
 90
       57
 90
       44
 90
       43
 90
        4
 90
       57
 90
      163
 90
       46
 90
       45
 90
        3
 90
       57
 90
       45
 90
       44
 90
        4
 90
      162
 90
      146
 90
       48
 90
      161
 90
        4
 90
       49
 90
      162
 90
      161
 90
      145
 90
        4
 90
      147
 90
       49
 90
      145
 90
       47
 90
        4
 90
      163
 90
      147
 90
       47
 90
       46
 90
        3
 90
       57
 90
      122
 90
       50
 90
        3
 90
       57
 90
       50
 90
      163
 90
        3
 90
       57
 90
       51
 90
      128
 90
        3
 90
       57
 90
      128
 90
      122
 90
        3
 90
       57
 90
      129
 90
      123
 90
        3
 90
       57
 90
      123
 90
       51
 90
        3
 90
       57
 90
      124
 90
       52
 90
        3
 90
       57
 90
       52
 90
      129
 90
        3
 90
       57
 90
       53
 90
      130
 90
        3
 90
       57
 90
      130
 90
      124
 90
        3
 90
       57
 90
      164
 90
      148
 90
        3
 90
       57
 90
      148
 90
       53
 90
        4
 90
       57
 90
       56
 90
       54
 90
      164
 90
        3
 90
       56
 90
      165
 90
      149
 90
        3
 90
       56
 90
      149
 90
       54
 90
        3
 90
       56
 90
       55
 90
      165
 90
        4
 90
       63
 90
       62
 90
      103
 90
      105
 90
        3
 90
      167
 90
       89
 90
       90
 90
        3
 90
       90
 90
       89
 90
       88
 90
        3
 90
       83
 90
       89
 90
      151
 90
        3
 90
      151
 90
       89
 90
      167
 90
        3
 90
      138
 90
       89
 90
       83
 90
        3
 90
       85
 90
       89
 90
      138
 90
        3
 90
      152
 90
       84
 90
      168
 90
        3
 90
      168
 90
       84
 90
       91
 90
        3
 90
       91
 90
       84
 90
      141
 90
        3
 90
      141
 90
       84
 90
       87
 90
        3
 90
       87
 90
       84
 90
      140
 90
        4
 90
      140
 90
       84
 90
       89
 90
       86
 90
        3
 90
      139
 90
       89
 90
       85
 90
        3
 90
       86
 90
       89
 90
      139
 90
        3
 90
       81
 90
       84
 90
      152
 90
        3
 90
      166
 90
       84
 90
       81
 90
        4
 90
      150
 90
       82
 90
       84
 90
      166
 90
        3
 90
       79
 90
       82
 90
      150
 90
        3
 90
       74
 90
       80
 90
       77
 90
        4
 90
       77
 90
       80
 90
       82
 90
       79
 90
        3
 90
       72
 90
       78
 90
       76
 90
        4
 90
       76
 90
       78
 90
       80
 90
       74
 90
        3
 90
       69
 90
       78
 90
       72
 90
        3
 90
       67
 90
       75
 90
       71
 90
        4
 90
       71
 90
       75
 90
       78
 90
       69
 90
        3
 90
       61
 90
       75
 90
       67
 90
        3
 90
       65
 90
       73
 90
       64
 90
        4
 90
       64
 90
       73
 90
       75
 90
       61
 90
        3
 90
       92
 90
       73
 90
       65
 90
        3
 90
       93
 90
       73
 90
       92
 90
        3
 90
       96
 90
       70
 90
       95
 90
        4
 90
       95
 90
       70
 90
       73
 90
       93
 90
        3
 90
       97
 90
       70
 90
       96
 90
        3
 90
      100
 90
       68
 90
       99
 90
        4
 90
       99
 90
       68
 90
       70
 90
       97
 90
        3
 90
      101
 90
       68
 90
      100
 90
        3
 90
      103
 90
       62
 90
      102
 90
        4
 90
      102
 90
       62
 90
       68
 90
      101
 90
        4
 90
       63
 90
      105
 90
      106
 90
       66
 90
        4
 90
       66
 90
      106
 90
      107
 90
       94
 90
        4
 90
       94
 90
      107
 90
      109
 90
       98
 90
        4
 90
       98
 90
      109
 90
      110
 90
      104
 90
        4
 90
      104
 90
      111
 90
      112
 90
      170
 90
        3
 90
      104
 90
      110
 90
      111
 90
        4
 90
      171
 90
      169
 90
      153
 90
      116
 90
        4
 90
      155
 90
      114
 90
      169
 90
      171
 90
        4
 90
      115
 90
      113
 90
      114
 90
      155
 90
        4
 90
      170
 90
      112
 90
      113
 90
      115
 90
        3
 90
      104
 90
      154
 90
      117
 90
        3
 90
      104
 90
      170
 90
      154
 90
        3
 90
      104
 90
      131
 90
      125
 90
        3
 90
      104
 90
      117
 90
      131
 90
        3
 90
      104
 90
      118
 90
      132
 90
        3
 90
      104
 90
      125
 90
      118
 90
        3
 90
      104
 90
      126
 90
      119
 90
        3
 90
      104
 90
      132
 90
      126
 90
        3
 90
      104
 90
      133
 90
      127
 90
        3
 90
      104
 90
      119
 90
      133
 90
        3
 90
      104
 90
      120
 90
      172
 90
        3
 90
      104
 90
      127
 90
      120
 90
        4
 90
      104
 90
      172
 90
      156
 90
      108
 90
        3
 90
      108
 90
      121
 90
      173
 90
        3
 90
      108
 90
      156
 90
      121
 90
        3
 90
      108
 90
      173
 90
      157
 94
      389
 90
       55
 90
       56
 90
       56
 90
      108
 90
      108
 90
      157
 90
       55
 90
      157
 90
       56
 90
       57
 90
       57
 90
      104
 90
      104
 90
      108
 90
       57
 90
       58
 90
       58
 90
       98
 90
       98
 90
      104
 90
       58
 90
       59
 90
       59
 90
       94
 90
       94
 90
       98
 90
       59
 90
       60
 90
       60
 90
       66
 90
       66
 90
       94
 90
        0
 90
       60
 90
        0
 90
       63
 90
       63
 90
       66
 90
        0
 90
        1
 90
        1
 90
       62
 90
       62
 90
       63
 90
        1
 90
        2
 90
        2
 90
       68
 90
       62
 90
       68
 90
        2
 90
        3
 90
        3
 90
       70
 90
       68
 90
       70
 90
        3
 90
        4
 90
        4
 90
       73
 90
       70
 90
       73
 90
        4
 90
        5
 90
        5
 90
       75
 90
       73
 90
       75
 90
        5
 90
        6
 90
        6
 90
       78
 90
       75
 90
       78
 90
        6
 90
        7
 90
        7
 90
       80
 90
       78
 90
       80
 90
        7
 90
        8
 90
        8
 90
       82
 90
       80
 90
       82
 90
        8
 90
        9
 90
        9
 90
       84
 90
       82
 90
       84
 90
        9
 90
       10
 90
       10
 90
       89
 90
       84
 90
       89
 90
       10
 90
       11
 90
       11
 90
       88
 90
       88
 90
       89
 90
       11
 90
      142
 90
       90
 90
      142
 90
       88
 90
       90
 90
       12
 90
      134
 90
       83
 90
      134
 90
       83
 90
      151
 90
       12
 90
      151
 90
       13
 90
      135
 90
       85
 90
      135
 90
       85
 90
      138
 90
       13
 90
      138
 90
       14
 90
      136
 90
       86
 90
      136
 90
       86
 90
      139
 90
       14
 90
      139
 90
       15
 90
      137
 90
       87
 90
      137
 90
       87
 90
      140
 90
       15
 90
      140
 90
       16
 90
      143
 90
       91
 90
      143
 90
       91
 90
      141
 90
       16
 90
      141
 90
       17
 90
      144
 90
       81
 90
      144
 90
       81
 90
      152
 90
       17
 90
      152
 90
       18
 90
       19
 90
       19
 90
       79
 90
       79
 90
      150
 90
       18
 90
      150
 90
       19
 90
       20
 90
       20
 90
       77
 90
       77
 90
       79
 90
       20
 90
       21
 90
       21
 90
       74
 90
       74
 90
       77
 90
       21
 90
       22
 90
       22
 90
       76
 90
       74
 90
       76
 90
       22
 90
       23
 90
       23
 90
       72
 90
       72
 90
       76
 90
       23
 90
       24
 90
       24
 90
       69
 90
       69
 90
       72
 90
       24
 90
       25
 90
       25
 90
       71
 90
       69
 90
       71
 90
       25
 90
       26
 90
       26
 90
       67
 90
       67
 90
       71
 90
       26
 90
       27
 90
       27
 90
       61
 90
       61
 90
       67
 90
       27
 90
       28
 90
       28
 90
       64
 90
       61
 90
       64
 90
       28
 90
       29
 90
       29
 90
       65
 90
       64
 90
       65
 90
       29
 90
       30
 90
       30
 90
       92
 90
       65
 90
       92
 90
       30
 90
       31
 90
       31
 90
       93
 90
       92
 90
       93
 90
       31
 90
       32
 90
       32
 90
       95
 90
       93
 90
       95
 90
       32
 90
       33
 90
       33
 90
       96
 90
       95
 90
       96
 90
       33
 90
       34
 90
       34
 90
       97
 90
       96
 90
       97
 90
       34
 90
       35
 90
       35
 90
       99
 90
       97
 90
       99
 90
       35
 90
       36
 90
       36
 90
      100
 90
       99
 90
      100
 90
       36
 90
       37
 90
       37
 90
      101
 90
      100
 90
      101
 90
       37
 90
       38
 90
       38
 90
      102
 90
      101
 90
      102
 90
       38
 90
       39
 90
       39
 90
      103
 90
      102
 90
      103
 90
       39
 90
       40
 90
       40
 90
      105
 90
      103
 90
      105
 90
       40
 90
       41
 90
       41
 90
      106
 90
      105
 90
      106
 90
       41
 90
       42
 90
       42
 90
      107
 90
      106
 90
      107
 90
       42
 90
       43
 90
       43
 90
      109
 90
      107
 90
      109
 90
       43
 90
       44
 90
       44
 90
      110
 90
      109
 90
      110
 90
       44
 90
       45
 90
       45
 90
      111
 90
      110
 90
      111
 90
       45
 90
       46
 90
       46
 90
      112
 90
      111
 90
      112
 90
       46
 90
       47
 90
       47
 90
      113
 90
      112
 90
      113
 90
       47
 90
      145
 90
      114
 90
      145
 90
      113
 90
      114
 90
       48
 90
      146
 90
      116
 90
      146
 90
      116
 90
      153
 90
       48
 90
      153
 90
       49
 90
      147
 90
      115
 90
      147
 90
      115
 90
      155
 90
       49
 90
      155
 90
       50
 90
      122
 90
      117
 90
      122
 90
      117
 90
      154
 90
       50
 90
      154
 90
       51
 90
      123
 90
      118
 90
      123
 90
      118
 90
      125
 90
       51
 90
      125
 90
       52
 90
      124
 90
      119
 90
      124
 90
      119
 90
      126
 90
       52
 90
      126
 90
       53
 90
      148
 90
      120
 90
      148
 90
      120
 90
      127
 90
       53
 90
      127
 90
       54
 90
      149
 90
      121
 90
      149
 90
      121
 90
      156
 90
       54
 90
      156
 90
      122
 90
      128
 90
      128
 90
      131
 90
      117
 90
      131
 90
      123
 90
      129
 90
      129
 90
      132
 90
      118
 90
      132
 90
      124
 90
      130
 90
      130
 90
      133
 90
      119
 90
      133
 90
       51
 90
      128
 90
      125
 90
      131
 90
       52
 90
      129
 90
      126
 90
      132
 90
       53
 90
      130
 90
      127
 90
      133
 90
       13
 90
      134
 90
       83
 90
      138
 90
       14
 90
      135
 90
       85
 90
      139
 90
       15
 90
      136
 90
       86
 90
      140
 90
       16
 90
      137
 90
       87
 90
      141
 90
      149
 90
      165
 90
      165
 90
      173
 90
      121
 90
      173
 90
      142
 90
      158
 90
      158
 90
      167
 90
       90
 90
      167
 90
      143
 90
      159
 90
      159
 90
      168
 90
       91
 90
      168
 90
      144
 90
      160
 90
      160
 90
      166
 90
       81
 90
      166
 90
      145
 90
      161
 90
      161
 90
      169
 90
      114
 90
      169
 90
      146
 90
      162
 90
      162
 90
      171
 90
      116
 90
      171
 90
      147
 90
      163
 90
      163
 90
      170
 90
      115
 90
      170
 90
      148
 90
      164
 90
      164
 90
      172
 90
      120
 90
      172
 90
       55
 90
      165
 90
      157
 90
      173
 90
       12
 90
      158
 90
      151
 90
      167
 90
       17
 90
      159
 90
      152
 90
      168
 90
       18
 90
      160
 90
      150
 90
      166
 90
       48
 90
      161
 90
      153
 90
      169
 90
       49
 90
      162
 90
      155
 90
      171
 90
       50
 90
      163
 90
      154
 90
      170
 90
       54
 90
      164
 90
      156
 90
      172
 90
        0
 90
       40
 90
        1
 90
       39
 90
       10
 90
      142
 90
       10
 90
      158
 90
       10
 90
       12
 90
       10
 90
      134
 90
       10
 90
       13
 90
       10
 90
      135
 90
        9
 90
      159
 90
        9
 90
       17
 90
        9
 90
      143
 90
        9
 90
       16
 90
        9
 90
      137
 90
        9
 90
       15
 90
       10
 90
      136
 90
       10
 90
       14
 90
        9
 90
      144
 90
        9
 90
      160
 90
        8
 90
       18
 90
        8
 90
       19
 90
        7
 90
       20
 90
        7
 90
       21
 90
        6
 90
       22
 90
        6
 90
       23
 90
        6
 90
       24
 90
        5
 90
       25
 90
        5
 90
       26
 90
        5
 90
       27
 90
        4
 90
       28
 90
        4
 90
       29
 90
        4
 90
       30
 90
        4
 90
       31
 90
        3
 90
       32
 90
        3
 90
       33
 90
        3
 90
       34
 90
        2
 90
       35
 90
        2
 90
       36
 90
        2
 90
       37
 90
        1
 90
       38
 90
       41
 90
       60
 90
       42
 90
       59
 90
       43
 90
       58
 90
       44
 90
       57
 90
       57
 90
      163
 90
       46
 90
      163
 90
       45
 90
       57
 90
      161
 90
      162
 90
       49
 90
      145
 90
       47
 90
      147
 90
       57
 90
      122
 90
       50
 90
       57
 90
       51
 90
       57
 90
       57
 90
      128
 90
       57
 90
      129
 90
       57
 90
      123
 90
       57
 90
      124
 90
       52
 90
       57
 90
       53
 90
       57
 90
       57
 90
      130
 90
       57
 90
      164
 90
       57
 90
      148
 90
       54
 90
       56
 90
       56
 90
      165
 90
       56
 90
      149
 90
       62
 90
      103
 90
       63
 90
      105
 90
       89
 90
      167
 90
       89
 90
       90
 90
       83
 90
       89
 90
       89
 90
      151
 90
       89
 90
      138
 90
       85
 90
       89
 90
       84
 90
      152
 90
       84
 90
      168
 90
       84
 90
       91
 90
       84
 90
      141
 90
       84
 90
       87
 90
       84
 90
      140
 90
       86
 90
       89
 90
       89
 90
      139
 90
       81
 90
       84
 90
       84
 90
      166
 90
       82
 90
      150
 90
       79
 90
       82
 90
       74
 90
       80
 90
       77
 90
       80
 90
       72
 90
       78
 90
       76
 90
       78
 90
       69
 90
       78
 90
       67
 90
       75
 90
       71
 90
       75
 90
       61
 90
       75
 90
       65
 90
       73
 90
       64
 90
       73
 90
       73
 90
       92
 90
       73
 90
       93
 90
       70
 90
       96
 90
       70
 90
       95
 90
       70
 90
       97
 90
       68
 90
      100
 90
       68
 90
       99
 90
       68
 90
      101
 90
       62
 90
      102
 90
       66
 90
      106
 90
       94
 90
      107
 90
       98
 90
      109
 90
      104
 90
      110
 90
      104
 90
      111
 90
      112
 90
      170
 90
      104
 90
      170
 90
      169
 90
      171
 90
      114
 90
      155
 90
      113
 90
      115
 90
      104
 90
      154
 90
      104
 90
      117
 90
      104
 90
      131
 90
      104
 90
      125
 90
      104
 90
      118
 90
      104
 90
      132
 90
      104
 90
      126
 90
      104
 90
      119
 90
      104
 90
      133
 90
      104
 90
      127
 90
      104
 90
      120
 90
      104
 90
      172
 90
      108
 90
      156
 90
      108
 90
      121
 90
      108
 90
      173
 95
      389
140
0.0
140
0.0
140
0.0
140
0.0
140
0.0
140
0.0
140
0.0
140
0.0
140
0.0
140
0.0
140
0.0
140
0.0
140
0.0
140
0.0
140
0.0
140
0.0
140
0.0
140
0.0
140
0.0
140
0.0
140
0.0
140
0.0
140
0.0
140
0.0
140
0.0
140
0.0
140
0.0
140
0.0
140
0.0
140
0.0
140
0.0
140
0.0
140
0.0
140
0.0
140
0.0
140
0.0
140
0.0
140
0.0
140
0.0
140
0.0
140
0.0
140
0.0
140
0.0
140
0.0
140
0.0
140
0.0
140
0.0
140
0.0
140
0.0
140
0.0
140
0.0
140
0.0
140
0.0
140
0.0
140
0.0
140
0.0
140
0.0
140
0.0
140
0.0
140
0.0
140
0.0
140
0.0
140
0.0
140
0.0
140
0.0
140
0.0
140
0.0
140
0.0
140
0.0
140
0.0
140
0.0
140
0.0
140
0.0
140
0.0
140
0.0
140
0.0
140
0.0
140
0.0
140
0.0
140
0.0
140
0.0
140
0.0
140
0.0
140
0.0
140
0.0
140
0.0
140
0.0
140
0.0
140
0.0
140
0.0
140
0.0
140
0.0
140
0.0
140
0.0
140
0.0
140
0.0
140
0.0
140
0.0
140
0.0
140
0.0
140
0.0
140
0.0
140
0.0
140
0.0
140
0.0
140
0.0
140
0.0
140
0.0
140
0.0
140
0.0
140
0.0
140
0.0
140
0.0
140
0.0
140
0.0
140
0.0
140
0.0
140
0.0
140
0.0
140
0.0
140
0.0
140
0.0
140
0.0
140
0.0
140
0.0
140
0.0
140
0.0
140
0.0
140
0.0
140
0.0
140
0.0
140
0.0
140
0.0
140
0.0
140
0.0
140
0.0
140
0.0
140
0.0
140
0.0
140
0.0
140
0.0
140
0.0
140
0.0
140
0.0
140
0.0
140
0.0
140
0.0
140
0.0
140
0.0
140
0.0
140
0.0
140
0.0
140
0.0
140
0.0
140
0.0
140
0.0
140
0.0
140
0.0
140
0.0
140
0.0
140
0.0
140
0.0
140
0.0
140
0.0
140
0.0
140
0.0
140
0.0
140
0.0
140
0.0
140
0.0
140
0.0
140
0.0
140
0.0
140
0.0
140
0.0
140
0.0
140
0.0
140
0.0
140
0.0
140
0.0
140
0.0
140
0.0
140
0.0
140
0.0
140
0.0
140
0.0
140
0.0
140
0.0
140
0.0
140
0.0
140
0.0
140
0.0
140
0.0
140
0.0
140
0.0
140
0.0
140
0.0
140
0.0
140
0.0
140
0.0
140
0.0
140
0.0
140
0.0
140
0.0
140
0.0
140
0.0
140
0.0
140
0.0
140
0.0
140
0.0
140
0.0
140
0.0
140
0.0
140
0.0
140
0.0
140
0.0
140
0.0
140
0.0
140
0.0
140
0.0
140
0.0
140
0.0
140
0.0
140
0.0
140
0.0
140
0.0
140
0.0
140
0.0
140
0.0
140
0.0
140
0.0
140
0.0
140
0.0
140
0.0
140
0.0
140
0.0
140
0.0
140
0.0
140
0.0
140
0.0
140
0.0
140
0.0
140
0.0
140
0.0
140
0.0
140
0.0
140
0.0
140
0.0
140
0.0
140
0.0
140
0.0
140
0.0
140
0.0
140
0.0
140
0.0
140
0.0
140
0.0
140
0.0
140
0.0
140
0.0
140
0.0
140
0.0
140
0.0
140
0.0
140
0.0
140
0.0
140
0.0
140
0.0
140
0.0
140
0.0
140
0.0
140
0.0
140
0.0
140
0.0
140
0.0
140
0.0
140
0.0
140
0.0
140
0.0
140
0.0
140
0.0
140
0.0
140
0.0
140
0.0
140
0.0
140
0.0
140
0.0
140
0.0
140
0.0
140
0.0
140
0.0
140
0.0
140
0.0
140
0.0
140
0.0
140
0.0
140
0.0
140
0.0
140
0.0
140
0.0
140
0.0
140
0.0
140
0.0
140
0.0
140
0.0
140
0.0
140
0.0
140
0.0
140
0.0
140
0.0
140
0.0
140
0.0
140
0.0
140
0.0
140
0.0
140
0.0
140
0.0
140
0.0
140
0.0
140
0.0
140
0.0
140
0.0
140
0.0
140
0.0
140
0.0
140
0.0
140
0.0
140
0.0
140
0.0
140
0.0
140
0.0
140
0.0
140
0.0
140
0.0
140
0.0
140
0.0
140
0.0
140
0.0
140
0.0
140
0.0
140
0.0
140
0.0
140
0.0
140
0.0
140
0.0
140
0.0
140
0.0
140
0.0
140
0.0
140
0.0
140
0.0
140
0.0
140
0.0
140
0.0
140
0.0
140
0.0
140
0.0
140
0.0
140
0.0
140
0.0
140
0.0
140
0.0
140
0.0
140
0.0
140
0.0
140
0.0
140
0.0
140
0.0
140
0.0
140
0.0
140
0.0
140
0.0
140
0.0
140
0.0
140
0.0
140
0.0
140
0.0
140
0.0
140
0.0
140
0.0
140
0.0
140
0.0
140
0.0
140
0.0
140
0.0
140
0.0
140
0.0
140
0.0
140
0.0
 90
        0
  0
POLYLINE
  5
FA
330
1F
100
AcDbEntity
  8
OracDecor_cornice_mouldings
 62
   141
420
 10147813
100
AcDb3dPolyline
 66
     1
 10
0.0
 20
0.0
 30
0.0
 70
     9
  0
VERTEX
  5
FB
330
FA
100
AcDbEntity
  8
OracDecor_cornice_mouldings
 62
   141
420
 10147813
100
AcDbVertex
100
AcDb3dPolylineVertex
 10
0.0
 20
2.923627376556396
 30
-16.80391120910644
 70
    32
  0
VERTEX
  5
FC
330
FA
100
AcDbEntity
  8
OracDecor_cornice_mouldings
 62
   141
420
 10147813
100
AcDbVertex
100
AcDb3dPolylineVertex
 10
0.0
 20
5.484565258026123
 30
-15.56556892395019
 70
    32
  0
VERTEX
  5
FD
330
FA
100
AcDbEntity
  8
OracDecor_cornice_mouldings
 62
   141
420
 10147813
100
AcDbVertex
100
AcDb3dPolylineVertex
 10
0.0
 20
7.748608112335205
 30
-14.27273654937744
 70
    32
  0
VERTEX
  5
FE
330
FA
100
AcDbEntity
  8
OracDecor_cornice_mouldings
 62
   141
420
 10147813
100
AcDbVertex
100
AcDb3dPolylineVertex
 10
0.0
 20
9.722247123718261
 30
-12.93247509002685
 70
    32
  0
VERTEX
  5
FF
330
FA
100
AcDbEntity
  8
OracDecor_cornice_mouldings
 62
   141
420
 10147813
100
AcDbVertex
100
AcDb3dPolylineVertex
 10
0.0000038146972656
 20
11.41378688812256
 30
-11.55543041229248
 70
    32
  0
VERTEX
  5
100
330
FA
100
AcDbEntity
  8
OracDecor_cornice_mouldings
 62
   141
420
 10147813
100
AcDbVertex
100
AcDb3dPolylineVertex
 10
0.0000038146972656
 20
12.83058738708496
 30
-10.15968513488769
 70
    32
  0
VERTEX
  5
101
330
FA
100
AcDbEntity
  8
OracDecor_cornice_mouldings
 62
   141
420
 10147813
100
AcDbVertex
100
AcDb3dPolylineVertex
 10
0.0000038146972656
 20
13.98922443389892
 30
-8.766801834106445
 70
    32
  0
VERTEX
  5
102
330
FA
100
AcDbEntity
  8
OracDecor_cornice_mouldings
 62
   141
420
 10147813
100
AcDbVertex
100
AcDb3dPolylineVertex
 10
0.0000038146972656
 20
14.91662311553955
 30
-7.378410816192626
 70
    32
  0
VERTEX
  5
103
330
FA
100
AcDbEntity
  8
OracDecor_cornice_mouldings
 62
   141
420
 10147813
100
AcDbVertex
100
AcDb3dPolylineVertex
 10
0.0000038146972656
 20
15.64209938049316
 30
-5.988501071929931
 70
    32
  0
VERTEX
  5
104
330
FA
100
AcDbEntity
  8
OracDecor_cornice_mouldings
 62
   141
420
 10147813
100
AcDbVertex
100
AcDb3dPolylineVertex
 10
0.0000038146972656
 20
16.59252548217773
 30
-3.122632980346679
 70
    32
  0
VERTEX
  5
105
330
FA
100
AcDbEntity
  8
OracDecor_cornice_mouldings
 62
   141
420
 10147813
100
AcDbVertex
100
AcDb3dPolylineVertex
 10
0.0000038146972656
 20
16.91667175292969
 30
0.0000090286930572
 70
    32
  0
VERTEX
  5
106
330
FA
100
AcDbEntity
  8
OracDecor_cornice_mouldings
 62
   141
420
 10147813
100
AcDbVertex
100
AcDb3dPolylineVertex
 10
0.0000038146972656
 20
29.00000762939453
 30
0.0000100850511444
 70
    32
  0
VERTEX
  5
107
330
FA
100
AcDbEntity
  8
OracDecor_cornice_mouldings
 62
   141
420
 10147813
100
AcDbVertex
100
AcDb3dPolylineVertex
 10
0.0000038146972656
 20
29.00000762939453
 30
-3.799989938735961
 70
    32
  0
VERTEX
  5
108
330
FA
100
AcDbEntity
  8
OracDecor_cornice_mouldings
 62
   141
420
 10147813
100
AcDbVertex
100
AcDb3dPolylineVertex
 10
0.0000038146970383
 20
28.95000839233399
 30
-3.949990034103393
 70
    32
  0
VERTEX
  5
109
330
FA
100
AcDbEntity
  8
OracDecor_cornice_mouldings
 62
   141
420
 10147813
100
AcDbVertex
100
AcDb3dPolylineVertex
 10
0.0000038146970383
 20
28.80000686645508
 30
-3.999989986419677
 70
    32
  0
VERTEX
  5
10A
330
FA
100
AcDbEntity
  8
OracDecor_cornice_mouldings
 62
   141
420
 10147813
100
AcDbVertex
100
AcDb3dPolylineVertex
 10
0.0000038146970383
 20
27.35167312622071
 30
-3.999989986419677
 70
    32
  0
VERTEX
  5
10B
330
FA
100
AcDbEntity
  8
OracDecor_cornice_mouldings
 62
   141
420
 10147813
100
AcDbVertex
100
AcDb3dPolylineVertex
 10
0.0000038146972656
 20
26.78753471374512
 30
-4.057491302490234
 70
    32
  0
VERTEX
  5
10C
330
FA
100
AcDbEntity
  8
OracDecor_cornice_mouldings
 62
   141
420
 10147813
100
AcDbVertex
100
AcDb3dPolylineVertex
 10
0.0000038146972656
 20
26.23540496826172
 30
-4.171226501464843
 70
    32
  0
VERTEX
  5
10D
330
FA
100
AcDbEntity
  8
OracDecor_cornice_mouldings
 62
   141
420
 10147813
100
AcDbVertex
100
AcDb3dPolylineVertex
 10
0.0000038146970383
 20
25.72185325622559
 30
-4.390824794769287
 70
    32
  0
VERTEX
  5
10E
330
FA
100
AcDbEntity
  8
OracDecor_cornice_mouldings
 62
   141
420
 10147813
100
AcDbVertex
100
AcDb3dPolylineVertex
 10
0.0000038146972656
 20
25.25059700012207
 30
-4.716697692871093
 70
    32
  0
VERTEX
  5
10F
330
FA
100
AcDbEntity
  8
OracDecor_cornice_mouldings
 62
   141
420
 10147813
100
AcDbVertex
100
AcDb3dPolylineVertex
 10
0.0000038146970383
 20
24.86150741577148
 30
-5.11816930770874
 70
    32
  0
VERTEX
  5
110
330
FA
100
AcDbEntity
  8
OracDecor_cornice_mouldings
 62
   141
420
 10147813
100
AcDbVertex
100
AcDb3dPolylineVertex
 10
0.0000038146972656
 20
24.54246330261231
 30
-5.61191987991333
 70
    32
  0
VERTEX
  5
111
330
FA
100
AcDbEntity
  8
OracDecor_cornice_mouldings
 62
   141
420
 10147813
100
AcDbVertex
100
AcDb3dPolylineVertex
 10
0.0000038146972656
 20
24.33391571044922
 30
-6.131156921386718
 70
    32
  0
VERTEX
  5
112
330
FA
100
AcDbEntity
  8
OracDecor_cornice_mouldings
 62
   141
420
 10147813
100
AcDbVertex
100
AcDb3dPolylineVertex
 10
0.0000038146972656
 20
24.20447731018067
 30
-6.803596019744873
 70
    32
  0
VERTEX
  5
113
330
FA
100
AcDbEntity
  8
OracDecor_cornice_mouldings
 62
   141
420
 10147813
100
AcDbVertex
100
AcDb3dPolylineVertex
 10
0.0000038146972656
 20
24.12612533569336
 30
-6.950891971588134
 70
    32
  0
VERTEX
  5
114
330
FA
100
AcDbEntity
  8
OracDecor_cornice_mouldings
 62
   141
420
 10147813
100
AcDbVertex
100
AcDb3dPolylineVertex
 10
0.0000038146972656
 20
23.96667289733887
 30
-6.999990463256835
 70
    32
  0
VERTEX
  5
115
330
FA
100
AcDbEntity
  8
OracDecor_cornice_mouldings
 62
   141
420
 10147813
100
AcDbVertex
100
AcDb3dPolylineVertex
 10
0.0000038146972656
 20
22.43334007263184
 30
-6.999990463256835
 70
    32
  0
VERTEX
  5
116
330
FA
100
AcDbEntity
  8
OracDecor_cornice_mouldings
 62
   141
420
 10147813
100
AcDbVertex
100
AcDb3dPolylineVertex
 10
0.0000038146972656
 20
22.2812614440918
 30
-7.049947261810302
 70
    32
  0
VERTEX
  5
117
330
FA
100
AcDbEntity
  8
OracDecor_cornice_mouldings
 62
   141
420
 10147813
100
AcDbVertex
100
AcDb3dPolylineVertex
 10
0.0000038146970383
 20
22.22502517700196
 30
-7.199817657470703
 70
    32
  0
VERTEX
  5
118
330
FA
100
AcDbEntity
  8
OracDecor_cornice_mouldings
 62
   141
420
 10147813
100
AcDbVertex
100
AcDb3dPolylineVertex
 10
0.0000038146970383
 20
22.1796817779541
 30
-8.28950023651123
 70
    32
  0
VERTEX
  5
119
330
FA
100
AcDbEntity
  8
OracDecor_cornice_mouldings
 62
   141
420
 10147813
100
AcDbVertex
100
AcDb3dPolylineVertex
 10
0.0000038146972656
 20
22.03379440307617
 30
-9.466866493225097
 70
    32
  0
VERTEX
  5
11A
330
FA
100
AcDbEntity
  8
OracDecor_cornice_mouldings
 62
   141
420
 10147813
100
AcDbVertex
100
AcDb3dPolylineVertex
 10
0.0000038146972656
 20
21.79703330993652
 30
-10.53192710876465
 70
    32
  0
VERTEX
  5
11B
330
FA
100
AcDbEntity
  8
OracDecor_cornice_mouldings
 62
   141
420
 10147813
100
AcDbVertex
100
AcDb3dPolylineVertex
 10
0.0000038146972656
 20
21.49057388305664
 30
-11.47138023376465
 70
    32
  0
VERTEX
  5
11C
330
FA
100
AcDbEntity
  8
OracDecor_cornice_mouldings
 62
   141
420
 10147813
100
AcDbVertex
100
AcDb3dPolylineVertex
 10
0.0000038146972656
 20
21.09809112548828
 30
-12.33324337005615
 70
    32
  0
VERTEX
  5
11D
330
FA
100
AcDbEntity
  8
OracDecor_cornice_mouldings
 62
   141
420
 10147813
100
AcDbVertex
100
AcDb3dPolylineVertex
 10
0.0
 20
20.61042976379395
 30
-13.15307521820068
 70
    32
  0
VERTEX
  5
11E
330
FA
100
AcDbEntity
  8
OracDecor_cornice_mouldings
 62
   141
420
 10147813
100
AcDbVertex
100
AcDb3dPolylineVertex
 10
0.0
 20
19.98538398742676
 30
-13.98579502105713
 70
    32
  0
VERTEX
  5
11F
330
FA
100
AcDbEntity
  8
OracDecor_cornice_mouldings
 62
   141
420
 10147813
100
AcDbVertex
100
AcDb3dPolylineVertex
 10
0.0
 20
19.21988868713379
 30
-14.82297134399414
 70
    32
  0
VERTEX
  5
120
330
FA
100
AcDbEntity
  8
OracDecor_cornice_mouldings
 62
   141
420
 10147813
100
AcDbVertex
100
AcDb3dPolylineVertex
 10
0.0
 20
18.3034782409668
 30
-15.65660858154297
 70
    32
  0
VERTEX
  5
121
330
FA
100
AcDbEntity
  8
OracDecor_cornice_mouldings
 62
   141
420
 10147813
100
AcDbVertex
100
AcDb3dPolylineVertex
 10
0.0
 20
17.26473808288574
 30
-16.43712043762207
 70
    32
  0
VERTEX
  5
122
330
FA
100
AcDbEntity
  8
OracDecor_cornice_mouldings
 62
   141
420
 10147813
100
AcDbVertex
100
AcDb3dPolylineVertex
 10
0.0
 20
16.50959587097168
 30
-16.92076873779297
 70
    32
  0
VERTEX
  5
123
330
FA
100
AcDbEntity
  8
OracDecor_cornice_mouldings
 62
   141
420
 10147813
100
AcDbVertex
100
AcDb3dPolylineVertex
 10
0.0
 20
15.75975608825683
 30
-17.34353828430176
 70
    32
  0
VERTEX
  5
124
330
FA
100
AcDbEntity
  8
OracDecor_cornice_mouldings
 62
   141
420
 10147813
100
AcDbVertex
100
AcDb3dPolylineVertex
 10
0.0
 20
15.01014423370361
 30
-17.70248603820801
 70
    32
  0
VERTEX
  5
125
330
FA
100
AcDbEntity
  8
OracDecor_cornice_mouldings
 62
   141
420
 10147813
100
AcDbVertex
100
AcDb3dPolylineVertex
 10
0.0
 20
13.92931365966797
 30
-18.15091514587402
 70
    32
  0
VERTEX
  5
126
330
FA
100
AcDbEntity
  8
OracDecor_cornice_mouldings
 62
   141
420
 10147813
100
AcDbVertex
100
AcDb3dPolylineVertex
 10
0.0
 20
12.91630744934082
 30
-18.49810981750488
 70
    32
  0
VERTEX
  5
127
330
FA
100
AcDbEntity
  8
OracDecor_cornice_mouldings
 62
   141
420
 10147813
100
AcDbVertex
100
AcDb3dPolylineVertex
 10
0.0
 20
11.96910285949707
 30
-18.80104827880859
 70
    32
  0
VERTEX
  5
128
330
FA
100
AcDbEntity
  8
OracDecor_cornice_mouldings
 62
   141
420
 10147813
100
AcDbVertex
100
AcDb3dPolylineVertex
 10
0.0
 20
11.08593368530273
 30
-19.07768630981445
 70
    32
  0
VERTEX
  5
129
330
FA
100
AcDbEntity
  8
OracDecor_cornice_mouldings
 62
   141
420
 10147813
100
AcDbVertex
100
AcDb3dPolylineVertex
 10
0.0
 20
10.26495838165283
 30
-19.35194396972656
 70
    32
  0
VERTEX
  5
12A
330
FA
100
AcDbEntity
  8
OracDecor_cornice_mouldings
 62
   141
420
 10147813
100
AcDbVertex
100
AcDb3dPolylineVertex
 10
0.0
 20
9.506314277648925
 30
-19.63866996765137
 70
    32
  0
VERTEX
  5
12B
330
FA
100
AcDbEntity
  8
OracDecor_cornice_mouldings
 62
   141
420
 10147813
100
AcDbVertex
100
AcDb3dPolylineVertex
 10
0.0
 20
8.811567306518554
 30
-19.94328689575195
 70
    32
  0
VERTEX
  5
12C
330
FA
100
AcDbEntity
  8
OracDecor_cornice_mouldings
 62
   141
420
 10147813
100
AcDbVertex
100
AcDb3dPolylineVertex
 10
0.0
 20
8.183918952941894
 30
-20.27554130554199
 70
    32
  0
VERTEX
  5
12D
330
FA
100
AcDbEntity
  8
OracDecor_cornice_mouldings
 62
   141
420
 10147813
100
AcDbVertex
100
AcDb3dPolylineVertex
 10
0.0
 20
7.152012348175048
 30
-21.02022171020508
 70
    32
  0
VERTEX
  5
12E
330
FA
100
AcDbEntity
  8
OracDecor_cornice_mouldings
 62
   141
420
 10147813
100
AcDbVertex
100
AcDb3dPolylineVertex
 10
0.0
 20
6.427959442138671
 30
-21.83526039123535
 70
    32
  0
VERTEX
  5
12F
330
FA
100
AcDbEntity
  8
OracDecor_cornice_mouldings
 62
   141
420
 10147813
100
AcDbVertex
100
AcDb3dPolylineVertex
 10
0.0
 20
6.006081581115722
 30
-22.66658401489258
 70
    32
  0
VERTEX
  5
130
330
FA
100
AcDbEntity
  8
OracDecor_cornice_mouldings
 62
   141
420
 10147813
100
AcDbVertex
100
AcDb3dPolylineVertex
 10
0.0
 20
5.851390361785888
 30
-23.50622177124023
 70
    32
  0
VERTEX
  5
131
330
FA
100
AcDbEntity
  8
OracDecor_cornice_mouldings
 62
   141
420
 10147813
100
AcDbVertex
100
AcDb3dPolylineVertex
 10
0.0
 20
5.941709518432617
 30
-24.37444114685059
 70
    32
  0
VERTEX
  5
132
330
FA
100
AcDbEntity
  8
OracDecor_cornice_mouldings
 62
   141
420
 10147813
100
AcDbVertex
100
AcDb3dPolylineVertex
 10
0.0
 20
6.285408973693847
 30
-25.22847366333008
 70
    32
  0
VERTEX
  5
133
330
FA
100
AcDbEntity
  8
OracDecor_cornice_mouldings
 62
   141
420
 10147813
100
AcDbVertex
100
AcDb3dPolylineVertex
 10
0.0
 20
6.869048118591308
 30
-25.9853630065918
 70
    32
  0
VERTEX
  5
134
330
FA
100
AcDbEntity
  8
OracDecor_cornice_mouldings
 62
   141
420
 10147813
100
AcDbVertex
100
AcDb3dPolylineVertex
 10
0.0
 20
7.679845809936523
 30
-26.57694053649902
 70
    32
  0
VERTEX
  5
135
330
FA
100
AcDbEntity
  8
OracDecor_cornice_mouldings
 62
   141
420
 10147813
100
AcDbVertex
100
AcDb3dPolylineVertex
 10
0.0
 20
8.571823120117187
 30
-26.92693901062012
 70
    32
  0
VERTEX
  5
136
330
FA
100
AcDbEntity
  8
OracDecor_cornice_mouldings
 62
   141
420
 10147813
100
AcDbVertex
100
AcDb3dPolylineVertex
 10
0.0
 20
8.711458206176757
 30
-27.03172874450684
 70
    32
  0
VERTEX
  5
137
330
FA
100
AcDbEntity
  8
OracDecor_cornice_mouldings
 62
   141
420
 10147813
100
AcDbVertex
100
AcDb3dPolylineVertex
 10
0.0
 20
8.758003234863281
 30
-27.19999313354492
 70
    32
  0
VERTEX
  5
138
330
FA
100
AcDbEntity
  8
OracDecor_cornice_mouldings
 62
   141
420
 10147813
100
AcDbVertex
100
AcDb3dPolylineVertex
 10
0.0
 20
8.758004188537597
 30
-28.79999160766601
 70
    32
  0
VERTEX
  5
139
330
FA
100
AcDbEntity
  8
OracDecor_cornice_mouldings
 62
   141
420
 10147813
100
AcDbVertex
100
AcDb3dPolylineVertex
 10
0.0
 20
8.708003997802734
 30
-28.94999313354492
 70
    32
  0
VERTEX
  5
13A
330
FA
100
AcDbEntity
  8
OracDecor_cornice_mouldings
 62
   141
420
 10147813
100
AcDbVertex
100
AcDb3dPolylineVertex
 10
0.0
 20
8.55800437927246
 30
-28.99999237060547
 70
    32
  0
VERTEX
  5
13B
330
FA
100
AcDbEntity
  8
OracDecor_cornice_mouldings
 62
   141
420
 10147813
100
AcDbVertex
100
AcDb3dPolylineVertex
 10
0.0
 20
7.991335868835449
 30
-28.99999237060547
 70
    32
  0
VERTEX
  5
13C
330
FA
100
AcDbEntity
  8
OracDecor_cornice_mouldings
 62
   141
420
 10147813
100
AcDbVertex
100
AcDb3dPolylineVertex
 10
0.0
 20
7.841336250305175
 30
-29.04999160766602
 70
    32
  0
VERTEX
  5
13D
330
FA
100
AcDbEntity
  8
OracDecor_cornice_mouldings
 62
   141
420
 10147813
100
AcDbVertex
100
AcDb3dPolylineVertex
 10
0.0
 20
7.791336059570312
 30
-29.19999313354492
 70
    32
  0
VERTEX
  5
13E
330
FA
100
AcDbEntity
  8
OracDecor_cornice_mouldings
 62
   141
420
 10147813
100
AcDbVertex
100
AcDb3dPolylineVertex
 10
0.0
 20
7.791336059570312
 30
-29.81496238708496
 70
    32
  0
VERTEX
  5
13F
330
FA
100
AcDbEntity
  8
OracDecor_cornice_mouldings
 62
   141
420
 10147813
100
AcDbVertex
100
AcDb3dPolylineVertex
 10
0.0
 20
7.754583835601806
 30
-30.9977035522461
 70
    32
  0
VERTEX
  5
140
330
FA
100
AcDbEntity
  8
OracDecor_cornice_mouldings
 62
   141
420
 10147813
100
AcDbVertex
100
AcDb3dPolylineVertex
 10
0.0
 20
7.644326210021972
 30
-32.17586898803711
 70
    32
  0
VERTEX
  5
141
330
FA
100
AcDbEntity
  8
OracDecor_cornice_mouldings
 62
   141
420
 10147813
100
AcDbVertex
100
AcDb3dPolylineVertex
 10
0.0
 20
7.482213020324707
 30
-33.4725456237793
 70
    32
  0
VERTEX
  5
142
330
FA
100
AcDbEntity
  8
OracDecor_cornice_mouldings
 62
   141
420
 10147813
100
AcDbVertex
100
AcDb3dPolylineVertex
 10
0.0
 20
7.263721466064453
 30
-34.63023376464844
 70
    32
  0
VERTEX
  5
143
330
FA
100
AcDbEntity
  8
OracDecor_cornice_mouldings
 62
   141
420
 10147813
100
AcDbVertex
100
AcDb3dPolylineVertex
 10
0.0
 20
6.902266979217529
 30
-35.75153732299805
 70
    32
  0
VERTEX
  5
144
330
FA
100
AcDbEntity
  8
OracDecor_cornice_mouldings
 62
   141
420
 10147813
100
AcDbVertex
100
AcDb3dPolylineVertex
 10
-0.0000038146968109
 20
6.431087493896484
 30
-36.95209503173828
 70
    32
  0
VERTEX
  5
145
330
FA
100
AcDbEntity
  8
OracDecor_cornice_mouldings
 62
   141
420
 10147813
100
AcDbVertex
100
AcDb3dPolylineVertex
 10
-0.0000038146972656
 20
5.93267822265625
 30
-38.0194206237793
 70
    32
  0
VERTEX
  5
146
330
FA
100
AcDbEntity
  8
OracDecor_cornice_mouldings
 62
   141
420
 10147813
100
AcDbVertex
100
AcDb3dPolylineVertex
 10
-0.0000038146972656
 20
5.303322315216064
 30
-39.01516342163086
 70
    32
  0
VERTEX
  5
147
330
FA
100
AcDbEntity
  8
OracDecor_cornice_mouldings
 62
   141
420
 10147813
100
AcDbVertex
100
AcDb3dPolylineVertex
 10
-0.0000038146972656
 20
3.983937263488769
 30
-40.83797836303711
 70
    32
  0
VERTEX
  5
148
330
FA
100
AcDbEntity
  8
OracDecor_cornice_mouldings
 62
   141
420
 10147813
100
AcDbVertex
100
AcDb3dPolylineVertex
 10
-0.0000038146972656
 20
3.895986318588256
 30
-41.00949096679687
 70
    32
  0
VERTEX
  5
149
330
FA
100
AcDbEntity
  8
OracDecor_cornice_mouldings
 62
   141
420
 10147813
100
AcDbVertex
100
AcDb3dPolylineVertex
 10
-0.0000038146972656
 20
3.866669416427612
 30
-41.19999313354492
 70
    32
  0
VERTEX
  5
14A
330
FA
100
AcDbEntity
  8
OracDecor_cornice_mouldings
 62
   141
420
 10147813
100
AcDbVertex
100
AcDb3dPolylineVertex
 10
-0.0000038146972656
 20
3.866669654846191
 30
-42.79999160766601
 70
    32
  0
VERTEX
  5
14B
330
FA
100
AcDbEntity
  8
OracDecor_cornice_mouldings
 62
   141
420
 10147813
100
AcDbVertex
100
AcDb3dPolylineVertex
 10
-0.0000038146972656
 20
3.816669702529907
 30
-42.94999313354492
 70
    32
  0
VERTEX
  5
14C
330
FA
100
AcDbEntity
  8
OracDecor_cornice_mouldings
 62
   141
420
 10147813
100
AcDbVertex
100
AcDb3dPolylineVertex
 10
-0.0000038146972656
 20
3.666669607162475
 30
-42.99999237060546
 70
    32
  0
VERTEX
  5
14D
330
FA
100
AcDbEntity
  8
OracDecor_cornice_mouldings
 62
   141
420
 10147813
100
AcDbVertex
100
AcDb3dPolylineVertex
 10
-0.0000038146977204
 20
0.0000015736088699
 30
-42.99999237060546
 70
    32
  0
VERTEX
  5
14E
330
FA
100
AcDbEntity
  8
OracDecor_cornice_mouldings
 62
   141
420
 10147813
100
AcDbVertex
100
AcDb3dPolylineVertex
 10
0.0
 20
-0.0000003149777967
 30
-21.39707565307617
 70
    32
  0
VERTEX
  5
14F
330
FA
100
AcDbEntity
  8
OracDecor_cornice_mouldings
 62
   141
420
 10147813
100
AcDbVertex
100
AcDb3dPolylineVertex
 10
0.0
 20
0.2035695463418961
 30
-19.96184539794922
 70
    32
  0
VERTEX
  5
150
330
FA
100
AcDbEntity
  8
OracDecor_cornice_mouldings
 62
   141
420
 10147813
100
AcDbVertex
100
AcDb3dPolylineVertex
 10
0.0
 20
0.7965424060821534
 30
-18.64733123779297
 70
    32
  0
VERTEX
  5
151
330
FA
100
AcDbEntity
  8
OracDecor_cornice_mouldings
 62
   141
420
 10147813
100
AcDbVertex
100
AcDb3dPolylineVertex
 10
0.0
 20
1.729557394981384
 30
-17.5644416809082
 70
    32
  0
SEQEND
  5
152
330
FA
100
AcDbEntity
  8
OracDecor_cornice_mouldings
 62
   141
420
 10147813
  0
ENDSEC
  0
SECTION
  2
OBJECTS
  0
DICTIONARY
  5
C
330
0
100
AcDbDictionary
281
     1
  3
ACAD_COLOR
350
DC
  3
ACAD_DETAILVIEWSTYLE
350
F5
  3
ACAD_GROUP
350
D
  3
ACAD_LAYOUT
350
1A
  3
ACAD_MATERIAL
350
AA
  3
ACAD_MLEADERSTYLE
350
F1
  3
ACAD_MLINESTYLE
350
17
  3
ACAD_PLOTSETTINGS
350
19
  3
ACAD_PLOTSTYLENAME
350
E
  3
ACAD_SCALELIST
350
DF
  3
ACAD_SECTIONVIEWSTYLE
350
F3
  3
ACAD_TABLESTYLE
350
DD
  3
ACAD_VISUALSTYLE
350
C3
  3
ACDB_RECOMPOSE_DATA
350
15F
  3
AcDbVariableDictionary
350
153
  0
DICTIONARY
  5
DC
102
{ACAD_REACTORS
330
C
102
}
330
C
100
AcDbDictionary
281
     1
  0
DICTIONARY
  5
F5
102
{ACAD_REACTORS
330
C
102
}
330
C
100
AcDbDictionary
281
     1
  3
Imperial24
350
F6
  0
DICTIONARY
  5
D
102
{ACAD_REACTORS
330
C
102
}
330
C
100
AcDbDictionary
281
     1
  0
DICTIONARY
  5
1A
102
{ACAD_REACTORS
330
C
102
}
330
C
100
AcDbDictionary
281
     1
  3
Layout1
350
1E
  3
Layout2
350
26
  3
Model
350
22
  0
DICTIONARY
  5
AA
102
{ACAD_REACTORS
330
C
102
}
330
C
100
AcDbDictionary
281
     1
  3
ByBlock
350
B3
  3
ByLayer
350
AB
  3
Global
350
BB
  0
DICTIONARY
  5
F1
102
{ACAD_REACTORS
330
C
102
}
330
C
100
AcDbDictionary
281
     1
  3
Standard
350
F2
  0
DICTIONARY
  5
17
102
{ACAD_REACTORS
330
C
102
}
330
C
100
AcDbDictionary
281
     1
  3
Standard
350
18
  0
DICTIONARY
  5
19
102
{ACAD_REACTORS
330
C
102
}
330
C
100
AcDbDictionary
281
     1
  0
ACDBDICTIONARYWDFLT
  5
E
102
{ACAD_REACTORS
330
C
102
}
330
C
100
AcDbDictionary
281
     1
  3
ByLayer
350
2D
  3
Normal
350
F
100
AcDbDictionaryWithDefault
340
F
  0
DICTIONARY
  5
DF
102
{ACAD_REACTORS
330
C
102
}
330
C
100
AcDbDictionary
281
     1
  3
A0
350
E0
  3
A1
350
E1
  3
A2
350
E2
  3
A3
350
E3
  3
A4
350
E4
  3
A5
350
E5
  3
A6
350
E6
  3
A7
350
E7
  3
A8
350
E8
  3
A9
350
E9
  3
B0
350
EA
  3
B1
350
EB
  3
B2
350
EC
  3
B3
350
ED
  3
B4
350
EE
  3
B5
350
EF
  3
B6
350
F0
  0
DICTIONARY
  5
F3
102
{ACAD_REACTORS
330
C
102
}
330
C
100
AcDbDictionary
281
     1
  3
Imperial24
350
F4
  0
DICTIONARY
  5
DD
102
{ACAD_REACTORS
330
C
102
}
330
C
100
AcDbDictionary
281
     1
  3
Standard
350
DE
  0
DICTIONARY
  5
C3
102
{ACAD_REACTORS
330
C
102
}
330
C
100
AcDbDictionary
281
     1
  3
2dWireframe
350
C9
  3
Basic
350
C8
  3
Brighten
350
CF
  3
ColorChange
350
D3
  3
Conceptual
350
CC
  3
Dim
350
CE
  3
EdgeColorOff
350
DB
  3
Facepattern
350
D2
  3
Flat
350
C4
  3
FlatWithEdges
350
C5
  3
Gouraud
350
C6
  3
GouraudWithEdges
350
C7
  3
Hidden
350
CB
  3
JitterOff
350
D9
  3
Linepattern
350
D1
  3
OverhangOff
350
DA
  3
Realistic
350
CD
  3
Shaded
350
D8
  3
Shaded with edges
350
D7
  3
Shades of Gray
350
D4
  3
Sketchy
350
D5
  3
Thicken
350
D0
  3
Wireframe
350
CA
  3
X-Ray
350
D6
  0
XRECORD
  5
15F
102
{ACAD_REACTORS
330
C
102
}
330
C
100
AcDbXrecord
280
     1
 90
        1
330
DE
  0
DICTIONARY
  5
153
102
{ACAD_REACTORS
330
C
102
}
330
C
100
AcDbDictionary
281
     1
  3
CANNOSCALE
350
159
  3
CMLEADERSTYLE
350
155
  3
CTABLESTYLE
350
154
  3
CVIEWDETAILSTYLE
350
156
  3
CVIEWSECTIONSTYLE
350
157
  3
LAYEREVAL
350
15B
  3
LAYERNOTIFY
350
15C
  3
LIGHTINGUNITS
350
15A
  3
MSLTSCALE
350
158
  0
ACDBDETAILVIEWSTYLE
  5
F6
102
{ACAD_XDICTIONARY
360
194
102
}
102
{ACAD_REACTORS
330
F5
102
}
330
F5
100
AcDbModelDocViewStyle
 70
     0
  3
Imperial24
290
     0
100
AcDbDetailViewStyle
 70
     0
 71
     0
 90
        3
 71
     1
340
11
 62
   256
 40
0.24
340
0
 62
   256
 40
0.24
300

 40
0.36
280
     3
 71
     2
340
16
 90
       25
 62
   256
 71
     3
340
11
 62
   256
 40
0.24
 90
        1
 40
0.75
 90
        1
300
%<\AcVar ViewType \f "%tc1">% %<\AcVar ViewDetailId>%\PSCALE %<\AcVar ViewScale \f "%sn">%
 71
     4
340
16
 90
       25
 62
   256
340
16
 90
       25
 62
   256
280
     0
  0
LAYOUT
  5
1E
102
{ACAD_REACTORS
330
1A
102
}
330
1A
100
AcDbPlotSettings
  1

  2
\\KTXNTBDC\CASF2PN1
  4

  6

 40
0.0
 41
0.0
 42
0.0
 43
0.0
 44
0.0
 45
0.0
 46
0.0
 47
0.0
 48
0.0
 49
0.0
140
0.0
141
0.0
142
1.0
143
1.0
 70
   688
 72
     0
 73
     0
 74
     5
  7

 75
    16
147
1.0
 76
     0
 77
     2
 78
   300
148
0.0
149
0.0
100
AcDbLayout
  1
Layout1
 70
     1
 71
     1
 10
0.0
 20
0.0
 11
12.0
 21
9.0
 12
0.0
 22
0.0
 32
0.0
 14
1.000000000000000E+20
 24
1.000000000000000E+20
 34
1.000000000000000E+20
 15
-1.000000000000000E+20
 25
-1.000000000000000E+20
 35
-1.000000000000000E+20
146
0.0
 13
0.0
 23
0.0
 33
0.0
 16
1.0
 26
0.0
 36
0.0
 17
0.0
 27
1.0
 37
0.0
 76
     0
330
1B
  0
LAYOUT
  5
26
102
{ACAD_REACTORS
330
1A
102
}
330
1A
100
AcDbPlotSettings
  1

  2
\\KTXNTBDC\CASF2PN1
  4

  6

 40
0.0
 41
0.0
 42
0.0
 43
0.0
 44
0.0
 45
0.0
 46
0.0
 47
0.0
 48
0.0
 49
0.0
140
0.0
141
0.0
142
1.0
143
1.0
 70
   688
 72
     0
 73
     0
 74
     5
  7

 75
    16
147
1.0
 76
     0
 77
     2
 78
   300
148
0.0
149
0.0
100
AcDbLayout
  1
Layout2
 70
     1
 71
     2
 10
0.0
 20
0.0
 11
12.0
 21
9.0
 12
0.0
 22
0.0
 32
0.0
 14
0.0
 24
0.0
 34
0.0
 15
0.0
 25
0.0
 35
0.0
146
0.0
 13
0.0
 23
0.0
 33
0.0
 16
1.0
 26
0.0
 36
0.0
 17
0.0
 27
1.0
 37
0.0
 76
     0
330
23
  0
LAYOUT
  5
22
102
{ACAD_REACTORS
330
1A
102
}
330
1A
100
AcDbPlotSettings
  1

  2
\\KTXNTBDC\CASF2PN1
  4

  6

 40
0.0
 41
0.0
 42
0.0
 43
0.0
 44
0.0
 45
0.0
 46
0.0
 47
0.0
 48
0.0
 49
0.0
140
0.0
141
0.0
142
1.0
143
1.0
 70
  1712
 72
     0
 73
     0
 74
     0
  7

 75
     0
147
1.0
 76
     0
 77
     2
 78
   300
148
0.0
149
0.0
100
AcDbLayout
  1
Model
 70
     1
 71
     0
 10
0.0
 20
0.0
 11
12.0
 21
9.0
 12
0.0
 22
0.0
 32
0.0
 14
0.0
 24
0.0
 34
0.0
 15
0.0
 25
0.0
 35
0.0
146
0.0
 13
0.0
 23
0.0
 33
0.0
 16
1.0
 26
0.0
 36
0.0
 17
0.0
 27
1.0
 37
0.0
 76
     0
330
1F
  0
MATERIAL
  5
B3
102
{ACAD_XDICTIONARY
360
B4
102
}
102
{ACAD_REACTORS
330
AA
102
}
330
AA
100
AcDbMaterial
  1
ByBlock
 72
     0
 43
0.0208333333333333
 43
0.0
 43
0.0
 43
0.0
 43
0.0
 43
0.0208333333333333
 43
0.0
 43
0.0
 43
0.0
 43
0.0
 43
1.0
 43
0.0
 43
0.0
 43
0.0
 43
0.0
 43
1.0
 77
     0
 47
0.0208333333333333
 47
0.0
 47
0.0
 47
0.0
 47
0.0
 47
0.0208333333333333
 47
0.0
 47
0.0
 47
0.0
 47
0.0
 47
1.0
 47
0.0
 47
0.0
 47
0.0
 47
0.0
 47
1.0
171
     0
 49
0.0208333333333333
 49
0.0
 49
0.0
 49
0.0
 49
0.0
 49
0.0208333333333333
 49
0.0
 49
0.0
 49
0.0
 49
0.0
 49
1.0
 49
0.0
 49
0.0
 49
0.0
 49
0.0
 49
1.0
175
     0
142
0.0208333333333333
142
0.0
142
0.0
142
0.0
142
0.0
142
0.0208333333333333
142
0.0
142
0.0
142
0.0
142
0.0
142
1.0
142
0.0
142
0.0
142
0.0
142
0.0
142
1.0
179
     0
144
0.0208333333333333
144
0.0
144
0.0
144
0.0
144
0.0
144
0.0208333333333333
144
0.0
144
0.0
144
0.0
144
0.0
144
1.0
144
0.0
144
0.0
144
0.0
144
0.0
144
1.0
147
0.0208333333333333
147
0.0
147
0.0
147
0.0
147
0.0
147
0.0208333333333333
147
0.0
147
0.0
147
0.0
147
0.0
147
1.0
147
0.0
147
0.0
147
0.0
147
0.0
147
1.0
  0
MATERIAL
  5
AB
102
{ACAD_XDICTIONARY
360
AC
102
}
102
{ACAD_REACTORS
330
AA
102
}
330
AA
100
AcDbMaterial
  1
ByLayer
 72
     0
 43
0.0208333333333333
 43
0.0
 43
0.0
 43
0.0
 43
0.0
 43
0.0208333333333333
 43
0.0
 43
0.0
 43
0.0
 43
0.0
 43
1.0
 43
0.0
 43
0.0
 43
0.0
 43
0.0
 43
1.0
 77
     0
 47
0.0208333333333333
 47
0.0
 47
0.0
 47
0.0
 47
0.0
 47
0.0208333333333333
 47
0.0
 47
0.0
 47
0.0
 47
0.0
 47
1.0
 47
0.0
 47
0.0
 47
0.0
 47
0.0
 47
1.0
171
     0
 49
0.0208333333333333
 49
0.0
 49
0.0
 49
0.0
 49
0.0
 49
0.0208333333333333
 49
0.0
 49
0.0
 49
0.0
 49
0.0
 49
1.0
 49
0.0
 49
0.0
 49
0.0
 49
0.0
 49
1.0
175
     0
142
0.0208333333333333
142
0.0
142
0.0
142
0.0
142
0.0
142
0.0208333333333333
142
0.0
142
0.0
142
0.0
142
0.0
142
1.0
142
0.0
142
0.0
142
0.0
142
0.0
142
1.0
179
     0
144
0.0208333333333333
144
0.0
144
0.0
144
0.0
144
0.0
144
0.0208333333333333
144
0.0
144
0.0
144
0.0
144
0.0
144
1.0
144
0.0
144
0.0
144
0.0
144
0.0
144
1.0
147
0.0208333333333333
147
0.0
147
0.0
147
0.0
147
0.0
147
0.0208333333333333
147
0.0
147
0.0
147
0.0
147
0.0
147
1.0
147
0.0
147
0.0
147
0.0
147
0.0
147
1.0
  0
MATERIAL
  5
BB
102
{ACAD_XDICTIONARY
360
BC
102
}
102
{ACAD_REACTORS
330
AA
102
}
330
AA
100
AcDbMaterial
  1
Global
 72
     0
 43
0.0208333333333333
 43
0.0
 43
0.0
 43
0.0
 43
0.0
 43
0.0208333333333333
 43
0.0
 43
0.0
 43
0.0
 43
0.0
 43
1.0
 43
0.0
 43
0.0
 43
0.0
 43
0.0
 43
1.0
 77
     0
 47
0.0208333333333333
 47
0.0
 47
0.0
 47
0.0
 47
0.0
 47
0.0208333333333333
 47
0.0
 47
0.0
 47
0.0
 47
0.0
 47
1.0
 47
0.0
 47
0.0
 47
0.0
 47
0.0
 47
1.0
171
     0
 49
0.0208333333333333
 49
0.0
 49
0.0
 49
0.0
 49
0.0
 49
0.0208333333333333
 49
0.0
 49
0.0
 49
0.0
 49
0.0
 49
1.0
 49
0.0
 49
0.0
 49
0.0
 49
0.0
 49
1.0
175
     0
142
0.0208333333333333
142
0.0
142
0.0
142
0.0
142
0.0
142
0.0208333333333333
142
0.0
142
0.0
142
0.0
142
0.0
142
1.0
142
0.0
142
0.0
142
0.0
142
0.0
142
1.0
179
     0
144
0.0208333333333333
144
0.0
144
0.0
144
0.0
144
0.0
144
0.0208333333333333
144
0.0
144
0.0
144
0.0
144
0.0
144
1.0
144
0.0
144
0.0
144
0.0
144
0.0
144
1.0
147
0.0208333333333333
147
0.0
147
0.0
147
0.0
147
0.0
147
0.0208333333333333
147
0.0
147
0.0
147
0.0
147
0.0
147
1.0
147
0.0
147
0.0
147
0.0
147
0.0
147
1.0
  0
MLEADERSTYLE
  5
F2
102
{ACAD_XDICTIONARY
360
190
102
}
102
{ACAD_REACTORS
330
F1
102
}
330
F1
100
AcDbMLeaderStyle
179
     2
170
     2
171
     1
172
     0
 90
        2
 40
0.0
 41
0.0
173
     1
 91
-1056964608
340
14
 92
       -2
290
     1
 42
0.09
291
     1
 43
0.36
  3
Standard
 44
0.18
300

342
11
174
     1
178
     6
175
     1
176
     0
 93
-1056964608
 45
0.18
292
     0
297
     0
 46
0.18
 94
-1056964608
 47
1.0
 49
1.0
140
1.0
293
     1
141
0.0
294
     1
177
     0
142
1.0
295
     0
296
     0
143
0.125
271
     0
272
     9
273
     9
  0
MLINESTYLE
  5
18
102
{ACAD_REACTORS
330
17
102
}
330
17
100
AcDbMlineStyle
  2
STANDARD
 70
     0
  3

 62
   256
 51
90.0
 52
90.0
 71
     2
 49
0.5
 62
   256
  6
BYLAYER
 49
-0.5
 62
   256
  6
BYLAYER
  0
ACDBPLACEHOLDER
  5
2D
102
{ACAD_REACTORS
330
E
102
}
330
E
  0
ACDBPLACEHOLDER
  5
F
102
{ACAD_REACTORS
330
E
102
}
330
E
  0
SCALE
  5
E0
102
{ACAD_REACTORS
330
DF
102
}
330
DF
100
AcDbScale
 70
     0
300
1:1
140
1.0
141
1.0
290
     1
  0
SCALE
  5
E1
102
{ACAD_REACTORS
330
DF
102
}
330
DF
100
AcDbScale
 70
     0
300
1/128" = 1'-0"
140
0.0078125
141
12.0
290
     0
  0
SCALE
  5
E2
102
{ACAD_REACTORS
330
DF
102
}
330
DF
100
AcDbScale
 70
     0
300
1/64" = 1'-0"
140
0.015625
141
12.0
290
     0
  0
SCALE
  5
E3
102
{ACAD_REACTORS
330
DF
102
}
330
DF
100
AcDbScale
 70
     0
300
1/32" = 1'-0"
140
0.03125
141
12.0
290
     0
  0
SCALE
  5
E4
102
{ACAD_REACTORS
330
DF
102
}
330
DF
100
AcDbScale
 70
     0
300
1/16" = 1'-0"
140
0.0625
141
12.0
290
     0
  0
SCALE
  5
E5
102
{ACAD_REACTORS
330
DF
102
}
330
DF
100
AcDbScale
 70
     0
300
3/32" = 1'-0"
140
0.09375
141
12.0
290
     0
  0
SCALE
  5
E6
102
{ACAD_REACTORS
330
DF
102
}
330
DF
100
AcDbScale
 70
     0
300
1/8" = 1'-0"
140
0.125
141
12.0
290
     0
  0
SCALE
  5
E7
102
{ACAD_REACTORS
330
DF
102
}
330
DF
100
AcDbScale
 70
     0
300
3/16" = 1'-0"
140
0.1875
141
12.0
290
     0
  0
SCALE
  5
E8
102
{ACAD_REACTORS
330
DF
102
}
330
DF
100
AcDbScale
 70
     0
300
1/4" = 1'-0"
140
0.25
141
12.0
290
     0
  0
SCALE
  5
E9
102
{ACAD_REACTORS
330
DF
102
}
330
DF
100
AcDbScale
 70
     0
300
3/8" = 1'-0"
140
0.375
141
12.0
290
     0
  0
SCALE
  5
EA
102
{ACAD_REACTORS
330
DF
102
}
330
DF
100
AcDbScale
 70
     0
300
1/2" = 1'-0"
140
0.5
141
12.0
290
     0
  0
SCALE
  5
EB
102
{ACAD_REACTORS
330
DF
102
}
330
DF
100
AcDbScale
 70
     0
300
3/4" = 1'-0"
140
0.75
141
12.0
290
     0
  0
SCALE
  5
EC
102
{ACAD_REACTORS
330
DF
102
}
330
DF
100
AcDbScale
 70
     0
300
1" = 1'-0"
140
1.0
141
12.0
290
     0
  0
SCALE
  5
ED
102
{ACAD_REACTORS
330
DF
102
}
330
DF
100
AcDbScale
 70
     0
300
1-1/2" = 1'-0"
140
1.5
141
12.0
290
     0
  0
SCALE
  5
EE
102
{ACAD_REACTORS
330
DF
102
}
330
DF
100
AcDbScale
 70
     0
300
3" = 1'-0"
140
3.0
141
12.0
290
     0
  0
SCALE
  5
EF
102
{ACAD_REACTORS
330
DF
102
}
330
DF
100
AcDbScale
 70
     0
300
6" = 1'-0"
140
6.0
141
12.0
290
     0
  0
SCALE
  5
F0
102
{ACAD_REACTORS
330
DF
102
}
330
DF
100
AcDbScale
 70
     0
300
1'-0" = 1'-0"
140
12.0
141
12.0
290
     0
  0
ACDBSECTIONVIEWSTYLE
  5
F4
102
{ACAD_XDICTIONARY
360
192
102
}
102
{ACAD_REACTORS
330
F3
102
}
330
F3
100
AcDbModelDocViewStyle
 70
     0
  3
Imperial24
290
     0
100
AcDbSectionViewStyle
 70
     0
 71
     0
 90
       78
 71
     1
340
11
 62
   256
 40
0.24
340
0
340
0
 62
   256
 40
0.24
300
I, O, Q, S, X, Z
 40
0.48
 90
        3
 40
0.18
 90
        1
 71
     2
340
16
 90
       25
 62
   256
340
16
 90
       50
 62
   256
 40
0.24
 40
0.0
 40
0.24
 71
     3
340
11
 62
   256
 40
0.24
 90
        1
 40
0.75
 90
        1
300
%<\AcVar ViewType \f "%tc1">% %<\AcVar ViewSectionStartId>%-%<\AcVar ViewSectionEndId>%\PSCALE %<\AcVar ViewScale \f "%sn">%
 71
     4
 62
   256
 62
   257
300
ANSI31
 40
1.0
 90
        0
290
     0
290
     0
 90
        6
 40
0.0
 40
1.570796326794896
 40
0.2617993877991494
 40
1.308996938995747
 40
-0.2617993877991494
 40
1.832595714594046
  0
TABLESTYLE
  5
DE
102
{ACAD_XDICTIONARY
360
15D
102
}
102
{ACAD_REACTORS
330
DD
102
}
330
DD
100
AcDbTableStyle
280
     0
  3
Standard
 70
     0
 71
     0
 40
0.06
 41
0.06
280
     0
281
     0
  7
Standard
140
0.18
170
     2
 62
     0
 63
     7
283
     0
 90
      512
 91
        0
  1

274
    -2
284
     1
 64
     0
275
    -2
285
     1
 65
     0
276
    -2
286
     1
 66
     0
277
    -2
287
     1
 67
     0
278
    -2
288
     1
 68
     0
279
    -2
289
     1
 69
     0
  7
Standard
140
0.25
170
     5
 62
     0
 63
     7
283
     0
 90
      512
 91
        0
  1

274
    -2
284
     1
 64
     0
275
    -2
285
     1
 65
     0
276
    -2
286
     1
 66
     0
277
    -2
287
     1
 67
     0
278
    -2
288
     1
 68
     0
279
    -2
289
     1
 69
     0
  7
Standard
140
0.18
170
     5
 62
     0
 63
     7
283
     0
 90
      512
 91
        0
  1

274
    -2
284
     1
 64
     0
275
    -2
285
     1
 65
     0
276
    -2
286
     1
 66
     0
277
    -2
287
     1
 67
     0
278
    -2
288
     1
 68
     0
279
    -2
289
     1
 69
     0
  0
VISUALSTYLE
  5
C9
102
{ACAD_XDICTIONARY
360
16A
102
}
102
{ACAD_REACTORS
330
C3
102
}
330
C3
100
AcDbVisualStyle
  2
2dWireframe
 70
     4
177
     2
291
     0
 71
     0
176
     1
 72
     2
176
     1
 73
     0
176
     1
 90
        0
176
     1
 40
0.6
176
     1
 41
30.0
176
     1
 63
     7
421
 16777215
176
     1
 74
     1
176
     1
 91
        4
176
     1
 64
     7
176
     1
 65
   257
176
     1
 75
     1
176
     1
175
     1
176
     1
 42
1.0
176
     1
 92
        0
176
     1
 66
   257
176
     1
 43
1.0
176
     1
 76
     1
176
     1
 77
     6
176
     1
 78
     2
176
     1
 67
     7
176
     1
 79
     5
176
     1
170
     0
176
     1
171
     0
176
     1
290
     0
176
     1
 93
        1
176
     1
 44
0.0
176
     1
173
     0
176
     1
1001
ACAD
1000
AcDbSavedByObjectVersion
1070
     0
  0
VISUALSTYLE
  5
C8
102
{ACAD_XDICTIONARY
360
168
102
}
102
{ACAD_REACTORS
330
C3
102
}
330
C3
100
AcDbVisualStyle
  2
Basic
 70
     7
177
     2
291
     1
 71
     1
176
     1
 72
     0
176
     1
 73
     1
176
     1
 90
        0
176
     1
 40
0.6
176
     1
 41
30.0
176
     1
 63
     7
421
 16777215
176
     1
 74
     0
176
     1
 91
        4
176
     1
 64
     7
176
     1
 65
   257
176
     1
 75
     1
176
     1
175
     1
176
     1
 42
1.0
176
     1
 92
        8
176
     1
 66
     7
176
     1
 43
1.0
176
     1
 76
     1
176
     1
 77
     6
176
     1
 78
     2
176
     1
 67
     7
176
     1
 79
     5
176
     1
170
     0
176
     1
171
     0
176
     1
290
     0
176
     1
 93
        1
176
     1
 44
0.0
176
     1
173
     0
176
     1
1001
ACAD
1000
AcDbSavedByObjectVersion
1070
     0
  0
VISUALSTYLE
  5
CF
102
{ACAD_XDICTIONARY
360
176
102
}
102
{ACAD_REACTORS
330
C3
102
}
330
C3
100
AcDbVisualStyle
  2
Brighten
 70
    12
177
     2
291
     1
 71
     2
176
     1
 72
     2
176
     1
 73
     0
176
     1
 90
        0
176
     1
 40
0.6
176
     1
 41
30.0
176
     1
 63
     7
421
 16777215
176
     1
 74
     1
176
     1
 91
        4
176
     1
 64
     7
176
     1
 65
   257
176
     1
 75
     1
176
     1
175
     1
176
     1
 42
1.0
176
     1
 92
        8
176
     1
 66
     7
176
     1
 43
1.0
176
     1
 76
     1
176
     1
 77
     6
176
     1
 78
     2
176
     1
 67
     7
176
     1
 79
     5
176
     1
170
     0
176
     1
171
     0
176
     1
290
     0
176
     1
 93
        1
176
     1
 44
50.0
176
     1
173
     0
176
     1
1001
ACAD
1000
AcDbSavedByObjectVersion
1070
     0
  0
VISUALSTYLE
  5
D3
102
{ACAD_XDICTIONARY
360
17E
102
}
102
{ACAD_REACTORS
330
C3
102
}
330
C3
100
AcDbVisualStyle
  2
ColorChange
 70
    16
177
     2
291
     1
 71
     2
176
     1
 72
     2
176
     1
 73
     3
176
     1
 90
        0
176
     1
 40
0.6
176
     1
 41
30.0
176
     1
 63
     8
421
  8421504
176
     1
 74
     1
176
     1
 91
        4
176
     1
 64
     7
176
     1
 65
   257
176
     1
 75
     1
176
     1
175
     1
176
     1
 42
1.0
176
     1
 92
        8
176
     1
 66
     8
424
  8421504
176
     1
 43
1.0
176
     1
 76
     1
176
     1
 77
     6
176
     1
 78
     2
176
     1
 67
     7
176
     1
 79
     5
176
     1
170
     0
176
     1
171
     0
176
     1
290
     0
176
     1
 93
        1
176
     1
 44
0.0
176
     1
173
     0
176
     1
1001
ACAD
1000
AcDbSavedByObjectVersion
1070
     0
  0
VISUALSTYLE
  5
CC
102
{ACAD_XDICTIONARY
360
170
102
}
102
{ACAD_REACTORS
330
C3
102
}
330
C3
100
AcDbVisualStyle
  2
Conceptual
 70
     9
177
     2
291
     0
 71
     3
176
     1
 72
     2
176
     1
 73
     0
176
     1
 90
        0
176
     1
 40
0.6
176
     1
 41
30.0
176
     1
 63
     7
421
 16777215
176
     1
 74
     2
176
     1
 91
        2
176
     1
 64
     7
176
     1
 65
   257
176
     1
 75
     1
176
     1
175
     1
176
     1
 42
179.0
176
     1
 92
        8
176
     1
 66
     7
176
     1
 43
1.0
176
     1
 76
     1
176
     1
 77
     6
176
     1
 78
     2
176
     1
 67
     7
176
     1
 79
     3
176
     1
170
     0
176
     1
171
     0
176
     1
290
     0
176
     1
 93
        1
176
     1
 44
0.0
176
     1
173
     0
176
     1
1001
ACAD
1000
AcDbSavedByObjectVersion
1070
     0
  0
VISUALSTYLE
  5
CE
102
{ACAD_XDICTIONARY
360
174
102
}
102
{ACAD_REACTORS
330
C3
102
}
330
C3
100
AcDbVisualStyle
  2
Dim
 70
    11
177
     2
291
     1
 71
     2
176
     1
 72
     2
176
     1
 73
     0
176
     1
 90
        0
176
     1
 40
0.6
176
     1
 41
30.0
176
     1
 63
     7
421
 16777215
176
     1
 74
     1
176
     1
 91
        4
176
     1
 64
     7
176
     1
 65
   257
176
     1
 75
     1
176
     1
175
     1
176
     1
 42
1.0
176
     1
 92
        8
176
     1
 66
     7
176
     1
 43
1.0
176
     1
 76
     1
176
     1
 77
     6
176
     1
 78
     2
176
     1
 67
     7
176
     1
 79
     5
176
     1
170
     0
176
     1
171
     0
176
     1
290
     0
176
     1
 93
        1
176
     1
 44
-50.0
176
     1
173
     0
176
     1
1001
ACAD
1000
AcDbSavedByObjectVersion
1070
     0
  0
VISUALSTYLE
  5
DB
102
{ACAD_XDICTIONARY
360
18E
102
}
102
{ACAD_REACTORS
330
C3
102
}
330
C3
100
AcDbVisualStyle
  2
EdgeColorOff
 70
    22
177
     2
291
     1
 71
     2
176
     0
 72
     2
176
     0
 73
     0
176
     0
 90
        0
176
     0
 40
0.6
176
     0
 41
30.0
176
     0
 63
     7
421
 16777215
176
     0
 74
     1
176
     0
 91
        4
176
     0
 64
     7
176
     0
 65
   257
176
     0
 75
     1
176
     0
175
     1
176
     0
 42
1.0
176
     0
 92
        8
176
     2
 66
     7
176
     0
 43
1.0
176
     0
 76
     1
176
     0
 77
     6
176
     0
 78
     2
176
     0
 67
     7
176
     0
 79
     5
176
     0
170
     0
176
     0
171
     0
176
     0
290
     0
176
     0
 93
        1
176
     0
 44
0.0
176
     0
173
     0
176
     0
1001
ACAD
1000
AcDbSavedByObjectVersion
1070
     0
  0
VISUALSTYLE
  5
D2
102
{ACAD_XDICTIONARY
360
17C
102
}
102
{ACAD_REACTORS
330
C3
102
}
330
C3
100
AcDbVisualStyle
  2
Facepattern
 70
    15
177
     2
291
     1
 71
     2
176
     1
 72
     2
176
     1
 73
     0
176
     1
 90
        0
176
     1
 40
0.6
176
     1
 41
30.0
176
     1
 63
     7
421
 16777215
176
     1
 74
     1
176
     1
 91
        4
176
     1
 64
     7
176
     1
 65
   257
176
     1
 75
     1
176
     1
175
     1
176
     1
 42
1.0
176
     1
 92
        8
176
     1
 66
     7
176
     1
 43
1.0
176
     1
 76
     1
176
     1
 77
     6
176
     1
 78
     2
176
     1
 67
     7
176
     1
 79
     5
176
     1
170
     0
176
     1
171
     0
176
     1
290
     0
176
     1
 93
        1
176
     1
 44
0.0
176
     1
173
     0
176
     1
1001
ACAD
1000
AcDbSavedByObjectVersion
1070
     0
  0
VISUALSTYLE
  5
C4
102
{ACAD_XDICTIONARY
360
160
102
}
102
{ACAD_REACTORS
330
C3
102
}
330
C3
100
AcDbVisualStyle
  2
Flat
 70
     0
177
     2
291
     1
 71
     2
176
     1
 72
     1
176
     1
 73
     1
176
     1
 90
        2
176
     1
 40
0.6
176
     1
 41
30.0
176
     1
 63
     7
421
 16777215
176
     1
 74
     0
176
     1
 91
        0
176
     1
 64
     7
176
     1
 65
   257
176
     1
 75
     1
176
     1
175
     1
176
     1
 42
1.0
176
     1
 92
        8
176
     1
 66
     7
176
     1
 43
1.0
176
     1
 76
     1
176
     1
 77
     6
176
     1
 78
     2
176
     1
 67
     7
176
     1
 79
     5
176
     1
170
     0
176
     1
171
     0
176
     1
290
     0
176
     1
 93
       13
176
     1
 44
0.0
176
     1
173
     0
176
     1
1001
ACAD
1000
AcDbSavedByObjectVersion
1070
     0
  0
VISUALSTYLE
  5
C5
102
{ACAD_XDICTIONARY
360
162
102
}
102
{ACAD_REACTORS
330
C3
102
}
330
C3
100
AcDbVisualStyle
  2
FlatWithEdges
 70
     1
177
     2
291
     1
 71
     2
176
     1
 72
     1
176
     1
 73
     1
176
     1
 90
        2
176
     1
 40
0.6
176
     1
 41
30.0
176
     1
 63
     7
421
 16777215
176
     1
 74
     1
176
     1
 91
        0
176
     1
 64
     7
176
     1
 65
   257
176
     1
 75
     1
176
     1
175
     1
176
     1
 42
1.0
176
     1
 92
        0
176
     1
 66
   257
176
     1
 43
1.0
176
     1
 76
     1
176
     1
 77
     6
176
     1
 78
     2
176
     1
 67
     7
176
     1
 79
     5
176
     1
170
     0
176
     1
171
     0
176
     1
290
     0
176
     1
 93
       13
176
     1
 44
0.0
176
     1
173
     0
176
     1
1001
ACAD
1000
AcDbSavedByObjectVersion
1070
     0
  0
VISUALSTYLE
  5
C6
102
{ACAD_XDICTIONARY
360
164
102
}
102
{ACAD_REACTORS
330
C3
102
}
330
C3
100
AcDbVisualStyle
  2
Gouraud
 70
     2
177
     2
291
     1
 71
     2
176
     1
 72
     2
176
     1
 73
     1
176
     1
 90
        2
176
     1
 40
0.6
176
     1
 41
30.0
176
     1
 63
     7
421
 16777215
176
     1
 74
     0
176
     1
 91
        0
176
     1
 64
     7
176
     1
 65
   257
176
     1
 75
     1
176
     1
175
     1
176
     1
 42
1.0
176
     1
 92
        0
176
     1
 66
     7
176
     1
 43
1.0
176
     1
 76
     1
176
     1
 77
     6
176
     1
 78
     2
176
     1
 67
     7
176
     1
 79
     5
176
     1
170
     0
176
     1
171
     0
176
     1
290
     0
176
     1
 93
       13
176
     1
 44
0.0
176
     1
173
     0
176
     1
1001
ACAD
1000
AcDbSavedByObjectVersion
1070
     0
  0
VISUALSTYLE
  5
C7
102
{ACAD_XDICTIONARY
360
166
102
}
102
{ACAD_REACTORS
330
C3
102
}
330
C3
100
AcDbVisualStyle
  2
GouraudWithEdges
 70
     3
177
     2
291
     1
 71
     2
176
     1
 72
     2
176
     1
 73
     1
176
     1
 90
        2
176
     1
 40
0.6
176
     1
 41
30.0
176
     1
 63
     7
421
 16777215
176
     1
 74
     1
176
     1
 91
        0
176
     1
 64
     7
176
     1
 65
   257
176
     1
 75
     1
176
     1
175
     1
176
     1
 42
1.0
176
     1
 92
        0
176
     1
 66
   257
176
     1
 43
1.0
176
     1
 76
     1
176
     1
 77
     6
176
     1
 78
     2
176
     1
 67
     7
176
     1
 79
     5
176
     1
170
     0
176
     1
171
     0
176
     1
290
     0
176
     1
 93
       13
176
     1
 44
0.0
176
     1
173
     0
176
     1
1001
ACAD
1000
AcDbSavedByObjectVersion
1070
     0
  0
VISUALSTYLE
  5
CB
102
{ACAD_XDICTIONARY
360
16E
102
}
102
{ACAD_REACTORS
330
C3
102
}
330
C3
100
AcDbVisualStyle
  2
Hidden
 70
     6
177
     2
291
     0
 71
     1
176
     1
 72
     2
176
     1
 73
     2
176
     1
 90
        0
176
     1
 40
0.6
176
     1
 41
30.0
176
     1
 63
     7
421
 16777215
176
     1
 74
     2
176
     1
 91
        2
176
     1
 64
     7
176
     1
 65
   257
176
     1
 75
     2
176
     1
175
     1
176
     1
 42
40.0
176
     1
 92
        0
176
     1
 66
   257
176
     1
 43
1.0
176
     1
 76
     1
176
     1
 77
     6
176
     1
 78
     2
176
     1
 67
     7
176
     1
 79
     3
176
     1
170
     0
176
     1
171
     0
176
     1
290
     0
176
     1
 93
        1
176
     1
 44
0.0
176
     1
173
     0
176
     1
1001
ACAD
1000
AcDbSavedByObjectVersion
1070
     0
  0
VISUALSTYLE
  5
D9
102
{ACAD_XDICTIONARY
360
18A
102
}
102
{ACAD_REACTORS
330
C3
102
}
330
C3
100
AcDbVisualStyle
  2
JitterOff
 70
    20
177
     2
291
     1
 71
     2
176
     0
 72
     2
176
     0
 73
     0
176
     0
 90
        0
176
     0
 40
0.6
176
     0
 41
30.0
176
     0
 63
     7
421
 16777215
176
     0
 74
     1
176
     0
 91
        4
176
     0
 64
     7
176
     0
 65
   257
176
     0
 75
     1
176
     0
175
     1
176
     0
 42
1.0
176
     0
 92
       10
176
     2
 66
     7
176
     0
 43
1.0
176
     0
 76
     1
176
     0
 77
     6
176
     0
 78
     2
176
     0
 67
     7
176
     0
 79
     5
176
     0
170
     0
176
     0
171
     0
176
     0
290
     0
176
     0
 93
        1
176
     0
 44
0.0
176
     0
173
     0
176
     0
1001
ACAD
1000
AcDbSavedByObjectVersion
1070
     0
  0
VISUALSTYLE
  5
D1
102
{ACAD_XDICTIONARY
360
17A
102
}
102
{ACAD_REACTORS
330
C3
102
}
330
C3
100
AcDbVisualStyle
  2
Linepattern
 70
    14
177
     2
291
     1
 71
     2
176
     1
 72
     2
176
     1
 73
     0
176
     1
 90
        0
176
     1
 40
0.6
176
     1
 41
30.0
176
     1
 63
     7
421
 16777215
176
     1
 74
     1
176
     1
 91
        4
176
     1
 64
     7
176
     1
 65
   257
176
     1
 75
     7
176
     1
175
     7
176
     1
 42
1.0
176
     1
 92
        8
176
     1
 66
     7
176
     1
 43
1.0
176
     1
 76
     1
176
     1
 77
     6
176
     1
 78
     2
176
     1
 67
     7
176
     1
 79
     5
176
     1
170
     0
176
     1
171
     0
176
     1
290
     0
176
     1
 93
        1
176
     1
 44
0.0
176
     1
173
     0
176
     1
1001
ACAD
1000
AcDbSavedByObjectVersion
1070
     0
  0
VISUALSTYLE
  5
DA
102
{ACAD_XDICTIONARY
360
18C
102
}
102
{ACAD_REACTORS
330
C3
102
}
330
C3
100
AcDbVisualStyle
  2
OverhangOff
 70
    21
177
     2
291
     1
 71
     2
176
     0
 72
     2
176
     0
 73
     0
176
     0
 90
        0
176
     0
 40
0.6
176
     0
 41
30.0
176
     0
 63
     7
421
 16777215
176
     0
 74
     1
176
     0
 91
        4
176
     0
 64
     7
176
     0
 65
   257
176
     0
 75
     1
176
     0
175
     1
176
     0
 42
1.0
176
     0
 92
        9
176
     2
 66
     7
176
     0
 43
1.0
176
     0
 76
     1
176
     0
 77
     6
176
     0
 78
     2
176
     0
 67
     7
176
     0
 79
     5
176
     0
170
     0
176
     0
171
     0
176
     0
290
     0
176
     0
 93
        1
176
     0
 44
0.0
176
     0
173
     0
176
     0
1001
ACAD
1000
AcDbSavedByObjectVersion
1070
     0
  0
VISUALSTYLE
  5
CD
102
{ACAD_XDICTIONARY
360
172
102
}
102
{ACAD_REACTORS
330
C3
102
}
330
C3
100
AcDbVisualStyle
  2
Realistic
 70
     8
177
     2
291
     0
 71
     2
176
     1
 72
     3
176
     1
 73
     0
176
     1
 90
        2
176
     1
 40
0.6
176
     1
 41
30.0
176
     1
 63
     7
421
 16777215
176
     1
 74
     0
176
     1
 91
        0
176
     1
 64
     7
176
     1
 65
   257
176
     1
 75
     1
176
     1
175
     1
176
     1
 42
1.0
176
     1
 92
        8
176
     1
 66
   257
176
     1
 43
1.0
176
     1
 76
     1
176
     1
 77
     6
176
     1
 78
     2
176
     1
 67
     7
176
     1
 79
     3
176
     1
170
     0
176
     1
171
     0
176
     1
290
     0
176
     1
 93
       13
176
     1
 44
0.0
176
     1
173
     0
176
     1
1001
ACAD
1000
AcDbSavedByObjectVersion
1070
     0
  0
VISUALSTYLE
  5
D8
102
{ACAD_XDICTIONARY
360
188
102
}
102
{ACAD_REACTORS
330
C3
102
}
330
C3
100
AcDbVisualStyle
  2
Shaded
 70
    27
177
     2
291
     0
 71
     2
176
     1
 72
     2
176
     1
 73
     1
176
     1
 90
        2
176
     1
 40
0.6
176
     1
 41
30.0
176
     1
 63
     7
421
 16777215
176
     1
 74
     0
176
     1
 91
        4
176
     1
 64
     7
176
     1
 65
   257
176
     1
 75
     1
176
     1
175
     1
176
     1
 42
1.0
176
     1
 92
        8
176
     1
 66
   257
176
     1
 43
1.0
176
     1
 76
     1
176
     1
 77
     6
176
     1
 78
     2
176
     1
 67
     8
425
  7895160
176
     1
 79
     3
176
     1
170
     0
176
     1
171
     0
176
     1
290
     0
176
     1
 93
        5
176
     1
 44
0.0
176
     1
173
     0
176
     1
1001
ACAD
1000
AcDbSavedByObjectVersion
1070
     0
  0
VISUALSTYLE
  5
D7
102
{ACAD_XDICTIONARY
360
186
102
}
102
{ACAD_REACTORS
330
C3
102
}
330
C3
100
AcDbVisualStyle
  2
Shaded with edges
 70
    26
177
     2
291
     0
 71
     2
176
     1
 72
     2
176
     1
 73
     1
176
     1
 90
        2
176
     1
 40
0.6
176
     1
 41
30.0
176
     1
 63
     7
421
 16777215
176
     1
 74
     1
176
     1
 91
       10
176
     1
 64
     7
176
     1
 65
   257
176
     1
 75
     2
176
     1
175
     1
176
     1
 42
1.0
176
     1
 92
        8
176
     1
 66
   257
176
     1
 43
1.0
176
     1
 76
     1
176
     1
 77
     6
176
     1
 78
     2
176
     1
 67
     7
176
     1
 79
     3
176
     1
170
     0
176
     1
171
     0
176
     1
290
     0
176
     1
 93
        5
176
     1
 44
0.0
176
     1
173
     0
176
     1
1001
ACAD
1000
AcDbSavedByObjectVersion
1070
     0
  0
VISUALSTYLE
  5
D4
102
{ACAD_XDICTIONARY
360
180
102
}
102
{ACAD_REACTORS
330
C3
102
}
330
C3
100
AcDbVisualStyle
  2
Shades of Gray
 70
    23
177
     2
291
     0
 71
     2
176
     1
 72
     2
176
     1
 73
     3
176
     1
 90
        0
176
     1
 40
0.6
176
     1
 41
30.0
176
     1
 63
     7
421
 16777215
176
     1
 74
     2
176
     1
 91
        2
176
     1
 64
     7
176
     1
 65
     7
176
     1
 75
     1
176
     1
175
     1
176
     1
 42
40.0
176
     1
 92
        8
176
     1
 66
     7
176
     1
 43
1.0
176
     1
 76
     1
176
     1
 77
     6
176
     1
 78
     2
176
     1
 67
     7
176
     1
 79
     3
176
     1
170
     0
176
     1
171
     0
176
     1
290
     0
176
     1
 93
        1
176
     1
 44
0.0
176
     1
173
     0
176
     1
1001
ACAD
1000
AcDbSavedByObjectVersion
1070
     0
  0
VISUALSTYLE
  5
D5
102
{ACAD_XDICTIONARY
360
182
102
}
102
{ACAD_REACTORS
330
C3
102
}
330
C3
100
AcDbVisualStyle
  2
Sketchy
 70
    24
177
     2
291
     0
 71
     1
176
     1
 72
     2
176
     1
 73
     2
176
     1
 90
        0
176
     1
 40
0.6
176
     1
 41
30.0
176
     1
 63
     7
421
 16777215
176
     1
 74
     2
176
     1
 91
        2
176
     1
 64
     7
176
     1
 65
     7
176
     1
 75
     1
176
     1
175
     1
176
     1
 42
40.0
176
     1
 92
       11
176
     1
 66
     7
176
     1
 43
1.0
176
     1
 76
     1
176
     1
 77
     6
176
     1
 78
     2
176
     1
 67
     7
176
     1
 79
     6
176
     1
170
     0
176
     1
171
     0
176
     1
290
     0
176
     1
 93
        1
176
     1
 44
0.0
176
     1
173
     0
176
     1
1001
ACAD
1000
AcDbSavedByObjectVersion
1070
     0
  0
VISUALSTYLE
  5
D0
102
{ACAD_XDICTIONARY
360
178
102
}
102
{ACAD_REACTORS
330
C3
102
}
330
C3
100
AcDbVisualStyle
  2
Thicken
 70
    13
177
     2
291
     1
 71
     2
176
     1
 72
     2
176
     1
 73
     0
176
     1
 90
        0
176
     1
 40
0.6
176
     1
 41
30.0
176
     1
 63
     7
421
 16777215
176
     1
 74
     1
176
     1
 91
        4
176
     1
 64
     7
176
     1
 65
   257
176
     1
 75
     1
176
     1
175
     1
176
     1
 42
1.0
176
     1
 92
       12
176
     1
 66
     7
176
     1
 43
1.0
176
     1
 76
     1
176
     1
 77
     6
176
     1
 78
     2
176
     1
 67
     7
176
     1
 79
     5
176
     1
170
     0
176
     1
171
     0
176
     1
290
     0
176
     1
 93
        1
176
     1
 44
0.0
176
     1
173
     0
176
     1
1001
ACAD
1000
AcDbSavedByObjectVersion
1070
     0
  0
VISUALSTYLE
  5
CA
102
{ACAD_XDICTIONARY
360
16C
102
}
102
{ACAD_REACTORS
330
C3
102
}
330
C3
100
AcDbVisualStyle
  2
Wireframe
 70
     5
177
     2
291
     0
 71
     0
176
     1
 72
     2
176
     1
 73
     0
176
     1
 90
        0
176
     1
 40
0.6
176
     1
 41
30.0
176
     1
 63
     7
421
 16777215
176
     1
 74
     1
176
     1
 91
        4
176
     1
 64
     7
176
     1
 65
   257
176
     1
 75
     1
176
     1
175
     1
176
     1
 42
1.0
176
     1
 92
        0
176
     1
 66
   257
176
     1
 43
1.0
176
     1
 76
     1
176
     1
 77
     6
176
     1
 78
     2
176
     1
 67
     7
176
     1
 79
     3
176
     1
170
     0
176
     1
171
     0
176
     1
290
     0
176
     1
 93
        1
176
     1
 44
0.0
176
     1
173
     0
176
     1
1001
ACAD
1000
AcDbSavedByObjectVersion
1070
     0
  0
VISUALSTYLE
  5
D6
102
{ACAD_XDICTIONARY
360
184
102
}
102
{ACAD_REACTORS
330
C3
102
}
330
C3
100
AcDbVisualStyle
  2
X-Ray
 70
    25
177
     2
291
     0
 71
     2
176
     1
 72
     2
176
     1
 73
     1
176
     1
 90
        1
176
     1
 40
0.5
176
     1
 41
30.0
176
     1
 63
     7
421
 16777215
176
     1
 74
     1
176
     1
 91
        0
176
     1
 64
     7
176
     1
 65
   257
176
     1
 75
     1
176
     1
175
     1
176
     1
 42
1.0
176
     1
 92
        8
176
     1
 66
     7
176
     1
 43
1.0
176
     1
 76
     1
176
     1
 77
     6
176
     1
 78
     2
176
     1
 67
     7
176
     1
 79
     3
176
     1
170
     0
176
     1
171
     0
176
     1
290
     0
176
     1
 93
       13
176
     1
 44
0.0
176
     1
173
     0
176
     1
1001
ACAD
1000
AcDbSavedByObjectVersion
1070
     0
  0
DICTIONARYVAR
  5
159
102
{ACAD_REACTORS
330
153
102
}
330
153
100
DictionaryVariables
280
     0
  1
1:1
  0
DICTIONARYVAR
  5
155
102
{ACAD_REACTORS
330
153
102
}
330
153
100
DictionaryVariables
280
     0
  1
STANDARD
  0
DICTIONARYVAR
  5
154
102
{ACAD_REACTORS
330
153
102
}
330
153
100
DictionaryVariables
280
     0
  1
STANDARD
  0
DICTIONARYVAR
  5
156
102
{ACAD_REACTORS
330
153
102
}
330
153
100
DictionaryVariables
280
     0
  1
Imperial24
  0
DICTIONARYVAR
  5
157
102
{ACAD_REACTORS
330
153
102
}
330
153
100
DictionaryVariables
280
     0
  1
Imperial24
  0
DICTIONARYVAR
  5
15B
102
{ACAD_REACTORS
330
153
102
}
330
153
100
DictionaryVariables
280
     0
  1
1
  0
DICTIONARYVAR
  5
15C
102
{ACAD_REACTORS
330
153
102
}
330
153
100
DictionaryVariables
280
     0
  1
15
  0
DICTIONARYVAR
  5
15A
102
{ACAD_REACTORS
330
153
102
}
330
153
100
DictionaryVariables
280
     0
  1
0
  0
DICTIONARYVAR
  5
158
102
{ACAD_REACTORS
330
153
102
}
330
153
100
DictionaryVariables
280
     0
  1
0
  0
DICTIONARY
  5
194
330
F6
100
AcDbDictionary
280
     1
281
     1
  3
ACAD_XREC_ROUNDTRIP
360
195
  0
DICTIONARY
  5
B4
330
B3
100
AcDbDictionary
280
     1
281
     1
  3
BUMPTILE
360
B6
  3
DIFFUSETILE
360
B5
  3
OPACITYTILE
360
B9
  3
REFLECTIONTILE
360
B8
  3
REFRACTIONTILE
360
BA
  3
SPECULARTILE
360
B7
  0
DICTIONARY
  5
AC
330
AB
100
AcDbDictionary
280
     1
281
     1
  3
BUMPTILE
360
AE
  3
DIFFUSETILE
360
AD
  3
OPACITYTILE
360
B1
  3
REFLECTIONTILE
360
B0
  3
REFRACTIONTILE
360
B2
  3
SPECULARTILE
360
AF
  0
DICTIONARY
  5
BC
330
BB
100
AcDbDictionary
280
     1
281
     1
  3
BUMPTILE
360
BE
  3
DIFFUSETILE
360
BD
  3
OPACITYTILE
360
C1
  3
REFLECTIONTILE
360
C0
  3
REFRACTIONTILE
360
C2
  3
SPECULARTILE
360
BF
  0
DICTIONARY
  5
190
330
F2
100
AcDbDictionary
280
     1
281
     1
  3
ACAD_XREC_ROUNDTRIP
360
191
  0
DICTIONARY
  5
192
330
F4
100
AcDbDictionary
280
     1
281
     1
  3
ACAD_XREC_ROUNDTRIP
360
193
  0
DICTIONARY
  5
15D
330
DE
100
AcDbDictionary
280
     1
281
     1
  3
ACAD_ROUNDTRIP_2008_TABLESTYLE_CELLSTYLEMAP
360
15E
  0
DICTIONARY
  5
16A
330
C9
100
AcDbDictionary
280
     1
281
     1
  3
ACAD_XREC_ROUNDTRIP
360
16B
  0
DICTIONARY
  5
168
330
C8
100
AcDbDictionary
280
     1
281
     1
  3
ACAD_XREC_ROUNDTRIP
360
169
  0
DICTIONARY
  5
176
330
CF
100
AcDbDictionary
280
     1
281
     1
  3
ACAD_XREC_ROUNDTRIP
360
177
  0
DICTIONARY
  5
17E
330
D3
100
AcDbDictionary
280
     1
281
     1
  3
ACAD_XREC_ROUNDTRIP
360
17F
  0
DICTIONARY
  5
170
330
CC
100
AcDbDictionary
280
     1
281
     1
  3
ACAD_XREC_ROUNDTRIP
360
171
  0
DICTIONARY
  5
174
330
CE
100
AcDbDictionary
280
     1
281
     1
  3
ACAD_XREC_ROUNDTRIP
360
175
  0
DICTIONARY
  5
18E
330
DB
100
AcDbDictionary
280
     1
281
     1
  3
ACAD_XREC_ROUNDTRIP
360
18F
  0
DICTIONARY
  5
17C
330
D2
100
AcDbDictionary
280
     1
281
     1
  3
ACAD_XREC_ROUNDTRIP
360
17D
  0
DICTIONARY
  5
160
330
C4
100
AcDbDictionary
280
     1
281
     1
  3
ACAD_XREC_ROUNDTRIP
360
161
  0
DICTIONARY
  5
162
330
C5
100
AcDbDictionary
280
     1
281
     1
  3
ACAD_XREC_ROUNDTRIP
360
163
  0
DICTIONARY
  5
164
330
C6
100
AcDbDictionary
280
     1
281
     1
  3
ACAD_XREC_ROUNDTRIP
360
165
  0
DICTIONARY
  5
166
330
C7
100
AcDbDictionary
280
     1
281
     1
  3
ACAD_XREC_ROUNDTRIP
360
167
  0
DICTIONARY
  5
16E
330
CB
100
AcDbDictionary
280
     1
281
     1
  3
ACAD_XREC_ROUNDTRIP
360
16F
  0
DICTIONARY
  5
18A
330
D9
100
AcDbDictionary
280
     1
281
     1
  3
ACAD_XREC_ROUNDTRIP
360
18B
  0
DICTIONARY
  5
17A
330
D1
100
AcDbDictionary
280
     1
281
     1
  3
ACAD_XREC_ROUNDTRIP
360
17B
  0
DICTIONARY
  5
18C
330
DA
100
AcDbDictionary
280
     1
281
     1
  3
ACAD_XREC_ROUNDTRIP
360
18D
  0
DICTIONARY
  5
172
330
CD
100
AcDbDictionary
280
     1
281
     1
  3
ACAD_XREC_ROUNDTRIP
360
173
  0
DICTIONARY
  5
188
330
D8
100
AcDbDictionary
280
     1
281
     1
  3
ACAD_XREC_ROUNDTRIP
360
189
  0
DICTIONARY
  5
186
330
D7
100
AcDbDictionary
280
     1
281
     1
  3
ACAD_XREC_ROUNDTRIP
360
187
  0
DICTIONARY
  5
180
330
D4
100
AcDbDictionary
280
     1
281
     1
  3
ACAD_XREC_ROUNDTRIP
360
181
  0
DICTIONARY
  5
182
330
D5
100
AcDbDictionary
280
     1
281
     1
  3
ACAD_XREC_ROUNDTRIP
360
183
  0
DICTIONARY
  5
178
330
D0
100
AcDbDictionary
280
     1
281
     1
  3
ACAD_XREC_ROUNDTRIP
360
179
  0
DICTIONARY
  5
16C
330
CA
100
AcDbDictionary
280
     1
281
     1
  3
ACAD_XREC_ROUNDTRIP
360
16D
  0
DICTIONARY
  5
184
330
D6
100
AcDbDictionary
280
     1
281
     1
  3
ACAD_XREC_ROUNDTRIP
360
185
  0
XRECORD
  5
195
102
{ACAD_REACTORS
330
194
102
}
330
194
100
AcDbXrecord
280
     1
102
DISPLAYNAME
  1
Imperial24
102
FLAGS
 90
        0
  0
XRECORD
  5
B6
102
{ACAD_REACTORS
330
B4
102
}
330
B4
100
AcDbXrecord
280
     1
270
     1
271
     1
  0
XRECORD
  5
B5
102
{ACAD_REACTORS
330
B4
102
}
330
B4
100
AcDbXrecord
280
     1
270
     1
271
     1
  0
XRECORD
  5
B9
102
{ACAD_REACTORS
330
B4
102
}
330
B4
100
AcDbXrecord
280
     1
270
     1
271
     1
  0
XRECORD
  5
B8
102
{ACAD_REACTORS
330
B4
102
}
330
B4
100
AcDbXrecord
280
     1
270
     1
271
     1
  0
XRECORD
  5
BA
102
{ACAD_REACTORS
330
B4
102
}
330
B4
100
AcDbXrecord
280
     1
270
     1
271
     1
  0
XRECORD
  5
B7
102
{ACAD_REACTORS
330
B4
102
}
330
B4
100
AcDbXrecord
280
     1
270
     1
271
     1
  0
XRECORD
  5
AE
102
{ACAD_REACTORS
330
AC
102
}
330
AC
100
AcDbXrecord
280
     1
270
     1
271
     1
  0
XRECORD
  5
AD
102
{ACAD_REACTORS
330
AC
102
}
330
AC
100
AcDbXrecord
280
     1
270
     1
271
     1
  0
XRECORD
  5
B1
102
{ACAD_REACTORS
330
AC
102
}
330
AC
100
AcDbXrecord
280
     1
270
     1
271
     1
  0
XRECORD
  5
B0
102
{ACAD_REACTORS
330
AC
102
}
330
AC
100
AcDbXrecord
280
     1
270
     1
271
     1
  0
XRECORD
  5
B2
102
{ACAD_REACTORS
330
AC
102
}
330
AC
100
AcDbXrecord
280
     1
270
     1
271
     1
  0
XRECORD
  5
AF
102
{ACAD_REACTORS
330
AC
102
}
330
AC
100
AcDbXrecord
280
     1
270
     1
271
     1
  0
XRECORD
  5
BE
102
{ACAD_REACTORS
330
BC
102
}
330
BC
100
AcDbXrecord
280
     1
270
     1
271
     1
  0
XRECORD
  5
BD
102
{ACAD_REACTORS
330
BC
102
}
330
BC
100
AcDbXrecord
280
     1
270
     1
271
     1
  0
XRECORD
  5
C1
102
{ACAD_REACTORS
330
BC
102
}
330
BC
100
AcDbXrecord
280
     1
270
     1
271
     1
  0
XRECORD
  5
C0
102
{ACAD_REACTORS
330
BC
102
}
330
BC
100
AcDbXrecord
280
     1
270
     1
271
     1
  0
XRECORD
  5
C2
102
{ACAD_REACTORS
330
BC
102
}
330
BC
100
AcDbXrecord
280
     1
270
     1
271
     1
  0
XRECORD
  5
BF
102
{ACAD_REACTORS
330
BC
102
}
330
BC
100
AcDbXrecord
280
     1
270
     1
271
     1
  0
XRECORD
  5
191
102
{ACAD_REACTORS
330
190
102
}
330
190
100
AcDbXrecord
280
     1
102
ACAD_ROUNDTRIP_2012_MLEADER_STYLE
298
     1
  0
XRECORD
  5
193
102
{ACAD_REACTORS
330
192
102
}
330
192
100
AcDbXrecord
280
     1
102
DISPLAYNAME
  1
Imperial24
102
FLAGS
 90
        0
  0
CELLSTYLEMAP
  5
15E
102
{ACAD_REACTORS
330
15D
102
}
330
15D
100
AcDbCellStyleMap
 90
        3
300
CELLSTYLE
  1
TABLEFORMAT_BEGIN
 90
        5
170
     1
 91
        0
 92
    32768
 62
   257
 93
        1
300
CONTENTFORMAT
  1
CONTENTFORMAT_BEGIN
 90
        0
 91
        0
 92
      512
 93
        0
300

 40
0.0
140
1.0
 94
        5
 62
     0
340
11
144
0.25
309
CONTENTFORMAT_END
171
     0
 94
        0
309
TABLEFORMAT_END
  1
CELLSTYLE_BEGIN
 90
        1
 91
        1
300
_TITLE
309
CELLSTYLE_END
300
CELLSTYLE
  1
TABLEFORMAT_BEGIN
 90
        5
170
     1
 91
        0
 92
        0
 62
   257
 93
        1
300
CONTENTFORMAT
  1
CONTENTFORMAT_BEGIN
 90
        0
 91
        0
 92
      512
 93
        0
300

 40
0.0
140
1.0
 94
        5
 62
     0
340
11
144
0.18
309
CONTENTFORMAT_END
171
     0
 94
        0
309
TABLEFORMAT_END
  1
CELLSTYLE_BEGIN
 90
        2
 91
        1
300
_HEADER
309
CELLSTYLE_END
300
CELLSTYLE
  1
TABLEFORMAT_BEGIN
 90
        5
170
     1
 91
        0
 92
        0
 62
   257
 93
        1
300
CONTENTFORMAT
  1
CONTENTFORMAT_BEGIN
 90
        0
 91
        0
 92
      512
 93
        0
300

 40
0.0
140
1.0
 94
        2
 62
     0
340
11
144
0.18
309
CONTENTFORMAT_END
171
     0
 94
        0
309
TABLEFORMAT_END
  1
CELLSTYLE_BEGIN
 90
        3
 91
        2
300
_DATA
309
CELLSTYLE_END
  0
XRECORD
  5
16B
102
{ACAD_REACTORS
330
16A
102
}
330
16A
100
AcDbXrecord
280
     1
102
RTVSPost2010Prop28
280
     1
102
RTVSPost2010PropOp28
 70
     1
102
RTVSPost2010Prop29
280
     1
102
RTVSPost2010PropOp29
 70
     1
102
RTVSPost2010Prop30
280
     0
102
RTVSPost2010PropOp30
 70
     1
102
RTVSPost2010Prop31
280
     0
102
RTVSPost2010PropOp31
 70
     1
102
RTVSPost2010Prop32
280
     0
102
RTVSPost2010PropOp32
 70
     1
102
RTVSPost2010Prop33
280
     0
102
RTVSPost2010PropOp33
 70
     1
102
RTVSPost2010Prop34
280
     0
102
RTVSPost2010PropOp34
 70
     1
102
RTVSPost2010Prop35
280
     0
102
RTVSPost2010PropOp35
 70
     1
102
RTVSPost2010Prop36
280
     0
102
RTVSPost2010PropOp36
 70
     1
102
RTVSPost2010Prop37
 90
       50
102
RTVSPost2010PropOp37
 70
     1
102
RTVSPost2010Prop38
140
0.0
102
RTVSPost2010PropOp38
 70
     1
102
RTVSPost2010Prop39
140
1.0
102
RTVSPost2010PropOp39
 70
     1
102
RTVSPost2010Prop40
 90
        0
102
RTVSPost2010PropOp40
 70
     1
102
RTVSPost2010Prop41ColorIndex
 90
       18
102
RTVSPost2010Prop41ColorRGB
 90
        0
102
RTVSPost2010PropOp41
 70
     1
102
RTVSPost2010Prop42
 90
       50
102
RTVSPost2010PropOp42
 70
     1
102
RTVSPost2010Prop43
 90
        3
102
RTVSPost2010PropOp43
 70
     1
102
RTVSPost2010Prop44ColorIndex
 90
        5
102
RTVSPost2010Prop44ColorRGB
 90
      255
102
RTVSPost2010PropOp44
 70
     1
102
RTVSPost2010Prop45
280
     0
102
RTVSPost2010PropOp45
 70
     1
102
RTVSPost2010Prop46
 90
       50
102
RTVSPost2010PropOp46
 70
     1
102
RTVSPost2010Prop47
 90
       50
102
RTVSPost2010PropOp47
 70
     1
102
RTVSPost2010Prop48
 90
       50
102
RTVSPost2010PropOp48
 70
     1
102
RTVSPost2010Prop49
280
     0
102
RTVSPost2010PropOp49
 70
     1
102
RTVSPost2010Prop50
 90
       50
102
RTVSPost2010PropOp50
 70
     1
102
RTVSPost2010Prop51ColorIndex
 90
      256
102
RTVSPost2010Prop51ColorRGB
 90
-16777216
102
RTVSPost2010PropOp51
 70
     0
102
RTVSPost2010Prop52
140
1.0
102
RTVSPost2010PropOp52
 70
     0
102
RTVSPost2010Prop53
 90
        2
102
RTVSPost2010PropOp53
 70
     1
102
RTVSPost2010Prop54
  1
strokes_ogs.tif
102
RTVSPost2010PropOp54
 70
     1
102
RTVSPost2010Prop55
280
     0
102
RTVSPost2010PropOp55
 70
     1
102
RTVSPost2010Prop56
140
1.0
102
RTVSPost2010PropOp56
 70
     1
102
RTVSPost2010Prop57
140
1.0
102
RTVSPost2010PropOp57
 70
     1
  0
XRECORD
  5
169
102
{ACAD_REACTORS
330
168
102
}
330
168
100
AcDbXrecord
280
     1
102
RTVSPost2010Prop28
280
     0
102
RTVSPost2010PropOp28
 70
     1
102
RTVSPost2010Prop29
280
     1
102
RTVSPost2010PropOp29
 70
     1
102
RTVSPost2010Prop30
280
     1
102
RTVSPost2010PropOp30
 70
     1
102
RTVSPost2010Prop31
280
     0
102
RTVSPost2010PropOp31
 70
     1
102
RTVSPost2010Prop32
280
     0
102
RTVSPost2010PropOp32
 70
     1
102
RTVSPost2010Prop33
280
     0
102
RTVSPost2010PropOp33
 70
     1
102
RTVSPost2010Prop34
280
     0
102
RTVSPost2010PropOp34
 70
     1
102
RTVSPost2010Prop35
280
     0
102
RTVSPost2010PropOp35
 70
     1
102
RTVSPost2010Prop36
280
     0
102
RTVSPost2010PropOp36
 70
     1
102
RTVSPost2010Prop37
 90
       50
102
RTVSPost2010PropOp37
 70
     1
102
RTVSPost2010Prop38
140
0.0
102
RTVSPost2010PropOp38
 70
     1
102
RTVSPost2010Prop39
140
1.0
102
RTVSPost2010PropOp39
 70
     1
102
RTVSPost2010Prop40
 90
        0
102
RTVSPost2010PropOp40
 70
     1
102
RTVSPost2010Prop41ColorIndex
 90
       18
102
RTVSPost2010Prop41ColorRGB
 90
        0
102
RTVSPost2010PropOp41
 70
     1
102
RTVSPost2010Prop42
 90
       50
102
RTVSPost2010PropOp42
 70
     1
102
RTVSPost2010Prop43
 90
        3
102
RTVSPost2010PropOp43
 70
     1
102
RTVSPost2010Prop44ColorIndex
 90
        5
102
RTVSPost2010Prop44ColorRGB
 90
      255
102
RTVSPost2010PropOp44
 70
     1
102
RTVSPost2010Prop45
280
     0
102
RTVSPost2010PropOp45
 70
     1
102
RTVSPost2010Prop46
 90
       50
102
RTVSPost2010PropOp46
 70
     1
102
RTVSPost2010Prop47
 90
       50
102
RTVSPost2010PropOp47
 70
     1
102
RTVSPost2010Prop48
 90
       50
102
RTVSPost2010PropOp48
 70
     1
102
RTVSPost2010Prop49
280
     0
102
RTVSPost2010PropOp49
 70
     1
102
RTVSPost2010Prop50
 90
       50
102
RTVSPost2010PropOp50
 70
     1
102
RTVSPost2010Prop51ColorIndex
 90
      256
102
RTVSPost2010Prop51ColorRGB
 90
-16777216
102
RTVSPost2010PropOp51
 70
     0
102
RTVSPost2010Prop52
140
1.0
102
RTVSPost2010PropOp52
 70
     0
102
RTVSPost2010Prop53
 90
        2
102
RTVSPost2010PropOp53
 70
     1
102
RTVSPost2010Prop54
  1
strokes_ogs.tif
102
RTVSPost2010PropOp54
 70
     1
102
RTVSPost2010Prop55
280
     0
102
RTVSPost2010PropOp55
 70
     1
102
RTVSPost2010Prop56
140
1.0
102
RTVSPost2010PropOp56
 70
     1
102
RTVSPost2010Prop57
140
1.0
102
RTVSPost2010PropOp57
 70
     1
  0
XRECORD
  5
177
102
{ACAD_REACTORS
330
176
102
}
330
176
100
AcDbXrecord
280
     1
102
RTVSPost2010Prop28
280
     0
102
RTVSPost2010PropOp28
 70
     1
102
RTVSPost2010Prop29
280
     1
102
RTVSPost2010PropOp29
 70
     1
102
RTVSPost2010Prop30
280
     1
102
RTVSPost2010PropOp30
 70
     1
102
RTVSPost2010Prop31
280
     0
102
RTVSPost2010PropOp31
 70
     1
102
RTVSPost2010Prop32
280
     0
102
RTVSPost2010PropOp32
 70
     1
102
RTVSPost2010Prop33
280
     0
102
RTVSPost2010PropOp33
 70
     1
102
RTVSPost2010Prop34
280
     0
102
RTVSPost2010PropOp34
 70
     1
102
RTVSPost2010Prop35
280
     0
102
RTVSPost2010PropOp35
 70
     1
102
RTVSPost2010Prop36
280
     0
102
RTVSPost2010PropOp36
 70
     1
102
RTVSPost2010Prop37
 90
       50
102
RTVSPost2010PropOp37
 70
     1
102
RTVSPost2010Prop38
140
0.0
102
RTVSPost2010PropOp38
 70
     1
102
RTVSPost2010Prop39
140
1.0
102
RTVSPost2010PropOp39
 70
     1
102
RTVSPost2010Prop40
 90
        0
102
RTVSPost2010PropOp40
 70
     1
102
RTVSPost2010Prop41ColorIndex
 90
       18
102
RTVSPost2010Prop41ColorRGB
 90
        0
102
RTVSPost2010PropOp41
 70
     1
102
RTVSPost2010Prop42
 90
       50
102
RTVSPost2010PropOp42
 70
     1
102
RTVSPost2010Prop43
 90
        3
102
RTVSPost2010PropOp43
 70
     1
102
RTVSPost2010Prop44ColorIndex
 90
        5
102
RTVSPost2010Prop44ColorRGB
 90
      255
102
RTVSPost2010PropOp44
 70
     1
102
RTVSPost2010Prop45
280
     0
102
RTVSPost2010PropOp45
 70
     1
102
RTVSPost2010Prop46
 90
       50
102
RTVSPost2010PropOp46
 70
     1
102
RTVSPost2010Prop47
 90
       50
102
RTVSPost2010PropOp47
 70
     1
102
RTVSPost2010Prop48
 90
       50
102
RTVSPost2010PropOp48
 70
     1
102
RTVSPost2010Prop49
280
     0
102
RTVSPost2010PropOp49
 70
     1
102
RTVSPost2010Prop50
 90
       50
102
RTVSPost2010PropOp50
 70
     1
102
RTVSPost2010Prop51ColorIndex
 90
      256
102
RTVSPost2010Prop51ColorRGB
 90
-16777216
102
RTVSPost2010PropOp51
 70
     0
102
RTVSPost2010Prop52
140
1.0
102
RTVSPost2010PropOp52
 70
     0
102
RTVSPost2010Prop53
 90
        2
102
RTVSPost2010PropOp53
 70
     1
102
RTVSPost2010Prop54
  1
strokes_ogs.tif
102
RTVSPost2010PropOp54
 70
     1
102
RTVSPost2010Prop55
280
     0
102
RTVSPost2010PropOp55
 70
     1
102
RTVSPost2010Prop56
140
1.0
102
RTVSPost2010PropOp56
 70
     1
102
RTVSPost2010Prop57
140
1.0
102
RTVSPost2010PropOp57
 70
     1
  0
XRECORD
  5
17F
102
{ACAD_REACTORS
330
17E
102
}
330
17E
100
AcDbXrecord
280
     1
102
RTVSPost2010Prop28
280
     0
102
RTVSPost2010PropOp28
 70
     1
102
RTVSPost2010Prop29
280
     1
102
RTVSPost2010PropOp29
 70
     1
102
RTVSPost2010Prop30
280
     1
102
RTVSPost2010PropOp30
 70
     1
102
RTVSPost2010Prop31
280
     0
102
RTVSPost2010PropOp31
 70
     1
102
RTVSPost2010Prop32
280
     0
102
RTVSPost2010PropOp32
 70
     1
102
RTVSPost2010Prop33
280
     0
102
RTVSPost2010PropOp33
 70
     1
102
RTVSPost2010Prop34
280
     0
102
RTVSPost2010PropOp34
 70
     1
102
RTVSPost2010Prop35
280
     0
102
RTVSPost2010PropOp35
 70
     1
102
RTVSPost2010Prop36
280
     0
102
RTVSPost2010PropOp36
 70
     1
102
RTVSPost2010Prop37
 90
       50
102
RTVSPost2010PropOp37
 70
     1
102
RTVSPost2010Prop38
140
0.0
102
RTVSPost2010PropOp38
 70
     1
102
RTVSPost2010Prop39
140
1.0
102
RTVSPost2010PropOp39
 70
     1
102
RTVSPost2010Prop40
 90
        0
102
RTVSPost2010PropOp40
 70
     1
102
RTVSPost2010Prop41ColorIndex
 90
       18
102
RTVSPost2010Prop41ColorRGB
 90
        0
102
RTVSPost2010PropOp41
 70
     1
102
RTVSPost2010Prop42
 90
       50
102
RTVSPost2010PropOp42
 70
     1
102
RTVSPost2010Prop43
 90
        3
102
RTVSPost2010PropOp43
 70
     1
102
RTVSPost2010Prop44ColorIndex
 90
        5
102
RTVSPost2010Prop44ColorRGB
 90
      255
102
RTVSPost2010PropOp44
 70
     1
102
RTVSPost2010Prop45
280
     0
102
RTVSPost2010PropOp45
 70
     1
102
RTVSPost2010Prop46
 90
       50
102
RTVSPost2010PropOp46
 70
     1
102
RTVSPost2010Prop47
 90
       50
102
RTVSPost2010PropOp47
 70
     1
102
RTVSPost2010Prop48
 90
       50
102
RTVSPost2010PropOp48
 70
     1
102
RTVSPost2010Prop49
280
     0
102
RTVSPost2010PropOp49
 70
     1
102
RTVSPost2010Prop50
 90
       50
102
RTVSPost2010PropOp50
 70
     1
102
RTVSPost2010Prop51ColorIndex
 90
      256
102
RTVSPost2010Prop51ColorRGB
 90
-16777216
102
RTVSPost2010PropOp51
 70
     0
102
RTVSPost2010Prop52
140
1.0
102
RTVSPost2010PropOp52
 70
     0
102
RTVSPost2010Prop53
 90
        2
102
RTVSPost2010PropOp53
 70
     1
102
RTVSPost2010Prop54
  1
strokes_ogs.tif
102
RTVSPost2010PropOp54
 70
     1
102
RTVSPost2010Prop55
280
     0
102
RTVSPost2010PropOp55
 70
     1
102
RTVSPost2010Prop56
140
1.0
102
RTVSPost2010PropOp56
 70
     1
102
RTVSPost2010Prop57
140
1.0
102
RTVSPost2010PropOp57
 70
     1
  0
XRECORD
  5
171
102
{ACAD_REACTORS
330
170
102
}
330
170
100
AcDbXrecord
280
     1
102
RTVSPost2010Prop28
280
     0
102
RTVSPost2010PropOp28
 70
     1
102
RTVSPost2010Prop29
280
     1
102
RTVSPost2010PropOp29
 70
     1
102
RTVSPost2010Prop30
280
     1
102
RTVSPost2010PropOp30
 70
     1
102
RTVSPost2010Prop31
280
     0
102
RTVSPost2010PropOp31
 70
     1
102
RTVSPost2010Prop32
280
     0
102
RTVSPost2010PropOp32
 70
     1
102
RTVSPost2010Prop33
280
     0
102
RTVSPost2010PropOp33
 70
     1
102
RTVSPost2010Prop34
280
     0
102
RTVSPost2010PropOp34
 70
     1
102
RTVSPost2010Prop35
280
     0
102
RTVSPost2010PropOp35
 70
     1
102
RTVSPost2010Prop36
280
     0
102
RTVSPost2010PropOp36
 70
     1
102
RTVSPost2010Prop37
 90
       50
102
RTVSPost2010PropOp37
 70
     1
102
RTVSPost2010Prop38
140
0.0
102
RTVSPost2010PropOp38
 70
     1
102
RTVSPost2010Prop39
140
1.0
102
RTVSPost2010PropOp39
 70
     1
102
RTVSPost2010Prop40
 90
        0
102
RTVSPost2010PropOp40
 70
     1
102
RTVSPost2010Prop41ColorIndex
 90
       18
102
RTVSPost2010Prop41ColorRGB
 90
        0
102
RTVSPost2010PropOp41
 70
     1
102
RTVSPost2010Prop42
 90
       50
102
RTVSPost2010PropOp42
 70
     1
102
RTVSPost2010Prop43
 90
        3
102
RTVSPost2010PropOp43
 70
     1
102
RTVSPost2010Prop44ColorIndex
 90
        5
102
RTVSPost2010Prop44ColorRGB
 90
      255
102
RTVSPost2010PropOp44
 70
     1
102
RTVSPost2010Prop45
280
     0
102
RTVSPost2010PropOp45
 70
     1
102
RTVSPost2010Prop46
 90
       50
102
RTVSPost2010PropOp46
 70
     1
102
RTVSPost2010Prop47
 90
       50
102
RTVSPost2010PropOp47
 70
     1
102
RTVSPost2010Prop48
 90
       50
102
RTVSPost2010PropOp48
 70
     1
102
RTVSPost2010Prop49
280
     0
102
RTVSPost2010PropOp49
 70
     1
102
RTVSPost2010Prop50
 90
       50
102
RTVSPost2010PropOp50
 70
     1
102
RTVSPost2010Prop51ColorIndex
 90
      256
102
RTVSPost2010Prop51ColorRGB
 90
-16777216
102
RTVSPost2010PropOp51
 70
     0
102
RTVSPost2010Prop52
140
1.0
102
RTVSPost2010PropOp52
 70
     0
102
RTVSPost2010Prop53
 90
        2
102
RTVSPost2010PropOp53
 70
     1
102
RTVSPost2010Prop54
  1
strokes_ogs.tif
102
RTVSPost2010PropOp54
 70
     1
102
RTVSPost2010Prop55
280
     0
102
RTVSPost2010PropOp55
 70
     1
102
RTVSPost2010Prop56
140
1.0
102
RTVSPost2010PropOp56
 70
     1
102
RTVSPost2010Prop57
140
1.0
102
RTVSPost2010PropOp57
 70
     1
  0
XRECORD
  5
175
102
{ACAD_REACTORS
330
174
102
}
330
174
100
AcDbXrecord
280
     1
102
RTVSPost2010Prop28
280
     0
102
RTVSPost2010PropOp28
 70
     1
102
RTVSPost2010Prop29
280
     1
102
RTVSPost2010PropOp29
 70
     1
102
RTVSPost2010Prop30
280
     1
102
RTVSPost2010PropOp30
 70
     1
102
RTVSPost2010Prop31
280
     0
102
RTVSPost2010PropOp31
 70
     1
102
RTVSPost2010Prop32
280
     0
102
RTVSPost2010PropOp32
 70
     1
102
RTVSPost2010Prop33
280
     0
102
RTVSPost2010PropOp33
 70
     1
102
RTVSPost2010Prop34
280
     0
102
RTVSPost2010PropOp34
 70
     1
102
RTVSPost2010Prop35
280
     0
102
RTVSPost2010PropOp35
 70
     1
102
RTVSPost2010Prop36
280
     0
102
RTVSPost2010PropOp36
 70
     1
102
RTVSPost2010Prop37
 90
       50
102
RTVSPost2010PropOp37
 70
     1
102
RTVSPost2010Prop38
140
0.0
102
RTVSPost2010PropOp38
 70
     1
102
RTVSPost2010Prop39
140
1.0
102
RTVSPost2010PropOp39
 70
     1
102
RTVSPost2010Prop40
 90
        0
102
RTVSPost2010PropOp40
 70
     1
102
RTVSPost2010Prop41ColorIndex
 90
       18
102
RTVSPost2010Prop41ColorRGB
 90
        0
102
RTVSPost2010PropOp41
 70
     1
102
RTVSPost2010Prop42
 90
       50
102
RTVSPost2010PropOp42
 70
     1
102
RTVSPost2010Prop43
 90
        3
102
RTVSPost2010PropOp43
 70
     1
102
RTVSPost2010Prop44ColorIndex
 90
        5
102
RTVSPost2010Prop44ColorRGB
 90
      255
102
RTVSPost2010PropOp44
 70
     1
102
RTVSPost2010Prop45
280
     0
102
RTVSPost2010PropOp45
 70
     1
102
RTVSPost2010Prop46
 90
       50
102
RTVSPost2010PropOp46
 70
     1
102
RTVSPost2010Prop47
 90
       50
102
RTVSPost2010PropOp47
 70
     1
102
RTVSPost2010Prop48
 90
       50
102
RTVSPost2010PropOp48
 70
     1
102
RTVSPost2010Prop49
280
     0
102
RTVSPost2010PropOp49
 70
     1
102
RTVSPost2010Prop50
 90
       50
102
RTVSPost2010PropOp50
 70
     1
102
RTVSPost2010Prop51ColorIndex
 90
      256
102
RTVSPost2010Prop51ColorRGB
 90
-16777216
102
RTVSPost2010PropOp51
 70
     0
102
RTVSPost2010Prop52
140
1.0
102
RTVSPost2010PropOp52
 70
     0
102
RTVSPost2010Prop53
 90
        2
102
RTVSPost2010PropOp53
 70
     1
102
RTVSPost2010Prop54
  1
strokes_ogs.tif
102
RTVSPost2010PropOp54
 70
     1
102
RTVSPost2010Prop55
280
     0
102
RTVSPost2010PropOp55
 70
     1
102
RTVSPost2010Prop56
140
1.0
102
RTVSPost2010PropOp56
 70
     1
102
RTVSPost2010Prop57
140
1.0
102
RTVSPost2010PropOp57
 70
     1
  0
XRECORD
  5
18F
102
{ACAD_REACTORS
330
18E
102
}
330
18E
100
AcDbXrecord
280
     1
102
RTVSPost2010Prop28
280
     0
102
RTVSPost2010PropOp28
 70
     0
102
RTVSPost2010Prop29
280
     1
102
RTVSPost2010PropOp29
 70
     0
102
RTVSPost2010Prop30
280
     1
102
RTVSPost2010PropOp30
 70
     0
102
RTVSPost2010Prop31
280
     0
102
RTVSPost2010PropOp31
 70
     0
102
RTVSPost2010Prop32
280
     0
102
RTVSPost2010PropOp32
 70
     0
102
RTVSPost2010Prop33
280
     0
102
RTVSPost2010PropOp33
 70
     0
102
RTVSPost2010Prop34
280
     0
102
RTVSPost2010PropOp34
 70
     0
102
RTVSPost2010Prop35
280
     0
102
RTVSPost2010PropOp35
 70
     0
102
RTVSPost2010Prop36
280
     0
102
RTVSPost2010PropOp36
 70
     0
102
RTVSPost2010Prop37
 90
       50
102
RTVSPost2010PropOp37
 70
     0
102
RTVSPost2010Prop38
140
0.0
102
RTVSPost2010PropOp38
 70
     0
102
RTVSPost2010Prop39
140
1.0
102
RTVSPost2010PropOp39
 70
     0
102
RTVSPost2010Prop40
 90
        0
102
RTVSPost2010PropOp40
 70
     0
102
RTVSPost2010Prop41ColorIndex
 90
       18
102
RTVSPost2010Prop41ColorRGB
 90
        0
102
RTVSPost2010PropOp41
 70
     0
102
RTVSPost2010Prop42
 90
       50
102
RTVSPost2010PropOp42
 70
     0
102
RTVSPost2010Prop43
 90
        3
102
RTVSPost2010PropOp43
 70
     0
102
RTVSPost2010Prop44ColorIndex
 90
        5
102
RTVSPost2010Prop44ColorRGB
 90
      255
102
RTVSPost2010PropOp44
 70
     0
102
RTVSPost2010Prop45
280
     0
102
RTVSPost2010PropOp45
 70
     0
102
RTVSPost2010Prop46
 90
       50
102
RTVSPost2010PropOp46
 70
     0
102
RTVSPost2010Prop47
 90
       50
102
RTVSPost2010PropOp47
 70
     0
102
RTVSPost2010Prop48
 90
       50
102
RTVSPost2010PropOp48
 70
     0
102
RTVSPost2010Prop49
280
     0
102
RTVSPost2010PropOp49
 70
     0
102
RTVSPost2010Prop50
 90
       50
102
RTVSPost2010PropOp50
 70
     0
102
RTVSPost2010Prop51ColorIndex
 90
      256
102
RTVSPost2010Prop51ColorRGB
 90
-16777216
102
RTVSPost2010PropOp51
 70
     0
102
RTVSPost2010Prop52
140
1.0
102
RTVSPost2010PropOp52
 70
     0
102
RTVSPost2010Prop53
 90
        2
102
RTVSPost2010PropOp53
 70
     0
102
RTVSPost2010Prop54
  1
strokes_ogs.tif
102
RTVSPost2010PropOp54
 70
     0
102
RTVSPost2010Prop55
280
     0
102
RTVSPost2010PropOp55
 70
     0
102
RTVSPost2010Prop56
140
1.0
102
RTVSPost2010PropOp56
 70
     0
102
RTVSPost2010Prop57
140
1.0
102
RTVSPost2010PropOp57
 70
     0
  0
XRECORD
  5
17D
102
{ACAD_REACTORS
330
17C
102
}
330
17C
100
AcDbXrecord
280
     1
102
RTVSPost2010Prop28
280
     0
102
RTVSPost2010PropOp28
 70
     1
102
RTVSPost2010Prop29
280
     1
102
RTVSPost2010PropOp29
 70
     1
102
RTVSPost2010Prop30
280
     1
102
RTVSPost2010PropOp30
 70
     1
102
RTVSPost2010Prop31
280
     0
102
RTVSPost2010PropOp31
 70
     1
102
RTVSPost2010Prop32
280
     0
102
RTVSPost2010PropOp32
 70
     1
102
RTVSPost2010Prop33
280
     0
102
RTVSPost2010PropOp33
 70
     1
102
RTVSPost2010Prop34
280
     0
102
RTVSPost2010PropOp34
 70
     1
102
RTVSPost2010Prop35
280
     0
102
RTVSPost2010PropOp35
 70
     1
102
RTVSPost2010Prop36
280
     0
102
RTVSPost2010PropOp36
 70
     1
102
RTVSPost2010Prop37
 90
       50
102
RTVSPost2010PropOp37
 70
     1
102
RTVSPost2010Prop38
140
0.0
102
RTVSPost2010PropOp38
 70
     1
102
RTVSPost2010Prop39
140
1.0
102
RTVSPost2010PropOp39
 70
     1
102
RTVSPost2010Prop40
 90
        0
102
RTVSPost2010PropOp40
 70
     1
102
RTVSPost2010Prop41ColorIndex
 90
       18
102
RTVSPost2010Prop41ColorRGB
 90
        0
102
RTVSPost2010PropOp41
 70
     1
102
RTVSPost2010Prop42
 90
       50
102
RTVSPost2010PropOp42
 70
     1
102
RTVSPost2010Prop43
 90
        3
102
RTVSPost2010PropOp43
 70
     1
102
RTVSPost2010Prop44ColorIndex
 90
        5
102
RTVSPost2010Prop44ColorRGB
 90
      255
102
RTVSPost2010PropOp44
 70
     1
102
RTVSPost2010Prop45
280
     0
102
RTVSPost2010PropOp45
 70
     1
102
RTVSPost2010Prop46
 90
       50
102
RTVSPost2010PropOp46
 70
     1
102
RTVSPost2010Prop47
 90
       50
102
RTVSPost2010PropOp47
 70
     1
102
RTVSPost2010Prop48
 90
       50
102
RTVSPost2010PropOp48
 70
     1
102
RTVSPost2010Prop49
280
     0
102
RTVSPost2010PropOp49
 70
     1
102
RTVSPost2010Prop50
 90
       50
102
RTVSPost2010PropOp50
 70
     1
102
RTVSPost2010Prop51ColorIndex
 90
      256
102
RTVSPost2010Prop51ColorRGB
 90
-16777216
102
RTVSPost2010PropOp51
 70
     0
102
RTVSPost2010Prop52
140
1.0
102
RTVSPost2010PropOp52
 70
     0
102
RTVSPost2010Prop53
 90
        2
102
RTVSPost2010PropOp53
 70
     1
102
RTVSPost2010Prop54
  1
strokes_ogs.tif
102
RTVSPost2010PropOp54
 70
     1
102
RTVSPost2010Prop55
280
     0
102
RTVSPost2010PropOp55
 70
     1
102
RTVSPost2010Prop56
140
1.0
102
RTVSPost2010PropOp56
 70
     1
102
RTVSPost2010Prop57
140
1.0
102
RTVSPost2010PropOp57
 70
     1
  0
XRECORD
  5
161
102
{ACAD_REACTORS
330
160
102
}
330
160
100
AcDbXrecord
280
     1
102
RTVSPost2010Prop28
280
     0
102
RTVSPost2010PropOp28
 70
     1
102
RTVSPost2010Prop29
280
     1
102
RTVSPost2010PropOp29
 70
     1
102
RTVSPost2010Prop30
280
     1
102
RTVSPost2010PropOp30
 70
     1
102
RTVSPost2010Prop31
280
     0
102
RTVSPost2010PropOp31
 70
     1
102
RTVSPost2010Prop32
280
     0
102
RTVSPost2010PropOp32
 70
     1
102
RTVSPost2010Prop33
280
     0
102
RTVSPost2010PropOp33
 70
     1
102
RTVSPost2010Prop34
280
     0
102
RTVSPost2010PropOp34
 70
     1
102
RTVSPost2010Prop35
280
     0
102
RTVSPost2010PropOp35
 70
     1
102
RTVSPost2010Prop36
280
     0
102
RTVSPost2010PropOp36
 70
     1
102
RTVSPost2010Prop37
 90
       50
102
RTVSPost2010PropOp37
 70
     1
102
RTVSPost2010Prop38
140
0.0
102
RTVSPost2010PropOp38
 70
     1
102
RTVSPost2010Prop39
140
1.0
102
RTVSPost2010PropOp39
 70
     1
102
RTVSPost2010Prop40
 90
        0
102
RTVSPost2010PropOp40
 70
     1
102
RTVSPost2010Prop41ColorIndex
 90
       18
102
RTVSPost2010Prop41ColorRGB
 90
        0
102
RTVSPost2010PropOp41
 70
     1
102
RTVSPost2010Prop42
 90
       50
102
RTVSPost2010PropOp42
 70
     1
102
RTVSPost2010Prop43
 90
        3
102
RTVSPost2010PropOp43
 70
     1
102
RTVSPost2010Prop44ColorIndex
 90
        5
102
RTVSPost2010Prop44ColorRGB
 90
      255
102
RTVSPost2010PropOp44
 70
     1
102
RTVSPost2010Prop45
280
     0
102
RTVSPost2010PropOp45
 70
     1
102
RTVSPost2010Prop46
 90
       50
102
RTVSPost2010PropOp46
 70
     1
102
RTVSPost2010Prop47
 90
       50
102
RTVSPost2010PropOp47
 70
     1
102
RTVSPost2010Prop48
 90
       50
102
RTVSPost2010PropOp48
 70
     1
102
RTVSPost2010Prop49
280
     0
102
RTVSPost2010PropOp49
 70
     1
102
RTVSPost2010Prop50
 90
       50
102
RTVSPost2010PropOp50
 70
     1
102
RTVSPost2010Prop51ColorIndex
 90
      256
102
RTVSPost2010Prop51ColorRGB
 90
-16777216
102
RTVSPost2010PropOp51
 70
     0
102
RTVSPost2010Prop52
140
1.0
102
RTVSPost2010PropOp52
 70
     0
102
RTVSPost2010Prop53
 90
        2
102
RTVSPost2010PropOp53
 70
     1
102
RTVSPost2010Prop54
  1
strokes_ogs.tif
102
RTVSPost2010PropOp54
 70
     1
102
RTVSPost2010Prop55
280
     0
102
RTVSPost2010PropOp55
 70
     1
102
RTVSPost2010Prop56
140
1.0
102
RTVSPost2010PropOp56
 70
     1
102
RTVSPost2010Prop57
140
1.0
102
RTVSPost2010PropOp57
 70
     1
  0
XRECORD
  5
163
102
{ACAD_REACTORS
330
162
102
}
330
162
100
AcDbXrecord
280
     1
102
RTVSPost2010Prop28
280
     0
102
RTVSPost2010PropOp28
 70
     1
102
RTVSPost2010Prop29
280
     1
102
RTVSPost2010PropOp29
 70
     1
102
RTVSPost2010Prop30
280
     1
102
RTVSPost2010PropOp30
 70
     1
102
RTVSPost2010Prop31
280
     0
102
RTVSPost2010PropOp31
 70
     1
102
RTVSPost2010Prop32
280
     0
102
RTVSPost2010PropOp32
 70
     1
102
RTVSPost2010Prop33
280
     0
102
RTVSPost2010PropOp33
 70
     1
102
RTVSPost2010Prop34
280
     0
102
RTVSPost2010PropOp34
 70
     1
102
RTVSPost2010Prop35
280
     0
102
RTVSPost2010PropOp35
 70
     1
102
RTVSPost2010Prop36
280
     0
102
RTVSPost2010PropOp36
 70
     1
102
RTVSPost2010Prop37
 90
       50
102
RTVSPost2010PropOp37
 70
     1
102
RTVSPost2010Prop38
140
0.0
102
RTVSPost2010PropOp38
 70
     1
102
RTVSPost2010Prop39
140
1.0
102
RTVSPost2010PropOp39
 70
     1
102
RTVSPost2010Prop40
 90
        0
102
RTVSPost2010PropOp40
 70
     1
102
RTVSPost2010Prop41ColorIndex
 90
       18
102
RTVSPost2010Prop41ColorRGB
 90
        0
102
RTVSPost2010PropOp41
 70
     1
102
RTVSPost2010Prop42
 90
       50
102
RTVSPost2010PropOp42
 70
     1
102
RTVSPost2010Prop43
 90
        3
102
RTVSPost2010PropOp43
 70
     1
102
RTVSPost2010Prop44ColorIndex
 90
        5
102
RTVSPost2010Prop44ColorRGB
 90
      255
102
RTVSPost2010PropOp44
 70
     1
102
RTVSPost2010Prop45
280
     0
102
RTVSPost2010PropOp45
 70
     1
102
RTVSPost2010Prop46
 90
       50
102
RTVSPost2010PropOp46
 70
     1
102
RTVSPost2010Prop47
 90
       50
102
RTVSPost2010PropOp47
 70
     1
102
RTVSPost2010Prop48
 90
       50
102
RTVSPost2010PropOp48
 70
     1
102
RTVSPost2010Prop49
280
     0
102
RTVSPost2010PropOp49
 70
     1
102
RTVSPost2010Prop50
 90
       50
102
RTVSPost2010PropOp50
 70
     1
102
RTVSPost2010Prop51ColorIndex
 90
      256
102
RTVSPost2010Prop51ColorRGB
 90
-16777216
102
RTVSPost2010PropOp51
 70
     0
102
RTVSPost2010Prop52
140
1.0
102
RTVSPost2010PropOp52
 70
     0
102
RTVSPost2010Prop53
 90
        2
102
RTVSPost2010PropOp53
 70
     1
102
RTVSPost2010Prop54
  1
strokes_ogs.tif
102
RTVSPost2010PropOp54
 70
     1
102
RTVSPost2010Prop55
280
     0
102
RTVSPost2010PropOp55
 70
     1
102
RTVSPost2010Prop56
140
1.0
102
RTVSPost2010PropOp56
 70
     1
102
RTVSPost2010Prop57
140
1.0
102
RTVSPost2010PropOp57
 70
     1
  0
XRECORD
  5
165
102
{ACAD_REACTORS
330
164
102
}
330
164
100
AcDbXrecord
280
     1
102
RTVSPost2010Prop28
280
     0
102
RTVSPost2010PropOp28
 70
     1
102
RTVSPost2010Prop29
280
     1
102
RTVSPost2010PropOp29
 70
     1
102
RTVSPost2010Prop30
280
     1
102
RTVSPost2010PropOp30
 70
     1
102
RTVSPost2010Prop31
280
     0
102
RTVSPost2010PropOp31
 70
     1
102
RTVSPost2010Prop32
280
     0
102
RTVSPost2010PropOp32
 70
     1
102
RTVSPost2010Prop33
280
     0
102
RTVSPost2010PropOp33
 70
     1
102
RTVSPost2010Prop34
280
     0
102
RTVSPost2010PropOp34
 70
     1
102
RTVSPost2010Prop35
280
     0
102
RTVSPost2010PropOp35
 70
     1
102
RTVSPost2010Prop36
280
     0
102
RTVSPost2010PropOp36
 70
     1
102
RTVSPost2010Prop37
 90
       50
102
RTVSPost2010PropOp37
 70
     1
102
RTVSPost2010Prop38
140
0.0
102
RTVSPost2010PropOp38
 70
     1
102
RTVSPost2010Prop39
140
1.0
102
RTVSPost2010PropOp39
 70
     1
102
RTVSPost2010Prop40
 90
        0
102
RTVSPost2010PropOp40
 70
     1
102
RTVSPost2010Prop41ColorIndex
 90
       18
102
RTVSPost2010Prop41ColorRGB
 90
        0
102
RTVSPost2010PropOp41
 70
     1
102
RTVSPost2010Prop42
 90
       50
102
RTVSPost2010PropOp42
 70
     1
102
RTVSPost2010Prop43
 90
        3
102
RTVSPost2010PropOp43
 70
     1
102
RTVSPost2010Prop44ColorIndex
 90
        5
102
RTVSPost2010Prop44ColorRGB
 90
      255
102
RTVSPost2010PropOp44
 70
     1
102
RTVSPost2010Prop45
280
     0
102
RTVSPost2010PropOp45
 70
     1
102
RTVSPost2010Prop46
 90
       50
102
RTVSPost2010PropOp46
 70
     1
102
RTVSPost2010Prop47
 90
       50
102
RTVSPost2010PropOp47
 70
     1
102
RTVSPost2010Prop48
 90
       50
102
RTVSPost2010PropOp48
 70
     1
102
RTVSPost2010Prop49
280
     0
102
RTVSPost2010PropOp49
 70
     1
102
RTVSPost2010Prop50
 90
       50
102
RTVSPost2010PropOp50
 70
     1
102
RTVSPost2010Prop51ColorIndex
 90
      256
102
RTVSPost2010Prop51ColorRGB
 90
-16777216
102
RTVSPost2010PropOp51
 70
     0
102
RTVSPost2010Prop52
140
1.0
102
RTVSPost2010PropOp52
 70
     0
102
RTVSPost2010Prop53
 90
        2
102
RTVSPost2010PropOp53
 70
     1
102
RTVSPost2010Prop54
  1
strokes_ogs.tif
102
RTVSPost2010PropOp54
 70
     1
102
RTVSPost2010Prop55
280
     0
102
RTVSPost2010PropOp55
 70
     1
102
RTVSPost2010Prop56
140
1.0
102
RTVSPost2010PropOp56
 70
     1
102
RTVSPost2010Prop57
140
1.0
102
RTVSPost2010PropOp57
 70
     1
  0
XRECORD
  5
167
102
{ACAD_REACTORS
330
166
102
}
330
166
100
AcDbXrecord
280
     1
102
RTVSPost2010Prop28
280
     0
102
RTVSPost2010PropOp28
 70
     1
102
RTVSPost2010Prop29
280
     1
102
RTVSPost2010PropOp29
 70
     1
102
RTVSPost2010Prop30
280
     1
102
RTVSPost2010PropOp30
 70
     1
102
RTVSPost2010Prop31
280
     0
102
RTVSPost2010PropOp31
 70
     1
102
RTVSPost2010Prop32
280
     0
102
RTVSPost2010PropOp32
 70
     1
102
RTVSPost2010Prop33
280
     0
102
RTVSPost2010PropOp33
 70
     1
102
RTVSPost2010Prop34
280
     0
102
RTVSPost2010PropOp34
 70
     1
102
RTVSPost2010Prop35
280
     0
102
RTVSPost2010PropOp35
 70
     1
102
RTVSPost2010Prop36
280
     0
102
RTVSPost2010PropOp36
 70
     1
102
RTVSPost2010Prop37
 90
       50
102
RTVSPost2010PropOp37
 70
     1
102
RTVSPost2010Prop38
140
0.0
102
RTVSPost2010PropOp38
 70
     1
102
RTVSPost2010Prop39
140
1.0
102
RTVSPost2010PropOp39
 70
     1
102
RTVSPost2010Prop40
 90
        0
102
RTVSPost2010PropOp40
 70
     1
102
RTVSPost2010Prop41ColorIndex
 90
       18
102
RTVSPost2010Prop41ColorRGB
 90
        0
102
RTVSPost2010PropOp41
 70
     1
102
RTVSPost2010Prop42
 90
       50
102
RTVSPost2010PropOp42
 70
     1
102
RTVSPost2010Prop43
 90
        3
102
RTVSPost2010PropOp43
 70
     1
102
RTVSPost2010Prop44ColorIndex
 90
        5
102
RTVSPost2010Prop44ColorRGB
 90
      255
102
RTVSPost2010PropOp44
 70
     1
102
RTVSPost2010Prop45
280
     0
102
RTVSPost2010PropOp45
 70
     1
102
RTVSPost2010Prop46
 90
       50
102
RTVSPost2010PropOp46
 70
     1
102
RTVSPost2010Prop47
 90
       50
102
RTVSPost2010PropOp47
 70
     1
102
RTVSPost2010Prop48
 90
       50
102
RTVSPost2010PropOp48
 70
     1
102
RTVSPost2010Prop49
280
     0
102
RTVSPost2010PropOp49
 70
     1
102
RTVSPost2010Prop50
 90
       50
102
RTVSPost2010PropOp50
 70
     1
102
RTVSPost2010Prop51ColorIndex
 90
      256
102
RTVSPost2010Prop51ColorRGB
 90
-16777216
102
RTVSPost2010PropOp51
 70
     0
102
RTVSPost2010Prop52
140
1.0
102
RTVSPost2010PropOp52
 70
     0
102
RTVSPost2010Prop53
 90
        2
102
RTVSPost2010PropOp53
 70
     1
102
RTVSPost2010Prop54
  1
strokes_ogs.tif
102
RTVSPost2010PropOp54
 70
     1
102
RTVSPost2010Prop55
280
     0
102
RTVSPost2010PropOp55
 70
     1
102
RTVSPost2010Prop56
140
1.0
102
RTVSPost2010PropOp56
 70
     1
102
RTVSPost2010Prop57
140
1.0
102
RTVSPost2010PropOp57
 70
     1
  0
XRECORD
  5
16F
102
{ACAD_REACTORS
330
16E
102
}
330
16E
100
AcDbXrecord
280
     1
102
RTVSPost2010Prop28
280
     0
102
RTVSPost2010PropOp28
 70
     1
102
RTVSPost2010Prop29
280
     1
102
RTVSPost2010PropOp29
 70
     1
102
RTVSPost2010Prop30
280
     1
102
RTVSPost2010PropOp30
 70
     1
102
RTVSPost2010Prop31
280
     0
102
RTVSPost2010PropOp31
 70
     1
102
RTVSPost2010Prop32
280
     0
102
RTVSPost2010PropOp32
 70
     1
102
RTVSPost2010Prop33
280
     0
102
RTVSPost2010PropOp33
 70
     1
102
RTVSPost2010Prop34
280
     0
102
RTVSPost2010PropOp34
 70
     1
102
RTVSPost2010Prop35
280
     0
102
RTVSPost2010PropOp35
 70
     1
102
RTVSPost2010Prop36
280
     0
102
RTVSPost2010PropOp36
 70
     1
102
RTVSPost2010Prop37
 90
       50
102
RTVSPost2010PropOp37
 70
     1
102
RTVSPost2010Prop38
140
0.0
102
RTVSPost2010PropOp38
 70
     1
102
RTVSPost2010Prop39
140
1.0
102
RTVSPost2010PropOp39
 70
     1
102
RTVSPost2010Prop40
 90
        0
102
RTVSPost2010PropOp40
 70
     1
102
RTVSPost2010Prop41ColorIndex
 90
       18
102
RTVSPost2010Prop41ColorRGB
 90
        0
102
RTVSPost2010PropOp41
 70
     1
102
RTVSPost2010Prop42
 90
       50
102
RTVSPost2010PropOp42
 70
     1
102
RTVSPost2010Prop43
 90
        3
102
RTVSPost2010PropOp43
 70
     1
102
RTVSPost2010Prop44ColorIndex
 90
        5
102
RTVSPost2010Prop44ColorRGB
 90
      255
102
RTVSPost2010PropOp44
 70
     1
102
RTVSPost2010Prop45
280
     0
102
RTVSPost2010PropOp45
 70
     1
102
RTVSPost2010Prop46
 90
       50
102
RTVSPost2010PropOp46
 70
     1
102
RTVSPost2010Prop47
 90
       50
102
RTVSPost2010PropOp47
 70
     1
102
RTVSPost2010Prop48
 90
       50
102
RTVSPost2010PropOp48
 70
     1
102
RTVSPost2010Prop49
280
     0
102
RTVSPost2010PropOp49
 70
     1
102
RTVSPost2010Prop50
 90
       50
102
RTVSPost2010PropOp50
 70
     1
102
RTVSPost2010Prop51ColorIndex
 90
      256
102
RTVSPost2010Prop51ColorRGB
 90
-16777216
102
RTVSPost2010PropOp51
 70
     0
102
RTVSPost2010Prop52
140
1.0
102
RTVSPost2010PropOp52
 70
     0
102
RTVSPost2010Prop53
 90
        2
102
RTVSPost2010PropOp53
 70
     1
102
RTVSPost2010Prop54
  1
strokes_ogs.tif
102
RTVSPost2010PropOp54
 70
     1
102
RTVSPost2010Prop55
280
     0
102
RTVSPost2010PropOp55
 70
     1
102
RTVSPost2010Prop56
140
1.0
102
RTVSPost2010PropOp56
 70
     1
102
RTVSPost2010Prop57
140
1.0
102
RTVSPost2010PropOp57
 70
     1
  0
XRECORD
  5
18B
102
{ACAD_REACTORS
330
18A
102
}
330
18A
100
AcDbXrecord
280
     1
102
RTVSPost2010Prop28
280
     0
102
RTVSPost2010PropOp28
 70
     0
102
RTVSPost2010Prop29
280
     1
102
RTVSPost2010PropOp29
 70
     0
102
RTVSPost2010Prop30
280
     1
102
RTVSPost2010PropOp30
 70
     0
102
RTVSPost2010Prop31
280
     0
102
RTVSPost2010PropOp31
 70
     0
102
RTVSPost2010Prop32
280
     0
102
RTVSPost2010PropOp32
 70
     0
102
RTVSPost2010Prop33
280
     0
102
RTVSPost2010PropOp33
 70
     0
102
RTVSPost2010Prop34
280
     0
102
RTVSPost2010PropOp34
 70
     0
102
RTVSPost2010Prop35
280
     0
102
RTVSPost2010PropOp35
 70
     0
102
RTVSPost2010Prop36
280
     0
102
RTVSPost2010PropOp36
 70
     0
102
RTVSPost2010Prop37
 90
       50
102
RTVSPost2010PropOp37
 70
     0
102
RTVSPost2010Prop38
140
0.0
102
RTVSPost2010PropOp38
 70
     0
102
RTVSPost2010Prop39
140
1.0
102
RTVSPost2010PropOp39
 70
     0
102
RTVSPost2010Prop40
 90
        0
102
RTVSPost2010PropOp40
 70
     0
102
RTVSPost2010Prop41ColorIndex
 90
       18
102
RTVSPost2010Prop41ColorRGB
 90
        0
102
RTVSPost2010PropOp41
 70
     0
102
RTVSPost2010Prop42
 90
       50
102
RTVSPost2010PropOp42
 70
     0
102
RTVSPost2010Prop43
 90
        3
102
RTVSPost2010PropOp43
 70
     0
102
RTVSPost2010Prop44ColorIndex
 90
        5
102
RTVSPost2010Prop44ColorRGB
 90
      255
102
RTVSPost2010PropOp44
 70
     0
102
RTVSPost2010Prop45
280
     0
102
RTVSPost2010PropOp45
 70
     0
102
RTVSPost2010Prop46
 90
       50
102
RTVSPost2010PropOp46
 70
     0
102
RTVSPost2010Prop47
 90
       50
102
RTVSPost2010PropOp47
 70
     0
102
RTVSPost2010Prop48
 90
       50
102
RTVSPost2010PropOp48
 70
     0
102
RTVSPost2010Prop49
280
     0
102
RTVSPost2010PropOp49
 70
     0
102
RTVSPost2010Prop50
 90
       50
102
RTVSPost2010PropOp50
 70
     0
102
RTVSPost2010Prop51ColorIndex
 90
      256
102
RTVSPost2010Prop51ColorRGB
 90
-16777216
102
RTVSPost2010PropOp51
 70
     0
102
RTVSPost2010Prop52
140
1.0
102
RTVSPost2010PropOp52
 70
     0
102
RTVSPost2010Prop53
 90
        2
102
RTVSPost2010PropOp53
 70
     0
102
RTVSPost2010Prop54
  1
strokes_ogs.tif
102
RTVSPost2010PropOp54
 70
     0
102
RTVSPost2010Prop55
280
     0
102
RTVSPost2010PropOp55
 70
     0
102
RTVSPost2010Prop56
140
1.0
102
RTVSPost2010PropOp56
 70
     0
102
RTVSPost2010Prop57
140
1.0
102
RTVSPost2010PropOp57
 70
     0
  0
XRECORD
  5
17B
102
{ACAD_REACTORS
330
17A
102
}
330
17A
100
AcDbXrecord
280
     1
102
RTVSPost2010Prop28
280
     0
102
RTVSPost2010PropOp28
 70
     1
102
RTVSPost2010Prop29
280
     1
102
RTVSPost2010PropOp29
 70
     1
102
RTVSPost2010Prop30
280
     1
102
RTVSPost2010PropOp30
 70
     1
102
RTVSPost2010Prop31
280
     0
102
RTVSPost2010PropOp31
 70
     1
102
RTVSPost2010Prop32
280
     0
102
RTVSPost2010PropOp32
 70
     1
102
RTVSPost2010Prop33
280
     0
102
RTVSPost2010PropOp33
 70
     1
102
RTVSPost2010Prop34
280
     0
102
RTVSPost2010PropOp34
 70
     1
102
RTVSPost2010Prop35
280
     0
102
RTVSPost2010PropOp35
 70
     1
102
RTVSPost2010Prop36
280
     0
102
RTVSPost2010PropOp36
 70
     1
102
RTVSPost2010Prop37
 90
       50
102
RTVSPost2010PropOp37
 70
     1
102
RTVSPost2010Prop38
140
0.0
102
RTVSPost2010PropOp38
 70
     1
102
RTVSPost2010Prop39
140
1.0
102
RTVSPost2010PropOp39
 70
     1
102
RTVSPost2010Prop40
 90
        0
102
RTVSPost2010PropOp40
 70
     1
102
RTVSPost2010Prop41ColorIndex
 90
       18
102
RTVSPost2010Prop41ColorRGB
 90
        0
102
RTVSPost2010PropOp41
 70
     1
102
RTVSPost2010Prop42
 90
       50
102
RTVSPost2010PropOp42
 70
     1
102
RTVSPost2010Prop43
 90
        3
102
RTVSPost2010PropOp43
 70
     1
102
RTVSPost2010Prop44ColorIndex
 90
        5
102
RTVSPost2010Prop44ColorRGB
 90
      255
102
RTVSPost2010PropOp44
 70
     1
102
RTVSPost2010Prop45
280
     0
102
RTVSPost2010PropOp45
 70
     1
102
RTVSPost2010Prop46
 90
       50
102
RTVSPost2010PropOp46
 70
     1
102
RTVSPost2010Prop47
 90
       50
102
RTVSPost2010PropOp47
 70
     1
102
RTVSPost2010Prop48
 90
       50
102
RTVSPost2010PropOp48
 70
     1
102
RTVSPost2010Prop49
280
     0
102
RTVSPost2010PropOp49
 70
     1
102
RTVSPost2010Prop50
 90
       50
102
RTVSPost2010PropOp50
 70
     1
102
RTVSPost2010Prop51ColorIndex
 90
      256
102
RTVSPost2010Prop51ColorRGB
 90
-16777216
102
RTVSPost2010PropOp51
 70
     0
102
RTVSPost2010Prop52
140
1.0
102
RTVSPost2010PropOp52
 70
     0
102
RTVSPost2010Prop53
 90
        2
102
RTVSPost2010PropOp53
 70
     1
102
RTVSPost2010Prop54
  1
strokes_ogs.tif
102
RTVSPost2010PropOp54
 70
     1
102
RTVSPost2010Prop55
280
     0
102
RTVSPost2010PropOp55
 70
     1
102
RTVSPost2010Prop56
140
1.0
102
RTVSPost2010PropOp56
 70
     1
102
RTVSPost2010Prop57
140
1.0
102
RTVSPost2010PropOp57
 70
     1
  0
XRECORD
  5
18D
102
{ACAD_REACTORS
330
18C
102
}
330
18C
100
AcDbXrecord
280
     1
102
RTVSPost2010Prop28
280
     0
102
RTVSPost2010PropOp28
 70
     0
102
RTVSPost2010Prop29
280
     1
102
RTVSPost2010PropOp29
 70
     0
102
RTVSPost2010Prop30
280
     1
102
RTVSPost2010PropOp30
 70
     0
102
RTVSPost2010Prop31
280
     0
102
RTVSPost2010PropOp31
 70
     0
102
RTVSPost2010Prop32
280
     0
102
RTVSPost2010PropOp32
 70
     0
102
RTVSPost2010Prop33
280
     0
102
RTVSPost2010PropOp33
 70
     0
102
RTVSPost2010Prop34
280
     0
102
RTVSPost2010PropOp34
 70
     0
102
RTVSPost2010Prop35
280
     0
102
RTVSPost2010PropOp35
 70
     0
102
RTVSPost2010Prop36
280
     0
102
RTVSPost2010PropOp36
 70
     0
102
RTVSPost2010Prop37
 90
       50
102
RTVSPost2010PropOp37
 70
     0
102
RTVSPost2010Prop38
140
0.0
102
RTVSPost2010PropOp38
 70
     0
102
RTVSPost2010Prop39
140
1.0
102
RTVSPost2010PropOp39
 70
     0
102
RTVSPost2010Prop40
 90
        0
102
RTVSPost2010PropOp40
 70
     0
102
RTVSPost2010Prop41ColorIndex
 90
       18
102
RTVSPost2010Prop41ColorRGB
 90
        0
102
RTVSPost2010PropOp41
 70
     0
102
RTVSPost2010Prop42
 90
       50
102
RTVSPost2010PropOp42
 70
     0
102
RTVSPost2010Prop43
 90
        3
102
RTVSPost2010PropOp43
 70
     0
102
RTVSPost2010Prop44ColorIndex
 90
        5
102
RTVSPost2010Prop44ColorRGB
 90
      255
102
RTVSPost2010PropOp44
 70
     0
102
RTVSPost2010Prop45
280
     0
102
RTVSPost2010PropOp45
 70
     0
102
RTVSPost2010Prop46
 90
       50
102
RTVSPost2010PropOp46
 70
     0
102
RTVSPost2010Prop47
 90
       50
102
RTVSPost2010PropOp47
 70
     0
102
RTVSPost2010Prop48
 90
       50
102
RTVSPost2010PropOp48
 70
     0
102
RTVSPost2010Prop49
280
     0
102
RTVSPost2010PropOp49
 70
     0
102
RTVSPost2010Prop50
 90
       50
102
RTVSPost2010PropOp50
 70
     0
102
RTVSPost2010Prop51ColorIndex
 90
      256
102
RTVSPost2010Prop51ColorRGB
 90
-16777216
102
RTVSPost2010PropOp51
 70
     0
102
RTVSPost2010Prop52
140
1.0
102
RTVSPost2010PropOp52
 70
     0
102
RTVSPost2010Prop53
 90
        2
102
RTVSPost2010PropOp53
 70
     0
102
RTVSPost2010Prop54
  1
strokes_ogs.tif
102
RTVSPost2010PropOp54
 70
     0
102
RTVSPost2010Prop55
280
     0
102
RTVSPost2010PropOp55
 70
     0
102
RTVSPost2010Prop56
140
1.0
102
RTVSPost2010PropOp56
 70
     0
102
RTVSPost2010Prop57
140
1.0
102
RTVSPost2010PropOp57
 70
     0
  0
XRECORD
  5
173
102
{ACAD_REACTORS
330
172
102
}
330
172
100
AcDbXrecord
280
     1
102
RTVSPost2010Prop28
280
     0
102
RTVSPost2010PropOp28
 70
     1
102
RTVSPost2010Prop29
280
     1
102
RTVSPost2010PropOp29
 70
     1
102
RTVSPost2010Prop30
280
     1
102
RTVSPost2010PropOp30
 70
     1
102
RTVSPost2010Prop31
280
     0
102
RTVSPost2010PropOp31
 70
     1
102
RTVSPost2010Prop32
280
     0
102
RTVSPost2010PropOp32
 70
     1
102
RTVSPost2010Prop33
280
     0
102
RTVSPost2010PropOp33
 70
     1
102
RTVSPost2010Prop34
280
     0
102
RTVSPost2010PropOp34
 70
     1
102
RTVSPost2010Prop35
280
     0
102
RTVSPost2010PropOp35
 70
     1
102
RTVSPost2010Prop36
280
     0
102
RTVSPost2010PropOp36
 70
     1
102
RTVSPost2010Prop37
 90
       50
102
RTVSPost2010PropOp37
 70
     1
102
RTVSPost2010Prop38
140
0.0
102
RTVSPost2010PropOp38
 70
     1
102
RTVSPost2010Prop39
140
1.0
102
RTVSPost2010PropOp39
 70
     1
102
RTVSPost2010Prop40
 90
        0
102
RTVSPost2010PropOp40
 70
     1
102
RTVSPost2010Prop41ColorIndex
 90
       18
102
RTVSPost2010Prop41ColorRGB
 90
        0
102
RTVSPost2010PropOp41
 70
     1
102
RTVSPost2010Prop42
 90
       50
102
RTVSPost2010PropOp42
 70
     1
102
RTVSPost2010Prop43
 90
        3
102
RTVSPost2010PropOp43
 70
     1
102
RTVSPost2010Prop44ColorIndex
 90
        5
102
RTVSPost2010Prop44ColorRGB
 90
      255
102
RTVSPost2010PropOp44
 70
     1
102
RTVSPost2010Prop45
280
     0
102
RTVSPost2010PropOp45
 70
     1
102
RTVSPost2010Prop46
 90
       50
102
RTVSPost2010PropOp46
 70
     1
102
RTVSPost2010Prop47
 90
       50
102
RTVSPost2010PropOp47
 70
     1
102
RTVSPost2010Prop48
 90
       50
102
RTVSPost2010PropOp48
 70
     1
102
RTVSPost2010Prop49
280
     0
102
RTVSPost2010PropOp49
 70
     1
102
RTVSPost2010Prop50
 90
       50
102
RTVSPost2010PropOp50
 70
     1
102
RTVSPost2010Prop51ColorIndex
 90
      256
102
RTVSPost2010Prop51ColorRGB
 90
-16777216
102
RTVSPost2010PropOp51
 70
     0
102
RTVSPost2010Prop52
140
1.0
102
RTVSPost2010PropOp52
 70
     0
102
RTVSPost2010Prop53
 90
        2
102
RTVSPost2010PropOp53
 70
     1
102
RTVSPost2010Prop54
  1
strokes_ogs.tif
102
RTVSPost2010PropOp54
 70
     1
102
RTVSPost2010Prop55
280
     0
102
RTVSPost2010PropOp55
 70
     1
102
RTVSPost2010Prop56
140
1.0
102
RTVSPost2010PropOp56
 70
     1
102
RTVSPost2010Prop57
140
1.0
102
RTVSPost2010PropOp57
 70
     1
  0
XRECORD
  5
189
102
{ACAD_REACTORS
330
188
102
}
330
188
100
AcDbXrecord
280
     1
102
RTVSPost2010Prop28
280
     0
102
RTVSPost2010PropOp28
 70
     1
102
RTVSPost2010Prop29
280
     1
102
RTVSPost2010PropOp29
 70
     1
102
RTVSPost2010Prop30
280
     1
102
RTVSPost2010PropOp30
 70
     1
102
RTVSPost2010Prop31
280
     0
102
RTVSPost2010PropOp31
 70
     1
102
RTVSPost2010Prop32
280
     0
102
RTVSPost2010PropOp32
 70
     1
102
RTVSPost2010Prop33
280
     0
102
RTVSPost2010PropOp33
 70
     1
102
RTVSPost2010Prop34
280
     0
102
RTVSPost2010PropOp34
 70
     1
102
RTVSPost2010Prop35
280
     0
102
RTVSPost2010PropOp35
 70
     1
102
RTVSPost2010Prop36
280
     0
102
RTVSPost2010PropOp36
 70
     1
102
RTVSPost2010Prop37
 90
       50
102
RTVSPost2010PropOp37
 70
     1
102
RTVSPost2010Prop38
140
0.0
102
RTVSPost2010PropOp38
 70
     1
102
RTVSPost2010Prop39
140
1.0
102
RTVSPost2010PropOp39
 70
     1
102
RTVSPost2010Prop40
 90
        0
102
RTVSPost2010PropOp40
 70
     1
102
RTVSPost2010Prop41ColorIndex
 90
       18
102
RTVSPost2010Prop41ColorRGB
 90
        0
102
RTVSPost2010PropOp41
 70
     1
102
RTVSPost2010Prop42
 90
       50
102
RTVSPost2010PropOp42
 70
     1
102
RTVSPost2010Prop43
 90
        3
102
RTVSPost2010PropOp43
 70
     1
102
RTVSPost2010Prop44ColorIndex
 90
        5
102
RTVSPost2010Prop44ColorRGB
 90
      255
102
RTVSPost2010PropOp44
 70
     1
102
RTVSPost2010Prop45
280
     0
102
RTVSPost2010PropOp45
 70
     1
102
RTVSPost2010Prop46
 90
       50
102
RTVSPost2010PropOp46
 70
     1
102
RTVSPost2010Prop47
 90
       50
102
RTVSPost2010PropOp47
 70
     1
102
RTVSPost2010Prop48
 90
       50
102
RTVSPost2010PropOp48
 70
     1
102
RTVSPost2010Prop49
280
     0
102
RTVSPost2010PropOp49
 70
     1
102
RTVSPost2010Prop50
 90
       50
102
RTVSPost2010PropOp50
 70
     1
102
RTVSPost2010Prop51ColorIndex
 90
      256
102
RTVSPost2010Prop51ColorRGB
 90
-16777216
102
RTVSPost2010PropOp51
 70
     0
102
RTVSPost2010Prop52
140
1.0
102
RTVSPost2010PropOp52
 70
     0
102
RTVSPost2010Prop53
 90
        2
102
RTVSPost2010PropOp53
 70
     1
102
RTVSPost2010Prop54
  1
strokes_ogs.tif
102
RTVSPost2010PropOp54
 70
     1
102
RTVSPost2010Prop55
280
     0
102
RTVSPost2010PropOp55
 70
     1
102
RTVSPost2010Prop56
140
1.0
102
RTVSPost2010PropOp56
 70
     1
102
RTVSPost2010Prop57
140
1.0
102
RTVSPost2010PropOp57
 70
     1
  0
XRECORD
  5
187
102
{ACAD_REACTORS
330
186
102
}
330
186
100
AcDbXrecord
280
     1
102
RTVSPost2010Prop28
280
     0
102
RTVSPost2010PropOp28
 70
     1
102
RTVSPost2010Prop29
280
     1
102
RTVSPost2010PropOp29
 70
     1
102
RTVSPost2010Prop30
280
     1
102
RTVSPost2010PropOp30
 70
     1
102
RTVSPost2010Prop31
280
     0
102
RTVSPost2010PropOp31
 70
     1
102
RTVSPost2010Prop32
280
     0
102
RTVSPost2010PropOp32
 70
     1
102
RTVSPost2010Prop33
280
     0
102
RTVSPost2010PropOp33
 70
     1
102
RTVSPost2010Prop34
280
     0
102
RTVSPost2010PropOp34
 70
     1
102
RTVSPost2010Prop35
280
     0
102
RTVSPost2010PropOp35
 70
     1
102
RTVSPost2010Prop36
280
     0
102
RTVSPost2010PropOp36
 70
     1
102
RTVSPost2010Prop37
 90
       50
102
RTVSPost2010PropOp37
 70
     1
102
RTVSPost2010Prop38
140
0.0
102
RTVSPost2010PropOp38
 70
     1
102
RTVSPost2010Prop39
140
1.0
102
RTVSPost2010PropOp39
 70
     1
102
RTVSPost2010Prop40
 90
        0
102
RTVSPost2010PropOp40
 70
     1
102
RTVSPost2010Prop41ColorIndex
 90
       18
102
RTVSPost2010Prop41ColorRGB
 90
        0
102
RTVSPost2010PropOp41
 70
     1
102
RTVSPost2010Prop42
 90
       50
102
RTVSPost2010PropOp42
 70
     1
102
RTVSPost2010Prop43
 90
        3
102
RTVSPost2010PropOp43
 70
     1
102
RTVSPost2010Prop44ColorIndex
 90
        5
102
RTVSPost2010Prop44ColorRGB
 90
      255
102
RTVSPost2010PropOp44
 70
     1
102
RTVSPost2010Prop45
280
     0
102
RTVSPost2010PropOp45
 70
     1
102
RTVSPost2010Prop46
 90
       50
102
RTVSPost2010PropOp46
 70
     1
102
RTVSPost2010Prop47
 90
       50
102
RTVSPost2010PropOp47
 70
     1
102
RTVSPost2010Prop48
 90
       50
102
RTVSPost2010PropOp48
 70
     1
102
RTVSPost2010Prop49
280
     0
102
RTVSPost2010PropOp49
 70
     1
102
RTVSPost2010Prop50
 90
       50
102
RTVSPost2010PropOp50
 70
     1
102
RTVSPost2010Prop51ColorIndex
 90
      256
102
RTVSPost2010Prop51ColorRGB
 90
-16777216
102
RTVSPost2010PropOp51
 70
     0
102
RTVSPost2010Prop52
140
1.0
102
RTVSPost2010PropOp52
 70
     0
102
RTVSPost2010Prop53
 90
        2
102
RTVSPost2010PropOp53
 70
     1
102
RTVSPost2010Prop54
  1
strokes_ogs.tif
102
RTVSPost2010PropOp54
 70
     1
102
RTVSPost2010Prop55
280
     0
102
RTVSPost2010PropOp55
 70
     1
102
RTVSPost2010Prop56
140
1.0
102
RTVSPost2010PropOp56
 70
     1
102
RTVSPost2010Prop57
140
1.0
102
RTVSPost2010PropOp57
 70
     1
  0
XRECORD
  5
181
102
{ACAD_REACTORS
330
180
102
}
330
180
100
AcDbXrecord
280
     1
102
RTVSPost2010Prop28
280
     0
102
RTVSPost2010PropOp28
 70
     1
102
RTVSPost2010Prop29
280
     1
102
RTVSPost2010PropOp29
 70
     1
102
RTVSPost2010Prop30
280
     1
102
RTVSPost2010PropOp30
 70
     1
102
RTVSPost2010Prop31
280
     0
102
RTVSPost2010PropOp31
 70
     1
102
RTVSPost2010Prop32
280
     0
102
RTVSPost2010PropOp32
 70
     1
102
RTVSPost2010Prop33
280
     0
102
RTVSPost2010PropOp33
 70
     1
102
RTVSPost2010Prop34
280
     0
102
RTVSPost2010PropOp34
 70
     1
102
RTVSPost2010Prop35
280
     0
102
RTVSPost2010PropOp35
 70
     1
102
RTVSPost2010Prop36
280
     0
102
RTVSPost2010PropOp36
 70
     1
102
RTVSPost2010Prop37
 90
       50
102
RTVSPost2010PropOp37
 70
     1
102
RTVSPost2010Prop38
140
0.0
102
RTVSPost2010PropOp38
 70
     1
102
RTVSPost2010Prop39
140
1.0
102
RTVSPost2010PropOp39
 70
     1
102
RTVSPost2010Prop40
 90
        0
102
RTVSPost2010PropOp40
 70
     1
102
RTVSPost2010Prop41ColorIndex
 90
       18
102
RTVSPost2010Prop41ColorRGB
 90
        0
102
RTVSPost2010PropOp41
 70
     1
102
RTVSPost2010Prop42
 90
       50
102
RTVSPost2010PropOp42
 70
     1
102
RTVSPost2010Prop43
 90
        3
102
RTVSPost2010PropOp43
 70
     1
102
RTVSPost2010Prop44ColorIndex
 90
        5
102
RTVSPost2010Prop44ColorRGB
 90
      255
102
RTVSPost2010PropOp44
 70
     1
102
RTVSPost2010Prop45
280
     0
102
RTVSPost2010PropOp45
 70
     1
102
RTVSPost2010Prop46
 90
       50
102
RTVSPost2010PropOp46
 70
     1
102
RTVSPost2010Prop47
 90
       50
102
RTVSPost2010PropOp47
 70
     1
102
RTVSPost2010Prop48
 90
       50
102
RTVSPost2010PropOp48
 70
     1
102
RTVSPost2010Prop49
280
     0
102
RTVSPost2010PropOp49
 70
     1
102
RTVSPost2010Prop50
 90
       50
102
RTVSPost2010PropOp50
 70
     1
102
RTVSPost2010Prop51ColorIndex
 90
      256
102
RTVSPost2010Prop51ColorRGB
 90
-16777216
102
RTVSPost2010PropOp51
 70
     0
102
RTVSPost2010Prop52
140
1.0
102
RTVSPost2010PropOp52
 70
     0
102
RTVSPost2010Prop53
 90
        2
102
RTVSPost2010PropOp53
 70
     1
102
RTVSPost2010Prop54
  1
strokes_ogs.tif
102
RTVSPost2010PropOp54
 70
     1
102
RTVSPost2010Prop55
280
     0
102
RTVSPost2010PropOp55
 70
     1
102
RTVSPost2010Prop56
140
1.0
102
RTVSPost2010PropOp56
 70
     1
102
RTVSPost2010Prop57
140
1.0
102
RTVSPost2010PropOp57
 70
     1
  0
XRECORD
  5
183
102
{ACAD_REACTORS
330
182
102
}
330
182
100
AcDbXrecord
280
     1
102
RTVSPost2010Prop28
280
     0
102
RTVSPost2010PropOp28
 70
     1
102
RTVSPost2010Prop29
280
     1
102
RTVSPost2010PropOp29
 70
     1
102
RTVSPost2010Prop30
280
     1
102
RTVSPost2010PropOp30
 70
     1
102
RTVSPost2010Prop31
280
     0
102
RTVSPost2010PropOp31
 70
     1
102
RTVSPost2010Prop32
280
     0
102
RTVSPost2010PropOp32
 70
     1
102
RTVSPost2010Prop33
280
     0
102
RTVSPost2010PropOp33
 70
     1
102
RTVSPost2010Prop34
280
     0
102
RTVSPost2010PropOp34
 70
     1
102
RTVSPost2010Prop35
280
     0
102
RTVSPost2010PropOp35
 70
     1
102
RTVSPost2010Prop36
280
     0
102
RTVSPost2010PropOp36
 70
     1
102
RTVSPost2010Prop37
 90
       50
102
RTVSPost2010PropOp37
 70
     1
102
RTVSPost2010Prop38
140
0.0
102
RTVSPost2010PropOp38
 70
     1
102
RTVSPost2010Prop39
140
1.0
102
RTVSPost2010PropOp39
 70
     1
102
RTVSPost2010Prop40
 90
        0
102
RTVSPost2010PropOp40
 70
     1
102
RTVSPost2010Prop41ColorIndex
 90
       18
102
RTVSPost2010Prop41ColorRGB
 90
        0
102
RTVSPost2010PropOp41
 70
     1
102
RTVSPost2010Prop42
 90
       50
102
RTVSPost2010PropOp42
 70
     1
102
RTVSPost2010Prop43
 90
        3
102
RTVSPost2010PropOp43
 70
     1
102
RTVSPost2010Prop44ColorIndex
 90
        5
102
RTVSPost2010Prop44ColorRGB
 90
      255
102
RTVSPost2010PropOp44
 70
     1
102
RTVSPost2010Prop45
280
     0
102
RTVSPost2010PropOp45
 70
     1
102
RTVSPost2010Prop46
 90
       50
102
RTVSPost2010PropOp46
 70
     1
102
RTVSPost2010Prop47
 90
       50
102
RTVSPost2010PropOp47
 70
     1
102
RTVSPost2010Prop48
 90
       50
102
RTVSPost2010PropOp48
 70
     1
102
RTVSPost2010Prop49
280
     0
102
RTVSPost2010PropOp49
 70
     1
102
RTVSPost2010Prop50
 90
       50
102
RTVSPost2010PropOp50
 70
     1
102
RTVSPost2010Prop51ColorIndex
 90
      256
102
RTVSPost2010Prop51ColorRGB
 90
-16777216
102
RTVSPost2010PropOp51
 70
     0
102
RTVSPost2010Prop52
140
1.0
102
RTVSPost2010PropOp52
 70
     0
102
RTVSPost2010Prop53
 90
        2
102
RTVSPost2010PropOp53
 70
     1
102
RTVSPost2010Prop54
  1
strokes_ogs.tif
102
RTVSPost2010PropOp54
 70
     1
102
RTVSPost2010Prop55
280
     0
102
RTVSPost2010PropOp55
 70
     1
102
RTVSPost2010Prop56
140
1.0
102
RTVSPost2010PropOp56
 70
     1
102
RTVSPost2010Prop57
140
1.0
102
RTVSPost2010PropOp57
 70
     1
  0
XRECORD
  5
179
102
{ACAD_REACTORS
330
178
102
}
330
178
100
AcDbXrecord
280
     1
102
RTVSPost2010Prop28
280
     0
102
RTVSPost2010PropOp28
 70
     1
102
RTVSPost2010Prop29
280
     1
102
RTVSPost2010PropOp29
 70
     1
102
RTVSPost2010Prop30
280
     1
102
RTVSPost2010PropOp30
 70
     1
102
RTVSPost2010Prop31
280
     0
102
RTVSPost2010PropOp31
 70
     1
102
RTVSPost2010Prop32
280
     0
102
RTVSPost2010PropOp32
 70
     1
102
RTVSPost2010Prop33
280
     0
102
RTVSPost2010PropOp33
 70
     1
102
RTVSPost2010Prop34
280
     0
102
RTVSPost2010PropOp34
 70
     1
102
RTVSPost2010Prop35
280
     0
102
RTVSPost2010PropOp35
 70
     1
102
RTVSPost2010Prop36
280
     0
102
RTVSPost2010PropOp36
 70
     1
102
RTVSPost2010Prop37
 90
       50
102
RTVSPost2010PropOp37
 70
     1
102
RTVSPost2010Prop38
140
0.0
102
RTVSPost2010PropOp38
 70
     1
102
RTVSPost2010Prop39
140
1.0
102
RTVSPost2010PropOp39
 70
     1
102
RTVSPost2010Prop40
 90
        0
102
RTVSPost2010PropOp40
 70
     1
102
RTVSPost2010Prop41ColorIndex
 90
       18
102
RTVSPost2010Prop41ColorRGB
 90
        0
102
RTVSPost2010PropOp41
 70
     1
102
RTVSPost2010Prop42
 90
       50
102
RTVSPost2010PropOp42
 70
     1
102
RTVSPost2010Prop43
 90
        3
102
RTVSPost2010PropOp43
 70
     1
102
RTVSPost2010Prop44ColorIndex
 90
        5
102
RTVSPost2010Prop44ColorRGB
 90
      255
102
RTVSPost2010PropOp44
 70
     1
102
RTVSPost2010Prop45
280
     0
102
RTVSPost2010PropOp45
 70
     1
102
RTVSPost2010Prop46
 90
       50
102
RTVSPost2010PropOp46
 70
     1
102
RTVSPost2010Prop47
 90
       50
102
RTVSPost2010PropOp47
 70
     1
102
RTVSPost2010Prop48
 90
       50
102
RTVSPost2010PropOp48
 70
     1
102
RTVSPost2010Prop49
280
     0
102
RTVSPost2010PropOp49
 70
     1
102
RTVSPost2010Prop50
 90
       50
102
RTVSPost2010PropOp50
 70
     1
102
RTVSPost2010Prop51ColorIndex
 90
      256
102
RTVSPost2010Prop51ColorRGB
 90
-16777216
102
RTVSPost2010PropOp51
 70
     0
102
RTVSPost2010Prop52
140
1.0
102
RTVSPost2010PropOp52
 70
     0
102
RTVSPost2010Prop53
 90
        2
102
RTVSPost2010PropOp53
 70
     1
102
RTVSPost2010Prop54
  1
strokes_ogs.tif
102
RTVSPost2010PropOp54
 70
     1
102
RTVSPost2010Prop55
280
     0
102
RTVSPost2010PropOp55
 70
     1
102
RTVSPost2010Prop56
140
1.0
102
RTVSPost2010PropOp56
 70
     1
102
RTVSPost2010Prop57
140
1.0
102
RTVSPost2010PropOp57
 70
     1
  0
XRECORD
  5
16D
102
{ACAD_REACTORS
330
16C
102
}
330
16C
100
AcDbXrecord
280
     1
102
RTVSPost2010Prop28
280
     0
102
RTVSPost2010PropOp28
 70
     1
102
RTVSPost2010Prop29
280
     1
102
RTVSPost2010PropOp29
 70
     1
102
RTVSPost2010Prop30
280
     1
102
RTVSPost2010PropOp30
 70
     1
102
RTVSPost2010Prop31
280
     0
102
RTVSPost2010PropOp31
 70
     1
102
RTVSPost2010Prop32
280
     0
102
RTVSPost2010PropOp32
 70
     1
102
RTVSPost2010Prop33
280
     0
102
RTVSPost2010PropOp33
 70
     1
102
RTVSPost2010Prop34
280
     0
102
RTVSPost2010PropOp34
 70
     1
102
RTVSPost2010Prop35
280
     0
102
RTVSPost2010PropOp35
 70
     1
102
RTVSPost2010Prop36
280
     0
102
RTVSPost2010PropOp36
 70
     1
102
RTVSPost2010Prop37
 90
       50
102
RTVSPost2010PropOp37
 70
     1
102
RTVSPost2010Prop38
140
0.0
102
RTVSPost2010PropOp38
 70
     1
102
RTVSPost2010Prop39
140
1.0
102
RTVSPost2010PropOp39
 70
     1
102
RTVSPost2010Prop40
 90
        0
102
RTVSPost2010PropOp40
 70
     1
102
RTVSPost2010Prop41ColorIndex
 90
       18
102
RTVSPost2010Prop41ColorRGB
 90
        0
102
RTVSPost2010PropOp41
 70
     1
102
RTVSPost2010Prop42
 90
       50
102
RTVSPost2010PropOp42
 70
     1
102
RTVSPost2010Prop43
 90
        3
102
RTVSPost2010PropOp43
 70
     1
102
RTVSPost2010Prop44ColorIndex
 90
        5
102
RTVSPost2010Prop44ColorRGB
 90
      255
102
RTVSPost2010PropOp44
 70
     1
102
RTVSPost2010Prop45
280
     0
102
RTVSPost2010PropOp45
 70
     1
102
RTVSPost2010Prop46
 90
       50
102
RTVSPost2010PropOp46
 70
     1
102
RTVSPost2010Prop47
 90
       50
102
RTVSPost2010PropOp47
 70
     1
102
RTVSPost2010Prop48
 90
       50
102
RTVSPost2010PropOp48
 70
     1
102
RTVSPost2010Prop49
280
     0
102
RTVSPost2010PropOp49
 70
     1
102
RTVSPost2010Prop50
 90
       50
102
RTVSPost2010PropOp50
 70
     1
102
RTVSPost2010Prop51ColorIndex
 90
      256
102
RTVSPost2010Prop51ColorRGB
 90
-16777216
102
RTVSPost2010PropOp51
 70
     0
102
RTVSPost2010Prop52
140
1.0
102
RTVSPost2010PropOp52
 70
     0
102
RTVSPost2010Prop53
 90
        2
102
RTVSPost2010PropOp53
 70
     1
102
RTVSPost2010Prop54
  1
strokes_ogs.tif
102
RTVSPost2010PropOp54
 70
     1
102
RTVSPost2010Prop55
280
     0
102
RTVSPost2010PropOp55
 70
     1
102
RTVSPost2010Prop56
140
1.0
102
RTVSPost2010PropOp56
 70
     1
102
RTVSPost2010Prop57
140
1.0
102
RTVSPost2010PropOp57
 70
     1
  0
XRECORD
  5
185
102
{ACAD_REACTORS
330
184
102
}
330
184
100
AcDbXrecord
280
     1
102
RTVSPost2010Prop28
280
     0
102
RTVSPost2010PropOp28
 70
     1
102
RTVSPost2010Prop29
280
     1
102
RTVSPost2010PropOp29
 70
     1
102
RTVSPost2010Prop30
280
     1
102
RTVSPost2010PropOp30
 70
     1
102
RTVSPost2010Prop31
280
     0
102
RTVSPost2010PropOp31
 70
     1
102
RTVSPost2010Prop32
280
     0
102
RTVSPost2010PropOp32
 70
     1
102
RTVSPost2010Prop33
280
     0
102
RTVSPost2010PropOp33
 70
     1
102
RTVSPost2010Prop34
280
     0
102
RTVSPost2010PropOp34
 70
     1
102
RTVSPost2010Prop35
280
     0
102
RTVSPost2010PropOp35
 70
     1
102
RTVSPost2010Prop36
280
     0
102
RTVSPost2010PropOp36
 70
     1
102
RTVSPost2010Prop37
 90
       50
102
RTVSPost2010PropOp37
 70
     1
102
RTVSPost2010Prop38
140
0.0
102
RTVSPost2010PropOp38
 70
     1
102
RTVSPost2010Prop39
140
1.0
102
RTVSPost2010PropOp39
 70
     1
102
RTVSPost2010Prop40
 90
        0
102
RTVSPost2010PropOp40
 70
     1
102
RTVSPost2010Prop41ColorIndex
 90
       18
102
RTVSPost2010Prop41ColorRGB
 90
        0
102
RTVSPost2010PropOp41
 70
     1
102
RTVSPost2010Prop42
 90
       50
102
RTVSPost2010PropOp42
 70
     1
102
RTVSPost2010Prop43
 90
        3
102
RTVSPost2010PropOp43
 70
     1
102
RTVSPost2010Prop44ColorIndex
 90
        5
102
RTVSPost2010Prop44ColorRGB
 90
      255
102
RTVSPost2010PropOp44
 70
     1
102
RTVSPost2010Prop45
280
     0
102
RTVSPost2010PropOp45
 70
     1
102
RTVSPost2010Prop46
 90
       50
102
RTVSPost2010PropOp46
 70
     1
102
RTVSPost2010Prop47
 90
       50
102
RTVSPost2010PropOp47
 70
     1
102
RTVSPost2010Prop48
 90
       50
102
RTVSPost2010PropOp48
 70
     1
102
RTVSPost2010Prop49
280
     0
102
RTVSPost2010PropOp49
 70
     1
102
RTVSPost2010Prop50
 90
       50
102
RTVSPost2010PropOp50
 70
     1
102
RTVSPost2010Prop51ColorIndex
 90
      256
102
RTVSPost2010Prop51ColorRGB
 90
-16777216
102
RTVSPost2010PropOp51
 70
     0
102
RTVSPost2010Prop52
140
1.0
102
RTVSPost2010PropOp52
 70
     0
102
RTVSPost2010Prop53
 90
        2
102
RTVSPost2010PropOp53
 70
     1
102
RTVSPost2010Prop54
  1
strokes_ogs.tif
102
RTVSPost2010PropOp54
 70
     1
102
RTVSPost2010Prop55
280
     0
102
RTVSPost2010PropOp55
 70
     1
102
RTVSPost2010Prop56
140
1.0
102
RTVSPost2010PropOp56
 70
     1
102
RTVSPost2010Prop57
140
1.0
102
RTVSPost2010PropOp57
 70
     1
  0
ENDSEC
  0
EOF
