  0
SECTION
  2
HEADER
  9
$ACADVER
  1
AC1024
  9
$ACADMAINTVER
 70
   205
  9
$DWGCODEPAGE
  3
ANSI_1251
  9
$INSBASE
 10
0.0
 20
0.0
 30
0.0
  9
$EXTMIN
 10
1.000000000000000E+20
 20
1.000000000000000E+20
 30
1.000000000000000E+20
  9
$EXTMAX
 10
-1.000000000000000E+20
 20
-1.000000000000000E+20
 30
-1.000000000000000E+20
  9
$LIMMIN
 10
0.0
 20
0.0
  9
$LIMMAX
 10
12.0
 20
9.0
  9
$ORTHOMODE
 70
     0
  9
$REGENMODE
 70
     1
  9
$FILLMODE
 70
     1
  9
$QTEXTMODE
 70
     0
  9
$MIRRTEXT
 70
     1
  9
$LTSCALE
 40
1.0
  9
$ATTMODE
 70
     1
  9
$TEXTSIZE
 40
0.2
  9
$TRACEWID
 40
0.05
  9
$TEXTSTYLE
  7
Standard
  9
$CLAYER
  8
OracDecor_cornice_mouldings
  9
$CELTYPE
  6
ByLayer
  9
$CECOLOR
 62
   256
  9
$CELTSCALE
 40
1.0
  9
$DISPSILH
 70
     0
  9
$DIMSCALE
 40
1.0
  9
$DIMASZ
 40
0.18
  9
$DIMEXO
 40
0.0625
  9
$DIMDLI
 40
0.38
  9
$DIMRND
 40
0.0
  9
$DIMDLE
 40
0.0
  9
$DIMEXE
 40
0.18
  9
$DIMTP
 40
0.0
  9
$DIMTM
 40
0.0
  9
$DIMTXT
 40
0.18
  9
$DIMCEN
 40
0.09
  9
$DIMTSZ
 40
0.0
  9
$DIMTOL
 70
     0
  9
$DIMLIM
 70
     0
  9
$DIMTIH
 70
     1
  9
$DIMTOH
 70
     1
  9
$DIMSE1
 70
     0
  9
$DIMSE2
 70
     0
  9
$DIMTAD
 70
     0
  9
$DIMZIN
 70
     0
  9
$DIMBLK
  1

  9
$DIMASO
 70
     1
  9
$DIMSHO
 70
     1
  9
$DIMPOST
  1

  9
$DIMAPOST
  1

  9
$DIMALT
 70
     0
  9
$DIMALTD
 70
     2
  9
$DIMALTF
 40
25.4
  9
$DIMLFAC
 40
1.0
  9
$DIMTOFL
 70
     0
  9
$DIMTVP
 40
0.0
  9
$DIMTIX
 70
     0
  9
$DIMSOXD
 70
     0
  9
$DIMSAH
 70
     0
  9
$DIMBLK1
  1

  9
$DIMBLK2
  1

  9
$DIMSTYLE
  2
Standard
  9
$DIMCLRD
 70
     0
  9
$DIMCLRE
 70
     0
  9
$DIMCLRT
 70
     0
  9
$DIMTFAC
 40
1.0
  9
$DIMGAP
 40
0.09
  9
$DIMJUST
 70
     0
  9
$DIMSD1
 70
     0
  9
$DIMSD2
 70
     0
  9
$DIMTOLJ
 70
     1
  9
$DIMTZIN
 70
     0
  9
$DIMALTZ
 70
     0
  9
$DIMALTTZ
 70
     0
  9
$DIMUPT
 70
     0
  9
$DIMDEC
 70
     4
  9
$DIMTDEC
 70
     4
  9
$DIMALTU
 70
     2
  9
$DIMALTTD
 70
     2
  9
$DIMTXSTY
  7
Standard
  9
$DIMAUNIT
 70
     0
  9
$DIMADEC
 70
     0
  9
$DIMALTRND
 40
0.0
  9
$DIMAZIN
 70
     0
  9
$DIMDSEP
 70
    46
  9
$DIMATFIT
 70
     3
  9
$DIMFRAC
 70
     0
  9
$DIMLDRBLK
  1

  9
$DIMLUNIT
 70
     2
  9
$DIMLWD
 70
    -2
  9
$DIMLWE
 70
    -2
  9
$DIMTMOVE
 70
     0
  9
$DIMFXL
 40
1.0
  9
$DIMFXLON
 70
     0
  9
$DIMJOGANG
 40
0.7853981633974483
  9
$DIMTFILL
 70
     0
  9
$DIMTFILLCLR
 70
     0
  9
$DIMARCSYM
 70
     0
  9
$DIMLTYPE
  6

  9
$DIMLTEX1
  6

  9
$DIMLTEX2
  6

  9
$DIMTXTDIRECTION
 70
     0
  9
$LUNITS
 70
     2
  9
$LUPREC
 70
     4
  9
$SKETCHINC
 40
0.1
  9
$FILLETRAD
 40
0.5
  9
$AUNITS
 70
     0
  9
$AUPREC
 70
     0
  9
$MENU
  1
.
  9
$ELEVATION
 40
0.0
  9
$PELEVATION
 40
0.0
  9
$THICKNESS
 40
0.0
  9
$LIMCHECK
 70
     0
  9
$CHAMFERA
 40
0.5
  9
$CHAMFERB
 40
0.5
  9
$CHAMFERC
 40
1.0
  9
$CHAMFERD
 40
0.0
  9
$SKPOLY
 70
     0
  9
$TDCREATE
 40
2451380.930432396
  9
$TDUCREATE
 40
2451380.805432396
  9
$TDUPDATE
 40
2451380.966180555
  9
$TDUUPDATE
 40
2451380.841180556
  9
$TDINDWG
 40
0.0075631019
  9
$TDUSRTIMER
 40
0.0075540625
  9
$USRTIMER
 70
     1
  9
$ANGBASE
 50
0.0
  9
$ANGDIR
 70
     0
  9
$PDMODE
 70
     0
  9
$PDSIZE
 40
0.0
  9
$PLINEWID
 40
0.0
  9
$SPLFRAME
 70
     0
  9
$SPLINETYPE
 70
     6
  9
$SPLINESEGS
 70
     8
  9
$HANDSEED
  5
194
  9
$SURFTAB1
 70
     6
  9
$SURFTAB2
 70
     6
  9
$SURFTYPE
 70
     6
  9
$SURFU
 70
     6
  9
$SURFV
 70
     6
  9
$UCSBASE
  2

  9
$UCSNAME
  2

  9
$UCSORG
 10
0.0
 20
0.0
 30
0.0
  9
$UCSXDIR
 10
1.0
 20
0.0
 30
0.0
  9
$UCSYDIR
 10
0.0
 20
1.0
 30
0.0
  9
$UCSORTHOREF
  2

  9
$UCSORTHOVIEW
 70
     0
  9
$UCSORGTOP
 10
0.0
 20
0.0
 30
0.0
  9
$UCSORGBOTTOM
 10
0.0
 20
0.0
 30
0.0
  9
$UCSORGLEFT
 10
0.0
 20
0.0
 30
0.0
  9
$UCSORGRIGHT
 10
0.0
 20
0.0
 30
0.0
  9
$UCSORGFRONT
 10
0.0
 20
0.0
 30
0.0
  9
$UCSORGBACK
 10
0.0
 20
0.0
 30
0.0
  9
$PUCSBASE
  2

  9
$PUCSNAME
  2

  9
$PUCSORG
 10
0.0
 20
0.0
 30
0.0
  9
$PUCSXDIR
 10
1.0
 20
0.0
 30
0.0
  9
$PUCSYDIR
 10
0.0
 20
1.0
 30
0.0
  9
$PUCSORTHOREF
  2

  9
$PUCSORTHOVIEW
 70
     0
  9
$PUCSORGTOP
 10
0.0
 20
0.0
 30
0.0
  9
$PUCSORGBOTTOM
 10
0.0
 20
0.0
 30
0.0
  9
$PUCSORGLEFT
 10
0.0
 20
0.0
 30
0.0
  9
$PUCSORGRIGHT
 10
0.0
 20
0.0
 30
0.0
  9
$PUCSORGFRONT
 10
0.0
 20
0.0
 30
0.0
  9
$PUCSORGBACK
 10
0.0
 20
0.0
 30
0.0
  9
$USERI1
 70
     0
  9
$USERI2
 70
     0
  9
$USERI3
 70
     0
  9
$USERI4
 70
     0
  9
$USERI5
 70
     0
  9
$USERR1
 40
0.0
  9
$USERR2
 40
0.0
  9
$USERR3
 40
0.0
  9
$USERR4
 40
0.0
  9
$USERR5
 40
0.0
  9
$WORLDVIEW
 70
     1
  9
$SHADEDGE
 70
     3
  9
$SHADEDIF
 70
    70
  9
$TILEMODE
 70
     1
  9
$MAXACTVP
 70
    64
  9
$PINSBASE
 10
0.0
 20
0.0
 30
0.0
  9
$PLIMCHECK
 70
     0
  9
$PEXTMIN
 10
1.000000000000000E+20
 20
1.000000000000000E+20
 30
1.000000000000000E+20
  9
$PEXTMAX
 10
-1.000000000000000E+20
 20
-1.000000000000000E+20
 30
-1.000000000000000E+20
  9
$PLIMMIN
 10
0.0
 20
0.0
  9
$PLIMMAX
 10
12.0
 20
9.0
  9
$UNITMODE
 70
     0
  9
$VISRETAIN
 70
     1
  9
$PLINEGEN
 70
     0
  9
$PSLTSCALE
 70
     1
  9
$TREEDEPTH
 70
  3020
  9
$CMLSTYLE
  2
Standard
  9
$CMLJUST
 70
     0
  9
$CMLSCALE
 40
1.0
  9
$PROXYGRAPHICS
 70
     1
  9
$MEASUREMENT
 70
     1
  9
$CELWEIGHT
370
    -1
  9
$ENDCAPS
280
     0
  9
$JOINSTYLE
280
     0
  9
$LWDISPLAY
290
     0
  9
$INSUNITS
 70
     4
  9
$HYPERLINKBASE
  1

  9
$STYLESHEET
  1

  9
$XEDIT
290
     1
  9
$CEPSNTYPE
380
     0
  9
$PSTYLEMODE
290
     1
  9
$FINGERPRINTGUID
  2
{12F50282-3ED8-11D3-A8B7-0060B0F84BC6}
  9
$VERSIONGUID
  2
{12F50293-3ED8-11D3-A8B7-0060B0F84BC6}
  9
$EXTNAMES
290
     1
  9
$PSVPSCALE
 40
0.0
  9
$OLESTARTUP
290
     0
  9
$SORTENTS
280
   127
  9
$INDEXCTL
280
     0
  9
$HIDETEXT
280
     0
  9
$XCLIPFRAME
280
     2
  9
$HALOGAP
280
     0
  9
$OBSCOLOR
 70
   257
  9
$OBSLTYPE
280
     0
  9
$INTERSECTIONDISPLAY
280
     0
  9
$INTERSECTIONCOLOR
 70
   257
  9
$DIMASSOC
280
     1
  9
$PROJECTNAME
  1

  9
$CAMERADISPLAY
290
     0
  9
$LENSLENGTH
 40
50.0
  9
$CAMERAHEIGHT
 40
0.0
  9
$STEPSPERSEC
 40
2.0
  9
$STEPSIZE
 40
6.0
  9
$3DDWFPREC
 40
2.0
  9
$PSOLWIDTH
 40
0.25
  9
$PSOLHEIGHT
 40
4.0
  9
$LOFTANG1
 40
1.570796326794896
  9
$LOFTANG2
 40
1.570796326794896
  9
$LOFTMAG1
 40
0.0
  9
$LOFTMAG2
 40
0.0
  9
$LOFTPARAM
 70
     7
  9
$LOFTNORMALS
280
     1
  9
$LATITUDE
 40
37.795
  9
$LONGITUDE
 40
-122.394
  9
$NORTHDIRECTION
 40
0.0
  9
$TIMEZONE
 70
 -8000
  9
$LIGHTGLYPHDISPLAY
280
     1
  9
$TILEMODELIGHTSYNCH
280
     1
  9
$CMATERIAL
347
AB
  9
$SOLIDHIST
280
     0
  9
$SHOWHIST
280
     1
  9
$DWFFRAME
280
     2
  9
$DGNFRAME
280
     0
  9
$REALWORLDSCALE
290
     1
  9
$INTERFERECOLOR
 62
     1
  9
$INTERFEREOBJVS
345
CD
  9
$INTERFEREVPVS
346
CA
  9
$CSHADOW
280
     0
  9
$SHADOWPLANELOCATION
 40
0.0
  0
ENDSEC
  0
SECTION
  2
CLASSES
  0
CLASS
  1
ACDBDICTIONARYWDFLT
  2
AcDbDictionaryWithDefault
  3
ObjectDBX Classes
 90
        0
 91
        1
280
     0
281
     0
  0
CLASS
  1
ACDBPLACEHOLDER
  2
AcDbPlaceHolder
  3
ObjectDBX Classes
 90
        0
 91
        2
280
     0
281
     0
  0
CLASS
  1
LAYOUT
  2
AcDbLayout
  3
ObjectDBX Classes
 90
        0
 91
        3
280
     0
281
     0
  0
CLASS
  1
MATERIAL
  2
AcDbMaterial
  3
ObjectDBX Classes
 90
     1153
 91
        3
280
     0
281
     0
  0
CLASS
  1
VISUALSTYLE
  2
AcDbVisualStyle
  3
ObjectDBX Classes
 90
     4095
 91
       24
280
     0
281
     0
  0
CLASS
  1
TABLESTYLE
  2
AcDbTableStyle
  3
ObjectDBX Classes
 90
     4095
 91
        1
280
     0
281
     0
  0
CLASS
  1
SCALE
  2
AcDbScale
  3
ObjectDBX Classes
 90
     1153
 91
       17
280
     0
281
     0
  0
CLASS
  1
MLEADERSTYLE
  2
AcDbMLeaderStyle
  3
ACDB_MLEADERSTYLE_CLASS
 90
     4095
 91
        1
280
     0
281
     0
  0
CLASS
  1
ACDBSECTIONVIEWSTYLE
  2
AcDbSectionViewStyle
  3
ObjectDBX Classes
 90
     1025
 91
        1
280
     0
281
     0
  0
CLASS
  1
ACDBDETAILVIEWSTYLE
  2
AcDbDetailViewStyle
  3
ObjectDBX Classes
 90
     1025
 91
        1
280
     0
281
     0
  0
CLASS
  1
MESH
  2
AcDbSubDMesh
  3
ObjectDBX Classes
 90
        0
 91
        1
280
     0
281
     1
  0
CLASS
  1
DICTIONARYVAR
  2
AcDbDictionaryVar
  3
ObjectDBX Classes
 90
        0
 91
        9
280
     0
281
     0
  0
CLASS
  1
CELLSTYLEMAP
  2
AcDbCellStyleMap
  3
ObjectDBX Classes
 90
     1152
 91
        1
280
     0
281
     0
  0
ENDSEC
  0
SECTION
  2
TABLES
  0
TABLE
  2
VPORT
  5
8
330
0
100
AcDbSymbolTable
 70
     1
  0
VPORT
  5
A8
330
8
100
AcDbSymbolTableRecord
100
AcDbViewportTableRecord
  2
*Active
 70
     0
 10
0.0
 20
0.0
 11
1.0
 21
1.0
 12
-0.0000242765854637
 22
-24.49490928649903
 13
0.0
 23
0.0
 14
0.5
 24
0.5
 15
0.5
 25
0.5
 16
-1.0
 26
-1.0
 36
1.0
 17
0.0
 27
0.0
 37
0.0
 40
1092.999930319322
 41
1.636970228313875
 42
50.0
 43
0.0
 44
0.0
 50
0.0
 51
0.0
 71
     0
 72
   100
 73
     1
 74
     3
 75
     0
 76
     0
 77
     0
 78
     0
281
     0
 65
     1
110
0.0
120
0.0
130
0.0
111
1.0
121
0.0
131
0.0
112
0.0
122
1.0
132
0.0
 79
     0
146
0.0
348
C9
 60
     3
 61
     5
292
     1
282
     1
141
0.0
142
0.0
 63
   250
421
  3355443
  0
ENDTAB
  0
TABLE
  2
LTYPE
  5
5
330
0
100
AcDbSymbolTable
 70
     1
  0
LTYPE
  5
14
330
5
100
AcDbSymbolTableRecord
100
AcDbLinetypeTableRecord
  2
ByBlock
 70
     0
  3

 72
    65
 73
     0
 40
0.0
  0
LTYPE
  5
15
330
5
100
AcDbSymbolTableRecord
100
AcDbLinetypeTableRecord
  2
ByLayer
 70
     0
  3

 72
    65
 73
     0
 40
0.0
  0
LTYPE
  5
16
330
5
100
AcDbSymbolTableRecord
100
AcDbLinetypeTableRecord
  2
Continuous
 70
     0
  3
Solid line
 72
    65
 73
     0
 40
0.0
  0
ENDTAB
  0
TABLE
  2
LAYER
  5
2
330
0
100
AcDbSymbolTable
 70
     3
  0
LAYER
  5
10
330
2
100
AcDbSymbolTableRecord
100
AcDbLayerTableRecord
  2
0
 70
     0
 62
     7
  6
Continuous
370
    -3
390
F
347
BB
  0
LAYER
  5
2B
330
2
100
AcDbSymbolTableRecord
100
AcDbLayerTableRecord
  2
ASHADE
 70
     4
 62
     7
  6
Continuous
370
    -3
390
2D
347
BB
  0
LAYER
  5
F8
330
2
100
AcDbSymbolTableRecord
100
AcDbLayerTableRecord
  2
OracDecor_cornice_mouldings
 70
     0
 62
    41
420
 14997145
  6
Continuous
370
    -3
390
F
347
BB
  0
ENDTAB
  0
TABLE
  2
STYLE
  5
3
330
0
100
AcDbSymbolTable
 70
     2
  0
STYLE
  5
11
330
3
100
AcDbSymbolTableRecord
100
AcDbTextStyleTableRecord
  2
Standard
 70
     0
 40
0.0
 41
1.0
 50
0.0
 71
     0
 42
0.2
  3
txt
  4

  0
STYLE
  5
2C
330
3
100
AcDbSymbolTableRecord
100
AcDbTextStyleTableRecord
  2
ASHADE
 70
     0
 40
0.2
 41
1.0
 50
0.0
 71
     0
 42
0.2
  3
simplex
  4

  0
ENDTAB
  0
TABLE
  2
VIEW
  5
6
330
0
100
AcDbSymbolTable
 70
     0
  0
ENDTAB
  0
TABLE
  2
UCS
  5
7
330
0
100
AcDbSymbolTable
 70
     0
  0
ENDTAB
  0
TABLE
  2
APPID
  5
9
330
0
100
AcDbSymbolTable
 70
     6
  0
APPID
  5
12
330
9
100
AcDbSymbolTableRecord
100
AcDbRegAppTableRecord
  2
ACAD
 70
     0
  0
APPID
  5
8F
330
9
100
AcDbSymbolTableRecord
100
AcDbRegAppTableRecord
  2
AVE_RENDER
 70
     0
  0
APPID
  5
90
330
9
100
AcDbSymbolTableRecord
100
AcDbRegAppTableRecord
  2
AVE_ENTITY_MATERIAL
 70
     0
  0
APPID
  5
9C
330
9
100
AcDbSymbolTableRecord
100
AcDbRegAppTableRecord
  2
AVE_FINISH
 70
     0
  0
APPID
  5
9D
330
9
100
AcDbSymbolTableRecord
100
AcDbRegAppTableRecord
  2
AVE_MATERIAL
 70
     0
  0
APPID
  5
9E
330
9
100
AcDbSymbolTableRecord
100
AcDbRegAppTableRecord
  2
AVE_GLOBAL
 70
     0
  0
ENDTAB
  0
TABLE
  2
DIMSTYLE
  5
A
330
0
100
AcDbSymbolTable
 70
     1
100
AcDbDimStyleTable
 71
     0
  0
DIMSTYLE
105
27
330
A
100
AcDbSymbolTableRecord
100
AcDbDimStyleTableRecord
  2
Standard
 70
     0
340
11
  0
ENDTAB
  0
TABLE
  2
BLOCK_RECORD
  5
1
330
0
100
AcDbSymbolTable
 70
     6
  0
BLOCK_RECORD
  5
1F
330
1
100
AcDbSymbolTableRecord
100
AcDbBlockTableRecord
  2
*Model_Space
340
22
 70
     0
280
     1
281
     0
  0
BLOCK_RECORD
  5
1B
330
1
100
AcDbSymbolTableRecord
100
AcDbBlockTableRecord
  2
*Paper_Space
340
1E
 70
     0
280
     1
281
     0
  0
BLOCK_RECORD
  5
23
330
1
100
AcDbSymbolTableRecord
100
AcDbBlockTableRecord
  2
*Paper_Space0
340
26
 70
     0
280
     1
281
     0
  0
BLOCK_RECORD
  5
2E
330
1
100
AcDbSymbolTableRecord
100
AcDbBlockTableRecord
  2
direct
340
0
 70
     0
280
     1
281
     0
  0
BLOCK_RECORD
  5
42
330
1
100
AcDbSymbolTableRecord
100
AcDbBlockTableRecord
  2
overhead
340
0
 70
     0
280
     1
281
     0
  0
BLOCK_RECORD
  5
5F
330
1
100
AcDbSymbolTableRecord
100
AcDbBlockTableRecord
  2
sh_spot
340
0
 70
     0
280
     1
281
     0
  0
BLOCK_RECORD
  5
91
330
1
100
AcDbSymbolTableRecord
100
AcDbBlockTableRecord
  2
AVE_RENDER
340
0
102
{BLKREFS
331
94
331
95
331
96
331
97
331
98
331
99
331
9A
331
9B
102
}
 70
     0
280
     1
281
     0
  0
BLOCK_RECORD
  5
9F
330
1
100
AcDbSymbolTableRecord
100
AcDbBlockTableRecord
  2
AVE_GLOBAL
340
0
102
{BLKREFS
331
A2
102
}
 70
     0
280
     1
281
     0
  0
ENDTAB
  0
ENDSEC
  0
SECTION
  2
BLOCKS
  0
BLOCK
  5
20
330
1F
100
AcDbEntity
  8
0
100
AcDbBlockBegin
  2
*Model_Space
 70
     0
 10
0.0
 20
0.0
 30
0.0
  3
*Model_Space
  1

  0
ENDBLK
  5
21
330
1F
100
AcDbEntity
  8
0
100
AcDbBlockEnd
  0
BLOCK
  5
1C
330
1B
100
AcDbEntity
 67
     1
  8
0
100
AcDbBlockBegin
  2
*Paper_Space
 70
     0
 10
0.0
 20
0.0
 30
0.0
  3
*Paper_Space
  1

  0
ENDBLK
  5
1D
330
1B
100
AcDbEntity
 67
     1
  8
0
100
AcDbBlockEnd
  0
BLOCK
  5
24
330
23
100
AcDbEntity
 67
     1
  8
0
100
AcDbBlockBegin
  2
*Paper_Space0
 70
     0
 10
0.0
 20
0.0
 30
0.0
  3
*Paper_Space0
  1

  0
ENDBLK
  5
25
330
23
100
AcDbEntity
 67
     1
  8
0
100
AcDbBlockEnd
  0
BLOCK
  5
40
330
2E
100
AcDbEntity
  8
0
100
AcDbBlockBegin
  2
direct
 70
     2
 10
0.0
 20
0.0
 30
0.0
  3
direct
  1

  0
ATTDEF
  5
2F
330
2E
100
AcDbEntity
  8
ASHADE
  6
Continuous
 62
     1
100
AcDbText
 10
0.0
 20
-0.1
 30
0.0
 40
0.2
  1

  7
ASHADE
 72
     1
 11
0.0
 21
-0.1
 31
0.0
100
AcDbAttributeDefinition
280
     0
  3
Light Name
  2
SNAME
 70
     0
280
     0
  0
ARC
  5
30
330
2E
100
AcDbEntity
  8
ASHADE
  6
Continuous
 62
     7
100
AcDbCircle
 10
0.0
 20
0.0
 30
0.0
 40
0.3
100
AcDbArc
 50
205.6792886194569
 51
334.3207113805431
  0
ARC
  5
31
330
2E
100
AcDbEntity
  8
ASHADE
  6
Continuous
 62
     7
100
AcDbCircle
 10
0.0
 20
0.0
 30
0.0
 40
0.3
100
AcDbArc
 50
25.67928861945685
 51
154.3207113805431
  0
LINE
  5
32
330
2E
100
AcDbEntity
  8
ASHADE
  6
Continuous
 62
     7
100
AcDbLine
 10
-0.21
 20
0.2142428528562855
 30
0.0
 11
-0.21
 21
0.5
 31
0.0
  0
LINE
  5
33
330
2E
100
AcDbEntity
  8
ASHADE
  6
Continuous
 62
     7
100
AcDbLine
 10
-0.11
 20
0.2791057147390572
 30
0.0
 11
-0.11
 21
0.5
 31
0.0
  0
LINE
  5
34
330
2E
100
AcDbEntity
  8
ASHADE
  6
Continuous
 62
     7
100
AcDbLine
 10
0.21
 20
0.2142428528562855
 30
0.0
 11
0.21
 21
0.5
 31
0.0
  0
ATTDEF
  5
35
330
2E
100
AcDbEntity
  8
ASHADE
  6
Continuous
 62
     7
100
AcDbText
 10
0.0
 20
0.25
 30
0.0
 40
0.01
  1

100
AcDbAttributeDefinition
280
     0
  3
Look-at Y
  2
LAY
 70
     1
280
     0
  0
ATTDEF
  5
36
330
2E
100
AcDbEntity
  8
ASHADE
  6
Continuous
 62
     7
100
AcDbText
 10
0.0
 20
0.22
 30
0.0
 40
0.01
  1
1
100
AcDbAttributeDefinition
280
     0
  3
Light Intensity
  2
INTENSITY
 70
     1
280
     0
  0
ATTDEF
  5
37
330
2E
100
AcDbEntity
  8
ASHADE
  6
Continuous
 62
     7
100
AcDbText
 10
0.0
 20
0.16
 30
0.0
 40
0.01
  1
-1
100
AcDbAttributeDefinition
280
     0
  3
*not used*
  2
BEAMD
 70
     1
280
     0
  0
ATTDEF
  5
38
330
2E
100
AcDbEntity
  8
ASHADE
  6
Continuous
 62
     7
100
AcDbText
 10
0.0
 20
0.175
 30
0.0
 40
0.01
  1
-1
100
AcDbAttributeDefinition
280
     0
  3
*not used*
  2
CONED
 70
     1
280
     0
  0
ATTDEF
  5
39
330
2E
100
AcDbEntity
  8
ASHADE
  6
Continuous
 62
     7
100
AcDbText
 10
0.0
 20
0.19
 30
0.0
 40
0.01
  1
0
100
AcDbAttributeDefinition
280
     0
  3
Depth Map Size
  2
CONEA
 70
     1
280
     0
  0
ATTDEF
  5
3A
330
2E
100
AcDbEntity
  8
ASHADE
  6
Continuous
 62
     7
100
AcDbText
 10
0.0
 20
0.2050000000000001
 30
0.0
 40
0.01
  1
1,1,1
100
AcDbAttributeDefinition
280
     0
  3
Light Color (RGB)
  2
COLOR
 70
     1
280
     0
  0
ATTDEF
  5
3B
330
2E
100
AcDbEntity
  8
ASHADE
  6
Continuous
 62
     7
100
AcDbText
 10
0.0
 20
0.235
 30
0.0
 40
0.01
  1

100
AcDbAttributeDefinition
280
     0
  3
Look-at Z
  2
LAZ
 70
     1
280
     0
  0
LINE
  5
3C
330
2E
100
AcDbEntity
  8
ASHADE
  6
Continuous
 62
     7
100
AcDbLine
 10
0.0
 20
0.3
 30
0.0
 11
0.0
 21
0.5
 31
0.0
  0
LINE
  5
3D
330
2E
100
AcDbEntity
  8
ASHADE
  6
Continuous
 62
     7
100
AcDbLine
 10
0.11
 20
0.2791057147390572
 30
0.0
 11
0.11
 21
0.5
 31
0.0
  0
ATTDEF
  5
3E
330
2E
100
AcDbEntity
  8
ASHADE
  6
Continuous
 62
     7
100
AcDbText
 10
0.0
 20
0.265
 30
0.0
 40
0.01
  1

100
AcDbAttributeDefinition
280
     0
  3
Look-at X
  2
LAX
 70
     1
280
     0
  0
ATTDEF
  5
3F
330
2E
100
AcDbEntity
  8
ASHADE
  6
Continuous
 62
     7
100
AcDbText
 10
0.0
 20
0.28
 30
0.0
 40
0.01
  1

100
AcDbAttributeDefinition
280
     0
  3

  2
GNAME
 70
     1
280
     0
  0
ENDBLK
  5
41
330
2E
100
AcDbEntity
  8
0
100
AcDbBlockEnd
  0
BLOCK
  5
5D
330
42
100
AcDbEntity
  8
0
100
AcDbBlockBegin
  2
overhead
 70
     2
 10
0.0
 20
0.0
 30
0.0
  3
overhead
  1

  0
ATTDEF
  5
43
330
42
100
AcDbEntity
  8
ASHADE
  6
Continuous
 62
     1
100
AcDbText
 10
0.0
 20
-0.1
 30
0.0
 40
0.2
  1

  7
ASHADE
 72
     1
 11
0.0
 21
-0.1
 31
0.0
100
AcDbAttributeDefinition
280
     0
  3
Light Name
  2
SNAME
 70
     0
280
     0
  0
ARC
  5
44
330
42
100
AcDbEntity
  8
ASHADE
  6
Continuous
 62
     7
100
AcDbCircle
 10
0.0
 20
0.0
 30
0.0
 40
0.3
100
AcDbArc
 50
205.6792886194569
 51
334.3207113805431
  0
LINE
  5
45
330
42
100
AcDbEntity
  8
ASHADE
  6
Continuous
 62
     7
100
AcDbLine
 10
-0.2041413561583015
 20
-0.2198324514393848
 30
0.0
 11
-0.2721884748777353
 21
-0.2931099352525131
 31
0.0
  0
LINE
  5
46
330
42
100
AcDbEntity
  8
ASHADE
  6
Continuous
 62
     7
100
AcDbLine
 10
-0.1096591641591904
 20
-0.2792398032442862
 30
0.0
 11
-0.1279356915190555
 21
-0.3257797704516673
 31
0.0
  0
LINE
  5
47
330
42
100
AcDbEntity
  8
ASHADE
  6
Continuous
 62
     7
100
AcDbLine
 10
0.0
 20
-0.2999999999999999
 30
0.0
 11
0.0
 21
-0.4
 31
0.0
  0
LINE
  5
48
330
42
100
AcDbEntity
  8
ASHADE
  6
Continuous
 62
     7
100
AcDbLine
 10
0.1096591641591904
 20
-0.2792398032442862
 30
0.0
 11
0.1279356915190555
 21
-0.3257797704516673
 31
0.0
  0
LINE
  5
49
330
42
100
AcDbEntity
  8
ASHADE
  6
Continuous
 62
     7
100
AcDbLine
 10
0.2041413561583015
 20
-0.2198324514393848
 30
0.0
 11
0.2721884748777353
 21
-0.2931099352525131
 31
0.0
  0
ARC
  5
4A
330
42
100
AcDbEntity
  8
ASHADE
  6
Continuous
 62
     7
100
AcDbCircle
 10
0.0
 20
0.0
 30
0.0
 40
0.3
100
AcDbArc
 50
25.67928861945685
 51
154.3207113805431
  0
LINE
  5
4B
330
42
100
AcDbEntity
  8
ASHADE
  6
Continuous
 62
     7
100
AcDbLine
 10
-0.2703701166919155
 20
0.13
 30
0.0
 11
-0.3154318028072347
 21
0.1516666666666666
 31
0.0
  0
LINE
  5
4C
330
42
100
AcDbEntity
  8
ASHADE
  6
Continuous
 62
     7
100
AcDbLine
 10
-0.2703701166919155
 20
-0.13
 30
0.0
 11
-0.3154318028072347
 21
-0.1516666666666666
 31
0.0
  0
LINE
  5
4D
330
42
100
AcDbEntity
  8
ASHADE
  6
Continuous
 62
     7
100
AcDbLine
 10
-0.2041413561583015
 20
0.2198324514393849
 30
0.0
 11
-0.2721884748777353
 21
0.2931099352525131
 31
0.0
  0
LINE
  5
4E
330
42
100
AcDbEntity
  8
ASHADE
  6
Continuous
 62
     7
100
AcDbLine
 10
-0.1096591641591904
 20
0.2792398032442862
 30
0.0
 11
-0.1279356915190555
 21
0.3257797704516674
 31
0.0
  0
LINE
  5
4F
330
42
100
AcDbEntity
  8
ASHADE
  6
Continuous
 62
     7
100
AcDbLine
 10
0.2703701166919155
 20
-0.13
 30
0.0
 11
0.3154318028072347
 21
-0.1516666666666666
 31
0.0
  0
LINE
  5
50
330
42
100
AcDbEntity
  8
ASHADE
  6
Continuous
 62
     7
100
AcDbLine
 10
0.2703701166919155
 20
0.13
 30
0.0
 11
0.3154318028072347
 21
0.1516666666666666
 31
0.0
  0
LINE
  5
51
330
42
100
AcDbEntity
  8
ASHADE
  6
Continuous
 62
     7
100
AcDbLine
 10
0.0
 20
0.3
 30
0.0
 11
0.0
 21
0.4
 31
0.0
  0
ATTDEF
  5
52
330
42
100
AcDbEntity
  8
ASHADE
  6
Continuous
 62
     7
100
AcDbText
 10
0.0
 20
0.22
 30
0.0
 40
0.01
  1
1
100
AcDbAttributeDefinition
280
     0
  3
Light Intensity
  2
INTENSITY
 70
     1
280
     0
  0
ATTDEF
  5
53
330
42
100
AcDbEntity
  8
ASHADE
  6
Continuous
 62
     7
100
AcDbText
 10
0.0
 20
0.16
 30
0.0
 40
0.01
  1
-1
100
AcDbAttributeDefinition
280
     0
  3
*not used*
  2
BEAMD
 70
     1
280
     0
  0
ATTDEF
  5
54
330
42
100
AcDbEntity
  8
ASHADE
  6
Continuous
 62
     7
100
AcDbText
 10
0.0
 20
0.175
 30
0.0
 40
0.01
  1
-1
100
AcDbAttributeDefinition
280
     0
  3
*not used*
  2
CONED
 70
     1
280
     0
  0
ATTDEF
  5
55
330
42
100
AcDbEntity
  8
ASHADE
  6
Continuous
 62
     7
100
AcDbText
 10
0.0
 20
0.19
 30
0.0
 40
0.01
  1
0
100
AcDbAttributeDefinition
280
     0
  3
Depth Map Size
  2
CONEA
 70
     1
280
     0
  0
ATTDEF
  5
56
330
42
100
AcDbEntity
  8
ASHADE
  6
Continuous
 62
     7
100
AcDbText
 10
0.0
 20
0.2050000000000001
 30
0.0
 40
0.01
  1
1,1,1
100
AcDbAttributeDefinition
280
     0
  3
Light Color (RGB)
  2
COLOR
 70
     1
280
     0
  0
ATTDEF
  5
57
330
42
100
AcDbEntity
  8
ASHADE
  6
Continuous
 62
     7
100
AcDbText
 10
0.0
 20
0.235
 30
0.0
 40
0.01
  1

100
AcDbAttributeDefinition
280
     0
  3
Look-at Z
  2
LAZ
 70
     1
280
     0
  0
ATTDEF
  5
58
330
42
100
AcDbEntity
  8
ASHADE
  6
Continuous
 62
     7
100
AcDbText
 10
0.0
 20
0.25
 30
0.0
 40
0.01
  1

100
AcDbAttributeDefinition
280
     0
  3
Look-at Y
  2
LAY
 70
     1
280
     0
  0
ATTDEF
  5
59
330
42
100
AcDbEntity
  8
ASHADE
  6
Continuous
 62
     7
100
AcDbText
 10
0.0
 20
0.265
 30
0.0
 40
0.01
  1

100
AcDbAttributeDefinition
280
     0
  3
Look-at X
  2
LAX
 70
     1
280
     0
  0
ATTDEF
  5
5A
330
42
100
AcDbEntity
  8
ASHADE
  6
Continuous
 62
     7
100
AcDbText
 10
0.0
 20
0.28
 30
0.0
 40
0.01
  1

100
AcDbAttributeDefinition
280
     0
  3

  2
GNAME
 70
     1
280
     0
  0
LINE
  5
5B
330
42
100
AcDbEntity
  8
ASHADE
  6
Continuous
 62
     7
100
AcDbLine
 10
0.1096591641591904
 20
0.2792398032442862
 30
0.0
 11
0.1279356915190555
 21
0.3257797704516674
 31
0.0
  0
LINE
  5
5C
330
42
100
AcDbEntity
  8
ASHADE
  6
Continuous
 62
     7
100
AcDbLine
 10
0.2041413561583015
 20
0.2198324514393849
 30
0.0
 11
0.2721884748777353
 21
0.2931099352525131
 31
0.0
  0
ENDBLK
  5
5E
330
42
100
AcDbEntity
  8
0
100
AcDbBlockEnd
  0
BLOCK
  5
85
330
5F
100
AcDbEntity
  8
0
100
AcDbBlockBegin
  2
sh_spot
 70
     2
 10
0.0
 20
0.0
 30
0.0
  3
sh_spot
  1

  0
LINE
  5
60
330
5F
100
AcDbEntity
  8
ASHADE
  6
Continuous
 62
     7
100
AcDbLine
 10
0.25
 20
0.26
 30
0.0
 11
-0.25
 21
0.26
 31
0.0
  0
LINE
  5
61
330
5F
100
AcDbEntity
  8
ASHADE
  6
Continuous
 62
     7
100
AcDbLine
 10
-0.25
 20
-0.3399999999999999
 30
0.0
 11
0.25
 21
-0.3399999999999999
 31
0.0
  0
ATTDEF
  5
62
330
5F
100
AcDbEntity
  8
ASHADE
  6
Continuous
 62
     1
100
AcDbText
 10
0.0
 20
-0.1
 30
0.0
 40
0.2
  1

  7
ASHADE
 72
     1
 11
0.0
 21
-0.1
 31
0.0
100
AcDbAttributeDefinition
280
     0
  3
Light Name
  2
SNAME
 70
     0
280
     0
  0
LINE
  5
63
330
5F
100
AcDbEntity
  8
ASHADE
  6
Continuous
 62
     7
100
AcDbLine
 10
-0.25
 20
-0.13
 30
0.0
 11
-0.25
 21
-0.3399999999999999
 31
0.0
  0
LINE
  5
64
330
5F
100
AcDbEntity
  8
ASHADE
  6
Continuous
 62
     7
100
AcDbLine
 10
-0.25
 20
-0.18
 30
0.0
 11
-0.29
 21
-0.18
 31
0.0
  0
LINE
  5
65
330
5F
100
AcDbEntity
  8
ASHADE
  6
Continuous
 62
     7
100
AcDbLine
 10
-0.29
 20
-0.22
 30
0.0
 11
-0.25
 21
-0.22
 31
0.0
  0
LINE
  5
66
330
5F
100
AcDbEntity
  8
ASHADE
  6
Continuous
 62
     7
100
AcDbLine
 10
-0.29
 20
-0.18
 30
0.0
 11
-0.29
 21
-0.22
 31
0.0
  0
LINE
  5
67
330
5F
100
AcDbEntity
  8
ASHADE
  6
Continuous
 62
     7
100
AcDbLine
 10
-0.1045454545454545
 20
0.26
 30
0.0
 11
-0.15
 21
0.46
 31
0.0
  0
LINE
  5
68
330
5F
100
AcDbEntity
  8
ASHADE
  6
Continuous
 62
     7
100
AcDbLine
 10
-0.21
 20
0.26
 30
0.0
 11
-0.301304347826087
 21
0.46
 31
0.0
  0
LINE
  5
69
330
5F
100
AcDbEntity
  8
ASHADE
  6
Continuous
 62
     7
100
AcDbLine
 10
-0.25
 20
0.26
 30
0.0
 11
-0.25
 21
0.13
 31
0.0
  0
LINE
  5
6A
330
5F
100
AcDbEntity
  8
ASHADE
  6
Continuous
 62
     7
100
AcDbLine
 10
-0.25
 20
0.22
 30
0.0
 11
-0.29
 21
0.22
 31
0.0
  0
LINE
  5
6B
330
5F
100
AcDbEntity
  8
ASHADE
  6
Continuous
 62
     7
100
AcDbLine
 10
-0.29
 20
0.1799999999999999
 30
0.0
 11
-0.25
 21
0.1799999999999999
 31
0.0
  0
LINE
  5
6C
330
5F
100
AcDbEntity
  8
ASHADE
  6
Continuous
 62
     7
100
AcDbLine
 10
-0.29
 20
0.22
 30
0.0
 11
-0.29
 21
0.1799999999999999
 31
0.0
  0
ATTDEF
  5
6D
330
5F
100
AcDbEntity
  8
ASHADE
  6
Continuous
 62
     7
100
AcDbText
 10
0.0
 20
-0.24
 30
0.0
 40
0.01
  1
0
100
AcDbAttributeDefinition
280
     0
  3
Depth Map Size
  2
ZSIZE
 70
     1
280
     0
  0
ATTDEF
  5
6E
330
5F
100
AcDbEntity
  8
ASHADE
  6
Continuous
 62
     7
100
AcDbText
 10
0.0
 20
-0.3300000000000001
 30
0.0
 40
0.01
  1
0,0,0
100
AcDbAttributeDefinition
280
     0
  3
Look-from XYZ
  2
LFXYZ
 70
     1
280
     0
  0
ATTDEF
  5
6F
330
5F
100
AcDbEntity
  8
ASHADE
  6
Continuous
 62
     7
100
AcDbText
 10
0.0
 20
-0.315
 30
0.0
 40
0.01
  1
0.0
100
AcDbAttributeDefinition
280
     0
  3
Beam Distribution
  2
BEAMDI
 70
     1
280
     0
  0
ATTDEF
  5
70
330
5F
100
AcDbEntity
  8
ASHADE
  6
Continuous
 62
     7
100
AcDbText
 10
0.0
 20
-0.3
 30
0.0
 40
0.01
  1
0.0
100
AcDbAttributeDefinition
280
     0
  3
Cone Delta
  2
CONEDE
 70
     1
280
     0
  0
ATTDEF
  5
71
330
5F
100
AcDbEntity
  8
ASHADE
  6
Continuous
 62
     7
100
AcDbText
 10
0.0
 20
-0.2850000000000001
 30
0.0
 40
0.01
  1
10.0
100
AcDbAttributeDefinition
280
     0
  3
Cone Angle
  2
CONEAN
 70
     1
280
     0
  0
ATTDEF
  5
72
330
5F
100
AcDbEntity
  8
ASHADE
  6
Continuous
 62
     7
100
AcDbText
 10
0.0
 20
-0.27
 30
0.0
 40
0.01
  1
-1
100
AcDbAttributeDefinition
280
     0
  3
*not used*
  2
BIASMAX
 70
     1
280
     0
  0
ATTDEF
  5
73
330
5F
100
AcDbEntity
  8
ASHADE
  6
Continuous
 62
     7
100
AcDbText
 10
0.0
 20
-0.255
 30
0.0
 40
0.01
  1
-1
100
AcDbAttributeDefinition
280
     0
  3
*not used*
  2
BIASMIN
 70
     1
280
     0
  0
ATTDEF
  5
74
330
5F
100
AcDbEntity
  8
ASHADE
  6
Continuous
 62
     7
100
AcDbText
 10
0.0
 20
-0.225
 30
0.0
 40
0.01
  1
1,1,1
100
AcDbAttributeDefinition
280
     0
  3
Light Color (RGB)
  2
COLOR
 70
     1
280
     0
  0
ATTDEF
  5
75
330
5F
100
AcDbEntity
  8
ASHADE
  6
Continuous
 62
     7
100
AcDbText
 10
0.0
 20
-0.21
 30
0.0
 40
0.01
  1
1
100
AcDbAttributeDefinition
280
     0
  3
Light Intensity
  2
INTENSITY
 70
     1
280
     0
  0
ATTDEF
  5
76
330
5F
100
AcDbEntity
  8
ASHADE
  6
Continuous
 62
     7
100
AcDbText
 10
0.0
 20
-0.15
 30
0.0
 40
0.01
  1

100
AcDbAttributeDefinition
280
     0
  3

  2
GNAME
 70
     1
280
     0
  0
ATTDEF
  5
77
330
5F
100
AcDbEntity
  8
ASHADE
  6
Continuous
 62
     7
100
AcDbText
 10
0.0
 20
-0.195
 30
0.0
 40
0.01
  1

100
AcDbAttributeDefinition
280
     0
  3
Look-at Z
  2
LAZ
 70
     1
280
     0
  0
ATTDEF
  5
78
330
5F
100
AcDbEntity
  8
ASHADE
  6
Continuous
 62
     7
100
AcDbText
 10
0.0
 20
-0.18
 30
0.0
 40
0.01
  1

100
AcDbAttributeDefinition
280
     0
  3
Look-at Y
  2
LAY
 70
     1
280
     0
  0
ATTDEF
  5
79
330
5F
100
AcDbEntity
  8
ASHADE
  6
Continuous
 62
     7
100
AcDbText
 10
0.0
 20
-0.165
 30
0.0
 40
0.01
  1

100
AcDbAttributeDefinition
280
     0
  3
Look-at X
  2
LAX
 70
     1
280
     0
  0
LINE
  5
7A
330
5F
100
AcDbEntity
  8
ASHADE
  6
Continuous
 62
     7
100
AcDbLine
 10
0.25
 20
-0.3399999999999999
 30
0.0
 11
0.25
 21
-0.13
 31
0.0
  0
LINE
  5
7B
330
5F
100
AcDbEntity
  8
ASHADE
  6
Continuous
 62
     7
100
AcDbLine
 10
0.25
 20
-0.18
 30
0.0
 11
0.29
 21
-0.18
 31
0.0
  0
LINE
  5
7C
330
5F
100
AcDbEntity
  8
ASHADE
  6
Continuous
 62
     7
100
AcDbLine
 10
0.29
 20
-0.22
 30
0.0
 11
0.25
 21
-0.22
 31
0.0
  0
LINE
  5
7D
330
5F
100
AcDbEntity
  8
ASHADE
  6
Continuous
 62
     7
100
AcDbLine
 10
0.29
 20
-0.18
 30
0.0
 11
0.29
 21
-0.22
 31
0.0
  0
LINE
  5
7E
330
5F
100
AcDbEntity
  8
ASHADE
  6
Continuous
 62
     7
100
AcDbLine
 10
0.21
 20
0.26
 30
0.0
 11
0.301304347826087
 21
0.46
 31
0.0
  0
LINE
  5
7F
330
5F
100
AcDbEntity
  8
ASHADE
  6
Continuous
 62
     7
100
AcDbLine
 10
0.1045454545454545
 20
0.26
 30
0.0
 11
0.15
 21
0.46
 31
0.0
  0
LINE
  5
80
330
5F
100
AcDbEntity
  8
ASHADE
  6
Continuous
 62
     7
100
AcDbLine
 10
0.0
 20
0.26
 30
0.0
 11
0.0
 21
0.46
 31
0.0
  0
LINE
  5
81
330
5F
100
AcDbEntity
  8
ASHADE
  6
Continuous
 62
     7
100
AcDbLine
 10
0.25
 20
0.13
 30
0.0
 11
0.25
 21
0.26
 31
0.0
  0
LINE
  5
82
330
5F
100
AcDbEntity
  8
ASHADE
  6
Continuous
 62
     7
100
AcDbLine
 10
0.25
 20
0.22
 30
0.0
 11
0.29
 21
0.22
 31
0.0
  0
LINE
  5
83
330
5F
100
AcDbEntity
  8
ASHADE
  6
Continuous
 62
     7
100
AcDbLine
 10
0.29
 20
0.1799999999999999
 30
0.0
 11
0.25
 21
0.1799999999999999
 31
0.0
  0
LINE
  5
84
330
5F
100
AcDbEntity
  8
ASHADE
  6
Continuous
 62
     7
100
AcDbLine
 10
0.29
 20
0.22
 30
0.0
 11
0.29
 21
0.1799999999999999
 31
0.0
  0
ENDBLK
  5
86
330
5F
100
AcDbEntity
  8
0
100
AcDbBlockEnd
  0
BLOCK
  5
92
330
91
100
AcDbEntity
  8
ASHADE
100
AcDbBlockBegin
  2
AVE_RENDER
 70
     0
 10
0.0
 20
0.0
 30
0.0
  3
AVE_RENDER
  1
AVE_RENDER
  0
ENDBLK
  5
93
330
91
100
AcDbEntity
  8
0
100
AcDbBlockEnd
  0
BLOCK
  5
A0
330
9F
100
AcDbEntity
  8
ASHADE
100
AcDbBlockBegin
  2
AVE_GLOBAL
 70
     0
 10
0.0
 20
0.0
 30
0.0
  3
AVE_GLOBAL
  1
AVE_GLOBAL
  0
ENDBLK
  5
A1
330
9F
100
AcDbEntity
  8
0
100
AcDbBlockEnd
  0
ENDSEC
  0
SECTION
  2
ENTITIES
  0
INSERT
  5
94
330
1F
100
AcDbEntity
  8
ASHADE
 62
     1
100
AcDbBlockReference
  2
AVE_RENDER
 10
0.0
 20
0.0
 30
0.0
1001
AVE_RENDER
1002
{
1070
     7
1000
Pref
1070
    30
1070
    20
1070
     1
1070
     0
1000

1070
    10
1070
     1
1070
    10
1040
1.0
1070
     1
1040
0.3
1040
0.7
1040
0.0
1040
10.0
1010
-1.0
1020
-1.0
1030
-1.0
1040
0.3
1070
    49
1070
     0
1070
     0
1010
1.0
1020
1.0
1030
1.0
1040
45.0
1070
     1
1070
     0
1000
WCS
1040
0.0
1070
     0
1040
10.0
1002
}
  0
INSERT
  5
95
330
1F
100
AcDbEntity
  8
ASHADE
 62
     3
100
AcDbBlockReference
  2
AVE_RENDER
 10
0.0
 20
0.0
 30
0.0
1001
AVE_RENDER
1002
{
1070
     0
1000
Full Opt
1070
     0
1070
     1
1070
     1
1070
     1
1070
     0
1070
     0
1070
     0
1070
     1
1070
     1
1040
0.0001
1040
0.0001
1002
}
  0
INSERT
  5
96
330
1F
100
AcDbEntity
  8
ASHADE
 62
     4
100
AcDbBlockReference
  2
AVE_RENDER
 10
0.0
 20
0.0
 30
0.0
1001
AVE_RENDER
1002
{
1070
     0
1000
Quick Opt
1070
     0
1070
     1
1070
     1
1070
     1
1070
     0
1070
     0
1070
     1
1002
}
  0
INSERT
  5
97
330
1F
100
AcDbEntity
  8
ASHADE
 62
     5
100
AcDbBlockReference
  2
AVE_RENDER
 10
0.0
 20
0.0
 30
0.0
1001
AVE_RENDER
1002
{
1070
     1
1000
Scanl Opt
1070
     2
1070
     0
1070
     2
1040
2.0
1040
4.0
1070
     0
1070
     1
1070
     0
1040
0.03
1002
}
  0
INSERT
  5
98
330
1F
100
AcDbEntity
  8
ASHADE
 62
     6
100
AcDbBlockReference
  2
AVE_RENDER
 10
0.0
 20
0.0
 30
0.0
1001
AVE_RENDER
1002
{
1070
     2
1000
Raytr Opt
1070
     2
1070
     0
1070
     2
1040
2.0
1040
4.0
1070
     0
1070
     1
1070
     1
1040
0.03
1070
     3
1040
0.03
1002
}
  0
INSERT
  5
99
330
1F
100
AcDbEntity
  8
ASHADE
 62
     7
100
AcDbBlockReference
  2
AVE_RENDER
 10
0.0
 20
0.0
 30
0.0
1001
AVE_RENDER
1002
{
1070
     0
1000
RFile Opt
1070
     1
1070
   640
1070
   480
1070
 10000
1070
     1
1070
     8
1070
     8
1070
     0
1070
     0
1070
     0
1070
     0
1070
     0
1070
     0
1070
     0
1002
}
  0
INSERT
  5
9A
330
1F
100
AcDbEntity
  8
ASHADE
 62
     8
100
AcDbBlockReference
  2
AVE_RENDER
 10
0.0
 20
0.0
 30
0.0
1001
AVE_RENDER
1002
{
1070
     0
1000
Fog Opt
1070
     0
1070
     0
1040
0.0
1040
1.0
1040
0.0
1040
1.0
1010
0.5
1020
0.5
1030
0.5
1002
}
  0
INSERT
  5
9B
330
1F
100
AcDbEntity
  8
ASHADE
 62
     9
100
AcDbBlockReference
  2
AVE_RENDER
 10
0.0
 20
0.0
 30
0.0
1001
AVE_RENDER
1002
{
1070
     0
1000
BG Opt
1070
     0
1070
     1
1010
0.0
1020
0.0
1030
0.0
1010
1.0
1020
0.0
1030
0.0
1010
0.0
1020
1.0
1030
0.0
1010
0.0
1020
0.0
1030
1.0
1040
0.5
1040
0.33
1040
0.0
1000

1070
     1
1000

1070
     1
1070
     1
1040
1.0
1040
1.0
1040
0.0
1040
0.0
1070
     0
1002
}
  0
INSERT
  5
A2
330
1F
100
AcDbEntity
  8
ASHADE
 62
     1
100
AcDbBlockReference
  2
AVE_GLOBAL
 10
0.0
 20
0.0
 30
0.0
1001
AVE_MATERIAL
1002
{
1000
*GLOBAL*
1000
2
1000
Global finish.
1002
{
1002
}
1002
{
1070
    63
1002
{
1002
{
1010
-1.0
1020
-1.0
1030
-1.0
1002
}
1040
0.1000000014901161
1000

1040
0.0
1002
{
1002
}
1040
0.0
1002
{
1002
}
1040
0.0
1002
}
1002
{
1002
{
1010
-1.0
1020
-1.0
1030
-1.0
1002
}
1040
0.6999999880790711
1000

1040
0.0
1002
{
1002
}
1040
0.0
1002
{
1002
}
1040
0.0
1002
}
1002
{
1002
{
1010
-1.0
1020
-1.0
1030
-1.0
1002
}
1040
0.2000000029802322
1000

1040
0.0
1002
{
1002
}
1040
0.0
1002
{
1002
}
1040
0.0
1002
}
1002
{
1070
     0
1002
{
1070
     1
1002
{
1040
1.0
1040
1.0
1000

1040
0.0
1002
{
1002
}
1040
0.0
1002
{
1002
}
1040
0.0
1002
}
1002
}
1040
1.0
1040
0.0
1040
0.0
1002
}
1002
{
1040
1.0
1040
1.0
1000

1040
0.0
1002
{
1002
}
1040
0.0
1002
{
1002
}
1040
0.0
1002
}
1002
{
1040
0.5
1040
1.0
1000

1040
0.0
1002
{
1002
}
1040
0.0
1002
{
1002
}
1040
0.0
1002
}
1002
{
1070
     0
1040
0.0
1002
{
1002
}
1040
1.0
1002
{
1002
}
1040
0.0
1002
}
1002
{
1040
0.0
1002
{
1002
{
1010
0.0
1020
0.0
1030
0.0
1002
}
1040
1.0
1000

1040
0.0
1002
{
1002
}
1040
0.0
1002
{
1002
}
1040
0.0
1002
}
1002
}
1002
{
1002
{
1070
     1
1002
{
1040
0.0
1040
1.0
1000

1040
0.0
1002
{
1002
}
1040
0.0
1002
{
1002
}
1040
0.0
1002
}
1002
}
1040
0.0
1002
{
1002
}
1010
1.0
1020
0.0
1030
0.0
1010
0.0
1020
1.0
1030
0.0
1010
0.0
1020
0.0
1030
1.0
1070
     0
1002
}
1002
{
1002
{
1040
1.0
1040
1.0
1002
{
1070
     1
1002
{
1040
1.0
1040
1.0
1000

1040
0.0
1002
{
1002
}
1040
0.0
1002
{
1002
}
1040
0.0
1002
}
1002
}
1002
}
1070
     0
1040
0.0
1002
{
1002
}
1002
}
1002
{
1002
}
1002
}
1002
{
1071
        3
1070
     3
1070
     0
1002
{
1070
     2
1070
     0
1070
     0
1040
0.0
1002
}
1070
     0
1070
     2
1002
{
1002
}
1002
}
1002
{
1040
8030.0
1040
190.3000030517578
1040
0.3050000071525574
1040
228.0
1040
545.0
1040
14.0
1040
17.39999961853027
1040
0.4560000002384186
1002
}
1002
}
  0
MESH
  5
F9
330
1F
100
AcDbEntity
  8
OracDecor_cornice_mouldings
 62
    21
420
 14915993
160
             26720
310
60680000E60200000C00000013000000020000003C0000000600000002000000000000C0FF3F8F4000000040008040C0000000000000D83E000000C0FF3F8F40000000E0A66F3DC0000000000000D83E0C000000130000000A0000003C0000000600000002000000000000C0FF3F8F40000000E0A66F3DC0000000000000D8
310
3E000000E0FF3F8FC0000000C0A66F3DC0000000000000D83E0C00000013000000120000003C0000000600000002000000000000E0FF3F8FC000000040008040C0000000000000D83E000000E0FF3F8FC0000000C0A66F3DC0000000000000D83E0C000000130000001A0000003C0000000600000002000000000000E0FF3F
310
8FC000000040008040C0000000000000D83E000000C0FF3F8F4000000040008040C0000000000000D83E0C00000013000000220000003C0000000600000002000000000000C0FF3F8F40000000E0A66F3DC0000000000000D83E000000C0FF3F8F40000000205CF33CC0000000008001DEBF0C000000130000002A0000003C
310
0000000600000002000000000000C0FF3F8F40000000205CF33CC0000000008001DEBF000000E0FF3F8FC0000000005CF33CC0000000008001DEBF0C00000013000000320000003C0000000600000002000000000000E0FF3F8FC0000000005CF33CC0000000008001DEBF000000E0FF3F8FC0000000C0A66F3DC000000000
310
0000D83E0C000000130000003A0000003C0000000600000002000000000000C0FF3F8F40000000205CF33CC0000000008001DEBF000000C0FF3F8F40000000604B553CC000000000B4E8E6BF0C00000013000000420000003C0000000600000002000000000000C0FF3F8F40000000604B553CC000000000B4E8E6BF000000
310
E0FF3F8FC0000000404B553CC000000000B4E8E6BF0C000000130000004A0000003C0000000600000002000000000000E0FF3F8FC0000000404B553CC000000000B4E8E6BF000000E0FF3F8FC0000000005CF33CC0000000008001DEBF0C00000013000000520000003C0000000600000002000000000000C0FF3F8F400000
310
00604B553CC000000000B4E8E6BF000000C0FF3F8F40000000A0B4AA3BC000000000B4E8E6BF0C000000130000005A0000003C0000000600000002000000000000C0FF3F8F40000000A0B4AA3BC000000000B4E8E6BF000000E0FF3F8FC000000080B4AA3BC000000000B4E8E6BF0C00000013000000620000003C00000006
310
00000002000000000000E0FF3F8FC000000080B4AA3BC000000000B4E8E6BF000000E0FF3F8FC0000000404B553CC000000000B4E8E6BF0C000000130000006A0000003C0000000600000002000000000000C0FF3F8F40000000A0B4AA3BC000000000B4E8E6BF000000C0FF3F8F40000000A0A30C3BC0000000008001DEBF
310
0C00000013000000720000003C0000000600000002000000000000E0FF3F8FC0000000C0A30C3BC0000000008001DEBF000000C0FF3F8F40000000A0A30C3BC0000000008001DEBF0C000000130000007A0000003C0000000600000002000000000000E0FF3F8FC0000000C0A30C3BC0000000008001DEBF000000E0FF3F8F
310
C000000080B4AA3BC000000000B4E8E6BF0C00000013000000820000003C0000000600000002000000000000C0FF3F8F40000000A0A30C3BC0000000008001DEBF000000C0FF3F8F40000000E058903AC0000000000000D83E0C000000130000008A0000003C0000000600000002000000000000E0FF3F8FC0000000005990
310
3AC0000000000000D83E000000C0FF3F8F40000000E058903AC0000000000000D83E0C00000013000000920000003C0000000600000002000000000000E0FF3F8FC00000000059903AC0000000000000D83E000000E0FF3F8FC0000000C0A30C3BC0000000008001DEBF0C000000130000009A0000003C0000000600000002
310
000000000000C0FF3F8F40000000E058903AC0000000000000D83E000000C0FF3F8F40000000C0FFFF36C0000000000000D83E0C00000013000000A20000003C0000000600000002000000000000C0FF3F8F40000000C0FFFF36C0000000000000D83E000000E0FF3F8FC0000000C0FFFF36C0000000000000D83E0C000000
310
13000000AA0000003C0000000600000002000000000000E0FF3F8FC00000000059903AC0000000000000D83E000000E0FF3F8FC0000000C0FFFF36C0000000000000D83E0C00000013000000B20000003C0000000600000002000000000000C0FF3F8F40000000C0FFFF36C0000000000000D83E000000C0FF3F8F40000000
310
80D23E31C00000000036B913C00C00000013000000BA0000003C0000000600000002000000000000C0FF3F8F4000000080D23E31C00000000036B913C0000000E0FF3F8FC000000080D23E31C00000008035B913C00C00000013000000C20000003C0000000600000002000000000000E0FF3F8FC000000080D23E31C00000
310
008035B913C0000000E0FF3F8FC0000000C0FFFF36C0000000000000D83E0C00000013000000CA0000003C0000000600000002000000000000C0FF3F8F4000000080D23E31C00000000036B913C0000000C0FF3F8F4000000040164A2BC000000000E1A725C00C00000013000000D20000003C000000060000000200000000
310
0000C0FF3F8F4000000040164A2BC000000000E1A725C0000000E0FF3F8FC000000000164A2BC0000000C0E0A725C00C00000013000000DA0000003C0000000600000002000000000000E0FF3F8FC000000000164A2BC0000000C0E0A725C0000000E0FF3F8FC000000080D23E31C00000008035B913C00C00000013000000
310
E20000003C0000000600000002000000000000C0FF3F8F4000000040164A2BC000000000E1A725C0000000C0FF3F8F4000000040F96C28C0000000C0B34F29C00C00000013000000EA0000003C0000000600000002000000000000C0FF3F8F4000000040F96C28C0000000C0B34F29C0000000E0FF3F8FC0000000E0F86C28
310
C000000080B34F29C00C00000013000000F20000003C0000000600000002000000000000E0FF3F8FC0000000E0F86C28C000000080B34F29C0000000E0FF3F8FC000000000164A2BC0000000C0E0A725C00C00000013000000FA0000003C0000000600000002000000000000C0FF3F8F4000000040F96C28C0000000C0B34F
310
29C0000000C0FF3F8F40000000C0CDCB24C0000000403C352CC00C00000013000000020100003C0000000600000002000000000000C0FF3F8F40000000C0CDCB24C0000000403C352CC0000000E0FF3F8FC000000060CDCB24C0000000E03B352CC00C000000130000000A0100003C0000000600000002000000000000E0FF
310
3F8FC000000060CDCB24C0000000E03B352CC0000000E0FF3F8FC0000000E0F86C28C000000080B34F29C00C00000013000000120100003C0000000600000002000000000000C0FF3F8F40000000C0CDCB24C0000000403C352CC0000000C0FF3F8F4000000060AB9820C0000000407F302EC00C000000130000001A010000
310
3C0000000600000002000000000000C0FF3F8F4000000060AB9820C0000000407F302EC0000000E0FF3F8FC000000040AB9820C0000000C07E302EC00C00000013000000220100003C0000000600000002000000000000E0FF3F8FC000000040AB9820C0000000C07E302EC0000000E0FF3F8FC000000060CDCB24C0000000
310
E03B352CC00C000000130000002A0100003C0000000600000002000000000000C0FF3F8F4000000060AB9820C0000000407F302EC0000000C0FF3F8F4000000000FFFF0BC0000000406FB530C00C00000013000000320100003C0000000600000002000000000000C0FF3F8F4000000000FFFF0BC0000000406FB530C00000
310
00E0FF3F8FC000000040FEFF0BC0000000206FB530C00C000000130000003A0100003C0000000600000002000000000000E0FF3F8FC000000040FEFF0BC0000000206FB530C0000000E0FF3F8FC000000040AB9820C0000000C07E302EC00C00000013000000420100003C0000000600000002000000000000C0FF3F8F4000
310
000000FFFF0BC0000000406FB530C0000000C0FF3F8F40000000000000C03E000000002EB533C00C000000130000004A0100003C0000000600000002000000000000E0FF3F8FC0000000000000D43E000000C02DB533C0000000C0FF3F8F40000000000000C03E000000002EB533C00C00000013000000520100003C000000
310
0600000002000000000000E0FF3F8FC0000000000000D43E000000C02DB533C0000000E0FF3F8FC000000040FEFF0BC0000000206FB530C00C000000130000005A0100003C0000000600000002000000000000C0FF3F8F40000000000000C03E000000002EB533C0000000C0FF3F8F40000000000000C03E00000040591036
310
C00C00000013000000620100003C0000000600000002000000000000E0FF3F8FC0000000000000C83E00000020591036C0000000C0FF3F8F40000000000000C03E00000040591036C00C000000130000006A0100003C0000000600000002000000000000E0FF3F8FC0000000000000C83E00000020591036C0000000E0FF3F
310
8FC0000000000000D43E000000C02DB533C00C00000013000000720100003C0000000600000002000000000000C0FF3F8F40000000000000C03E00000040591036C0000000C0FF3F8F40000000006806DEBF00000000C98C36C00C000000130000007A0100003C0000000600000002000000000000E0FF3F8FC00000000060
310
06DEBF000000C0C88C36C0000000C0FF3F8F40000000006806DEBF00000000C98C36C00C00000013000000820100003C0000000600000002000000000000E0FF3F8FC0000000006006DEBF000000C0C88C36C0000000E0FF3F8FC0000000000000C83E00000020591036C00C000000130000008A0100003C00000006000000
310
02000000000000C0FF3F8F40000000006806DEBF00000000C98C36C0000000C0FF3F8F4000000000A0E9E6BF00000000C82A37C00C00000013000000920100003C0000000600000002000000000000E0FF3F8FC0000000009CE9E6BF000000C0C72A37C0000000C0FF3F8F4000000000A0E9E6BF00000000C82A37C00C0000
310
00130000009A0100003C0000000600000002000000000000E0FF3F8FC0000000009CE9E6BF000000C0C72A37C0000000E0FF3F8FC0000000006006DEBF000000C0C88C36C00C00000013000000A20100003C0000000600000002000000000000C0FF3F8F4000000000A0E9E6BF00000000C82A37C0000000C0FF3F8F400000
310
0000A0E9E6BF0000008038D537C00C00000013000000AA0100003C0000000600000002000000000000C0FF3F8F4000000000A0E9E6BF0000008038D537C0000000E0FF3F8FC0000000009CE9E6BF0000004038D537C00C00000013000000B20100003C0000000600000002000000000000E0FF3F8FC0000000009CE9E6BF00
310
0000C0C72A37C0000000E0FF3F8FC0000000009CE9E6BF0000004038D537C00C00000013000000BA0100003C0000000600000002000000000000C0FF3F8F40000000006806DEBF00000080377338C0000000C0FF3F8F4000000000A0E9E6BF0000008038D537C00C00000013000000C20100003C0000000600000002000000
310
000000C0FF3F8F40000000006806DEBF00000080377338C0000000E0FF3F8FC0000000006006DEBF00000040377338C00C00000013000000CA0100003C0000000600000002000000000000E0FF3F8FC0000000006006DEBF00000040377338C0000000E0FF3F8FC0000000009CE9E6BF0000004038D537C00C000000130000
310
00D20100003C0000000600000002000000000000C0FF3F8F40000000000000C03E00000000A7EF38C0000000C0FF3F8F40000000006806DEBF00000080377338C00C00000013000000DA0100003C0000000600000002000000000000C0FF3F8F40000000000000C03E00000000A7EF38C0000000E0FF3F8FC0000000000000
310
C83E000000E0A6EF38C00C00000013000000E20100003C0000000600000002000000000000E0FF3F8FC0000000000000C83E000000E0A6EF38C0000000E0FF3F8FC0000000006006DEBF00000040377338C00C00000013000000EA0100003C0000000600000002000000000000C0FF3F8F40000000000000C03E0000004000
310
003BC0000000C0FF3F8F40000000000000C03E00000000A7EF38C00C00000013000000F20100003C0000000600000002000000000000C0FF3F8F40000000000000C03E0000004000003BC0000000E0FF3F8FC0000000000000C83E0000000000003BC00C00000013000000FA0100003C0000000600000002000000000000E0
310
FF3F8FC0000000000000C83E0000000000003BC0000000E0FF3F8FC0000000000000C83E000000E0A6EF38C00C00000013000000020200003C0000000600000002000000000000C0FF3F8F4000000000FEFFFFBF0000004000003BC0000000C0FF3F8F40000000000000C03E0000004000003BC00C000000130000000A0200
310
003C0000000600000002000000000000E0FF3F8FC000000000FDFFFFBF0000000000003BC0000000C0FF3F8F4000000000FEFFFFBF0000004000003BC00C00000013000000120200003C0000000600000002000000000000E0FF3F8FC000000000FDFFFFBF0000000000003BC0000000E0FF3F8FC0000000000000C83E0000
310
000000003BC00C000000130000001A0200003C0000000600000002000000000000C0FF3F8F4000000000FEFFFFBF00000020000047C0000000C0FF3F8F4000000000FEFFFFBF0000004000003BC00C00000013000000220200003C0000000600000002000000000000E0FF3F8FC000000000FDFFFFBF00000000000047C000
310
0000C0FF3F8F4000000000FEFFFFBF00000020000047C00C000000130000002A0200003C0000000600000002000000000000E0FF3F8FC000000000FDFFFFBF00000000000047C0000000E0FF3F8FC000000000FDFFFFBF0000000000003BC00C00000013000000320200003C0000000600000002000000000000C0FF3F8F40
310
000000000000C03E00000020000047C0000000C0FF3F8F4000000000FEFFFFBF00000020000047C00C000000130000003A0200003C0000000600000002000000000000C0FF3F8F40000000000000C03E00000020000047C0000000E0FF3F8FC0000000000000C83E00000000000047C00C00000013000000420200003C0000
310
000600000002000000000000E0FF3F8FC000000000FDFFFFBF00000000000047C0000000E0FF3F8FC0000000000000C83E00000000000047C00C000000130000004A0200003C0000000600000002000000000000C0FF3F8F40000000000000C03E00000020000047C0000000C0FF3F8F40000000000000C03E000000A02CC8
310
49C00C00000013000000520200003C0000000600000002000000000000C0FF3F8F40000000000000C03E000000A02CC849C0000000E0FF3F8FC0000000000000C83E000000802CC849C00C000000130000005A0200003C0000000600000002000000000000E0FF3F8FC0000000000000C83E000000802CC849C0000000E0FF
310
3F8FC0000000000000C83E00000000000047C00C00000013000000620200003C0000000600000002000000000000C0FF3F8F40000000006806DEBF0000008064064AC0000000C0FF3F8F40000000000000C03E000000A02CC849C00C000000130000006A0200003C0000000600000002000000000000E0FF3F8FC000000000
310
6006DEBF0000006064064AC0000000C0FF3F8F40000000006806DEBF0000008064064AC00C00000013000000720200003C0000000600000002000000000000E0FF3F8FC0000000006006DEBF0000006064064AC0000000E0FF3F8FC0000000000000C83E000000802CC849C00C000000130000007A0200003C000000060000
310
0002000000000000C0FF3F8F40000000006806DEBF0000008064064AC0000000C0FF3F8F4000000000A0E9E6BF0000000064554AC00C00000013000000820200003C0000000600000002000000000000C0FF3F8F4000000000A0E9E6BF0000000064554AC0000000E0FF3F8FC0000000009CE9E6BF000000E063554AC00C00
310
0000130000008A0200003C0000000600000002000000000000E0FF3F8FC0000000006006DEBF0000006064064AC0000000E0FF3F8FC0000000009CE9E6BF000000E063554AC00C00000013000000920200003C0000000600000002000000000000C0FF3F8F4000000000A0E9E6BF0000000064554AC0000000C0FF3F8F4000
310
000000A0E9E6BF000000409CAA4AC00C000000130000009A0200003C0000000600000002000000000000E0FF3F8FC0000000009CE9E6BF000000209CAA4AC0000000C0FF3F8F4000000000A0E9E6BF000000409CAA4AC00C00000013000000A20200003C0000000600000002000000000000E0FF3F8FC0000000009CE9E6BF
310
000000209CAA4AC0000000E0FF3F8FC0000000009CE9E6BF000000E063554AC00C00000013000000AA0200003C0000000600000002000000000000C0FF3F8F40000000006806DEBF000000C09BF94AC0000000C0FF3F8F4000000000A0E9E6BF000000409CAA4AC00C00000013000000B20200003C00000006000000020000
310
00000000C0FF3F8F40000000006806DEBF000000C09BF94AC0000000E0FF3F8FC0000000006006DEBF000000A09BF94AC00C00000013000000BA0200003C0000000600000002000000000000E0FF3F8FC0000000009CE9E6BF000000209CAA4AC0000000E0FF3F8FC0000000006006DEBF000000A09BF94AC00C0000001300
310
0000C20200003C0000000600000002000000000000C0FF3F8F40000000000000C03E000000A0D3374BC0000000C0FF3F8F40000000006806DEBF000000C09BF94AC00C00000013000000CA0200003C0000000600000002000000000000E0FF3F8FC0000000000000C83E00000080D3374BC0000000C0FF3F8F400000000000
310
00C03E000000A0D3374BC00C00000013000000D20200003C0000000600000002000000000000E0FF3F8FC0000000000000C83E00000080D3374BC0000000E0FF3F8FC0000000006006DEBF000000A09BF94AC00C00000013000000DA0200003C0000000600000002000000000000C0FF3F8F40000000000000C03E000000A0
310
D3374BC0000000C0FF3F8F40000000000000C0BE0000002000004EC00C00000013000000E20200003C0000000600000002000000000000C0FF3F8F40000000000000C0BE0000002000004EC0000000E0FF3F8FC0000000000000C03E0000000000004EC00C00000013000000EA0200003C0000000600000002000000000000
310
E0FF3F8FC0000000000000C83E00000080D3374BC0000000E0FF3F8FC0000000000000C03E0000000000004EC00C00000013000000F20200003C0000000600000002000000000000C0FF3F8F4000000040F5660AC0000000A0DCE94DC0000000C0FF3F8F40000000000000C0BE0000002000004EC00C00000013000000FA02
310
00003C0000000600000002000000000000C0FF3F8F4000000040F5660AC0000000A0DCE94DC0000000E0FF3F8FC000000080F4660AC000000080DCE94DC00C00000013000000020300003C0000000600000002000000000000E0FF3F8FC0000000000000C03E0000000000004EC0000000E0FF3F8FC000000080F4660AC000
310
000080DCE94DC00C000000130000000A0300003C0000000600000002000000000000C0FF3F8F40000000007D1E0CC000000040FECE4DC0000000C0FF3F8F400000008097CB0CC0000000600F3E4DC00C00000013000000120300003C0000000600000002000000000000E0FF3F8FC0000000C096CB0CC0000000400F3E4DC0
310
000000C0FF3F8F400000008097CB0CC0000000600F3E4DC00C000000130000001A0300003C0000000600000002000000000000E0FF3F8FC0000000C096CB0CC0000000400F3E4DC0000000E0FF3F8FC0000000007C1E0CC000000020FECE4DC00C00000013000000220300003C0000000600000002000000000000C0FF3F8F
310
40000000007D1E0CC000000040FECE4DC0000000E0FF3F8FC0000000007C1E0CC000000020FECE4DC00C000000130000002A0300003C0000000600000002000000000000C0FF3F8F400000008097CB0CC0000000600F3E4DC0000000C0FF3F8F40000000801D3D0FC00000002044BE4CC00C00000013000000320300003C00
310
00000600000002000000000000E0FF3F8FC0000000C01C3D0FC00000000044BE4CC0000000C0FF3F8F40000000801D3D0FC00000002044BE4CC00C000000130000003A0300003C0000000600000002000000000000E0FF3F8FC0000000C01C3D0FC00000000044BE4CC0000000E0FF3F8FC0000000C096CB0CC0000000400F
310
3E4DC00C00000013000000420300003C0000000600000002000000000000C0FF3F8F40000000801D3D0FC00000002044BE4CC0000000C0FF3F8F4000000060FEE911C000000040AA564CC00C000000130000004A0300003C0000000600000002000000000000E0FF3F8FC0000000E0FDE911C000000020AA564CC0000000C0
310
FF3F8F4000000060FEE911C000000040AA564CC00C00000013000000520300003C0000000600000002000000000000E0FF3F8FC0000000E0FDE911C000000020AA564CC0000000E0FF3F8FC0000000C01C3D0FC00000000044BE4CC00C000000130000005A0300003C0000000600000002000000000000C0FF3F8F40000000
310
60FEE911C000000040AA564CC0000000C0FF3F8F400000008003E415C0000000E04AEB4BC00C00000013000000620300003C0000000600000002000000000000E0FF3F8FC00000000003E415C0000000C04AEB4BC0000000C0FF3F8F400000008003E415C0000000E04AEB4BC00C000000130000006A0300003C0000000600
310
000002000000000000E0FF3F8FC00000000003E415C0000000C04AEB4BC0000000E0FF3F8FC0000000E0FDE911C000000020AA564CC00C00000013000000720300003C0000000600000002000000000000C0FF3F8F400000008003E415C0000000E04AEB4BC0000000C0FF3F8F40000000801D0B1BC000000080F8754BC00C
310
000000130000007A0300003C0000000600000002000000000000C0FF3F8F40000000801D0B1BC000000080F8754BC0000000E0FF3F8FC0000000001D0B1BC000000060F8754BC00C00000013000000820300003C0000000600000002000000000000E0FF3F8FC00000000003E415C0000000C04AEB4BC0000000E0FF3F8FC0
310
000000001D0B1BC000000060F8754BC00C000000130000008A0300003C0000000600000002000000000000C0FF3F8F40000000801D0B1BC000000080F8754BC0000000C0FF3F8F4000000040FF3D1FC00000006030084BC00C00000013000000920300003C0000000600000002000000000000C0FF3F8F4000000040FF3D1F
310
C00000006030084BC0000000E0FF3F8FC0000000E0FE3D1FC00000004030084BC00C000000130000009A0300003C0000000600000002000000000000E0FF3F8FC0000000E0FE3D1FC00000004030084BC0000000E0FF3F8FC0000000001D0B1BC000000060F8754BC00C00000013000000A20300003C000000060000000200
310
0000000000C0FF3F8F400000004059E220C000000040E8A54AC0000000C0FF3F8F4000000040FF3D1FC00000006030084BC00C00000013000000AA0300003C0000000600000002000000000000E0FF3F8FC00000002059E220C000000020E8A54AC0000000C0FF3F8F400000004059E220C000000040E8A54AC00C00000013
310
000000B20300003C0000000600000002000000000000E0FF3F8FC00000002059E220C000000020E8A54AC0000000E0FF3F8FC0000000E0FE3D1FC00000004030084BC00C00000013000000BA0300003C0000000600000002000000000000C0FF3F8F400000004059E220C000000040E8A54AC0000000C0FF3F8F4000000000
310
076C21C0000000E01F4F4AC00C00000013000000C20300003C0000000600000002000000000000C0FF3F8F4000000000076C21C0000000E01F4F4AC0000000E0FF3F8FC0000000E0066C21C0000000C01F4F4AC00C00000013000000CA0300003C0000000600000002000000000000E0FF3F8FC00000002059E220C0000000
310
20E8A54AC0000000E0FF3F8FC0000000E0066C21C0000000C01F4F4AC00C00000013000000D20300003C0000000600000002000000000000C0FF3F8F40000000C0436C21C000000060C8FD49C0000000C0FF3F8F4000000000076C21C0000000E01F4F4AC00C00000013000000DA0300003C00000006000000020000000000
310
00C0FF3F8F40000000C0436C21C000000060C8FD49C0000000E0FF3F8FC000000080436C21C000000040C8FD49C00C00000013000000E20300003C0000000600000002000000000000E0FF3F8FC000000080436C21C000000040C8FD49C0000000E0FF3F8FC0000000E0066C21C0000000C01F4F4AC00C00000013000000EA
310
0300003C0000000600000002000000000000C0FF3F8F400000008021DE20C0000000608DA349C0000000C0FF3F8F40000000C0436C21C000000060C8FD49C00C00000013000000F20300003C0000000600000002000000000000C0FF3F8F400000008021DE20C0000000608DA349C0000000E0FF3F8FC00000006021DE20C0
310
000000408DA349C00C00000013000000FA0300003C0000000600000002000000000000E0FF3F8FC00000006021DE20C0000000408DA349C0000000E0FF3F8FC000000080436C21C000000040C8FD49C00C00000013000000020400003C0000000600000002000000000000C0FF3F8F4000000020B3A61FC0000000C0965149
310
C0000000C0FF3F8F400000008021DE20C0000000608DA349C00C000000130000000A0400003C0000000600000002000000000000E0FF3F8FC000000080B2A61FC0000000A0965149C0000000C0FF3F8F4000000020B3A61FC0000000C0965149C00C00000013000000120400003C0000000600000002000000000000E0FF3F
310
8FC000000080B2A61FC0000000A0965149C0000000E0FF3F8FC00000006021DE20C0000000408DA349C00C000000130000001A0400003C0000000600000002000000000000C0FF3F8F4000000020B3A61FC0000000C0965149C0000000C0FF3F8F40000000A0C9511DC000000040AB2449C00C00000013000000220400003C
310
0000000600000002000000000000C0FF3F8F40000000A0C9511DC000000040AB2449C0000000E0FF3F8FC0000000E0C8511DC000000020AB2449C00C000000130000002A0400003C0000000600000002000000000000E0FF3F8FC000000080B2A61FC0000000A0965149C0000000E0FF3F8FC0000000E0C8511DC000000020
310
AB2449C00C00000013000000320400003C0000000600000002000000000000C0FF3F8F40000000A0C9511DC000000040AB2449C0000000C0FF3F8F400000000097C11AC0000000A05A0849C00C000000130000003A0400003C0000000600000002000000000000C0FF3F8F400000000097C11AC0000000A05A0849C0000000
310
E0FF3F8FC00000004096C11AC0000000805A0849C00C00000013000000420400003C0000000600000002000000000000E0FF3F8FC0000000E0C8511DC000000020AB2449C0000000E0FF3F8FC00000004096C11AC0000000805A0849C00C000000130000004A0400003C0000000600000002000000000000C0FF3F8F400000
310
000000001AC00000008066E648C0000000C0FF3F8F4000000080FFFF19C000000040FF2F48C00C00000013000000520400003C0000000600000002000000000000C0FF3F8F4000000080FFFF19C000000040FF2F48C0000000E0FF3F8FC0000000E0FEFF19C000000040FF2F48C00C000000130000005A0400003C00000006
310
00000002000000000000E0FF3F8FC000000040FFFF19C00000006066E648C0000000E0FF3F8FC0000000E0FEFF19C000000040FF2F48C00C00000013000000620400003C0000000600000002000000000000E0FF3F8FC000000040FFFF19C00000006066E648C0000000C0FF3F8F400000000000001AC00000008066E648C0
310
0C000000130000006A0400003C0000000600000002000000000000C0FF3F8F40000000A004CC1AC0000000802A1448C0000000C0FF3F8F4000000040FD9920C0000000403B0248C00C00000013000000720400003C0000000600000002000000000000C0FF3F8F4000000040FD9920C0000000403B0248C0000000E0FF3F8F
310
C000000000FD9920C0000000203B0248C00C000000130000007A0400003C0000000600000002000000000000E0FF3F8FC00000002004CC1AC0000000802A1448C0000000E0FF3F8FC000000000FD9920C0000000203B0248C00C00000013000000820400003C0000000600000002000000000000E0FF3F8FC00000002004CC
310
1AC0000000802A1448C0000000C0FF3F8F40000000A004CC1AC0000000802A1448C00C000000130000008A0400003C0000000600000002000000000000C0FF3F8F40000000C0FFFF20C00000008066E647C0000000C0FF3F8F4000000000000021C000000080333338C00C00000013000000920400003C0000000600000002
310
000000000000C0FF3F8F4000000000000021C000000080333338C0000000E0FF3F8FC0000000C0FFFF20C000000040333338C00C000000130000009A0400003C0000000600000002000000000000E0FF3F8FC0000000A0FFFF20C00000006066E647C0000000E0FF3F8FC0000000C0FFFF20C000000040333338C00C000000
310
13000000A20400003C0000000600000002000000000000E0FF3F8FC0000000A0FFFF20C00000006066E647C0000000C0FF3F8F40000000C0FFFF20C00000008066E647C00C00000013000000AA0400003C0000000600000002000000000000C0FF3F8F4000000040FD9920C0000000E089FB37C0000000C0FF3F8F40000000
310
A004CC1AC000000060ABD737C00C00000013000000B20400003C0000000600000002000000000000C0FF3F8F40000000A004CC1AC000000060ABD737C0000000E0FF3F8FC00000002004CC1AC000000020ABD737C00C00000013000000BA0400003C0000000600000002000000000000E0FF3F8FC000000020FD9920C00000
310
00A089FB37C0000000E0FF3F8FC00000002004CC1AC000000020ABD737C00C00000013000000C20400003C0000000600000002000000000000C0FF3F8F4000000040FD9920C0000000E089FB37C0000000E0FF3F8FC000000020FD9920C0000000A089FB37C00C00000013000000CA0400003C000000060000000200000000
310
0000C0FF3F8F400000000000001AC000000080333336C0000000C0FF3F8F4000000080FFFF19C0000000C001A037C00C00000013000000D20400003C0000000600000002000000000000C0FF3F8F400000000000001AC000000080333336C0000000E0FF3F8FC000000040FFFF19C000000040333336C00C00000013000000
310
DA0400003C0000000600000002000000000000E0FF3F8FC0000000E0FEFF19C00000008001A037C0000000E0FF3F8FC000000040FFFF19C000000040333336C00C00000013000000E20400003C0000000600000002000000000000E0FF3F8FC0000000E0FEFF19C00000008001A037C0000000C0FF3F8F4000000080FFFF19
310
C0000000C001A037C00C00000013000000EA0400003C0000000600000002000000000000C0FF3F8F400000004071F01DC0000000008CD335C0000000C0FF3F8F4000000040B0C91AC0000000401CF735C00C00000013000000F20400003C0000000600000002000000000000C0FF3F8F400000004071F01DC0000000008CD3
310
35C0000000E0FF3F8FC0000000E070F01DC0000000C08BD335C00C00000013000000FA0400003C0000000600000002000000000000E0FF3F8FC000000080AFC91AC0000000001CF735C0000000E0FF3F8FC0000000E070F01DC0000000C08BD335C00C00000013000000020500003C0000000600000002000000000000E0FF
310
3F8FC000000080AFC91AC0000000001CF735C0000000C0FF3F8F4000000040B0C91AC0000000401CF735C00C000000130000000A0500003C0000000600000002000000000000C0FF3F8F400000004034D822C000000080C07035C0000000C0FF3F8F400000004071F01DC0000000008CD335C00C0000001300000012050000
310
3C0000000600000002000000000000E0FF3F8FC00000000034D822C000000040C07035C0000000C0FF3F8F400000004034D822C000000080C07035C00C000000130000001A0500003C0000000600000002000000000000E0FF3F8FC00000000034D822C000000040C07035C0000000E0FF3F8FC0000000E070F01DC0000000
310
C08BD335C00C00000013000000220500003C0000000600000002000000000000C0FF3F8F400000004034D822C000000080C07035C0000000C0FF3F8F4000000000F41C26C00000004034F034C00C000000130000002A0500003C0000000600000002000000000000E0FF3F8FC0000000E0F31C26C00000002034F034C00000
310
00C0FF3F8F4000000000F41C26C00000004034F034C00C00000013000000320500003C0000000600000002000000000000E0FF3F8FC0000000E0F31C26C00000002034F034C0000000E0FF3F8FC00000000034D822C000000040C07035C00C000000130000003A0500003C0000000600000002000000000000C0FF3F8F4000
310
000040488829C0000000005E1134C0000000C0FF3F8F4000000000F41C26C00000004034F034C00C00000013000000420500003C0000000600000002000000000000E0FF3F8FC000000000488829C0000000C05D1134C0000000C0FF3F8F4000000040488829C0000000005E1134C00C000000130000004A0500003C000000
310
0600000002000000000000E0FF3F8FC000000000488829C0000000C05D1134C0000000E0FF3F8FC0000000E0F31C26C00000002034F034C00C00000013000000520500003C0000000600000002000000000000C0FF3F8F4000000040488829C0000000005E1134C0000000C0FF3F8F400000002056C82DC0000000C0FC8032
310
C00C000000130000005A0500003C0000000600000002000000000000E0FF3F8FC00000000056C82DC000000080FC8032C0000000C0FF3F8F400000002056C82DC0000000C0FC8032C00C00000013000000620500003C0000000600000002000000000000E0FF3F8FC00000000056C82DC000000080FC8032C0000000E0FF3F
310
8FC000000000488829C0000000C05D1134C00C000000130000006A0500003C0000000600000002000000000000C0FF3F8F4000000080460630C000000000296631C0000000C0FF3F8F400000002056C82DC0000000C0FC8032C00C00000013000000720500003C0000000600000002000000000000E0FF3F8FC0000000A046
310
0630C0000000E0286631C0000000C0FF3F8F4000000080460630C000000000296631C00C000000130000007A0500003C0000000600000002000000000000E0FF3F8FC0000000A0460630C0000000E0286631C0000000E0FF3F8FC00000000056C82DC000000080FC8032C00C00000013000000820500003C00000006000000
310
02000000000000C0FF3F8F4000000080460630C000000000296631C0000000C0FF3F8F40000000E02D1431C0000000C0530F30C00C000000130000008A0500003C0000000600000002000000000000E0FF3F8FC0000000002E1431C0000000A0530F30C0000000C0FF3F8F40000000E02D1431C0000000C0530F30C00C0000
310
0013000000920500003C0000000600000002000000000000E0FF3F8FC0000000002E1431C0000000A0530F30C0000000E0FF3F8FC0000000A0460630C0000000E0286631C00C000000130000009A0500003C0000000600000002000000000000C0FF3F8F40000000A0031032C00000008067FB2CC0000000C0FF3F8F400000
310
00E02D1431C0000000C0530F30C00C00000013000000A20500003C0000000600000002000000000000C0FF3F8F40000000A0031032C00000008067FB2CC0000000E0FF3F8FC0000000C0031032C00000004067FB2CC00C00000013000000AA0500003C0000000600000002000000000000E0FF3F8FC0000000002E1431C000
310
0000A0530F30C0000000E0FF3F8FC0000000C0031032C00000004067FB2CC00C00000013000000B20500003C0000000600000002000000000000C0FF3F8F4000000020600833C000000080FE7629C0000000C0FF3F8F40000000A0031032C00000008067FB2CC00C00000013000000BA0500003C0000000600000002000000
310
000000E0FF3F8FC000000040600833C000000000FE7629C0000000C0FF3F8F4000000020600833C000000080FE7629C00C00000013000000C20500003C0000000600000002000000000000E0FF3F8FC000000040600833C000000000FE7629C0000000E0FF3F8FC0000000C0031032C00000004067FB2CC00C000000130000
310
00CA0500003C0000000600000002000000000000C0FF3F8F4000000080550D34C00000000079C025C0000000C0FF3F8F4000000020600833C000000080FE7629C00C00000013000000D20500003C0000000600000002000000000000C0FF3F8F4000000080550D34C00000000079C025C0000000E0FF3F8FC000000080550D
310
34C0000000C078C025C00C00000013000000DA0500003C0000000600000002000000000000E0FF3F8FC000000040600833C000000000FE7629C0000000E0FF3F8FC000000080550D34C0000000C078C025C00C00000013000000E20500003C0000000600000002000000000000C0FF3F8F4000000080542635C00000000031
310
4922C0000000C0FF3F8F4000000080550D34C00000000079C025C00C00000013000000EA0500003C0000000600000002000000000000C0FF3F8F4000000080542635C000000000314922C0000000E0FF3F8FC000000080542635C0000000C0304922C00C00000013000000F20500003C0000000600000002000000000000E0
310
FF3F8FC000000080542635C0000000C0304922C0000000E0FF3F8FC000000080550D34C0000000C078C025C00C00000013000000FA0500003C0000000600000002000000000000C0FF3F8F40000000A0ED4436C00000000068C31EC0000000C0FF3F8F4000000080542635C000000000314922C00C00000013000000020600
310
003C0000000600000002000000000000E0FF3F8FC0000000C0ED4436C00000008067C31EC0000000C0FF3F8F40000000A0ED4436C00000000068C31EC00C000000130000000A0600003C0000000600000002000000000000E0FF3F8FC0000000C0ED4436C00000008067C31EC0000000E0FF3F8FC000000080542635C00000
310
00C0304922C00C00000013000000120600003C0000000600000002000000000000C0FF3F8F40000000A0ED4436C00000000068C31EC0000000C0FF3F8F4000000020BD6537C00000000061171AC00C000000130000001A0600003C0000000600000002000000000000C0FF3F8F4000000020BD6537C00000000061171AC000
310
0000E0FF3F8FC000000040BD6537C00000008060171AC00C00000013000000220600003C0000000600000002000000000000E0FF3F8FC0000000C0ED4436C00000008067C31EC0000000E0FF3F8FC000000040BD6537C00000008060171AC00C000000130000002A0600003C0000000600000002000000000000C0FF3F8F40
310
00000060FBDA39C000000000F94F13C0000000C0FF3F8F4000000020BD6537C00000000061171AC00C00000013000000320600003C0000000600000002000000000000E0FF3F8FC000000080FBDA39C000000080F84F13C0000000C0FF3F8F4000000060FBDA39C000000000F94F13C00C000000130000003A0600003C0000
310
000600000002000000000000E0FF3F8FC000000080FBDA39C000000080F84F13C0000000E0FF3F8FC000000040BD6537C00000008060171AC00C00000013000000420600003C0000000600000002000000000000C0FF3F8F40000000A0A7643BC000000080BC9810C0000000C0FF3F8F4000000060FBDA39C000000000F94F
310
13C00C000000130000004A0600003C0000000600000002000000000000E0FF3F8FC000000080A7643BC000000080BC9810C0000000C0FF3F8F40000000A0A7643BC000000080BC9810C00C00000013000000520600003C0000000600000002000000000000E0FF3F8FC000000080A7643BC000000080BC9810C0000000E0FF
310
3F8FC000000080FBDA39C000000080F84F13C00C000000130000005A0600003C0000000600000002000000000000C0FF3F8F40000000E078243DC0000000003EAF0CC0000000C0FF3F8F40000000A0A7643BC000000080BC9810C00C00000013000000620600003C0000000600000002000000000000E0FF3F8FC0000000C0
310
78243DC0000000003EAF0CC0000000C0FF3F8F40000000E078243DC0000000003EAF0CC00C000000130000006A0600003C0000000600000002000000000000E0FF3F8FC0000000C078243DC0000000003EAF0CC0000000E0FF3F8FC000000080A7643BC000000080BC9810C00C00000013000000720600003C000000060000
310
0002000000000000C0FF3F8F4000000020AFFF3EC000000000B87B09C0000000C0FF3F8F40000000E078243DC0000000003EAF0CC00C000000130000007A0600003C0000000600000002000000000000C0FF3F8F4000000020AFFF3EC000000000B87B09C0000000E0FF3F8FC000000000AFFF3EC000000000B87B09C00C00
310
000013000000820600003C0000000600000002000000000000E0FF3F8FC0000000C078243DC0000000003EAF0CC0000000E0FF3F8FC000000000AFFF3EC000000000B87B09C00C000000130000008A0600003C0000000600000002000000000000C0FF3F8F4000000020AFFF3EC000000000B87B09C0000000C0FF3F8F4000
310
000080675240C000000000F72808C00C00000013000000920600003C0000000600000002000000000000E0FF3F8FC000000080675240C000000000F82808C0000000C0FF3F8F4000000080675240C000000000F72808C00C000000130000009A0600003C0000000600000002000000000000E0FF3F8FC000000080675240C0
310
00000000F82808C0000000E0FF3F8FC000000000AFFF3EC000000000B87B09C00C00000013000000A20600003C0000000600000002000000000000C0FF3F8F4000000040376D40C000000000F36606C0000000C0FF3F8F4000000040008040C0000000000000D83E0C00000013000000AA0600003C00000006000000020000
310
00000000E0FF3F8FC000000040008040C0000000000000D83E000000E0FF3F8FC000000040376D40C000000000F36606C00C00000013000000B20600003C0000000600000002000000000000C0FF3F8F4000000040376D40C000000000F36606C0000000E0FF3F8FC000000040376D40C000000000F36606C00C0000001300
310
0000BA0600003C0000000600000002000000000000E0FF3F8FC00000002004CC1AC0000000802A1448C0000000E0FF3F8FC0000000000000C83E00000000000047C00C00000013000000C20600003C0000000600000002000000000000E0FF3F8FC000000000FDFFFFBF00000000000047C0000000E0FF3F8FC000000000FD
310
9920C0000000203B0248C00C00000013000000CA0600003C0000000600000002000000000000E0FF3F8FC0000000000000C83E00000080D3374BC0000000E0FF3F8FC0000000007C1E0CC000000020FECE4DC00C00000013000000D20600003C0000000600000002000000000000E0FF3F8FC0000000C096CB0CC000000040
310
0F3E4DC0000000E0FF3F8FC0000000000000C83E00000080D3374BC00C00000013000000DA0600003C0000000600000002000000000000E0FF3F8FC000000080B2A61FC0000000A0965149C0000000E0FF3F8FC0000000006006DEBF0000006064064AC00C00000013000000E20600003C0000000600000002000000000000
310
E0FF3F8FC0000000006006DEBF0000006064064AC0000000E0FF3F8FC0000000E0C8511DC000000020AB2449C00C00000013000000EA0600003C0000000600000002000000000000E0FF3F8FC0000000006006DEBF0000006064064AC0000000E0FF3F8FC00000006021DE20C0000000408DA349C00C00000013000000F206
310
00003C0000000600000002000000000000E0FF3F8FC0000000C01C3D0FC00000000044BE4CC0000000E0FF3F8FC0000000006006DEBF000000A09BF94AC00C00000013000000FA0600003C0000000600000002000000000000E0FF3F8FC0000000E0FDE911C000000020AA564CC0000000E0FF3F8FC0000000006006DEBF00
310
0000A09BF94AC00C00000013000000020700003C0000000600000002000000000000E0FF3F8FC00000000003E415C0000000C04AEB4BC0000000E0FF3F8FC0000000006006DEBF000000A09BF94AC00C000000130000000A0700003C0000000600000002000000000000E0FF3F8FC000000080436C21C000000040C8FD49C0
310
000000E0FF3F8FC0000000009CE9E6BF000000E063554AC00C00000013000000120700003C0000000600000002000000000000E0FF3F8FC00000002059E220C000000020E8A54AC0000000E0FF3F8FC0000000009CE9E6BF000000E063554AC00C000000130000001A0700003C0000000600000002000000000000E0FF3F8F
310
C0000000E0066C21C0000000C01F4F4AC0000000E0FF3F8FC0000000009CE9E6BF000000E063554AC00C00000013000000220700003C0000000600000002000000000000E0FF3F8FC0000000009CE9E6BF000000209CAA4AC0000000E0FF3F8FC0000000001D0B1BC000000060F8754BC00C000000130000002A0700003C00
310
00000600000002000000000000E0FF3F8FC0000000009CE9E6BF000000209CAA4AC0000000E0FF3F8FC0000000E0FE3D1FC00000004030084BC00C00000013000000320700003C0000000600000002000000000000E0FF3F8FC00000002059E220C000000020E8A54AC0000000E0FF3F8FC0000000009CE9E6BF000000209C
310
AA4AC00C000000130000003A0700003C0000000600000002000000000000E0FF3F8FC000000080675240C000000000F82808C0000000E0FF3F8FC0000000E0D76540C000000000F9A307C00C00000013000000420700003C0000000600000002000000000000E0FF3F8FC000000040376D40C000000000F36606C0000000E0
310
FF3F8FC0000000E0D76540C000000000F9A307C00C000000130000004A0700003C0000000600000002000000000000E0FF3F8FC0000000C0A66F3DC0000000000000D83E000000E0FF3F8FC000000000AFFF3EC000000000B87B09C00C00000013000000520700003C0000000600000002000000000000E0FF3F8FC0000000
310
005CF33CC0000000008001DEBF000000E0FF3F8FC000000000AFFF3EC000000000B87B09C00C000000130000005A0700003C0000000600000002000000000000E0FF3F8FC0000000C078243DC0000000003EAF0CC0000000E0FF3F8FC0000000404B553CC000000000B4E8E6BF0C00000013000000620700003C0000000600
310
000002000000000000E0FF3F8FC000000080A7643BC000000080BC9810C0000000E0FF3F8FC000000080B4AA3BC000000000B4E8E6BF0C000000130000006A0700003C0000000600000002000000000000E0FF3F8FC0000000C0A30C3BC0000000008001DEBF000000E0FF3F8FC000000080A7643BC000000080BC9810C00C
310
00000013000000720700003C0000000600000002000000000000E0FF3F8FC00000000059903AC0000000000000D83E000000E0FF3F8FC000000080FBDA39C000000080F84F13C00C000000130000007A0700003C0000000600000002000000000000E0FF3F8FC000000080FBDA39C000000080F84F13C0000000E0FF3F8FC0
310
000000C0FFFF36C0000000000000D83E0C00000013000000820700003C0000000600000002000000000000E0FF3F8FC000000080D23E31C00000008035B913C0000000E0FF3F8FC000000040BD6537C00000008060171AC00C000000130000008A0700003C0000000600000002000000000000E0FF3F8FC0000000C0ED4436
310
C00000008067C31EC0000000E0FF3F8FC000000080D23E31C00000008035B913C00C00000013000000920700003C0000000600000002000000000000E0FF3F8FC000000080D23E31C00000008035B913C0000000E0FF3F8FC000000080542635C0000000C0304922C00C000000130000009A0700003C000000060000000200
310
0000000000E0FF3F8FC000000080D23E31C00000008035B913C0000000E0FF3F8FC000000080550D34C0000000C078C025C00C00000013000000A20700003C0000000600000002000000000000E0FF3F8FC000000040600833C000000000FE7629C0000000E0FF3F8FC000000000164A2BC0000000C0E0A725C00C00000013
310
000000AA0700003C0000000600000002000000000000E0FF3F8FC000000000164A2BC0000000C0E0A725C0000000E0FF3F8FC0000000C0031032C00000004067FB2CC00C00000013000000B20700003C0000000600000002000000000000E0FF3F8FC0000000002E1431C0000000A0530F30C0000000E0FF3F8FC0000000E0
310
F86C28C000000080B34F29C00C00000013000000BA0700003C0000000600000002000000000000E0FF3F8FC0000000A0460630C0000000E0286631C0000000E0FF3F8FC0000000E0F86C28C000000080B34F29C00C00000013000000C20700003C0000000600000002000000000000E0FF3F8FC00000000056C82DC0000000
310
80FC8032C0000000E0FF3F8FC000000060CDCB24C0000000E03B352CC00C00000013000000CA0700003C0000000600000002000000000000E0FF3F8FC000000000488829C0000000C05D1134C0000000E0FF3F8FC000000060CDCB24C0000000E03B352CC00C00000013000000D20700003C00000006000000020000000000
310
00E0FF3F8FC0000000E0F31C26C00000002034F034C0000000E0FF3F8FC000000040AB9820C0000000C07E302EC00C00000013000000DA0700003C0000000600000002000000000000E0FF3F8FC00000000034D822C000000040C07035C0000000E0FF3F8FC000000040AB9820C0000000C07E302EC00C00000013000000E2
310
0700003C0000000600000002000000000000E0FF3F8FC000000040FEFF0BC0000000206FB530C0000000E0FF3F8FC0000000E070F01DC0000000C08BD335C00C00000013000000EA0700003C0000000600000002000000000000C0FF3F8F4000000040F5660AC0000000A0DCE94DC0000000C0FF3F8F40000000005CA10BC0
310
0000008079E24DC00C00000013000000F20700003C0000000600000002000000000000C0FF3F8F40000000005CA10BC00000008079E24DC0000000E0FF3F8FC0000000405BA10BC00000006079E24DC00C00000013000000FA0700003C0000000600000002000000000000E0FF3F8FC000000080F4660AC000000080DCE94D
310
C0000000E0FF3F8FC0000000405BA10BC00000006079E24DC00C00000013000000020800003C0000000600000002000000000000C0FF3F8F400000000097C11AC0000000A05A0849C0000000C0FF3F8F40000000C065301AC000000060B0FB48C00C000000130000000A0800003C0000000600000002000000000000C0FF3F
310
8F40000000C065301AC000000060B0FB48C0000000E0FF3F8FC00000000065301AC000000040B0FB48C00C00000013000000120800003C0000000600000002000000000000E0FF3F8FC00000004096C11AC0000000805A0849C0000000E0FF3F8FC00000000065301AC000000040B0FB48C00C000000130000001A0800003C
310
0000000600000002000000000000C0FF3F8F4000000080FFFF19C000000040FF2F48C0000000C0FF3F8F40000000C000331AC0000000403D1C48C00C00000013000000220800003C0000000600000002000000000000C0FF3F8F40000000C000331AC0000000403D1C48C0000000E0FF3F8FC00000004000331AC000000040
310
3D1C48C00C000000130000002A0800003C0000000600000002000000000000E0FF3F8FC0000000E0FEFF19C000000040FF2F48C0000000E0FF3F8FC00000004000331AC0000000403D1C48C00C00000013000000320800003C0000000600000002000000000000C0FF3F8F4000000040FD9920C0000000403B0248C0000000
310
C0FF3F8F40000000407FE620C00000008028FA47C00C000000130000003A0800003C0000000600000002000000000000C0FF3F8F40000000407FE620C00000008028FA47C0000000E0FF3F8FC0000000007FE620C00000006028FA47C00C00000013000000420800003C0000000600000002000000000000E0FF3F8FC00000
310
0000FD9920C0000000203B0248C0000000E0FF3F8FC0000000007FE620C00000006028FA47C00C000000130000004A0800003C0000000600000002000000000000C0FF3F8F4000000000000021C000000080333338C0000000C0FF3F8F40000000407FE620C000000080AF0B38C00C00000013000000520800003C00000006
310
00000002000000000000C0FF3F8F40000000407FE620C000000080AF0B38C0000000E0FF3F8FC0000000207FE620C000000040AF0B38C00C000000130000005A0800003C0000000600000002000000000000E0FF3F8FC0000000C0FFFF20C000000040333338C0000000E0FF3F8FC0000000207FE620C000000040AF0B38C0
310
0C00000013000000620800003C0000000600000002000000000000C0FF3F8F40000000A004CC1AC000000060ABD737C0000000C0FF3F8F40000000C000331AC0000000C085C737C00C000000130000006A0800003C0000000600000002000000000000C0FF3F8F40000000C000331AC0000000C085C737C0000000E0FF3F8F
310
C00000004000331AC00000008085C737C00C00000013000000720800003C0000000600000002000000000000E0FF3F8FC00000002004CC1AC000000020ABD737C0000000E0FF3F8FC00000004000331AC00000008085C737C00C000000130000007A0800003C0000000600000002000000000000C0FF3F8F40000000006C32
310
1AC000000000940A36C0000000C0FF3F8F400000000000001AC000000080333336C00C00000013000000820800003C0000000600000002000000000000C0FF3F8F40000000006C321AC000000000940A36C0000000E0FF3F8FC0000000406B321AC0000000C0930A36C00C000000130000008A0800003C0000000600000002
310
000000000000E0FF3F8FC000000040FFFF19C000000040333336C0000000E0FF3F8FC0000000406B321AC0000000C0930A36C00C00000013000000920800003C0000000600000002000000000000C0FF3F8F4000000080675240C000000000F72808C0000000C0FF3F8F40000000C0D76540C000000000F9A307C00C000000
310
130000009A0800003C0000000600000002000000000000C0FF3F8F40000000C0D76540C000000000F9A307C0000000E0FF3F8FC0000000E0D76540C000000000F9A307C00C00000013000000A20800003C0000000600000002000000000000C0FF3F8F40000000007D1E0CC000000040FECE4DC0000000C0FF3F8F40000000
310
005CA10BC00000008079E24DC00C00000013000000AA0800003C0000000600000002000000000000E0FF3F8FC0000000007C1E0CC000000020FECE4DC0000000E0FF3F8FC0000000405BA10BC00000006079E24DC00C00000013000000B20800003C0000000600000002000000000000C0FF3F8F40000000C065301AC00000
310
0060B0FB48C0000000C0FF3F8F400000000000001AC00000008066E648C00C00000013000000BA0800003C0000000600000002000000000000E0FF3F8FC000000040FFFF19C00000006066E648C0000000E0FF3F8FC00000000065301AC000000040B0FB48C00C00000013000000C20800003C000000060000000200000000
310
0000C0FF3F8F40000000A004CC1AC0000000802A1448C0000000C0FF3F8F40000000C000331AC0000000403D1C48C00C00000013000000CA0800003C0000000600000002000000000000E0FF3F8FC00000002004CC1AC0000000802A1448C0000000E0FF3F8FC00000004000331AC0000000403D1C48C00C00000013000000
310
D20800003C0000000600000002000000000000C0FF3F8F40000000407FE620C00000008028FA47C0000000C0FF3F8F40000000C0FFFF20C00000008066E647C00C00000013000000DA0800003C0000000600000002000000000000E0FF3F8FC0000000A0FFFF20C00000006066E647C0000000E0FF3F8FC0000000007FE620
310
C00000006028FA47C00C00000013000000E20800003C0000000600000002000000000000C0FF3F8F40000000407FE620C000000080AF0B38C0000000C0FF3F8F4000000040FD9920C0000000E089FB37C00C00000013000000EA0800003C0000000600000002000000000000E0FF3F8FC000000020FD9920C0000000A089FB
310
37C0000000E0FF3F8FC0000000207FE620C000000040AF0B38C00C00000013000000F20800003C0000000600000002000000000000C0FF3F8F40000000C000331AC0000000C085C737C0000000C0FF3F8F4000000080FFFF19C0000000C001A037C00C00000013000000FA0800003C0000000600000002000000000000E0FF
310
3F8FC0000000E0FEFF19C00000008001A037C0000000E0FF3F8FC00000004000331AC00000008085C737C00C00000013000000020900003C0000000600000002000000000000C0FF3F8F4000000040B0C91AC0000000401CF735C0000000C0FF3F8F40000000006C321AC000000000940A36C00C000000130000000A090000
310
3C0000000600000002000000000000E0FF3F8FC000000080AFC91AC0000000001CF735C0000000E0FF3F8FC0000000406B321AC0000000C0930A36C00C00000013000000120900003C0000000600000002000000000000C0FF3F8F40000000C0D76540C000000000F9A307C0000000C0FF3F8F4000000040376D40C0000000
310
00F36606C00C000000130000001A0900003C0000000600000002000000000000E0FF3F8FC0000000000000C83E00000080D3374BC0000000E0FF3F8FC000000080F4660AC000000080DCE94DC00C00000013000000220900003C0000000600000002000000000000E0FF3F8FC0000000000000C83E00000080D3374BC00000
310
00E0FF3F8FC0000000405BA10BC00000006079E24DC00C000000130000002A0900003C0000000600000002000000000000E0FF3F8FC0000000000000C83E000000802CC849C0000000E0FF3F8FC00000004096C11AC0000000805A0849C00C00000013000000320900003C0000000600000002000000000000E0FF3F8FC000
310
0000000000C83E000000802CC849C0000000E0FF3F8FC00000000065301AC000000040B0FB48C00C000000130000003A0900003C0000000600000002000000000000E0FF3F8FC000000040FFFF19C00000006066E648C0000000E0FF3F8FC0000000000000C83E000000802CC849C00C00000013000000420900003C000000
310
0600000002000000000000E0FF3F8FC0000000000000C83E00000000000047C0000000E0FF3F8FC0000000E0FEFF19C000000040FF2F48C00C000000130000004A0900003C0000000600000002000000000000E0FF3F8FC0000000000000C83E00000000000047C0000000E0FF3F8FC00000004000331AC0000000403D1C48
310
C00C00000013000000520900003C0000000600000002000000000000E0FF3F8FC000000000FDFFFFBF00000000000047C0000000E0FF3F8FC0000000007FE620C00000006028FA47C00C000000130000005A0900003C0000000600000002000000000000E0FF3F8FC000000000FDFFFFBF00000000000047C0000000E0FF3F
310
8FC0000000A0FFFF20C00000006066E647C00C00000013000000620900003C0000000600000002000000000000E0FF3F8FC000000000FDFFFFBF0000000000003BC0000000E0FF3F8FC0000000C0FFFF20C000000040333338C00C000000130000006A0900003C0000000600000002000000000000E0FF3F8FC000000080AF
310
C91AC0000000001CF735C0000000E0FF3F8FC000000040FEFF0BC0000000206FB530C00C00000013000000720900003C0000000600000002000000000000E0FF3F8FC0000000000000D43E000000C02DB533C0000000E0FF3F8FC0000000406B321AC0000000C0930A36C00C000000130000007A0900003C00000006000000
310
02000000000000E0FF3F8FC0000000000000C83E00000020591036C0000000E0FF3F8FC000000040FFFF19C000000040333336C00C00000013000000820900003C0000000600000002000000000000E0FF3F8FC000000000FDFFFFBF0000000000003BC0000000E0FF3F8FC000000020FD9920C0000000A089FB37C00C0000
310
00130000008A0900003C0000000600000002000000000000E0FF3F8FC000000000FDFFFFBF0000000000003BC0000000E0FF3F8FC0000000207FE620C000000040AF0B38C00C00000013000000920900003C0000000600000002000000000000E0FF3F8FC0000000000000C83E0000000000003BC0000000E0FF3F8FC00000
310
002004CC1AC000000020ABD737C00C000000130000009A0900003C0000000600000002000000000000E0FF3F8FC0000000E0FEFF19C00000008001A037C0000000E0FF3F8FC0000000000000C83E000000E0A6EF38C00C00000013000000A20900003C0000000600000002000000000000E0FF3F8FC0000000000000C83E00
310
00000000003BC0000000E0FF3F8FC00000004000331AC00000008085C737C00C00000013000000AA0900003C0000000600000002000000000000E0FF3F8FC0000000E0FEFF19C00000008001A037C0000000E0FF3F8FC0000000006006DEBF00000040377338C00C00000013000000B20900003C0000000600000002000000
310
000000E0FF3F8FC0000000006006DEBF000000C0C88C36C0000000E0FF3F8FC000000040FFFF19C000000040333336C00C00000013000000BA0900003C0000000600000002000000000000E0FF3F8FC0000000009CE9E6BF000000C0C72A37C0000000E0FF3F8FC000000040FFFF19C000000040333336C00C000000130000
310
00C20900003C0000000600000002000000000000E0FF3F8FC0000000E0FEFF19C00000008001A037C0000000E0FF3F8FC0000000009CE9E6BF0000004038D537C00C00000013000000CA0900003C0000000600000002000000000000C0FF3F8F4000000040FD9920C0000000403B0248C0000000C0FF3F8F4000000000FEFF
310
FFBF00000020000047C00C00000013000000D20900003C0000000600000002000000000000C0FF3F8F40000000000000C03E00000020000047C0000000C0FF3F8F40000000A004CC1AC0000000802A1448C00C00000013000000DA0900003C0000000600000002000000000000C0FF3F8F40000000000000C03E000000A0D3
310
374BC0000000C0FF3F8F400000008097CB0CC0000000600F3E4DC00C00000013000000E20900003C0000000600000002000000000000C0FF3F8F40000000000000C03E000000A0D3374BC0000000C0FF3F8F40000000007D1E0CC000000040FECE4DC00C00000013000000EA0900003C0000000600000002000000000000C0
310
FF3F8F40000000006806DEBF0000008064064AC0000000C0FF3F8F40000000A0C9511DC000000040AB2449C00C00000013000000F20900003C0000000600000002000000000000C0FF3F8F40000000006806DEBF0000008064064AC0000000C0FF3F8F4000000020B3A61FC0000000C0965149C00C00000013000000FA0900
310
003C0000000600000002000000000000C0FF3F8F40000000006806DEBF0000008064064AC0000000C0FF3F8F400000008021DE20C0000000608DA349C00C00000013000000020A00003C0000000600000002000000000000C0FF3F8F40000000006806DEBF000000C09BF94AC0000000C0FF3F8F40000000801D3D0FC00000
310
002044BE4CC00C000000130000000A0A00003C0000000600000002000000000000C0FF3F8F40000000006806DEBF000000C09BF94AC0000000C0FF3F8F4000000060FEE911C000000040AA564CC00C00000013000000120A00003C0000000600000002000000000000C0FF3F8F40000000006806DEBF000000C09BF94AC000
310
0000C0FF3F8F400000008003E415C0000000E04AEB4BC00C000000130000001A0A00003C0000000600000002000000000000C0FF3F8F4000000000A0E9E6BF0000000064554AC0000000C0FF3F8F40000000C0436C21C000000060C8FD49C00C00000013000000220A00003C0000000600000002000000000000C0FF3F8F40
310
00000000A0E9E6BF0000000064554AC0000000C0FF3F8F4000000000076C21C0000000E01F4F4AC00C000000130000002A0A00003C0000000600000002000000000000C0FF3F8F4000000000A0E9E6BF0000000064554AC0000000C0FF3F8F400000004059E220C000000040E8A54AC00C00000013000000320A00003C0000
310
000600000002000000000000C0FF3F8F4000000000A0E9E6BF000000409CAA4AC0000000C0FF3F8F40000000801D0B1BC000000080F8754BC00C000000130000003A0A00003C0000000600000002000000000000C0FF3F8F4000000000A0E9E6BF000000409CAA4AC0000000C0FF3F8F4000000040FF3D1FC0000000603008
310
4BC00C00000013000000420A00003C0000000600000002000000000000C0FF3F8F400000004059E220C000000040E8A54AC0000000C0FF3F8F4000000000A0E9E6BF000000409CAA4AC00C000000130000004A0A00003C0000000600000002000000000000C0FF3F8F4000000020AFFF3EC000000000B87B09C0000000C0FF
310
3F8F40000000E0A66F3DC0000000000000D83E0C00000013000000520A00003C0000000600000002000000000000C0FF3F8F4000000020AFFF3EC000000000B87B09C0000000C0FF3F8F40000000205CF33CC0000000008001DEBF0C000000130000005A0A00003C0000000600000002000000000000C0FF3F8F40000000E0
310
78243DC0000000003EAF0CC0000000C0FF3F8F40000000604B553CC000000000B4E8E6BF0C00000013000000620A00003C0000000600000002000000000000C0FF3F8F40000000A0A7643BC000000080BC9810C0000000C0FF3F8F40000000A0B4AA3BC000000000B4E8E6BF0C000000130000006A0A00003C000000060000
310
0002000000000000C0FF3F8F40000000A0A7643BC000000080BC9810C0000000C0FF3F8F40000000A0A30C3BC0000000008001DEBF0C00000013000000720A00003C0000000600000002000000000000C0FF3F8F4000000060FBDA39C000000000F94F13C0000000C0FF3F8F40000000E058903AC0000000000000D83E0C00
310
0000130000007A0A00003C0000000600000002000000000000C0FF3F8F4000000060FBDA39C000000000F94F13C0000000C0FF3F8F40000000C0FFFF36C0000000000000D83E0C00000013000000820A00003C0000000600000002000000000000C0FF3F8F40000000A0ED4436C00000000068C31EC0000000C0FF3F8F4000
310
000080D23E31C00000000036B913C00C000000130000008A0A00003C0000000600000002000000000000C0FF3F8F4000000020BD6537C00000000061171AC0000000C0FF3F8F4000000080D23E31C00000000036B913C00C00000013000000920A00003C0000000600000002000000000000C0FF3F8F4000000080D23E31C0
310
0000000036B913C0000000C0FF3F8F4000000080542635C000000000314922C00C000000130000009A0A00003C0000000600000002000000000000C0FF3F8F4000000080D23E31C00000000036B913C0000000C0FF3F8F4000000080550D34C00000000079C025C00C00000013000000A20A00003C00000006000000020000
310
00000000C0FF3F8F4000000020600833C000000080FE7629C0000000C0FF3F8F4000000040164A2BC000000000E1A725C00C00000013000000AA0A00003C0000000600000002000000000000C0FF3F8F4000000040164A2BC000000000E1A725C0000000C0FF3F8F40000000A0031032C00000008067FB2CC00C0000001300
310
0000B20A00003C0000000600000002000000000000C0FF3F8F4000000080460630C000000000296631C0000000C0FF3F8F4000000040F96C28C0000000C0B34F29C00C00000013000000BA0A00003C0000000600000002000000000000C0FF3F8F40000000E02D1431C0000000C0530F30C0000000C0FF3F8F4000000040F9
310
6C28C0000000C0B34F29C00C00000013000000C20A00003C0000000600000002000000000000C0FF3F8F4000000040488829C0000000005E1134C0000000C0FF3F8F40000000C0CDCB24C0000000403C352CC00C00000013000000CA0A00003C0000000600000002000000000000C0FF3F8F400000002056C82DC0000000C0
310
FC8032C0000000C0FF3F8F40000000C0CDCB24C0000000403C352CC00C00000013000000D20A00003C0000000600000002000000000000C0FF3F8F400000004034D822C000000080C07035C0000000C0FF3F8F4000000060AB9820C0000000407F302EC00C00000013000000DA0A00003C0000000600000002000000000000
310
C0FF3F8F4000000000F41C26C00000004034F034C0000000C0FF3F8F4000000060AB9820C0000000407F302EC00C00000013000000E20A00003C0000000600000002000000000000C0FF3F8F400000004071F01DC0000000008CD335C0000000C0FF3F8F4000000000FFFF0BC0000000406FB530C00C00000013000000EA0A
310
00003C0000000600000002000000000000C0FF3F8F40000000000000C03E000000A0D3374BC0000000C0FF3F8F40000000005CA10BC00000008079E24DC00C00000013000000F20A00003C0000000600000002000000000000C0FF3F8F40000000000000C03E000000A0D3374BC0000000C0FF3F8F4000000040F5660AC000
310
0000A0DCE94DC00C00000013000000FA0A00003C0000000600000002000000000000C0FF3F8F40000000000000C03E000000A02CC849C0000000C0FF3F8F400000000097C11AC0000000A05A0849C00C00000013000000020B00003C0000000600000002000000000000C0FF3F8F40000000000000C03E000000A02CC849C0
310
000000C0FF3F8F40000000C065301AC000000060B0FB48C00C000000130000000A0B00003C0000000600000002000000000000C0FF3F8F40000000000000C03E000000A02CC849C0000000C0FF3F8F400000000000001AC00000008066E648C00C00000013000000120B00003C0000000600000002000000000000C0FF3F8F
310
40000000000000C03E00000020000047C0000000C0FF3F8F4000000080FFFF19C000000040FF2F48C00C000000130000001A0B00003C0000000600000002000000000000C0FF3F8F40000000000000C03E00000020000047C0000000C0FF3F8F40000000C000331AC0000000403D1C48C00C00000013000000220B00003C00
310
00000600000002000000000000C0FF3F8F4000000000FEFFFFBF00000020000047C0000000C0FF3F8F40000000407FE620C00000008028FA47C00C000000130000002A0B00003C0000000600000002000000000000C0FF3F8F4000000000FEFFFFBF00000020000047C0000000C0FF3F8F40000000C0FFFF20C00000008066
310
E647C00C00000013000000320B00003C0000000600000002000000000000C0FF3F8F4000000000000021C000000080333338C0000000C0FF3F8F4000000000FEFFFFBF0000004000003BC00C000000130000003A0B00003C0000000600000002000000000000C0FF3F8F4000000000FFFF0BC0000000406FB530C0000000C0
310
FF3F8F4000000040B0C91AC0000000401CF735C00C00000013000000420B00003C0000000600000002000000000000C0FF3F8F40000000006C321AC000000000940A36C0000000C0FF3F8F40000000000000C03E000000002EB533C00C000000130000004A0B00003C0000000600000002000000000000C0FF3F8F40000000
310
0000001AC000000080333336C0000000C0FF3F8F40000000000000C03E00000040591036C00C00000013000000520B00003C0000000600000002000000000000C0FF3F8F4000000000FEFFFFBF0000004000003BC0000000C0FF3F8F40000000407FE620C000000080AF0B38C00C000000130000005A0B00003C0000000600
310
000002000000000000C0FF3F8F4000000000FEFFFFBF0000004000003BC0000000C0FF3F8F4000000040FD9920C0000000E089FB37C00C00000013000000620B00003C0000000600000002000000000000C0FF3F8F40000000A004CC1AC000000060ABD737C0000000C0FF3F8F40000000000000C03E0000004000003BC00C
310
000000130000006A0B00003C0000000600000002000000000000C0FF3F8F40000000000000C03E0000004000003BC0000000C0FF3F8F40000000C000331AC0000000C085C737C00C00000013000000720B00003C0000000600000002000000000000C0FF3F8F4000000080FFFF19C0000000C001A037C0000000C0FF3F8F40
310
000000000000C03E00000000A7EF38C00C000000130000007A0B00003C0000000600000002000000000000C0FF3F8F4000000080FFFF19C0000000C001A037C0000000C0FF3F8F40000000006806DEBF00000080377338C00C00000013000000820B00003C0000000600000002000000000000C0FF3F8F400000000000001A
310
C000000080333336C0000000C0FF3F8F40000000006806DEBF00000000C98C36C00C000000130000008A0B00003C0000000600000002000000000000C0FF3F8F400000000000001AC000000080333336C0000000C0FF3F8F4000000000A0E9E6BF00000000C82A37C00C00000013000000920B00003C000000060000000200
310
0000000000C0FF3F8F4000000080FFFF19C0000000C001A037C0000000C0FF3F8F4000000000A0E9E6BF0000008038D537C0
100
AcDbSubDMesh
 71
     2
 72
     0
 91
        0
 92
      170
 10
-999.9999389648436
 20
-1.99999713897705
 30
-46.0
 10
-999.9999389648436
 20
-1.99999713897705
 30
-27.0
 10
-999.9999389648436
 20
-0.7160167694091797
 30
-23.16711044311523
 10
-999.9999389648436
 20
-0.4691390991210938
 30
-22.5499382019043
 10
-999.9999389648436
 20
0.0000028610229492
 30
-22.06385993957519
 10
-999.9999389648436
 20
0.000004768371582
 30
-19.70772933959961
 10
-999.9999389648436
 20
-26.56385803222657
 30
0.0000057220458984
 10
-999.9999389648436
 20
-27.04937362670899
 30
-0.468841552734375
 10
-999.9999389648436
 20
-33.00000762939453
 30
0.0000057220458984
 10
-999.9999389648436
 20
-29.1424674987793
 30
-3.585567474365234
 10
-999.9999389648436
 20
-27.39318084716797
 30
-4.14915657043457
 10
-999.9999389648436
 20
-25.85540008544922
 30
-4.828096389770507
 10
-999.9999389648436
 20
-22.26925277709961
 30
-7.690824508666992
 10
-999.9999389648436
 20
-19.03271865844726
 30
-12.73240661621094
 10
-999.9999389648436
 20
-17.07882690429687
 30
-16.05986976623535
 10
-999.9999389648436
 20
-16.02451515197754
 30
-17.39906120300293
 10
-999.9999389648436
 20
-14.89128112792968
 30
-18.50385284423828
 10
-999.9999389648436
 20
-12.76617431640625
 30
-20.06783676147461
 10
-999.9999389648436
 20
-11.05654811859131
 30
-20.93829536437988
 10
-999.9999389648436
 20
-9.422271728515625
 30
-21.44043350219726
 10
-999.9999389648436
 20
-6.696958541870117
 30
-21.96527099609375
 10
-999.9999389648436
 20
-6.499995708465576
 30
-23.62502288818359
 10
-999.9999389648436
 20
-8.49999713897705
 30
-47.79999923706054
 10
-999.9999389648436
 20
-6.69923448562622
 30
-48.15754699707031
 10
-999.9999389648436
 20
-6.49999713897705
 30
-49.79999923706055
 10
-999.9999389648436
 20
-7.912790298461914
 30
-50.63740921020507
 10
-999.9999389648436
 20
-8.442086219787597
 30
-53.29614639282226
 10
-999.9999389648436
 20
-5.472667694091796
 30
-55.83821868896484
 10
-999.9999389648436
 20
-4.47850751876831
 30
-56.67706680297851
 10
-999.9999389648436
 20
-3.904839992523193
 30
-57.4864501953125
 10
-999.9999389648436
 20
-3.599408626556396
 30
-58.4848403930664
 10
-999.9999389648436
 20
0.0000028610229492
 30
-54.43614196777343
 10
-999.9999389648436
 20
-0.7160167694091797
 30
-53.33288955688477
 10
-999.9999389648436
 20
-0.4691390991210938
 30
-52.0499382019043
 10
-999.9999389648436
 20
-32.64378356933594
 30
-3.020004272460937
 10
999.9998779296875
 20
0.0000019073486328
 30
-46.00000381469726
 10
999.9998779296875
 20
-6.699236392974853
 30
-48.15754699707031
 10
999.9998779296875
 20
-8.300760269165039
 30
-48.01743316650391
 10
999.9998779296875
 20
-1.999998092651367
 30
-46.00000381469726
 10
999.9998779296875
 20
0.0000019073486328
 30
-54.4361457824707
 10
999.9998779296875
 20
-3.514886856079101
 30
-59.61713409423828
 10
999.9998779296875
 20
-3.599410057067871
 30
-58.48484420776367
 10
999.9998779296875
 20
-0.4691410064697266
 30
-52.04994201660156
 10
999.9998779296875
 20
-7.912792682647705
 30
-50.63741302490234
 10
999.9998779296875
 20
-7.329870700836181
 30
-50.2864761352539
 10
999.9998779296875
 20
-8.433849334716796
 30
-51.27775192260742
 10
999.9998779296875
 20
-0.4691410064697266
 30
-53.95006561279297
 10
999.9998779296875
 20
-3.904841423034667
 30
-57.48645401000977
 10
999.9998779296875
 20
-4.478509426116943
 30
-56.67707061767578
 10
999.9998779296875
 20
-5.472669601440429
 30
-55.8382225036621
 10
999.9998779296875
 20
-0.7160186767578125
 30
-52.6671142578125
 10
999.9998779296875
 20
-8.711454391479492
 30
-51.9826774597168
 10
999.9998779296875
 20
-8.442087173461914
 30
-53.29615020751953
 10
999.9998779296875
 20
-8.710990905761718
 30
-52.61816024780273
 10
999.9998779296875
 20
-0.7160186767578125
 30
-53.33289337158203
 10
999.9998779296875
 20
-6.760854721069335
 30
-54.92164611816406
 10
999.9998779296875
 20
-7.81054401397705
 30
-54.0639762878418
 10
999.9998779296875
 20
-30.99876594543457
 30
-3.185409545898437
 10
999.9998779296875
 20
-32.64378356933594
 30
-3.020002365112304
 10
999.9998779296875
 20
-32.79564666748047
 30
-2.95506477355957
 10
999.9998779296875
 20
-32.85324859619141
 30
-2.800268173217773
 10
999.9998779296875
 20
-33.00000762939453
 30
0.0000057220458984
 10
999.9998779296875
 20
-29.4361400604248
 30
0.0000057220458984
 10
999.9998779296875
 20
-28.95062446594238
 30
-0.468841552734375
 10
999.9998779296875
 20
-29.14246940612793
 30
-3.585567474365234
 10
999.9998779296875
 20
-28.33318138122559
 30
-0.7159061431884766
 10
999.9998779296875
 20
-27.3931827545166
 30
-4.14915657043457
 10
999.9998779296875
 20
-27.66681861877442
 30
-0.7159061431884766
 10
999.9998779296875
 20
-27.04937171936035
 30
-0.468841552734375
 10
999.9998779296875
 20
-25.85539817810059
 30
-4.82809829711914
 10
999.9998779296875
 20
-26.56385612487793
 30
0.0000057220458984
 10
999.9998779296875
 20
-22.99999618530273
 30
0.0000057220458984
 10
999.9998779296875
 20
-22.26925086975098
 30
-7.690826416015625
 10
999.9998779296875
 20
-23.39741706848144
 30
-6.522830963134765
 10
999.9998779296875
 20
-17.24539947509765
 30
-4.930870056152343
 10
999.9998779296875
 20
-21.14972686767578
 30
-9.142951965332031
 10
999.9998779296875
 20
-20.05208587646484
 30
-10.87592315673828
 10
999.9998779296875
 20
-19.03271675109863
 30
-12.7324104309082
 10
999.9998779296875
 20
-13.64470100402832
 30
-10.82788848876953
 10
999.9998779296875
 20
-18.06255531311035
 30
-14.49102401733398
 10
999.9998779296875
 20
-16.0245132446289
 30
-17.39906311035156
 10
999.9998779296875
 20
-17.07882499694824
 30
-16.05987167358398
 10
999.9998779296875
 20
-12.21283912658691
 30
-12.65566825866699
 10
999.9998779296875
 20
-12.76617622375488
 30
-20.06784057617188
 10
999.9998779296875
 20
-14.891282081604
 30
-18.50385665893554
 10
999.9998779296875
 20
-10.3980541229248
 30
-14.1039752960205
 10
999.9998779296875
 20
-9.422273635864257
 30
-21.44043731689453
 10
999.9998779296875
 20
-11.05654907226562
 30
-20.93829727172852
 10
999.9998779296875
 20
-8.298182487487792
 30
-15.0947208404541
 10
999.9998779296875
 20
-7.484807014465332
 30
-21.82635498046875
 10
999.9998779296875
 20
-3.499998092651367
 30
-16.7087287902832
 10
999.9998779296875
 20
-3.300272464752197
 30
-59.82704544067383
 10
999.9998779296875
 20
-3.453788757324218
 30
-59.76933288574219
 10
999.9998779296875
 20
-0.0000019073486328
 30
-60.00000381469726
 10
999.9998779296875
 20
0.0000019073486328
 30
-51.56386184692383
 10
999.9998779296875
 20
-6.689052581787109
 30
-50.06526565551758
 10
999.9998779296875
 20
-6.547263145446777
 30
-49.9663200378418
 10
999.9998779296875
 20
-6.5
 30
-49.80000305175781
 10
999.9998779296875
 20
-6.499998092651367
 30
-48.3749771118164
 10
999.9998779296875
 20
-6.549807548522949
 30
-48.22061920166015
 10
999.9998779296875
 20
-8.450189590454101
 30
-47.95436096191406
 10
999.9998779296875
 20
-8.499998092651367
 30
-47.80000305175781
 10
999.9998779296875
 20
-8.5
 30
-24.20000457763672
 10
999.9998779296875
 20
-1.999998092651367
 30
-27.00000381469727
 10
999.9998779296875
 20
-6.696961402893066
 30
-21.96527481079102
 10
999.9998779296875
 20
-6.549240112304687
 30
-22.04132080078125
 10
999.9998779296875
 20
0.0000019073486328
 30
-19.70773315429687
 10
999.9998779296875
 20
-6.5
 30
-22.20000457763672
 10
999.9998779296875
 20
0.0000019073486328
 30
-22.06386184692383
 10
999.9998779296875
 20
-8.450189590454101
 30
-24.04564666748047
 10
999.9998779296875
 20
-8.300760269165039
 30
-23.98257255554199
 10
999.9998779296875
 20
-6.699236392974853
 30
-23.84245872497559
 10
999.9998779296875
 20
0.0000019073486328
 30
-27.00000381469727
 10
999.9998779296875
 20
-6.549807548522949
 30
-23.77938461303711
 10
999.9998779296875
 20
-6.499998092651367
 30
-23.62502670288086
 10
999.9998779296875
 20
0.0000019073486328
 30
-24.93614196777344
 10
999.9998779296875
 20
-0.4691410064697266
 30
-24.45006561279297
 10
999.9998779296875
 20
-0.4691410064697266
 30
-22.54994201660156
 10
999.9998779296875
 20
-0.7160186767578125
 30
-23.1671142578125
 10
999.9998779296875
 20
-0.7160186767578125
 30
-23.83289337158203
 10
-999.9999389648436
 20
0.0000028610229492
 30
-51.56385803222656
 10
-999.9999389648436
 20
0.0000028610229492
 30
-46.0
 10
-999.9999389648436
 20
0.0000028610229492
 30
-27.0
 10
-999.9999389648436
 20
0.0000028610229492
 30
-24.93614006042481
 10
-999.9999389648436
 20
-0.4691390991210938
 30
-24.45006179809571
 10
-999.9999389648436
 20
-0.7160167694091797
 30
-23.83288955688477
 10
-999.9999389648436
 20
-3.499996662139892
 30
-16.70872688293457
 10
-999.9999389648436
 20
-8.298181533813476
 30
-15.09471702575683
 10
-999.9999389648436
 20
-10.39805126190185
 30
-14.10397243499756
 10
-999.9999389648436
 20
-12.21283626556396
 30
-12.65566635131836
 10
-999.9999389648436
 20
-13.64469909667969
 30
-10.8278865814209
 10
-999.9999389648436
 20
-17.24539947509765
 30
-4.93086814880371
 10
-999.9999389648436
 20
-22.99999618530273
 30
0.0000057220458984
 10
-999.9999389648436
 20
-27.66681671142578
 30
-0.7159061431884766
 10
-999.9999389648436
 20
-28.33317947387696
 30
-0.7159061431884766
 10
-999.9999389648436
 20
-28.95062255859375
 30
-0.468841552734375
 10
-999.9999389648436
 20
-29.43613815307617
 30
0.0000057220458984
 10
-999.9999389648436
 20
-32.85324859619141
 30
-2.800268173217773
 10
-999.9999389648436
 20
-30.99876403808594
 30
-3.185409545898437
 10
-999.9999389648436
 20
-23.39741897583008
 30
-6.522829055786132
 10
-999.9999389648436
 20
-21.14972686767578
 30
-9.142950057983398
 10
-999.9999389648436
 20
-20.05208587646484
 30
-10.87592124938965
 10
-999.9999389648436
 20
-18.06255722045898
 30
-14.49102210998535
 10
-999.9999389648436
 20
-7.484805583953857
 30
-21.82635116577149
 10
-999.9999389648436
 20
-8.300759315490722
 30
-23.98256874084473
 10
-999.9999389648436
 20
-7.329867839813232
 30
-50.28647232055664
 10
-999.9999389648436
 20
-8.43384838104248
 30
-51.27774810791016
 10
-999.9999389648436
 20
-8.711452484130859
 30
-51.98267364501953
 10
-999.9999389648436
 20
-8.710989952087402
 30
-52.61815643310547
 10
-999.9999389648436
 20
-7.810542583465576
 30
-54.06397247314453
 10
-999.9999389648436
 20
-6.760852813720703
 30
-54.9216423034668
 10
-999.9999389648436
 20
-3.514884948730468
 30
-59.61713027954101
 10
-999.9999389648436
 20
0.0000019073486328
 30
-60.0
 10
-999.9999389648436
 20
-0.4691390991210938
 30
-53.9500617980957
 10
-999.9999389648436
 20
-0.7160167694091797
 30
-52.66711044311524
 10
-999.9999389648436
 20
-6.49999713897705
 30
-22.20000076293946
 10
-999.9999389648436
 20
-6.69923448562622
 30
-23.84245491027832
 10
-999.9999389648436
 20
-8.499998092651367
 30
-24.20000076293945
 10
-999.9999389648436
 20
-8.300758361816406
 30
-48.01742935180664
 10
-999.9999389648436
 20
-6.499995708465576
 30
-48.3749771118164
 10
-999.9999389648436
 20
-6.68904972076416
 30
-50.06526184082031
 10
-999.9999389648436
 20
-3.300271034240722
 30
-59.82704162597656
 10
-999.9999389648436
 20
-32.79565048217774
 30
-2.95506477355957
 10
-999.9999389648436
 20
-6.549237251281738
 30
-22.04131698608398
 10
-999.9999389648436
 20
-6.549805641174316
 30
-23.77938079833985
 10
-999.9999389648436
 20
-8.450188636779785
 30
-24.04564285278321
 10
-999.9999389648436
 20
-8.450187683105468
 30
-47.95435714721679
 10
-999.9999389648436
 20
-6.549805641174316
 30
-48.22061920166015
 10
-999.9999389648436
 20
-6.547260284423828
 30
-49.96631622314453
 10
-999.9999389648436
 20
-3.453787326812744
 30
-59.76932907104492
 93
      945
 90
        4
 90
       61
 90
       62
 90
      136
 90
        8
 90
        4
 90
       62
 90
       63
 90
      135
 90
      136
 90
        4
 90
       63
 90
       65
 90
      134
 90
      135
 90
        4
 90
       65
 90
       67
 90
      133
 90
      134
 90
        4
 90
       67
 90
       68
 90
        7
 90
      133
 90
        4
 90
       68
 90
       70
 90
        6
 90
        7
 90
        4
 90
       70
 90
       71
 90
      132
 90
        6
 90
        4
 90
       71
 90
       74
 90
      131
 90
      132
 90
        4
 90
       74
 90
       78
 90
      130
 90
      131
 90
        4
 90
       78
 90
       82
 90
      129
 90
      130
 90
        4
 90
       82
 90
       85
 90
      128
 90
      129
 90
        4
 90
       85
 90
       88
 90
      127
 90
      128
 90
        4
 90
       88
 90
       90
 90
      126
 90
      127
 90
        4
 90
       90
 90
      106
 90
        5
 90
      126
 90
        4
 90
      106
 90
      108
 90
        4
 90
        5
 90
        4
 90
      108
 90
      117
 90
        3
 90
        4
 90
        4
 90
      117
 90
      118
 90
        2
 90
        3
 90
        4
 90
      118
 90
      119
 90
      125
 90
        2
 90
        4
 90
      119
 90
      116
 90
      124
 90
      125
 90
        4
 90
      116
 90
      115
 90
      123
 90
      124
 90
        4
 90
      115
 90
      112
 90
      122
 90
      123
 90
        4
 90
      112
 90
      103
 90
        1
 90
      122
 90
        4
 90
      103
 90
       38
 90
        0
 90
        1
 90
        4
 90
       38
 90
       35
 90
      121
 90
        0
 90
        4
 90
       35
 90
       94
 90
      120
 90
      121
 90
        4
 90
       94
 90
       42
 90
       33
 90
      120
 90
        4
 90
       42
 90
       50
 90
      154
 90
       33
 90
        4
 90
       50
 90
       54
 90
       32
 90
      154
 90
        4
 90
       54
 90
       46
 90
      153
 90
       32
 90
        4
 90
       46
 90
       39
 90
       31
 90
      153
 90
        4
 90
       39
 90
       93
 90
      152
 90
       31
 90
        4
 90
       93
 90
       91
 90
      161
 90
      152
 90
        4
 90
       40
 90
       41
 90
       30
 90
      151
 90
        4
 90
       41
 90
       47
 90
       29
 90
       30
 90
        4
 90
       47
 90
       48
 90
       28
 90
       29
 90
        4
 90
       48
 90
       49
 90
       27
 90
       28
 90
        4
 90
       49
 90
       55
 90
      150
 90
       27
 90
        4
 90
       55
 90
       56
 90
      149
 90
      150
 90
        4
 90
       56
 90
       52
 90
       26
 90
      149
 90
        4
 90
       52
 90
       53
 90
      148
 90
       26
 90
        4
 90
       53
 90
       51
 90
      147
 90
      148
 90
        4
 90
       51
 90
       45
 90
      146
 90
      147
 90
        4
 90
       45
 90
       43
 90
       25
 90
      146
 90
        4
 90
       43
 90
       44
 90
      145
 90
       25
 90
        4
 90
       44
 90
       95
 90
      160
 90
      145
 90
        4
 90
       97
 90
       98
 90
      159
 90
       24
 90
        4
 90
       36
 90
       37
 90
      158
 90
       23
 90
        4
 90
      101
 90
      102
 90
      157
 90
       22
 90
        4
 90
      110
 90
      111
 90
      156
 90
      144
 90
        4
 90
      114
 90
      107
 90
      155
 90
       21
 90
        4
 90
      104
 90
       89
 90
      143
 90
       20
 90
        4
 90
       89
 90
       86
 90
       19
 90
      143
 90
        4
 90
       86
 90
       87
 90
       18
 90
       19
 90
        4
 90
       87
 90
       83
 90
       17
 90
       18
 90
        4
 90
       83
 90
       84
 90
       16
 90
       17
 90
        4
 90
       84
 90
       80
 90
       15
 90
       16
 90
        4
 90
       80
 90
       81
 90
       14
 90
       15
 90
        4
 90
       81
 90
       79
 90
      142
 90
       14
 90
        4
 90
       79
 90
       77
 90
       13
 90
      142
 90
        4
 90
       77
 90
       76
 90
      141
 90
       13
 90
        4
 90
       76
 90
       75
 90
      140
 90
      141
 90
        4
 90
       75
 90
       72
 90
       12
 90
      140
 90
        4
 90
       72
 90
       73
 90
      139
 90
       12
 90
        4
 90
       73
 90
       69
 90
       11
 90
      139
 90
        4
 90
       69
 90
       66
 90
       10
 90
       11
 90
        4
 90
       66
 90
       64
 90
        9
 90
       10
 90
        4
 90
       64
 90
       57
 90
      138
 90
        9
 90
        4
 90
       57
 90
       58
 90
       34
 90
      138
 90
        4
 90
       60
 90
       61
 90
        8
 90
      137
 90
        4
 90
      121
 90
       23
 90
      158
 90
        0
 90
        3
 90
       31
 90
      151
 90
       30
 90
        3
 90
       33
 90
       25
 90
      145
 90
        3
 90
       33
 90
      146
 90
       25
 90
        4
 90
      153
 90
       31
 90
       30
 90
       29
 90
        3
 90
      153
 90
       29
 90
       28
 90
        3
 90
      153
 90
       28
 90
       27
 90
        4
 90
       33
 90
      154
 90
      147
 90
      146
 90
        3
 90
      154
 90
       26
 90
      148
 90
        3
 90
      154
 90
      148
 90
      147
 90
        4
 90
       32
 90
      153
 90
       27
 90
      150
 90
        3
 90
       32
 90
      150
 90
      149
 90
        3
 90
      154
 90
       32
 90
       26
 90
        3
 90
       32
 90
      149
 90
       26
 90
        6
 90
      138
 90
       34
 90
      162
 90
      137
 90
        8
 90
      136
 90
        3
 90
      138
 90
      136
 90
      135
 90
        4
 90
        9
 90
      138
 90
      135
 90
      134
 90
        4
 90
       10
 90
        9
 90
      134
 90
      133
 90
        3
 90
       10
 90
      133
 90
        7
 90
        4
 90
       11
 90
       10
 90
        7
 90
        6
 90
        3
 90
       11
 90
        6
 90
      132
 90
        3
 90
       12
 90
      139
 90
      131
 90
        4
 90
      139
 90
       11
 90
      132
 90
      131
 90
        3
 90
      140
 90
       12
 90
      131
 90
        3
 90
      141
 90
      140
 90
      131
 90
        4
 90
       13
 90
      141
 90
      131
 90
      130
 90
        3
 90
      142
 90
       13
 90
      130
 90
        3
 90
       15
 90
       14
 90
      129
 90
        4
 90
       14
 90
      142
 90
      130
 90
      129
 90
        3
 90
       17
 90
       16
 90
      128
 90
        4
 90
       16
 90
       15
 90
      129
 90
      128
 90
        3
 90
       19
 90
       18
 90
      127
 90
        4
 90
       18
 90
       17
 90
      128
 90
      127
 90
        4
 90
      143
 90
       19
 90
      127
 90
      126
 90
        4
 90
       91
 90
       92
 90
      169
 90
      161
 90
        4
 90
       95
 90
       96
 90
      168
 90
      160
 90
        4
 90
       98
 90
       99
 90
      167
 90
      159
 90
        4
 90
       37
 90
      100
 90
      166
 90
      158
 90
        4
 90
      102
 90
      109
 90
      165
 90
      157
 90
        4
 90
      111
 90
      113
 90
      164
 90
      156
 90
        4
 90
      107
 90
      105
 90
      163
 90
      155
 90
        4
 90
       58
 90
       59
 90
      162
 90
       34
 90
        4
 90
       92
 90
       40
 90
      151
 90
      169
 90
        4
 90
       96
 90
       97
 90
       24
 90
      168
 90
        4
 90
       99
 90
       36
 90
       23
 90
      167
 90
        4
 90
      100
 90
      101
 90
       22
 90
      166
 90
        4
 90
      109
 90
      110
 90
      144
 90
      165
 90
        4
 90
      113
 90
      114
 90
       21
 90
      164
 90
        4
 90
      105
 90
      104
 90
       20
 90
      163
 90
        4
 90
       59
 90
       60
 90
      137
 90
      162
 90
        3
 90
       31
 90
      161
 90
      169
 90
        3
 90
       31
 90
      169
 90
      151
 90
        3
 90
       31
 90
      152
 90
      161
 90
        4
 90
      120
 90
       33
 90
      145
 90
      160
 90
        3
 90
      120
 90
      160
 90
      168
 90
        3
 90
      120
 90
      168
 90
       24
 90
        4
 90
      121
 90
      120
 90
       24
 90
      159
 90
        3
 90
      121
 90
      159
 90
      167
 90
        3
 90
      121
 90
      167
 90
       23
 90
        3
 90
      158
 90
      166
 90
        0
 90
        3
 90
      166
 90
       22
 90
        0
 90
        4
 90
       22
 90
      157
 90
        1
 90
        0
 90
        3
 90
       20
 90
      143
 90
      126
 90
        4
 90
      163
 90
       20
 90
      126
 90
        5
 90
        4
 90
      155
 90
      163
 90
        5
 90
        4
 90
        3
 90
      165
 90
      144
 90
        1
 90
        4
 90
      144
 90
      156
 90
      122
 90
        1
 90
        3
 90
      157
 90
      165
 90
        1
 90
        4
 90
      164
 90
       21
 90
      123
 90
      122
 90
        3
 90
      156
 90
      164
 90
      122
 90
        3
 90
       21
 90
      124
 90
      123
 90
        3
 90
      155
 90
        4
 90
        3
 90
        3
 90
      155
 90
        3
 90
        2
 90
        4
 90
       21
 90
      155
 90
        2
 90
      125
 90
        3
 90
       21
 90
      125
 90
      124
 90
        4
 90
       35
 90
       38
 90
       37
 90
       36
 90
        3
 90
       39
 90
       41
 90
       40
 90
        3
 90
       42
 90
       44
 90
       43
 90
        3
 90
       42
 90
       43
 90
       45
 90
        4
 90
       46
 90
       47
 90
       41
 90
       39
 90
        3
 90
       46
 90
       48
 90
       47
 90
        3
 90
       46
 90
       49
 90
       48
 90
        4
 90
       42
 90
       45
 90
       51
 90
       50
 90
        3
 90
       50
 90
       53
 90
       52
 90
        3
 90
       50
 90
       51
 90
       53
 90
        4
 90
       54
 90
       55
 90
       49
 90
       46
 90
        3
 90
       54
 90
       56
 90
       55
 90
        3
 90
       50
 90
       52
 90
       54
 90
        3
 90
       54
 90
       52
 90
       56
 90
        6
 90
       57
 90
       62
 90
       61
 90
       60
 90
       59
 90
       58
 90
        3
 90
       57
 90
       63
 90
       62
 90
        4
 90
       64
 90
       65
 90
       63
 90
       57
 90
        4
 90
       66
 90
       67
 90
       65
 90
       64
 90
        3
 90
       66
 90
       68
 90
       67
 90
        4
 90
       69
 90
       70
 90
       68
 90
       66
 90
        3
 90
       69
 90
       71
 90
       70
 90
        3
 90
       72
 90
       74
 90
       73
 90
        4
 90
       73
 90
       74
 90
       71
 90
       69
 90
        3
 90
       75
 90
       74
 90
       72
 90
        3
 90
       76
 90
       74
 90
       75
 90
        4
 90
       77
 90
       78
 90
       74
 90
       76
 90
        3
 90
       79
 90
       78
 90
       77
 90
        3
 90
       80
 90
       82
 90
       81
 90
        4
 90
       81
 90
       82
 90
       78
 90
       79
 90
        3
 90
       83
 90
       85
 90
       84
 90
        4
 90
       84
 90
       85
 90
       82
 90
       80
 90
        3
 90
       86
 90
       88
 90
       87
 90
        4
 90
       87
 90
       88
 90
       85
 90
       83
 90
        4
 90
       89
 90
       90
 90
       88
 90
       86
 90
        3
 90
       39
 90
       92
 90
       91
 90
        3
 90
       39
 90
       40
 90
       92
 90
        3
 90
       39
 90
       91
 90
       93
 90
        4
 90
       94
 90
       95
 90
       44
 90
       42
 90
        3
 90
       94
 90
       96
 90
       95
 90
        3
 90
       94
 90
       97
 90
       96
 90
        4
 90
       35
 90
       98
 90
       97
 90
       94
 90
        3
 90
       35
 90
       99
 90
       98
 90
        3
 90
       35
 90
       36
 90
       99
 90
        3
 90
       37
 90
       38
 90
      100
 90
        3
 90
      100
 90
       38
 90
      101
 90
        4
 90
      101
 90
       38
 90
      103
 90
      102
 90
        3
 90
      104
 90
       90
 90
       89
 90
        4
 90
      105
 90
      106
 90
       90
 90
      104
 90
        4
 90
      107
 90
      108
 90
      106
 90
      105
 90
        3
 90
      109
 90
      103
 90
      110
 90
        4
 90
      110
 90
      103
 90
      112
 90
      111
 90
        3
 90
      102
 90
      103
 90
      109
 90
        4
 90
      113
 90
      112
 90
      115
 90
      114
 90
        3
 90
      111
 90
      112
 90
      113
 90
        3
 90
      114
 90
      115
 90
      116
 90
        3
 90
      107
 90
      117
 90
      108
 90
        3
 90
      107
 90
      118
 90
      117
 90
        4
 90
      114
 90
      119
 90
      118
 90
      107
 90
        3
 90
      114
 90
      116
 90
      119
 94
      371
 90
       61
 90
       62
 90
       62
 90
      136
 90
        8
 90
      136
 90
        8
 90
       61
 90
       62
 90
       63
 90
       63
 90
      135
 90
      135
 90
      136
 90
       63
 90
       65
 90
       65
 90
      134
 90
      134
 90
      135
 90
       65
 90
       67
 90
       67
 90
      133
 90
      133
 90
      134
 90
       67
 90
       68
 90
        7
 90
       68
 90
        7
 90
      133
 90
       68
 90
       70
 90
        6
 90
       70
 90
        6
 90
        7
 90
       70
 90
       71
 90
       71
 90
      132
 90
        6
 90
      132
 90
       71
 90
       74
 90
       74
 90
      131
 90
      131
 90
      132
 90
       74
 90
       78
 90
       78
 90
      130
 90
      130
 90
      131
 90
       78
 90
       82
 90
       82
 90
      129
 90
      129
 90
      130
 90
       82
 90
       85
 90
       85
 90
      128
 90
      128
 90
      129
 90
       85
 90
       88
 90
       88
 90
      127
 90
      127
 90
      128
 90
       88
 90
       90
 90
       90
 90
      126
 90
      126
 90
      127
 90
       90
 90
      106
 90
        5
 90
      106
 90
        5
 90
      126
 90
      106
 90
      108
 90
        4
 90
      108
 90
        4
 90
        5
 90
      108
 90
      117
 90
        3
 90
      117
 90
        3
 90
        4
 90
      117
 90
      118
 90
        2
 90
      118
 90
        2
 90
        3
 90
      118
 90
      119
 90
      119
 90
      125
 90
        2
 90
      125
 90
      116
 90
      119
 90
      116
 90
      124
 90
      124
 90
      125
 90
      115
 90
      116
 90
      115
 90
      123
 90
      123
 90
      124
 90
      112
 90
      115
 90
      112
 90
      122
 90
      122
 90
      123
 90
      103
 90
      112
 90
        1
 90
      103
 90
        1
 90
      122
 90
       38
 90
      103
 90
        0
 90
       38
 90
        0
 90
        1
 90
       35
 90
       38
 90
       35
 90
      121
 90
        0
 90
      121
 90
       35
 90
       94
 90
       94
 90
      120
 90
      120
 90
      121
 90
       42
 90
       94
 90
       33
 90
       42
 90
       33
 90
      120
 90
       42
 90
       50
 90
       50
 90
      154
 90
       33
 90
      154
 90
       50
 90
       54
 90
       32
 90
       54
 90
       32
 90
      154
 90
       46
 90
       54
 90
       46
 90
      153
 90
       32
 90
      153
 90
       39
 90
       46
 90
       31
 90
       39
 90
       31
 90
      153
 90
       39
 90
       93
 90
       93
 90
      152
 90
       31
 90
      152
 90
       91
 90
       93
 90
       91
 90
      161
 90
      152
 90
      161
 90
       40
 90
       41
 90
       30
 90
       41
 90
       30
 90
      151
 90
       40
 90
      151
 90
       41
 90
       47
 90
       29
 90
       47
 90
       29
 90
       30
 90
       47
 90
       48
 90
       28
 90
       48
 90
       28
 90
       29
 90
       48
 90
       49
 90
       27
 90
       49
 90
       27
 90
       28
 90
       49
 90
       55
 90
       55
 90
      150
 90
       27
 90
      150
 90
       55
 90
       56
 90
       56
 90
      149
 90
      149
 90
      150
 90
       52
 90
       56
 90
       26
 90
       52
 90
       26
 90
      149
 90
       52
 90
       53
 90
       53
 90
      148
 90
       26
 90
      148
 90
       51
 90
       53
 90
       51
 90
      147
 90
      147
 90
      148
 90
       45
 90
       51
 90
       45
 90
      146
 90
      146
 90
      147
 90
       43
 90
       45
 90
       25
 90
       43
 90
       25
 90
      146
 90
       43
 90
       44
 90
       44
 90
      145
 90
       25
 90
      145
 90
       44
 90
       95
 90
       95
 90
      160
 90
      145
 90
      160
 90
       97
 90
       98
 90
       98
 90
      159
 90
       24
 90
      159
 90
       24
 90
       97
 90
       36
 90
       37
 90
       37
 90
      158
 90
       23
 90
      158
 90
       23
 90
       36
 90
      101
 90
      102
 90
      102
 90
      157
 90
       22
 90
      157
 90
       22
 90
      101
 90
      110
 90
      111
 90
      111
 90
      156
 90
      144
 90
      156
 90
      110
 90
      144
 90
      107
 90
      114
 90
      107
 90
      155
 90
       21
 90
      155
 90
       21
 90
      114
 90
       89
 90
      104
 90
       89
 90
      143
 90
       20
 90
      143
 90
       20
 90
      104
 90
       86
 90
       89
 90
       19
 90
       86
 90
       19
 90
      143
 90
       86
 90
       87
 90
       18
 90
       87
 90
       18
 90
       19
 90
       83
 90
       87
 90
       17
 90
       83
 90
       17
 90
       18
 90
       83
 90
       84
 90
       16
 90
       84
 90
       16
 90
       17
 90
       80
 90
       84
 90
       15
 90
       80
 90
       15
 90
       16
 90
       80
 90
       81
 90
       14
 90
       81
 90
       14
 90
       15
 90
       79
 90
       81
 90
       79
 90
      142
 90
       14
 90
      142
 90
       77
 90
       79
 90
       13
 90
       77
 90
       13
 90
      142
 90
       76
 90
       77
 90
       76
 90
      141
 90
       13
 90
      141
 90
       75
 90
       76
 90
       75
 90
      140
 90
      140
 90
      141
 90
       72
 90
       75
 90
       12
 90
       72
 90
       12
 90
      140
 90
       72
 90
       73
 90
       73
 90
      139
 90
       12
 90
      139
 90
       69
 90
       73
 90
       11
 90
       69
 90
       11
 90
      139
 90
       66
 90
       69
 90
       10
 90
       66
 90
       10
 90
       11
 90
       64
 90
       66
 90
        9
 90
       64
 90
        9
 90
       10
 90
       57
 90
       64
 90
       57
 90
      138
 90
        9
 90
      138
 90
       57
 90
       58
 90
       34
 90
       58
 90
       34
 90
      138
 90
       60
 90
       61
 90
        8
 90
      137
 90
       60
 90
      137
 90
       23
 90
      121
 90
        0
 90
      158
 90
       31
 90
      151
 90
       30
 90
       31
 90
       25
 90
       33
 90
       33
 90
      145
 90
       33
 90
      146
 90
       29
 90
      153
 90
       28
 90
      153
 90
       27
 90
      153
 90
      147
 90
      154
 90
       26
 90
      154
 90
      148
 90
      154
 90
       32
 90
      150
 90
       32
 90
      149
 90
       26
 90
       32
 90
       34
 90
      162
 90
      137
 90
      162
 90
      136
 90
      138
 90
      135
 90
      138
 90
        9
 90
      134
 90
       10
 90
      133
 90
        7
 90
       10
 90
        6
 90
       11
 90
       11
 90
      132
 90
      131
 90
      139
 90
       12
 90
      131
 90
      131
 90
      140
 90
      131
 90
      141
 90
       13
 90
      130
 90
      130
 90
      142
 90
       14
 90
      129
 90
       15
 90
      129
 90
       16
 90
      128
 90
       17
 90
      128
 90
       18
 90
      127
 90
       19
 90
      127
 90
      126
 90
      143
 90
       91
 90
       92
 90
       92
 90
      169
 90
      161
 90
      169
 90
       95
 90
       96
 90
       96
 90
      168
 90
      160
 90
      168
 90
       98
 90
       99
 90
       99
 90
      167
 90
      159
 90
      167
 90
       37
 90
      100
 90
      100
 90
      166
 90
      158
 90
      166
 90
      102
 90
      109
 90
      109
 90
      165
 90
      157
 90
      165
 90
      111
 90
      113
 90
      113
 90
      164
 90
      156
 90
      164
 90
      105
 90
      107
 90
      105
 90
      163
 90
      155
 90
      163
 90
       58
 90
       59
 90
       59
 90
      162
 90
       40
 90
       92
 90
      151
 90
      169
 90
       96
 90
       97
 90
       24
 90
      168
 90
       36
 90
       99
 90
       23
 90
      167
 90
      100
 90
      101
 90
       22
 90
      166
 90
      109
 90
      110
 90
      144
 90
      165
 90
      113
 90
      114
 90
       21
 90
      164
 90
      104
 90
      105
 90
       20
 90
      163
 90
       59
 90
       60
 90
       31
 90
      161
 90
       31
 90
      169
 90
      120
 90
      160
 90
      120
 90
      168
 90
       24
 90
      120
 90
      121
 90
      159
 90
      121
 90
      167
 90
        0
 90
      166
 90
        0
 90
       22
 90
        1
 90
      157
 90
       20
 90
      126
 90
        5
 90
      163
 90
        4
 90
      155
 90
        1
 90
      144
 90
        1
 90
      165
 90
      122
 90
      156
 90
       21
 90
      123
 90
      122
 90
      164
 90
       21
 90
      124
 90
        3
 90
      155
 90
        2
 90
      155
 90
       21
 90
      125
 90
       37
 90
       38
 90
       35
 90
       36
 90
       39
 90
       41
 90
       39
 90
       40
 90
       42
 90
       44
 90
       42
 90
       43
 90
       42
 90
       45
 90
       46
 90
       47
 90
       46
 90
       48
 90
       46
 90
       49
 90
       50
 90
       51
 90
       50
 90
       53
 90
       50
 90
       52
 90
       54
 90
       55
 90
       54
 90
       56
 90
       52
 90
       54
 90
       57
 90
       62
 90
       57
 90
       63
 90
       64
 90
       65
 90
       66
 90
       67
 90
       66
 90
       68
 90
       69
 90
       70
 90
       69
 90
       71
 90
       72
 90
       74
 90
       73
 90
       74
 90
       74
 90
       75
 90
       74
 90
       76
 90
       77
 90
       78
 90
       78
 90
       79
 90
       80
 90
       82
 90
       81
 90
       82
 90
       83
 90
       85
 90
       84
 90
       85
 90
       86
 90
       88
 90
       87
 90
       88
 90
       89
 90
       90
 90
       39
 90
       92
 90
       39
 90
       91
 90
       94
 90
       95
 90
       94
 90
       96
 90
       94
 90
       97
 90
       35
 90
       98
 90
       35
 90
       99
 90
       38
 90
      100
 90
       38
 90
      101
 90
      102
 90
      103
 90
       90
 90
      104
 90
      105
 90
      106
 90
      107
 90
      108
 90
      103
 90
      109
 90
      103
 90
      110
 90
      111
 90
      112
 90
      112
 90
      113
 90
      114
 90
      115
 90
      114
 90
      116
 90
      107
 90
      117
 90
      107
 90
      118
 90
      114
 90
      119
 95
      371
140
0.0
140
0.0
140
0.0
140
0.0
140
0.0
140
0.0
140
0.0
140
0.0
140
0.0
140
0.0
140
0.0
140
0.0
140
0.0
140
0.0
140
0.0
140
0.0
140
0.0
140
0.0
140
0.0
140
0.0
140
0.0
140
0.0
140
0.0
140
0.0
140
0.0
140
0.0
140
0.0
140
0.0
140
0.0
140
0.0
140
0.0
140
0.0
140
0.0
140
0.0
140
0.0
140
0.0
140
0.0
140
0.0
140
0.0
140
0.0
140
0.0
140
0.0
140
0.0
140
0.0
140
0.0
140
0.0
140
0.0
140
0.0
140
0.0
140
0.0
140
0.0
140
0.0
140
0.0
140
0.0
140
0.0
140
0.0
140
0.0
140
0.0
140
0.0
140
0.0
140
0.0
140
0.0
140
0.0
140
0.0
140
0.0
140
0.0
140
0.0
140
0.0
140
0.0
140
0.0
140
0.0
140
0.0
140
0.0
140
0.0
140
0.0
140
0.0
140
0.0
140
0.0
140
0.0
140
0.0
140
0.0
140
0.0
140
0.0
140
0.0
140
0.0
140
0.0
140
0.0
140
0.0
140
0.0
140
0.0
140
0.0
140
0.0
140
0.0
140
0.0
140
0.0
140
0.0
140
0.0
140
0.0
140
0.0
140
0.0
140
0.0
140
0.0
140
0.0
140
0.0
140
0.0
140
0.0
140
0.0
140
0.0
140
0.0
140
0.0
140
0.0
140
0.0
140
0.0
140
0.0
140
0.0
140
0.0
140
0.0
140
0.0
140
0.0
140
0.0
140
0.0
140
0.0
140
0.0
140
0.0
140
0.0
140
0.0
140
0.0
140
0.0
140
0.0
140
0.0
140
0.0
140
0.0
140
0.0
140
0.0
140
0.0
140
0.0
140
0.0
140
0.0
140
0.0
140
0.0
140
0.0
140
0.0
140
0.0
140
0.0
140
0.0
140
0.0
140
0.0
140
0.0
140
0.0
140
0.0
140
0.0
140
0.0
140
0.0
140
0.0
140
0.0
140
0.0
140
0.0
140
0.0
140
0.0
140
0.0
140
0.0
140
0.0
140
0.0
140
0.0
140
0.0
140
0.0
140
0.0
140
0.0
140
0.0
140
0.0
140
0.0
140
0.0
140
0.0
140
0.0
140
0.0
140
0.0
140
0.0
140
0.0
140
0.0
140
0.0
140
0.0
140
0.0
140
0.0
140
0.0
140
0.0
140
0.0
140
0.0
140
0.0
140
0.0
140
0.0
140
0.0
140
0.0
140
0.0
140
0.0
140
0.0
140
0.0
140
0.0
140
0.0
140
0.0
140
0.0
140
0.0
140
0.0
140
0.0
140
0.0
140
0.0
140
0.0
140
0.0
140
0.0
140
0.0
140
0.0
140
0.0
140
0.0
140
0.0
140
0.0
140
0.0
140
0.0
140
0.0
140
0.0
140
0.0
140
0.0
140
0.0
140
0.0
140
0.0
140
0.0
140
0.0
140
0.0
140
0.0
140
0.0
140
0.0
140
0.0
140
0.0
140
0.0
140
0.0
140
0.0
140
0.0
140
0.0
140
0.0
140
0.0
140
0.0
140
0.0
140
0.0
140
0.0
140
0.0
140
0.0
140
0.0
140
0.0
140
0.0
140
0.0
140
0.0
140
0.0
140
0.0
140
0.0
140
0.0
140
0.0
140
0.0
140
0.0
140
0.0
140
0.0
140
0.0
140
0.0
140
0.0
140
0.0
140
0.0
140
0.0
140
0.0
140
0.0
140
0.0
140
0.0
140
0.0
140
0.0
140
0.0
140
0.0
140
0.0
140
0.0
140
0.0
140
0.0
140
0.0
140
0.0
140
0.0
140
0.0
140
0.0
140
0.0
140
0.0
140
0.0
140
0.0
140
0.0
140
0.0
140
0.0
140
0.0
140
0.0
140
0.0
140
0.0
140
0.0
140
0.0
140
0.0
140
0.0
140
0.0
140
0.0
140
0.0
140
0.0
140
0.0
140
0.0
140
0.0
140
0.0
140
0.0
140
0.0
140
0.0
140
0.0
140
0.0
140
0.0
140
0.0
140
0.0
140
0.0
140
0.0
140
0.0
140
0.0
140
0.0
140
0.0
140
0.0
140
0.0
140
0.0
140
0.0
140
0.0
140
0.0
140
0.0
140
0.0
140
0.0
140
0.0
140
0.0
140
0.0
140
0.0
140
0.0
140
0.0
140
0.0
140
0.0
140
0.0
140
0.0
140
0.0
140
0.0
140
0.0
140
0.0
140
0.0
140
0.0
140
0.0
140
0.0
140
0.0
140
0.0
140
0.0
140
0.0
140
0.0
140
0.0
140
0.0
140
0.0
140
0.0
140
0.0
140
0.0
140
0.0
140
0.0
140
0.0
140
0.0
140
0.0
140
0.0
140
0.0
140
0.0
140
0.0
140
0.0
140
0.0
140
0.0
140
0.0
140
0.0
140
0.0
 90
        0
  0
POLYLINE
  5
FA
330
1F
100
AcDbEntity
  8
OracDecor_cornice_mouldings
 62
   121
420
 10937829
100
AcDb2dPolyline
 66
     1
 10
0.0
 20
0.0
 30
0.0000047843241191
 70
     1
210
-0.9999999999999769
220
0.0000001788139343
230
-0.0000001192092896
  0
VERTEX
  5
FB
330
FA
100
AcDbEntity
  8
OracDecor_cornice_mouldings
 62
   121
420
 10937829
100
AcDbVertex
100
AcDb2dVertex
 10
-2.000008106231689
 20
-46.0
 30
0.0000047843241191
  0
VERTEX
  5
FC
330
FA
100
AcDbEntity
  8
OracDecor_cornice_mouldings
 62
   121
420
 10937829
100
AcDbVertex
100
AcDb2dVertex
 10
-0.0000080046529547
 20
-46.0
 30
0.0000047843241191
  0
VERTEX
  5
FD
330
FA
100
AcDbEntity
  8
OracDecor_cornice_mouldings
 62
   121
420
 10937829
100
AcDbVertex
100
AcDb2dVertex
 10
-0.0000084910616351
 20
-51.56385803222656
 30
0.0000047843241191
  0
VERTEX
  5
FE
330
FA
100
AcDbEntity
  8
OracDecor_cornice_mouldings
 62
   121
420
 10937829
100
AcDbVertex
100
AcDb2dVertex
 10
-0.4691505134105683
 20
-52.0499382019043
 30
0.0000047843241191
  0
VERTEX
  5
FF
330
FA
100
AcDbEntity
  8
OracDecor_cornice_mouldings
 62
   121
420
 10937829
100
AcDbVertex
100
AcDb2dVertex
 10
-0.7160282135009766
 20
-52.66711044311524
 30
0.0000047843241191
  0
VERTEX
  5
100
330
FA
100
AcDbEntity
  8
OracDecor_cornice_mouldings
 62
   121
420
 10937829
100
AcDbVertex
100
AcDb2dVertex
 10
-0.7160282731056214
 20
-53.33288955688477
 30
0.0000047843241191
  0
VERTEX
  5
101
330
FA
100
AcDbEntity
  8
OracDecor_cornice_mouldings
 62
   121
420
 10937829
100
AcDbVertex
100
AcDb2dVertex
 10
-0.4691506624221802
 20
-53.9500617980957
 30
0.0000047843241191
  0
VERTEX
  5
102
330
FA
100
AcDbEntity
  8
OracDecor_cornice_mouldings
 62
   121
420
 10937829
100
AcDbVertex
100
AcDb2dVertex
 10
-0.0000087421640274
 20
-54.43614196777343
 30
0.0000047843241191
  0
VERTEX
  5
103
330
FA
100
AcDbEntity
  8
OracDecor_cornice_mouldings
 62
   121
420
 10937829
100
AcDbVertex
100
AcDb2dVertex
 10
-0.0000101822470242
 20
-60.0
 30
0.0000047843241191
  0
VERTEX
  5
104
330
FA
100
AcDbEntity
  8
OracDecor_cornice_mouldings
 62
   121
420
 10937829
100
AcDbVertex
100
AcDb2dVertex
 10
-3.300282955169677
 20
-59.82704162597656
 30
0.0000047843241191
  0
VERTEX
  5
105
330
FA
100
AcDbEntity
  8
OracDecor_cornice_mouldings
 62
   121
420
 10937829
100
AcDbVertex
100
AcDb2dVertex
 10
-3.453799486160278
 20
-59.76932907104492
 30
0.0000047843241191
  0
VERTEX
  5
106
330
FA
100
AcDbEntity
  8
OracDecor_cornice_mouldings
 62
   121
420
 10937829
100
AcDbVertex
100
AcDb2dVertex
 10
-3.514897108078002
 20
-59.61713027954101
 30
0.0000047843241191
  0
VERTEX
  5
107
330
FA
100
AcDbEntity
  8
OracDecor_cornice_mouldings
 62
   121
420
 10937829
100
AcDbVertex
100
AcDb2dVertex
 10
-3.599420547485351
 20
-58.4848403930664
 30
0.0000047843241191
  0
VERTEX
  5
108
330
FA
100
AcDbEntity
  8
OracDecor_cornice_mouldings
 62
   121
420
 10937829
100
AcDbVertex
100
AcDb2dVertex
 10
-3.904851913452148
 20
-57.4864501953125
 30
0.0000047843241191
  0
VERTEX
  5
109
330
FA
100
AcDbEntity
  8
OracDecor_cornice_mouldings
 62
   121
420
 10937829
100
AcDbVertex
100
AcDb2dVertex
 10
-4.478518962860107
 20
-56.67706680297851
 30
0.0000047843241191
  0
VERTEX
  5
10A
330
FA
100
AcDbEntity
  8
OracDecor_cornice_mouldings
 62
   121
420
 10937829
100
AcDbVertex
100
AcDb2dVertex
 10
-5.472679138183593
 20
-55.83821868896484
 30
0.0000047843241191
  0
VERTEX
  5
10B
330
FA
100
AcDbEntity
  8
OracDecor_cornice_mouldings
 62
   121
420
 10937829
100
AcDbVertex
100
AcDb2dVertex
 10
-6.7608642578125
 20
-54.9216423034668
 30
0.0000047843241191
  0
VERTEX
  5
10C
330
FA
100
AcDbEntity
  8
OracDecor_cornice_mouldings
 62
   121
420
 10937829
100
AcDbVertex
100
AcDb2dVertex
 10
-7.810554027557373
 20
-54.06397247314453
 30
0.0000047843241191
  0
VERTEX
  5
10D
330
FA
100
AcDbEntity
  8
OracDecor_cornice_mouldings
 62
   121
420
 10937829
100
AcDbVertex
100
AcDb2dVertex
 10
-8.442097663879394
 20
-53.29614639282226
 30
0.0000047843241191
  0
VERTEX
  5
10E
330
FA
100
AcDbEntity
  8
OracDecor_cornice_mouldings
 62
   121
420
 10937829
100
AcDbVertex
100
AcDb2dVertex
 10
-8.711001396179199
 20
-52.61815643310547
 30
0.0000047843241191
  0
VERTEX
  5
10F
330
FA
100
AcDbEntity
  8
OracDecor_cornice_mouldings
 62
   121
420
 10937829
100
AcDbVertex
100
AcDb2dVertex
 10
-8.711463928222656
 20
-51.98267364501953
 30
0.0000047843241191
  0
VERTEX
  5
110
330
FA
100
AcDbEntity
  8
OracDecor_cornice_mouldings
 62
   121
420
 10937829
100
AcDbVertex
100
AcDb2dVertex
 10
-8.433859825134277
 20
-51.27774810791016
 30
0.0000047843241191
  0
VERTEX
  5
111
330
FA
100
AcDbEntity
  8
OracDecor_cornice_mouldings
 62
   121
420
 10937829
100
AcDbVertex
100
AcDb2dVertex
 10
-7.912801265716552
 20
-50.63740921020507
 30
0.0000047843241191
  0
VERTEX
  5
112
330
FA
100
AcDbEntity
  8
OracDecor_cornice_mouldings
 62
   121
420
 10937829
100
AcDbVertex
100
AcDb2dVertex
 10
-7.329878807067871
 20
-50.28647232055664
 30
0.0000047843241191
  0
VERTEX
  5
113
330
FA
100
AcDbEntity
  8
OracDecor_cornice_mouldings
 62
   121
420
 10937829
100
AcDbVertex
100
AcDb2dVertex
 10
-6.689060688018798
 20
-50.06526184082031
 30
0.0000047843241191
  0
VERTEX
  5
114
330
FA
100
AcDbEntity
  8
OracDecor_cornice_mouldings
 62
   121
420
 10937829
100
AcDbVertex
100
AcDb2dVertex
 10
-6.547271251678466
 20
-49.96631622314453
 30
0.0000047843241191
  0
VERTEX
  5
115
330
FA
100
AcDbEntity
  8
OracDecor_cornice_mouldings
 62
   121
420
 10937829
100
AcDbVertex
100
AcDb2dVertex
 10
-6.500008106231689
 20
-49.79999923706055
 30
0.0000047843241191
  0
VERTEX
  5
116
330
FA
100
AcDbEntity
  8
OracDecor_cornice_mouldings
 62
   121
420
 10937829
100
AcDbVertex
100
AcDb2dVertex
 10
-6.500006675720214
 20
-48.3749771118164
 30
0.0000047843241191
  0
VERTEX
  5
117
330
FA
100
AcDbEntity
  8
OracDecor_cornice_mouldings
 62
   121
420
 10937829
100
AcDbVertex
100
AcDb2dVertex
 10
-6.549816608428955
 20
-48.22061920166015
 30
0.0000047843241191
  0
VERTEX
  5
118
330
FA
100
AcDbEntity
  8
OracDecor_cornice_mouldings
 62
   121
420
 10937829
100
AcDbVertex
100
AcDb2dVertex
 10
-6.699245452880859
 20
-48.15754699707031
 30
0.0000047843241191
  0
VERTEX
  5
119
330
FA
100
AcDbEntity
  8
OracDecor_cornice_mouldings
 62
   121
420
 10937829
100
AcDbVertex
100
AcDb2dVertex
 10
-8.300768852233886
 20
-48.01742935180664
 30
0.0000047843241191
  0
VERTEX
  5
11A
330
FA
100
AcDbEntity
  8
OracDecor_cornice_mouldings
 62
   121
420
 10937829
100
AcDbVertex
100
AcDb2dVertex
 10
-8.450198173522949
 20
-47.95435714721679
 30
0.0000047843241191
  0
VERTEX
  5
11B
330
FA
100
AcDbEntity
  8
OracDecor_cornice_mouldings
 62
   121
420
 10937829
100
AcDbVertex
100
AcDb2dVertex
 10
-8.500007629394531
 20
-47.79999923706054
 30
0.0000047843241191
  0
VERTEX
  5
11C
330
FA
100
AcDbEntity
  8
OracDecor_cornice_mouldings
 62
   121
420
 10937829
100
AcDbVertex
100
AcDb2dVertex
 10
-8.500006675720214
 20
-24.20000076293945
 30
0.0000047843241191
  0
VERTEX
  5
11D
330
FA
100
AcDbEntity
  8
OracDecor_cornice_mouldings
 62
   121
420
 10937829
100
AcDbVertex
100
AcDb2dVertex
 10
-8.450197219848632
 20
-24.04564285278321
 30
0.0000047843241191
  0
VERTEX
  5
11E
330
FA
100
AcDbEntity
  8
OracDecor_cornice_mouldings
 62
   121
420
 10937829
100
AcDbVertex
100
AcDb2dVertex
 10
-8.30076789855957
 20
-23.98256874084473
 30
0.0000047843241191
  0
VERTEX
  5
11F
330
FA
100
AcDbEntity
  8
OracDecor_cornice_mouldings
 62
   121
420
 10937829
100
AcDbVertex
100
AcDb2dVertex
 10
-6.699243068695068
 20
-23.84245491027832
 30
0.0000047843241191
  0
VERTEX
  5
120
330
FA
100
AcDbEntity
  8
OracDecor_cornice_mouldings
 62
   121
420
 10937829
100
AcDbVertex
100
AcDb2dVertex
 10
-6.549814224243164
 20
-23.77938079833985
 30
0.0000047843241191
  0
VERTEX
  5
121
330
FA
100
AcDbEntity
  8
OracDecor_cornice_mouldings
 62
   121
420
 10937829
100
AcDbVertex
100
AcDb2dVertex
 10
-6.500004291534423
 20
-23.62502288818359
 30
0.0000047843241191
  0
VERTEX
  5
122
330
FA
100
AcDbEntity
  8
OracDecor_cornice_mouldings
 62
   121
420
 10937829
100
AcDbVertex
100
AcDb2dVertex
 10
-6.500005722045898
 20
-22.20000076293946
 30
0.0000047843241191
  0
VERTEX
  5
123
330
FA
100
AcDbEntity
  8
OracDecor_cornice_mouldings
 62
   121
420
 10937829
100
AcDbVertex
100
AcDb2dVertex
 10
-6.549245834350585
 20
-22.04131698608398
 30
0.0000047843241191
  0
VERTEX
  5
124
330
FA
100
AcDbEntity
  8
OracDecor_cornice_mouldings
 62
   121
420
 10937829
100
AcDbVertex
100
AcDb2dVertex
 10
-6.696967124938964
 20
-21.96527099609375
 30
0.0000047843241191
  0
VERTEX
  5
125
330
FA
100
AcDbEntity
  8
OracDecor_cornice_mouldings
 62
   121
420
 10937829
100
AcDbVertex
100
AcDb2dVertex
 10
-7.484814167022705
 20
-21.82635116577149
 30
0.0000047843241191
  0
VERTEX
  5
126
330
FA
100
AcDbEntity
  8
OracDecor_cornice_mouldings
 62
   121
420
 10937829
100
AcDbVertex
100
AcDb2dVertex
 10
-9.422280311584472
 20
-21.44043350219726
 30
0.0000047843241191
  0
VERTEX
  5
127
330
FA
100
AcDbEntity
  8
OracDecor_cornice_mouldings
 62
   121
420
 10937829
100
AcDbVertex
100
AcDb2dVertex
 10
-11.05655670166015
 20
-20.93829345703125
 30
0.0000047843241191
  0
VERTEX
  5
128
330
FA
100
AcDbEntity
  8
OracDecor_cornice_mouldings
 62
   121
420
 10937829
100
AcDbVertex
100
AcDb2dVertex
 10
-12.7661828994751
 20
-20.06783485412598
 30
0.0000047843241191
  0
VERTEX
  5
129
330
FA
100
AcDbEntity
  8
OracDecor_cornice_mouldings
 62
   121
420
 10937829
100
AcDbVertex
100
AcDb2dVertex
 10
-14.89128971099853
 20
-18.50385093688965
 30
0.0000047843241191
  0
VERTEX
  5
12A
330
FA
100
AcDbEntity
  8
OracDecor_cornice_mouldings
 62
   121
420
 10937829
100
AcDbVertex
100
AcDb2dVertex
 10
-16.0245246887207
 20
-17.39906120300293
 30
0.0000047843241191
  0
VERTEX
  5
12B
330
FA
100
AcDbEntity
  8
OracDecor_cornice_mouldings
 62
   121
420
 10937829
100
AcDbVertex
100
AcDb2dVertex
 10
-17.07883644104004
 20
-16.05986976623535
 30
0.0000047843241191
  0
VERTEX
  5
12C
330
FA
100
AcDbEntity
  8
OracDecor_cornice_mouldings
 62
   121
420
 10937829
100
AcDbVertex
100
AcDb2dVertex
 10
-18.06256675720215
 20
-14.49102115631103
 30
0.0000047843241191
  0
VERTEX
  5
12D
330
FA
100
AcDbEntity
  8
OracDecor_cornice_mouldings
 62
   121
420
 10937829
100
AcDbVertex
100
AcDb2dVertex
 10
-19.03272819519043
 20
-12.73240661621094
 30
0.0000047843241191
  0
VERTEX
  5
12E
330
FA
100
AcDbEntity
  8
OracDecor_cornice_mouldings
 62
   121
420
 10937829
100
AcDbVertex
100
AcDb2dVertex
 10
-20.05209350585937
 20
-10.87592029571533
 30
0.0000047843241191
  0
VERTEX
  5
12F
330
FA
100
AcDbEntity
  8
OracDecor_cornice_mouldings
 62
   121
420
 10937829
100
AcDbVertex
100
AcDb2dVertex
 10
-21.14973449707031
 20
-9.142949104309082
 30
0.0000047843241191
  0
VERTEX
  5
130
330
FA
100
AcDbEntity
  8
OracDecor_cornice_mouldings
 62
   121
420
 10937829
100
AcDbVertex
100
AcDb2dVertex
 10
-22.26926040649414
 20
-7.690824031829833
 30
0.0000047843241191
  0
VERTEX
  5
131
330
FA
100
AcDbEntity
  8
OracDecor_cornice_mouldings
 62
   121
420
 10937829
100
AcDbVertex
100
AcDb2dVertex
 10
-23.39742660522461
 20
-6.522828578948974
 30
0.0000047843241191
  0
VERTEX
  5
132
330
FA
100
AcDbEntity
  8
OracDecor_cornice_mouldings
 62
   121
420
 10937829
100
AcDbVertex
100
AcDb2dVertex
 10
-25.85540771484375
 20
-4.828095436096191
 30
0.0000047843241191
  0
VERTEX
  5
133
330
FA
100
AcDbEntity
  8
OracDecor_cornice_mouldings
 62
   121
420
 10937829
100
AcDbVertex
100
AcDb2dVertex
 10
-27.3931884765625
 20
-4.149155616760253
 30
0.0000047843241191
  0
VERTEX
  5
134
330
FA
100
AcDbEntity
  8
OracDecor_cornice_mouldings
 62
   121
420
 10937829
100
AcDbVertex
100
AcDb2dVertex
 10
-29.14247512817383
 20
-3.585566520690917
 30
0.0000047843241191
  0
VERTEX
  5
135
330
FA
100
AcDbEntity
  8
OracDecor_cornice_mouldings
 62
   121
420
 10937829
100
AcDbVertex
100
AcDb2dVertex
 10
-30.99877166748047
 20
-3.1854088306427
 30
0.0000047843241191
  0
VERTEX
  5
136
330
FA
100
AcDbEntity
  8
OracDecor_cornice_mouldings
 62
   121
420
 10937829
100
AcDbVertex
100
AcDb2dVertex
 10
-32.64379119873047
 20
-3.020002365112304
 30
0.0000047843241191
  0
VERTEX
  5
137
330
FA
100
AcDbEntity
  8
OracDecor_cornice_mouldings
 62
   121
420
 10937829
100
AcDbVertex
100
AcDb2dVertex
 10
-32.79565811157227
 20
-2.955064058303833
 30
0.0000047843241191
  0
VERTEX
  5
138
330
FA
100
AcDbEntity
  8
OracDecor_cornice_mouldings
 62
   121
420
 10937829
100
AcDbVertex
100
AcDb2dVertex
 10
-32.85325622558594
 20
-2.800267457962036
 30
0.0000047843241191
  0
VERTEX
  5
139
330
FA
100
AcDbEntity
  8
OracDecor_cornice_mouldings
 62
   121
420
 10937829
100
AcDbVertex
100
AcDb2dVertex
 10
-33.00001525878907
 20
0.0000066400443757
 30
0.0000047843241191
  0
VERTEX
  5
13A
330
FA
100
AcDbEntity
  8
OracDecor_cornice_mouldings
 62
   121
420
 10937829
100
AcDbVertex
100
AcDb2dVertex
 10
-29.4361457824707
 20
0.000006540904451
 30
0.0000047843241191
  0
VERTEX
  5
13B
330
FA
100
AcDbEntity
  8
OracDecor_cornice_mouldings
 62
   121
420
 10937829
100
AcDbVertex
100
AcDb2dVertex
 10
-28.95063018798828
 20
-0.4688407480716706
 30
0.0000047843241191
  0
VERTEX
  5
13C
330
FA
100
AcDbEntity
  8
OracDecor_cornice_mouldings
 62
   121
420
 10937829
100
AcDbVertex
100
AcDb2dVertex
 10
-28.33318710327148
 20
-0.7159053087234497
 30
0.0000047843241191
  0
VERTEX
  5
13D
330
FA
100
AcDbEntity
  8
OracDecor_cornice_mouldings
 62
   121
420
 10937829
100
AcDbVertex
100
AcDb2dVertex
 10
-27.66682434082031
 20
-0.7159053683280945
 30
0.0000047843241191
  0
VERTEX
  5
13E
330
FA
100
AcDbEntity
  8
OracDecor_cornice_mouldings
 62
   121
420
 10937829
100
AcDbVertex
100
AcDb2dVertex
 10
-27.04938125610352
 20
-0.4688408076763153
 30
0.0000047843241191
  0
VERTEX
  5
13F
330
FA
100
AcDbEntity
  8
OracDecor_cornice_mouldings
 62
   121
420
 10937829
100
AcDbVertex
100
AcDb2dVertex
 10
-26.56386566162109
 20
0.0000064610021582
 30
0.0000047843241191
  0
VERTEX
  5
140
330
FA
100
AcDbEntity
  8
OracDecor_cornice_mouldings
 62
   121
420
 10937829
100
AcDbVertex
100
AcDb2dVertex
 10
-23.00000381469727
 20
0.0000063618622335
 30
0.0000047843241191
  0
VERTEX
  5
141
330
FA
100
AcDbEntity
  8
OracDecor_cornice_mouldings
 62
   121
420
 10937829
100
AcDbVertex
100
AcDb2dVertex
 10
-17.24540710449218
 20
-4.930867671966552
 30
0.0000047843241191
  0
VERTEX
  5
142
330
FA
100
AcDbEntity
  8
OracDecor_cornice_mouldings
 62
   121
420
 10937829
100
AcDbVertex
100
AcDb2dVertex
 10
-13.64470672607422
 20
-10.8278865814209
 30
0.0000047843241191
  0
VERTEX
  5
143
330
FA
100
AcDbEntity
  8
OracDecor_cornice_mouldings
 62
   121
420
 10937829
100
AcDbVertex
100
AcDb2dVertex
 10
-12.21284389495849
 20
-12.65566635131836
 30
0.0000047843241191
  0
VERTEX
  5
144
330
FA
100
AcDbEntity
  8
OracDecor_cornice_mouldings
 62
   121
420
 10937829
100
AcDbVertex
100
AcDb2dVertex
 10
-10.39805889129638
 20
-14.10397243499756
 30
0.0000047843241191
  0
VERTEX
  5
145
330
FA
100
AcDbEntity
  8
OracDecor_cornice_mouldings
 62
   121
420
 10937829
100
AcDbVertex
100
AcDb2dVertex
 10
-8.298189163208007
 20
-15.09471702575683
 30
0.0000047843241191
  0
VERTEX
  5
146
330
FA
100
AcDbEntity
  8
OracDecor_cornice_mouldings
 62
   121
420
 10937829
100
AcDbVertex
100
AcDb2dVertex
 10
-3.500005006790161
 20
-16.70872688293457
 30
0.0000047843241191
  0
VERTEX
  5
147
330
FA
100
AcDbEntity
  8
OracDecor_cornice_mouldings
 62
   121
420
 10937829
100
AcDbVertex
100
AcDb2dVertex
 10
-0.0000037987604173
 20
-19.70772933959961
 30
0.0000047843241191
  0
VERTEX
  5
148
330
FA
100
AcDbEntity
  8
OracDecor_cornice_mouldings
 62
   121
420
 10937829
100
AcDbVertex
100
AcDb2dVertex
 10
-0.0000059120889091
 20
-22.06385993957519
 30
0.0000047843241191
  0
VERTEX
  5
149
330
FA
100
AcDbEntity
  8
OracDecor_cornice_mouldings
 62
   121
420
 10937829
100
AcDbVertex
100
AcDb2dVertex
 10
-0.4691479206085205
 20
-22.5499382019043
 30
0.0000047843241191
  0
VERTEX
  5
14A
330
FA
100
AcDbEntity
  8
OracDecor_cornice_mouldings
 62
   121
420
 10937829
100
AcDbVertex
100
AcDb2dVertex
 10
-0.7160256505012513
 20
-23.16711044311523
 30
0.0000047843241191
  0
VERTEX
  5
14B
330
FA
100
AcDbEntity
  8
OracDecor_cornice_mouldings
 62
   121
420
 10937829
100
AcDbVertex
100
AcDb2dVertex
 10
-0.716025710105896
 20
-23.83288955688477
 30
0.0000047843241191
  0
VERTEX
  5
14C
330
FA
100
AcDbEntity
  8
OracDecor_cornice_mouldings
 62
   121
420
 10937829
100
AcDbVertex
100
AcDb2dVertex
 10
-0.4691480994224549
 20
-24.45006179809571
 30
0.0000047843241191
  0
VERTEX
  5
14D
330
FA
100
AcDbEntity
  8
OracDecor_cornice_mouldings
 62
   121
420
 10937829
100
AcDbVertex
100
AcDb2dVertex
 10
-0.0000061631913013
 20
-24.93614006042481
 30
0.0000047843241191
  0
VERTEX
  5
14E
330
FA
100
AcDbEntity
  8
OracDecor_cornice_mouldings
 62
   121
420
 10937829
100
AcDbVertex
100
AcDb2dVertex
 10
-0.0000063436200435
 20
-27.0
 30
0.0000047843241191
  0
VERTEX
  5
14F
330
FA
100
AcDbEntity
  8
OracDecor_cornice_mouldings
 62
   121
420
 10937829
100
AcDbVertex
100
AcDb2dVertex
 10
-2.000006437301635
 20
-27.0
 30
0.0000047843241191
  0
SEQEND
  5
150
330
FA
100
AcDbEntity
  8
OracDecor_cornice_mouldings
 62
   121
420
 10937829
  0
ENDSEC
  0
SECTION
  2
OBJECTS
  0
DICTIONARY
  5
C
330
0
100
AcDbDictionary
281
     1
  3
ACAD_COLOR
350
DC
  3
ACAD_DETAILVIEWSTYLE
350
F5
  3
ACAD_GROUP
350
D
  3
ACAD_LAYOUT
350
1A
  3
ACAD_MATERIAL
350
AA
  3
ACAD_MLEADERSTYLE
350
F1
  3
ACAD_MLINESTYLE
350
17
  3
ACAD_PLOTSETTINGS
350
19
  3
ACAD_PLOTSTYLENAME
350
E
  3
ACAD_SCALELIST
350
DF
  3
ACAD_SECTIONVIEWSTYLE
350
F3
  3
ACAD_TABLESTYLE
350
DD
  3
ACAD_VISUALSTYLE
350
C3
  3
ACDB_RECOMPOSE_DATA
350
15D
  3
AcDbVariableDictionary
350
151
  0
DICTIONARY
  5
DC
102
{ACAD_REACTORS
330
C
102
}
330
C
100
AcDbDictionary
281
     1
  0
DICTIONARY
  5
F5
102
{ACAD_REACTORS
330
C
102
}
330
C
100
AcDbDictionary
281
     1
  3
Imperial24
350
F6
  0
DICTIONARY
  5
D
102
{ACAD_REACTORS
330
C
102
}
330
C
100
AcDbDictionary
281
     1
  0
DICTIONARY
  5
1A
102
{ACAD_REACTORS
330
C
102
}
330
C
100
AcDbDictionary
281
     1
  3
Layout1
350
1E
  3
Layout2
350
26
  3
Model
350
22
  0
DICTIONARY
  5
AA
102
{ACAD_REACTORS
330
C
102
}
330
C
100
AcDbDictionary
281
     1
  3
ByBlock
350
B3
  3
ByLayer
350
AB
  3
Global
350
BB
  0
DICTIONARY
  5
F1
102
{ACAD_REACTORS
330
C
102
}
330
C
100
AcDbDictionary
281
     1
  3
Standard
350
F2
  0
DICTIONARY
  5
17
102
{ACAD_REACTORS
330
C
102
}
330
C
100
AcDbDictionary
281
     1
  3
Standard
350
18
  0
DICTIONARY
  5
19
102
{ACAD_REACTORS
330
C
102
}
330
C
100
AcDbDictionary
281
     1
  0
ACDBDICTIONARYWDFLT
  5
E
102
{ACAD_REACTORS
330
C
102
}
330
C
100
AcDbDictionary
281
     1
  3
ByLayer
350
2D
  3
Normal
350
F
100
AcDbDictionaryWithDefault
340
F
  0
DICTIONARY
  5
DF
102
{ACAD_REACTORS
330
C
102
}
330
C
100
AcDbDictionary
281
     1
  3
A0
350
E0
  3
A1
350
E1
  3
A2
350
E2
  3
A3
350
E3
  3
A4
350
E4
  3
A5
350
E5
  3
A6
350
E6
  3
A7
350
E7
  3
A8
350
E8
  3
A9
350
E9
  3
B0
350
EA
  3
B1
350
EB
  3
B2
350
EC
  3
B3
350
ED
  3
B4
350
EE
  3
B5
350
EF
  3
B6
350
F0
  0
DICTIONARY
  5
F3
102
{ACAD_REACTORS
330
C
102
}
330
C
100
AcDbDictionary
281
     1
  3
Imperial24
350
F4
  0
DICTIONARY
  5
DD
102
{ACAD_REACTORS
330
C
102
}
330
C
100
AcDbDictionary
281
     1
  3
Standard
350
DE
  0
DICTIONARY
  5
C3
102
{ACAD_REACTORS
330
C
102
}
330
C
100
AcDbDictionary
281
     1
  3
2dWireframe
350
C9
  3
Basic
350
C8
  3
Brighten
350
CF
  3
ColorChange
350
D3
  3
Conceptual
350
CC
  3
Dim
350
CE
  3
EdgeColorOff
350
DB
  3
Facepattern
350
D2
  3
Flat
350
C4
  3
FlatWithEdges
350
C5
  3
Gouraud
350
C6
  3
GouraudWithEdges
350
C7
  3
Hidden
350
CB
  3
JitterOff
350
D9
  3
Linepattern
350
D1
  3
OverhangOff
350
DA
  3
Realistic
350
CD
  3
Shaded
350
D8
  3
Shaded with edges
350
D7
  3
Shades of Gray
350
D4
  3
Sketchy
350
D5
  3
Thicken
350
D0
  3
Wireframe
350
CA
  3
X-Ray
350
D6
  0
XRECORD
  5
15D
102
{ACAD_REACTORS
330
C
102
}
330
C
100
AcDbXrecord
280
     1
 90
        1
330
DE
  0
DICTIONARY
  5
151
102
{ACAD_REACTORS
330
C
102
}
330
C
100
AcDbDictionary
281
     1
  3
CANNOSCALE
350
157
  3
CMLEADERSTYLE
350
153
  3
CTABLESTYLE
350
152
  3
CVIEWDETAILSTYLE
350
154
  3
CVIEWSECTIONSTYLE
350
155
  3
LAYEREVAL
350
159
  3
LAYERNOTIFY
350
15A
  3
LIGHTINGUNITS
350
158
  3
MSLTSCALE
350
156
  0
ACDBDETAILVIEWSTYLE
  5
F6
102
{ACAD_XDICTIONARY
360
192
102
}
102
{ACAD_REACTORS
330
F5
102
}
330
F5
100
AcDbModelDocViewStyle
 70
     0
  3
Imperial24
290
     0
100
AcDbDetailViewStyle
 70
     0
 71
     0
 90
        3
 71
     1
340
11
 62
   256
 40
0.24
340
0
 62
   256
 40
0.24
300

 40
0.36
280
     3
 71
     2
340
16
 90
       25
 62
   256
 71
     3
340
11
 62
   256
 40
0.24
 90
        1
 40
0.75
 90
        1
300
%<\AcVar ViewType \f "%tc1">% %<\AcVar ViewDetailId>%\PSCALE %<\AcVar ViewScale \f "%sn">%
 71
     4
340
16
 90
       25
 62
   256
340
16
 90
       25
 62
   256
280
     0
  0
LAYOUT
  5
1E
102
{ACAD_REACTORS
330
1A
102
}
330
1A
100
AcDbPlotSettings
  1

  2
\\KTXNTBDC\CASF2PN1
  4

  6

 40
0.0
 41
0.0
 42
0.0
 43
0.0
 44
0.0
 45
0.0
 46
0.0
 47
0.0
 48
0.0
 49
0.0
140
0.0
141
0.0
142
1.0
143
1.0
 70
   688
 72
     0
 73
     0
 74
     5
  7

 75
    16
147
1.0
 76
     0
 77
     2
 78
   300
148
0.0
149
0.0
100
AcDbLayout
  1
Layout1
 70
     1
 71
     1
 10
0.0
 20
0.0
 11
12.0
 21
9.0
 12
0.0
 22
0.0
 32
0.0
 14
1.000000000000000E+20
 24
1.000000000000000E+20
 34
1.000000000000000E+20
 15
-1.000000000000000E+20
 25
-1.000000000000000E+20
 35
-1.000000000000000E+20
146
0.0
 13
0.0
 23
0.0
 33
0.0
 16
1.0
 26
0.0
 36
0.0
 17
0.0
 27
1.0
 37
0.0
 76
     0
330
1B
  0
LAYOUT
  5
26
102
{ACAD_REACTORS
330
1A
102
}
330
1A
100
AcDbPlotSettings
  1

  2
\\KTXNTBDC\CASF2PN1
  4

  6

 40
0.0
 41
0.0
 42
0.0
 43
0.0
 44
0.0
 45
0.0
 46
0.0
 47
0.0
 48
0.0
 49
0.0
140
0.0
141
0.0
142
1.0
143
1.0
 70
   688
 72
     0
 73
     0
 74
     5
  7

 75
    16
147
1.0
 76
     0
 77
     2
 78
   300
148
0.0
149
0.0
100
AcDbLayout
  1
Layout2
 70
     1
 71
     2
 10
0.0
 20
0.0
 11
12.0
 21
9.0
 12
0.0
 22
0.0
 32
0.0
 14
0.0
 24
0.0
 34
0.0
 15
0.0
 25
0.0
 35
0.0
146
0.0
 13
0.0
 23
0.0
 33
0.0
 16
1.0
 26
0.0
 36
0.0
 17
0.0
 27
1.0
 37
0.0
 76
     0
330
23
  0
LAYOUT
  5
22
102
{ACAD_REACTORS
330
1A
102
}
330
1A
100
AcDbPlotSettings
  1

  2
\\KTXNTBDC\CASF2PN1
  4

  6

 40
0.0
 41
0.0
 42
0.0
 43
0.0
 44
0.0
 45
0.0
 46
0.0
 47
0.0
 48
0.0
 49
0.0
140
0.0
141
0.0
142
1.0
143
1.0
 70
  1712
 72
     0
 73
     0
 74
     0
  7

 75
     0
147
1.0
 76
     0
 77
     2
 78
   300
148
0.0
149
0.0
100
AcDbLayout
  1
Model
 70
     1
 71
     0
 10
0.0
 20
0.0
 11
12.0
 21
9.0
 12
0.0
 22
0.0
 32
0.0
 14
0.0
 24
0.0
 34
0.0
 15
0.0
 25
0.0
 35
0.0
146
0.0
 13
0.0
 23
0.0
 33
0.0
 16
1.0
 26
0.0
 36
0.0
 17
0.0
 27
1.0
 37
0.0
 76
     0
330
1F
  0
MATERIAL
  5
B3
102
{ACAD_XDICTIONARY
360
B4
102
}
102
{ACAD_REACTORS
330
AA
102
}
330
AA
100
AcDbMaterial
  1
ByBlock
 72
     0
 43
0.0208333333333333
 43
0.0
 43
0.0
 43
0.0
 43
0.0
 43
0.0208333333333333
 43
0.0
 43
0.0
 43
0.0
 43
0.0
 43
1.0
 43
0.0
 43
0.0
 43
0.0
 43
0.0
 43
1.0
 77
     0
 47
0.0208333333333333
 47
0.0
 47
0.0
 47
0.0
 47
0.0
 47
0.0208333333333333
 47
0.0
 47
0.0
 47
0.0
 47
0.0
 47
1.0
 47
0.0
 47
0.0
 47
0.0
 47
0.0
 47
1.0
171
     0
 49
0.0208333333333333
 49
0.0
 49
0.0
 49
0.0
 49
0.0
 49
0.0208333333333333
 49
0.0
 49
0.0
 49
0.0
 49
0.0
 49
1.0
 49
0.0
 49
0.0
 49
0.0
 49
0.0
 49
1.0
175
     0
142
0.0208333333333333
142
0.0
142
0.0
142
0.0
142
0.0
142
0.0208333333333333
142
0.0
142
0.0
142
0.0
142
0.0
142
1.0
142
0.0
142
0.0
142
0.0
142
0.0
142
1.0
179
     0
144
0.0208333333333333
144
0.0
144
0.0
144
0.0
144
0.0
144
0.0208333333333333
144
0.0
144
0.0
144
0.0
144
0.0
144
1.0
144
0.0
144
0.0
144
0.0
144
0.0
144
1.0
147
0.0208333333333333
147
0.0
147
0.0
147
0.0
147
0.0
147
0.0208333333333333
147
0.0
147
0.0
147
0.0
147
0.0
147
1.0
147
0.0
147
0.0
147
0.0
147
0.0
147
1.0
  0
MATERIAL
  5
AB
102
{ACAD_XDICTIONARY
360
AC
102
}
102
{ACAD_REACTORS
330
AA
102
}
330
AA
100
AcDbMaterial
  1
ByLayer
 72
     0
 43
0.0208333333333333
 43
0.0
 43
0.0
 43
0.0
 43
0.0
 43
0.0208333333333333
 43
0.0
 43
0.0
 43
0.0
 43
0.0
 43
1.0
 43
0.0
 43
0.0
 43
0.0
 43
0.0
 43
1.0
 77
     0
 47
0.0208333333333333
 47
0.0
 47
0.0
 47
0.0
 47
0.0
 47
0.0208333333333333
 47
0.0
 47
0.0
 47
0.0
 47
0.0
 47
1.0
 47
0.0
 47
0.0
 47
0.0
 47
0.0
 47
1.0
171
     0
 49
0.0208333333333333
 49
0.0
 49
0.0
 49
0.0
 49
0.0
 49
0.0208333333333333
 49
0.0
 49
0.0
 49
0.0
 49
0.0
 49
1.0
 49
0.0
 49
0.0
 49
0.0
 49
0.0
 49
1.0
175
     0
142
0.0208333333333333
142
0.0
142
0.0
142
0.0
142
0.0
142
0.0208333333333333
142
0.0
142
0.0
142
0.0
142
0.0
142
1.0
142
0.0
142
0.0
142
0.0
142
0.0
142
1.0
179
     0
144
0.0208333333333333
144
0.0
144
0.0
144
0.0
144
0.0
144
0.0208333333333333
144
0.0
144
0.0
144
0.0
144
0.0
144
1.0
144
0.0
144
0.0
144
0.0
144
0.0
144
1.0
147
0.0208333333333333
147
0.0
147
0.0
147
0.0
147
0.0
147
0.0208333333333333
147
0.0
147
0.0
147
0.0
147
0.0
147
1.0
147
0.0
147
0.0
147
0.0
147
0.0
147
1.0
  0
MATERIAL
  5
BB
102
{ACAD_XDICTIONARY
360
BC
102
}
102
{ACAD_REACTORS
330
AA
102
}
330
AA
100
AcDbMaterial
  1
Global
 72
     0
 43
0.0208333333333333
 43
0.0
 43
0.0
 43
0.0
 43
0.0
 43
0.0208333333333333
 43
0.0
 43
0.0
 43
0.0
 43
0.0
 43
1.0
 43
0.0
 43
0.0
 43
0.0
 43
0.0
 43
1.0
 77
     0
 47
0.0208333333333333
 47
0.0
 47
0.0
 47
0.0
 47
0.0
 47
0.0208333333333333
 47
0.0
 47
0.0
 47
0.0
 47
0.0
 47
1.0
 47
0.0
 47
0.0
 47
0.0
 47
0.0
 47
1.0
171
     0
 49
0.0208333333333333
 49
0.0
 49
0.0
 49
0.0
 49
0.0
 49
0.0208333333333333
 49
0.0
 49
0.0
 49
0.0
 49
0.0
 49
1.0
 49
0.0
 49
0.0
 49
0.0
 49
0.0
 49
1.0
175
     0
142
0.0208333333333333
142
0.0
142
0.0
142
0.0
142
0.0
142
0.0208333333333333
142
0.0
142
0.0
142
0.0
142
0.0
142
1.0
142
0.0
142
0.0
142
0.0
142
0.0
142
1.0
179
     0
144
0.0208333333333333
144
0.0
144
0.0
144
0.0
144
0.0
144
0.0208333333333333
144
0.0
144
0.0
144
0.0
144
0.0
144
1.0
144
0.0
144
0.0
144
0.0
144
0.0
144
1.0
147
0.0208333333333333
147
0.0
147
0.0
147
0.0
147
0.0
147
0.0208333333333333
147
0.0
147
0.0
147
0.0
147
0.0
147
1.0
147
0.0
147
0.0
147
0.0
147
0.0
147
1.0
  0
MLEADERSTYLE
  5
F2
102
{ACAD_XDICTIONARY
360
18E
102
}
102
{ACAD_REACTORS
330
F1
102
}
330
F1
100
AcDbMLeaderStyle
179
     2
170
     2
171
     1
172
     0
 90
        2
 40
0.0
 41
0.0
173
     1
 91
-1056964608
340
14
 92
       -2
290
     1
 42
0.09
291
     1
 43
0.36
  3
Standard
 44
0.18
300

342
11
174
     1
178
     6
175
     1
176
     0
 93
-1056964608
 45
0.18
292
     0
297
     0
 46
0.18
 94
-1056964608
 47
1.0
 49
1.0
140
1.0
293
     1
141
0.0
294
     1
177
     0
142
1.0
295
     0
296
     0
143
0.125
271
     0
272
     9
273
     9
  0
MLINESTYLE
  5
18
102
{ACAD_REACTORS
330
17
102
}
330
17
100
AcDbMlineStyle
  2
STANDARD
 70
     0
  3

 62
   256
 51
90.0
 52
90.0
 71
     2
 49
0.5
 62
   256
  6
BYLAYER
 49
-0.5
 62
   256
  6
BYLAYER
  0
ACDBPLACEHOLDER
  5
2D
102
{ACAD_REACTORS
330
E
102
}
330
E
  0
ACDBPLACEHOLDER
  5
F
102
{ACAD_REACTORS
330
E
102
}
330
E
  0
SCALE
  5
E0
102
{ACAD_REACTORS
330
DF
102
}
330
DF
100
AcDbScale
 70
     0
300
1:1
140
1.0
141
1.0
290
     1
  0
SCALE
  5
E1
102
{ACAD_REACTORS
330
DF
102
}
330
DF
100
AcDbScale
 70
     0
300
1/128" = 1'-0"
140
0.0078125
141
12.0
290
     0
  0
SCALE
  5
E2
102
{ACAD_REACTORS
330
DF
102
}
330
DF
100
AcDbScale
 70
     0
300
1/64" = 1'-0"
140
0.015625
141
12.0
290
     0
  0
SCALE
  5
E3
102
{ACAD_REACTORS
330
DF
102
}
330
DF
100
AcDbScale
 70
     0
300
1/32" = 1'-0"
140
0.03125
141
12.0
290
     0
  0
SCALE
  5
E4
102
{ACAD_REACTORS
330
DF
102
}
330
DF
100
AcDbScale
 70
     0
300
1/16" = 1'-0"
140
0.0625
141
12.0
290
     0
  0
SCALE
  5
E5
102
{ACAD_REACTORS
330
DF
102
}
330
DF
100
AcDbScale
 70
     0
300
3/32" = 1'-0"
140
0.09375
141
12.0
290
     0
  0
SCALE
  5
E6
102
{ACAD_REACTORS
330
DF
102
}
330
DF
100
AcDbScale
 70
     0
300
1/8" = 1'-0"
140
0.125
141
12.0
290
     0
  0
SCALE
  5
E7
102
{ACAD_REACTORS
330
DF
102
}
330
DF
100
AcDbScale
 70
     0
300
3/16" = 1'-0"
140
0.1875
141
12.0
290
     0
  0
SCALE
  5
E8
102
{ACAD_REACTORS
330
DF
102
}
330
DF
100
AcDbScale
 70
     0
300
1/4" = 1'-0"
140
0.25
141
12.0
290
     0
  0
SCALE
  5
E9
102
{ACAD_REACTORS
330
DF
102
}
330
DF
100
AcDbScale
 70
     0
300
3/8" = 1'-0"
140
0.375
141
12.0
290
     0
  0
SCALE
  5
EA
102
{ACAD_REACTORS
330
DF
102
}
330
DF
100
AcDbScale
 70
     0
300
1/2" = 1'-0"
140
0.5
141
12.0
290
     0
  0
SCALE
  5
EB
102
{ACAD_REACTORS
330
DF
102
}
330
DF
100
AcDbScale
 70
     0
300
3/4" = 1'-0"
140
0.75
141
12.0
290
     0
  0
SCALE
  5
EC
102
{ACAD_REACTORS
330
DF
102
}
330
DF
100
AcDbScale
 70
     0
300
1" = 1'-0"
140
1.0
141
12.0
290
     0
  0
SCALE
  5
ED
102
{ACAD_REACTORS
330
DF
102
}
330
DF
100
AcDbScale
 70
     0
300
1-1/2" = 1'-0"
140
1.5
141
12.0
290
     0
  0
SCALE
  5
EE
102
{ACAD_REACTORS
330
DF
102
}
330
DF
100
AcDbScale
 70
     0
300
3" = 1'-0"
140
3.0
141
12.0
290
     0
  0
SCALE
  5
EF
102
{ACAD_REACTORS
330
DF
102
}
330
DF
100
AcDbScale
 70
     0
300
6" = 1'-0"
140
6.0
141
12.0
290
     0
  0
SCALE
  5
F0
102
{ACAD_REACTORS
330
DF
102
}
330
DF
100
AcDbScale
 70
     0
300
1'-0" = 1'-0"
140
12.0
141
12.0
290
     0
  0
ACDBSECTIONVIEWSTYLE
  5
F4
102
{ACAD_XDICTIONARY
360
190
102
}
102
{ACAD_REACTORS
330
F3
102
}
330
F3
100
AcDbModelDocViewStyle
 70
     0
  3
Imperial24
290
     0
100
AcDbSectionViewStyle
 70
     0
 71
     0
 90
       78
 71
     1
340
11
 62
   256
 40
0.24
340
0
340
0
 62
   256
 40
0.24
300
I, O, Q, S, X, Z
 40
0.48
 90
        3
 40
0.18
 90
        1
 71
     2
340
16
 90
       25
 62
   256
340
16
 90
       50
 62
   256
 40
0.24
 40
0.0
 40
0.24
 71
     3
340
11
 62
   256
 40
0.24
 90
        1
 40
0.75
 90
        1
300
%<\AcVar ViewType \f "%tc1">% %<\AcVar ViewSectionStartId>%-%<\AcVar ViewSectionEndId>%\PSCALE %<\AcVar ViewScale \f "%sn">%
 71
     4
 62
   256
 62
   257
300
ANSI31
 40
1.0
 90
        0
290
     0
290
     0
 90
        6
 40
0.0
 40
1.570796326794896
 40
0.2617993877991494
 40
1.308996938995747
 40
-0.2617993877991494
 40
1.832595714594046
  0
TABLESTYLE
  5
DE
102
{ACAD_XDICTIONARY
360
15B
102
}
102
{ACAD_REACTORS
330
DD
102
}
330
DD
100
AcDbTableStyle
280
     0
  3
Standard
 70
     0
 71
     0
 40
0.06
 41
0.06
280
     0
281
     0
  7
Standard
140
0.18
170
     2
 62
     0
 63
     7
283
     0
 90
      512
 91
        0
  1

274
    -2
284
     1
 64
     0
275
    -2
285
     1
 65
     0
276
    -2
286
     1
 66
     0
277
    -2
287
     1
 67
     0
278
    -2
288
     1
 68
     0
279
    -2
289
     1
 69
     0
  7
Standard
140
0.25
170
     5
 62
     0
 63
     7
283
     0
 90
      512
 91
        0
  1

274
    -2
284
     1
 64
     0
275
    -2
285
     1
 65
     0
276
    -2
286
     1
 66
     0
277
    -2
287
     1
 67
     0
278
    -2
288
     1
 68
     0
279
    -2
289
     1
 69
     0
  7
Standard
140
0.18
170
     5
 62
     0
 63
     7
283
     0
 90
      512
 91
        0
  1

274
    -2
284
     1
 64
     0
275
    -2
285
     1
 65
     0
276
    -2
286
     1
 66
     0
277
    -2
287
     1
 67
     0
278
    -2
288
     1
 68
     0
279
    -2
289
     1
 69
     0
  0
VISUALSTYLE
  5
C9
102
{ACAD_XDICTIONARY
360
168
102
}
102
{ACAD_REACTORS
330
C3
102
}
330
C3
100
AcDbVisualStyle
  2
2dWireframe
 70
     4
177
     2
291
     0
 71
     0
176
     1
 72
     2
176
     1
 73
     0
176
     1
 90
        0
176
     1
 40
0.6
176
     1
 41
30.0
176
     1
 63
     7
421
 16777215
176
     1
 74
     1
176
     1
 91
        4
176
     1
 64
     7
176
     1
 65
   257
176
     1
 75
     1
176
     1
175
     1
176
     1
 42
1.0
176
     1
 92
        0
176
     1
 66
   257
176
     1
 43
1.0
176
     1
 76
     1
176
     1
 77
     6
176
     1
 78
     2
176
     1
 67
     7
176
     1
 79
     5
176
     1
170
     0
176
     1
171
     0
176
     1
290
     0
176
     1
 93
        1
176
     1
 44
0.0
176
     1
173
     0
176
     1
1001
ACAD
1000
AcDbSavedByObjectVersion
1070
     0
  0
VISUALSTYLE
  5
C8
102
{ACAD_XDICTIONARY
360
166
102
}
102
{ACAD_REACTORS
330
C3
102
}
330
C3
100
AcDbVisualStyle
  2
Basic
 70
     7
177
     2
291
     1
 71
     1
176
     1
 72
     0
176
     1
 73
     1
176
     1
 90
        0
176
     1
 40
0.6
176
     1
 41
30.0
176
     1
 63
     7
421
 16777215
176
     1
 74
     0
176
     1
 91
        4
176
     1
 64
     7
176
     1
 65
   257
176
     1
 75
     1
176
     1
175
     1
176
     1
 42
1.0
176
     1
 92
        8
176
     1
 66
     7
176
     1
 43
1.0
176
     1
 76
     1
176
     1
 77
     6
176
     1
 78
     2
176
     1
 67
     7
176
     1
 79
     5
176
     1
170
     0
176
     1
171
     0
176
     1
290
     0
176
     1
 93
        1
176
     1
 44
0.0
176
     1
173
     0
176
     1
1001
ACAD
1000
AcDbSavedByObjectVersion
1070
     0
  0
VISUALSTYLE
  5
CF
102
{ACAD_XDICTIONARY
360
174
102
}
102
{ACAD_REACTORS
330
C3
102
}
330
C3
100
AcDbVisualStyle
  2
Brighten
 70
    12
177
     2
291
     1
 71
     2
176
     1
 72
     2
176
     1
 73
     0
176
     1
 90
        0
176
     1
 40
0.6
176
     1
 41
30.0
176
     1
 63
     7
421
 16777215
176
     1
 74
     1
176
     1
 91
        4
176
     1
 64
     7
176
     1
 65
   257
176
     1
 75
     1
176
     1
175
     1
176
     1
 42
1.0
176
     1
 92
        8
176
     1
 66
     7
176
     1
 43
1.0
176
     1
 76
     1
176
     1
 77
     6
176
     1
 78
     2
176
     1
 67
     7
176
     1
 79
     5
176
     1
170
     0
176
     1
171
     0
176
     1
290
     0
176
     1
 93
        1
176
     1
 44
50.0
176
     1
173
     0
176
     1
1001
ACAD
1000
AcDbSavedByObjectVersion
1070
     0
  0
VISUALSTYLE
  5
D3
102
{ACAD_XDICTIONARY
360
17C
102
}
102
{ACAD_REACTORS
330
C3
102
}
330
C3
100
AcDbVisualStyle
  2
ColorChange
 70
    16
177
     2
291
     1
 71
     2
176
     1
 72
     2
176
     1
 73
     3
176
     1
 90
        0
176
     1
 40
0.6
176
     1
 41
30.0
176
     1
 63
     8
421
  8421504
176
     1
 74
     1
176
     1
 91
        4
176
     1
 64
     7
176
     1
 65
   257
176
     1
 75
     1
176
     1
175
     1
176
     1
 42
1.0
176
     1
 92
        8
176
     1
 66
     8
424
  8421504
176
     1
 43
1.0
176
     1
 76
     1
176
     1
 77
     6
176
     1
 78
     2
176
     1
 67
     7
176
     1
 79
     5
176
     1
170
     0
176
     1
171
     0
176
     1
290
     0
176
     1
 93
        1
176
     1
 44
0.0
176
     1
173
     0
176
     1
1001
ACAD
1000
AcDbSavedByObjectVersion
1070
     0
  0
VISUALSTYLE
  5
CC
102
{ACAD_XDICTIONARY
360
16E
102
}
102
{ACAD_REACTORS
330
C3
102
}
330
C3
100
AcDbVisualStyle
  2
Conceptual
 70
     9
177
     2
291
     0
 71
     3
176
     1
 72
     2
176
     1
 73
     0
176
     1
 90
        0
176
     1
 40
0.6
176
     1
 41
30.0
176
     1
 63
     7
421
 16777215
176
     1
 74
     2
176
     1
 91
        2
176
     1
 64
     7
176
     1
 65
   257
176
     1
 75
     1
176
     1
175
     1
176
     1
 42
179.0
176
     1
 92
        8
176
     1
 66
     7
176
     1
 43
1.0
176
     1
 76
     1
176
     1
 77
     6
176
     1
 78
     2
176
     1
 67
     7
176
     1
 79
     3
176
     1
170
     0
176
     1
171
     0
176
     1
290
     0
176
     1
 93
        1
176
     1
 44
0.0
176
     1
173
     0
176
     1
1001
ACAD
1000
AcDbSavedByObjectVersion
1070
     0
  0
VISUALSTYLE
  5
CE
102
{ACAD_XDICTIONARY
360
172
102
}
102
{ACAD_REACTORS
330
C3
102
}
330
C3
100
AcDbVisualStyle
  2
Dim
 70
    11
177
     2
291
     1
 71
     2
176
     1
 72
     2
176
     1
 73
     0
176
     1
 90
        0
176
     1
 40
0.6
176
     1
 41
30.0
176
     1
 63
     7
421
 16777215
176
     1
 74
     1
176
     1
 91
        4
176
     1
 64
     7
176
     1
 65
   257
176
     1
 75
     1
176
     1
175
     1
176
     1
 42
1.0
176
     1
 92
        8
176
     1
 66
     7
176
     1
 43
1.0
176
     1
 76
     1
176
     1
 77
     6
176
     1
 78
     2
176
     1
 67
     7
176
     1
 79
     5
176
     1
170
     0
176
     1
171
     0
176
     1
290
     0
176
     1
 93
        1
176
     1
 44
-50.0
176
     1
173
     0
176
     1
1001
ACAD
1000
AcDbSavedByObjectVersion
1070
     0
  0
VISUALSTYLE
  5
DB
102
{ACAD_XDICTIONARY
360
18C
102
}
102
{ACAD_REACTORS
330
C3
102
}
330
C3
100
AcDbVisualStyle
  2
EdgeColorOff
 70
    22
177
     2
291
     1
 71
     2
176
     0
 72
     2
176
     0
 73
     0
176
     0
 90
        0
176
     0
 40
0.6
176
     0
 41
30.0
176
     0
 63
     7
421
 16777215
176
     0
 74
     1
176
     0
 91
        4
176
     0
 64
     7
176
     0
 65
   257
176
     0
 75
     1
176
     0
175
     1
176
     0
 42
1.0
176
     0
 92
        8
176
     2
 66
     7
176
     0
 43
1.0
176
     0
 76
     1
176
     0
 77
     6
176
     0
 78
     2
176
     0
 67
     7
176
     0
 79
     5
176
     0
170
     0
176
     0
171
     0
176
     0
290
     0
176
     0
 93
        1
176
     0
 44
0.0
176
     0
173
     0
176
     0
1001
ACAD
1000
AcDbSavedByObjectVersion
1070
     0
  0
VISUALSTYLE
  5
D2
102
{ACAD_XDICTIONARY
360
17A
102
}
102
{ACAD_REACTORS
330
C3
102
}
330
C3
100
AcDbVisualStyle
  2
Facepattern
 70
    15
177
     2
291
     1
 71
     2
176
     1
 72
     2
176
     1
 73
     0
176
     1
 90
        0
176
     1
 40
0.6
176
     1
 41
30.0
176
     1
 63
     7
421
 16777215
176
     1
 74
     1
176
     1
 91
        4
176
     1
 64
     7
176
     1
 65
   257
176
     1
 75
     1
176
     1
175
     1
176
     1
 42
1.0
176
     1
 92
        8
176
     1
 66
     7
176
     1
 43
1.0
176
     1
 76
     1
176
     1
 77
     6
176
     1
 78
     2
176
     1
 67
     7
176
     1
 79
     5
176
     1
170
     0
176
     1
171
     0
176
     1
290
     0
176
     1
 93
        1
176
     1
 44
0.0
176
     1
173
     0
176
     1
1001
ACAD
1000
AcDbSavedByObjectVersion
1070
     0
  0
VISUALSTYLE
  5
C4
102
{ACAD_XDICTIONARY
360
15E
102
}
102
{ACAD_REACTORS
330
C3
102
}
330
C3
100
AcDbVisualStyle
  2
Flat
 70
     0
177
     2
291
     1
 71
     2
176
     1
 72
     1
176
     1
 73
     1
176
     1
 90
        2
176
     1
 40
0.6
176
     1
 41
30.0
176
     1
 63
     7
421
 16777215
176
     1
 74
     0
176
     1
 91
        0
176
     1
 64
     7
176
     1
 65
   257
176
     1
 75
     1
176
     1
175
     1
176
     1
 42
1.0
176
     1
 92
        8
176
     1
 66
     7
176
     1
 43
1.0
176
     1
 76
     1
176
     1
 77
     6
176
     1
 78
     2
176
     1
 67
     7
176
     1
 79
     5
176
     1
170
     0
176
     1
171
     0
176
     1
290
     0
176
     1
 93
       13
176
     1
 44
0.0
176
     1
173
     0
176
     1
1001
ACAD
1000
AcDbSavedByObjectVersion
1070
     0
  0
VISUALSTYLE
  5
C5
102
{ACAD_XDICTIONARY
360
160
102
}
102
{ACAD_REACTORS
330
C3
102
}
330
C3
100
AcDbVisualStyle
  2
FlatWithEdges
 70
     1
177
     2
291
     1
 71
     2
176
     1
 72
     1
176
     1
 73
     1
176
     1
 90
        2
176
     1
 40
0.6
176
     1
 41
30.0
176
     1
 63
     7
421
 16777215
176
     1
 74
     1
176
     1
 91
        0
176
     1
 64
     7
176
     1
 65
   257
176
     1
 75
     1
176
     1
175
     1
176
     1
 42
1.0
176
     1
 92
        0
176
     1
 66
   257
176
     1
 43
1.0
176
     1
 76
     1
176
     1
 77
     6
176
     1
 78
     2
176
     1
 67
     7
176
     1
 79
     5
176
     1
170
     0
176
     1
171
     0
176
     1
290
     0
176
     1
 93
       13
176
     1
 44
0.0
176
     1
173
     0
176
     1
1001
ACAD
1000
AcDbSavedByObjectVersion
1070
     0
  0
VISUALSTYLE
  5
C6
102
{ACAD_XDICTIONARY
360
162
102
}
102
{ACAD_REACTORS
330
C3
102
}
330
C3
100
AcDbVisualStyle
  2
Gouraud
 70
     2
177
     2
291
     1
 71
     2
176
     1
 72
     2
176
     1
 73
     1
176
     1
 90
        2
176
     1
 40
0.6
176
     1
 41
30.0
176
     1
 63
     7
421
 16777215
176
     1
 74
     0
176
     1
 91
        0
176
     1
 64
     7
176
     1
 65
   257
176
     1
 75
     1
176
     1
175
     1
176
     1
 42
1.0
176
     1
 92
        0
176
     1
 66
     7
176
     1
 43
1.0
176
     1
 76
     1
176
     1
 77
     6
176
     1
 78
     2
176
     1
 67
     7
176
     1
 79
     5
176
     1
170
     0
176
     1
171
     0
176
     1
290
     0
176
     1
 93
       13
176
     1
 44
0.0
176
     1
173
     0
176
     1
1001
ACAD
1000
AcDbSavedByObjectVersion
1070
     0
  0
VISUALSTYLE
  5
C7
102
{ACAD_XDICTIONARY
360
164
102
}
102
{ACAD_REACTORS
330
C3
102
}
330
C3
100
AcDbVisualStyle
  2
GouraudWithEdges
 70
     3
177
     2
291
     1
 71
     2
176
     1
 72
     2
176
     1
 73
     1
176
     1
 90
        2
176
     1
 40
0.6
176
     1
 41
30.0
176
     1
 63
     7
421
 16777215
176
     1
 74
     1
176
     1
 91
        0
176
     1
 64
     7
176
     1
 65
   257
176
     1
 75
     1
176
     1
175
     1
176
     1
 42
1.0
176
     1
 92
        0
176
     1
 66
   257
176
     1
 43
1.0
176
     1
 76
     1
176
     1
 77
     6
176
     1
 78
     2
176
     1
 67
     7
176
     1
 79
     5
176
     1
170
     0
176
     1
171
     0
176
     1
290
     0
176
     1
 93
       13
176
     1
 44
0.0
176
     1
173
     0
176
     1
1001
ACAD
1000
AcDbSavedByObjectVersion
1070
     0
  0
VISUALSTYLE
  5
CB
102
{ACAD_XDICTIONARY
360
16C
102
}
102
{ACAD_REACTORS
330
C3
102
}
330
C3
100
AcDbVisualStyle
  2
Hidden
 70
     6
177
     2
291
     0
 71
     1
176
     1
 72
     2
176
     1
 73
     2
176
     1
 90
        0
176
     1
 40
0.6
176
     1
 41
30.0
176
     1
 63
     7
421
 16777215
176
     1
 74
     2
176
     1
 91
        2
176
     1
 64
     7
176
     1
 65
   257
176
     1
 75
     2
176
     1
175
     1
176
     1
 42
40.0
176
     1
 92
        0
176
     1
 66
   257
176
     1
 43
1.0
176
     1
 76
     1
176
     1
 77
     6
176
     1
 78
     2
176
     1
 67
     7
176
     1
 79
     3
176
     1
170
     0
176
     1
171
     0
176
     1
290
     0
176
     1
 93
        1
176
     1
 44
0.0
176
     1
173
     0
176
     1
1001
ACAD
1000
AcDbSavedByObjectVersion
1070
     0
  0
VISUALSTYLE
  5
D9
102
{ACAD_XDICTIONARY
360
188
102
}
102
{ACAD_REACTORS
330
C3
102
}
330
C3
100
AcDbVisualStyle
  2
JitterOff
 70
    20
177
     2
291
     1
 71
     2
176
     0
 72
     2
176
     0
 73
     0
176
     0
 90
        0
176
     0
 40
0.6
176
     0
 41
30.0
176
     0
 63
     7
421
 16777215
176
     0
 74
     1
176
     0
 91
        4
176
     0
 64
     7
176
     0
 65
   257
176
     0
 75
     1
176
     0
175
     1
176
     0
 42
1.0
176
     0
 92
       10
176
     2
 66
     7
176
     0
 43
1.0
176
     0
 76
     1
176
     0
 77
     6
176
     0
 78
     2
176
     0
 67
     7
176
     0
 79
     5
176
     0
170
     0
176
     0
171
     0
176
     0
290
     0
176
     0
 93
        1
176
     0
 44
0.0
176
     0
173
     0
176
     0
1001
ACAD
1000
AcDbSavedByObjectVersion
1070
     0
  0
VISUALSTYLE
  5
D1
102
{ACAD_XDICTIONARY
360
178
102
}
102
{ACAD_REACTORS
330
C3
102
}
330
C3
100
AcDbVisualStyle
  2
Linepattern
 70
    14
177
     2
291
     1
 71
     2
176
     1
 72
     2
176
     1
 73
     0
176
     1
 90
        0
176
     1
 40
0.6
176
     1
 41
30.0
176
     1
 63
     7
421
 16777215
176
     1
 74
     1
176
     1
 91
        4
176
     1
 64
     7
176
     1
 65
   257
176
     1
 75
     7
176
     1
175
     7
176
     1
 42
1.0
176
     1
 92
        8
176
     1
 66
     7
176
     1
 43
1.0
176
     1
 76
     1
176
     1
 77
     6
176
     1
 78
     2
176
     1
 67
     7
176
     1
 79
     5
176
     1
170
     0
176
     1
171
     0
176
     1
290
     0
176
     1
 93
        1
176
     1
 44
0.0
176
     1
173
     0
176
     1
1001
ACAD
1000
AcDbSavedByObjectVersion
1070
     0
  0
VISUALSTYLE
  5
DA
102
{ACAD_XDICTIONARY
360
18A
102
}
102
{ACAD_REACTORS
330
C3
102
}
330
C3
100
AcDbVisualStyle
  2
OverhangOff
 70
    21
177
     2
291
     1
 71
     2
176
     0
 72
     2
176
     0
 73
     0
176
     0
 90
        0
176
     0
 40
0.6
176
     0
 41
30.0
176
     0
 63
     7
421
 16777215
176
     0
 74
     1
176
     0
 91
        4
176
     0
 64
     7
176
     0
 65
   257
176
     0
 75
     1
176
     0
175
     1
176
     0
 42
1.0
176
     0
 92
        9
176
     2
 66
     7
176
     0
 43
1.0
176
     0
 76
     1
176
     0
 77
     6
176
     0
 78
     2
176
     0
 67
     7
176
     0
 79
     5
176
     0
170
     0
176
     0
171
     0
176
     0
290
     0
176
     0
 93
        1
176
     0
 44
0.0
176
     0
173
     0
176
     0
1001
ACAD
1000
AcDbSavedByObjectVersion
1070
     0
  0
VISUALSTYLE
  5
CD
102
{ACAD_XDICTIONARY
360
170
102
}
102
{ACAD_REACTORS
330
C3
102
}
330
C3
100
AcDbVisualStyle
  2
Realistic
 70
     8
177
     2
291
     0
 71
     2
176
     1
 72
     3
176
     1
 73
     0
176
     1
 90
        2
176
     1
 40
0.6
176
     1
 41
30.0
176
     1
 63
     7
421
 16777215
176
     1
 74
     0
176
     1
 91
        0
176
     1
 64
     7
176
     1
 65
   257
176
     1
 75
     1
176
     1
175
     1
176
     1
 42
1.0
176
     1
 92
        8
176
     1
 66
   257
176
     1
 43
1.0
176
     1
 76
     1
176
     1
 77
     6
176
     1
 78
     2
176
     1
 67
     7
176
     1
 79
     3
176
     1
170
     0
176
     1
171
     0
176
     1
290
     0
176
     1
 93
       13
176
     1
 44
0.0
176
     1
173
     0
176
     1
1001
ACAD
1000
AcDbSavedByObjectVersion
1070
     0
  0
VISUALSTYLE
  5
D8
102
{ACAD_XDICTIONARY
360
186
102
}
102
{ACAD_REACTORS
330
C3
102
}
330
C3
100
AcDbVisualStyle
  2
Shaded
 70
    27
177
     2
291
     0
 71
     2
176
     1
 72
     2
176
     1
 73
     1
176
     1
 90
        2
176
     1
 40
0.6
176
     1
 41
30.0
176
     1
 63
     7
421
 16777215
176
     1
 74
     0
176
     1
 91
        4
176
     1
 64
     7
176
     1
 65
   257
176
     1
 75
     1
176
     1
175
     1
176
     1
 42
1.0
176
     1
 92
        8
176
     1
 66
   257
176
     1
 43
1.0
176
     1
 76
     1
176
     1
 77
     6
176
     1
 78
     2
176
     1
 67
     8
425
  7895160
176
     1
 79
     3
176
     1
170
     0
176
     1
171
     0
176
     1
290
     0
176
     1
 93
        5
176
     1
 44
0.0
176
     1
173
     0
176
     1
1001
ACAD
1000
AcDbSavedByObjectVersion
1070
     0
  0
VISUALSTYLE
  5
D7
102
{ACAD_XDICTIONARY
360
184
102
}
102
{ACAD_REACTORS
330
C3
102
}
330
C3
100
AcDbVisualStyle
  2
Shaded with edges
 70
    26
177
     2
291
     0
 71
     2
176
     1
 72
     2
176
     1
 73
     1
176
     1
 90
        2
176
     1
 40
0.6
176
     1
 41
30.0
176
     1
 63
     7
421
 16777215
176
     1
 74
     1
176
     1
 91
       10
176
     1
 64
     7
176
     1
 65
   257
176
     1
 75
     2
176
     1
175
     1
176
     1
 42
1.0
176
     1
 92
        8
176
     1
 66
   257
176
     1
 43
1.0
176
     1
 76
     1
176
     1
 77
     6
176
     1
 78
     2
176
     1
 67
     7
176
     1
 79
     3
176
     1
170
     0
176
     1
171
     0
176
     1
290
     0
176
     1
 93
        5
176
     1
 44
0.0
176
     1
173
     0
176
     1
1001
ACAD
1000
AcDbSavedByObjectVersion
1070
     0
  0
VISUALSTYLE
  5
D4
102
{ACAD_XDICTIONARY
360
17E
102
}
102
{ACAD_REACTORS
330
C3
102
}
330
C3
100
AcDbVisualStyle
  2
Shades of Gray
 70
    23
177
     2
291
     0
 71
     2
176
     1
 72
     2
176
     1
 73
     3
176
     1
 90
        0
176
     1
 40
0.6
176
     1
 41
30.0
176
     1
 63
     7
421
 16777215
176
     1
 74
     2
176
     1
 91
        2
176
     1
 64
     7
176
     1
 65
     7
176
     1
 75
     1
176
     1
175
     1
176
     1
 42
40.0
176
     1
 92
        8
176
     1
 66
     7
176
     1
 43
1.0
176
     1
 76
     1
176
     1
 77
     6
176
     1
 78
     2
176
     1
 67
     7
176
     1
 79
     3
176
     1
170
     0
176
     1
171
     0
176
     1
290
     0
176
     1
 93
        1
176
     1
 44
0.0
176
     1
173
     0
176
     1
1001
ACAD
1000
AcDbSavedByObjectVersion
1070
     0
  0
VISUALSTYLE
  5
D5
102
{ACAD_XDICTIONARY
360
180
102
}
102
{ACAD_REACTORS
330
C3
102
}
330
C3
100
AcDbVisualStyle
  2
Sketchy
 70
    24
177
     2
291
     0
 71
     1
176
     1
 72
     2
176
     1
 73
     2
176
     1
 90
        0
176
     1
 40
0.6
176
     1
 41
30.0
176
     1
 63
     7
421
 16777215
176
     1
 74
     2
176
     1
 91
        2
176
     1
 64
     7
176
     1
 65
     7
176
     1
 75
     1
176
     1
175
     1
176
     1
 42
40.0
176
     1
 92
       11
176
     1
 66
     7
176
     1
 43
1.0
176
     1
 76
     1
176
     1
 77
     6
176
     1
 78
     2
176
     1
 67
     7
176
     1
 79
     6
176
     1
170
     0
176
     1
171
     0
176
     1
290
     0
176
     1
 93
        1
176
     1
 44
0.0
176
     1
173
     0
176
     1
1001
ACAD
1000
AcDbSavedByObjectVersion
1070
     0
  0
VISUALSTYLE
  5
D0
102
{ACAD_XDICTIONARY
360
176
102
}
102
{ACAD_REACTORS
330
C3
102
}
330
C3
100
AcDbVisualStyle
  2
Thicken
 70
    13
177
     2
291
     1
 71
     2
176
     1
 72
     2
176
     1
 73
     0
176
     1
 90
        0
176
     1
 40
0.6
176
     1
 41
30.0
176
     1
 63
     7
421
 16777215
176
     1
 74
     1
176
     1
 91
        4
176
     1
 64
     7
176
     1
 65
   257
176
     1
 75
     1
176
     1
175
     1
176
     1
 42
1.0
176
     1
 92
       12
176
     1
 66
     7
176
     1
 43
1.0
176
     1
 76
     1
176
     1
 77
     6
176
     1
 78
     2
176
     1
 67
     7
176
     1
 79
     5
176
     1
170
     0
176
     1
171
     0
176
     1
290
     0
176
     1
 93
        1
176
     1
 44
0.0
176
     1
173
     0
176
     1
1001
ACAD
1000
AcDbSavedByObjectVersion
1070
     0
  0
VISUALSTYLE
  5
CA
102
{ACAD_XDICTIONARY
360
16A
102
}
102
{ACAD_REACTORS
330
C3
102
}
330
C3
100
AcDbVisualStyle
  2
Wireframe
 70
     5
177
     2
291
     0
 71
     0
176
     1
 72
     2
176
     1
 73
     0
176
     1
 90
        0
176
     1
 40
0.6
176
     1
 41
30.0
176
     1
 63
     7
421
 16777215
176
     1
 74
     1
176
     1
 91
        4
176
     1
 64
     7
176
     1
 65
   257
176
     1
 75
     1
176
     1
175
     1
176
     1
 42
1.0
176
     1
 92
        0
176
     1
 66
   257
176
     1
 43
1.0
176
     1
 76
     1
176
     1
 77
     6
176
     1
 78
     2
176
     1
 67
     7
176
     1
 79
     3
176
     1
170
     0
176
     1
171
     0
176
     1
290
     0
176
     1
 93
        1
176
     1
 44
0.0
176
     1
173
     0
176
     1
1001
ACAD
1000
AcDbSavedByObjectVersion
1070
     0
  0
VISUALSTYLE
  5
D6
102
{ACAD_XDICTIONARY
360
182
102
}
102
{ACAD_REACTORS
330
C3
102
}
330
C3
100
AcDbVisualStyle
  2
X-Ray
 70
    25
177
     2
291
     0
 71
     2
176
     1
 72
     2
176
     1
 73
     1
176
     1
 90
        1
176
     1
 40
0.5
176
     1
 41
30.0
176
     1
 63
     7
421
 16777215
176
     1
 74
     1
176
     1
 91
        0
176
     1
 64
     7
176
     1
 65
   257
176
     1
 75
     1
176
     1
175
     1
176
     1
 42
1.0
176
     1
 92
        8
176
     1
 66
     7
176
     1
 43
1.0
176
     1
 76
     1
176
     1
 77
     6
176
     1
 78
     2
176
     1
 67
     7
176
     1
 79
     3
176
     1
170
     0
176
     1
171
     0
176
     1
290
     0
176
     1
 93
       13
176
     1
 44
0.0
176
     1
173
     0
176
     1
1001
ACAD
1000
AcDbSavedByObjectVersion
1070
     0
  0
DICTIONARYVAR
  5
157
102
{ACAD_REACTORS
330
151
102
}
330
151
100
DictionaryVariables
280
     0
  1
1:1
  0
DICTIONARYVAR
  5
153
102
{ACAD_REACTORS
330
151
102
}
330
151
100
DictionaryVariables
280
     0
  1
STANDARD
  0
DICTIONARYVAR
  5
152
102
{ACAD_REACTORS
330
151
102
}
330
151
100
DictionaryVariables
280
     0
  1
STANDARD
  0
DICTIONARYVAR
  5
154
102
{ACAD_REACTORS
330
151
102
}
330
151
100
DictionaryVariables
280
     0
  1
Imperial24
  0
DICTIONARYVAR
  5
155
102
{ACAD_REACTORS
330
151
102
}
330
151
100
DictionaryVariables
280
     0
  1
Imperial24
  0
DICTIONARYVAR
  5
159
102
{ACAD_REACTORS
330
151
102
}
330
151
100
DictionaryVariables
280
     0
  1
1
  0
DICTIONARYVAR
  5
15A
102
{ACAD_REACTORS
330
151
102
}
330
151
100
DictionaryVariables
280
     0
  1
15
  0
DICTIONARYVAR
  5
158
102
{ACAD_REACTORS
330
151
102
}
330
151
100
DictionaryVariables
280
     0
  1
0
  0
DICTIONARYVAR
  5
156
102
{ACAD_REACTORS
330
151
102
}
330
151
100
DictionaryVariables
280
     0
  1
0
  0
DICTIONARY
  5
192
330
F6
100
AcDbDictionary
280
     1
281
     1
  3
ACAD_XREC_ROUNDTRIP
360
193
  0
DICTIONARY
  5
B4
330
B3
100
AcDbDictionary
280
     1
281
     1
  3
BUMPTILE
360
B6
  3
DIFFUSETILE
360
B5
  3
OPACITYTILE
360
B9
  3
REFLECTIONTILE
360
B8
  3
REFRACTIONTILE
360
BA
  3
SPECULARTILE
360
B7
  0
DICTIONARY
  5
AC
330
AB
100
AcDbDictionary
280
     1
281
     1
  3
BUMPTILE
360
AE
  3
DIFFUSETILE
360
AD
  3
OPACITYTILE
360
B1
  3
REFLECTIONTILE
360
B0
  3
REFRACTIONTILE
360
B2
  3
SPECULARTILE
360
AF
  0
DICTIONARY
  5
BC
330
BB
100
AcDbDictionary
280
     1
281
     1
  3
BUMPTILE
360
BE
  3
DIFFUSETILE
360
BD
  3
OPACITYTILE
360
C1
  3
REFLECTIONTILE
360
C0
  3
REFRACTIONTILE
360
C2
  3
SPECULARTILE
360
BF
  0
DICTIONARY
  5
18E
330
F2
100
AcDbDictionary
280
     1
281
     1
  3
ACAD_XREC_ROUNDTRIP
360
18F
  0
DICTIONARY
  5
190
330
F4
100
AcDbDictionary
280
     1
281
     1
  3
ACAD_XREC_ROUNDTRIP
360
191
  0
DICTIONARY
  5
15B
330
DE
100
AcDbDictionary
280
     1
281
     1
  3
ACAD_ROUNDTRIP_2008_TABLESTYLE_CELLSTYLEMAP
360
15C
  0
DICTIONARY
  5
168
330
C9
100
AcDbDictionary
280
     1
281
     1
  3
ACAD_XREC_ROUNDTRIP
360
169
  0
DICTIONARY
  5
166
330
C8
100
AcDbDictionary
280
     1
281
     1
  3
ACAD_XREC_ROUNDTRIP
360
167
  0
DICTIONARY
  5
174
330
CF
100
AcDbDictionary
280
     1
281
     1
  3
ACAD_XREC_ROUNDTRIP
360
175
  0
DICTIONARY
  5
17C
330
D3
100
AcDbDictionary
280
     1
281
     1
  3
ACAD_XREC_ROUNDTRIP
360
17D
  0
DICTIONARY
  5
16E
330
CC
100
AcDbDictionary
280
     1
281
     1
  3
ACAD_XREC_ROUNDTRIP
360
16F
  0
DICTIONARY
  5
172
330
CE
100
AcDbDictionary
280
     1
281
     1
  3
ACAD_XREC_ROUNDTRIP
360
173
  0
DICTIONARY
  5
18C
330
DB
100
AcDbDictionary
280
     1
281
     1
  3
ACAD_XREC_ROUNDTRIP
360
18D
  0
DICTIONARY
  5
17A
330
D2
100
AcDbDictionary
280
     1
281
     1
  3
ACAD_XREC_ROUNDTRIP
360
17B
  0
DICTIONARY
  5
15E
330
C4
100
AcDbDictionary
280
     1
281
     1
  3
ACAD_XREC_ROUNDTRIP
360
15F
  0
DICTIONARY
  5
160
330
C5
100
AcDbDictionary
280
     1
281
     1
  3
ACAD_XREC_ROUNDTRIP
360
161
  0
DICTIONARY
  5
162
330
C6
100
AcDbDictionary
280
     1
281
     1
  3
ACAD_XREC_ROUNDTRIP
360
163
  0
DICTIONARY
  5
164
330
C7
100
AcDbDictionary
280
     1
281
     1
  3
ACAD_XREC_ROUNDTRIP
360
165
  0
DICTIONARY
  5
16C
330
CB
100
AcDbDictionary
280
     1
281
     1
  3
ACAD_XREC_ROUNDTRIP
360
16D
  0
DICTIONARY
  5
188
330
D9
100
AcDbDictionary
280
     1
281
     1
  3
ACAD_XREC_ROUNDTRIP
360
189
  0
DICTIONARY
  5
178
330
D1
100
AcDbDictionary
280
     1
281
     1
  3
ACAD_XREC_ROUNDTRIP
360
179
  0
DICTIONARY
  5
18A
330
DA
100
AcDbDictionary
280
     1
281
     1
  3
ACAD_XREC_ROUNDTRIP
360
18B
  0
DICTIONARY
  5
170
330
CD
100
AcDbDictionary
280
     1
281
     1
  3
ACAD_XREC_ROUNDTRIP
360
171
  0
DICTIONARY
  5
186
330
D8
100
AcDbDictionary
280
     1
281
     1
  3
ACAD_XREC_ROUNDTRIP
360
187
  0
DICTIONARY
  5
184
330
D7
100
AcDbDictionary
280
     1
281
     1
  3
ACAD_XREC_ROUNDTRIP
360
185
  0
DICTIONARY
  5
17E
330
D4
100
AcDbDictionary
280
     1
281
     1
  3
ACAD_XREC_ROUNDTRIP
360
17F
  0
DICTIONARY
  5
180
330
D5
100
AcDbDictionary
280
     1
281
     1
  3
ACAD_XREC_ROUNDTRIP
360
181
  0
DICTIONARY
  5
176
330
D0
100
AcDbDictionary
280
     1
281
     1
  3
ACAD_XREC_ROUNDTRIP
360
177
  0
DICTIONARY
  5
16A
330
CA
100
AcDbDictionary
280
     1
281
     1
  3
ACAD_XREC_ROUNDTRIP
360
16B
  0
DICTIONARY
  5
182
330
D6
100
AcDbDictionary
280
     1
281
     1
  3
ACAD_XREC_ROUNDTRIP
360
183
  0
XRECORD
  5
193
102
{ACAD_REACTORS
330
192
102
}
330
192
100
AcDbXrecord
280
     1
102
DISPLAYNAME
  1
Imperial24
102
FLAGS
 90
        0
  0
XRECORD
  5
B6
102
{ACAD_REACTORS
330
B4
102
}
330
B4
100
AcDbXrecord
280
     1
270
     1
271
     1
  0
XRECORD
  5
B5
102
{ACAD_REACTORS
330
B4
102
}
330
B4
100
AcDbXrecord
280
     1
270
     1
271
     1
  0
XRECORD
  5
B9
102
{ACAD_REACTORS
330
B4
102
}
330
B4
100
AcDbXrecord
280
     1
270
     1
271
     1
  0
XRECORD
  5
B8
102
{ACAD_REACTORS
330
B4
102
}
330
B4
100
AcDbXrecord
280
     1
270
     1
271
     1
  0
XRECORD
  5
BA
102
{ACAD_REACTORS
330
B4
102
}
330
B4
100
AcDbXrecord
280
     1
270
     1
271
     1
  0
XRECORD
  5
B7
102
{ACAD_REACTORS
330
B4
102
}
330
B4
100
AcDbXrecord
280
     1
270
     1
271
     1
  0
XRECORD
  5
AE
102
{ACAD_REACTORS
330
AC
102
}
330
AC
100
AcDbXrecord
280
     1
270
     1
271
     1
  0
XRECORD
  5
AD
102
{ACAD_REACTORS
330
AC
102
}
330
AC
100
AcDbXrecord
280
     1
270
     1
271
     1
  0
XRECORD
  5
B1
102
{ACAD_REACTORS
330
AC
102
}
330
AC
100
AcDbXrecord
280
     1
270
     1
271
     1
  0
XRECORD
  5
B0
102
{ACAD_REACTORS
330
AC
102
}
330
AC
100
AcDbXrecord
280
     1
270
     1
271
     1
  0
XRECORD
  5
B2
102
{ACAD_REACTORS
330
AC
102
}
330
AC
100
AcDbXrecord
280
     1
270
     1
271
     1
  0
XRECORD
  5
AF
102
{ACAD_REACTORS
330
AC
102
}
330
AC
100
AcDbXrecord
280
     1
270
     1
271
     1
  0
XRECORD
  5
BE
102
{ACAD_REACTORS
330
BC
102
}
330
BC
100
AcDbXrecord
280
     1
270
     1
271
     1
  0
XRECORD
  5
BD
102
{ACAD_REACTORS
330
BC
102
}
330
BC
100
AcDbXrecord
280
     1
270
     1
271
     1
  0
XRECORD
  5
C1
102
{ACAD_REACTORS
330
BC
102
}
330
BC
100
AcDbXrecord
280
     1
270
     1
271
     1
  0
XRECORD
  5
C0
102
{ACAD_REACTORS
330
BC
102
}
330
BC
100
AcDbXrecord
280
     1
270
     1
271
     1
  0
XRECORD
  5
C2
102
{ACAD_REACTORS
330
BC
102
}
330
BC
100
AcDbXrecord
280
     1
270
     1
271
     1
  0
XRECORD
  5
BF
102
{ACAD_REACTORS
330
BC
102
}
330
BC
100
AcDbXrecord
280
     1
270
     1
271
     1
  0
XRECORD
  5
18F
102
{ACAD_REACTORS
330
18E
102
}
330
18E
100
AcDbXrecord
280
     1
102
ACAD_ROUNDTRIP_2012_MLEADER_STYLE
298
     1
  0
XRECORD
  5
191
102
{ACAD_REACTORS
330
190
102
}
330
190
100
AcDbXrecord
280
     1
102
DISPLAYNAME
  1
Imperial24
102
FLAGS
 90
        0
  0
CELLSTYLEMAP
  5
15C
102
{ACAD_REACTORS
330
15B
102
}
330
15B
100
AcDbCellStyleMap
 90
        3
300
CELLSTYLE
  1
TABLEFORMAT_BEGIN
 90
        5
170
     1
 91
        0
 92
    32768
 62
   257
 93
        1
300
CONTENTFORMAT
  1
CONTENTFORMAT_BEGIN
 90
        0
 91
        0
 92
      512
 93
        0
300

 40
0.0
140
1.0
 94
        5
 62
     0
340
11
144
0.25
309
CONTENTFORMAT_END
171
     0
 94
        0
309
TABLEFORMAT_END
  1
CELLSTYLE_BEGIN
 90
        1
 91
        1
300
_TITLE
309
CELLSTYLE_END
300
CELLSTYLE
  1
TABLEFORMAT_BEGIN
 90
        5
170
     1
 91
        0
 92
        0
 62
   257
 93
        1
300
CONTENTFORMAT
  1
CONTENTFORMAT_BEGIN
 90
        0
 91
        0
 92
      512
 93
        0
300

 40
0.0
140
1.0
 94
        5
 62
     0
340
11
144
0.18
309
CONTENTFORMAT_END
171
     0
 94
        0
309
TABLEFORMAT_END
  1
CELLSTYLE_BEGIN
 90
        2
 91
        1
300
_HEADER
309
CELLSTYLE_END
300
CELLSTYLE
  1
TABLEFORMAT_BEGIN
 90
        5
170
     1
 91
        0
 92
        0
 62
   257
 93
        1
300
CONTENTFORMAT
  1
CONTENTFORMAT_BEGIN
 90
        0
 91
        0
 92
      512
 93
        0
300

 40
0.0
140
1.0
 94
        2
 62
     0
340
11
144
0.18
309
CONTENTFORMAT_END
171
     0
 94
        0
309
TABLEFORMAT_END
  1
CELLSTYLE_BEGIN
 90
        3
 91
        2
300
_DATA
309
CELLSTYLE_END
  0
XRECORD
  5
169
102
{ACAD_REACTORS
330
168
102
}
330
168
100
AcDbXrecord
280
     1
102
RTVSPost2010Prop28
280
     1
102
RTVSPost2010PropOp28
 70
     1
102
RTVSPost2010Prop29
280
     1
102
RTVSPost2010PropOp29
 70
     1
102
RTVSPost2010Prop30
280
     0
102
RTVSPost2010PropOp30
 70
     1
102
RTVSPost2010Prop31
280
     0
102
RTVSPost2010PropOp31
 70
     1
102
RTVSPost2010Prop32
280
     0
102
RTVSPost2010PropOp32
 70
     1
102
RTVSPost2010Prop33
280
     0
102
RTVSPost2010PropOp33
 70
     1
102
RTVSPost2010Prop34
280
     0
102
RTVSPost2010PropOp34
 70
     1
102
RTVSPost2010Prop35
280
     0
102
RTVSPost2010PropOp35
 70
     1
102
RTVSPost2010Prop36
280
     0
102
RTVSPost2010PropOp36
 70
     1
102
RTVSPost2010Prop37
 90
       50
102
RTVSPost2010PropOp37
 70
     1
102
RTVSPost2010Prop38
140
0.0
102
RTVSPost2010PropOp38
 70
     1
102
RTVSPost2010Prop39
140
1.0
102
RTVSPost2010PropOp39
 70
     1
102
RTVSPost2010Prop40
 90
        0
102
RTVSPost2010PropOp40
 70
     1
102
RTVSPost2010Prop41ColorIndex
 90
       18
102
RTVSPost2010Prop41ColorRGB
 90
        0
102
RTVSPost2010PropOp41
 70
     1
102
RTVSPost2010Prop42
 90
       50
102
RTVSPost2010PropOp42
 70
     1
102
RTVSPost2010Prop43
 90
        3
102
RTVSPost2010PropOp43
 70
     1
102
RTVSPost2010Prop44ColorIndex
 90
        5
102
RTVSPost2010Prop44ColorRGB
 90
      255
102
RTVSPost2010PropOp44
 70
     1
102
RTVSPost2010Prop45
280
     0
102
RTVSPost2010PropOp45
 70
     1
102
RTVSPost2010Prop46
 90
       50
102
RTVSPost2010PropOp46
 70
     1
102
RTVSPost2010Prop47
 90
       50
102
RTVSPost2010PropOp47
 70
     1
102
RTVSPost2010Prop48
 90
       50
102
RTVSPost2010PropOp48
 70
     1
102
RTVSPost2010Prop49
280
     0
102
RTVSPost2010PropOp49
 70
     1
102
RTVSPost2010Prop50
 90
       50
102
RTVSPost2010PropOp50
 70
     1
102
RTVSPost2010Prop51ColorIndex
 90
      256
102
RTVSPost2010Prop51ColorRGB
 90
-16777216
102
RTVSPost2010PropOp51
 70
     0
102
RTVSPost2010Prop52
140
1.0
102
RTVSPost2010PropOp52
 70
     0
102
RTVSPost2010Prop53
 90
        2
102
RTVSPost2010PropOp53
 70
     1
102
RTVSPost2010Prop54
  1
strokes_ogs.tif
102
RTVSPost2010PropOp54
 70
     1
102
RTVSPost2010Prop55
280
     0
102
RTVSPost2010PropOp55
 70
     1
102
RTVSPost2010Prop56
140
1.0
102
RTVSPost2010PropOp56
 70
     1
102
RTVSPost2010Prop57
140
1.0
102
RTVSPost2010PropOp57
 70
     1
  0
XRECORD
  5
167
102
{ACAD_REACTORS
330
166
102
}
330
166
100
AcDbXrecord
280
     1
102
RTVSPost2010Prop28
280
     0
102
RTVSPost2010PropOp28
 70
     1
102
RTVSPost2010Prop29
280
     1
102
RTVSPost2010PropOp29
 70
     1
102
RTVSPost2010Prop30
280
     1
102
RTVSPost2010PropOp30
 70
     1
102
RTVSPost2010Prop31
280
     0
102
RTVSPost2010PropOp31
 70
     1
102
RTVSPost2010Prop32
280
     0
102
RTVSPost2010PropOp32
 70
     1
102
RTVSPost2010Prop33
280
     0
102
RTVSPost2010PropOp33
 70
     1
102
RTVSPost2010Prop34
280
     0
102
RTVSPost2010PropOp34
 70
     1
102
RTVSPost2010Prop35
280
     0
102
RTVSPost2010PropOp35
 70
     1
102
RTVSPost2010Prop36
280
     0
102
RTVSPost2010PropOp36
 70
     1
102
RTVSPost2010Prop37
 90
       50
102
RTVSPost2010PropOp37
 70
     1
102
RTVSPost2010Prop38
140
0.0
102
RTVSPost2010PropOp38
 70
     1
102
RTVSPost2010Prop39
140
1.0
102
RTVSPost2010PropOp39
 70
     1
102
RTVSPost2010Prop40
 90
        0
102
RTVSPost2010PropOp40
 70
     1
102
RTVSPost2010Prop41ColorIndex
 90
       18
102
RTVSPost2010Prop41ColorRGB
 90
        0
102
RTVSPost2010PropOp41
 70
     1
102
RTVSPost2010Prop42
 90
       50
102
RTVSPost2010PropOp42
 70
     1
102
RTVSPost2010Prop43
 90
        3
102
RTVSPost2010PropOp43
 70
     1
102
RTVSPost2010Prop44ColorIndex
 90
        5
102
RTVSPost2010Prop44ColorRGB
 90
      255
102
RTVSPost2010PropOp44
 70
     1
102
RTVSPost2010Prop45
280
     0
102
RTVSPost2010PropOp45
 70
     1
102
RTVSPost2010Prop46
 90
       50
102
RTVSPost2010PropOp46
 70
     1
102
RTVSPost2010Prop47
 90
       50
102
RTVSPost2010PropOp47
 70
     1
102
RTVSPost2010Prop48
 90
       50
102
RTVSPost2010PropOp48
 70
     1
102
RTVSPost2010Prop49
280
     0
102
RTVSPost2010PropOp49
 70
     1
102
RTVSPost2010Prop50
 90
       50
102
RTVSPost2010PropOp50
 70
     1
102
RTVSPost2010Prop51ColorIndex
 90
      256
102
RTVSPost2010Prop51ColorRGB
 90
-16777216
102
RTVSPost2010PropOp51
 70
     0
102
RTVSPost2010Prop52
140
1.0
102
RTVSPost2010PropOp52
 70
     0
102
RTVSPost2010Prop53
 90
        2
102
RTVSPost2010PropOp53
 70
     1
102
RTVSPost2010Prop54
  1
strokes_ogs.tif
102
RTVSPost2010PropOp54
 70
     1
102
RTVSPost2010Prop55
280
     0
102
RTVSPost2010PropOp55
 70
     1
102
RTVSPost2010Prop56
140
1.0
102
RTVSPost2010PropOp56
 70
     1
102
RTVSPost2010Prop57
140
1.0
102
RTVSPost2010PropOp57
 70
     1
  0
XRECORD
  5
175
102
{ACAD_REACTORS
330
174
102
}
330
174
100
AcDbXrecord
280
     1
102
RTVSPost2010Prop28
280
     0
102
RTVSPost2010PropOp28
 70
     1
102
RTVSPost2010Prop29
280
     1
102
RTVSPost2010PropOp29
 70
     1
102
RTVSPost2010Prop30
280
     1
102
RTVSPost2010PropOp30
 70
     1
102
RTVSPost2010Prop31
280
     0
102
RTVSPost2010PropOp31
 70
     1
102
RTVSPost2010Prop32
280
     0
102
RTVSPost2010PropOp32
 70
     1
102
RTVSPost2010Prop33
280
     0
102
RTVSPost2010PropOp33
 70
     1
102
RTVSPost2010Prop34
280
     0
102
RTVSPost2010PropOp34
 70
     1
102
RTVSPost2010Prop35
280
     0
102
RTVSPost2010PropOp35
 70
     1
102
RTVSPost2010Prop36
280
     0
102
RTVSPost2010PropOp36
 70
     1
102
RTVSPost2010Prop37
 90
       50
102
RTVSPost2010PropOp37
 70
     1
102
RTVSPost2010Prop38
140
0.0
102
RTVSPost2010PropOp38
 70
     1
102
RTVSPost2010Prop39
140
1.0
102
RTVSPost2010PropOp39
 70
     1
102
RTVSPost2010Prop40
 90
        0
102
RTVSPost2010PropOp40
 70
     1
102
RTVSPost2010Prop41ColorIndex
 90
       18
102
RTVSPost2010Prop41ColorRGB
 90
        0
102
RTVSPost2010PropOp41
 70
     1
102
RTVSPost2010Prop42
 90
       50
102
RTVSPost2010PropOp42
 70
     1
102
RTVSPost2010Prop43
 90
        3
102
RTVSPost2010PropOp43
 70
     1
102
RTVSPost2010Prop44ColorIndex
 90
        5
102
RTVSPost2010Prop44ColorRGB
 90
      255
102
RTVSPost2010PropOp44
 70
     1
102
RTVSPost2010Prop45
280
     0
102
RTVSPost2010PropOp45
 70
     1
102
RTVSPost2010Prop46
 90
       50
102
RTVSPost2010PropOp46
 70
     1
102
RTVSPost2010Prop47
 90
       50
102
RTVSPost2010PropOp47
 70
     1
102
RTVSPost2010Prop48
 90
       50
102
RTVSPost2010PropOp48
 70
     1
102
RTVSPost2010Prop49
280
     0
102
RTVSPost2010PropOp49
 70
     1
102
RTVSPost2010Prop50
 90
       50
102
RTVSPost2010PropOp50
 70
     1
102
RTVSPost2010Prop51ColorIndex
 90
      256
102
RTVSPost2010Prop51ColorRGB
 90
-16777216
102
RTVSPost2010PropOp51
 70
     0
102
RTVSPost2010Prop52
140
1.0
102
RTVSPost2010PropOp52
 70
     0
102
RTVSPost2010Prop53
 90
        2
102
RTVSPost2010PropOp53
 70
     1
102
RTVSPost2010Prop54
  1
strokes_ogs.tif
102
RTVSPost2010PropOp54
 70
     1
102
RTVSPost2010Prop55
280
     0
102
RTVSPost2010PropOp55
 70
     1
102
RTVSPost2010Prop56
140
1.0
102
RTVSPost2010PropOp56
 70
     1
102
RTVSPost2010Prop57
140
1.0
102
RTVSPost2010PropOp57
 70
     1
  0
XRECORD
  5
17D
102
{ACAD_REACTORS
330
17C
102
}
330
17C
100
AcDbXrecord
280
     1
102
RTVSPost2010Prop28
280
     0
102
RTVSPost2010PropOp28
 70
     1
102
RTVSPost2010Prop29
280
     1
102
RTVSPost2010PropOp29
 70
     1
102
RTVSPost2010Prop30
280
     1
102
RTVSPost2010PropOp30
 70
     1
102
RTVSPost2010Prop31
280
     0
102
RTVSPost2010PropOp31
 70
     1
102
RTVSPost2010Prop32
280
     0
102
RTVSPost2010PropOp32
 70
     1
102
RTVSPost2010Prop33
280
     0
102
RTVSPost2010PropOp33
 70
     1
102
RTVSPost2010Prop34
280
     0
102
RTVSPost2010PropOp34
 70
     1
102
RTVSPost2010Prop35
280
     0
102
RTVSPost2010PropOp35
 70
     1
102
RTVSPost2010Prop36
280
     0
102
RTVSPost2010PropOp36
 70
     1
102
RTVSPost2010Prop37
 90
       50
102
RTVSPost2010PropOp37
 70
     1
102
RTVSPost2010Prop38
140
0.0
102
RTVSPost2010PropOp38
 70
     1
102
RTVSPost2010Prop39
140
1.0
102
RTVSPost2010PropOp39
 70
     1
102
RTVSPost2010Prop40
 90
        0
102
RTVSPost2010PropOp40
 70
     1
102
RTVSPost2010Prop41ColorIndex
 90
       18
102
RTVSPost2010Prop41ColorRGB
 90
        0
102
RTVSPost2010PropOp41
 70
     1
102
RTVSPost2010Prop42
 90
       50
102
RTVSPost2010PropOp42
 70
     1
102
RTVSPost2010Prop43
 90
        3
102
RTVSPost2010PropOp43
 70
     1
102
RTVSPost2010Prop44ColorIndex
 90
        5
102
RTVSPost2010Prop44ColorRGB
 90
      255
102
RTVSPost2010PropOp44
 70
     1
102
RTVSPost2010Prop45
280
     0
102
RTVSPost2010PropOp45
 70
     1
102
RTVSPost2010Prop46
 90
       50
102
RTVSPost2010PropOp46
 70
     1
102
RTVSPost2010Prop47
 90
       50
102
RTVSPost2010PropOp47
 70
     1
102
RTVSPost2010Prop48
 90
       50
102
RTVSPost2010PropOp48
 70
     1
102
RTVSPost2010Prop49
280
     0
102
RTVSPost2010PropOp49
 70
     1
102
RTVSPost2010Prop50
 90
       50
102
RTVSPost2010PropOp50
 70
     1
102
RTVSPost2010Prop51ColorIndex
 90
      256
102
RTVSPost2010Prop51ColorRGB
 90
-16777216
102
RTVSPost2010PropOp51
 70
     0
102
RTVSPost2010Prop52
140
1.0
102
RTVSPost2010PropOp52
 70
     0
102
RTVSPost2010Prop53
 90
        2
102
RTVSPost2010PropOp53
 70
     1
102
RTVSPost2010Prop54
  1
strokes_ogs.tif
102
RTVSPost2010PropOp54
 70
     1
102
RTVSPost2010Prop55
280
     0
102
RTVSPost2010PropOp55
 70
     1
102
RTVSPost2010Prop56
140
1.0
102
RTVSPost2010PropOp56
 70
     1
102
RTVSPost2010Prop57
140
1.0
102
RTVSPost2010PropOp57
 70
     1
  0
XRECORD
  5
16F
102
{ACAD_REACTORS
330
16E
102
}
330
16E
100
AcDbXrecord
280
     1
102
RTVSPost2010Prop28
280
     0
102
RTVSPost2010PropOp28
 70
     1
102
RTVSPost2010Prop29
280
     1
102
RTVSPost2010PropOp29
 70
     1
102
RTVSPost2010Prop30
280
     1
102
RTVSPost2010PropOp30
 70
     1
102
RTVSPost2010Prop31
280
     0
102
RTVSPost2010PropOp31
 70
     1
102
RTVSPost2010Prop32
280
     0
102
RTVSPost2010PropOp32
 70
     1
102
RTVSPost2010Prop33
280
     0
102
RTVSPost2010PropOp33
 70
     1
102
RTVSPost2010Prop34
280
     0
102
RTVSPost2010PropOp34
 70
     1
102
RTVSPost2010Prop35
280
     0
102
RTVSPost2010PropOp35
 70
     1
102
RTVSPost2010Prop36
280
     0
102
RTVSPost2010PropOp36
 70
     1
102
RTVSPost2010Prop37
 90
       50
102
RTVSPost2010PropOp37
 70
     1
102
RTVSPost2010Prop38
140
0.0
102
RTVSPost2010PropOp38
 70
     1
102
RTVSPost2010Prop39
140
1.0
102
RTVSPost2010PropOp39
 70
     1
102
RTVSPost2010Prop40
 90
        0
102
RTVSPost2010PropOp40
 70
     1
102
RTVSPost2010Prop41ColorIndex
 90
       18
102
RTVSPost2010Prop41ColorRGB
 90
        0
102
RTVSPost2010PropOp41
 70
     1
102
RTVSPost2010Prop42
 90
       50
102
RTVSPost2010PropOp42
 70
     1
102
RTVSPost2010Prop43
 90
        3
102
RTVSPost2010PropOp43
 70
     1
102
RTVSPost2010Prop44ColorIndex
 90
        5
102
RTVSPost2010Prop44ColorRGB
 90
      255
102
RTVSPost2010PropOp44
 70
     1
102
RTVSPost2010Prop45
280
     0
102
RTVSPost2010PropOp45
 70
     1
102
RTVSPost2010Prop46
 90
       50
102
RTVSPost2010PropOp46
 70
     1
102
RTVSPost2010Prop47
 90
       50
102
RTVSPost2010PropOp47
 70
     1
102
RTVSPost2010Prop48
 90
       50
102
RTVSPost2010PropOp48
 70
     1
102
RTVSPost2010Prop49
280
     0
102
RTVSPost2010PropOp49
 70
     1
102
RTVSPost2010Prop50
 90
       50
102
RTVSPost2010PropOp50
 70
     1
102
RTVSPost2010Prop51ColorIndex
 90
      256
102
RTVSPost2010Prop51ColorRGB
 90
-16777216
102
RTVSPost2010PropOp51
 70
     0
102
RTVSPost2010Prop52
140
1.0
102
RTVSPost2010PropOp52
 70
     0
102
RTVSPost2010Prop53
 90
        2
102
RTVSPost2010PropOp53
 70
     1
102
RTVSPost2010Prop54
  1
strokes_ogs.tif
102
RTVSPost2010PropOp54
 70
     1
102
RTVSPost2010Prop55
280
     0
102
RTVSPost2010PropOp55
 70
     1
102
RTVSPost2010Prop56
140
1.0
102
RTVSPost2010PropOp56
 70
     1
102
RTVSPost2010Prop57
140
1.0
102
RTVSPost2010PropOp57
 70
     1
  0
XRECORD
  5
173
102
{ACAD_REACTORS
330
172
102
}
330
172
100
AcDbXrecord
280
     1
102
RTVSPost2010Prop28
280
     0
102
RTVSPost2010PropOp28
 70
     1
102
RTVSPost2010Prop29
280
     1
102
RTVSPost2010PropOp29
 70
     1
102
RTVSPost2010Prop30
280
     1
102
RTVSPost2010PropOp30
 70
     1
102
RTVSPost2010Prop31
280
     0
102
RTVSPost2010PropOp31
 70
     1
102
RTVSPost2010Prop32
280
     0
102
RTVSPost2010PropOp32
 70
     1
102
RTVSPost2010Prop33
280
     0
102
RTVSPost2010PropOp33
 70
     1
102
RTVSPost2010Prop34
280
     0
102
RTVSPost2010PropOp34
 70
     1
102
RTVSPost2010Prop35
280
     0
102
RTVSPost2010PropOp35
 70
     1
102
RTVSPost2010Prop36
280
     0
102
RTVSPost2010PropOp36
 70
     1
102
RTVSPost2010Prop37
 90
       50
102
RTVSPost2010PropOp37
 70
     1
102
RTVSPost2010Prop38
140
0.0
102
RTVSPost2010PropOp38
 70
     1
102
RTVSPost2010Prop39
140
1.0
102
RTVSPost2010PropOp39
 70
     1
102
RTVSPost2010Prop40
 90
        0
102
RTVSPost2010PropOp40
 70
     1
102
RTVSPost2010Prop41ColorIndex
 90
       18
102
RTVSPost2010Prop41ColorRGB
 90
        0
102
RTVSPost2010PropOp41
 70
     1
102
RTVSPost2010Prop42
 90
       50
102
RTVSPost2010PropOp42
 70
     1
102
RTVSPost2010Prop43
 90
        3
102
RTVSPost2010PropOp43
 70
     1
102
RTVSPost2010Prop44ColorIndex
 90
        5
102
RTVSPost2010Prop44ColorRGB
 90
      255
102
RTVSPost2010PropOp44
 70
     1
102
RTVSPost2010Prop45
280
     0
102
RTVSPost2010PropOp45
 70
     1
102
RTVSPost2010Prop46
 90
       50
102
RTVSPost2010PropOp46
 70
     1
102
RTVSPost2010Prop47
 90
       50
102
RTVSPost2010PropOp47
 70
     1
102
RTVSPost2010Prop48
 90
       50
102
RTVSPost2010PropOp48
 70
     1
102
RTVSPost2010Prop49
280
     0
102
RTVSPost2010PropOp49
 70
     1
102
RTVSPost2010Prop50
 90
       50
102
RTVSPost2010PropOp50
 70
     1
102
RTVSPost2010Prop51ColorIndex
 90
      256
102
RTVSPost2010Prop51ColorRGB
 90
-16777216
102
RTVSPost2010PropOp51
 70
     0
102
RTVSPost2010Prop52
140
1.0
102
RTVSPost2010PropOp52
 70
     0
102
RTVSPost2010Prop53
 90
        2
102
RTVSPost2010PropOp53
 70
     1
102
RTVSPost2010Prop54
  1
strokes_ogs.tif
102
RTVSPost2010PropOp54
 70
     1
102
RTVSPost2010Prop55
280
     0
102
RTVSPost2010PropOp55
 70
     1
102
RTVSPost2010Prop56
140
1.0
102
RTVSPost2010PropOp56
 70
     1
102
RTVSPost2010Prop57
140
1.0
102
RTVSPost2010PropOp57
 70
     1
  0
XRECORD
  5
18D
102
{ACAD_REACTORS
330
18C
102
}
330
18C
100
AcDbXrecord
280
     1
102
RTVSPost2010Prop28
280
     0
102
RTVSPost2010PropOp28
 70
     0
102
RTVSPost2010Prop29
280
     1
102
RTVSPost2010PropOp29
 70
     0
102
RTVSPost2010Prop30
280
     1
102
RTVSPost2010PropOp30
 70
     0
102
RTVSPost2010Prop31
280
     0
102
RTVSPost2010PropOp31
 70
     0
102
RTVSPost2010Prop32
280
     0
102
RTVSPost2010PropOp32
 70
     0
102
RTVSPost2010Prop33
280
     0
102
RTVSPost2010PropOp33
 70
     0
102
RTVSPost2010Prop34
280
     0
102
RTVSPost2010PropOp34
 70
     0
102
RTVSPost2010Prop35
280
     0
102
RTVSPost2010PropOp35
 70
     0
102
RTVSPost2010Prop36
280
     0
102
RTVSPost2010PropOp36
 70
     0
102
RTVSPost2010Prop37
 90
       50
102
RTVSPost2010PropOp37
 70
     0
102
RTVSPost2010Prop38
140
0.0
102
RTVSPost2010PropOp38
 70
     0
102
RTVSPost2010Prop39
140
1.0
102
RTVSPost2010PropOp39
 70
     0
102
RTVSPost2010Prop40
 90
        0
102
RTVSPost2010PropOp40
 70
     0
102
RTVSPost2010Prop41ColorIndex
 90
       18
102
RTVSPost2010Prop41ColorRGB
 90
        0
102
RTVSPost2010PropOp41
 70
     0
102
RTVSPost2010Prop42
 90
       50
102
RTVSPost2010PropOp42
 70
     0
102
RTVSPost2010Prop43
 90
        3
102
RTVSPost2010PropOp43
 70
     0
102
RTVSPost2010Prop44ColorIndex
 90
        5
102
RTVSPost2010Prop44ColorRGB
 90
      255
102
RTVSPost2010PropOp44
 70
     0
102
RTVSPost2010Prop45
280
     0
102
RTVSPost2010PropOp45
 70
     0
102
RTVSPost2010Prop46
 90
       50
102
RTVSPost2010PropOp46
 70
     0
102
RTVSPost2010Prop47
 90
       50
102
RTVSPost2010PropOp47
 70
     0
102
RTVSPost2010Prop48
 90
       50
102
RTVSPost2010PropOp48
 70
     0
102
RTVSPost2010Prop49
280
     0
102
RTVSPost2010PropOp49
 70
     0
102
RTVSPost2010Prop50
 90
       50
102
RTVSPost2010PropOp50
 70
     0
102
RTVSPost2010Prop51ColorIndex
 90
      256
102
RTVSPost2010Prop51ColorRGB
 90
-16777216
102
RTVSPost2010PropOp51
 70
     0
102
RTVSPost2010Prop52
140
1.0
102
RTVSPost2010PropOp52
 70
     0
102
RTVSPost2010Prop53
 90
        2
102
RTVSPost2010PropOp53
 70
     0
102
RTVSPost2010Prop54
  1
strokes_ogs.tif
102
RTVSPost2010PropOp54
 70
     0
102
RTVSPost2010Prop55
280
     0
102
RTVSPost2010PropOp55
 70
     0
102
RTVSPost2010Prop56
140
1.0
102
RTVSPost2010PropOp56
 70
     0
102
RTVSPost2010Prop57
140
1.0
102
RTVSPost2010PropOp57
 70
     0
  0
XRECORD
  5
17B
102
{ACAD_REACTORS
330
17A
102
}
330
17A
100
AcDbXrecord
280
     1
102
RTVSPost2010Prop28
280
     0
102
RTVSPost2010PropOp28
 70
     1
102
RTVSPost2010Prop29
280
     1
102
RTVSPost2010PropOp29
 70
     1
102
RTVSPost2010Prop30
280
     1
102
RTVSPost2010PropOp30
 70
     1
102
RTVSPost2010Prop31
280
     0
102
RTVSPost2010PropOp31
 70
     1
102
RTVSPost2010Prop32
280
     0
102
RTVSPost2010PropOp32
 70
     1
102
RTVSPost2010Prop33
280
     0
102
RTVSPost2010PropOp33
 70
     1
102
RTVSPost2010Prop34
280
     0
102
RTVSPost2010PropOp34
 70
     1
102
RTVSPost2010Prop35
280
     0
102
RTVSPost2010PropOp35
 70
     1
102
RTVSPost2010Prop36
280
     0
102
RTVSPost2010PropOp36
 70
     1
102
RTVSPost2010Prop37
 90
       50
102
RTVSPost2010PropOp37
 70
     1
102
RTVSPost2010Prop38
140
0.0
102
RTVSPost2010PropOp38
 70
     1
102
RTVSPost2010Prop39
140
1.0
102
RTVSPost2010PropOp39
 70
     1
102
RTVSPost2010Prop40
 90
        0
102
RTVSPost2010PropOp40
 70
     1
102
RTVSPost2010Prop41ColorIndex
 90
       18
102
RTVSPost2010Prop41ColorRGB
 90
        0
102
RTVSPost2010PropOp41
 70
     1
102
RTVSPost2010Prop42
 90
       50
102
RTVSPost2010PropOp42
 70
     1
102
RTVSPost2010Prop43
 90
        3
102
RTVSPost2010PropOp43
 70
     1
102
RTVSPost2010Prop44ColorIndex
 90
        5
102
RTVSPost2010Prop44ColorRGB
 90
      255
102
RTVSPost2010PropOp44
 70
     1
102
RTVSPost2010Prop45
280
     0
102
RTVSPost2010PropOp45
 70
     1
102
RTVSPost2010Prop46
 90
       50
102
RTVSPost2010PropOp46
 70
     1
102
RTVSPost2010Prop47
 90
       50
102
RTVSPost2010PropOp47
 70
     1
102
RTVSPost2010Prop48
 90
       50
102
RTVSPost2010PropOp48
 70
     1
102
RTVSPost2010Prop49
280
     0
102
RTVSPost2010PropOp49
 70
     1
102
RTVSPost2010Prop50
 90
       50
102
RTVSPost2010PropOp50
 70
     1
102
RTVSPost2010Prop51ColorIndex
 90
      256
102
RTVSPost2010Prop51ColorRGB
 90
-16777216
102
RTVSPost2010PropOp51
 70
     0
102
RTVSPost2010Prop52
140
1.0
102
RTVSPost2010PropOp52
 70
     0
102
RTVSPost2010Prop53
 90
        2
102
RTVSPost2010PropOp53
 70
     1
102
RTVSPost2010Prop54
  1
strokes_ogs.tif
102
RTVSPost2010PropOp54
 70
     1
102
RTVSPost2010Prop55
280
     0
102
RTVSPost2010PropOp55
 70
     1
102
RTVSPost2010Prop56
140
1.0
102
RTVSPost2010PropOp56
 70
     1
102
RTVSPost2010Prop57
140
1.0
102
RTVSPost2010PropOp57
 70
     1
  0
XRECORD
  5
15F
102
{ACAD_REACTORS
330
15E
102
}
330
15E
100
AcDbXrecord
280
     1
102
RTVSPost2010Prop28
280
     0
102
RTVSPost2010PropOp28
 70
     1
102
RTVSPost2010Prop29
280
     1
102
RTVSPost2010PropOp29
 70
     1
102
RTVSPost2010Prop30
280
     1
102
RTVSPost2010PropOp30
 70
     1
102
RTVSPost2010Prop31
280
     0
102
RTVSPost2010PropOp31
 70
     1
102
RTVSPost2010Prop32
280
     0
102
RTVSPost2010PropOp32
 70
     1
102
RTVSPost2010Prop33
280
     0
102
RTVSPost2010PropOp33
 70
     1
102
RTVSPost2010Prop34
280
     0
102
RTVSPost2010PropOp34
 70
     1
102
RTVSPost2010Prop35
280
     0
102
RTVSPost2010PropOp35
 70
     1
102
RTVSPost2010Prop36
280
     0
102
RTVSPost2010PropOp36
 70
     1
102
RTVSPost2010Prop37
 90
       50
102
RTVSPost2010PropOp37
 70
     1
102
RTVSPost2010Prop38
140
0.0
102
RTVSPost2010PropOp38
 70
     1
102
RTVSPost2010Prop39
140
1.0
102
RTVSPost2010PropOp39
 70
     1
102
RTVSPost2010Prop40
 90
        0
102
RTVSPost2010PropOp40
 70
     1
102
RTVSPost2010Prop41ColorIndex
 90
       18
102
RTVSPost2010Prop41ColorRGB
 90
        0
102
RTVSPost2010PropOp41
 70
     1
102
RTVSPost2010Prop42
 90
       50
102
RTVSPost2010PropOp42
 70
     1
102
RTVSPost2010Prop43
 90
        3
102
RTVSPost2010PropOp43
 70
     1
102
RTVSPost2010Prop44ColorIndex
 90
        5
102
RTVSPost2010Prop44ColorRGB
 90
      255
102
RTVSPost2010PropOp44
 70
     1
102
RTVSPost2010Prop45
280
     0
102
RTVSPost2010PropOp45
 70
     1
102
RTVSPost2010Prop46
 90
       50
102
RTVSPost2010PropOp46
 70
     1
102
RTVSPost2010Prop47
 90
       50
102
RTVSPost2010PropOp47
 70
     1
102
RTVSPost2010Prop48
 90
       50
102
RTVSPost2010PropOp48
 70
     1
102
RTVSPost2010Prop49
280
     0
102
RTVSPost2010PropOp49
 70
     1
102
RTVSPost2010Prop50
 90
       50
102
RTVSPost2010PropOp50
 70
     1
102
RTVSPost2010Prop51ColorIndex
 90
      256
102
RTVSPost2010Prop51ColorRGB
 90
-16777216
102
RTVSPost2010PropOp51
 70
     0
102
RTVSPost2010Prop52
140
1.0
102
RTVSPost2010PropOp52
 70
     0
102
RTVSPost2010Prop53
 90
        2
102
RTVSPost2010PropOp53
 70
     1
102
RTVSPost2010Prop54
  1
strokes_ogs.tif
102
RTVSPost2010PropOp54
 70
     1
102
RTVSPost2010Prop55
280
     0
102
RTVSPost2010PropOp55
 70
     1
102
RTVSPost2010Prop56
140
1.0
102
RTVSPost2010PropOp56
 70
     1
102
RTVSPost2010Prop57
140
1.0
102
RTVSPost2010PropOp57
 70
     1
  0
XRECORD
  5
161
102
{ACAD_REACTORS
330
160
102
}
330
160
100
AcDbXrecord
280
     1
102
RTVSPost2010Prop28
280
     0
102
RTVSPost2010PropOp28
 70
     1
102
RTVSPost2010Prop29
280
     1
102
RTVSPost2010PropOp29
 70
     1
102
RTVSPost2010Prop30
280
     1
102
RTVSPost2010PropOp30
 70
     1
102
RTVSPost2010Prop31
280
     0
102
RTVSPost2010PropOp31
 70
     1
102
RTVSPost2010Prop32
280
     0
102
RTVSPost2010PropOp32
 70
     1
102
RTVSPost2010Prop33
280
     0
102
RTVSPost2010PropOp33
 70
     1
102
RTVSPost2010Prop34
280
     0
102
RTVSPost2010PropOp34
 70
     1
102
RTVSPost2010Prop35
280
     0
102
RTVSPost2010PropOp35
 70
     1
102
RTVSPost2010Prop36
280
     0
102
RTVSPost2010PropOp36
 70
     1
102
RTVSPost2010Prop37
 90
       50
102
RTVSPost2010PropOp37
 70
     1
102
RTVSPost2010Prop38
140
0.0
102
RTVSPost2010PropOp38
 70
     1
102
RTVSPost2010Prop39
140
1.0
102
RTVSPost2010PropOp39
 70
     1
102
RTVSPost2010Prop40
 90
        0
102
RTVSPost2010PropOp40
 70
     1
102
RTVSPost2010Prop41ColorIndex
 90
       18
102
RTVSPost2010Prop41ColorRGB
 90
        0
102
RTVSPost2010PropOp41
 70
     1
102
RTVSPost2010Prop42
 90
       50
102
RTVSPost2010PropOp42
 70
     1
102
RTVSPost2010Prop43
 90
        3
102
RTVSPost2010PropOp43
 70
     1
102
RTVSPost2010Prop44ColorIndex
 90
        5
102
RTVSPost2010Prop44ColorRGB
 90
      255
102
RTVSPost2010PropOp44
 70
     1
102
RTVSPost2010Prop45
280
     0
102
RTVSPost2010PropOp45
 70
     1
102
RTVSPost2010Prop46
 90
       50
102
RTVSPost2010PropOp46
 70
     1
102
RTVSPost2010Prop47
 90
       50
102
RTVSPost2010PropOp47
 70
     1
102
RTVSPost2010Prop48
 90
       50
102
RTVSPost2010PropOp48
 70
     1
102
RTVSPost2010Prop49
280
     0
102
RTVSPost2010PropOp49
 70
     1
102
RTVSPost2010Prop50
 90
       50
102
RTVSPost2010PropOp50
 70
     1
102
RTVSPost2010Prop51ColorIndex
 90
      256
102
RTVSPost2010Prop51ColorRGB
 90
-16777216
102
RTVSPost2010PropOp51
 70
     0
102
RTVSPost2010Prop52
140
1.0
102
RTVSPost2010PropOp52
 70
     0
102
RTVSPost2010Prop53
 90
        2
102
RTVSPost2010PropOp53
 70
     1
102
RTVSPost2010Prop54
  1
strokes_ogs.tif
102
RTVSPost2010PropOp54
 70
     1
102
RTVSPost2010Prop55
280
     0
102
RTVSPost2010PropOp55
 70
     1
102
RTVSPost2010Prop56
140
1.0
102
RTVSPost2010PropOp56
 70
     1
102
RTVSPost2010Prop57
140
1.0
102
RTVSPost2010PropOp57
 70
     1
  0
XRECORD
  5
163
102
{ACAD_REACTORS
330
162
102
}
330
162
100
AcDbXrecord
280
     1
102
RTVSPost2010Prop28
280
     0
102
RTVSPost2010PropOp28
 70
     1
102
RTVSPost2010Prop29
280
     1
102
RTVSPost2010PropOp29
 70
     1
102
RTVSPost2010Prop30
280
     1
102
RTVSPost2010PropOp30
 70
     1
102
RTVSPost2010Prop31
280
     0
102
RTVSPost2010PropOp31
 70
     1
102
RTVSPost2010Prop32
280
     0
102
RTVSPost2010PropOp32
 70
     1
102
RTVSPost2010Prop33
280
     0
102
RTVSPost2010PropOp33
 70
     1
102
RTVSPost2010Prop34
280
     0
102
RTVSPost2010PropOp34
 70
     1
102
RTVSPost2010Prop35
280
     0
102
RTVSPost2010PropOp35
 70
     1
102
RTVSPost2010Prop36
280
     0
102
RTVSPost2010PropOp36
 70
     1
102
RTVSPost2010Prop37
 90
       50
102
RTVSPost2010PropOp37
 70
     1
102
RTVSPost2010Prop38
140
0.0
102
RTVSPost2010PropOp38
 70
     1
102
RTVSPost2010Prop39
140
1.0
102
RTVSPost2010PropOp39
 70
     1
102
RTVSPost2010Prop40
 90
        0
102
RTVSPost2010PropOp40
 70
     1
102
RTVSPost2010Prop41ColorIndex
 90
       18
102
RTVSPost2010Prop41ColorRGB
 90
        0
102
RTVSPost2010PropOp41
 70
     1
102
RTVSPost2010Prop42
 90
       50
102
RTVSPost2010PropOp42
 70
     1
102
RTVSPost2010Prop43
 90
        3
102
RTVSPost2010PropOp43
 70
     1
102
RTVSPost2010Prop44ColorIndex
 90
        5
102
RTVSPost2010Prop44ColorRGB
 90
      255
102
RTVSPost2010PropOp44
 70
     1
102
RTVSPost2010Prop45
280
     0
102
RTVSPost2010PropOp45
 70
     1
102
RTVSPost2010Prop46
 90
       50
102
RTVSPost2010PropOp46
 70
     1
102
RTVSPost2010Prop47
 90
       50
102
RTVSPost2010PropOp47
 70
     1
102
RTVSPost2010Prop48
 90
       50
102
RTVSPost2010PropOp48
 70
     1
102
RTVSPost2010Prop49
280
     0
102
RTVSPost2010PropOp49
 70
     1
102
RTVSPost2010Prop50
 90
       50
102
RTVSPost2010PropOp50
 70
     1
102
RTVSPost2010Prop51ColorIndex
 90
      256
102
RTVSPost2010Prop51ColorRGB
 90
-16777216
102
RTVSPost2010PropOp51
 70
     0
102
RTVSPost2010Prop52
140
1.0
102
RTVSPost2010PropOp52
 70
     0
102
RTVSPost2010Prop53
 90
        2
102
RTVSPost2010PropOp53
 70
     1
102
RTVSPost2010Prop54
  1
strokes_ogs.tif
102
RTVSPost2010PropOp54
 70
     1
102
RTVSPost2010Prop55
280
     0
102
RTVSPost2010PropOp55
 70
     1
102
RTVSPost2010Prop56
140
1.0
102
RTVSPost2010PropOp56
 70
     1
102
RTVSPost2010Prop57
140
1.0
102
RTVSPost2010PropOp57
 70
     1
  0
XRECORD
  5
165
102
{ACAD_REACTORS
330
164
102
}
330
164
100
AcDbXrecord
280
     1
102
RTVSPost2010Prop28
280
     0
102
RTVSPost2010PropOp28
 70
     1
102
RTVSPost2010Prop29
280
     1
102
RTVSPost2010PropOp29
 70
     1
102
RTVSPost2010Prop30
280
     1
102
RTVSPost2010PropOp30
 70
     1
102
RTVSPost2010Prop31
280
     0
102
RTVSPost2010PropOp31
 70
     1
102
RTVSPost2010Prop32
280
     0
102
RTVSPost2010PropOp32
 70
     1
102
RTVSPost2010Prop33
280
     0
102
RTVSPost2010PropOp33
 70
     1
102
RTVSPost2010Prop34
280
     0
102
RTVSPost2010PropOp34
 70
     1
102
RTVSPost2010Prop35
280
     0
102
RTVSPost2010PropOp35
 70
     1
102
RTVSPost2010Prop36
280
     0
102
RTVSPost2010PropOp36
 70
     1
102
RTVSPost2010Prop37
 90
       50
102
RTVSPost2010PropOp37
 70
     1
102
RTVSPost2010Prop38
140
0.0
102
RTVSPost2010PropOp38
 70
     1
102
RTVSPost2010Prop39
140
1.0
102
RTVSPost2010PropOp39
 70
     1
102
RTVSPost2010Prop40
 90
        0
102
RTVSPost2010PropOp40
 70
     1
102
RTVSPost2010Prop41ColorIndex
 90
       18
102
RTVSPost2010Prop41ColorRGB
 90
        0
102
RTVSPost2010PropOp41
 70
     1
102
RTVSPost2010Prop42
 90
       50
102
RTVSPost2010PropOp42
 70
     1
102
RTVSPost2010Prop43
 90
        3
102
RTVSPost2010PropOp43
 70
     1
102
RTVSPost2010Prop44ColorIndex
 90
        5
102
RTVSPost2010Prop44ColorRGB
 90
      255
102
RTVSPost2010PropOp44
 70
     1
102
RTVSPost2010Prop45
280
     0
102
RTVSPost2010PropOp45
 70
     1
102
RTVSPost2010Prop46
 90
       50
102
RTVSPost2010PropOp46
 70
     1
102
RTVSPost2010Prop47
 90
       50
102
RTVSPost2010PropOp47
 70
     1
102
RTVSPost2010Prop48
 90
       50
102
RTVSPost2010PropOp48
 70
     1
102
RTVSPost2010Prop49
280
     0
102
RTVSPost2010PropOp49
 70
     1
102
RTVSPost2010Prop50
 90
       50
102
RTVSPost2010PropOp50
 70
     1
102
RTVSPost2010Prop51ColorIndex
 90
      256
102
RTVSPost2010Prop51ColorRGB
 90
-16777216
102
RTVSPost2010PropOp51
 70
     0
102
RTVSPost2010Prop52
140
1.0
102
RTVSPost2010PropOp52
 70
     0
102
RTVSPost2010Prop53
 90
        2
102
RTVSPost2010PropOp53
 70
     1
102
RTVSPost2010Prop54
  1
strokes_ogs.tif
102
RTVSPost2010PropOp54
 70
     1
102
RTVSPost2010Prop55
280
     0
102
RTVSPost2010PropOp55
 70
     1
102
RTVSPost2010Prop56
140
1.0
102
RTVSPost2010PropOp56
 70
     1
102
RTVSPost2010Prop57
140
1.0
102
RTVSPost2010PropOp57
 70
     1
  0
XRECORD
  5
16D
102
{ACAD_REACTORS
330
16C
102
}
330
16C
100
AcDbXrecord
280
     1
102
RTVSPost2010Prop28
280
     0
102
RTVSPost2010PropOp28
 70
     1
102
RTVSPost2010Prop29
280
     1
102
RTVSPost2010PropOp29
 70
     1
102
RTVSPost2010Prop30
280
     1
102
RTVSPost2010PropOp30
 70
     1
102
RTVSPost2010Prop31
280
     0
102
RTVSPost2010PropOp31
 70
     1
102
RTVSPost2010Prop32
280
     0
102
RTVSPost2010PropOp32
 70
     1
102
RTVSPost2010Prop33
280
     0
102
RTVSPost2010PropOp33
 70
     1
102
RTVSPost2010Prop34
280
     0
102
RTVSPost2010PropOp34
 70
     1
102
RTVSPost2010Prop35
280
     0
102
RTVSPost2010PropOp35
 70
     1
102
RTVSPost2010Prop36
280
     0
102
RTVSPost2010PropOp36
 70
     1
102
RTVSPost2010Prop37
 90
       50
102
RTVSPost2010PropOp37
 70
     1
102
RTVSPost2010Prop38
140
0.0
102
RTVSPost2010PropOp38
 70
     1
102
RTVSPost2010Prop39
140
1.0
102
RTVSPost2010PropOp39
 70
     1
102
RTVSPost2010Prop40
 90
        0
102
RTVSPost2010PropOp40
 70
     1
102
RTVSPost2010Prop41ColorIndex
 90
       18
102
RTVSPost2010Prop41ColorRGB
 90
        0
102
RTVSPost2010PropOp41
 70
     1
102
RTVSPost2010Prop42
 90
       50
102
RTVSPost2010PropOp42
 70
     1
102
RTVSPost2010Prop43
 90
        3
102
RTVSPost2010PropOp43
 70
     1
102
RTVSPost2010Prop44ColorIndex
 90
        5
102
RTVSPost2010Prop44ColorRGB
 90
      255
102
RTVSPost2010PropOp44
 70
     1
102
RTVSPost2010Prop45
280
     0
102
RTVSPost2010PropOp45
 70
     1
102
RTVSPost2010Prop46
 90
       50
102
RTVSPost2010PropOp46
 70
     1
102
RTVSPost2010Prop47
 90
       50
102
RTVSPost2010PropOp47
 70
     1
102
RTVSPost2010Prop48
 90
       50
102
RTVSPost2010PropOp48
 70
     1
102
RTVSPost2010Prop49
280
     0
102
RTVSPost2010PropOp49
 70
     1
102
RTVSPost2010Prop50
 90
       50
102
RTVSPost2010PropOp50
 70
     1
102
RTVSPost2010Prop51ColorIndex
 90
      256
102
RTVSPost2010Prop51ColorRGB
 90
-16777216
102
RTVSPost2010PropOp51
 70
     0
102
RTVSPost2010Prop52
140
1.0
102
RTVSPost2010PropOp52
 70
     0
102
RTVSPost2010Prop53
 90
        2
102
RTVSPost2010PropOp53
 70
     1
102
RTVSPost2010Prop54
  1
strokes_ogs.tif
102
RTVSPost2010PropOp54
 70
     1
102
RTVSPost2010Prop55
280
     0
102
RTVSPost2010PropOp55
 70
     1
102
RTVSPost2010Prop56
140
1.0
102
RTVSPost2010PropOp56
 70
     1
102
RTVSPost2010Prop57
140
1.0
102
RTVSPost2010PropOp57
 70
     1
  0
XRECORD
  5
189
102
{ACAD_REACTORS
330
188
102
}
330
188
100
AcDbXrecord
280
     1
102
RTVSPost2010Prop28
280
     0
102
RTVSPost2010PropOp28
 70
     0
102
RTVSPost2010Prop29
280
     1
102
RTVSPost2010PropOp29
 70
     0
102
RTVSPost2010Prop30
280
     1
102
RTVSPost2010PropOp30
 70
     0
102
RTVSPost2010Prop31
280
     0
102
RTVSPost2010PropOp31
 70
     0
102
RTVSPost2010Prop32
280
     0
102
RTVSPost2010PropOp32
 70
     0
102
RTVSPost2010Prop33
280
     0
102
RTVSPost2010PropOp33
 70
     0
102
RTVSPost2010Prop34
280
     0
102
RTVSPost2010PropOp34
 70
     0
102
RTVSPost2010Prop35
280
     0
102
RTVSPost2010PropOp35
 70
     0
102
RTVSPost2010Prop36
280
     0
102
RTVSPost2010PropOp36
 70
     0
102
RTVSPost2010Prop37
 90
       50
102
RTVSPost2010PropOp37
 70
     0
102
RTVSPost2010Prop38
140
0.0
102
RTVSPost2010PropOp38
 70
     0
102
RTVSPost2010Prop39
140
1.0
102
RTVSPost2010PropOp39
 70
     0
102
RTVSPost2010Prop40
 90
        0
102
RTVSPost2010PropOp40
 70
     0
102
RTVSPost2010Prop41ColorIndex
 90
       18
102
RTVSPost2010Prop41ColorRGB
 90
        0
102
RTVSPost2010PropOp41
 70
     0
102
RTVSPost2010Prop42
 90
       50
102
RTVSPost2010PropOp42
 70
     0
102
RTVSPost2010Prop43
 90
        3
102
RTVSPost2010PropOp43
 70
     0
102
RTVSPost2010Prop44ColorIndex
 90
        5
102
RTVSPost2010Prop44ColorRGB
 90
      255
102
RTVSPost2010PropOp44
 70
     0
102
RTVSPost2010Prop45
280
     0
102
RTVSPost2010PropOp45
 70
     0
102
RTVSPost2010Prop46
 90
       50
102
RTVSPost2010PropOp46
 70
     0
102
RTVSPost2010Prop47
 90
       50
102
RTVSPost2010PropOp47
 70
     0
102
RTVSPost2010Prop48
 90
       50
102
RTVSPost2010PropOp48
 70
     0
102
RTVSPost2010Prop49
280
     0
102
RTVSPost2010PropOp49
 70
     0
102
RTVSPost2010Prop50
 90
       50
102
RTVSPost2010PropOp50
 70
     0
102
RTVSPost2010Prop51ColorIndex
 90
      256
102
RTVSPost2010Prop51ColorRGB
 90
-16777216
102
RTVSPost2010PropOp51
 70
     0
102
RTVSPost2010Prop52
140
1.0
102
RTVSPost2010PropOp52
 70
     0
102
RTVSPost2010Prop53
 90
        2
102
RTVSPost2010PropOp53
 70
     0
102
RTVSPost2010Prop54
  1
strokes_ogs.tif
102
RTVSPost2010PropOp54
 70
     0
102
RTVSPost2010Prop55
280
     0
102
RTVSPost2010PropOp55
 70
     0
102
RTVSPost2010Prop56
140
1.0
102
RTVSPost2010PropOp56
 70
     0
102
RTVSPost2010Prop57
140
1.0
102
RTVSPost2010PropOp57
 70
     0
  0
XRECORD
  5
179
102
{ACAD_REACTORS
330
178
102
}
330
178
100
AcDbXrecord
280
     1
102
RTVSPost2010Prop28
280
     0
102
RTVSPost2010PropOp28
 70
     1
102
RTVSPost2010Prop29
280
     1
102
RTVSPost2010PropOp29
 70
     1
102
RTVSPost2010Prop30
280
     1
102
RTVSPost2010PropOp30
 70
     1
102
RTVSPost2010Prop31
280
     0
102
RTVSPost2010PropOp31
 70
     1
102
RTVSPost2010Prop32
280
     0
102
RTVSPost2010PropOp32
 70
     1
102
RTVSPost2010Prop33
280
     0
102
RTVSPost2010PropOp33
 70
     1
102
RTVSPost2010Prop34
280
     0
102
RTVSPost2010PropOp34
 70
     1
102
RTVSPost2010Prop35
280
     0
102
RTVSPost2010PropOp35
 70
     1
102
RTVSPost2010Prop36
280
     0
102
RTVSPost2010PropOp36
 70
     1
102
RTVSPost2010Prop37
 90
       50
102
RTVSPost2010PropOp37
 70
     1
102
RTVSPost2010Prop38
140
0.0
102
RTVSPost2010PropOp38
 70
     1
102
RTVSPost2010Prop39
140
1.0
102
RTVSPost2010PropOp39
 70
     1
102
RTVSPost2010Prop40
 90
        0
102
RTVSPost2010PropOp40
 70
     1
102
RTVSPost2010Prop41ColorIndex
 90
       18
102
RTVSPost2010Prop41ColorRGB
 90
        0
102
RTVSPost2010PropOp41
 70
     1
102
RTVSPost2010Prop42
 90
       50
102
RTVSPost2010PropOp42
 70
     1
102
RTVSPost2010Prop43
 90
        3
102
RTVSPost2010PropOp43
 70
     1
102
RTVSPost2010Prop44ColorIndex
 90
        5
102
RTVSPost2010Prop44ColorRGB
 90
      255
102
RTVSPost2010PropOp44
 70
     1
102
RTVSPost2010Prop45
280
     0
102
RTVSPost2010PropOp45
 70
     1
102
RTVSPost2010Prop46
 90
       50
102
RTVSPost2010PropOp46
 70
     1
102
RTVSPost2010Prop47
 90
       50
102
RTVSPost2010PropOp47
 70
     1
102
RTVSPost2010Prop48
 90
       50
102
RTVSPost2010PropOp48
 70
     1
102
RTVSPost2010Prop49
280
     0
102
RTVSPost2010PropOp49
 70
     1
102
RTVSPost2010Prop50
 90
       50
102
RTVSPost2010PropOp50
 70
     1
102
RTVSPost2010Prop51ColorIndex
 90
      256
102
RTVSPost2010Prop51ColorRGB
 90
-16777216
102
RTVSPost2010PropOp51
 70
     0
102
RTVSPost2010Prop52
140
1.0
102
RTVSPost2010PropOp52
 70
     0
102
RTVSPost2010Prop53
 90
        2
102
RTVSPost2010PropOp53
 70
     1
102
RTVSPost2010Prop54
  1
strokes_ogs.tif
102
RTVSPost2010PropOp54
 70
     1
102
RTVSPost2010Prop55
280
     0
102
RTVSPost2010PropOp55
 70
     1
102
RTVSPost2010Prop56
140
1.0
102
RTVSPost2010PropOp56
 70
     1
102
RTVSPost2010Prop57
140
1.0
102
RTVSPost2010PropOp57
 70
     1
  0
XRECORD
  5
18B
102
{ACAD_REACTORS
330
18A
102
}
330
18A
100
AcDbXrecord
280
     1
102
RTVSPost2010Prop28
280
     0
102
RTVSPost2010PropOp28
 70
     0
102
RTVSPost2010Prop29
280
     1
102
RTVSPost2010PropOp29
 70
     0
102
RTVSPost2010Prop30
280
     1
102
RTVSPost2010PropOp30
 70
     0
102
RTVSPost2010Prop31
280
     0
102
RTVSPost2010PropOp31
 70
     0
102
RTVSPost2010Prop32
280
     0
102
RTVSPost2010PropOp32
 70
     0
102
RTVSPost2010Prop33
280
     0
102
RTVSPost2010PropOp33
 70
     0
102
RTVSPost2010Prop34
280
     0
102
RTVSPost2010PropOp34
 70
     0
102
RTVSPost2010Prop35
280
     0
102
RTVSPost2010PropOp35
 70
     0
102
RTVSPost2010Prop36
280
     0
102
RTVSPost2010PropOp36
 70
     0
102
RTVSPost2010Prop37
 90
       50
102
RTVSPost2010PropOp37
 70
     0
102
RTVSPost2010Prop38
140
0.0
102
RTVSPost2010PropOp38
 70
     0
102
RTVSPost2010Prop39
140
1.0
102
RTVSPost2010PropOp39
 70
     0
102
RTVSPost2010Prop40
 90
        0
102
RTVSPost2010PropOp40
 70
     0
102
RTVSPost2010Prop41ColorIndex
 90
       18
102
RTVSPost2010Prop41ColorRGB
 90
        0
102
RTVSPost2010PropOp41
 70
     0
102
RTVSPost2010Prop42
 90
       50
102
RTVSPost2010PropOp42
 70
     0
102
RTVSPost2010Prop43
 90
        3
102
RTVSPost2010PropOp43
 70
     0
102
RTVSPost2010Prop44ColorIndex
 90
        5
102
RTVSPost2010Prop44ColorRGB
 90
      255
102
RTVSPost2010PropOp44
 70
     0
102
RTVSPost2010Prop45
280
     0
102
RTVSPost2010PropOp45
 70
     0
102
RTVSPost2010Prop46
 90
       50
102
RTVSPost2010PropOp46
 70
     0
102
RTVSPost2010Prop47
 90
       50
102
RTVSPost2010PropOp47
 70
     0
102
RTVSPost2010Prop48
 90
       50
102
RTVSPost2010PropOp48
 70
     0
102
RTVSPost2010Prop49
280
     0
102
RTVSPost2010PropOp49
 70
     0
102
RTVSPost2010Prop50
 90
       50
102
RTVSPost2010PropOp50
 70
     0
102
RTVSPost2010Prop51ColorIndex
 90
      256
102
RTVSPost2010Prop51ColorRGB
 90
-16777216
102
RTVSPost2010PropOp51
 70
     0
102
RTVSPost2010Prop52
140
1.0
102
RTVSPost2010PropOp52
 70
     0
102
RTVSPost2010Prop53
 90
        2
102
RTVSPost2010PropOp53
 70
     0
102
RTVSPost2010Prop54
  1
strokes_ogs.tif
102
RTVSPost2010PropOp54
 70
     0
102
RTVSPost2010Prop55
280
     0
102
RTVSPost2010PropOp55
 70
     0
102
RTVSPost2010Prop56
140
1.0
102
RTVSPost2010PropOp56
 70
     0
102
RTVSPost2010Prop57
140
1.0
102
RTVSPost2010PropOp57
 70
     0
  0
XRECORD
  5
171
102
{ACAD_REACTORS
330
170
102
}
330
170
100
AcDbXrecord
280
     1
102
RTVSPost2010Prop28
280
     0
102
RTVSPost2010PropOp28
 70
     1
102
RTVSPost2010Prop29
280
     1
102
RTVSPost2010PropOp29
 70
     1
102
RTVSPost2010Prop30
280
     1
102
RTVSPost2010PropOp30
 70
     1
102
RTVSPost2010Prop31
280
     0
102
RTVSPost2010PropOp31
 70
     1
102
RTVSPost2010Prop32
280
     0
102
RTVSPost2010PropOp32
 70
     1
102
RTVSPost2010Prop33
280
     0
102
RTVSPost2010PropOp33
 70
     1
102
RTVSPost2010Prop34
280
     0
102
RTVSPost2010PropOp34
 70
     1
102
RTVSPost2010Prop35
280
     0
102
RTVSPost2010PropOp35
 70
     1
102
RTVSPost2010Prop36
280
     0
102
RTVSPost2010PropOp36
 70
     1
102
RTVSPost2010Prop37
 90
       50
102
RTVSPost2010PropOp37
 70
     1
102
RTVSPost2010Prop38
140
0.0
102
RTVSPost2010PropOp38
 70
     1
102
RTVSPost2010Prop39
140
1.0
102
RTVSPost2010PropOp39
 70
     1
102
RTVSPost2010Prop40
 90
        0
102
RTVSPost2010PropOp40
 70
     1
102
RTVSPost2010Prop41ColorIndex
 90
       18
102
RTVSPost2010Prop41ColorRGB
 90
        0
102
RTVSPost2010PropOp41
 70
     1
102
RTVSPost2010Prop42
 90
       50
102
RTVSPost2010PropOp42
 70
     1
102
RTVSPost2010Prop43
 90
        3
102
RTVSPost2010PropOp43
 70
     1
102
RTVSPost2010Prop44ColorIndex
 90
        5
102
RTVSPost2010Prop44ColorRGB
 90
      255
102
RTVSPost2010PropOp44
 70
     1
102
RTVSPost2010Prop45
280
     0
102
RTVSPost2010PropOp45
 70
     1
102
RTVSPost2010Prop46
 90
       50
102
RTVSPost2010PropOp46
 70
     1
102
RTVSPost2010Prop47
 90
       50
102
RTVSPost2010PropOp47
 70
     1
102
RTVSPost2010Prop48
 90
       50
102
RTVSPost2010PropOp48
 70
     1
102
RTVSPost2010Prop49
280
     0
102
RTVSPost2010PropOp49
 70
     1
102
RTVSPost2010Prop50
 90
       50
102
RTVSPost2010PropOp50
 70
     1
102
RTVSPost2010Prop51ColorIndex
 90
      256
102
RTVSPost2010Prop51ColorRGB
 90
-16777216
102
RTVSPost2010PropOp51
 70
     0
102
RTVSPost2010Prop52
140
1.0
102
RTVSPost2010PropOp52
 70
     0
102
RTVSPost2010Prop53
 90
        2
102
RTVSPost2010PropOp53
 70
     1
102
RTVSPost2010Prop54
  1
strokes_ogs.tif
102
RTVSPost2010PropOp54
 70
     1
102
RTVSPost2010Prop55
280
     0
102
RTVSPost2010PropOp55
 70
     1
102
RTVSPost2010Prop56
140
1.0
102
RTVSPost2010PropOp56
 70
     1
102
RTVSPost2010Prop57
140
1.0
102
RTVSPost2010PropOp57
 70
     1
  0
XRECORD
  5
187
102
{ACAD_REACTORS
330
186
102
}
330
186
100
AcDbXrecord
280
     1
102
RTVSPost2010Prop28
280
     0
102
RTVSPost2010PropOp28
 70
     1
102
RTVSPost2010Prop29
280
     1
102
RTVSPost2010PropOp29
 70
     1
102
RTVSPost2010Prop30
280
     1
102
RTVSPost2010PropOp30
 70
     1
102
RTVSPost2010Prop31
280
     0
102
RTVSPost2010PropOp31
 70
     1
102
RTVSPost2010Prop32
280
     0
102
RTVSPost2010PropOp32
 70
     1
102
RTVSPost2010Prop33
280
     0
102
RTVSPost2010PropOp33
 70
     1
102
RTVSPost2010Prop34
280
     0
102
RTVSPost2010PropOp34
 70
     1
102
RTVSPost2010Prop35
280
     0
102
RTVSPost2010PropOp35
 70
     1
102
RTVSPost2010Prop36
280
     0
102
RTVSPost2010PropOp36
 70
     1
102
RTVSPost2010Prop37
 90
       50
102
RTVSPost2010PropOp37
 70
     1
102
RTVSPost2010Prop38
140
0.0
102
RTVSPost2010PropOp38
 70
     1
102
RTVSPost2010Prop39
140
1.0
102
RTVSPost2010PropOp39
 70
     1
102
RTVSPost2010Prop40
 90
        0
102
RTVSPost2010PropOp40
 70
     1
102
RTVSPost2010Prop41ColorIndex
 90
       18
102
RTVSPost2010Prop41ColorRGB
 90
        0
102
RTVSPost2010PropOp41
 70
     1
102
RTVSPost2010Prop42
 90
       50
102
RTVSPost2010PropOp42
 70
     1
102
RTVSPost2010Prop43
 90
        3
102
RTVSPost2010PropOp43
 70
     1
102
RTVSPost2010Prop44ColorIndex
 90
        5
102
RTVSPost2010Prop44ColorRGB
 90
      255
102
RTVSPost2010PropOp44
 70
     1
102
RTVSPost2010Prop45
280
     0
102
RTVSPost2010PropOp45
 70
     1
102
RTVSPost2010Prop46
 90
       50
102
RTVSPost2010PropOp46
 70
     1
102
RTVSPost2010Prop47
 90
       50
102
RTVSPost2010PropOp47
 70
     1
102
RTVSPost2010Prop48
 90
       50
102
RTVSPost2010PropOp48
 70
     1
102
RTVSPost2010Prop49
280
     0
102
RTVSPost2010PropOp49
 70
     1
102
RTVSPost2010Prop50
 90
       50
102
RTVSPost2010PropOp50
 70
     1
102
RTVSPost2010Prop51ColorIndex
 90
      256
102
RTVSPost2010Prop51ColorRGB
 90
-16777216
102
RTVSPost2010PropOp51
 70
     0
102
RTVSPost2010Prop52
140
1.0
102
RTVSPost2010PropOp52
 70
     0
102
RTVSPost2010Prop53
 90
        2
102
RTVSPost2010PropOp53
 70
     1
102
RTVSPost2010Prop54
  1
strokes_ogs.tif
102
RTVSPost2010PropOp54
 70
     1
102
RTVSPost2010Prop55
280
     0
102
RTVSPost2010PropOp55
 70
     1
102
RTVSPost2010Prop56
140
1.0
102
RTVSPost2010PropOp56
 70
     1
102
RTVSPost2010Prop57
140
1.0
102
RTVSPost2010PropOp57
 70
     1
  0
XRECORD
  5
185
102
{ACAD_REACTORS
330
184
102
}
330
184
100
AcDbXrecord
280
     1
102
RTVSPost2010Prop28
280
     0
102
RTVSPost2010PropOp28
 70
     1
102
RTVSPost2010Prop29
280
     1
102
RTVSPost2010PropOp29
 70
     1
102
RTVSPost2010Prop30
280
     1
102
RTVSPost2010PropOp30
 70
     1
102
RTVSPost2010Prop31
280
     0
102
RTVSPost2010PropOp31
 70
     1
102
RTVSPost2010Prop32
280
     0
102
RTVSPost2010PropOp32
 70
     1
102
RTVSPost2010Prop33
280
     0
102
RTVSPost2010PropOp33
 70
     1
102
RTVSPost2010Prop34
280
     0
102
RTVSPost2010PropOp34
 70
     1
102
RTVSPost2010Prop35
280
     0
102
RTVSPost2010PropOp35
 70
     1
102
RTVSPost2010Prop36
280
     0
102
RTVSPost2010PropOp36
 70
     1
102
RTVSPost2010Prop37
 90
       50
102
RTVSPost2010PropOp37
 70
     1
102
RTVSPost2010Prop38
140
0.0
102
RTVSPost2010PropOp38
 70
     1
102
RTVSPost2010Prop39
140
1.0
102
RTVSPost2010PropOp39
 70
     1
102
RTVSPost2010Prop40
 90
        0
102
RTVSPost2010PropOp40
 70
     1
102
RTVSPost2010Prop41ColorIndex
 90
       18
102
RTVSPost2010Prop41ColorRGB
 90
        0
102
RTVSPost2010PropOp41
 70
     1
102
RTVSPost2010Prop42
 90
       50
102
RTVSPost2010PropOp42
 70
     1
102
RTVSPost2010Prop43
 90
        3
102
RTVSPost2010PropOp43
 70
     1
102
RTVSPost2010Prop44ColorIndex
 90
        5
102
RTVSPost2010Prop44ColorRGB
 90
      255
102
RTVSPost2010PropOp44
 70
     1
102
RTVSPost2010Prop45
280
     0
102
RTVSPost2010PropOp45
 70
     1
102
RTVSPost2010Prop46
 90
       50
102
RTVSPost2010PropOp46
 70
     1
102
RTVSPost2010Prop47
 90
       50
102
RTVSPost2010PropOp47
 70
     1
102
RTVSPost2010Prop48
 90
       50
102
RTVSPost2010PropOp48
 70
     1
102
RTVSPost2010Prop49
280
     0
102
RTVSPost2010PropOp49
 70
     1
102
RTVSPost2010Prop50
 90
       50
102
RTVSPost2010PropOp50
 70
     1
102
RTVSPost2010Prop51ColorIndex
 90
      256
102
RTVSPost2010Prop51ColorRGB
 90
-16777216
102
RTVSPost2010PropOp51
 70
     0
102
RTVSPost2010Prop52
140
1.0
102
RTVSPost2010PropOp52
 70
     0
102
RTVSPost2010Prop53
 90
        2
102
RTVSPost2010PropOp53
 70
     1
102
RTVSPost2010Prop54
  1
strokes_ogs.tif
102
RTVSPost2010PropOp54
 70
     1
102
RTVSPost2010Prop55
280
     0
102
RTVSPost2010PropOp55
 70
     1
102
RTVSPost2010Prop56
140
1.0
102
RTVSPost2010PropOp56
 70
     1
102
RTVSPost2010Prop57
140
1.0
102
RTVSPost2010PropOp57
 70
     1
  0
XRECORD
  5
17F
102
{ACAD_REACTORS
330
17E
102
}
330
17E
100
AcDbXrecord
280
     1
102
RTVSPost2010Prop28
280
     0
102
RTVSPost2010PropOp28
 70
     1
102
RTVSPost2010Prop29
280
     1
102
RTVSPost2010PropOp29
 70
     1
102
RTVSPost2010Prop30
280
     1
102
RTVSPost2010PropOp30
 70
     1
102
RTVSPost2010Prop31
280
     0
102
RTVSPost2010PropOp31
 70
     1
102
RTVSPost2010Prop32
280
     0
102
RTVSPost2010PropOp32
 70
     1
102
RTVSPost2010Prop33
280
     0
102
RTVSPost2010PropOp33
 70
     1
102
RTVSPost2010Prop34
280
     0
102
RTVSPost2010PropOp34
 70
     1
102
RTVSPost2010Prop35
280
     0
102
RTVSPost2010PropOp35
 70
     1
102
RTVSPost2010Prop36
280
     0
102
RTVSPost2010PropOp36
 70
     1
102
RTVSPost2010Prop37
 90
       50
102
RTVSPost2010PropOp37
 70
     1
102
RTVSPost2010Prop38
140
0.0
102
RTVSPost2010PropOp38
 70
     1
102
RTVSPost2010Prop39
140
1.0
102
RTVSPost2010PropOp39
 70
     1
102
RTVSPost2010Prop40
 90
        0
102
RTVSPost2010PropOp40
 70
     1
102
RTVSPost2010Prop41ColorIndex
 90
       18
102
RTVSPost2010Prop41ColorRGB
 90
        0
102
RTVSPost2010PropOp41
 70
     1
102
RTVSPost2010Prop42
 90
       50
102
RTVSPost2010PropOp42
 70
     1
102
RTVSPost2010Prop43
 90
        3
102
RTVSPost2010PropOp43
 70
     1
102
RTVSPost2010Prop44ColorIndex
 90
        5
102
RTVSPost2010Prop44ColorRGB
 90
      255
102
RTVSPost2010PropOp44
 70
     1
102
RTVSPost2010Prop45
280
     0
102
RTVSPost2010PropOp45
 70
     1
102
RTVSPost2010Prop46
 90
       50
102
RTVSPost2010PropOp46
 70
     1
102
RTVSPost2010Prop47
 90
       50
102
RTVSPost2010PropOp47
 70
     1
102
RTVSPost2010Prop48
 90
       50
102
RTVSPost2010PropOp48
 70
     1
102
RTVSPost2010Prop49
280
     0
102
RTVSPost2010PropOp49
 70
     1
102
RTVSPost2010Prop50
 90
       50
102
RTVSPost2010PropOp50
 70
     1
102
RTVSPost2010Prop51ColorIndex
 90
      256
102
RTVSPost2010Prop51ColorRGB
 90
-16777216
102
RTVSPost2010PropOp51
 70
     0
102
RTVSPost2010Prop52
140
1.0
102
RTVSPost2010PropOp52
 70
     0
102
RTVSPost2010Prop53
 90
        2
102
RTVSPost2010PropOp53
 70
     1
102
RTVSPost2010Prop54
  1
strokes_ogs.tif
102
RTVSPost2010PropOp54
 70
     1
102
RTVSPost2010Prop55
280
     0
102
RTVSPost2010PropOp55
 70
     1
102
RTVSPost2010Prop56
140
1.0
102
RTVSPost2010PropOp56
 70
     1
102
RTVSPost2010Prop57
140
1.0
102
RTVSPost2010PropOp57
 70
     1
  0
XRECORD
  5
181
102
{ACAD_REACTORS
330
180
102
}
330
180
100
AcDbXrecord
280
     1
102
RTVSPost2010Prop28
280
     0
102
RTVSPost2010PropOp28
 70
     1
102
RTVSPost2010Prop29
280
     1
102
RTVSPost2010PropOp29
 70
     1
102
RTVSPost2010Prop30
280
     1
102
RTVSPost2010PropOp30
 70
     1
102
RTVSPost2010Prop31
280
     0
102
RTVSPost2010PropOp31
 70
     1
102
RTVSPost2010Prop32
280
     0
102
RTVSPost2010PropOp32
 70
     1
102
RTVSPost2010Prop33
280
     0
102
RTVSPost2010PropOp33
 70
     1
102
RTVSPost2010Prop34
280
     0
102
RTVSPost2010PropOp34
 70
     1
102
RTVSPost2010Prop35
280
     0
102
RTVSPost2010PropOp35
 70
     1
102
RTVSPost2010Prop36
280
     0
102
RTVSPost2010PropOp36
 70
     1
102
RTVSPost2010Prop37
 90
       50
102
RTVSPost2010PropOp37
 70
     1
102
RTVSPost2010Prop38
140
0.0
102
RTVSPost2010PropOp38
 70
     1
102
RTVSPost2010Prop39
140
1.0
102
RTVSPost2010PropOp39
 70
     1
102
RTVSPost2010Prop40
 90
        0
102
RTVSPost2010PropOp40
 70
     1
102
RTVSPost2010Prop41ColorIndex
 90
       18
102
RTVSPost2010Prop41ColorRGB
 90
        0
102
RTVSPost2010PropOp41
 70
     1
102
RTVSPost2010Prop42
 90
       50
102
RTVSPost2010PropOp42
 70
     1
102
RTVSPost2010Prop43
 90
        3
102
RTVSPost2010PropOp43
 70
     1
102
RTVSPost2010Prop44ColorIndex
 90
        5
102
RTVSPost2010Prop44ColorRGB
 90
      255
102
RTVSPost2010PropOp44
 70
     1
102
RTVSPost2010Prop45
280
     0
102
RTVSPost2010PropOp45
 70
     1
102
RTVSPost2010Prop46
 90
       50
102
RTVSPost2010PropOp46
 70
     1
102
RTVSPost2010Prop47
 90
       50
102
RTVSPost2010PropOp47
 70
     1
102
RTVSPost2010Prop48
 90
       50
102
RTVSPost2010PropOp48
 70
     1
102
RTVSPost2010Prop49
280
     0
102
RTVSPost2010PropOp49
 70
     1
102
RTVSPost2010Prop50
 90
       50
102
RTVSPost2010PropOp50
 70
     1
102
RTVSPost2010Prop51ColorIndex
 90
      256
102
RTVSPost2010Prop51ColorRGB
 90
-16777216
102
RTVSPost2010PropOp51
 70
     0
102
RTVSPost2010Prop52
140
1.0
102
RTVSPost2010PropOp52
 70
     0
102
RTVSPost2010Prop53
 90
        2
102
RTVSPost2010PropOp53
 70
     1
102
RTVSPost2010Prop54
  1
strokes_ogs.tif
102
RTVSPost2010PropOp54
 70
     1
102
RTVSPost2010Prop55
280
     0
102
RTVSPost2010PropOp55
 70
     1
102
RTVSPost2010Prop56
140
1.0
102
RTVSPost2010PropOp56
 70
     1
102
RTVSPost2010Prop57
140
1.0
102
RTVSPost2010PropOp57
 70
     1
  0
XRECORD
  5
177
102
{ACAD_REACTORS
330
176
102
}
330
176
100
AcDbXrecord
280
     1
102
RTVSPost2010Prop28
280
     0
102
RTVSPost2010PropOp28
 70
     1
102
RTVSPost2010Prop29
280
     1
102
RTVSPost2010PropOp29
 70
     1
102
RTVSPost2010Prop30
280
     1
102
RTVSPost2010PropOp30
 70
     1
102
RTVSPost2010Prop31
280
     0
102
RTVSPost2010PropOp31
 70
     1
102
RTVSPost2010Prop32
280
     0
102
RTVSPost2010PropOp32
 70
     1
102
RTVSPost2010Prop33
280
     0
102
RTVSPost2010PropOp33
 70
     1
102
RTVSPost2010Prop34
280
     0
102
RTVSPost2010PropOp34
 70
     1
102
RTVSPost2010Prop35
280
     0
102
RTVSPost2010PropOp35
 70
     1
102
RTVSPost2010Prop36
280
     0
102
RTVSPost2010PropOp36
 70
     1
102
RTVSPost2010Prop37
 90
       50
102
RTVSPost2010PropOp37
 70
     1
102
RTVSPost2010Prop38
140
0.0
102
RTVSPost2010PropOp38
 70
     1
102
RTVSPost2010Prop39
140
1.0
102
RTVSPost2010PropOp39
 70
     1
102
RTVSPost2010Prop40
 90
        0
102
RTVSPost2010PropOp40
 70
     1
102
RTVSPost2010Prop41ColorIndex
 90
       18
102
RTVSPost2010Prop41ColorRGB
 90
        0
102
RTVSPost2010PropOp41
 70
     1
102
RTVSPost2010Prop42
 90
       50
102
RTVSPost2010PropOp42
 70
     1
102
RTVSPost2010Prop43
 90
        3
102
RTVSPost2010PropOp43
 70
     1
102
RTVSPost2010Prop44ColorIndex
 90
        5
102
RTVSPost2010Prop44ColorRGB
 90
      255
102
RTVSPost2010PropOp44
 70
     1
102
RTVSPost2010Prop45
280
     0
102
RTVSPost2010PropOp45
 70
     1
102
RTVSPost2010Prop46
 90
       50
102
RTVSPost2010PropOp46
 70
     1
102
RTVSPost2010Prop47
 90
       50
102
RTVSPost2010PropOp47
 70
     1
102
RTVSPost2010Prop48
 90
       50
102
RTVSPost2010PropOp48
 70
     1
102
RTVSPost2010Prop49
280
     0
102
RTVSPost2010PropOp49
 70
     1
102
RTVSPost2010Prop50
 90
       50
102
RTVSPost2010PropOp50
 70
     1
102
RTVSPost2010Prop51ColorIndex
 90
      256
102
RTVSPost2010Prop51ColorRGB
 90
-16777216
102
RTVSPost2010PropOp51
 70
     0
102
RTVSPost2010Prop52
140
1.0
102
RTVSPost2010PropOp52
 70
     0
102
RTVSPost2010Prop53
 90
        2
102
RTVSPost2010PropOp53
 70
     1
102
RTVSPost2010Prop54
  1
strokes_ogs.tif
102
RTVSPost2010PropOp54
 70
     1
102
RTVSPost2010Prop55
280
     0
102
RTVSPost2010PropOp55
 70
     1
102
RTVSPost2010Prop56
140
1.0
102
RTVSPost2010PropOp56
 70
     1
102
RTVSPost2010Prop57
140
1.0
102
RTVSPost2010PropOp57
 70
     1
  0
XRECORD
  5
16B
102
{ACAD_REACTORS
330
16A
102
}
330
16A
100
AcDbXrecord
280
     1
102
RTVSPost2010Prop28
280
     0
102
RTVSPost2010PropOp28
 70
     1
102
RTVSPost2010Prop29
280
     1
102
RTVSPost2010PropOp29
 70
     1
102
RTVSPost2010Prop30
280
     1
102
RTVSPost2010PropOp30
 70
     1
102
RTVSPost2010Prop31
280
     0
102
RTVSPost2010PropOp31
 70
     1
102
RTVSPost2010Prop32
280
     0
102
RTVSPost2010PropOp32
 70
     1
102
RTVSPost2010Prop33
280
     0
102
RTVSPost2010PropOp33
 70
     1
102
RTVSPost2010Prop34
280
     0
102
RTVSPost2010PropOp34
 70
     1
102
RTVSPost2010Prop35
280
     0
102
RTVSPost2010PropOp35
 70
     1
102
RTVSPost2010Prop36
280
     0
102
RTVSPost2010PropOp36
 70
     1
102
RTVSPost2010Prop37
 90
       50
102
RTVSPost2010PropOp37
 70
     1
102
RTVSPost2010Prop38
140
0.0
102
RTVSPost2010PropOp38
 70
     1
102
RTVSPost2010Prop39
140
1.0
102
RTVSPost2010PropOp39
 70
     1
102
RTVSPost2010Prop40
 90
        0
102
RTVSPost2010PropOp40
 70
     1
102
RTVSPost2010Prop41ColorIndex
 90
       18
102
RTVSPost2010Prop41ColorRGB
 90
        0
102
RTVSPost2010PropOp41
 70
     1
102
RTVSPost2010Prop42
 90
       50
102
RTVSPost2010PropOp42
 70
     1
102
RTVSPost2010Prop43
 90
        3
102
RTVSPost2010PropOp43
 70
     1
102
RTVSPost2010Prop44ColorIndex
 90
        5
102
RTVSPost2010Prop44ColorRGB
 90
      255
102
RTVSPost2010PropOp44
 70
     1
102
RTVSPost2010Prop45
280
     0
102
RTVSPost2010PropOp45
 70
     1
102
RTVSPost2010Prop46
 90
       50
102
RTVSPost2010PropOp46
 70
     1
102
RTVSPost2010Prop47
 90
       50
102
RTVSPost2010PropOp47
 70
     1
102
RTVSPost2010Prop48
 90
       50
102
RTVSPost2010PropOp48
 70
     1
102
RTVSPost2010Prop49
280
     0
102
RTVSPost2010PropOp49
 70
     1
102
RTVSPost2010Prop50
 90
       50
102
RTVSPost2010PropOp50
 70
     1
102
RTVSPost2010Prop51ColorIndex
 90
      256
102
RTVSPost2010Prop51ColorRGB
 90
-16777216
102
RTVSPost2010PropOp51
 70
     0
102
RTVSPost2010Prop52
140
1.0
102
RTVSPost2010PropOp52
 70
     0
102
RTVSPost2010Prop53
 90
        2
102
RTVSPost2010PropOp53
 70
     1
102
RTVSPost2010Prop54
  1
strokes_ogs.tif
102
RTVSPost2010PropOp54
 70
     1
102
RTVSPost2010Prop55
280
     0
102
RTVSPost2010PropOp55
 70
     1
102
RTVSPost2010Prop56
140
1.0
102
RTVSPost2010PropOp56
 70
     1
102
RTVSPost2010Prop57
140
1.0
102
RTVSPost2010PropOp57
 70
     1
  0
XRECORD
  5
183
102
{ACAD_REACTORS
330
182
102
}
330
182
100
AcDbXrecord
280
     1
102
RTVSPost2010Prop28
280
     0
102
RTVSPost2010PropOp28
 70
     1
102
RTVSPost2010Prop29
280
     1
102
RTVSPost2010PropOp29
 70
     1
102
RTVSPost2010Prop30
280
     1
102
RTVSPost2010PropOp30
 70
     1
102
RTVSPost2010Prop31
280
     0
102
RTVSPost2010PropOp31
 70
     1
102
RTVSPost2010Prop32
280
     0
102
RTVSPost2010PropOp32
 70
     1
102
RTVSPost2010Prop33
280
     0
102
RTVSPost2010PropOp33
 70
     1
102
RTVSPost2010Prop34
280
     0
102
RTVSPost2010PropOp34
 70
     1
102
RTVSPost2010Prop35
280
     0
102
RTVSPost2010PropOp35
 70
     1
102
RTVSPost2010Prop36
280
     0
102
RTVSPost2010PropOp36
 70
     1
102
RTVSPost2010Prop37
 90
       50
102
RTVSPost2010PropOp37
 70
     1
102
RTVSPost2010Prop38
140
0.0
102
RTVSPost2010PropOp38
 70
     1
102
RTVSPost2010Prop39
140
1.0
102
RTVSPost2010PropOp39
 70
     1
102
RTVSPost2010Prop40
 90
        0
102
RTVSPost2010PropOp40
 70
     1
102
RTVSPost2010Prop41ColorIndex
 90
       18
102
RTVSPost2010Prop41ColorRGB
 90
        0
102
RTVSPost2010PropOp41
 70
     1
102
RTVSPost2010Prop42
 90
       50
102
RTVSPost2010PropOp42
 70
     1
102
RTVSPost2010Prop43
 90
        3
102
RTVSPost2010PropOp43
 70
     1
102
RTVSPost2010Prop44ColorIndex
 90
        5
102
RTVSPost2010Prop44ColorRGB
 90
      255
102
RTVSPost2010PropOp44
 70
     1
102
RTVSPost2010Prop45
280
     0
102
RTVSPost2010PropOp45
 70
     1
102
RTVSPost2010Prop46
 90
       50
102
RTVSPost2010PropOp46
 70
     1
102
RTVSPost2010Prop47
 90
       50
102
RTVSPost2010PropOp47
 70
     1
102
RTVSPost2010Prop48
 90
       50
102
RTVSPost2010PropOp48
 70
     1
102
RTVSPost2010Prop49
280
     0
102
RTVSPost2010PropOp49
 70
     1
102
RTVSPost2010Prop50
 90
       50
102
RTVSPost2010PropOp50
 70
     1
102
RTVSPost2010Prop51ColorIndex
 90
      256
102
RTVSPost2010Prop51ColorRGB
 90
-16777216
102
RTVSPost2010PropOp51
 70
     0
102
RTVSPost2010Prop52
140
1.0
102
RTVSPost2010PropOp52
 70
     0
102
RTVSPost2010Prop53
 90
        2
102
RTVSPost2010PropOp53
 70
     1
102
RTVSPost2010Prop54
  1
strokes_ogs.tif
102
RTVSPost2010PropOp54
 70
     1
102
RTVSPost2010Prop55
280
     0
102
RTVSPost2010PropOp55
 70
     1
102
RTVSPost2010Prop56
140
1.0
102
RTVSPost2010PropOp56
 70
     1
102
RTVSPost2010Prop57
140
1.0
102
RTVSPost2010PropOp57
 70
     1
  0
ENDSEC
  0
EOF
