  0
SECTION
  2
HEADER
  9
$ACADVER
  1
AC1024
  9
$ACADMAINTVER
 70
   205
  9
$DWGCODEPAGE
  3
ANSI_1251
  9
$INSBASE
 10
0.0
 20
0.0
 30
0.0
  9
$EXTMIN
 10
1.000000000000000E+20
 20
1.000000000000000E+20
 30
1.000000000000000E+20
  9
$EXTMAX
 10
-1.000000000000000E+20
 20
-1.000000000000000E+20
 30
-1.000000000000000E+20
  9
$LIMMIN
 10
0.0
 20
0.0
  9
$LIMMAX
 10
12.0
 20
9.0
  9
$ORTHOMODE
 70
     0
  9
$REGENMODE
 70
     1
  9
$FILLMODE
 70
     1
  9
$QTEXTMODE
 70
     0
  9
$MIRRTEXT
 70
     1
  9
$LTSCALE
 40
1.0
  9
$ATTMODE
 70
     1
  9
$TEXTSIZE
 40
0.2
  9
$TRACEWID
 40
0.05
  9
$TEXTSTYLE
  7
Standard
  9
$CLAYER
  8
OracDecor_cornice_mouldings
  9
$CELTYPE
  6
ByLayer
  9
$CECOLOR
 62
   256
  9
$CELTSCALE
 40
1.0
  9
$DISPSILH
 70
     0
  9
$DIMSCALE
 40
1.0
  9
$DIMASZ
 40
0.18
  9
$DIMEXO
 40
0.0625
  9
$DIMDLI
 40
0.38
  9
$DIMRND
 40
0.0
  9
$DIMDLE
 40
0.0
  9
$DIMEXE
 40
0.18
  9
$DIMTP
 40
0.0
  9
$DIMTM
 40
0.0
  9
$DIMTXT
 40
0.18
  9
$DIMCEN
 40
0.09
  9
$DIMTSZ
 40
0.0
  9
$DIMTOL
 70
     0
  9
$DIMLIM
 70
     0
  9
$DIMTIH
 70
     1
  9
$DIMTOH
 70
     1
  9
$DIMSE1
 70
     0
  9
$DIMSE2
 70
     0
  9
$DIMTAD
 70
     0
  9
$DIMZIN
 70
     0
  9
$DIMBLK
  1

  9
$DIMASO
 70
     1
  9
$DIMSHO
 70
     1
  9
$DIMPOST
  1

  9
$DIMAPOST
  1

  9
$DIMALT
 70
     0
  9
$DIMALTD
 70
     2
  9
$DIMALTF
 40
25.4
  9
$DIMLFAC
 40
1.0
  9
$DIMTOFL
 70
     0
  9
$DIMTVP
 40
0.0
  9
$DIMTIX
 70
     0
  9
$DIMSOXD
 70
     0
  9
$DIMSAH
 70
     0
  9
$DIMBLK1
  1

  9
$DIMBLK2
  1

  9
$DIMSTYLE
  2
Standard
  9
$DIMCLRD
 70
     0
  9
$DIMCLRE
 70
     0
  9
$DIMCLRT
 70
     0
  9
$DIMTFAC
 40
1.0
  9
$DIMGAP
 40
0.09
  9
$DIMJUST
 70
     0
  9
$DIMSD1
 70
     0
  9
$DIMSD2
 70
     0
  9
$DIMTOLJ
 70
     1
  9
$DIMTZIN
 70
     0
  9
$DIMALTZ
 70
     0
  9
$DIMALTTZ
 70
     0
  9
$DIMUPT
 70
     0
  9
$DIMDEC
 70
     4
  9
$DIMTDEC
 70
     4
  9
$DIMALTU
 70
     2
  9
$DIMALTTD
 70
     2
  9
$DIMTXSTY
  7
Standard
  9
$DIMAUNIT
 70
     0
  9
$DIMADEC
 70
     0
  9
$DIMALTRND
 40
0.0
  9
$DIMAZIN
 70
     0
  9
$DIMDSEP
 70
    46
  9
$DIMATFIT
 70
     3
  9
$DIMFRAC
 70
     0
  9
$DIMLDRBLK
  1

  9
$DIMLUNIT
 70
     2
  9
$DIMLWD
 70
    -2
  9
$DIMLWE
 70
    -2
  9
$DIMTMOVE
 70
     0
  9
$DIMFXL
 40
1.0
  9
$DIMFXLON
 70
     0
  9
$DIMJOGANG
 40
0.7853981633974483
  9
$DIMTFILL
 70
     0
  9
$DIMTFILLCLR
 70
     0
  9
$DIMARCSYM
 70
     0
  9
$DIMLTYPE
  6

  9
$DIMLTEX1
  6

  9
$DIMLTEX2
  6

  9
$DIMTXTDIRECTION
 70
     0
  9
$LUNITS
 70
     2
  9
$LUPREC
 70
     4
  9
$SKETCHINC
 40
0.1
  9
$FILLETRAD
 40
0.5
  9
$AUNITS
 70
     0
  9
$AUPREC
 70
     0
  9
$MENU
  1
.
  9
$ELEVATION
 40
0.0
  9
$PELEVATION
 40
0.0
  9
$THICKNESS
 40
0.0
  9
$LIMCHECK
 70
     0
  9
$CHAMFERA
 40
0.5
  9
$CHAMFERB
 40
0.5
  9
$CHAMFERC
 40
1.0
  9
$CHAMFERD
 40
0.0
  9
$SKPOLY
 70
     0
  9
$TDCREATE
 40
2451380.930432396
  9
$TDUCREATE
 40
2451380.805432396
  9
$TDUPDATE
 40
2451380.966180555
  9
$TDUUPDATE
 40
2451380.841180556
  9
$TDINDWG
 40
0.0075632292
  9
$TDUSRTIMER
 40
0.0075541898
  9
$USRTIMER
 70
     1
  9
$ANGBASE
 50
0.0
  9
$ANGDIR
 70
     0
  9
$PDMODE
 70
     0
  9
$PDSIZE
 40
0.0
  9
$PLINEWID
 40
0.0
  9
$SPLFRAME
 70
     0
  9
$SPLINETYPE
 70
     6
  9
$SPLINESEGS
 70
     8
  9
$HANDSEED
  5
180
  9
$SURFTAB1
 70
     6
  9
$SURFTAB2
 70
     6
  9
$SURFTYPE
 70
     6
  9
$SURFU
 70
     6
  9
$SURFV
 70
     6
  9
$UCSBASE
  2

  9
$UCSNAME
  2

  9
$UCSORG
 10
0.0
 20
0.0
 30
0.0
  9
$UCSXDIR
 10
1.0
 20
0.0
 30
0.0
  9
$UCSYDIR
 10
0.0
 20
1.0
 30
0.0
  9
$UCSORTHOREF
  2

  9
$UCSORTHOVIEW
 70
     0
  9
$UCSORGTOP
 10
0.0
 20
0.0
 30
0.0
  9
$UCSORGBOTTOM
 10
0.0
 20
0.0
 30
0.0
  9
$UCSORGLEFT
 10
0.0
 20
0.0
 30
0.0
  9
$UCSORGRIGHT
 10
0.0
 20
0.0
 30
0.0
  9
$UCSORGFRONT
 10
0.0
 20
0.0
 30
0.0
  9
$UCSORGBACK
 10
0.0
 20
0.0
 30
0.0
  9
$PUCSBASE
  2

  9
$PUCSNAME
  2

  9
$PUCSORG
 10
0.0
 20
0.0
 30
0.0
  9
$PUCSXDIR
 10
1.0
 20
0.0
 30
0.0
  9
$PUCSYDIR
 10
0.0
 20
1.0
 30
0.0
  9
$PUCSORTHOREF
  2

  9
$PUCSORTHOVIEW
 70
     0
  9
$PUCSORGTOP
 10
0.0
 20
0.0
 30
0.0
  9
$PUCSORGBOTTOM
 10
0.0
 20
0.0
 30
0.0
  9
$PUCSORGLEFT
 10
0.0
 20
0.0
 30
0.0
  9
$PUCSORGRIGHT
 10
0.0
 20
0.0
 30
0.0
  9
$PUCSORGFRONT
 10
0.0
 20
0.0
 30
0.0
  9
$PUCSORGBACK
 10
0.0
 20
0.0
 30
0.0
  9
$USERI1
 70
     0
  9
$USERI2
 70
     0
  9
$USERI3
 70
     0
  9
$USERI4
 70
     0
  9
$USERI5
 70
     0
  9
$USERR1
 40
0.0
  9
$USERR2
 40
0.0
  9
$USERR3
 40
0.0
  9
$USERR4
 40
0.0
  9
$USERR5
 40
0.0
  9
$WORLDVIEW
 70
     1
  9
$SHADEDGE
 70
     3
  9
$SHADEDIF
 70
    70
  9
$TILEMODE
 70
     1
  9
$MAXACTVP
 70
    64
  9
$PINSBASE
 10
0.0
 20
0.0
 30
0.0
  9
$PLIMCHECK
 70
     0
  9
$PEXTMIN
 10
1.000000000000000E+20
 20
1.000000000000000E+20
 30
1.000000000000000E+20
  9
$PEXTMAX
 10
-1.000000000000000E+20
 20
-1.000000000000000E+20
 30
-1.000000000000000E+20
  9
$PLIMMIN
 10
0.0
 20
0.0
  9
$PLIMMAX
 10
12.0
 20
9.0
  9
$UNITMODE
 70
     0
  9
$VISRETAIN
 70
     1
  9
$PLINEGEN
 70
     0
  9
$PSLTSCALE
 70
     1
  9
$TREEDEPTH
 70
  3020
  9
$CMLSTYLE
  2
Standard
  9
$CMLJUST
 70
     0
  9
$CMLSCALE
 40
1.0
  9
$PROXYGRAPHICS
 70
     1
  9
$MEASUREMENT
 70
     1
  9
$CELWEIGHT
370
    -1
  9
$ENDCAPS
280
     0
  9
$JOINSTYLE
280
     0
  9
$LWDISPLAY
290
     0
  9
$INSUNITS
 70
     4
  9
$HYPERLINKBASE
  1

  9
$STYLESHEET
  1

  9
$XEDIT
290
     1
  9
$CEPSNTYPE
380
     0
  9
$PSTYLEMODE
290
     1
  9
$FINGERPRINTGUID
  2
{12F50282-3ED8-11D3-A8B7-0060B0F84BC6}
  9
$VERSIONGUID
  2
{12F50293-3ED8-11D3-A8B7-0060B0F84BC6}
  9
$EXTNAMES
290
     1
  9
$PSVPSCALE
 40
0.0
  9
$OLESTARTUP
290
     0
  9
$SORTENTS
280
   127
  9
$INDEXCTL
280
     0
  9
$HIDETEXT
280
     0
  9
$XCLIPFRAME
280
     2
  9
$HALOGAP
280
     0
  9
$OBSCOLOR
 70
   257
  9
$OBSLTYPE
280
     0
  9
$INTERSECTIONDISPLAY
280
     0
  9
$INTERSECTIONCOLOR
 70
   257
  9
$DIMASSOC
280
     1
  9
$PROJECTNAME
  1

  9
$CAMERADISPLAY
290
     0
  9
$LENSLENGTH
 40
50.0
  9
$CAMERAHEIGHT
 40
0.0
  9
$STEPSPERSEC
 40
2.0
  9
$STEPSIZE
 40
6.0
  9
$3DDWFPREC
 40
2.0
  9
$PSOLWIDTH
 40
0.25
  9
$PSOLHEIGHT
 40
4.0
  9
$LOFTANG1
 40
1.570796326794896
  9
$LOFTANG2
 40
1.570796326794896
  9
$LOFTMAG1
 40
0.0
  9
$LOFTMAG2
 40
0.0
  9
$LOFTPARAM
 70
     7
  9
$LOFTNORMALS
280
     1
  9
$LATITUDE
 40
37.795
  9
$LONGITUDE
 40
-122.394
  9
$NORTHDIRECTION
 40
0.0
  9
$TIMEZONE
 70
 -8000
  9
$LIGHTGLYPHDISPLAY
280
     1
  9
$TILEMODELIGHTSYNCH
280
     1
  9
$CMATERIAL
347
AB
  9
$SOLIDHIST
280
     0
  9
$SHOWHIST
280
     1
  9
$DWFFRAME
280
     2
  9
$DGNFRAME
280
     0
  9
$REALWORLDSCALE
290
     1
  9
$INTERFERECOLOR
 62
     1
  9
$INTERFEREOBJVS
345
CD
  9
$INTERFEREVPVS
346
CA
  9
$CSHADOW
280
     0
  9
$SHADOWPLANELOCATION
 40
0.0
  0
ENDSEC
  0
SECTION
  2
CLASSES
  0
CLASS
  1
ACDBDICTIONARYWDFLT
  2
AcDbDictionaryWithDefault
  3
ObjectDBX Classes
 90
        0
 91
        1
280
     0
281
     0
  0
CLASS
  1
ACDBPLACEHOLDER
  2
AcDbPlaceHolder
  3
ObjectDBX Classes
 90
        0
 91
        2
280
     0
281
     0
  0
CLASS
  1
LAYOUT
  2
AcDbLayout
  3
ObjectDBX Classes
 90
        0
 91
        3
280
     0
281
     0
  0
CLASS
  1
MATERIAL
  2
AcDbMaterial
  3
ObjectDBX Classes
 90
     1153
 91
        3
280
     0
281
     0
  0
CLASS
  1
VISUALSTYLE
  2
AcDbVisualStyle
  3
ObjectDBX Classes
 90
     4095
 91
       24
280
     0
281
     0
  0
CLASS
  1
TABLESTYLE
  2
AcDbTableStyle
  3
ObjectDBX Classes
 90
     4095
 91
        1
280
     0
281
     0
  0
CLASS
  1
SCALE
  2
AcDbScale
  3
ObjectDBX Classes
 90
     1153
 91
       17
280
     0
281
     0
  0
CLASS
  1
MLEADERSTYLE
  2
AcDbMLeaderStyle
  3
ACDB_MLEADERSTYLE_CLASS
 90
     4095
 91
        1
280
     0
281
     0
  0
CLASS
  1
ACDBSECTIONVIEWSTYLE
  2
AcDbSectionViewStyle
  3
ObjectDBX Classes
 90
     1025
 91
        1
280
     0
281
     0
  0
CLASS
  1
ACDBDETAILVIEWSTYLE
  2
AcDbDetailViewStyle
  3
ObjectDBX Classes
 90
     1025
 91
        1
280
     0
281
     0
  0
CLASS
  1
MESH
  2
AcDbSubDMesh
  3
ObjectDBX Classes
 90
        0
 91
        1
280
     0
281
     1
  0
CLASS
  1
DICTIONARYVAR
  2
AcDbDictionaryVar
  3
ObjectDBX Classes
 90
        0
 91
        9
280
     0
281
     0
  0
CLASS
  1
CELLSTYLEMAP
  2
AcDbCellStyleMap
  3
ObjectDBX Classes
 90
     1152
 91
        1
280
     0
281
     0
  0
ENDSEC
  0
SECTION
  2
TABLES
  0
TABLE
  2
VPORT
  5
8
330
0
100
AcDbSymbolTable
 70
     1
  0
VPORT
  5
A8
330
8
100
AcDbSymbolTableRecord
100
AcDbViewportTableRecord
  2
*Active
 70
     0
 10
0.0
 20
0.0
 11
1.0
 21
1.0
 12
-0.0000431583757745
 22
-38.37559890747071
 13
0.0
 23
0.0
 14
0.5
 24
0.5
 15
0.5
 25
0.5
 16
-1.0
 26
-1.0
 36
1.0
 17
0.0
 27
0.0
 37
0.0
 40
1188.001346559777
 41
1.59500216513289
 42
50.0
 43
0.0
 44
0.0
 50
0.0
 51
0.0
 71
     0
 72
   100
 73
     1
 74
     3
 75
     0
 76
     0
 77
     0
 78
     0
281
     0
 65
     1
110
0.0
120
0.0
130
0.0
111
1.0
121
0.0
131
0.0
112
0.0
122
1.0
132
0.0
 79
     0
146
0.0
348
C9
 60
     3
 61
     5
292
     1
282
     1
141
0.0
142
0.0
 63
   250
421
  3355443
  0
ENDTAB
  0
TABLE
  2
LTYPE
  5
5
330
0
100
AcDbSymbolTable
 70
     1
  0
LTYPE
  5
14
330
5
100
AcDbSymbolTableRecord
100
AcDbLinetypeTableRecord
  2
ByBlock
 70
     0
  3

 72
    65
 73
     0
 40
0.0
  0
LTYPE
  5
15
330
5
100
AcDbSymbolTableRecord
100
AcDbLinetypeTableRecord
  2
ByLayer
 70
     0
  3

 72
    65
 73
     0
 40
0.0
  0
LTYPE
  5
16
330
5
100
AcDbSymbolTableRecord
100
AcDbLinetypeTableRecord
  2
Continuous
 70
     0
  3
Solid line
 72
    65
 73
     0
 40
0.0
  0
ENDTAB
  0
TABLE
  2
LAYER
  5
2
330
0
100
AcDbSymbolTable
 70
     3
  0
LAYER
  5
10
330
2
100
AcDbSymbolTableRecord
100
AcDbLayerTableRecord
  2
0
 70
     0
 62
     7
  6
Continuous
370
    -3
390
F
347
BB
  0
LAYER
  5
2B
330
2
100
AcDbSymbolTableRecord
100
AcDbLayerTableRecord
  2
ASHADE
 70
     4
 62
     7
  6
Continuous
370
    -3
390
2D
347
BB
  0
LAYER
  5
F8
330
2
100
AcDbSymbolTableRecord
100
AcDbLayerTableRecord
  2
OracDecor_cornice_mouldings
 70
     0
 62
    36
420
  8862472
  6
Continuous
370
    -3
390
F
347
BB
  0
ENDTAB
  0
TABLE
  2
STYLE
  5
3
330
0
100
AcDbSymbolTable
 70
     2
  0
STYLE
  5
11
330
3
100
AcDbSymbolTableRecord
100
AcDbTextStyleTableRecord
  2
Standard
 70
     0
 40
0.0
 41
1.0
 50
0.0
 71
     0
 42
0.2
  3
txt
  4

  0
STYLE
  5
2C
330
3
100
AcDbSymbolTableRecord
100
AcDbTextStyleTableRecord
  2
ASHADE
 70
     0
 40
0.2
 41
1.0
 50
0.0
 71
     0
 42
0.2
  3
simplex
  4

  0
ENDTAB
  0
TABLE
  2
VIEW
  5
6
330
0
100
AcDbSymbolTable
 70
     0
  0
ENDTAB
  0
TABLE
  2
UCS
  5
7
330
0
100
AcDbSymbolTable
 70
     0
  0
ENDTAB
  0
TABLE
  2
APPID
  5
9
330
0
100
AcDbSymbolTable
 70
     6
  0
APPID
  5
12
330
9
100
AcDbSymbolTableRecord
100
AcDbRegAppTableRecord
  2
ACAD
 70
     0
  0
APPID
  5
8F
330
9
100
AcDbSymbolTableRecord
100
AcDbRegAppTableRecord
  2
AVE_RENDER
 70
     0
  0
APPID
  5
90
330
9
100
AcDbSymbolTableRecord
100
AcDbRegAppTableRecord
  2
AVE_ENTITY_MATERIAL
 70
     0
  0
APPID
  5
9C
330
9
100
AcDbSymbolTableRecord
100
AcDbRegAppTableRecord
  2
AVE_FINISH
 70
     0
  0
APPID
  5
9D
330
9
100
AcDbSymbolTableRecord
100
AcDbRegAppTableRecord
  2
AVE_MATERIAL
 70
     0
  0
APPID
  5
9E
330
9
100
AcDbSymbolTableRecord
100
AcDbRegAppTableRecord
  2
AVE_GLOBAL
 70
     0
  0
ENDTAB
  0
TABLE
  2
DIMSTYLE
  5
A
330
0
100
AcDbSymbolTable
 70
     1
100
AcDbDimStyleTable
 71
     0
  0
DIMSTYLE
105
27
330
A
100
AcDbSymbolTableRecord
100
AcDbDimStyleTableRecord
  2
Standard
 70
     0
340
11
  0
ENDTAB
  0
TABLE
  2
BLOCK_RECORD
  5
1
330
0
100
AcDbSymbolTable
 70
     6
  0
BLOCK_RECORD
  5
1F
330
1
100
AcDbSymbolTableRecord
100
AcDbBlockTableRecord
  2
*Model_Space
340
22
 70
     0
280
     1
281
     0
  0
BLOCK_RECORD
  5
1B
330
1
100
AcDbSymbolTableRecord
100
AcDbBlockTableRecord
  2
*Paper_Space
340
1E
 70
     0
280
     1
281
     0
  0
BLOCK_RECORD
  5
23
330
1
100
AcDbSymbolTableRecord
100
AcDbBlockTableRecord
  2
*Paper_Space0
340
26
 70
     0
280
     1
281
     0
  0
BLOCK_RECORD
  5
2E
330
1
100
AcDbSymbolTableRecord
100
AcDbBlockTableRecord
  2
direct
340
0
 70
     0
280
     1
281
     0
  0
BLOCK_RECORD
  5
42
330
1
100
AcDbSymbolTableRecord
100
AcDbBlockTableRecord
  2
overhead
340
0
 70
     0
280
     1
281
     0
  0
BLOCK_RECORD
  5
5F
330
1
100
AcDbSymbolTableRecord
100
AcDbBlockTableRecord
  2
sh_spot
340
0
 70
     0
280
     1
281
     0
  0
BLOCK_RECORD
  5
91
330
1
100
AcDbSymbolTableRecord
100
AcDbBlockTableRecord
  2
AVE_RENDER
340
0
102
{BLKREFS
331
94
331
95
331
96
331
97
331
98
331
99
331
9A
331
9B
102
}
 70
     0
280
     1
281
     0
  0
BLOCK_RECORD
  5
9F
330
1
100
AcDbSymbolTableRecord
100
AcDbBlockTableRecord
  2
AVE_GLOBAL
340
0
102
{BLKREFS
331
A2
102
}
 70
     0
280
     1
281
     0
  0
ENDTAB
  0
ENDSEC
  0
SECTION
  2
BLOCKS
  0
BLOCK
  5
20
330
1F
100
AcDbEntity
  8
0
100
AcDbBlockBegin
  2
*Model_Space
 70
     0
 10
0.0
 20
0.0
 30
0.0
  3
*Model_Space
  1

  0
ENDBLK
  5
21
330
1F
100
AcDbEntity
  8
0
100
AcDbBlockEnd
  0
BLOCK
  5
1C
330
1B
100
AcDbEntity
 67
     1
  8
0
100
AcDbBlockBegin
  2
*Paper_Space
 70
     0
 10
0.0
 20
0.0
 30
0.0
  3
*Paper_Space
  1

  0
ENDBLK
  5
1D
330
1B
100
AcDbEntity
 67
     1
  8
0
100
AcDbBlockEnd
  0
BLOCK
  5
24
330
23
100
AcDbEntity
 67
     1
  8
0
100
AcDbBlockBegin
  2
*Paper_Space0
 70
     0
 10
0.0
 20
0.0
 30
0.0
  3
*Paper_Space0
  1

  0
ENDBLK
  5
25
330
23
100
AcDbEntity
 67
     1
  8
0
100
AcDbBlockEnd
  0
BLOCK
  5
40
330
2E
100
AcDbEntity
  8
0
100
AcDbBlockBegin
  2
direct
 70
     2
 10
0.0
 20
0.0
 30
0.0
  3
direct
  1

  0
ATTDEF
  5
2F
330
2E
100
AcDbEntity
  8
ASHADE
  6
Continuous
 62
     1
100
AcDbText
 10
0.0
 20
-0.1
 30
0.0
 40
0.2
  1

  7
ASHADE
 72
     1
 11
0.0
 21
-0.1
 31
0.0
100
AcDbAttributeDefinition
280
     0
  3
Light Name
  2
SNAME
 70
     0
280
     0
  0
ARC
  5
30
330
2E
100
AcDbEntity
  8
ASHADE
  6
Continuous
 62
     7
100
AcDbCircle
 10
0.0
 20
0.0
 30
0.0
 40
0.3
100
AcDbArc
 50
205.6792886194569
 51
334.3207113805431
  0
ARC
  5
31
330
2E
100
AcDbEntity
  8
ASHADE
  6
Continuous
 62
     7
100
AcDbCircle
 10
0.0
 20
0.0
 30
0.0
 40
0.3
100
AcDbArc
 50
25.67928861945685
 51
154.3207113805431
  0
LINE
  5
32
330
2E
100
AcDbEntity
  8
ASHADE
  6
Continuous
 62
     7
100
AcDbLine
 10
-0.21
 20
0.2142428528562855
 30
0.0
 11
-0.21
 21
0.5
 31
0.0
  0
LINE
  5
33
330
2E
100
AcDbEntity
  8
ASHADE
  6
Continuous
 62
     7
100
AcDbLine
 10
-0.11
 20
0.2791057147390572
 30
0.0
 11
-0.11
 21
0.5
 31
0.0
  0
LINE
  5
34
330
2E
100
AcDbEntity
  8
ASHADE
  6
Continuous
 62
     7
100
AcDbLine
 10
0.21
 20
0.2142428528562855
 30
0.0
 11
0.21
 21
0.5
 31
0.0
  0
ATTDEF
  5
35
330
2E
100
AcDbEntity
  8
ASHADE
  6
Continuous
 62
     7
100
AcDbText
 10
0.0
 20
0.25
 30
0.0
 40
0.01
  1

100
AcDbAttributeDefinition
280
     0
  3
Look-at Y
  2
LAY
 70
     1
280
     0
  0
ATTDEF
  5
36
330
2E
100
AcDbEntity
  8
ASHADE
  6
Continuous
 62
     7
100
AcDbText
 10
0.0
 20
0.22
 30
0.0
 40
0.01
  1
1
100
AcDbAttributeDefinition
280
     0
  3
Light Intensity
  2
INTENSITY
 70
     1
280
     0
  0
ATTDEF
  5
37
330
2E
100
AcDbEntity
  8
ASHADE
  6
Continuous
 62
     7
100
AcDbText
 10
0.0
 20
0.16
 30
0.0
 40
0.01
  1
-1
100
AcDbAttributeDefinition
280
     0
  3
*not used*
  2
BEAMD
 70
     1
280
     0
  0
ATTDEF
  5
38
330
2E
100
AcDbEntity
  8
ASHADE
  6
Continuous
 62
     7
100
AcDbText
 10
0.0
 20
0.175
 30
0.0
 40
0.01
  1
-1
100
AcDbAttributeDefinition
280
     0
  3
*not used*
  2
CONED
 70
     1
280
     0
  0
ATTDEF
  5
39
330
2E
100
AcDbEntity
  8
ASHADE
  6
Continuous
 62
     7
100
AcDbText
 10
0.0
 20
0.19
 30
0.0
 40
0.01
  1
0
100
AcDbAttributeDefinition
280
     0
  3
Depth Map Size
  2
CONEA
 70
     1
280
     0
  0
ATTDEF
  5
3A
330
2E
100
AcDbEntity
  8
ASHADE
  6
Continuous
 62
     7
100
AcDbText
 10
0.0
 20
0.2050000000000001
 30
0.0
 40
0.01
  1
1,1,1
100
AcDbAttributeDefinition
280
     0
  3
Light Color (RGB)
  2
COLOR
 70
     1
280
     0
  0
ATTDEF
  5
3B
330
2E
100
AcDbEntity
  8
ASHADE
  6
Continuous
 62
     7
100
AcDbText
 10
0.0
 20
0.235
 30
0.0
 40
0.01
  1

100
AcDbAttributeDefinition
280
     0
  3
Look-at Z
  2
LAZ
 70
     1
280
     0
  0
LINE
  5
3C
330
2E
100
AcDbEntity
  8
ASHADE
  6
Continuous
 62
     7
100
AcDbLine
 10
0.0
 20
0.3
 30
0.0
 11
0.0
 21
0.5
 31
0.0
  0
LINE
  5
3D
330
2E
100
AcDbEntity
  8
ASHADE
  6
Continuous
 62
     7
100
AcDbLine
 10
0.11
 20
0.2791057147390572
 30
0.0
 11
0.11
 21
0.5
 31
0.0
  0
ATTDEF
  5
3E
330
2E
100
AcDbEntity
  8
ASHADE
  6
Continuous
 62
     7
100
AcDbText
 10
0.0
 20
0.265
 30
0.0
 40
0.01
  1

100
AcDbAttributeDefinition
280
     0
  3
Look-at X
  2
LAX
 70
     1
280
     0
  0
ATTDEF
  5
3F
330
2E
100
AcDbEntity
  8
ASHADE
  6
Continuous
 62
     7
100
AcDbText
 10
0.0
 20
0.28
 30
0.0
 40
0.01
  1

100
AcDbAttributeDefinition
280
     0
  3

  2
GNAME
 70
     1
280
     0
  0
ENDBLK
  5
41
330
2E
100
AcDbEntity
  8
0
100
AcDbBlockEnd
  0
BLOCK
  5
5D
330
42
100
AcDbEntity
  8
0
100
AcDbBlockBegin
  2
overhead
 70
     2
 10
0.0
 20
0.0
 30
0.0
  3
overhead
  1

  0
ATTDEF
  5
43
330
42
100
AcDbEntity
  8
ASHADE
  6
Continuous
 62
     1
100
AcDbText
 10
0.0
 20
-0.1
 30
0.0
 40
0.2
  1

  7
ASHADE
 72
     1
 11
0.0
 21
-0.1
 31
0.0
100
AcDbAttributeDefinition
280
     0
  3
Light Name
  2
SNAME
 70
     0
280
     0
  0
ARC
  5
44
330
42
100
AcDbEntity
  8
ASHADE
  6
Continuous
 62
     7
100
AcDbCircle
 10
0.0
 20
0.0
 30
0.0
 40
0.3
100
AcDbArc
 50
205.6792886194569
 51
334.3207113805431
  0
LINE
  5
45
330
42
100
AcDbEntity
  8
ASHADE
  6
Continuous
 62
     7
100
AcDbLine
 10
-0.2041413561583015
 20
-0.2198324514393848
 30
0.0
 11
-0.2721884748777353
 21
-0.2931099352525131
 31
0.0
  0
LINE
  5
46
330
42
100
AcDbEntity
  8
ASHADE
  6
Continuous
 62
     7
100
AcDbLine
 10
-0.1096591641591904
 20
-0.2792398032442862
 30
0.0
 11
-0.1279356915190555
 21
-0.3257797704516673
 31
0.0
  0
LINE
  5
47
330
42
100
AcDbEntity
  8
ASHADE
  6
Continuous
 62
     7
100
AcDbLine
 10
0.0
 20
-0.2999999999999999
 30
0.0
 11
0.0
 21
-0.4
 31
0.0
  0
LINE
  5
48
330
42
100
AcDbEntity
  8
ASHADE
  6
Continuous
 62
     7
100
AcDbLine
 10
0.1096591641591904
 20
-0.2792398032442862
 30
0.0
 11
0.1279356915190555
 21
-0.3257797704516673
 31
0.0
  0
LINE
  5
49
330
42
100
AcDbEntity
  8
ASHADE
  6
Continuous
 62
     7
100
AcDbLine
 10
0.2041413561583015
 20
-0.2198324514393848
 30
0.0
 11
0.2721884748777353
 21
-0.2931099352525131
 31
0.0
  0
ARC
  5
4A
330
42
100
AcDbEntity
  8
ASHADE
  6
Continuous
 62
     7
100
AcDbCircle
 10
0.0
 20
0.0
 30
0.0
 40
0.3
100
AcDbArc
 50
25.67928861945685
 51
154.3207113805431
  0
LINE
  5
4B
330
42
100
AcDbEntity
  8
ASHADE
  6
Continuous
 62
     7
100
AcDbLine
 10
-0.2703701166919155
 20
0.13
 30
0.0
 11
-0.3154318028072347
 21
0.1516666666666666
 31
0.0
  0
LINE
  5
4C
330
42
100
AcDbEntity
  8
ASHADE
  6
Continuous
 62
     7
100
AcDbLine
 10
-0.2703701166919155
 20
-0.13
 30
0.0
 11
-0.3154318028072347
 21
-0.1516666666666666
 31
0.0
  0
LINE
  5
4D
330
42
100
AcDbEntity
  8
ASHADE
  6
Continuous
 62
     7
100
AcDbLine
 10
-0.2041413561583015
 20
0.2198324514393849
 30
0.0
 11
-0.2721884748777353
 21
0.2931099352525131
 31
0.0
  0
LINE
  5
4E
330
42
100
AcDbEntity
  8
ASHADE
  6
Continuous
 62
     7
100
AcDbLine
 10
-0.1096591641591904
 20
0.2792398032442862
 30
0.0
 11
-0.1279356915190555
 21
0.3257797704516674
 31
0.0
  0
LINE
  5
4F
330
42
100
AcDbEntity
  8
ASHADE
  6
Continuous
 62
     7
100
AcDbLine
 10
0.2703701166919155
 20
-0.13
 30
0.0
 11
0.3154318028072347
 21
-0.1516666666666666
 31
0.0
  0
LINE
  5
50
330
42
100
AcDbEntity
  8
ASHADE
  6
Continuous
 62
     7
100
AcDbLine
 10
0.2703701166919155
 20
0.13
 30
0.0
 11
0.3154318028072347
 21
0.1516666666666666
 31
0.0
  0
LINE
  5
51
330
42
100
AcDbEntity
  8
ASHADE
  6
Continuous
 62
     7
100
AcDbLine
 10
0.0
 20
0.3
 30
0.0
 11
0.0
 21
0.4
 31
0.0
  0
ATTDEF
  5
52
330
42
100
AcDbEntity
  8
ASHADE
  6
Continuous
 62
     7
100
AcDbText
 10
0.0
 20
0.22
 30
0.0
 40
0.01
  1
1
100
AcDbAttributeDefinition
280
     0
  3
Light Intensity
  2
INTENSITY
 70
     1
280
     0
  0
ATTDEF
  5
53
330
42
100
AcDbEntity
  8
ASHADE
  6
Continuous
 62
     7
100
AcDbText
 10
0.0
 20
0.16
 30
0.0
 40
0.01
  1
-1
100
AcDbAttributeDefinition
280
     0
  3
*not used*
  2
BEAMD
 70
     1
280
     0
  0
ATTDEF
  5
54
330
42
100
AcDbEntity
  8
ASHADE
  6
Continuous
 62
     7
100
AcDbText
 10
0.0
 20
0.175
 30
0.0
 40
0.01
  1
-1
100
AcDbAttributeDefinition
280
     0
  3
*not used*
  2
CONED
 70
     1
280
     0
  0
ATTDEF
  5
55
330
42
100
AcDbEntity
  8
ASHADE
  6
Continuous
 62
     7
100
AcDbText
 10
0.0
 20
0.19
 30
0.0
 40
0.01
  1
0
100
AcDbAttributeDefinition
280
     0
  3
Depth Map Size
  2
CONEA
 70
     1
280
     0
  0
ATTDEF
  5
56
330
42
100
AcDbEntity
  8
ASHADE
  6
Continuous
 62
     7
100
AcDbText
 10
0.0
 20
0.2050000000000001
 30
0.0
 40
0.01
  1
1,1,1
100
AcDbAttributeDefinition
280
     0
  3
Light Color (RGB)
  2
COLOR
 70
     1
280
     0
  0
ATTDEF
  5
57
330
42
100
AcDbEntity
  8
ASHADE
  6
Continuous
 62
     7
100
AcDbText
 10
0.0
 20
0.235
 30
0.0
 40
0.01
  1

100
AcDbAttributeDefinition
280
     0
  3
Look-at Z
  2
LAZ
 70
     1
280
     0
  0
ATTDEF
  5
58
330
42
100
AcDbEntity
  8
ASHADE
  6
Continuous
 62
     7
100
AcDbText
 10
0.0
 20
0.25
 30
0.0
 40
0.01
  1

100
AcDbAttributeDefinition
280
     0
  3
Look-at Y
  2
LAY
 70
     1
280
     0
  0
ATTDEF
  5
59
330
42
100
AcDbEntity
  8
ASHADE
  6
Continuous
 62
     7
100
AcDbText
 10
0.0
 20
0.265
 30
0.0
 40
0.01
  1

100
AcDbAttributeDefinition
280
     0
  3
Look-at X
  2
LAX
 70
     1
280
     0
  0
ATTDEF
  5
5A
330
42
100
AcDbEntity
  8
ASHADE
  6
Continuous
 62
     7
100
AcDbText
 10
0.0
 20
0.28
 30
0.0
 40
0.01
  1

100
AcDbAttributeDefinition
280
     0
  3

  2
GNAME
 70
     1
280
     0
  0
LINE
  5
5B
330
42
100
AcDbEntity
  8
ASHADE
  6
Continuous
 62
     7
100
AcDbLine
 10
0.1096591641591904
 20
0.2792398032442862
 30
0.0
 11
0.1279356915190555
 21
0.3257797704516674
 31
0.0
  0
LINE
  5
5C
330
42
100
AcDbEntity
  8
ASHADE
  6
Continuous
 62
     7
100
AcDbLine
 10
0.2041413561583015
 20
0.2198324514393849
 30
0.0
 11
0.2721884748777353
 21
0.2931099352525131
 31
0.0
  0
ENDBLK
  5
5E
330
42
100
AcDbEntity
  8
0
100
AcDbBlockEnd
  0
BLOCK
  5
85
330
5F
100
AcDbEntity
  8
0
100
AcDbBlockBegin
  2
sh_spot
 70
     2
 10
0.0
 20
0.0
 30
0.0
  3
sh_spot
  1

  0
LINE
  5
60
330
5F
100
AcDbEntity
  8
ASHADE
  6
Continuous
 62
     7
100
AcDbLine
 10
0.25
 20
0.26
 30
0.0
 11
-0.25
 21
0.26
 31
0.0
  0
LINE
  5
61
330
5F
100
AcDbEntity
  8
ASHADE
  6
Continuous
 62
     7
100
AcDbLine
 10
-0.25
 20
-0.3399999999999999
 30
0.0
 11
0.25
 21
-0.3399999999999999
 31
0.0
  0
ATTDEF
  5
62
330
5F
100
AcDbEntity
  8
ASHADE
  6
Continuous
 62
     1
100
AcDbText
 10
0.0
 20
-0.1
 30
0.0
 40
0.2
  1

  7
ASHADE
 72
     1
 11
0.0
 21
-0.1
 31
0.0
100
AcDbAttributeDefinition
280
     0
  3
Light Name
  2
SNAME
 70
     0
280
     0
  0
LINE
  5
63
330
5F
100
AcDbEntity
  8
ASHADE
  6
Continuous
 62
     7
100
AcDbLine
 10
-0.25
 20
-0.13
 30
0.0
 11
-0.25
 21
-0.3399999999999999
 31
0.0
  0
LINE
  5
64
330
5F
100
AcDbEntity
  8
ASHADE
  6
Continuous
 62
     7
100
AcDbLine
 10
-0.25
 20
-0.18
 30
0.0
 11
-0.29
 21
-0.18
 31
0.0
  0
LINE
  5
65
330
5F
100
AcDbEntity
  8
ASHADE
  6
Continuous
 62
     7
100
AcDbLine
 10
-0.29
 20
-0.22
 30
0.0
 11
-0.25
 21
-0.22
 31
0.0
  0
LINE
  5
66
330
5F
100
AcDbEntity
  8
ASHADE
  6
Continuous
 62
     7
100
AcDbLine
 10
-0.29
 20
-0.18
 30
0.0
 11
-0.29
 21
-0.22
 31
0.0
  0
LINE
  5
67
330
5F
100
AcDbEntity
  8
ASHADE
  6
Continuous
 62
     7
100
AcDbLine
 10
-0.1045454545454545
 20
0.26
 30
0.0
 11
-0.15
 21
0.46
 31
0.0
  0
LINE
  5
68
330
5F
100
AcDbEntity
  8
ASHADE
  6
Continuous
 62
     7
100
AcDbLine
 10
-0.21
 20
0.26
 30
0.0
 11
-0.301304347826087
 21
0.46
 31
0.0
  0
LINE
  5
69
330
5F
100
AcDbEntity
  8
ASHADE
  6
Continuous
 62
     7
100
AcDbLine
 10
-0.25
 20
0.26
 30
0.0
 11
-0.25
 21
0.13
 31
0.0
  0
LINE
  5
6A
330
5F
100
AcDbEntity
  8
ASHADE
  6
Continuous
 62
     7
100
AcDbLine
 10
-0.25
 20
0.22
 30
0.0
 11
-0.29
 21
0.22
 31
0.0
  0
LINE
  5
6B
330
5F
100
AcDbEntity
  8
ASHADE
  6
Continuous
 62
     7
100
AcDbLine
 10
-0.29
 20
0.1799999999999999
 30
0.0
 11
-0.25
 21
0.1799999999999999
 31
0.0
  0
LINE
  5
6C
330
5F
100
AcDbEntity
  8
ASHADE
  6
Continuous
 62
     7
100
AcDbLine
 10
-0.29
 20
0.22
 30
0.0
 11
-0.29
 21
0.1799999999999999
 31
0.0
  0
ATTDEF
  5
6D
330
5F
100
AcDbEntity
  8
ASHADE
  6
Continuous
 62
     7
100
AcDbText
 10
0.0
 20
-0.24
 30
0.0
 40
0.01
  1
0
100
AcDbAttributeDefinition
280
     0
  3
Depth Map Size
  2
ZSIZE
 70
     1
280
     0
  0
ATTDEF
  5
6E
330
5F
100
AcDbEntity
  8
ASHADE
  6
Continuous
 62
     7
100
AcDbText
 10
0.0
 20
-0.3300000000000001
 30
0.0
 40
0.01
  1
0,0,0
100
AcDbAttributeDefinition
280
     0
  3
Look-from XYZ
  2
LFXYZ
 70
     1
280
     0
  0
ATTDEF
  5
6F
330
5F
100
AcDbEntity
  8
ASHADE
  6
Continuous
 62
     7
100
AcDbText
 10
0.0
 20
-0.315
 30
0.0
 40
0.01
  1
0.0
100
AcDbAttributeDefinition
280
     0
  3
Beam Distribution
  2
BEAMDI
 70
     1
280
     0
  0
ATTDEF
  5
70
330
5F
100
AcDbEntity
  8
ASHADE
  6
Continuous
 62
     7
100
AcDbText
 10
0.0
 20
-0.3
 30
0.0
 40
0.01
  1
0.0
100
AcDbAttributeDefinition
280
     0
  3
Cone Delta
  2
CONEDE
 70
     1
280
     0
  0
ATTDEF
  5
71
330
5F
100
AcDbEntity
  8
ASHADE
  6
Continuous
 62
     7
100
AcDbText
 10
0.0
 20
-0.2850000000000001
 30
0.0
 40
0.01
  1
10.0
100
AcDbAttributeDefinition
280
     0
  3
Cone Angle
  2
CONEAN
 70
     1
280
     0
  0
ATTDEF
  5
72
330
5F
100
AcDbEntity
  8
ASHADE
  6
Continuous
 62
     7
100
AcDbText
 10
0.0
 20
-0.27
 30
0.0
 40
0.01
  1
-1
100
AcDbAttributeDefinition
280
     0
  3
*not used*
  2
BIASMAX
 70
     1
280
     0
  0
ATTDEF
  5
73
330
5F
100
AcDbEntity
  8
ASHADE
  6
Continuous
 62
     7
100
AcDbText
 10
0.0
 20
-0.255
 30
0.0
 40
0.01
  1
-1
100
AcDbAttributeDefinition
280
     0
  3
*not used*
  2
BIASMIN
 70
     1
280
     0
  0
ATTDEF
  5
74
330
5F
100
AcDbEntity
  8
ASHADE
  6
Continuous
 62
     7
100
AcDbText
 10
0.0
 20
-0.225
 30
0.0
 40
0.01
  1
1,1,1
100
AcDbAttributeDefinition
280
     0
  3
Light Color (RGB)
  2
COLOR
 70
     1
280
     0
  0
ATTDEF
  5
75
330
5F
100
AcDbEntity
  8
ASHADE
  6
Continuous
 62
     7
100
AcDbText
 10
0.0
 20
-0.21
 30
0.0
 40
0.01
  1
1
100
AcDbAttributeDefinition
280
     0
  3
Light Intensity
  2
INTENSITY
 70
     1
280
     0
  0
ATTDEF
  5
76
330
5F
100
AcDbEntity
  8
ASHADE
  6
Continuous
 62
     7
100
AcDbText
 10
0.0
 20
-0.15
 30
0.0
 40
0.01
  1

100
AcDbAttributeDefinition
280
     0
  3

  2
GNAME
 70
     1
280
     0
  0
ATTDEF
  5
77
330
5F
100
AcDbEntity
  8
ASHADE
  6
Continuous
 62
     7
100
AcDbText
 10
0.0
 20
-0.195
 30
0.0
 40
0.01
  1

100
AcDbAttributeDefinition
280
     0
  3
Look-at Z
  2
LAZ
 70
     1
280
     0
  0
ATTDEF
  5
78
330
5F
100
AcDbEntity
  8
ASHADE
  6
Continuous
 62
     7
100
AcDbText
 10
0.0
 20
-0.18
 30
0.0
 40
0.01
  1

100
AcDbAttributeDefinition
280
     0
  3
Look-at Y
  2
LAY
 70
     1
280
     0
  0
ATTDEF
  5
79
330
5F
100
AcDbEntity
  8
ASHADE
  6
Continuous
 62
     7
100
AcDbText
 10
0.0
 20
-0.165
 30
0.0
 40
0.01
  1

100
AcDbAttributeDefinition
280
     0
  3
Look-at X
  2
LAX
 70
     1
280
     0
  0
LINE
  5
7A
330
5F
100
AcDbEntity
  8
ASHADE
  6
Continuous
 62
     7
100
AcDbLine
 10
0.25
 20
-0.3399999999999999
 30
0.0
 11
0.25
 21
-0.13
 31
0.0
  0
LINE
  5
7B
330
5F
100
AcDbEntity
  8
ASHADE
  6
Continuous
 62
     7
100
AcDbLine
 10
0.25
 20
-0.18
 30
0.0
 11
0.29
 21
-0.18
 31
0.0
  0
LINE
  5
7C
330
5F
100
AcDbEntity
  8
ASHADE
  6
Continuous
 62
     7
100
AcDbLine
 10
0.29
 20
-0.22
 30
0.0
 11
0.25
 21
-0.22
 31
0.0
  0
LINE
  5
7D
330
5F
100
AcDbEntity
  8
ASHADE
  6
Continuous
 62
     7
100
AcDbLine
 10
0.29
 20
-0.18
 30
0.0
 11
0.29
 21
-0.22
 31
0.0
  0
LINE
  5
7E
330
5F
100
AcDbEntity
  8
ASHADE
  6
Continuous
 62
     7
100
AcDbLine
 10
0.21
 20
0.26
 30
0.0
 11
0.301304347826087
 21
0.46
 31
0.0
  0
LINE
  5
7F
330
5F
100
AcDbEntity
  8
ASHADE
  6
Continuous
 62
     7
100
AcDbLine
 10
0.1045454545454545
 20
0.26
 30
0.0
 11
0.15
 21
0.46
 31
0.0
  0
LINE
  5
80
330
5F
100
AcDbEntity
  8
ASHADE
  6
Continuous
 62
     7
100
AcDbLine
 10
0.0
 20
0.26
 30
0.0
 11
0.0
 21
0.46
 31
0.0
  0
LINE
  5
81
330
5F
100
AcDbEntity
  8
ASHADE
  6
Continuous
 62
     7
100
AcDbLine
 10
0.25
 20
0.13
 30
0.0
 11
0.25
 21
0.26
 31
0.0
  0
LINE
  5
82
330
5F
100
AcDbEntity
  8
ASHADE
  6
Continuous
 62
     7
100
AcDbLine
 10
0.25
 20
0.22
 30
0.0
 11
0.29
 21
0.22
 31
0.0
  0
LINE
  5
83
330
5F
100
AcDbEntity
  8
ASHADE
  6
Continuous
 62
     7
100
AcDbLine
 10
0.29
 20
0.1799999999999999
 30
0.0
 11
0.25
 21
0.1799999999999999
 31
0.0
  0
LINE
  5
84
330
5F
100
AcDbEntity
  8
ASHADE
  6
Continuous
 62
     7
100
AcDbLine
 10
0.29
 20
0.22
 30
0.0
 11
0.29
 21
0.1799999999999999
 31
0.0
  0
ENDBLK
  5
86
330
5F
100
AcDbEntity
  8
0
100
AcDbBlockEnd
  0
BLOCK
  5
92
330
91
100
AcDbEntity
  8
ASHADE
100
AcDbBlockBegin
  2
AVE_RENDER
 70
     0
 10
0.0
 20
0.0
 30
0.0
  3
AVE_RENDER
  1
AVE_RENDER
  0
ENDBLK
  5
93
330
91
100
AcDbEntity
  8
0
100
AcDbBlockEnd
  0
BLOCK
  5
A0
330
9F
100
AcDbEntity
  8
ASHADE
100
AcDbBlockBegin
  2
AVE_GLOBAL
 70
     0
 10
0.0
 20
0.0
 30
0.0
  3
AVE_GLOBAL
  1
AVE_GLOBAL
  0
ENDBLK
  5
A1
330
9F
100
AcDbEntity
  8
0
100
AcDbBlockEnd
  0
ENDSEC
  0
SECTION
  2
ENTITIES
  0
INSERT
  5
94
330
1F
100
AcDbEntity
  8
ASHADE
 62
     1
100
AcDbBlockReference
  2
AVE_RENDER
 10
0.0
 20
0.0
 30
0.0
1001
AVE_RENDER
1002
{
1070
     7
1000
Pref
1070
    30
1070
    20
1070
     1
1070
     0
1000

1070
    10
1070
     1
1070
    10
1040
1.0
1070
     1
1040
0.3
1040
0.7
1040
0.0
1040
10.0
1010
-1.0
1020
-1.0
1030
-1.0
1040
0.3
1070
    49
1070
     0
1070
     0
1010
1.0
1020
1.0
1030
1.0
1040
45.0
1070
     1
1070
     0
1000
WCS
1040
0.0
1070
     0
1040
10.0
1002
}
  0
INSERT
  5
95
330
1F
100
AcDbEntity
  8
ASHADE
 62
     3
100
AcDbBlockReference
  2
AVE_RENDER
 10
0.0
 20
0.0
 30
0.0
1001
AVE_RENDER
1002
{
1070
     0
1000
Full Opt
1070
     0
1070
     1
1070
     1
1070
     1
1070
     0
1070
     0
1070
     0
1070
     1
1070
     1
1040
0.0001
1040
0.0001
1002
}
  0
INSERT
  5
96
330
1F
100
AcDbEntity
  8
ASHADE
 62
     4
100
AcDbBlockReference
  2
AVE_RENDER
 10
0.0
 20
0.0
 30
0.0
1001
AVE_RENDER
1002
{
1070
     0
1000
Quick Opt
1070
     0
1070
     1
1070
     1
1070
     1
1070
     0
1070
     0
1070
     1
1002
}
  0
INSERT
  5
97
330
1F
100
AcDbEntity
  8
ASHADE
 62
     5
100
AcDbBlockReference
  2
AVE_RENDER
 10
0.0
 20
0.0
 30
0.0
1001
AVE_RENDER
1002
{
1070
     1
1000
Scanl Opt
1070
     2
1070
     0
1070
     2
1040
2.0
1040
4.0
1070
     0
1070
     1
1070
     0
1040
0.03
1002
}
  0
INSERT
  5
98
330
1F
100
AcDbEntity
  8
ASHADE
 62
     6
100
AcDbBlockReference
  2
AVE_RENDER
 10
0.0
 20
0.0
 30
0.0
1001
AVE_RENDER
1002
{
1070
     2
1000
Raytr Opt
1070
     2
1070
     0
1070
     2
1040
2.0
1040
4.0
1070
     0
1070
     1
1070
     1
1040
0.03
1070
     3
1040
0.03
1002
}
  0
INSERT
  5
99
330
1F
100
AcDbEntity
  8
ASHADE
 62
     7
100
AcDbBlockReference
  2
AVE_RENDER
 10
0.0
 20
0.0
 30
0.0
1001
AVE_RENDER
1002
{
1070
     0
1000
RFile Opt
1070
     1
1070
   640
1070
   480
1070
 10000
1070
     1
1070
     8
1070
     8
1070
     0
1070
     0
1070
     0
1070
     0
1070
     0
1070
     0
1070
     0
1002
}
  0
INSERT
  5
9A
330
1F
100
AcDbEntity
  8
ASHADE
 62
     8
100
AcDbBlockReference
  2
AVE_RENDER
 10
0.0
 20
0.0
 30
0.0
1001
AVE_RENDER
1002
{
1070
     0
1000
Fog Opt
1070
     0
1070
     0
1040
0.0
1040
1.0
1040
0.0
1040
1.0
1010
0.5
1020
0.5
1030
0.5
1002
}
  0
INSERT
  5
9B
330
1F
100
AcDbEntity
  8
ASHADE
 62
     9
100
AcDbBlockReference
  2
AVE_RENDER
 10
0.0
 20
0.0
 30
0.0
1001
AVE_RENDER
1002
{
1070
     0
1000
BG Opt
1070
     0
1070
     1
1010
0.0
1020
0.0
1030
0.0
1010
1.0
1020
0.0
1030
0.0
1010
0.0
1020
1.0
1030
0.0
1010
0.0
1020
0.0
1030
1.0
1040
0.5
1040
0.33
1040
0.0
1000

1070
     1
1000

1070
     1
1070
     1
1040
1.0
1040
1.0
1040
0.0
1040
0.0
1070
     0
1002
}
  0
INSERT
  5
A2
330
1F
100
AcDbEntity
  8
ASHADE
 62
     1
100
AcDbBlockReference
  2
AVE_GLOBAL
 10
0.0
 20
0.0
 30
0.0
1001
AVE_MATERIAL
1002
{
1000
*GLOBAL*
1000
2
1000
Global finish.
1002
{
1002
}
1002
{
1070
    63
1002
{
1002
{
1010
-1.0
1020
-1.0
1030
-1.0
1002
}
1040
0.1000000014901161
1000

1040
0.0
1002
{
1002
}
1040
0.0
1002
{
1002
}
1040
0.0
1002
}
1002
{
1002
{
1010
-1.0
1020
-1.0
1030
-1.0
1002
}
1040
0.6999999880790711
1000

1040
0.0
1002
{
1002
}
1040
0.0
1002
{
1002
}
1040
0.0
1002
}
1002
{
1002
{
1010
-1.0
1020
-1.0
1030
-1.0
1002
}
1040
0.2000000029802322
1000

1040
0.0
1002
{
1002
}
1040
0.0
1002
{
1002
}
1040
0.0
1002
}
1002
{
1070
     0
1002
{
1070
     1
1002
{
1040
1.0
1040
1.0
1000

1040
0.0
1002
{
1002
}
1040
0.0
1002
{
1002
}
1040
0.0
1002
}
1002
}
1040
1.0
1040
0.0
1040
0.0
1002
}
1002
{
1040
1.0
1040
1.0
1000

1040
0.0
1002
{
1002
}
1040
0.0
1002
{
1002
}
1040
0.0
1002
}
1002
{
1040
0.5
1040
1.0
1000

1040
0.0
1002
{
1002
}
1040
0.0
1002
{
1002
}
1040
0.0
1002
}
1002
{
1070
     0
1040
0.0
1002
{
1002
}
1040
1.0
1002
{
1002
}
1040
0.0
1002
}
1002
{
1040
0.0
1002
{
1002
{
1010
0.0
1020
0.0
1030
0.0
1002
}
1040
1.0
1000

1040
0.0
1002
{
1002
}
1040
0.0
1002
{
1002
}
1040
0.0
1002
}
1002
}
1002
{
1002
{
1070
     1
1002
{
1040
0.0
1040
1.0
1000

1040
0.0
1002
{
1002
}
1040
0.0
1002
{
1002
}
1040
0.0
1002
}
1002
}
1040
0.0
1002
{
1002
}
1010
1.0
1020
0.0
1030
0.0
1010
0.0
1020
1.0
1030
0.0
1010
0.0
1020
0.0
1030
1.0
1070
     0
1002
}
1002
{
1002
{
1040
1.0
1040
1.0
1002
{
1070
     1
1002
{
1040
1.0
1040
1.0
1000

1040
0.0
1002
{
1002
}
1040
0.0
1002
{
1002
}
1040
0.0
1002
}
1002
}
1002
}
1070
     0
1040
0.0
1002
{
1002
}
1002
}
1002
{
1002
}
1002
}
1002
{
1071
        3
1070
     3
1070
     0
1002
{
1070
     2
1070
     0
1070
     0
1040
0.0
1002
}
1070
     0
1070
     2
1002
{
1002
}
1002
}
1002
{
1040
8030.0
1040
190.3000030517578
1040
0.3050000071525574
1040
228.0
1040
545.0
1040
14.0
1040
17.39999961853027
1040
0.4560000002384186
1002
}
1002
}
  0
MESH
  5
F9
330
1F
100
AcDbEntity
  8
OracDecor_cornice_mouldings
 62
    41
420
 14997145
160
             27152
310
106A0000F20200000C00000013000000020000003C0000000600000002000000000000C0FF3F8F40000000000000D0BE000000C00A8057C0000000C0FF3F8F400000000058FD12C0000000C0098057C00C000000130000000A0000003C00000006000000020000000000002000408FC00000000056FD12C000000080098057
310
C0000000C0FF3F8F400000000058FD12C0000000C0098057C00C00000013000000120000003C00000006000000020000000000002000408FC00000000056FD12C000000080098057C00000002000408FC00000000000000000000000800A8057C00C000000130000001A0000003C0000000600000002000000000000200040
310
8FC00000000000000000000000800A8057C0000000C0FF3F8F40000000000000D0BE000000C00A8057C00C00000013000000220000003C0000000600000002000000000000C0FF3F8F40000000002EEA13C000000040657357C0000000C0FF3F8F4000000000DCC114C0000000C0481E57C00C000000130000002A0000003C
310
00000006000000020000000000002000408FC000000000DBC114C000000080481E57C0000000C0FF3F8F4000000000DCC114C0000000C0481E57C00C00000013000000320000003C00000006000000020000000000002000408FC000000000DBC114C000000080481E57C00000002000408FC0000000002DEA13C000000000
310
657357C00C000000130000003A0000003C00000006000000020000000000002000408FC0000000002DEA13C000000000657357C0000000C0FF3F8F40000000002EEA13C000000040657357C00C00000013000000420000003C0000000600000002000000000000C0FF3F8F4000000000DCC114C0000000C0481E57C0000000
310
C0FF3F8F4000000000AC9117C000000040FBC556C00C000000130000004A0000003C00000006000000020000000000002000408FC000000000AB9117C000000000FBC556C0000000C0FF3F8F4000000000AC9117C000000040FBC556C00C00000013000000520000003C00000006000000020000000000002000408FC00000
310
0000AB9117C000000000FBC556C00000002000408FC000000000DBC114C000000080481E57C00C000000130000005A0000003C0000000600000002000000000000C0FF3F8F4000000000AC9117C000000040FBC556C0000000C0FF3F8F400000000060F31BC000000000E07F56C00C00000013000000620000003C00000006
310
000000020000000000002000408FC0000000005EF31BC0000000C0DF7F56C0000000C0FF3F8F400000000060F31BC000000000E07F56C00C000000130000006A0000003C00000006000000020000000000002000408FC0000000005EF31BC0000000C0DF7F56C00000002000408FC000000000AB9117C000000000FBC556C0
310
0C00000013000000720000003C0000000600000002000000000000C0FF3F8F400000000060F31BC000000000E07F56C0000000C0FF3F8F40000000001CBC20C000000000E35256C00C000000130000007A0000003C00000006000000020000000000002000408FC0000000801BBC20C0000000C0E25256C0000000C0FF3F8F
310
40000000001CBC20C000000000E35256C00C00000013000000820000003C00000006000000020000000000002000408FC0000000801BBC20C0000000C0E25256C00000002000408FC0000000005EF31BC0000000C0DF7F56C00C000000130000008A0000003C0000000600000002000000000000C0FF3F8F40000000001CBC
310
20C000000000E35256C0000000C0FF3F8F4000000080006523C000000020684556C00C00000013000000920000003C00000006000000020000000000002000408FC000000000006523C0000000E0674556C0000000C0FF3F8F4000000080006523C000000020684556C00C000000130000009A0000003C0000000600000002
310
0000000000002000408FC0000000801BBC20C0000000C0E25256C00000002000408FC000000000006523C0000000E0674556C00C00000013000000A20000003C0000000600000002000000000000C0FF3F8F400000000024CA23C0000000C09A3656C0000000E0FF3F8F400000000024CA23C0000000C0E55255C00C000000
310
13000000AA0000003C00000006000000020000000000000000408FC00000008023CA23C000000080E55255C0000000E0FF3F8F400000000024CA23C0000000C0E55255C00C00000013000000B20000003C00000006000000020000000000000000408FC00000008023CA23C000000080E55255C00000002000408FC0000000
310
8023CA23C0000000809A3656C00C00000013000000BA0000003C00000006000000020000000000002000408FC00000008023CA23C0000000809A3656C0000000C0FF3F8F400000000024CA23C0000000C09A3656C00C00000013000000C20000003C0000000600000002000000000000E0FF3F8F40000000808A3024C00000
310
0000194655C0000000E0FF3F8F40000000C0945329C000000000194655C00C00000013000000CA0000003C00000006000000020000000000000000408FC000000000945329C0000000C0184655C0000000E0FF3F8F40000000C0945329C000000000194655C00C00000013000000D20000003C000000060000000200000000
310
00000000408FC000000000945329C0000000C0184655C00000000000408FC0000000008A3024C0000000C0184655C00C00000013000000DA0000003C00000006000000020000000000000000408FC0000000008A3024C0000000C0184655C0000000E0FF3F8F40000000808A3024C000000000194655C00C00000013000000
310
E20000003C0000000600000002000000000000E0FF3F8F4000000040FBB929C0000000404C3955C0000000E0FF3F8F4000000000FAB929C00000002004DF50C00C00000013000000EA0000003C00000006000000020000000000000000408FC000000080F9B929C0000000E003DF50C0000000E0FF3F8F4000000000FAB929
310
C00000002004DF50C00C00000013000000F20000003C00000006000000020000000000000000408FC000000080F9B929C0000000E003DF50C00000000000408FC000000080FAB929C0000000004C3955C00C00000013000000FA0000003C00000006000000020000000000000000408FC000000080FAB929C0000000004C39
310
55C0000000E0FF3F8F4000000040FBB929C0000000404C3955C00C00000013000000020100003C0000000600000002000000000000E0FF3F8F400000008060202AC00000006037D250C0000000E0FF3F8F40000000C06C432FC00000008037D250C00C000000130000000A0100003C00000006000000020000000000000000
310
408FC0000000006C432FC00000004037D250C0000000E0FF3F8F40000000C06C432FC00000008037D250C00C00000013000000120100003C00000006000000020000000000000000408FC0000000006C432FC00000004037D250C00000000000408FC00000000060202AC00000002037D250C00C000000130000001A010000
310
3C00000006000000020000000000000000408FC00000000060202AC00000002037D250C0000000E0FF3F8F400000008060202AC00000006037D250C00C00000013000000220100003C0000000600000002000000000000E0FF3F8F400000008040BF2FC000000040B3C550C0000000E0FF3F8F4000000040D94B31C0000000
310
C063384EC00C000000130000002A0100003C00000006000000020000000000000000408FC000000000D94B31C00000004063384EC0000000E0FF3F8F4000000040D94B31C0000000C063384EC00C00000013000000320100003C00000006000000020000000000000000408FC000000000D94B31C00000004063384EC00000
310
000000408FC0000000C03FBF2FC000000000B3C550C00C000000130000003A0100003C00000006000000020000000000000000408FC0000000C03FBF2FC000000000B3C550C0000000E0FF3F8F400000008040BF2FC000000040B3C550C00C00000013000000420100003C0000000600000002000000000000E0FF3F8F4000
310
000040D5A332C0000000C04A0F4CC0000000E0FF3F8F4000000040537234C00000006023E049C00C000000130000004A0100003C00000006000000020000000000000000408FC000000000537234C0000000E022E049C0000000E0FF3F8F4000000040537234C00000006023E049C00C00000013000000520100003C000000
310
06000000020000000000000000408FC000000000537234C0000000E022E049C00000000000408FC000000000D5A332C0000000404A0F4CC00C000000130000005A0100003C00000006000000020000000000000000408FC000000000D5A332C0000000404A0F4CC0000000E0FF3F8F4000000040D5A332C0000000C04A0F4C
310
C00C00000013000000620100003C0000000600000002000000000000E0FF3F8F40000000C0278C36C0000000E01FDF47C0000000E0FF3F8F4000000000BD1C39C0000000A0D7E245C00C000000130000006A0100003C00000006000000020000000000000000408FC0000000C0BC1C39C000000020D7E245C0000000E0FF3F
310
8F4000000000BD1C39C0000000A0D7E245C00C00000013000000720100003C00000006000000020000000000000000408FC0000000C0BC1C39C000000020D7E245C00000000000408FC000000080278C36C0000000601FDF47C00C000000130000007A0100003C00000006000000020000000000000000408FC00000008027
310
8C36C0000000601FDF47C0000000E0FF3F8F40000000C0278C36C0000000E01FDF47C00C00000013000000820100003C0000000600000002000000000000E0FF3F8F4000000000EE233FC0000000A0FE6142C0000000E0FF3F8F4000000020C9E63BC0000000C0BC1A44C00C000000130000008A0100003C00000006000000
310
020000000000000000408FC0000000C0ED233FC000000020FE6142C0000000E0FF3F8F4000000000EE233FC0000000A0FE6142C00C00000013000000920100003C00000006000000020000000000000000408FC0000000C0ED233FC000000020FE6142C00000000000408FC0000000E0C8E63BC000000040BC1A44C00C0000
310
00130000009A0100003C00000006000000020000000000000000408FC0000000E0C8E63BC000000040BC1A44C0000000E0FF3F8F4000000020C9E63BC0000000C0BC1A44C00C00000013000000A20100003C0000000600000002000000000000E0FF3F8F40000000A0A42A43C0000000C0FFF53EC0000000E0FF3F8F400000
310
0040634341C0000000A0C0E140C00C00000013000000AA0100003C00000006000000020000000000000000408FC000000080A42A43C0000000C0FEF53EC0000000E0FF3F8F40000000A0A42A43C0000000C0FFF53EC00C00000013000000B20100003C00000006000000020000000000000000408FC000000080A42A43C000
310
0000C0FEF53EC00000000000408FC000000040634341C000000020C0E140C00C00000013000000BA0100003C00000006000000020000000000000000408FC000000040634341C000000020C0E140C0000000E0FF3F8F4000000040634341C0000000A0C0E140C00C00000013000000C20100003C0000000600000002000000
310
000000E0FF3F8F4000000040383A47C000000000708C3AC0000000E0FF3F8F40000000E0401A45C0000000C0709E3CC00C00000013000000CA0100003C00000006000000020000000000000000408FC000000020383A47C0000000006F8C3AC0000000E0FF3F8F4000000040383A47C000000000708C3AC00C000000130000
310
00D20100003C00000006000000020000000000000000408FC000000020383A47C0000000006F8C3AC00000000000408FC0000000C0401A45C0000000C06F9E3CC00C00000013000000DA0100003C00000006000000020000000000000000408FC0000000C0401A45C0000000C06F9E3CC0000000E0FF3F8F40000000E0401A
310
45C0000000C0709E3CC00C00000013000000E20100003C0000000600000002000000000000E0FF3F8F4000000040C45749C00000004076F138C0000000E0FF3F8F40000000C09A9E4BC00000008057AC37C00C00000013000000EA0100003C00000006000000020000000000000000408FC0000000A09A9E4BC00000008056
310
AC37C0000000E0FF3F8F40000000C09A9E4BC00000008057AC37C00C00000013000000F20100003C00000006000000020000000000000000408FC0000000A09A9E4BC00000008056AC37C00000000000408FC000000020C45749C00000004075F138C00C00000013000000FA0100003C000000060000000200000000000000
310
00408FC000000020C45749C00000004075F138C0000000E0FF3F8F4000000040C45749C00000004076F138C00C00000013000000020200003C0000000600000002000000000000E0FF3F8F4000000000859D50C000000080D73D36C0000000E0FF3F8F400000008054D84DC0000000006FDB36C00C000000130000000A0200
310
003C00000006000000020000000000000000408FC0000000E0849D50C000000080D63D36C0000000E0FF3F8F4000000000859D50C000000080D73D36C00C00000013000000120200003C00000006000000020000000000000000408FC0000000E0849D50C000000080D63D36C00000000000408FC00000006054D84DC00000
310
00006EDB36C00C000000130000001A0200003C00000006000000020000000000000000408FC00000006054D84DC0000000006EDB36C0000000E0FF3F8F400000008054D84DC0000000006FDB36C00C00000013000000220200003C0000000600000002000000000000E0FF3F8F400000008044AA50C000000080010636C000
310
0000E0FF3F8F400000008044AA50C000000040C48333C00C000000130000002A0200003C00000006000000020000000000000000408FC00000004044AA50C000000040C38333C0000000E0FF3F8F400000008044AA50C000000040C48333C00C00000013000000320200003C00000006000000020000000000000000408FC0
310
0000004044AA50C000000040C38333C00000000000408FC00000004044AA50C000000080000636C00C000000130000003A0200003C00000006000000020000000000000000408FC00000004044AA50C000000080000636C0000000E0FF3F8F400000008044AA50C000000080010636C00C00000013000000420200003C0000
310
000600000002000000000000E0FF3F8F4000000040FDB650C0000000A0EA4A33C0000000E0FF3F8F40000000404EAE51C0000000C013DD32C00C000000130000004A0200003C00000006000000020000000000000000408FC0000000004EAE51C0000000C012DD32C0000000E0FF3F8F40000000404EAE51C0000000C013DD
310
32C00C00000013000000520200003C00000006000000020000000000000000408FC0000000004EAE51C0000000C012DD32C00000000000408FC000000000FDB650C0000000A0E94A33C00C000000130000005A0200003C00000006000000020000000000000000408FC000000000FDB650C0000000A0E94A33C0000000E0FF
310
3F8F4000000040FDB650C0000000A0EA4A33C00C00000013000000620200003C0000000600000002000000000000E0FF3F8F40000000002D5852C0000000C0514432C0000000E0FF3F8F40000000C001FD52C0000000203C6131C00C000000130000006A0200003C00000006000000020000000000000000408FC000000080
310
01FD52C0000000203B6131C0000000E0FF3F8F40000000C001FD52C0000000203C6131C00C00000013000000720200003C00000006000000020000000000000000408FC00000008001FD52C0000000203B6131C00000000000408FC0000000C02C5852C0000000C0504432C00C000000130000007A0200003C000000060000
310
00020000000000000000408FC0000000C02C5852C0000000C0504432C0000000E0FF3F8F40000000002D5852C0000000C0514432C00C00000013000000820200003C0000000600000002000000000000E0FF3F8F4000000080BE2E54C000000040E0912DC0000000E0FF3F8F40000000405D9A53C000000020293730C00C00
310
0000130000008A0200003C00000006000000020000000000000000408FC000000040BE2E54C000000040DE912DC0000000E0FF3F8F4000000080BE2E54C000000040E0912DC00C00000013000000920200003C00000006000000020000000000000000408FC000000040BE2E54C000000040DE912DC00000000000408FC000
310
0000005D9A53C000000020283730C00C000000130000009A0200003C00000006000000020000000000000000408FC0000000005D9A53C000000020283730C0000000E0FF3F8F40000000405D9A53C000000020293730C00C00000013000000A20200003C0000000600000002000000000000E0FF3F8F4000000080C87255C0
310
00000080A88324C0000000E0FF3F8F4000000080EFB754C00000008034382AC00C00000013000000AA0200003C00000006000000020000000000000000408FC000000040C87255C000000080A68324C0000000E0FF3F8F4000000080C87255C000000080A88324C00C00000013000000B20200003C00000006000000020000
310
000000000000408FC000000040C87255C000000080A68324C00000000000408FC000000040EFB754C00000008032382AC00C00000013000000BA0200003C00000006000000020000000000000000408FC000000040EFB754C00000008032382AC0000000E0FF3F8F4000000080EFB754C00000008034382AC00C0000001300
310
0000C20200003C0000000600000002000000000000E0FF3F8F4000000040AC8855C000000080F5FA23C0000000E0FF3F8F4000000080C87255C000000080A88324C00C00000013000000CA0200003C00000006000000020000000000000000408FC000000000AC8855C000000080F3FA23C0000000E0FF3F8F4000000040AC
310
8855C000000080F5FA23C00C00000013000000D20200003C00000006000000020000000000000000408FC000000000AC8855C000000080F3FA23C00000000000408FC000000040C87255C000000080A68324C00C00000013000000DA0200003C0000000600000002000000000000E0FF3F8F4000000040AC8855C000000080
310
F5FA23C0000000E0FF3F8F4000000080C3A355C00000008028CA23C00C00000013000000E20200003C00000006000000020000000000000000408FC000000040C3A355C00000008026CA23C0000000E0FF3F8F4000000080C3A355C00000008028CA23C00C00000013000000EA0200003C0000000600000002000000000000
310
0000408FC000000040C3A355C00000008026CA23C00000000000408FC000000000AC8855C000000080F3FA23C00C00000013000000F20200003C00000006000000020000000000000000408F40000000809A3656C00000008028CA23C0000000E0FF3F8F4000000080C3A355C00000008028CA23C00C00000013000000FA02
310
00003C0000000600000002000000000000E0FF3F8FC0000000409A3656C00000008026CA23C00000000000408F40000000809A3656C00000008028CA23C00C00000013000000020300003C0000000600000002000000000000E0FF3F8FC0000000409A3656C00000008026CA23C00000000000408FC000000040C3A355C000
310
00008026CA23C00C000000130000000A0300003C00000006000000020000000000000000408F40000000C0E25256C00000000020BC20C00000000000408F4000000000684556C000000000056523C00C00000013000000120300003C0000000600000002000000000000E0FF3F8FC000000080E25256C0000000801EBC20C0
310
0000000000408F40000000C0E25256C00000000020BC20C00C000000130000001A0300003C0000000600000002000000000000E0FF3F8FC000000080E25256C0000000801EBC20C0000000E0FF3F8FC0000000A0674556C000000000036523C00C00000013000000220300003C0000000600000002000000000000E0FF3F8F
310
C0000000A0674556C000000000036523C00000000000408F4000000000684556C000000000056523C00C000000130000002A0300003C00000006000000020000000000000000408F40000000C0DF7F56C00000000067F31BC00000000000408F40000000C0E25256C00000000020BC20C00C00000013000000320300003C00
310
00000600000002000000000000E0FF3F8FC000000080DF7F56C00000000063F31BC00000000000408F40000000C0DF7F56C00000000067F31BC00C000000130000003A0300003C0000000600000002000000000000E0FF3F8FC000000080DF7F56C00000000063F31BC0000000E0FF3F8FC000000080E25256C0000000801E
310
BC20C00C00000013000000420300003C00000006000000020000000000000000408F4000000000FBC556C000000000B49117C00000000000408F40000000C0DF7F56C00000000067F31BC00C000000130000004A0300003C0000000600000002000000000000E0FF3F8FC0000000C0FAC556C000000000B19117C000000000
310
00408F4000000000FBC556C000000000B49117C00C00000013000000520300003C0000000600000002000000000000E0FF3F8FC0000000C0FAC556C000000000B19117C0000000E0FF3F8FC000000080DF7F56C00000000063F31BC00C000000130000005A0300003C00000006000000020000000000000000408F40000000
310
00FBC556C000000000B49117C00000000000408F4000000080481E57C000000000E0C114C00C00000013000000620300003C0000000600000002000000000000E0FF3F8FC000000040481E57C000000000DDC114C00000000000408F4000000080481E57C000000000E0C114C00C000000130000006A0300003C0000000600
310
000002000000000000E0FF3F8FC000000040481E57C000000000DDC114C0000000E0FF3F8FC0000000C0FAC556C000000000B19117C00C00000013000000720300003C00000006000000020000000000000000408F4000000000657357C00000000031EA13C00000000000408F4000000080481E57C000000000E0C114C00C
310
000000130000007A0300003C0000000600000002000000000000E0FF3F8FC0000000C0647357C0000000002EEA13C00000000000408F4000000000657357C00000000031EA13C00C00000013000000820300003C0000000600000002000000000000E0FF3F8FC000000040481E57C000000000DDC114C0000000E0FF3F8FC0
310
000000C0647357C0000000002EEA13C00C000000130000008A0300003C00000006000000020000000000000000408F40000000C0098057C0000000000000FCBE0000000000408F4000000080098057C0000000005BFD12C00C00000013000000920300003C0000000600000002000000000000E0FF3F8FC000000080098057
310
C0000000000000F4BE0000000000408F40000000C0098057C0000000000000FCBE0C000000130000009A0300003C0000000600000002000000000000E0FF3F8FC000000080098057C0000000000000F4BE000000E0FF3F8FC000000040098057C00000000058FD12C00C00000013000000A20300003C000000060000000200
310
0000000000E0FF3F8FC000000040098057C00000000058FD12C00000000000408F4000000080098057C0000000005BFD12C00C00000013000000AA0300003C00000006000000020000000000000000408F40000000C0098057C0000000000000FCBE000000E0FF3F8F40000000804CAB55C000000000000006BF0C00000013
310
000000B20300003C00000006000000020000000000000000408FC0000000404CAB55C000000000000002BF000000E0FF3F8F40000000804CAB55C000000000000006BF0C00000013000000BA0300003C0000000600000002000000000000E0FF3F8FC000000080098057C0000000000000F4BE0000000000408FC000000040
310
4CAB55C000000000000002BF0C00000013000000C20300003C0000000600000002000000000000E0FF3F8F40000000804CAB55C000000000000006BF000000E0FF3F8F4000000040C50655C0000000008CBFF7BF0C00000013000000CA0300003C00000006000000020000000000000000408FC000000000C50655C0000000
310
0084BFF7BF000000E0FF3F8F4000000040C50655C0000000008CBFF7BF0C00000013000000D20300003C00000006000000020000000000000000408FC0000000404CAB55C000000000000002BF0000000000408FC000000000C50655C00000000084BFF7BF0C00000013000000DA0300003C00000006000000020000000000
310
00E0FF3F8F4000000040C50655C0000000008CBFF7BF000000E0FF3F8F40000000403E6254C000000000000006BF0C00000013000000E20300003C00000006000000020000000000000000408FC0000000003E6254C000000000000002BF000000E0FF3F8F40000000403E6254C000000000000006BF0C00000013000000EA
310
0300003C00000006000000020000000000000000408FC000000000C50655C00000000084BFF7BF0000000000408FC0000000003E6254C000000000000002BF0C00000013000000F20300003C0000000600000002000000000000E0FF3F8F40000000403E6254C000000000000006BF000000E0FF3F8F4000000020818D52C0
310
00000000000008BF0C00000013000000FA0300003C00000006000000020000000000000000408FC0000000C0808D52C000000000000000BF000000E0FF3F8F4000000020818D52C000000000000008BF0C00000013000000020400003C00000006000000020000000000000000408FC0000000003E6254C000000000000002
310
BF0000000000408FC0000000C0808D52C000000000000000BF0C000000130000000A0400003C0000000600000002000000000000E0FF3F8F4000000020818D52C000000000000008BF000000E0FF3F8F40000000E03A7752C000000000425305C00C00000013000000120400003C0000000600000002000000000000000040
310
8FC0000000803A7752C0000000003A5305C0000000E0FF3F8F40000000E03A7752C000000000425305C00C000000130000001A0400003C00000006000000020000000000000000408FC0000000C0808D52C000000000000000BF0000000000408FC0000000803A7752C0000000003A5305C00C00000013000000220400003C
310
0000000600000002000000000000E0FF3F8F40000000E03A7752C000000000425305C0000000E0FF3F8F4000000060E63552C000000000369C14C00C000000130000002A0400003C00000006000000020000000000000000408FC000000000E63552C000000000349C14C0000000E0FF3F8F4000000060E63552C000000000
310
369C14C00C00000013000000320400003C00000006000000020000000000000000408FC000000000E63552C000000000349C14C00000000000408FC0000000803A7752C0000000003A5305C00C000000130000003A0400003C0000000600000002000000000000E0FF3F8F4000000060E63552C000000000369C14C0000000
310
E0FF3F8F40000000E0E4CD51C000000000FE2C1DC00C00000013000000420400003C00000006000000020000000000000000408FC000000080E4CD51C000000000FB2C1DC0000000E0FF3F8F40000000E0E4CD51C000000000FE2C1DC00C000000130000004A0400003C00000006000000020000000000000000408FC00000
310
0080E4CD51C000000000FB2C1DC00000000000408FC000000000E63552C000000000349C14C00C00000013000000520400003C0000000600000002000000000000E0FF3F8F40000000E02F4651C00000004084E421C0000000E0FF3F8F40000000E0E4CD51C000000000FE2C1DC00C000000130000005A0400003C00000006
310
000000020000000000000000408FC0000000802F4651C00000004082E421C0000000E0FF3F8F40000000E02F4651C00000004084E421C00C00000013000000620400003C00000006000000020000000000000000408FC000000080E4CD51C000000000FB2C1DC00000000000408FC0000000802F4651C00000004082E421C0
310
0C000000130000006A0400003C0000000600000002000000000000E0FF3F8F40000000C0E0A750C0000000806DFF23C0000000E0FF3F8F40000000E02F4651C00000004084E421C00C00000013000000720400003C00000006000000020000000000000000408FC000000060E0A750C0000000806BFF23C0000000E0FF3F8F
310
40000000C0E0A750C0000000806DFF23C00C000000130000007A0400003C00000006000000020000000000000000408FC000000060E0A750C0000000806BFF23C00000000000408FC0000000802F4651C00000004082E421C00C00000013000000820400003C0000000600000002000000000000E0FF3F8F40000000C0E0A7
310
50C0000000806DFF23C0000000E0FF3F8F40000000A0121C49C0000000C0402A2DC00C000000130000008A0400003C00000006000000020000000000000000408FC000000080121C49C0000000C03E2A2DC0000000E0FF3F8F40000000A0121C49C0000000C0402A2DC00C00000013000000920400003C0000000600000002
310
0000000000000000408FC000000060E0A750C0000000806BFF23C00000000000408FC000000080121C49C0000000C03E2A2DC00C000000130000009A0400003C0000000600000002000000000000E0FF3F8F40000000A0121C49C0000000C0402A2DC0000000E0FF3F8F4000000000715D44C0000000E0CE1A32C00C000000
310
13000000A20400003C00000006000000020000000000000000408FC0000000E0705D44C0000000E0CD1A32C0000000E0FF3F8F4000000000715D44C0000000E0CE1A32C00C00000013000000AA0400003C00000006000000020000000000000000408FC000000080121C49C0000000C03E2A2DC00000000000408FC0000000
310
E0705D44C0000000E0CD1A32C00C00000013000000B20400003C0000000600000002000000000000E0FF3F8F4000000000715D44C0000000E0CE1A32C0000000E0FF3F8F40000000E0D5F33FC000000040372537C00C00000013000000BA0400003C00000006000000020000000000000000408FC0000000C0D5F33FC00000
310
0040362537C0000000E0FF3F8F40000000E0D5F33FC000000040372537C00C00000013000000C20400003C00000006000000020000000000000000408FC0000000E0705D44C0000000E0CD1A32C00000000000408FC0000000C0D5F33FC000000040362537C00C00000013000000CA0400003C000000060000000200000000
310
0000E0FF3F8F40000000E0D5F33FC000000040372537C0000000E0FF3F8F4000000040B22038C000000080EB903DC00C00000013000000D20400003C00000006000000020000000000000000408FC000000000B22038C000000080EA903DC0000000E0FF3F8F4000000040B22038C000000080EB903DC00C00000013000000
310
DA0400003C00000006000000020000000000000000408FC0000000C0D5F33FC000000040362537C00000000000408FC000000000B22038C000000080EA903DC00C00000013000000E20400003C0000000600000002000000000000E0FF3F8F4000000040B22038C000000080EB903DC0000000E0FF3F8F40000000C0717831
310
C0000000A0669842C00C00000013000000EA0400003C00000006000000020000000000000000408FC000000060717831C000000020669842C0000000E0FF3F8F40000000C0717831C0000000A0669842C00C00000013000000F20400003C00000006000000020000000000000000408FC000000000B22038C000000080EA90
310
3DC00000000000408FC000000060717831C000000020669842C00C00000013000000FA0400003C0000000600000002000000000000E0FF3F8F40000000C0B75328C0000000C0A5E746C0000000E0FF3F8F40000000C0717831C0000000A0669842C00C00000013000000020500003C00000006000000020000000000000000
310
408FC000000080B65328C000000040A5E746C0000000E0FF3F8F40000000C0B75328C0000000C0A5E746C00C000000130000000A0500003C00000006000000020000000000000000408FC000000060717831C000000020669842C00000000000408FC000000080B65328C000000040A5E746C00C0000001300000012050000
310
3C0000000600000002000000000000E0FF3F8F40000000007AB420C000000000E9974BC0000000E0FF3F8F40000000C0B75328C0000000C0A5E746C00C000000130000001A0500003C00000006000000020000000000000000408FC00000008079B420C000000080E8974BC0000000E0FF3F8F40000000007AB420C0000000
310
00E9974BC00C00000013000000220500003C00000006000000020000000000000000408FC000000080B65328C000000040A5E746C00000000000408FC00000008079B420C000000080E8974BC00C000000130000002A0500003C0000000600000002000000000000E0FF3F8F40000000002EEB19C0000000C0C09F4DC00000
310
00E0FF3F8F40000000007AB420C000000000E9974BC00C00000013000000320500003C00000006000000020000000000000000408FC0000000002BEB19C000000040C09F4DC0000000E0FF3F8F40000000002EEB19C0000000C0C09F4DC00C000000130000003A0500003C00000006000000020000000000000000408FC000
310
00008079B420C000000080E8974BC00000000000408FC0000000002BEB19C000000040C09F4DC00C00000013000000420500003C0000000600000002000000000000E0FF3F8F4000000000C20F0DC0000000803B594FC0000000E0FF3F8F40000000002EEB19C0000000C0C09F4DC00C000000130000004A0500003C000000
310
06000000020000000000000000408FC000000000C00F0DC0000000003B594FC0000000E0FF3F8F4000000000C20F0DC0000000803B594FC00C00000013000000520500003C00000006000000020000000000000000408FC0000000002BEB19C000000040C09F4DC00000000000408FC000000000C00F0DC0000000003B594F
310
C00C000000130000005A0500003C0000000600000002000000000000E0FF3F8F40000000000000E03E00000040905350C0000000E0FF3F8F4000000000C20F0DC0000000803B594FC00C00000013000000620500003C00000006000000020000000000000000408FC0000000000000E83E00000000905350C0000000E0FF3F
310
8F40000000000000E03E00000040905350C00C000000130000006A0500003C00000006000000020000000000000000408FC000000000C00F0DC0000000003B594FC00000000000408FC0000000000000E83E00000000905350C00C00000013000000720500003C0000000600000002000000000000E0FF3F8F400000000000
310
00E03E000000C0464553C0000000E0FF3F8F40000000000000E03E00000040905350C00C000000130000007A0500003C00000006000000020000000000000000408FC0000000000000E83E00000080464553C0000000E0FF3F8F40000000000000E03E000000C0464553C00C00000013000000820500003C00000006000000
310
020000000000000000408FC0000000000000E83E00000080464553C00000000000408FC0000000000000E83E00000000905350C00C000000130000008A0500003C0000000600000002000000000000E0FF3F8F400000000054BFF7BF000000C0CCE953C0000000E0FF3F8F40000000000000E03E000000C0464553C00C0000
310
0013000000920500003C00000006000000020000000000000000408FC00000000050BFF7BF00000080CCE953C0000000E0FF3F8F400000000054BFF7BF000000C0CCE953C00C000000130000009A0500003C00000006000000020000000000000000408FC00000000050BFF7BF00000080CCE953C00000000000408FC00000
310
00000000E83E00000080464553C00C00000013000000A20500003C0000000600000002000000000000E0FF3F8F40000000000000E0BE00000000558E54C0000000E0FF3F8F400000000054BFF7BF000000C0CCE953C00C00000013000000AA0500003C00000006000000020000000000000000408FC0000000000000D0BE00
310
0000C0548E54C0000000E0FF3F8F40000000000000E0BE00000000558E54C00C00000013000000B20500003C00000006000000020000000000000000408FC00000000050BFF7BF00000080CCE953C00000000000408FC0000000000000D0BE000000C0548E54C00C00000013000000BA0500003C0000000600000002000000
310
000000E0FF3F8F40000000000000E0BE00000000558E54C0000000C0FF3F8F40000000000000D0BE000000C00A8057C00C00000013000000C20500003C00000006000000020000000000002000408FC00000000000000000000000800A8057C00000000000408FC0000000000000D0BE000000C0548E54C00C000000130000
310
00CA0500003C0000000600000002000000000000E0FF3F8F40000000404EAE51C0000000C013DD32C0000000E0FF3F8F40000000002D5852C0000000C0514432C00C00000013000000D20500003C00000006000000020000000000000000408FC0000000004EAE51C0000000C012DD32C00000000000408FC0000000C02C58
310
52C0000000C0504432C00C00000013000000DA0500003C0000000600000002000000000000E0FF3F8F40000000C001FD52C0000000203C6131C0000000E0FF3F8F40000000405D9A53C000000020293730C00C00000013000000E20500003C00000006000000020000000000000000408FC00000008001FD52C0000000203B
310
6131C00000000000408FC0000000005D9A53C000000020283730C00C00000013000000EA0500003C0000000600000002000000000000E0FF3F8F4000000080EFB754C00000008034382AC0000000E0FF3F8F4000000080BE2E54C000000040E0912DC00C00000013000000F20500003C000000060000000200000000000000
310
00408FC000000040BE2E54C000000040DE912DC00000000000408FC000000040EFB754C00000008032382AC00C00000013000000FA0500003C0000000600000002000000000000E0FF3F8F4000000040D94B31C0000000C063384EC0000000E0FF3F8F4000000040D5A332C0000000C04A0F4CC00C00000013000000020600
310
003C00000006000000020000000000000000408FC000000000D94B31C00000004063384EC00000000000408FC000000000D5A332C0000000404A0F4CC00C000000130000000A0600003C0000000600000002000000000000E0FF3F8F4000000040537234C00000006023E049C0000000E0FF3F8F40000000C0278C36C00000
310
00E01FDF47C00C00000013000000120600003C00000006000000020000000000000000408FC000000000537234C0000000E022E049C00000000000408FC000000080278C36C0000000601FDF47C00C000000130000001A0600003C0000000600000002000000000000E0FF3F8F4000000000BD1C39C0000000A0D7E245C000
310
0000E0FF3F8F4000000020C9E63BC0000000C0BC1A44C00C00000013000000220600003C00000006000000020000000000000000408FC0000000C0BC1C39C000000020D7E245C00000000000408FC0000000E0C8E63BC000000040BC1A44C00C000000130000002A0600003C0000000600000002000000000000E0FF3F8F40
310
00000000EE233FC0000000A0FE6142C0000000E0FF3F8F4000000040634341C0000000A0C0E140C00C00000013000000320600003C00000006000000020000000000000000408FC0000000C0ED233FC000000020FE6142C00000000000408FC000000040634341C000000020C0E140C00C000000130000003A0600003C0000
310
000600000002000000000000E0FF3F8F40000000A0A42A43C0000000C0FFF53EC0000000E0FF3F8F40000000E0401A45C0000000C0709E3CC00C00000013000000420600003C00000006000000020000000000000000408FC000000080A42A43C0000000C0FEF53EC00000000000408FC0000000C0401A45C0000000C06F9E
310
3CC00C000000130000004A0600003C0000000600000002000000000000E0FF3F8F4000000040C45749C00000004076F138C0000000E0FF3F8F4000000040383A47C000000000708C3AC00C00000013000000520600003C00000006000000020000000000000000408FC000000020383A47C0000000006F8C3AC00000000000
310
408FC000000020C45749C00000004075F138C00C000000130000005A0600003C0000000600000002000000000000E0FF3F8F400000008054D84DC0000000006FDB36C0000000E0FF3F8F40000000C09A9E4BC00000008057AC37C00C00000013000000620600003C00000006000000020000000000000000408FC0000000A0
310
9A9E4BC00000008056AC37C00000000000408FC00000006054D84DC0000000006EDB36C00C000000130000006A0600003C0000000600000002000000000000C0FF3F8F400000000058FD12C0000000C0098057C0000000C0FF3F8F4000000000F49E13C0000000A0E07C57C00C00000013000000720600003C000000060000
310
00020000000000002000408FC000000000F29E13C000000060E07C57C0000000C0FF3F8F4000000000F49E13C0000000A0E07C57C00C000000130000007A0600003C00000006000000020000000000002000408FC00000000056FD12C000000080098057C00000002000408FC000000000F29E13C000000060E07C57C00C00
310
000013000000820600003C0000000600000002000000000000C0FF3F8F4000000080006523C000000020684556C0000000C0FF3F8F4000000000DBB023C000000080B44056C00C000000130000008A0600003C00000006000000020000000000002000408FC000000080DAB023C000000040B44056C0000000C0FF3F8F4000
310
000000DBB023C000000080B44056C00C00000013000000920600003C00000006000000020000000000002000408FC000000000006523C0000000E0674556C00000002000408FC000000080DAB023C000000040B44056C00C000000130000009A0600003C0000000600000002000000000000E0FF3F8F400000000024CA23C0
310
000000C0E55255C0000000E0FF3F8F4000000080BDE323C0000000404C4955C00C00000013000000A20600003C00000006000000020000000000000000408FC000000000BDE323C0000000004C4955C0000000E0FF3F8F4000000080BDE323C0000000404C4955C00C00000013000000AA0600003C00000006000000020000
310
000000000000408FC00000008023CA23C000000080E55255C00000000000408FC000000000BDE323C0000000004C4955C00C00000013000000B20600003C0000000600000002000000000000E0FF3F8F40000000C0945329C000000000194655C0000000E0FF3F8F40000000C061A029C0000000C0E54255C00C0000001300
310
0000BA0600003C00000006000000020000000000000000408FC00000000061A029C000000080E54255C0000000E0FF3F8F40000000C061A029C0000000C0E54255C00C00000013000000C20600003C00000006000000020000000000000000408FC000000000945329C0000000C0184655C00000000000408FC00000000061
310
A029C000000080E54255C00C00000013000000CA0600003C0000000600000002000000000000E0FF3F8F4000000000FAB929C00000002004DF50C0000000E0FF3F8F400000008093D329C0000000A06AD550C00C00000013000000D20600003C00000006000000020000000000000000408FC00000000093D329C000000060
310
6AD550C0000000E0FF3F8F400000008093D329C0000000A06AD550C00C00000013000000DA0600003C00000006000000020000000000000000408FC000000080F9B929C0000000E003DF50C00000000000408FC00000000093D329C0000000606AD550C00C00000013000000E20600003C0000000600000002000000000000
310
E0FF3F8F40000000C06C432FC00000008037D250C0000000E0FF3F8F400000000095952FC00000006016CF50C00C00000013000000EA0600003C00000006000000020000000000000000408FC00000000094952FC00000002016CF50C0000000E0FF3F8F400000000095952FC00000006016CF50C00C00000013000000F206
310
00003C00000006000000020000000000000000408FC0000000006C432FC00000004037D250C00000000000408FC00000000094952FC00000002016CF50C00C00000013000000FA0600003C0000000600000002000000000000E0FF3F8F400000008014A750C0000000A0902D36C0000000E0FF3F8F4000000000859D50C000
310
000080D73D36C00C00000013000000020700003C00000006000000020000000000000000408FC00000006014A750C0000000A08F2D36C0000000E0FF3F8F400000008014A750C0000000A0902D36C00C000000130000000A0700003C00000006000000020000000000000000408FC0000000E0849D50C000000080D63D36C0
310
0000000000408FC00000006014A750C0000000A08F2D36C00C00000013000000120700003C0000000600000002000000000000E0FF3F8F40000000C072AD50C000000040F45B33C0000000E0FF3F8F400000008044AA50C000000040C48333C00C000000130000001A0700003C00000006000000020000000000000000408F
310
C00000008072AD50C000000040F35B33C0000000E0FF3F8F40000000C072AD50C000000040F45B33C00C00000013000000220700003C00000006000000020000000000000000408FC00000004044AA50C000000040C38333C00000000000408FC00000008072AD50C000000040F35B33C00C000000130000002A0700003C00
310
000006000000020000000000000000408F40000000809A3656C00000008028CA23C00000000000408F4000000040B44056C000000080DFB023C00C00000013000000320700003C0000000600000002000000000000E0FF3F8FC000000000B44056C000000080DDB023C00000000000408F4000000040B44056C000000080DF
310
B023C00C000000130000003A0700003C0000000600000002000000000000E0FF3F8FC0000000409A3656C00000008026CA23C0000000E0FF3F8FC000000000B44056C000000080DDB023C00C00000013000000420700003C00000006000000020000000000000000408F4000000000657357C00000000031EA13C000000000
310
00408F4000000080E07C57C000000000F79E13C00C000000130000004A0700003C0000000600000002000000000000E0FF3F8FC000000020E07C57C000000000F49E13C00000000000408F4000000080E07C57C000000000F79E13C00C00000013000000520700003C0000000600000002000000000000E0FF3F8FC0000000
310
C0647357C0000000002EEA13C0000000E0FF3F8FC000000020E07C57C000000000F49E13C00C000000130000005A0700003C0000000600000002000000000000C0FF3F8F4000000000F49E13C0000000A0E07C57C0000000C0FF3F8F40000000002EEA13C000000040657357C00C00000013000000620700003C0000000600
310
0000020000000000002000408FC0000000002DEA13C000000000657357C00000002000408FC000000000F29E13C000000060E07C57C00C000000130000006A0700003C0000000600000002000000000000C0FF3F8F400000000024CA23C0000000C09A3656C0000000C0FF3F8F4000000000DBB023C000000080B44056C00C
310
00000013000000720700003C00000006000000020000000000002000408FC00000008023CA23C0000000809A3656C00000002000408FC000000080DAB023C000000040B44056C00C000000130000007A0700003C0000000600000002000000000000E0FF3F8F4000000080BDE323C0000000404C4955C0000000E0FF3F8F40
310
000000808A3024C000000000194655C00C00000013000000820700003C00000006000000020000000000000000408FC0000000008A3024C0000000C0184655C00000000000408FC000000000BDE323C0000000004C4955C00C000000130000008A0700003C0000000600000002000000000000E0FF3F8F40000000C061A029
310
C0000000C0E54255C0000000E0FF3F8F4000000040FBB929C0000000404C3955C00C00000013000000920700003C00000006000000020000000000000000408FC000000080FAB929C0000000004C3955C00000000000408FC00000000061A029C000000080E54255C00C000000130000009A0700003C000000060000000200
310
0000000000E0FF3F8F400000008093D329C0000000A06AD550C0000000E0FF3F8F400000008060202AC00000006037D250C00C00000013000000A20700003C00000006000000020000000000000000408FC00000000060202AC00000002037D250C00000000000408FC00000000093D329C0000000606AD550C00C00000013
310
000000AA0700003C0000000600000002000000000000E0FF3F8F400000000095952FC00000006016CF50C0000000E0FF3F8F400000008040BF2FC000000040B3C550C00C00000013000000B20700003C00000006000000020000000000000000408FC0000000C03FBF2FC000000000B3C550C00000000000408FC000000000
310
94952FC00000002016CF50C00C00000013000000BA0700003C0000000600000002000000000000E0FF3F8F400000008014A750C0000000A0902D36C0000000E0FF3F8F400000008044AA50C000000080010636C00C00000013000000C20700003C00000006000000020000000000000000408FC00000004044AA50C0000000
310
80000636C00000000000408FC00000006014A750C0000000A08F2D36C00C00000013000000CA0700003C0000000600000002000000000000E0FF3F8F40000000C072AD50C000000040F45B33C0000000E0FF3F8F4000000040FDB650C0000000A0EA4A33C00C00000013000000D20700003C00000006000000020000000000
310
000000408FC000000000FDB650C0000000A0E94A33C00000000000408FC00000008072AD50C000000040F35B33C00C00000013000000DA0700003C00000006000000020000000000000000408F4000000000684556C000000000056523C00000000000408F4000000040B44056C000000080DFB023C00C00000013000000E2
310
0700003C0000000600000002000000000000E0FF3F8FC0000000A0674556C000000000036523C0000000E0FF3F8FC000000000B44056C000000080DDB023C00C00000013000000EA0700003C00000006000000020000000000000000408F4000000080098057C0000000005BFD12C00000000000408F4000000080E07C57C0
310
00000000F79E13C00C00000013000000F20700003C0000000600000002000000000000E0FF3F8FC000000040098057C00000000058FD12C0000000E0FF3F8FC000000020E07C57C000000000F49E13C00C00000013000000FA0700003C00000006000000020000000000000000408FC0000000404CAB55C000000000000002
310
BF000000E0FF3F8FC000000040098057C00000000058FD12C00C00000013000000020800003C0000000600000002000000000000E0FF3F8FC0000000C0647357C0000000002EEA13C00000000000408FC0000000404CAB55C000000000000002BF0C000000130000000A0800003C0000000600000002000000000000000040
310
8FC0000000404CAB55C000000000000002BF000000E0FF3F8FC000000020E07C57C000000000F49E13C00C00000013000000120800003C0000000600000002000000000000E0FF3F8FC0000000C0FAC556C000000000B19117C00000000000408FC0000000404CAB55C000000000000002BF0C000000130000001A0800003C
310
0000000600000002000000000000E0FF3F8FC000000040481E57C000000000DDC114C00000000000408FC0000000404CAB55C000000000000002BF0C00000013000000220800003C0000000600000002000000000000E0FF3F8FC000000080DF7F56C00000000063F31BC00000000000408FC000000000C50655C000000000
310
84BFF7BF0C000000130000002A0800003C0000000600000002000000000000E0FF3F8FC000000080E25256C0000000801EBC20C00000000000408FC000000000C50655C00000000084BFF7BF0C00000013000000320800003C00000006000000020000000000000000408FC000000000C50655C00000000084BFF7BF000000
310
E0FF3F8FC0000000A0674556C000000000036523C00C000000130000003A0800003C0000000600000002000000000000E0FF3F8FC0000000409A3656C00000008026CA23C00000000000408FC000000000C50655C00000000084BFF7BF0C00000013000000420800003C00000006000000020000000000000000408FC00000
310
0000C50655C00000000084BFF7BF000000E0FF3F8FC000000000B44056C000000080DDB023C00C000000130000004A0800003C00000006000000020000000000000000408FC000000000AC8855C000000080F3FA23C00000000000408FC0000000003E6254C000000000000002BF0C00000013000000520800003C00000006
310
000000020000000000000000408FC000000040C3A355C00000008026CA23C00000000000408FC000000000C50655C00000000084BFF7BF0C000000130000005A0800003C00000006000000020000000000000000408FC000000040C87255C000000080A68324C00000000000408FC0000000C0808D52C000000000000000BF
310
0C00000013000000620800003C00000006000000020000000000000000408FC000000080121C49C0000000C03E2A2DC00000000000408FC00000008072AD50C000000040F35B33C00C000000130000006A0800003C00000006000000020000000000000000408FC000000060E0A750C0000000806BFF23C00000000000408F
310
C000000000FDB650C0000000A0E94A33C00C00000013000000720800003C00000006000000020000000000000000408FC0000000803A7752C0000000003A5305C00000000000408FC000000040EFB754C00000008032382AC00C000000130000007A0800003C00000006000000020000000000000000408FC000000040BE2E
310
54C000000040DE912DC00000000000408FC000000000E63552C000000000349C14C00C00000013000000820800003C00000006000000020000000000000000408FC0000000004EAE51C0000000C012DD32C00000000000408FC0000000802F4651C00000004082E421C00C000000130000008A0800003C0000000600000002
310
0000000000000000408FC000000080E4CD51C000000000FB2C1DC00000000000408FC0000000C02C5852C0000000C0504432C00C00000013000000920800003C00000006000000020000000000000000408FC00000008001FD52C0000000203B6131C00000000000408FC000000080E4CD51C000000000FB2C1DC00C000000
310
130000009A0800003C00000006000000020000000000000000408FC000000000E63552C000000000349C14C00000000000408FC0000000005D9A53C000000020283730C00C00000013000000A20800003C00000006000000020000000000000000408FC000000080121C49C0000000C03E2A2DC00000000000408FC0000000
310
6014A750C0000000A08F2D36C00C00000013000000AA0800003C00000006000000020000000000000000408FC000000080121C49C0000000C03E2A2DC00000000000408FC00000004044AA50C000000080000636C00C00000013000000B20800003C00000006000000020000000000000000408FC00000004044AA50C00000
310
0040C38333C00000000000408FC000000080121C49C0000000C03E2A2DC00C00000013000000BA0800003C00000006000000020000000000000000408FC0000000E0849D50C000000080D63D36C00000000000408FC000000080121C49C0000000C03E2A2DC00C00000013000000C20800003C000000060000000200000000
310
00000000408FC000000080121C49C0000000C03E2A2DC00000000000408FC00000006054D84DC0000000006EDB36C00C00000013000000CA0800003C00000006000000020000000000002000408FC00000000056FD12C000000080098057C00000000000408FC0000000000000D0BE000000C0548E54C00C00000013000000
310
D20800003C00000006000000020000000000000000408FC0000000000000D0BE000000C0548E54C00000002000408FC000000000F29E13C000000060E07C57C00C00000013000000DA0800003C00000006000000020000000000000000408FC0000000000000D0BE000000C0548E54C00000002000408FC0000000002DEA13
310
C000000000657357C00C00000013000000E20800003C00000006000000020000000000002000408FC000000000DBC114C000000080481E57C00000000000408FC0000000000000D0BE000000C0548E54C00C00000013000000EA0800003C00000006000000020000000000002000408FC000000000AB9117C000000000FBC5
310
56C00000000000408FC0000000000000D0BE000000C0548E54C00C00000013000000F20800003C00000006000000020000000000002000408FC0000000005EF31BC0000000C0DF7F56C00000000000408FC0000000000000D0BE000000C0548E54C00C00000013000000FA0800003C00000006000000020000000000000000
310
408FC0000000000000D0BE000000C0548E54C00000002000408FC00000008023CA23C0000000809A3656C00C00000013000000020900003C00000006000000020000000000000000408FC00000008023CA23C000000080E55255C00000000000408FC00000000050BFF7BF00000080CCE953C00C000000130000000A090000
310
3C00000006000000020000000000000000408FC00000000050BFF7BF00000080CCE953C00000000000408FC000000000BDE323C0000000004C4955C00C00000013000000120900003C00000006000000020000000000000000408FC00000000050BFF7BF00000080CCE953C00000000000408FC0000000008A3024C0000000
310
C0184655C00C000000130000001A0900003C00000006000000020000000000002000408FC0000000801BBC20C0000000C0E25256C00000000000408FC0000000000000D0BE000000C0548E54C00C00000013000000220900003C00000006000000020000000000002000408FC000000000006523C0000000E0674556C00000
310
000000408FC0000000000000D0BE000000C0548E54C00C000000130000002A0900003C00000006000000020000000000000000408FC0000000000000D0BE000000C0548E54C00000002000408FC000000080DAB023C000000040B44056C00C00000013000000320900003C00000006000000020000000000000000408FC000
310
000000945329C0000000C0184655C00000000000408FC0000000000000E83E00000080464553C00C000000130000003A0900003C00000006000000020000000000000000408FC0000000000000E83E00000080464553C00000000000408FC00000000061A029C000000080E54255C00C00000013000000420900003C000000
310
06000000020000000000000000408FC0000000000000E83E00000080464553C00000000000408FC000000080FAB929C0000000004C3955C00C000000130000004A0900003C00000006000000020000000000000000408FC000000080F9B929C0000000E003DF50C00000000000408FC0000000000000E83E00000000905350
310
C00C00000013000000520900003C00000006000000020000000000000000408FC000000000C00F0DC0000000003B594FC00000000000408FC00000000093D329C0000000606AD550C00C000000130000005A0900003C00000006000000020000000000000000408FC000000000C00F0DC0000000003B594FC0000000000040
310
8FC00000000060202AC00000002037D250C00C00000013000000620900003C00000006000000020000000000000000408FC0000000006C432FC00000004037D250C00000000000408FC0000000002BEB19C000000040C09F4DC00C000000130000006A0900003C00000006000000020000000000000000408FC0000000002B
310
EB19C000000040C09F4DC00000000000408FC00000000094952FC00000002016CF50C00C00000013000000720900003C00000006000000020000000000000000408FC0000000002BEB19C000000040C09F4DC00000000000408FC0000000C03FBF2FC000000000B3C550C00C000000130000007A0900003C00000006000000
310
020000000000000000408FC000000080121C49C0000000C03E2A2DC00000000000408FC000000020C45749C00000004075F138C00C00000013000000820900003C00000006000000020000000000000000408FC0000000A09A9E4BC00000008056AC37C00000000000408FC000000080121C49C0000000C03E2A2DC00C0000
310
00130000008A0900003C00000006000000020000000000000000408FC000000000D94B31C00000004063384EC00000000000408FC00000008079B420C000000080E8974BC00C00000013000000920900003C00000006000000020000000000000000408FC00000008079B420C000000080E8974BC00000000000408FC00000
310
0000D5A332C0000000404A0F4CC00C000000130000009A0900003C00000006000000020000000000000000408FC000000000537234C0000000E022E049C00000000000408FC000000080B65328C000000040A5E746C00C00000013000000A20900003C00000006000000020000000000000000408FC000000080B65328C000
310
000040A5E746C00000000000408FC000000080278C36C0000000601FDF47C00C00000013000000AA0900003C00000006000000020000000000000000408FC000000020383A47C0000000006F8C3AC00000000000408FC0000000E0705D44C0000000E0CD1A32C00C00000013000000B20900003C0000000600000002000000
310
0000000000408FC000000080A42A43C0000000C0FEF53EC00000000000408FC0000000C0D5F33FC000000040362537C00C00000013000000BA0900003C00000006000000020000000000000000408FC0000000E0705D44C0000000E0CD1A32C00000000000408FC0000000C0401A45C0000000C06F9E3CC00C000000130000
310
00C20900003C00000006000000020000000000000000408FC0000000C0ED233FC000000020FE6142C00000000000408FC000000000B22038C000000080EA903DC00C00000013000000CA0900003C00000006000000020000000000000000408FC0000000C0D5F33FC000000040362537C00000000000408FC0000000406343
310
41C000000020C0E140C00C00000013000000D20900003C00000006000000020000000000000000408FC0000000C0BC1C39C000000020D7E245C00000000000408FC000000060717831C000000020669842C00C00000013000000DA0900003C00000006000000020000000000000000408FC000000060717831C00000002066
310
9842C00000000000408FC0000000E0C8E63BC000000040BC1A44C00C00000013000000E20900003C0000000600000002000000000000E0FF3F8F40000000804CAB55C000000000000006BF0000000000408F4000000080098057C0000000005BFD12C00C00000013000000EA0900003C0000000600000002000000000000E0
310
FF3F8F40000000804CAB55C000000000000006BF0000000000408F4000000080E07C57C000000000F79E13C00C00000013000000F20900003C0000000600000002000000000000E0FF3F8F40000000804CAB55C000000000000006BF0000000000408F4000000000657357C00000000031EA13C00C00000013000000FA0900
310
003C0000000600000002000000000000E0FF3F8F40000000804CAB55C000000000000006BF0000000000408F4000000080481E57C000000000E0C114C00C00000013000000020A00003C0000000600000002000000000000E0FF3F8F40000000804CAB55C000000000000006BF0000000000408F4000000000FBC556C00000
310
0000B49117C00C000000130000000A0A00003C0000000600000002000000000000E0FF3F8F4000000040C50655C0000000008CBFF7BF0000000000408F40000000C0DF7F56C00000000067F31BC00C00000013000000120A00003C0000000600000002000000000000E0FF3F8F4000000040C50655C0000000008CBFF7BF00
310
00000000408F40000000C0E25256C00000000020BC20C00C000000130000001A0A00003C0000000600000002000000000000E0FF3F8F4000000040C50655C0000000008CBFF7BF0000000000408F4000000000684556C000000000056523C00C00000013000000220A00003C0000000600000002000000000000E0FF3F8F40
310
00000040C50655C0000000008CBFF7BF0000000000408F4000000040B44056C000000080DFB023C00C000000130000002A0A00003C0000000600000002000000000000E0FF3F8F4000000040C50655C0000000008CBFF7BF0000000000408F40000000809A3656C00000008028CA23C00C00000013000000320A00003C0000
310
000600000002000000000000E0FF3F8F4000000040C50655C0000000008CBFF7BF000000E0FF3F8F4000000080C3A355C00000008028CA23C00C000000130000003A0A00003C0000000600000002000000000000E0FF3F8F40000000403E6254C000000000000006BF000000E0FF3F8F4000000040AC8855C000000080F5FA
310
23C00C00000013000000420A00003C0000000600000002000000000000E0FF3F8F4000000020818D52C000000000000008BF000000E0FF3F8F4000000080C87255C000000080A88324C00C000000130000004A0A00003C0000000600000002000000000000E0FF3F8F40000000C0E0A750C0000000806DFF23C0000000E0FF
310
3F8F4000000040FDB650C0000000A0EA4A33C00C00000013000000520A00003C0000000600000002000000000000E0FF3F8F40000000A0121C49C0000000C0402A2DC0000000E0FF3F8F40000000C072AD50C000000040F45B33C00C000000130000005A0A00003C0000000600000002000000000000E0FF3F8F40000000E0
310
3A7752C000000000425305C0000000E0FF3F8F4000000080EFB754C00000008034382AC00C00000013000000620A00003C0000000600000002000000000000E0FF3F8F4000000060E63552C000000000369C14C0000000E0FF3F8F4000000080BE2E54C000000040E0912DC00C000000130000006A0A00003C000000060000
310
0002000000000000E0FF3F8F40000000E02F4651C00000004084E421C0000000E0FF3F8F40000000404EAE51C0000000C013DD32C00C00000013000000720A00003C0000000600000002000000000000E0FF3F8F40000000E0E4CD51C000000000FE2C1DC0000000E0FF3F8F40000000002D5852C0000000C0514432C00C00
310
0000130000007A0A00003C0000000600000002000000000000E0FF3F8F40000000E0E4CD51C000000000FE2C1DC0000000E0FF3F8F40000000C001FD52C0000000203C6131C00C00000013000000820A00003C0000000600000002000000000000E0FF3F8F4000000060E63552C000000000369C14C0000000E0FF3F8F4000
310
0000405D9A53C000000020293730C00C000000130000008A0A00003C0000000600000002000000000000E0FF3F8F40000000A0121C49C0000000C0402A2DC0000000E0FF3F8F400000008044AA50C000000080010636C00C00000013000000920A00003C0000000600000002000000000000E0FF3F8F40000000A0121C49C0
310
000000C0402A2DC0000000E0FF3F8F400000008014A750C0000000A0902D36C00C000000130000009A0A00003C0000000600000002000000000000E0FF3F8F40000000A0121C49C0000000C0402A2DC0000000E0FF3F8F400000008044AA50C000000040C48333C00C00000013000000A20A00003C00000006000000020000
310
00000000E0FF3F8F40000000A0121C49C0000000C0402A2DC0000000E0FF3F8F4000000000859D50C000000080D73D36C00C00000013000000AA0A00003C0000000600000002000000000000E0FF3F8F40000000A0121C49C0000000C0402A2DC0000000E0FF3F8F400000008054D84DC0000000006FDB36C00C0000001300
310
0000B20A00003C0000000600000002000000000000E0FF3F8F40000000000000E0BE00000000558E54C0000000C0FF3F8F400000000058FD12C0000000C0098057C00C00000013000000BA0A00003C0000000600000002000000000000E0FF3F8F40000000000000E0BE00000000558E54C0000000C0FF3F8F4000000000F4
310
9E13C0000000A0E07C57C00C00000013000000C20A00003C0000000600000002000000000000E0FF3F8F40000000000000E0BE00000000558E54C0000000C0FF3F8F40000000002EEA13C000000040657357C00C00000013000000CA0A00003C0000000600000002000000000000E0FF3F8F40000000000000E0BE00000000
310
558E54C0000000C0FF3F8F4000000000DCC114C0000000C0481E57C00C00000013000000D20A00003C0000000600000002000000000000E0FF3F8F40000000000000E0BE00000000558E54C0000000C0FF3F8F4000000000AC9117C000000040FBC556C00C00000013000000DA0A00003C0000000600000002000000000000
310
E0FF3F8F40000000000000E0BE00000000558E54C0000000C0FF3F8F400000000060F31BC000000000E07F56C00C00000013000000E20A00003C0000000600000002000000000000E0FF3F8F400000000054BFF7BF000000C0CCE953C0000000E0FF3F8F400000000024CA23C0000000C0E55255C00C00000013000000EA0A
310
00003C0000000600000002000000000000E0FF3F8F40000000000000E0BE00000000558E54C0000000C0FF3F8F400000000024CA23C0000000C09A3656C00C00000013000000F20A00003C0000000600000002000000000000E0FF3F8F400000000054BFF7BF000000C0CCE953C0000000E0FF3F8F4000000080BDE323C000
310
0000404C4955C00C00000013000000FA0A00003C0000000600000002000000000000E0FF3F8F400000000054BFF7BF000000C0CCE953C0000000E0FF3F8F40000000808A3024C000000000194655C00C00000013000000020B00003C0000000600000002000000000000E0FF3F8F40000000000000E0BE00000000558E54C0
310
000000C0FF3F8F40000000001CBC20C000000000E35256C00C000000130000000A0B00003C0000000600000002000000000000E0FF3F8F40000000000000E0BE00000000558E54C0000000C0FF3F8F4000000080006523C000000020684556C00C00000013000000120B00003C0000000600000002000000000000E0FF3F8F
310
40000000000000E0BE00000000558E54C0000000C0FF3F8F4000000000DBB023C000000080B44056C00C000000130000001A0B00003C0000000600000002000000000000E0FF3F8F40000000000000E03E000000C0464553C0000000E0FF3F8F40000000C061A029C0000000C0E54255C00C00000013000000220B00003C00
310
00000600000002000000000000E0FF3F8F40000000000000E03E000000C0464553C0000000E0FF3F8F40000000C0945329C000000000194655C00C000000130000002A0B00003C0000000600000002000000000000E0FF3F8F40000000000000E03E000000C0464553C0000000E0FF3F8F4000000040FBB929C0000000404C
310
3955C00C00000013000000320B00003C0000000600000002000000000000E0FF3F8F40000000000000E03E00000040905350C0000000E0FF3F8F4000000000FAB929C00000002004DF50C00C000000130000003A0B00003C0000000600000002000000000000E0FF3F8F4000000000C20F0DC0000000803B594FC0000000E0
310
FF3F8F400000008093D329C0000000A06AD550C00C00000013000000420B00003C0000000600000002000000000000E0FF3F8F4000000000C20F0DC0000000803B594FC0000000E0FF3F8F400000008060202AC00000006037D250C00C000000130000004A0B00003C0000000600000002000000000000E0FF3F8F40000000
310
002EEB19C0000000C0C09F4DC0000000E0FF3F8F400000000095952FC00000006016CF50C00C00000013000000520B00003C0000000600000002000000000000E0FF3F8F40000000002EEB19C0000000C0C09F4DC0000000E0FF3F8F40000000C06C432FC00000008037D250C00C000000130000005A0B00003C0000000600
310
000002000000000000E0FF3F8F40000000002EEB19C0000000C0C09F4DC0000000E0FF3F8F400000008040BF2FC000000040B3C550C00C00000013000000620B00003C0000000600000002000000000000E0FF3F8F40000000A0121C49C0000000C0402A2DC0000000E0FF3F8F40000000C09A9E4BC00000008057AC37C00C
310
000000130000006A0B00003C0000000600000002000000000000E0FF3F8F40000000A0121C49C0000000C0402A2DC0000000E0FF3F8F4000000040C45749C00000004076F138C00C00000013000000720B00003C0000000600000002000000000000E0FF3F8F40000000007AB420C000000000E9974BC0000000E0FF3F8F40
310
00000040D94B31C0000000C063384EC00C000000130000007A0B00003C0000000600000002000000000000E0FF3F8F40000000007AB420C000000000E9974BC0000000E0FF3F8F4000000040D5A332C0000000C04A0F4CC00C00000013000000820B00003C0000000600000002000000000000E0FF3F8F40000000C0B75328
310
C0000000C0A5E746C0000000E0FF3F8F4000000040537234C00000006023E049C00C000000130000008A0B00003C0000000600000002000000000000E0FF3F8F40000000C0B75328C0000000C0A5E746C0000000E0FF3F8F40000000C0278C36C0000000E01FDF47C00C00000013000000920B00003C000000060000000200
310
0000000000E0FF3F8F4000000000715D44C0000000E0CE1A32C0000000E0FF3F8F4000000040383A47C000000000708C3AC00C000000130000009A0B00003C0000000600000002000000000000E0FF3F8F4000000000715D44C0000000E0CE1A32C0000000E0FF3F8F40000000E0401A45C0000000C0709E3CC00C00000013
310
000000A20B00003C0000000600000002000000000000E0FF3F8F40000000E0D5F33FC000000040372537C0000000E0FF3F8F40000000A0A42A43C0000000C0FFF53EC00C00000013000000AA0B00003C0000000600000002000000000000E0FF3F8F40000000E0D5F33FC000000040372537C0000000E0FF3F8F4000000040
310
634341C0000000A0C0E140C00C00000013000000B20B00003C0000000600000002000000000000E0FF3F8F4000000040B22038C000000080EB903DC0000000E0FF3F8F4000000000EE233FC0000000A0FE6142C00C00000013000000BA0B00003C0000000600000002000000000000E0FF3F8F40000000C0717831C0000000
310
A0669842C0000000E0FF3F8F4000000000BD1C39C0000000A0D7E245C00C00000013000000C20B00003C0000000600000002000000000000E0FF3F8F40000000C0717831C0000000A0669842C0000000E0FF3F8F4000000020C9E63BC0000000C0BC1A44C0
100
AcDbSubDMesh
 71
     2
 72
     0
 91
        0
 92
      170
 10
-999.9999389648436
 20
-92.47315979003905
 30
-5.189319610595703
 10
-999.9999389648436
 20
-94.00057983398438
 30
-0.0000190734863281
 10
-999.9999389648436
 20
-93.80302429199218
 30
-4.978691101074218
 10
-999.9999389648436
 20
-91.09342956542969
 30
-5.892276763916015
 10
-999.9999389648436
 20
-89.99801635742187
 30
-6.987682342529296
 10
-1000.0
 20
-86.67652893066406
 30
-0.0000343322753906
 10
-999.9999389648436
 20
-89.29507446289063
 30
-8.367420196533203
 10
-999.9999389648436
 20
-88.85316467285155
 30
-9.894824981689453
 10
-1000.0
 20
-86.55879211425782
 30
-9.894824981689453
 10
-1000.0
 20
-86.13549804687499
 30
-9.990139007568359
 10
-1000.0
 20
-84.10577392578124
 30
-1.484256744384765
 10
-1000.0
 20
-85.79347229003905
 30
-10.25712966918945
 10
-1000.0
 20
-80.73036193847656
 30
-14.78489875793457
 10
-1000.0
 20
-81.5350341796875
 30
-0.0000343322753906
 10
-1000.0
 20
-75.95321655273437
 30
-17.37980842590332
 10
-1000.0
 20
-74.21098327636719
 30
-0.000030517578125
 10
-1000.0
 20
-70.7235107421875
 30
-18.86356735229492
 10
-1000.0
 20
-71.21707153320312
 30
-7.293926239013671
 10
-1000.0
 20
-66.66041564941406
 30
-19.51469802856445
 10
-1000.0
 20
-72.8421630859375
 30
-5.152542114257812
 10
-1000.0
 20
-73.86294555664062
 30
-2.665637969970703
 10
-1000.0
 20
-55.23909378051758
 30
-23.6731948852539
 10
-1000.0
 20
-66.46123504638672
 30
-22.24155426025391
 10
-1000.0
 20
-66.62306976318359
 30
-9.998867034912109
 10
-1000.0
 20
-69.09664916992188
 30
-8.946306228637695
 10
-1000.0
 20
-50.21931457519531
 30
-14.58250999450683
 10
-1000.0
 20
-46.45483779907226
 30
-26.54856872558594
 10
-1000.0
 20
-40.73000717163085
 30
-18.10470390319824
 10
-1000.0
 20
-38.33314514160156
 30
-30.96091842651367
 10
-1000.0
 20
-31.14034652709961
 30
-36.76556777954102
 10
-1000.0
 20
-31.95248031616211
 30
-23.14535903930664
 10
-1000.0
 20
-25.11225509643555
 30
-43.77219009399413
 10
-1000.0
 20
-24.12771606445313
 30
-29.56607818603515
 10
-1000.0
 20
-20.44657897949219
 30
-51.75106430053711
 10
-1000.0
 20
-17.29627990722656
 30
-60.44052886962891
 10
-1000.0
 20
-17.47047996520996
 30
-37.19061660766602
 10
-1000.0
 20
-15.63168334960937
 30
-67.28462219238281
 10
-1000.0
 20
-12.86323165893555
 30
-67.48461151123047
 10
-1000.0
 20
-9.894802093505859
 30
-85.29525756835937
 10
-1000.0
 20
-12.66323852539062
 30
-85.09526062011719
 10
-1000.0
 20
-12.16350173950195
 30
-45.80973052978515
 10
-1000.000061035156
 20
-8.367397308349609
 30
-89.29508972167969
 10
-1000.000061035156
 20
-9.697265625
 30
-89.08446502685547
 10
-1000.0
 20
-8.352489471435546
 30
-55.18678283691406
 10
-1000.000061035156
 20
-6.987663269042968
 30
-89.99803161621093
 10
-1000.0
 20
-6.479656219482421
 30
-59.24805450439453
 10
-1000.000061035156
 20
-5.892253875732421
 30
-91.09344482421875
 10
-1000.000061035156
 20
-5.189311981201171
 30
-92.47317504882813
 10
-1000.000061035156
 20
-4.747398376464843
 30
-94.00057983398438
 10
-1000.0
 20
-3.6326904296875
 30
-62.69711303710938
 10
-1000.000061035156
 20
0.0
 30
-94.00064086914062
 10
-1000.0
 20
-1.484207153320312
 30
-79.65310668945313
 10
-1000.0
 20
-0.0000038146972656
 30
-82.22392272949219
 10
-1000.0
 20
0.0000114440917969
 30
-77.08242797851562
 10
-1000.0
 20
0.0000114440917969
 30
-65.3056640625
 10
-1000.0
 20
-82.87397766113281
 30
-13.10976028442383
 10
-1000.0
 20
-78.41192626953125
 30
-16.21545600891113
 10
-1000.0
 20
-73.37773132324219
 30
-18.2668571472168
 10
-1000.0
 20
-59.69007492065429
 30
-22.85714721679688
 10
-1000.0
 20
-50.68567276000976
 30
-24.94319534301758
 10
-1000.0
 20
-42.20510101318359
 30
-28.61889266967774
 10
-1000.0
 20
-34.52646636962891
 30
-33.76367568969727
 10
-1000.0
 20
-27.90150260925293
 30
-40.20886993408203
 10
-1000.0
 20
-22.54747772216797
 30
-47.74314498901367
 10
-1000.0
 20
-18.63996887207031
 30
-56.11945343017578
 10
-999.9999389648436
 20
-94.0005645751953
 30
-4.747406005859375
 10
-999.9999389648436
 20
-89.0844497680664
 30
-9.697288513183593
 10
-1000.0
 20
-66.85919189453125
 30
-19.29262733459473
 10
-1000.0
 20
-66.66041564941406
 30
-22.02344512939453
 10
-1000.0
 20
-15.87353324890137
 30
-67.08905029296875
 10
-1000.0
 20
-13.063232421875
 30
-67.28461456298828
 10
-1000.0
 20
-10.09480285644531
 30
-85.09526062011719
 10
-1000.0
 20
-12.86323928833008
 30
-84.89526367187499
 10
-1000.000061035156
 20
-9.894802093505859
 30
-88.85317993164063
 10
-1000.000061035156
 20
-4.978687286376953
 30
-93.80303955078124
 10
-999.9999389648436
 20
-93.95117950439454
 30
-4.905227661132812
 10
-999.9999389648436
 20
-89.010986328125
 30
-9.845439910888671
 10
-1000.0
 20
-66.71011352539062
 30
-19.35918045043945
 10
-1000.0
 20
-66.61061859130859
 30
-22.1779727935791
 10
-1000.0
 20
-15.79214477539062
 30
-67.23572540283203
 10
-1000.0
 20
-12.91323089599609
 30
-67.33461761474609
 10
-1000.0
 20
-9.944801330566406
 30
-85.145263671875
 10
-1000.0
 20
-12.81324005126953
 30
-85.04525756835937
 10
-1000.000061035156
 20
-9.845417022705078
 30
-89.01100158691406
 10
-1000.000061035156
 20
-4.905220031738281
 30
-93.9511947631836
 10
1000.0
 20
-94.00059509277344
 30
-0.0000267028808594
 10
999.9999389648436
 20
-86.67654418945312
 30
-0.0000419616699219
 10
1000.0
 20
-94.00057983398438
 30
-4.747417449951171
 10
1000.0
 20
-93.80303955078124
 30
-4.978702545166015
 10
1000.0
 20
-93.95120239257812
 30
-4.905239105224609
 10
1000.0
 20
-91.09344482421875
 30
-5.892288208007812
 10
1000.0
 20
-92.47317504882813
 30
-5.1893310546875
 10
999.9999389648436
 20
-84.10578918457032
 30
-1.484264373779296
 10
1000.0
 20
-89.99803161621093
 30
-6.987697601318359
 10
1000.0
 20
-89.29508972167969
 30
-8.367431640625
 10
1000.0
 20
-89.08447265625
 30
-9.697303771972656
 10
1000.0
 20
-88.85317993164063
 30
-9.894840240478515
 10
1000.0
 20
-89.01100158691406
 30
-9.845455169677734
 10
999.9999389648436
 20
-81.53504943847655
 30
-0.0000419616699219
 10
999.9999389648436
 20
-86.13551330566407
 30
-9.990154266357421
 10
999.9999389648436
 20
-86.55880737304688
 30
-9.894840240478515
 10
999.9999389648436
 20
-74.21100616455078
 30
-0.0000457763671875
 10
999.9999389648436
 20
-85.79348754882813
 30
-10.25714492797851
 10
999.9999389648436
 20
-66.62309265136719
 30
-9.998882293701171
 10
999.9999389648436
 20
-50.21931838989257
 30
-14.5825252532959
 10
999.9999389648436
 20
-66.71012878417968
 30
-19.35919570922851
 10
999.9999389648436
 20
-66.85920715332031
 30
-19.29264259338379
 10
999.9999389648436
 20
-73.86296844482422
 30
-2.665653228759765
 10
999.9999389648436
 20
-82.87399291992187
 30
-13.10977554321289
 10
999.9999389648436
 20
-72.8421859741211
 30
-5.152549743652343
 10
999.9999389648436
 20
-80.73037719726562
 30
-14.78491401672363
 10
999.9999389648436
 20
-69.09667205810547
 30
-8.946321487426757
 10
999.9999389648436
 20
-70.72352600097656
 30
-18.86358261108398
 10
999.9999389648436
 20
-71.21709442138672
 30
-7.293937683105468
 10
999.9999389648436
 20
-73.37774658203125
 30
-18.26687240600586
 10
999.9999389648436
 20
-75.95323181152344
 30
-17.37982368469238
 10
999.9999389648436
 20
-78.41194152832031
 30
-16.21547126770019
 10
999.9999389648436
 20
-66.61062622070312
 30
-22.17798805236816
 10
999.9999389648436
 20
-66.66043090820313
 30
-22.02346038818359
 10
999.9999389648436
 20
-66.66043090820313
 30
-19.51471328735351
 10
999.9999389648436
 20
-66.46124267578125
 30
-22.24156951904297
 10
999.9999389648436
 20
-59.69007873535156
 30
-22.85716247558594
 10
999.9999389648436
 20
-0.0000076293945313
 30
-82.22393798828125
 10
999.9998779296875
 20
-0.0000038146972656
 30
-94.00065612792969
 10
999.9998779296875
 20
-4.747406005859375
 30
-94.00059509277344
 10
999.9998779296875
 20
-4.905227661132812
 30
-93.95121002197265
 10
999.9998779296875
 20
-4.978691101074218
 30
-93.80305480957032
 10
999.9998779296875
 20
-5.189315795898437
 30
-92.47319030761719
 10
999.9998779296875
 20
-5.892257690429687
 30
-91.0934600830078
 10
999.9998779296875
 20
-6.9876708984375
 30
-89.99804687500001
 10
999.9999389648436
 20
-1.484210968017578
 30
-79.65312194824218
 10
999.9998779296875
 20
-9.894805908203125
 30
-88.85319519042969
 10
999.9999389648436
 20
-9.894805908203125
 30
-85.29527282714843
 10
999.9999389648436
 20
-9.944805145263671
 30
-85.14527893066405
 10
999.9999389648436
 20
-10.09480667114257
 30
-85.09527587890625
 10
999.9998779296875
 20
-8.367401123046875
 30
-89.29510498046875
 10
999.9998779296875
 20
-9.697269439697265
 30
-89.08448028564453
 10
999.9998779296875
 20
-9.845420837402343
 30
-89.01101684570312
 10
999.9999389648436
 20
0.0000076293945313
 30
-77.08244323730468
 10
999.9999389648436
 20
-12.66324424743652
 30
-85.09527587890625
 10
999.9999389648436
 20
-12.81324577331543
 30
-85.04527282714844
 10
999.9999389648436
 20
-12.86324501037597
 30
-84.89527893066407
 10
999.9999389648436
 20
0.0000076293945313
 30
-65.30567932128906
 10
999.9999389648436
 20
-12.86323547363281
 30
-67.48462677001953
 10
999.9999389648436
 20
-3.632694244384765
 30
-62.69712829589844
 10
999.9999389648436
 20
-12.91323471069336
 30
-67.33463287353515
 10
999.9999389648436
 20
-13.06323623657226
 30
-67.28462982177735
 10
999.9999389648436
 20
-6.479667663574218
 30
-59.24806976318359
 10
999.9999389648436
 20
-15.63168907165527
 30
-67.28463745117188
 10
999.9999389648436
 20
-15.79215240478515
 30
-67.23574066162109
 10
999.9999389648436
 20
-15.87353897094726
 30
-67.08906555175781
 10
999.9999389648436
 20
-50.68567657470703
 30
-24.94321060180664
 10
999.9999389648436
 20
-55.23909759521484
 30
-23.67321014404297
 10
999.9999389648436
 20
-8.352493286132812
 30
-55.18679809570312
 10
999.9999389648436
 20
-17.29628372192383
 30
-60.44054412841797
 10
999.9999389648436
 20
-18.63997268676758
 30
-56.11946868896485
 10
999.9999389648436
 20
-12.16351127624512
 30
-45.80974578857421
 10
999.9999389648436
 20
-20.44658279418945
 30
-51.75107955932617
 10
999.9999389648436
 20
-22.54748153686524
 30
-47.74316024780273
 10
999.9999389648436
 20
-40.73001098632812
 30
-18.1047191619873
 10
999.9999389648436
 20
-46.45484161376953
 30
-26.548583984375
 10
999.9999389648436
 20
-31.95248222351074
 30
-23.1453742980957
 10
999.9999389648436
 20
-38.33314895629883
 30
-30.96093368530274
 10
999.9999389648436
 20
-42.20510482788085
 30
-28.6189079284668
 10
999.9999389648436
 20
-24.12771987915039
 30
-29.56609344482422
 10
999.9999389648436
 20
-31.14035034179688
 30
-36.76558303833008
 10
999.9999389648436
 20
-34.52646636962891
 30
-33.76369094848633
 10
999.9999389648436
 20
-17.47048568725586
 30
-37.19063186645508
 10
999.9999389648436
 20
-25.11225891113281
 30
-43.7722053527832
 10
999.9999389648436
 20
-27.90150642395019
 30
-40.20888519287109
 93
      963
 90
        4
 90
      123
 90
      124
 90
       48
 90
       50
 90
        4
 90
      126
 90
      127
 90
       47
 90
       74
 90
        4
 90
      127
 90
      128
 90
       46
 90
       47
 90
        4
 90
      128
 90
      129
 90
       44
 90
       46
 90
        4
 90
      129
 90
      135
 90
       41
 90
       44
 90
        4
 90
      135
 90
      136
 90
       42
 90
       41
 90
        4
 90
      131
 90
      132
 90
       38
 90
       73
 90
        4
 90
      134
 90
      139
 90
       39
 90
       71
 90
        4
 90
      141
 90
      143
 90
       37
 90
       72
 90
        4
 90
      146
 90
      148
 90
       36
 90
       70
 90
        4
 90
      150
 90
      154
 90
       34
 90
       69
 90
        4
 90
      155
 90
      157
 90
       33
 90
       64
 90
        4
 90
      158
 90
      168
 90
       31
 90
       63
 90
        4
 90
      169
 90
      165
 90
       29
 90
       62
 90
        4
 90
      166
 90
      162
 90
       28
 90
       61
 90
        4
 90
      163
 90
      160
 90
       26
 90
       60
 90
        4
 90
      151
 90
      152
 90
       21
 90
       59
 90
        4
 90
      121
 90
      120
 90
       22
 90
       58
 90
        4
 90
      118
 90
      119
 90
       18
 90
       68
 90
        4
 90
      106
 90
      112
 90
       16
 90
       67
 90
        4
 90
      114
 90
      115
 90
       14
 90
       57
 90
        4
 90
      116
 90
      110
 90
       12
 90
       56
 90
        4
 90
      108
 90
      102
 90
       11
 90
       55
 90
        4
 90
      102
 90
       99
 90
        9
 90
       11
 90
        4
 90
       99
 90
      100
 90
        8
 90
        9
 90
        4
 90
      100
 90
       96
 90
        7
 90
        8
 90
        4
 90
       95
 90
       94
 90
        6
 90
       66
 90
        4
 90
       94
 90
       93
 90
        4
 90
        6
 90
        4
 90
       93
 90
       90
 90
        3
 90
        4
 90
        4
 90
       90
 90
       91
 90
        0
 90
        3
 90
        4
 90
       91
 90
       88
 90
        2
 90
        0
 90
        4
 90
       87
 90
       85
 90
        1
 90
       65
 90
        4
 90
       85
 90
       86
 90
        5
 90
        1
 90
        4
 90
       86
 90
       92
 90
       10
 90
        5
 90
        4
 90
       92
 90
       98
 90
       13
 90
       10
 90
        4
 90
       98
 90
      101
 90
       15
 90
       13
 90
        4
 90
      101
 90
      107
 90
       20
 90
       15
 90
        4
 90
      107
 90
      109
 90
       19
 90
       20
 90
        4
 90
      109
 90
      113
 90
       17
 90
       19
 90
        4
 90
      113
 90
      111
 90
       24
 90
       17
 90
        4
 90
      111
 90
      103
 90
       23
 90
       24
 90
        4
 90
      103
 90
      104
 90
       25
 90
       23
 90
        4
 90
      104
 90
      159
 90
       27
 90
       25
 90
        4
 90
      159
 90
      161
 90
       30
 90
       27
 90
        4
 90
      161
 90
      164
 90
       32
 90
       30
 90
        4
 90
      164
 90
      167
 90
       35
 90
       32
 90
        4
 90
      167
 90
      156
 90
       40
 90
       35
 90
        4
 90
      156
 90
      153
 90
       43
 90
       40
 90
        4
 90
      153
 90
      147
 90
       45
 90
       43
 90
        4
 90
      147
 90
      144
 90
       49
 90
       45
 90
        4
 90
      144
 90
      142
 90
       54
 90
       49
 90
        4
 90
      142
 90
      138
 90
       53
 90
       54
 90
        4
 90
      138
 90
      130
 90
       51
 90
       53
 90
        4
 90
      130
 90
      122
 90
       52
 90
       51
 90
        4
 90
      122
 90
      123
 90
       50
 90
       52
 90
        4
 90
      112
 90
      114
 90
       57
 90
       16
 90
        4
 90
      115
 90
      116
 90
       56
 90
       14
 90
        4
 90
      110
 90
      108
 90
       55
 90
       12
 90
        4
 90
      154
 90
      155
 90
       64
 90
       34
 90
        4
 90
      157
 90
      158
 90
       63
 90
       33
 90
        4
 90
      168
 90
      169
 90
       62
 90
       31
 90
        4
 90
      165
 90
      166
 90
       61
 90
       29
 90
        4
 90
      162
 90
      163
 90
       60
 90
       28
 90
        4
 90
      160
 90
      151
 90
       59
 90
       26
 90
        4
 90
      152
 90
      121
 90
       58
 90
       21
 90
        4
 90
      124
 90
      125
 90
       84
 90
       48
 90
        4
 90
      136
 90
      137
 90
       83
 90
       42
 90
        4
 90
      132
 90
      133
 90
       81
 90
       38
 90
        4
 90
      139
 90
      140
 90
       82
 90
       39
 90
        4
 90
      143
 90
      145
 90
       80
 90
       37
 90
        4
 90
      148
 90
      149
 90
       79
 90
       36
 90
        4
 90
      120
 90
      117
 90
       78
 90
       22
 90
        4
 90
      119
 90
      105
 90
       77
 90
       18
 90
        4
 90
       96
 90
       97
 90
       76
 90
        7
 90
        4
 90
       88
 90
       89
 90
       75
 90
        2
 90
        4
 90
      125
 90
      126
 90
       74
 90
       84
 90
        4
 90
      137
 90
      131
 90
       73
 90
       83
 90
        4
 90
      133
 90
      134
 90
       71
 90
       81
 90
        4
 90
      140
 90
      141
 90
       72
 90
       82
 90
        4
 90
      145
 90
      146
 90
       70
 90
       80
 90
        4
 90
      149
 90
      150
 90
       69
 90
       79
 90
        4
 90
      117
 90
      118
 90
       68
 90
       78
 90
        4
 90
      105
 90
      106
 90
       67
 90
       77
 90
        4
 90
       97
 90
       95
 90
       66
 90
       76
 90
        4
 90
       89
 90
       87
 90
       65
 90
       75
 90
        3
 90
        1
 90
        5
 90
       65
 90
        3
 90
        5
 90
        2
 90
       75
 90
        3
 90
        5
 90
       75
 90
       65
 90
        3
 90
        5
 90
        3
 90
        0
 90
        3
 90
        5
 90
        0
 90
        2
 90
        4
 90
        5
 90
       10
 90
        4
 90
        3
 90
        3
 90
       10
 90
        6
 90
        4
 90
        3
 90
       10
 90
       66
 90
        6
 90
        3
 90
       10
 90
        7
 90
       76
 90
        3
 90
       10
 90
       76
 90
       66
 90
        4
 90
       10
 90
       13
 90
        9
 90
        8
 90
        3
 90
       10
 90
        8
 90
        7
 90
        4
 90
       13
 90
       15
 90
       11
 90
        9
 90
        4
 90
       23
 90
       25
 90
       77
 90
       67
 90
        4
 90
       15
 90
       20
 90
       55
 90
       11
 90
        4
 90
       20
 90
       19
 90
       12
 90
       55
 90
        4
 90
       24
 90
       23
 90
       67
 90
       16
 90
        4
 90
       17
 90
       24
 90
       16
 90
       57
 90
        3
 90
       17
 90
       57
 90
       14
 90
        3
 90
       19
 90
       56
 90
       12
 90
        4
 90
       19
 90
       17
 90
       14
 90
       56
 90
        3
 90
       25
 90
       78
 90
       68
 90
        3
 90
       25
 90
       68
 90
       18
 90
        3
 90
       25
 90
       22
 90
       78
 90
        3
 90
       25
 90
       58
 90
       22
 90
        3
 90
       25
 90
       18
 90
       77
 90
        3
 90
       52
 90
       50
 90
       48
 90
        3
 90
       52
 90
       48
 90
       84
 90
        3
 90
       52
 90
       84
 90
       74
 90
        3
 90
       52
 90
       74
 90
       47
 90
        3
 90
       52
 90
       47
 90
       46
 90
        3
 90
       52
 90
       46
 90
       44
 90
        4
 90
       51
 90
       52
 90
       73
 90
       38
 90
        3
 90
       51
 90
       38
 90
       81
 90
        3
 90
       51
 90
       81
 90
       71
 90
        3
 90
       52
 90
       44
 90
       41
 90
        3
 90
       52
 90
       41
 90
       42
 90
        3
 90
       52
 90
       42
 90
       83
 90
        3
 90
       52
 90
       83
 90
       73
 90
        3
 90
       53
 90
       39
 90
       82
 90
        4
 90
       53
 90
       51
 90
       71
 90
       39
 90
        3
 90
       53
 90
       82
 90
       72
 90
        4
 90
       54
 90
       53
 90
       72
 90
       37
 90
        4
 90
       49
 90
       54
 90
       37
 90
       80
 90
        3
 90
       49
 90
       80
 90
       70
 90
        3
 90
       45
 90
       36
 90
       79
 90
        4
 90
       45
 90
       49
 90
       70
 90
       36
 90
        3
 90
       45
 90
       79
 90
       69
 90
        3
 90
       25
 90
       59
 90
       21
 90
        3
 90
       25
 90
       21
 90
       58
 90
        4
 90
       43
 90
       45
 90
       69
 90
       34
 90
        3
 90
       43
 90
       34
 90
       64
 90
        4
 90
       40
 90
       43
 90
       64
 90
       33
 90
        3
 90
       40
 90
       33
 90
       63
 90
        4
 90
       25
 90
       27
 90
       26
 90
       59
 90
        4
 90
       27
 90
       30
 90
       28
 90
       60
 90
        3
 90
       27
 90
       60
 90
       26
 90
        4
 90
       30
 90
       32
 90
       29
 90
       61
 90
        3
 90
       30
 90
       61
 90
       28
 90
        4
 90
       35
 90
       40
 90
       63
 90
       31
 90
        3
 90
       35
 90
       31
 90
       62
 90
        4
 90
       32
 90
       35
 90
       62
 90
       29
 90
        3
 90
       85
 90
       87
 90
       86
 90
        3
 90
       86
 90
       89
 90
       88
 90
        3
 90
       86
 90
       87
 90
       89
 90
        3
 90
       86
 90
       91
 90
       90
 90
        3
 90
       86
 90
       88
 90
       91
 90
        4
 90
       86
 90
       90
 90
       93
 90
       92
 90
        3
 90
       92
 90
       93
 90
       94
 90
        3
 90
       92
 90
       94
 90
       95
 90
        3
 90
       92
 90
       97
 90
       96
 90
        3
 90
       92
 90
       95
 90
       97
 90
        4
 90
       92
 90
      100
 90
       99
 90
       98
 90
        3
 90
       92
 90
       96
 90
      100
 90
        4
 90
       98
 90
       99
 90
      102
 90
      101
 90
        4
 90
      103
 90
      106
 90
      105
 90
      104
 90
        4
 90
      101
 90
      102
 90
      108
 90
      107
 90
        4
 90
      107
 90
      108
 90
      110
 90
      109
 90
        4
 90
      111
 90
      112
 90
      106
 90
      103
 90
        4
 90
      113
 90
      114
 90
      112
 90
      111
 90
        3
 90
      113
 90
      115
 90
      114
 90
        3
 90
      109
 90
      110
 90
      116
 90
        4
 90
      109
 90
      116
 90
      115
 90
      113
 90
        3
 90
      104
 90
      118
 90
      117
 90
        3
 90
      104
 90
      119
 90
      118
 90
        3
 90
      104
 90
      117
 90
      120
 90
        3
 90
      104
 90
      120
 90
      121
 90
        3
 90
      104
 90
      105
 90
      119
 90
        3
 90
      122
 90
      124
 90
      123
 90
        3
 90
      122
 90
      125
 90
      124
 90
        3
 90
      122
 90
      126
 90
      125
 90
        3
 90
      122
 90
      127
 90
      126
 90
        3
 90
      122
 90
      128
 90
      127
 90
        3
 90
      122
 90
      129
 90
      128
 90
        4
 90
      130
 90
      132
 90
      131
 90
      122
 90
        3
 90
      130
 90
      133
 90
      132
 90
        3
 90
      130
 90
      134
 90
      133
 90
        3
 90
      122
 90
      135
 90
      129
 90
        3
 90
      122
 90
      136
 90
      135
 90
        3
 90
      122
 90
      137
 90
      136
 90
        3
 90
      122
 90
      131
 90
      137
 90
        3
 90
      138
 90
      140
 90
      139
 90
        4
 90
      138
 90
      139
 90
      134
 90
      130
 90
        3
 90
      138
 90
      141
 90
      140
 90
        4
 90
      142
 90
      143
 90
      141
 90
      138
 90
        4
 90
      144
 90
      145
 90
      143
 90
      142
 90
        3
 90
      144
 90
      146
 90
      145
 90
        3
 90
      147
 90
      149
 90
      148
 90
        4
 90
      147
 90
      148
 90
      146
 90
      144
 90
        3
 90
      147
 90
      150
 90
      149
 90
        3
 90
      104
 90
      152
 90
      151
 90
        3
 90
      104
 90
      121
 90
      152
 90
        4
 90
      153
 90
      154
 90
      150
 90
      147
 90
        3
 90
      153
 90
      155
 90
      154
 90
        4
 90
      156
 90
      157
 90
      155
 90
      153
 90
        3
 90
      156
 90
      158
 90
      157
 90
        4
 90
      104
 90
      151
 90
      160
 90
      159
 90
        4
 90
      159
 90
      163
 90
      162
 90
      161
 90
        3
 90
      159
 90
      160
 90
      163
 90
        4
 90
      161
 90
      166
 90
      165
 90
      164
 90
        3
 90
      161
 90
      162
 90
      166
 90
        4
 90
      167
 90
      168
 90
      158
 90
      156
 90
        3
 90
      167
 90
      169
 90
      168
 90
        4
 90
      164
 90
      165
 90
      169
 90
      167
 94
      377
 90
      123
 90
      124
 90
       48
 90
      124
 90
       48
 90
       50
 90
       50
 90
      123
 90
      126
 90
      127
 90
       47
 90
      127
 90
       47
 90
       74
 90
       74
 90
      126
 90
      127
 90
      128
 90
       46
 90
      128
 90
       46
 90
       47
 90
      128
 90
      129
 90
       44
 90
      129
 90
       44
 90
       46
 90
      129
 90
      135
 90
       41
 90
      135
 90
       41
 90
       44
 90
      135
 90
      136
 90
       42
 90
      136
 90
       41
 90
       42
 90
      131
 90
      132
 90
       38
 90
      132
 90
       38
 90
       73
 90
       73
 90
      131
 90
      134
 90
      139
 90
       39
 90
      139
 90
       39
 90
       71
 90
       71
 90
      134
 90
      141
 90
      143
 90
       37
 90
      143
 90
       37
 90
       72
 90
       72
 90
      141
 90
      146
 90
      148
 90
       36
 90
      148
 90
       36
 90
       70
 90
       70
 90
      146
 90
      150
 90
      154
 90
       34
 90
      154
 90
       34
 90
       69
 90
       69
 90
      150
 90
      155
 90
      157
 90
       33
 90
      157
 90
       33
 90
       64
 90
       64
 90
      155
 90
      158
 90
      168
 90
       31
 90
      168
 90
       31
 90
       63
 90
       63
 90
      158
 90
      165
 90
      169
 90
       29
 90
      165
 90
       29
 90
       62
 90
       62
 90
      169
 90
      162
 90
      166
 90
       28
 90
      162
 90
       28
 90
       61
 90
       61
 90
      166
 90
      160
 90
      163
 90
       26
 90
      160
 90
       26
 90
       60
 90
       60
 90
      163
 90
      151
 90
      152
 90
       21
 90
      152
 90
       21
 90
       59
 90
       59
 90
      151
 90
      120
 90
      121
 90
       22
 90
      120
 90
       22
 90
       58
 90
       58
 90
      121
 90
      118
 90
      119
 90
       18
 90
      119
 90
       18
 90
       68
 90
       68
 90
      118
 90
      106
 90
      112
 90
       16
 90
      112
 90
       16
 90
       67
 90
       67
 90
      106
 90
      114
 90
      115
 90
       14
 90
      115
 90
       14
 90
       57
 90
       57
 90
      114
 90
      110
 90
      116
 90
       12
 90
      110
 90
       12
 90
       56
 90
       56
 90
      116
 90
      102
 90
      108
 90
       11
 90
      102
 90
       11
 90
       55
 90
       55
 90
      108
 90
       99
 90
      102
 90
        9
 90
       99
 90
        9
 90
       11
 90
       99
 90
      100
 90
        8
 90
      100
 90
        8
 90
        9
 90
       96
 90
      100
 90
        7
 90
       96
 90
        7
 90
        8
 90
       94
 90
       95
 90
        6
 90
       94
 90
        6
 90
       66
 90
       66
 90
       95
 90
       93
 90
       94
 90
        4
 90
       93
 90
        4
 90
        6
 90
       90
 90
       93
 90
        3
 90
       90
 90
        3
 90
        4
 90
       90
 90
       91
 90
        0
 90
       91
 90
        0
 90
        3
 90
       88
 90
       91
 90
        2
 90
       88
 90
        0
 90
        2
 90
       85
 90
       87
 90
        1
 90
       85
 90
        1
 90
       65
 90
       65
 90
       87
 90
       85
 90
       86
 90
        5
 90
       86
 90
        1
 90
        5
 90
       86
 90
       92
 90
       10
 90
       92
 90
        5
 90
       10
 90
       92
 90
       98
 90
       13
 90
       98
 90
       10
 90
       13
 90
       98
 90
      101
 90
       15
 90
      101
 90
       13
 90
       15
 90
      101
 90
      107
 90
       20
 90
      107
 90
       15
 90
       20
 90
      107
 90
      109
 90
       19
 90
      109
 90
       19
 90
       20
 90
      109
 90
      113
 90
       17
 90
      113
 90
       17
 90
       19
 90
      111
 90
      113
 90
       24
 90
      111
 90
       17
 90
       24
 90
      103
 90
      111
 90
       23
 90
      103
 90
       23
 90
       24
 90
      103
 90
      104
 90
       25
 90
      104
 90
       23
 90
       25
 90
      104
 90
      159
 90
       27
 90
      159
 90
       25
 90
       27
 90
      159
 90
      161
 90
       30
 90
      161
 90
       27
 90
       30
 90
      161
 90
      164
 90
       32
 90
      164
 90
       30
 90
       32
 90
      164
 90
      167
 90
       35
 90
      167
 90
       32
 90
       35
 90
      156
 90
      167
 90
       40
 90
      156
 90
       35
 90
       40
 90
      153
 90
      156
 90
       43
 90
      153
 90
       40
 90
       43
 90
      147
 90
      153
 90
       45
 90
      147
 90
       43
 90
       45
 90
      144
 90
      147
 90
       49
 90
      144
 90
       45
 90
       49
 90
      142
 90
      144
 90
       54
 90
      142
 90
       49
 90
       54
 90
      138
 90
      142
 90
       53
 90
      138
 90
       53
 90
       54
 90
      130
 90
      138
 90
       51
 90
      130
 90
       51
 90
       53
 90
      122
 90
      130
 90
       52
 90
      122
 90
       51
 90
       52
 90
      122
 90
      123
 90
       50
 90
       52
 90
      112
 90
      114
 90
       16
 90
       57
 90
      115
 90
      116
 90
       14
 90
       56
 90
      108
 90
      110
 90
       12
 90
       55
 90
      154
 90
      155
 90
       34
 90
       64
 90
      157
 90
      158
 90
       33
 90
       63
 90
      168
 90
      169
 90
       31
 90
       62
 90
      165
 90
      166
 90
       29
 90
       61
 90
      162
 90
      163
 90
       28
 90
       60
 90
      151
 90
      160
 90
       26
 90
       59
 90
      121
 90
      152
 90
       21
 90
       58
 90
      124
 90
      125
 90
       84
 90
      125
 90
       48
 90
       84
 90
      136
 90
      137
 90
       83
 90
      137
 90
       42
 90
       83
 90
      132
 90
      133
 90
       81
 90
      133
 90
       38
 90
       81
 90
      139
 90
      140
 90
       82
 90
      140
 90
       39
 90
       82
 90
      143
 90
      145
 90
       80
 90
      145
 90
       37
 90
       80
 90
      148
 90
      149
 90
       79
 90
      149
 90
       36
 90
       79
 90
      117
 90
      120
 90
       78
 90
      117
 90
       22
 90
       78
 90
      105
 90
      119
 90
       77
 90
      105
 90
       18
 90
       77
 90
       96
 90
       97
 90
       76
 90
       97
 90
        7
 90
       76
 90
       88
 90
       89
 90
       75
 90
       89
 90
        2
 90
       75
 90
      125
 90
      126
 90
       74
 90
       84
 90
      131
 90
      137
 90
       73
 90
       83
 90
      133
 90
      134
 90
       71
 90
       81
 90
      140
 90
      141
 90
       72
 90
       82
 90
      145
 90
      146
 90
       70
 90
       80
 90
      149
 90
      150
 90
       69
 90
       79
 90
      117
 90
      118
 90
       68
 90
       78
 90
      105
 90
      106
 90
       67
 90
       77
 90
       95
 90
       97
 90
       66
 90
       76
 90
       87
 90
       89
 90
       65
 90
       75
 90
        5
 90
       65
 90
        2
 90
        5
 90
        5
 90
       75
 90
        3
 90
        5
 90
        0
 90
        5
 90
        4
 90
       10
 90
        6
 90
       10
 90
       10
 90
       66
 90
        7
 90
       10
 90
       10
 90
       76
 90
        9
 90
       13
 90
        8
 90
       10
 90
       11
 90
       15
 90
       25
 90
       77
 90
       23
 90
       67
 90
       20
 90
       55
 90
       12
 90
       19
 90
       16
 90
       24
 90
       17
 90
       57
 90
       14
 90
       17
 90
       19
 90
       56
 90
       25
 90
       78
 90
       25
 90
       68
 90
       18
 90
       25
 90
       22
 90
       25
 90
       25
 90
       58
 90
       48
 90
       52
 90
       52
 90
       84
 90
       52
 90
       74
 90
       47
 90
       52
 90
       46
 90
       52
 90
       44
 90
       52
 90
       52
 90
       73
 90
       38
 90
       51
 90
       51
 90
       81
 90
       51
 90
       71
 90
       41
 90
       52
 90
       42
 90
       52
 90
       52
 90
       83
 90
       39
 90
       53
 90
       53
 90
       82
 90
       53
 90
       72
 90
       37
 90
       54
 90
       49
 90
       80
 90
       49
 90
       70
 90
       36
 90
       45
 90
       45
 90
       79
 90
       45
 90
       69
 90
       25
 90
       59
 90
       21
 90
       25
 90
       34
 90
       43
 90
       43
 90
       64
 90
       33
 90
       40
 90
       40
 90
       63
 90
       26
 90
       27
 90
       28
 90
       30
 90
       27
 90
       60
 90
       29
 90
       32
 90
       30
 90
       61
 90
       31
 90
       35
 90
       35
 90
       62
 90
       86
 90
       87
 90
       86
 90
       89
 90
       86
 90
       88
 90
       86
 90
       91
 90
       86
 90
       90
 90
       92
 90
       93
 90
       92
 90
       94
 90
       92
 90
       95
 90
       92
 90
       97
 90
       92
 90
       96
 90
       92
 90
      100
 90
       98
 90
       99
 90
      101
 90
      102
 90
      103
 90
      106
 90
      104
 90
      105
 90
      107
 90
      108
 90
      109
 90
      110
 90
      111
 90
      112
 90
      113
 90
      114
 90
      113
 90
      115
 90
      109
 90
      116
 90
      104
 90
      118
 90
      104
 90
      117
 90
      104
 90
      119
 90
      104
 90
      120
 90
      104
 90
      121
 90
      122
 90
      124
 90
      122
 90
      125
 90
      122
 90
      126
 90
      122
 90
      127
 90
      122
 90
      128
 90
      122
 90
      129
 90
      130
 90
      132
 90
      122
 90
      131
 90
      130
 90
      133
 90
      130
 90
      134
 90
      122
 90
      135
 90
      122
 90
      136
 90
      122
 90
      137
 90
      138
 90
      140
 90
      138
 90
      139
 90
      138
 90
      141
 90
      142
 90
      143
 90
      144
 90
      145
 90
      144
 90
      146
 90
      147
 90
      149
 90
      147
 90
      148
 90
      147
 90
      150
 90
      104
 90
      152
 90
      104
 90
      151
 90
      153
 90
      154
 90
      153
 90
      155
 90
      156
 90
      157
 90
      156
 90
      158
 90
      159
 90
      160
 90
      159
 90
      163
 90
      161
 90
      162
 90
      161
 90
      166
 90
      164
 90
      165
 90
      167
 90
      168
 90
      167
 90
      169
 95
      377
140
0.0
140
0.0
140
0.0
140
0.0
140
0.0
140
0.0
140
0.0
140
0.0
140
0.0
140
0.0
140
0.0
140
0.0
140
0.0
140
0.0
140
0.0
140
0.0
140
0.0
140
0.0
140
0.0
140
0.0
140
0.0
140
0.0
140
0.0
140
0.0
140
0.0
140
0.0
140
0.0
140
0.0
140
0.0
140
0.0
140
0.0
140
0.0
140
0.0
140
0.0
140
0.0
140
0.0
140
0.0
140
0.0
140
0.0
140
0.0
140
0.0
140
0.0
140
0.0
140
0.0
140
0.0
140
0.0
140
0.0
140
0.0
140
0.0
140
0.0
140
0.0
140
0.0
140
0.0
140
0.0
140
0.0
140
0.0
140
0.0
140
0.0
140
0.0
140
0.0
140
0.0
140
0.0
140
0.0
140
0.0
140
0.0
140
0.0
140
0.0
140
0.0
140
0.0
140
0.0
140
0.0
140
0.0
140
0.0
140
0.0
140
0.0
140
0.0
140
0.0
140
0.0
140
0.0
140
0.0
140
0.0
140
0.0
140
0.0
140
0.0
140
0.0
140
0.0
140
0.0
140
0.0
140
0.0
140
0.0
140
0.0
140
0.0
140
0.0
140
0.0
140
0.0
140
0.0
140
0.0
140
0.0
140
0.0
140
0.0
140
0.0
140
0.0
140
0.0
140
0.0
140
0.0
140
0.0
140
0.0
140
0.0
140
0.0
140
0.0
140
0.0
140
0.0
140
0.0
140
0.0
140
0.0
140
0.0
140
0.0
140
0.0
140
0.0
140
0.0
140
0.0
140
0.0
140
0.0
140
0.0
140
0.0
140
0.0
140
0.0
140
0.0
140
0.0
140
0.0
140
0.0
140
0.0
140
0.0
140
0.0
140
0.0
140
0.0
140
0.0
140
0.0
140
0.0
140
0.0
140
0.0
140
0.0
140
0.0
140
0.0
140
0.0
140
0.0
140
0.0
140
0.0
140
0.0
140
0.0
140
0.0
140
0.0
140
0.0
140
0.0
140
0.0
140
0.0
140
0.0
140
0.0
140
0.0
140
0.0
140
0.0
140
0.0
140
0.0
140
0.0
140
0.0
140
0.0
140
0.0
140
0.0
140
0.0
140
0.0
140
0.0
140
0.0
140
0.0
140
0.0
140
0.0
140
0.0
140
0.0
140
0.0
140
0.0
140
0.0
140
0.0
140
0.0
140
0.0
140
0.0
140
0.0
140
0.0
140
0.0
140
0.0
140
0.0
140
0.0
140
0.0
140
0.0
140
0.0
140
0.0
140
0.0
140
0.0
140
0.0
140
0.0
140
0.0
140
0.0
140
0.0
140
0.0
140
0.0
140
0.0
140
0.0
140
0.0
140
0.0
140
0.0
140
0.0
140
0.0
140
0.0
140
0.0
140
0.0
140
0.0
140
0.0
140
0.0
140
0.0
140
0.0
140
0.0
140
0.0
140
0.0
140
0.0
140
0.0
140
0.0
140
0.0
140
0.0
140
0.0
140
0.0
140
0.0
140
0.0
140
0.0
140
0.0
140
0.0
140
0.0
140
0.0
140
0.0
140
0.0
140
0.0
140
0.0
140
0.0
140
0.0
140
0.0
140
0.0
140
0.0
140
0.0
140
0.0
140
0.0
140
0.0
140
0.0
140
0.0
140
0.0
140
0.0
140
0.0
140
0.0
140
0.0
140
0.0
140
0.0
140
0.0
140
0.0
140
0.0
140
0.0
140
0.0
140
0.0
140
0.0
140
0.0
140
0.0
140
0.0
140
0.0
140
0.0
140
0.0
140
0.0
140
0.0
140
0.0
140
0.0
140
0.0
140
0.0
140
0.0
140
0.0
140
0.0
140
0.0
140
0.0
140
0.0
140
0.0
140
0.0
140
0.0
140
0.0
140
0.0
140
0.0
140
0.0
140
0.0
140
0.0
140
0.0
140
0.0
140
0.0
140
0.0
140
0.0
140
0.0
140
0.0
140
0.0
140
0.0
140
0.0
140
0.0
140
0.0
140
0.0
140
0.0
140
0.0
140
0.0
140
0.0
140
0.0
140
0.0
140
0.0
140
0.0
140
0.0
140
0.0
140
0.0
140
0.0
140
0.0
140
0.0
140
0.0
140
0.0
140
0.0
140
0.0
140
0.0
140
0.0
140
0.0
140
0.0
140
0.0
140
0.0
140
0.0
140
0.0
140
0.0
140
0.0
140
0.0
140
0.0
140
0.0
140
0.0
140
0.0
140
0.0
140
0.0
140
0.0
140
0.0
140
0.0
140
0.0
140
0.0
140
0.0
140
0.0
140
0.0
140
0.0
140
0.0
140
0.0
140
0.0
140
0.0
140
0.0
140
0.0
140
0.0
140
0.0
140
0.0
140
0.0
140
0.0
140
0.0
140
0.0
140
0.0
140
0.0
140
0.0
140
0.0
140
0.0
140
0.0
140
0.0
140
0.0
140
0.0
140
0.0
140
0.0
140
0.0
140
0.0
140
0.0
140
0.0
140
0.0
 90
        0
  0
POLYLINE
  5
FA
330
1F
100
AcDbEntity
  8
OracDecor_cornice_mouldings
 62
   153
420
  5804257
100
AcDb3dPolyline
 66
     1
 10
0.0
 20
0.0
 30
0.0
 70
     9
  0
VERTEX
  5
FB
330
FA
100
AcDbEntity
  8
OracDecor_cornice_mouldings
 62
   153
420
  5804257
100
AcDbVertex
100
AcDb3dPolylineVertex
 10
-0.000030517581763
 20
4.947414398193359
 30
-94.00057983398438
 70
    32
  0
VERTEX
  5
FC
330
FA
100
AcDbEntity
  8
OracDecor_cornice_mouldings
 62
   153
420
  5804257
100
AcDbVertex
100
AcDb3dPolylineVertex
 10
-0.000030517581763
 20
0.0000152587890625
 30
-94.00057983398438
 70
    32
  0
VERTEX
  5
FD
330
FA
100
AcDbEntity
  8
OracDecor_cornice_mouldings
 62
   153
420
  5804257
100
AcDbVertex
100
AcDb3dPolylineVertex
 10
-0.000030517578125
 20
0.0000457763708255
 30
-86.67652893066406
 70
    32
  0
VERTEX
  5
FE
330
FA
100
AcDbEntity
  8
OracDecor_cornice_mouldings
 62
   153
420
  5804257
100
AcDbVertex
100
AcDb3dPolylineVertex
 10
-0.000030517578125
 20
1.484268188476562
 30
-84.10577392578124
 70
    32
  0
VERTEX
  5
FF
330
FA
100
AcDbEntity
  8
OracDecor_cornice_mouldings
 62
   153
420
  5804257
100
AcDbVertex
100
AcDb3dPolylineVertex
 10
-0.000030517578125
 20
0.0000457763708255
 30
-81.5350341796875
 70
    32
  0
VERTEX
  5
100
330
FA
100
AcDbEntity
  8
OracDecor_cornice_mouldings
 62
   153
420
  5804257
100
AcDbVertex
100
AcDb3dPolylineVertex
 10
-0.000030517578125
 20
0.0000495910680911
 30
-74.21098327636719
 70
    32
  0
VERTEX
  5
101
330
FA
100
AcDbEntity
  8
OracDecor_cornice_mouldings
 62
   153
420
  5804257
100
AcDbVertex
100
AcDb3dPolylineVertex
 10
-0.000030517578125
 20
2.665657043457031
 30
-73.86294555664062
 70
    32
  0
VERTEX
  5
102
330
FA
100
AcDbEntity
  8
OracDecor_cornice_mouldings
 62
   153
420
  5804257
100
AcDbVertex
100
AcDb3dPolylineVertex
 10
-0.000030517578125
 20
5.152542114257812
 30
-72.8421630859375
 70
    32
  0
VERTEX
  5
103
330
FA
100
AcDbEntity
  8
OracDecor_cornice_mouldings
 62
   153
420
  5804257
100
AcDbVertex
100
AcDb3dPolylineVertex
 10
-0.000030517578125
 20
7.293928146362304
 30
-71.21707153320312
 70
    32
  0
VERTEX
  5
104
330
FA
100
AcDbEntity
  8
OracDecor_cornice_mouldings
 62
   153
420
  5804257
100
AcDbVertex
100
AcDb3dPolylineVertex
 10
-0.000030517578125
 20
8.946306228637695
 30
-69.09664916992188
 70
    32
  0
VERTEX
  5
105
330
FA
100
AcDbEntity
  8
OracDecor_cornice_mouldings
 62
   153
420
  5804257
100
AcDbVertex
100
AcDb3dPolylineVertex
 10
-0.000030517578125
 20
9.998889923095703
 30
-66.62306213378906
 70
    32
  0
VERTEX
  5
106
330
FA
100
AcDbEntity
  8
OracDecor_cornice_mouldings
 62
   153
420
  5804257
100
AcDbVertex
100
AcDb3dPolylineVertex
 10
-0.0000228881835938
 20
14.58252143859863
 30
-50.21931457519531
 70
    32
  0
VERTEX
  5
107
330
FA
100
AcDbEntity
  8
OracDecor_cornice_mouldings
 62
   153
420
  5804257
100
AcDbVertex
100
AcDb3dPolylineVertex
 10
-0.0000228881835938
 20
18.1047134399414
 30
-40.72999954223632
 70
    32
  0
VERTEX
  5
108
330
FA
100
AcDbEntity
  8
OracDecor_cornice_mouldings
 62
   153
420
  5804257
100
AcDbVertex
100
AcDb3dPolylineVertex
 10
-0.0000228881817748
 20
23.1453742980957
 30
-31.95245742797852
 70
    32
  0
VERTEX
  5
109
330
FA
100
AcDbEntity
  8
OracDecor_cornice_mouldings
 62
   153
420
  5804257
100
AcDbVertex
100
AcDb3dPolylineVertex
 10
-0.0000228881835938
 20
29.56609344482422
 30
-24.12770271301269
 70
    32
  0
VERTEX
  5
10A
330
FA
100
AcDbEntity
  8
OracDecor_cornice_mouldings
 62
   153
420
  5804257
100
AcDbVertex
100
AcDb3dPolylineVertex
 10
-0.0000228881835938
 20
37.19061660766602
 30
-17.47046852111816
 70
    32
  0
VERTEX
  5
10B
330
FA
100
AcDbEntity
  8
OracDecor_cornice_mouldings
 62
   153
420
  5804257
100
AcDbVertex
100
AcDb3dPolylineVertex
 10
-0.0000228881817748
 20
45.80974578857421
 30
-12.16349029541015
 70
    32
  0
VERTEX
  5
10C
330
FA
100
AcDbEntity
  8
OracDecor_cornice_mouldings
 62
   153
420
  5804257
100
AcDbVertex
100
AcDb3dPolylineVertex
 10
-0.0000228881835938
 20
55.18679809570312
 30
-8.352470397949218
 70
    32
  0
VERTEX
  5
10D
330
FA
100
AcDbEntity
  8
OracDecor_cornice_mouldings
 62
   153
420
  5804257
100
AcDbVertex
100
AcDb3dPolylineVertex
 10
-0.0000228881835938
 20
59.24806976318359
 30
-6.479644775390625
 70
    32
  0
VERTEX
  5
10E
330
FA
100
AcDbEntity
  8
OracDecor_cornice_mouldings
 62
   153
420
  5804257
100
AcDbVertex
100
AcDb3dPolylineVertex
 10
-0.0000228881835938
 20
62.69713592529297
 30
-3.632667541503906
 70
    32
  0
VERTEX
  5
10F
330
FA
100
AcDbEntity
  8
OracDecor_cornice_mouldings
 62
   153
420
  5804257
100
AcDbVertex
100
AcDb3dPolylineVertex
 10
-0.0000228881835938
 20
65.30567169189453
 30
0.0000343322753906
 70
    32
  0
VERTEX
  5
110
330
FA
100
AcDbEntity
  8
OracDecor_cornice_mouldings
 62
   153
420
  5804257
100
AcDbVertex
100
AcDb3dPolylineVertex
 10
-0.0000228881854127
 20
77.08244323730468
 30
0.0000343322753906
 70
    32
  0
VERTEX
  5
111
330
FA
100
AcDbEntity
  8
OracDecor_cornice_mouldings
 62
   153
420
  5804257
100
AcDbVertex
100
AcDb3dPolylineVertex
 10
-0.0000228881835938
 20
79.65312957763671
 30
-1.484184265136718
 70
    32
  0
VERTEX
  5
112
330
FA
100
AcDbEntity
  8
OracDecor_cornice_mouldings
 62
   153
420
  5804257
100
AcDbVertex
100
AcDb3dPolylineVertex
 10
-0.0000228881835938
 20
82.22393798828125
 30
0.0
 70
    32
  0
VERTEX
  5
113
330
FA
100
AcDbEntity
  8
OracDecor_cornice_mouldings
 62
   153
420
  5804257
100
AcDbVertex
100
AcDb3dPolylineVertex
 10
0.0000381469726563
 20
94.00065612792969
 30
0.0
 70
    32
  0
VERTEX
  5
114
330
FA
100
AcDbEntity
  8
OracDecor_cornice_mouldings
 62
   153
420
  5804257
100
AcDbVertex
100
AcDb3dPolylineVertex
 10
0.0000381469726563
 20
94.00059509277344
 30
-4.947399139404296
 70
    32
  0
VERTEX
  5
115
330
FA
100
AcDbEntity
  8
OracDecor_cornice_mouldings
 62
   153
420
  5804257
100
AcDbVertex
100
AcDb3dPolylineVertex
 10
0.0000381469726563
 20
92.47318267822265
 30
-5.189311981201171
 70
    32
  0
VERTEX
  5
116
330
FA
100
AcDbEntity
  8
OracDecor_cornice_mouldings
 62
   153
420
  5804257
100
AcDbVertex
100
AcDb3dPolylineVertex
 10
0.0000381469726563
 20
91.09345245361328
 30
-5.892253875732421
 70
    32
  0
VERTEX
  5
117
330
FA
100
AcDbEntity
  8
OracDecor_cornice_mouldings
 62
   153
420
  5804257
100
AcDbVertex
100
AcDb3dPolylineVertex
 10
0.0000381469726563
 20
89.99804687500001
 30
-6.987663269042968
 70
    32
  0
VERTEX
  5
118
330
FA
100
AcDbEntity
  8
OracDecor_cornice_mouldings
 62
   153
420
  5804257
100
AcDbVertex
100
AcDb3dPolylineVertex
 10
0.0000381469726563
 20
89.29510498046875
 30
-8.367393493652343
 70
    32
  0
VERTEX
  5
119
330
FA
100
AcDbEntity
  8
OracDecor_cornice_mouldings
 62
   153
420
  5804257
100
AcDbVertex
100
AcDb3dPolylineVertex
 10
0.0000381469726563
 20
89.05319213867187
 30
-9.894798278808593
 70
    32
  0
VERTEX
  5
11A
330
FA
100
AcDbEntity
  8
OracDecor_cornice_mouldings
 62
   153
420
  5804257
100
AcDbVertex
100
AcDb3dPolylineVertex
 10
-0.0000228881835938
 20
85.09527587890625
 30
-9.894798278808593
 70
    32
  0
VERTEX
  5
11B
330
FA
100
AcDbEntity
  8
OracDecor_cornice_mouldings
 62
   153
420
  5804257
100
AcDbVertex
100
AcDb3dPolylineVertex
 10
-0.0000228881854127
 20
85.09527587890625
 30
-12.86323928833008
 70
    32
  0
VERTEX
  5
11C
330
FA
100
AcDbEntity
  8
OracDecor_cornice_mouldings
 62
   153
420
  5804257
100
AcDbVertex
100
AcDb3dPolylineVertex
 10
-0.0000228881835938
 20
67.28462982177735
 30
-12.86320877075195
 70
    32
  0
VERTEX
  5
11D
330
FA
100
AcDbEntity
  8
OracDecor_cornice_mouldings
 62
   153
420
  5804257
100
AcDbVertex
100
AcDb3dPolylineVertex
 10
-0.0000228881835938
 20
67.28462982177735
 30
-15.83167457580566
 70
    32
  0
VERTEX
  5
11E
330
FA
100
AcDbEntity
  8
OracDecor_cornice_mouldings
 62
   153
420
  5804257
100
AcDbVertex
100
AcDb3dPolylineVertex
 10
-0.0000228881854127
 20
60.44054412841797
 30
-17.29627609252929
 70
    32
  0
VERTEX
  5
11F
330
FA
100
AcDbEntity
  8
OracDecor_cornice_mouldings
 62
   153
420
  5804257
100
AcDbVertex
100
AcDb3dPolylineVertex
 10
-0.0000228881872317
 20
56.11946487426758
 30
-18.63995361328125
 70
    32
  0
VERTEX
  5
120
330
FA
100
AcDbEntity
  8
OracDecor_cornice_mouldings
 62
   153
420
  5804257
100
AcDbVertex
100
AcDb3dPolylineVertex
 10
-0.0000228881799558
 20
51.75106430053711
 30
-20.44656372070313
 70
    32
  0
VERTEX
  5
121
330
FA
100
AcDbEntity
  8
OracDecor_cornice_mouldings
 62
   153
420
  5804257
100
AcDbVertex
100
AcDb3dPolylineVertex
 10
-0.0000228881835938
 20
47.74314880371093
 30
-22.54746627807617
 70
    32
  0
VERTEX
  5
122
330
FA
100
AcDbEntity
  8
OracDecor_cornice_mouldings
 62
   153
420
  5804257
100
AcDbVertex
100
AcDb3dPolylineVertex
 10
-0.0000228881835938
 20
43.7721939086914
 30
-25.11224365234375
 70
    32
  0
VERTEX
  5
123
330
FA
100
AcDbEntity
  8
OracDecor_cornice_mouldings
 62
   153
420
  5804257
100
AcDbVertex
100
AcDb3dPolylineVertex
 10
-0.0000228881854127
 20
40.20886993408203
 30
-27.90149116516114
 70
    32
  0
VERTEX
  5
124
330
FA
100
AcDbEntity
  8
OracDecor_cornice_mouldings
 62
   153
420
  5804257
100
AcDbVertex
100
AcDb3dPolylineVertex
 10
-0.0000228881854127
 20
36.76556777954102
 30
-31.14033317565918
 70
    32
  0
VERTEX
  5
125
330
FA
100
AcDbEntity
  8
OracDecor_cornice_mouldings
 62
   153
420
  5804257
100
AcDbVertex
100
AcDb3dPolylineVertex
 10
-0.0000228881835938
 20
33.76367568969727
 30
-34.52645874023438
 70
    32
  0
VERTEX
  5
126
330
FA
100
AcDbEntity
  8
OracDecor_cornice_mouldings
 62
   153
420
  5804257
100
AcDbVertex
100
AcDb3dPolylineVertex
 10
-0.0000228881835938
 20
30.96092796325684
 30
-38.33313751220703
 70
    32
  0
VERTEX
  5
127
330
FA
100
AcDbEntity
  8
OracDecor_cornice_mouldings
 62
   153
420
  5804257
100
AcDbVertex
100
AcDb3dPolylineVertex
 10
-0.0000228881854127
 20
28.61890029907227
 30
-42.20510101318359
 70
    32
  0
VERTEX
  5
128
330
FA
100
AcDbEntity
  8
OracDecor_cornice_mouldings
 62
   153
420
  5804257
100
AcDbVertex
100
AcDb3dPolylineVertex
 10
-0.0000228881835938
 20
26.5485782623291
 30
-46.45483779907226
 70
    32
  0
VERTEX
  5
129
330
FA
100
AcDbEntity
  8
OracDecor_cornice_mouldings
 62
   153
420
  5804257
100
AcDbVertex
100
AcDb3dPolylineVertex
 10
-0.0000228881835938
 20
24.94320678710938
 30
-50.68567276000976
 70
    32
  0
VERTEX
  5
12A
330
FA
100
AcDbEntity
  8
OracDecor_cornice_mouldings
 62
   153
420
  5804257
100
AcDbVertex
100
AcDb3dPolylineVertex
 10
-0.0000228881835938
 20
23.67321014404297
 30
-55.23909378051758
 70
    32
  0
VERTEX
  5
12B
330
FA
100
AcDbEntity
  8
OracDecor_cornice_mouldings
 62
   153
420
  5804257
100
AcDbVertex
100
AcDb3dPolylineVertex
 10
-0.0000228881835938
 20
22.85714912414551
 30
-59.69007492065429
 70
    32
  0
VERTEX
  5
12C
330
FA
100
AcDbEntity
  8
OracDecor_cornice_mouldings
 62
   153
420
  5804257
100
AcDbVertex
100
AcDb3dPolylineVertex
 10
-0.000030517578125
 20
22.22346496582031
 30
-66.66041564941406
 70
    32
  0
VERTEX
  5
12D
330
FA
100
AcDbEntity
  8
OracDecor_cornice_mouldings
 62
   153
420
  5804257
100
AcDbVertex
100
AcDb3dPolylineVertex
 10
-0.000030517581763
 20
19.31471443176269
 30
-66.66041564941406
 70
    32
  0
VERTEX
  5
12E
330
FA
100
AcDbEntity
  8
OracDecor_cornice_mouldings
 62
   153
420
  5804257
100
AcDbVertex
100
AcDb3dPolylineVertex
 10
-0.000030517578125
 20
18.86357307434082
 30
-70.72351837158203
 70
    32
  0
VERTEX
  5
12F
330
FA
100
AcDbEntity
  8
OracDecor_cornice_mouldings
 62
   153
420
  5804257
100
AcDbVertex
100
AcDb3dPolylineVertex
 10
-0.000030517576306
 20
18.26686286926269
 30
-73.37774658203125
 70
    32
  0
VERTEX
  5
130
330
FA
100
AcDbEntity
  8
OracDecor_cornice_mouldings
 62
   153
420
  5804257
100
AcDbVertex
100
AcDb3dPolylineVertex
 10
-0.000030517578125
 20
17.37981796264648
 30
-75.95323181152344
 70
    32
  0
VERTEX
  5
131
330
FA
100
AcDbEntity
  8
OracDecor_cornice_mouldings
 62
   153
420
  5804257
100
AcDbVertex
100
AcDb3dPolylineVertex
 10
-0.000030517578125
 20
16.21546936035156
 30
-78.41194152832031
 70
    32
  0
VERTEX
  5
132
330
FA
100
AcDbEntity
  8
OracDecor_cornice_mouldings
 62
   153
420
  5804257
100
AcDbVertex
100
AcDb3dPolylineVertex
 10
-0.000030517578125
 20
14.78490924835205
 30
-80.73037719726562
 70
    32
  0
VERTEX
  5
133
330
FA
100
AcDbEntity
  8
OracDecor_cornice_mouldings
 62
   153
420
  5804257
100
AcDbVertex
100
AcDb3dPolylineVertex
 10
-0.000030517578125
 20
13.10977077484131
 30
-82.87398529052735
 70
    32
  0
VERTEX
  5
134
330
FA
100
AcDbEntity
  8
OracDecor_cornice_mouldings
 62
   153
420
  5804257
100
AcDbVertex
100
AcDb3dPolylineVertex
 10
-0.000030517576306
 20
10.25713539123535
 30
-85.79348754882813
 70
    32
  0
VERTEX
  5
135
330
FA
100
AcDbEntity
  8
OracDecor_cornice_mouldings
 62
   153
420
  5804257
100
AcDbVertex
100
AcDb3dPolylineVertex
 10
-0.000030517581763
 20
9.99014663696289
 30
-86.13551330566407
 70
    32
  0
VERTEX
  5
136
330
FA
100
AcDbEntity
  8
OracDecor_cornice_mouldings
 62
   153
420
  5804257
100
AcDbVertex
100
AcDb3dPolylineVertex
 10
-0.000030517578125
 20
9.894834518432617
 30
-86.55880737304688
 70
    32
  0
VERTEX
  5
137
330
FA
100
AcDbEntity
  8
OracDecor_cornice_mouldings
 62
   153
420
  5804257
100
AcDbVertex
100
AcDb3dPolylineVertex
 10
-0.000030517576306
 20
9.894834518432617
 30
-89.05317687988281
 70
    32
  0
VERTEX
  5
138
330
FA
100
AcDbEntity
  8
OracDecor_cornice_mouldings
 62
   153
420
  5804257
100
AcDbVertex
100
AcDb3dPolylineVertex
 10
-0.000030517578125
 20
8.367425918579101
 30
-89.29508972167969
 70
    32
  0
VERTEX
  5
139
330
FA
100
AcDbEntity
  8
OracDecor_cornice_mouldings
 62
   153
420
  5804257
100
AcDbVertex
100
AcDb3dPolylineVertex
 10
-0.000030517578125
 20
6.987693786621093
 30
-89.99803161621093
 70
    32
  0
VERTEX
  5
13A
330
FA
100
AcDbEntity
  8
OracDecor_cornice_mouldings
 62
   153
420
  5804257
100
AcDbVertex
100
AcDb3dPolylineVertex
 10
-0.000030517578125
 20
5.892284393310546
 30
-91.09344482421875
 70
    32
  0
VERTEX
  5
13B
330
FA
100
AcDbEntity
  8
OracDecor_cornice_mouldings
 62
   153
420
  5804257
100
AcDbVertex
100
AcDb3dPolylineVertex
 10
-0.000030517578125
 20
5.189327239990234
 30
-92.47317504882813
 70
    32
  0
SEQEND
  5
13C
330
FA
100
AcDbEntity
  8
OracDecor_cornice_mouldings
 62
   153
420
  5804257
  0
ENDSEC
  0
SECTION
  2
OBJECTS
  0
DICTIONARY
  5
C
330
0
100
AcDbDictionary
281
     1
  3
ACAD_COLOR
350
DC
  3
ACAD_DETAILVIEWSTYLE
350
F5
  3
ACAD_GROUP
350
D
  3
ACAD_LAYOUT
350
1A
  3
ACAD_MATERIAL
350
AA
  3
ACAD_MLEADERSTYLE
350
F1
  3
ACAD_MLINESTYLE
350
17
  3
ACAD_PLOTSETTINGS
350
19
  3
ACAD_PLOTSTYLENAME
350
E
  3
ACAD_SCALELIST
350
DF
  3
ACAD_SECTIONVIEWSTYLE
350
F3
  3
ACAD_TABLESTYLE
350
DD
  3
ACAD_VISUALSTYLE
350
C3
  3
ACDB_RECOMPOSE_DATA
350
149
  3
AcDbVariableDictionary
350
13D
  0
DICTIONARY
  5
DC
102
{ACAD_REACTORS
330
C
102
}
330
C
100
AcDbDictionary
281
     1
  0
DICTIONARY
  5
F5
102
{ACAD_REACTORS
330
C
102
}
330
C
100
AcDbDictionary
281
     1
  3
Imperial24
350
F6
  0
DICTIONARY
  5
D
102
{ACAD_REACTORS
330
C
102
}
330
C
100
AcDbDictionary
281
     1
  0
DICTIONARY
  5
1A
102
{ACAD_REACTORS
330
C
102
}
330
C
100
AcDbDictionary
281
     1
  3
Layout1
350
1E
  3
Layout2
350
26
  3
Model
350
22
  0
DICTIONARY
  5
AA
102
{ACAD_REACTORS
330
C
102
}
330
C
100
AcDbDictionary
281
     1
  3
ByBlock
350
B3
  3
ByLayer
350
AB
  3
Global
350
BB
  0
DICTIONARY
  5
F1
102
{ACAD_REACTORS
330
C
102
}
330
C
100
AcDbDictionary
281
     1
  3
Standard
350
F2
  0
DICTIONARY
  5
17
102
{ACAD_REACTORS
330
C
102
}
330
C
100
AcDbDictionary
281
     1
  3
Standard
350
18
  0
DICTIONARY
  5
19
102
{ACAD_REACTORS
330
C
102
}
330
C
100
AcDbDictionary
281
     1
  0
ACDBDICTIONARYWDFLT
  5
E
102
{ACAD_REACTORS
330
C
102
}
330
C
100
AcDbDictionary
281
     1
  3
ByLayer
350
2D
  3
Normal
350
F
100
AcDbDictionaryWithDefault
340
F
  0
DICTIONARY
  5
DF
102
{ACAD_REACTORS
330
C
102
}
330
C
100
AcDbDictionary
281
     1
  3
A0
350
E0
  3
A1
350
E1
  3
A2
350
E2
  3
A3
350
E3
  3
A4
350
E4
  3
A5
350
E5
  3
A6
350
E6
  3
A7
350
E7
  3
A8
350
E8
  3
A9
350
E9
  3
B0
350
EA
  3
B1
350
EB
  3
B2
350
EC
  3
B3
350
ED
  3
B4
350
EE
  3
B5
350
EF
  3
B6
350
F0
  0
DICTIONARY
  5
F3
102
{ACAD_REACTORS
330
C
102
}
330
C
100
AcDbDictionary
281
     1
  3
Imperial24
350
F4
  0
DICTIONARY
  5
DD
102
{ACAD_REACTORS
330
C
102
}
330
C
100
AcDbDictionary
281
     1
  3
Standard
350
DE
  0
DICTIONARY
  5
C3
102
{ACAD_REACTORS
330
C
102
}
330
C
100
AcDbDictionary
281
     1
  3
2dWireframe
350
C9
  3
Basic
350
C8
  3
Brighten
350
CF
  3
ColorChange
350
D3
  3
Conceptual
350
CC
  3
Dim
350
CE
  3
EdgeColorOff
350
DB
  3
Facepattern
350
D2
  3
Flat
350
C4
  3
FlatWithEdges
350
C5
  3
Gouraud
350
C6
  3
GouraudWithEdges
350
C7
  3
Hidden
350
CB
  3
JitterOff
350
D9
  3
Linepattern
350
D1
  3
OverhangOff
350
DA
  3
Realistic
350
CD
  3
Shaded
350
D8
  3
Shaded with edges
350
D7
  3
Shades of Gray
350
D4
  3
Sketchy
350
D5
  3
Thicken
350
D0
  3
Wireframe
350
CA
  3
X-Ray
350
D6
  0
XRECORD
  5
149
102
{ACAD_REACTORS
330
C
102
}
330
C
100
AcDbXrecord
280
     1
 90
        1
330
DE
  0
DICTIONARY
  5
13D
102
{ACAD_REACTORS
330
C
102
}
330
C
100
AcDbDictionary
281
     1
  3
CANNOSCALE
350
143
  3
CMLEADERSTYLE
350
13F
  3
CTABLESTYLE
350
13E
  3
CVIEWDETAILSTYLE
350
140
  3
CVIEWSECTIONSTYLE
350
141
  3
LAYEREVAL
350
145
  3
LAYERNOTIFY
350
146
  3
LIGHTINGUNITS
350
144
  3
MSLTSCALE
350
142
  0
ACDBDETAILVIEWSTYLE
  5
F6
102
{ACAD_XDICTIONARY
360
17E
102
}
102
{ACAD_REACTORS
330
F5
102
}
330
F5
100
AcDbModelDocViewStyle
 70
     0
  3
Imperial24
290
     0
100
AcDbDetailViewStyle
 70
     0
 71
     0
 90
        3
 71
     1
340
11
 62
   256
 40
0.24
340
0
 62
   256
 40
0.24
300

 40
0.36
280
     3
 71
     2
340
16
 90
       25
 62
   256
 71
     3
340
11
 62
   256
 40
0.24
 90
        1
 40
0.75
 90
        1
300
%<\AcVar ViewType \f "%tc1">% %<\AcVar ViewDetailId>%\PSCALE %<\AcVar ViewScale \f "%sn">%
 71
     4
340
16
 90
       25
 62
   256
340
16
 90
       25
 62
   256
280
     0
  0
LAYOUT
  5
1E
102
{ACAD_REACTORS
330
1A
102
}
330
1A
100
AcDbPlotSettings
  1

  2
\\KTXNTBDC\CASF2PN1
  4

  6

 40
0.0
 41
0.0
 42
0.0
 43
0.0
 44
0.0
 45
0.0
 46
0.0
 47
0.0
 48
0.0
 49
0.0
140
0.0
141
0.0
142
1.0
143
1.0
 70
   688
 72
     0
 73
     0
 74
     5
  7

 75
    16
147
1.0
 76
     0
 77
     2
 78
   300
148
0.0
149
0.0
100
AcDbLayout
  1
Layout1
 70
     1
 71
     1
 10
0.0
 20
0.0
 11
12.0
 21
9.0
 12
0.0
 22
0.0
 32
0.0
 14
1.000000000000000E+20
 24
1.000000000000000E+20
 34
1.000000000000000E+20
 15
-1.000000000000000E+20
 25
-1.000000000000000E+20
 35
-1.000000000000000E+20
146
0.0
 13
0.0
 23
0.0
 33
0.0
 16
1.0
 26
0.0
 36
0.0
 17
0.0
 27
1.0
 37
0.0
 76
     0
330
1B
  0
LAYOUT
  5
26
102
{ACAD_REACTORS
330
1A
102
}
330
1A
100
AcDbPlotSettings
  1

  2
\\KTXNTBDC\CASF2PN1
  4

  6

 40
0.0
 41
0.0
 42
0.0
 43
0.0
 44
0.0
 45
0.0
 46
0.0
 47
0.0
 48
0.0
 49
0.0
140
0.0
141
0.0
142
1.0
143
1.0
 70
   688
 72
     0
 73
     0
 74
     5
  7

 75
    16
147
1.0
 76
     0
 77
     2
 78
   300
148
0.0
149
0.0
100
AcDbLayout
  1
Layout2
 70
     1
 71
     2
 10
0.0
 20
0.0
 11
12.0
 21
9.0
 12
0.0
 22
0.0
 32
0.0
 14
0.0
 24
0.0
 34
0.0
 15
0.0
 25
0.0
 35
0.0
146
0.0
 13
0.0
 23
0.0
 33
0.0
 16
1.0
 26
0.0
 36
0.0
 17
0.0
 27
1.0
 37
0.0
 76
     0
330
23
  0
LAYOUT
  5
22
102
{ACAD_REACTORS
330
1A
102
}
330
1A
100
AcDbPlotSettings
  1

  2
\\KTXNTBDC\CASF2PN1
  4

  6

 40
0.0
 41
0.0
 42
0.0
 43
0.0
 44
0.0
 45
0.0
 46
0.0
 47
0.0
 48
0.0
 49
0.0
140
0.0
141
0.0
142
1.0
143
1.0
 70
  1712
 72
     0
 73
     0
 74
     0
  7

 75
     0
147
1.0
 76
     0
 77
     2
 78
   300
148
0.0
149
0.0
100
AcDbLayout
  1
Model
 70
     1
 71
     0
 10
0.0
 20
0.0
 11
12.0
 21
9.0
 12
0.0
 22
0.0
 32
0.0
 14
0.0
 24
0.0
 34
0.0
 15
0.0
 25
0.0
 35
0.0
146
0.0
 13
0.0
 23
0.0
 33
0.0
 16
1.0
 26
0.0
 36
0.0
 17
0.0
 27
1.0
 37
0.0
 76
     0
330
1F
  0
MATERIAL
  5
B3
102
{ACAD_XDICTIONARY
360
B4
102
}
102
{ACAD_REACTORS
330
AA
102
}
330
AA
100
AcDbMaterial
  1
ByBlock
 72
     0
 43
0.0208333333333333
 43
0.0
 43
0.0
 43
0.0
 43
0.0
 43
0.0208333333333333
 43
0.0
 43
0.0
 43
0.0
 43
0.0
 43
1.0
 43
0.0
 43
0.0
 43
0.0
 43
0.0
 43
1.0
 77
     0
 47
0.0208333333333333
 47
0.0
 47
0.0
 47
0.0
 47
0.0
 47
0.0208333333333333
 47
0.0
 47
0.0
 47
0.0
 47
0.0
 47
1.0
 47
0.0
 47
0.0
 47
0.0
 47
0.0
 47
1.0
171
     0
 49
0.0208333333333333
 49
0.0
 49
0.0
 49
0.0
 49
0.0
 49
0.0208333333333333
 49
0.0
 49
0.0
 49
0.0
 49
0.0
 49
1.0
 49
0.0
 49
0.0
 49
0.0
 49
0.0
 49
1.0
175
     0
142
0.0208333333333333
142
0.0
142
0.0
142
0.0
142
0.0
142
0.0208333333333333
142
0.0
142
0.0
142
0.0
142
0.0
142
1.0
142
0.0
142
0.0
142
0.0
142
0.0
142
1.0
179
     0
144
0.0208333333333333
144
0.0
144
0.0
144
0.0
144
0.0
144
0.0208333333333333
144
0.0
144
0.0
144
0.0
144
0.0
144
1.0
144
0.0
144
0.0
144
0.0
144
0.0
144
1.0
147
0.0208333333333333
147
0.0
147
0.0
147
0.0
147
0.0
147
0.0208333333333333
147
0.0
147
0.0
147
0.0
147
0.0
147
1.0
147
0.0
147
0.0
147
0.0
147
0.0
147
1.0
  0
MATERIAL
  5
AB
102
{ACAD_XDICTIONARY
360
AC
102
}
102
{ACAD_REACTORS
330
AA
102
}
330
AA
100
AcDbMaterial
  1
ByLayer
 72
     0
 43
0.0208333333333333
 43
0.0
 43
0.0
 43
0.0
 43
0.0
 43
0.0208333333333333
 43
0.0
 43
0.0
 43
0.0
 43
0.0
 43
1.0
 43
0.0
 43
0.0
 43
0.0
 43
0.0
 43
1.0
 77
     0
 47
0.0208333333333333
 47
0.0
 47
0.0
 47
0.0
 47
0.0
 47
0.0208333333333333
 47
0.0
 47
0.0
 47
0.0
 47
0.0
 47
1.0
 47
0.0
 47
0.0
 47
0.0
 47
0.0
 47
1.0
171
     0
 49
0.0208333333333333
 49
0.0
 49
0.0
 49
0.0
 49
0.0
 49
0.0208333333333333
 49
0.0
 49
0.0
 49
0.0
 49
0.0
 49
1.0
 49
0.0
 49
0.0
 49
0.0
 49
0.0
 49
1.0
175
     0
142
0.0208333333333333
142
0.0
142
0.0
142
0.0
142
0.0
142
0.0208333333333333
142
0.0
142
0.0
142
0.0
142
0.0
142
1.0
142
0.0
142
0.0
142
0.0
142
0.0
142
1.0
179
     0
144
0.0208333333333333
144
0.0
144
0.0
144
0.0
144
0.0
144
0.0208333333333333
144
0.0
144
0.0
144
0.0
144
0.0
144
1.0
144
0.0
144
0.0
144
0.0
144
0.0
144
1.0
147
0.0208333333333333
147
0.0
147
0.0
147
0.0
147
0.0
147
0.0208333333333333
147
0.0
147
0.0
147
0.0
147
0.0
147
1.0
147
0.0
147
0.0
147
0.0
147
0.0
147
1.0
  0
MATERIAL
  5
BB
102
{ACAD_XDICTIONARY
360
BC
102
}
102
{ACAD_REACTORS
330
AA
102
}
330
AA
100
AcDbMaterial
  1
Global
 72
     0
 43
0.0208333333333333
 43
0.0
 43
0.0
 43
0.0
 43
0.0
 43
0.0208333333333333
 43
0.0
 43
0.0
 43
0.0
 43
0.0
 43
1.0
 43
0.0
 43
0.0
 43
0.0
 43
0.0
 43
1.0
 77
     0
 47
0.0208333333333333
 47
0.0
 47
0.0
 47
0.0
 47
0.0
 47
0.0208333333333333
 47
0.0
 47
0.0
 47
0.0
 47
0.0
 47
1.0
 47
0.0
 47
0.0
 47
0.0
 47
0.0
 47
1.0
171
     0
 49
0.0208333333333333
 49
0.0
 49
0.0
 49
0.0
 49
0.0
 49
0.0208333333333333
 49
0.0
 49
0.0
 49
0.0
 49
0.0
 49
1.0
 49
0.0
 49
0.0
 49
0.0
 49
0.0
 49
1.0
175
     0
142
0.0208333333333333
142
0.0
142
0.0
142
0.0
142
0.0
142
0.0208333333333333
142
0.0
142
0.0
142
0.0
142
0.0
142
1.0
142
0.0
142
0.0
142
0.0
142
0.0
142
1.0
179
     0
144
0.0208333333333333
144
0.0
144
0.0
144
0.0
144
0.0
144
0.0208333333333333
144
0.0
144
0.0
144
0.0
144
0.0
144
1.0
144
0.0
144
0.0
144
0.0
144
0.0
144
1.0
147
0.0208333333333333
147
0.0
147
0.0
147
0.0
147
0.0
147
0.0208333333333333
147
0.0
147
0.0
147
0.0
147
0.0
147
1.0
147
0.0
147
0.0
147
0.0
147
0.0
147
1.0
  0
MLEADERSTYLE
  5
F2
102
{ACAD_XDICTIONARY
360
17A
102
}
102
{ACAD_REACTORS
330
F1
102
}
330
F1
100
AcDbMLeaderStyle
179
     2
170
     2
171
     1
172
     0
 90
        2
 40
0.0
 41
0.0
173
     1
 91
-1056964608
340
14
 92
       -2
290
     1
 42
0.09
291
     1
 43
0.36
  3
Standard
 44
0.18
300

342
11
174
     1
178
     6
175
     1
176
     0
 93
-1056964608
 45
0.18
292
     0
297
     0
 46
0.18
 94
-1056964608
 47
1.0
 49
1.0
140
1.0
293
     1
141
0.0
294
     1
177
     0
142
1.0
295
     0
296
     0
143
0.125
271
     0
272
     9
273
     9
  0
MLINESTYLE
  5
18
102
{ACAD_REACTORS
330
17
102
}
330
17
100
AcDbMlineStyle
  2
STANDARD
 70
     0
  3

 62
   256
 51
90.0
 52
90.0
 71
     2
 49
0.5
 62
   256
  6
BYLAYER
 49
-0.5
 62
   256
  6
BYLAYER
  0
ACDBPLACEHOLDER
  5
2D
102
{ACAD_REACTORS
330
E
102
}
330
E
  0
ACDBPLACEHOLDER
  5
F
102
{ACAD_REACTORS
330
E
102
}
330
E
  0
SCALE
  5
E0
102
{ACAD_REACTORS
330
DF
102
}
330
DF
100
AcDbScale
 70
     0
300
1:1
140
1.0
141
1.0
290
     1
  0
SCALE
  5
E1
102
{ACAD_REACTORS
330
DF
102
}
330
DF
100
AcDbScale
 70
     0
300
1/128" = 1'-0"
140
0.0078125
141
12.0
290
     0
  0
SCALE
  5
E2
102
{ACAD_REACTORS
330
DF
102
}
330
DF
100
AcDbScale
 70
     0
300
1/64" = 1'-0"
140
0.015625
141
12.0
290
     0
  0
SCALE
  5
E3
102
{ACAD_REACTORS
330
DF
102
}
330
DF
100
AcDbScale
 70
     0
300
1/32" = 1'-0"
140
0.03125
141
12.0
290
     0
  0
SCALE
  5
E4
102
{ACAD_REACTORS
330
DF
102
}
330
DF
100
AcDbScale
 70
     0
300
1/16" = 1'-0"
140
0.0625
141
12.0
290
     0
  0
SCALE
  5
E5
102
{ACAD_REACTORS
330
DF
102
}
330
DF
100
AcDbScale
 70
     0
300
3/32" = 1'-0"
140
0.09375
141
12.0
290
     0
  0
SCALE
  5
E6
102
{ACAD_REACTORS
330
DF
102
}
330
DF
100
AcDbScale
 70
     0
300
1/8" = 1'-0"
140
0.125
141
12.0
290
     0
  0
SCALE
  5
E7
102
{ACAD_REACTORS
330
DF
102
}
330
DF
100
AcDbScale
 70
     0
300
3/16" = 1'-0"
140
0.1875
141
12.0
290
     0
  0
SCALE
  5
E8
102
{ACAD_REACTORS
330
DF
102
}
330
DF
100
AcDbScale
 70
     0
300
1/4" = 1'-0"
140
0.25
141
12.0
290
     0
  0
SCALE
  5
E9
102
{ACAD_REACTORS
330
DF
102
}
330
DF
100
AcDbScale
 70
     0
300
3/8" = 1'-0"
140
0.375
141
12.0
290
     0
  0
SCALE
  5
EA
102
{ACAD_REACTORS
330
DF
102
}
330
DF
100
AcDbScale
 70
     0
300
1/2" = 1'-0"
140
0.5
141
12.0
290
     0
  0
SCALE
  5
EB
102
{ACAD_REACTORS
330
DF
102
}
330
DF
100
AcDbScale
 70
     0
300
3/4" = 1'-0"
140
0.75
141
12.0
290
     0
  0
SCALE
  5
EC
102
{ACAD_REACTORS
330
DF
102
}
330
DF
100
AcDbScale
 70
     0
300
1" = 1'-0"
140
1.0
141
12.0
290
     0
  0
SCALE
  5
ED
102
{ACAD_REACTORS
330
DF
102
}
330
DF
100
AcDbScale
 70
     0
300
1-1/2" = 1'-0"
140
1.5
141
12.0
290
     0
  0
SCALE
  5
EE
102
{ACAD_REACTORS
330
DF
102
}
330
DF
100
AcDbScale
 70
     0
300
3" = 1'-0"
140
3.0
141
12.0
290
     0
  0
SCALE
  5
EF
102
{ACAD_REACTORS
330
DF
102
}
330
DF
100
AcDbScale
 70
     0
300
6" = 1'-0"
140
6.0
141
12.0
290
     0
  0
SCALE
  5
F0
102
{ACAD_REACTORS
330
DF
102
}
330
DF
100
AcDbScale
 70
     0
300
1'-0" = 1'-0"
140
12.0
141
12.0
290
     0
  0
ACDBSECTIONVIEWSTYLE
  5
F4
102
{ACAD_XDICTIONARY
360
17C
102
}
102
{ACAD_REACTORS
330
F3
102
}
330
F3
100
AcDbModelDocViewStyle
 70
     0
  3
Imperial24
290
     0
100
AcDbSectionViewStyle
 70
     0
 71
     0
 90
       78
 71
     1
340
11
 62
   256
 40
0.24
340
0
340
0
 62
   256
 40
0.24
300
I, O, Q, S, X, Z
 40
0.48
 90
        3
 40
0.18
 90
        1
 71
     2
340
16
 90
       25
 62
   256
340
16
 90
       50
 62
   256
 40
0.24
 40
0.0
 40
0.24
 71
     3
340
11
 62
   256
 40
0.24
 90
        1
 40
0.75
 90
        1
300
%<\AcVar ViewType \f "%tc1">% %<\AcVar ViewSectionStartId>%-%<\AcVar ViewSectionEndId>%\PSCALE %<\AcVar ViewScale \f "%sn">%
 71
     4
 62
   256
 62
   257
300
ANSI31
 40
1.0
 90
        0
290
     0
290
     0
 90
        6
 40
0.0
 40
1.570796326794896
 40
0.2617993877991494
 40
1.308996938995747
 40
-0.2617993877991494
 40
1.832595714594046
  0
TABLESTYLE
  5
DE
102
{ACAD_XDICTIONARY
360
147
102
}
102
{ACAD_REACTORS
330
DD
102
}
330
DD
100
AcDbTableStyle
280
     0
  3
Standard
 70
     0
 71
     0
 40
0.06
 41
0.06
280
     0
281
     0
  7
Standard
140
0.18
170
     2
 62
     0
 63
     7
283
     0
 90
      512
 91
        0
  1

274
    -2
284
     1
 64
     0
275
    -2
285
     1
 65
     0
276
    -2
286
     1
 66
     0
277
    -2
287
     1
 67
     0
278
    -2
288
     1
 68
     0
279
    -2
289
     1
 69
     0
  7
Standard
140
0.25
170
     5
 62
     0
 63
     7
283
     0
 90
      512
 91
        0
  1

274
    -2
284
     1
 64
     0
275
    -2
285
     1
 65
     0
276
    -2
286
     1
 66
     0
277
    -2
287
     1
 67
     0
278
    -2
288
     1
 68
     0
279
    -2
289
     1
 69
     0
  7
Standard
140
0.18
170
     5
 62
     0
 63
     7
283
     0
 90
      512
 91
        0
  1

274
    -2
284
     1
 64
     0
275
    -2
285
     1
 65
     0
276
    -2
286
     1
 66
     0
277
    -2
287
     1
 67
     0
278
    -2
288
     1
 68
     0
279
    -2
289
     1
 69
     0
  0
VISUALSTYLE
  5
C9
102
{ACAD_XDICTIONARY
360
154
102
}
102
{ACAD_REACTORS
330
C3
102
}
330
C3
100
AcDbVisualStyle
  2
2dWireframe
 70
     4
177
     2
291
     0
 71
     0
176
     1
 72
     2
176
     1
 73
     0
176
     1
 90
        0
176
     1
 40
0.6
176
     1
 41
30.0
176
     1
 63
     7
421
 16777215
176
     1
 74
     1
176
     1
 91
        4
176
     1
 64
     7
176
     1
 65
   257
176
     1
 75
     1
176
     1
175
     1
176
     1
 42
1.0
176
     1
 92
        0
176
     1
 66
   257
176
     1
 43
1.0
176
     1
 76
     1
176
     1
 77
     6
176
     1
 78
     2
176
     1
 67
     7
176
     1
 79
     5
176
     1
170
     0
176
     1
171
     0
176
     1
290
     0
176
     1
 93
        1
176
     1
 44
0.0
176
     1
173
     0
176
     1
1001
ACAD
1000
AcDbSavedByObjectVersion
1070
     0
  0
VISUALSTYLE
  5
C8
102
{ACAD_XDICTIONARY
360
152
102
}
102
{ACAD_REACTORS
330
C3
102
}
330
C3
100
AcDbVisualStyle
  2
Basic
 70
     7
177
     2
291
     1
 71
     1
176
     1
 72
     0
176
     1
 73
     1
176
     1
 90
        0
176
     1
 40
0.6
176
     1
 41
30.0
176
     1
 63
     7
421
 16777215
176
     1
 74
     0
176
     1
 91
        4
176
     1
 64
     7
176
     1
 65
   257
176
     1
 75
     1
176
     1
175
     1
176
     1
 42
1.0
176
     1
 92
        8
176
     1
 66
     7
176
     1
 43
1.0
176
     1
 76
     1
176
     1
 77
     6
176
     1
 78
     2
176
     1
 67
     7
176
     1
 79
     5
176
     1
170
     0
176
     1
171
     0
176
     1
290
     0
176
     1
 93
        1
176
     1
 44
0.0
176
     1
173
     0
176
     1
1001
ACAD
1000
AcDbSavedByObjectVersion
1070
     0
  0
VISUALSTYLE
  5
CF
102
{ACAD_XDICTIONARY
360
160
102
}
102
{ACAD_REACTORS
330
C3
102
}
330
C3
100
AcDbVisualStyle
  2
Brighten
 70
    12
177
     2
291
     1
 71
     2
176
     1
 72
     2
176
     1
 73
     0
176
     1
 90
        0
176
     1
 40
0.6
176
     1
 41
30.0
176
     1
 63
     7
421
 16777215
176
     1
 74
     1
176
     1
 91
        4
176
     1
 64
     7
176
     1
 65
   257
176
     1
 75
     1
176
     1
175
     1
176
     1
 42
1.0
176
     1
 92
        8
176
     1
 66
     7
176
     1
 43
1.0
176
     1
 76
     1
176
     1
 77
     6
176
     1
 78
     2
176
     1
 67
     7
176
     1
 79
     5
176
     1
170
     0
176
     1
171
     0
176
     1
290
     0
176
     1
 93
        1
176
     1
 44
50.0
176
     1
173
     0
176
     1
1001
ACAD
1000
AcDbSavedByObjectVersion
1070
     0
  0
VISUALSTYLE
  5
D3
102
{ACAD_XDICTIONARY
360
168
102
}
102
{ACAD_REACTORS
330
C3
102
}
330
C3
100
AcDbVisualStyle
  2
ColorChange
 70
    16
177
     2
291
     1
 71
     2
176
     1
 72
     2
176
     1
 73
     3
176
     1
 90
        0
176
     1
 40
0.6
176
     1
 41
30.0
176
     1
 63
     8
421
  8421504
176
     1
 74
     1
176
     1
 91
        4
176
     1
 64
     7
176
     1
 65
   257
176
     1
 75
     1
176
     1
175
     1
176
     1
 42
1.0
176
     1
 92
        8
176
     1
 66
     8
424
  8421504
176
     1
 43
1.0
176
     1
 76
     1
176
     1
 77
     6
176
     1
 78
     2
176
     1
 67
     7
176
     1
 79
     5
176
     1
170
     0
176
     1
171
     0
176
     1
290
     0
176
     1
 93
        1
176
     1
 44
0.0
176
     1
173
     0
176
     1
1001
ACAD
1000
AcDbSavedByObjectVersion
1070
     0
  0
VISUALSTYLE
  5
CC
102
{ACAD_XDICTIONARY
360
15A
102
}
102
{ACAD_REACTORS
330
C3
102
}
330
C3
100
AcDbVisualStyle
  2
Conceptual
 70
     9
177
     2
291
     0
 71
     3
176
     1
 72
     2
176
     1
 73
     0
176
     1
 90
        0
176
     1
 40
0.6
176
     1
 41
30.0
176
     1
 63
     7
421
 16777215
176
     1
 74
     2
176
     1
 91
        2
176
     1
 64
     7
176
     1
 65
   257
176
     1
 75
     1
176
     1
175
     1
176
     1
 42
179.0
176
     1
 92
        8
176
     1
 66
     7
176
     1
 43
1.0
176
     1
 76
     1
176
     1
 77
     6
176
     1
 78
     2
176
     1
 67
     7
176
     1
 79
     3
176
     1
170
     0
176
     1
171
     0
176
     1
290
     0
176
     1
 93
        1
176
     1
 44
0.0
176
     1
173
     0
176
     1
1001
ACAD
1000
AcDbSavedByObjectVersion
1070
     0
  0
VISUALSTYLE
  5
CE
102
{ACAD_XDICTIONARY
360
15E
102
}
102
{ACAD_REACTORS
330
C3
102
}
330
C3
100
AcDbVisualStyle
  2
Dim
 70
    11
177
     2
291
     1
 71
     2
176
     1
 72
     2
176
     1
 73
     0
176
     1
 90
        0
176
     1
 40
0.6
176
     1
 41
30.0
176
     1
 63
     7
421
 16777215
176
     1
 74
     1
176
     1
 91
        4
176
     1
 64
     7
176
     1
 65
   257
176
     1
 75
     1
176
     1
175
     1
176
     1
 42
1.0
176
     1
 92
        8
176
     1
 66
     7
176
     1
 43
1.0
176
     1
 76
     1
176
     1
 77
     6
176
     1
 78
     2
176
     1
 67
     7
176
     1
 79
     5
176
     1
170
     0
176
     1
171
     0
176
     1
290
     0
176
     1
 93
        1
176
     1
 44
-50.0
176
     1
173
     0
176
     1
1001
ACAD
1000
AcDbSavedByObjectVersion
1070
     0
  0
VISUALSTYLE
  5
DB
102
{ACAD_XDICTIONARY
360
178
102
}
102
{ACAD_REACTORS
330
C3
102
}
330
C3
100
AcDbVisualStyle
  2
EdgeColorOff
 70
    22
177
     2
291
     1
 71
     2
176
     0
 72
     2
176
     0
 73
     0
176
     0
 90
        0
176
     0
 40
0.6
176
     0
 41
30.0
176
     0
 63
     7
421
 16777215
176
     0
 74
     1
176
     0
 91
        4
176
     0
 64
     7
176
     0
 65
   257
176
     0
 75
     1
176
     0
175
     1
176
     0
 42
1.0
176
     0
 92
        8
176
     2
 66
     7
176
     0
 43
1.0
176
     0
 76
     1
176
     0
 77
     6
176
     0
 78
     2
176
     0
 67
     7
176
     0
 79
     5
176
     0
170
     0
176
     0
171
     0
176
     0
290
     0
176
     0
 93
        1
176
     0
 44
0.0
176
     0
173
     0
176
     0
1001
ACAD
1000
AcDbSavedByObjectVersion
1070
     0
  0
VISUALSTYLE
  5
D2
102
{ACAD_XDICTIONARY
360
166
102
}
102
{ACAD_REACTORS
330
C3
102
}
330
C3
100
AcDbVisualStyle
  2
Facepattern
 70
    15
177
     2
291
     1
 71
     2
176
     1
 72
     2
176
     1
 73
     0
176
     1
 90
        0
176
     1
 40
0.6
176
     1
 41
30.0
176
     1
 63
     7
421
 16777215
176
     1
 74
     1
176
     1
 91
        4
176
     1
 64
     7
176
     1
 65
   257
176
     1
 75
     1
176
     1
175
     1
176
     1
 42
1.0
176
     1
 92
        8
176
     1
 66
     7
176
     1
 43
1.0
176
     1
 76
     1
176
     1
 77
     6
176
     1
 78
     2
176
     1
 67
     7
176
     1
 79
     5
176
     1
170
     0
176
     1
171
     0
176
     1
290
     0
176
     1
 93
        1
176
     1
 44
0.0
176
     1
173
     0
176
     1
1001
ACAD
1000
AcDbSavedByObjectVersion
1070
     0
  0
VISUALSTYLE
  5
C4
102
{ACAD_XDICTIONARY
360
14A
102
}
102
{ACAD_REACTORS
330
C3
102
}
330
C3
100
AcDbVisualStyle
  2
Flat
 70
     0
177
     2
291
     1
 71
     2
176
     1
 72
     1
176
     1
 73
     1
176
     1
 90
        2
176
     1
 40
0.6
176
     1
 41
30.0
176
     1
 63
     7
421
 16777215
176
     1
 74
     0
176
     1
 91
        0
176
     1
 64
     7
176
     1
 65
   257
176
     1
 75
     1
176
     1
175
     1
176
     1
 42
1.0
176
     1
 92
        8
176
     1
 66
     7
176
     1
 43
1.0
176
     1
 76
     1
176
     1
 77
     6
176
     1
 78
     2
176
     1
 67
     7
176
     1
 79
     5
176
     1
170
     0
176
     1
171
     0
176
     1
290
     0
176
     1
 93
       13
176
     1
 44
0.0
176
     1
173
     0
176
     1
1001
ACAD
1000
AcDbSavedByObjectVersion
1070
     0
  0
VISUALSTYLE
  5
C5
102
{ACAD_XDICTIONARY
360
14C
102
}
102
{ACAD_REACTORS
330
C3
102
}
330
C3
100
AcDbVisualStyle
  2
FlatWithEdges
 70
     1
177
     2
291
     1
 71
     2
176
     1
 72
     1
176
     1
 73
     1
176
     1
 90
        2
176
     1
 40
0.6
176
     1
 41
30.0
176
     1
 63
     7
421
 16777215
176
     1
 74
     1
176
     1
 91
        0
176
     1
 64
     7
176
     1
 65
   257
176
     1
 75
     1
176
     1
175
     1
176
     1
 42
1.0
176
     1
 92
        0
176
     1
 66
   257
176
     1
 43
1.0
176
     1
 76
     1
176
     1
 77
     6
176
     1
 78
     2
176
     1
 67
     7
176
     1
 79
     5
176
     1
170
     0
176
     1
171
     0
176
     1
290
     0
176
     1
 93
       13
176
     1
 44
0.0
176
     1
173
     0
176
     1
1001
ACAD
1000
AcDbSavedByObjectVersion
1070
     0
  0
VISUALSTYLE
  5
C6
102
{ACAD_XDICTIONARY
360
14E
102
}
102
{ACAD_REACTORS
330
C3
102
}
330
C3
100
AcDbVisualStyle
  2
Gouraud
 70
     2
177
     2
291
     1
 71
     2
176
     1
 72
     2
176
     1
 73
     1
176
     1
 90
        2
176
     1
 40
0.6
176
     1
 41
30.0
176
     1
 63
     7
421
 16777215
176
     1
 74
     0
176
     1
 91
        0
176
     1
 64
     7
176
     1
 65
   257
176
     1
 75
     1
176
     1
175
     1
176
     1
 42
1.0
176
     1
 92
        0
176
     1
 66
     7
176
     1
 43
1.0
176
     1
 76
     1
176
     1
 77
     6
176
     1
 78
     2
176
     1
 67
     7
176
     1
 79
     5
176
     1
170
     0
176
     1
171
     0
176
     1
290
     0
176
     1
 93
       13
176
     1
 44
0.0
176
     1
173
     0
176
     1
1001
ACAD
1000
AcDbSavedByObjectVersion
1070
     0
  0
VISUALSTYLE
  5
C7
102
{ACAD_XDICTIONARY
360
150
102
}
102
{ACAD_REACTORS
330
C3
102
}
330
C3
100
AcDbVisualStyle
  2
GouraudWithEdges
 70
     3
177
     2
291
     1
 71
     2
176
     1
 72
     2
176
     1
 73
     1
176
     1
 90
        2
176
     1
 40
0.6
176
     1
 41
30.0
176
     1
 63
     7
421
 16777215
176
     1
 74
     1
176
     1
 91
        0
176
     1
 64
     7
176
     1
 65
   257
176
     1
 75
     1
176
     1
175
     1
176
     1
 42
1.0
176
     1
 92
        0
176
     1
 66
   257
176
     1
 43
1.0
176
     1
 76
     1
176
     1
 77
     6
176
     1
 78
     2
176
     1
 67
     7
176
     1
 79
     5
176
     1
170
     0
176
     1
171
     0
176
     1
290
     0
176
     1
 93
       13
176
     1
 44
0.0
176
     1
173
     0
176
     1
1001
ACAD
1000
AcDbSavedByObjectVersion
1070
     0
  0
VISUALSTYLE
  5
CB
102
{ACAD_XDICTIONARY
360
158
102
}
102
{ACAD_REACTORS
330
C3
102
}
330
C3
100
AcDbVisualStyle
  2
Hidden
 70
     6
177
     2
291
     0
 71
     1
176
     1
 72
     2
176
     1
 73
     2
176
     1
 90
        0
176
     1
 40
0.6
176
     1
 41
30.0
176
     1
 63
     7
421
 16777215
176
     1
 74
     2
176
     1
 91
        2
176
     1
 64
     7
176
     1
 65
   257
176
     1
 75
     2
176
     1
175
     1
176
     1
 42
40.0
176
     1
 92
        0
176
     1
 66
   257
176
     1
 43
1.0
176
     1
 76
     1
176
     1
 77
     6
176
     1
 78
     2
176
     1
 67
     7
176
     1
 79
     3
176
     1
170
     0
176
     1
171
     0
176
     1
290
     0
176
     1
 93
        1
176
     1
 44
0.0
176
     1
173
     0
176
     1
1001
ACAD
1000
AcDbSavedByObjectVersion
1070
     0
  0
VISUALSTYLE
  5
D9
102
{ACAD_XDICTIONARY
360
174
102
}
102
{ACAD_REACTORS
330
C3
102
}
330
C3
100
AcDbVisualStyle
  2
JitterOff
 70
    20
177
     2
291
     1
 71
     2
176
     0
 72
     2
176
     0
 73
     0
176
     0
 90
        0
176
     0
 40
0.6
176
     0
 41
30.0
176
     0
 63
     7
421
 16777215
176
     0
 74
     1
176
     0
 91
        4
176
     0
 64
     7
176
     0
 65
   257
176
     0
 75
     1
176
     0
175
     1
176
     0
 42
1.0
176
     0
 92
       10
176
     2
 66
     7
176
     0
 43
1.0
176
     0
 76
     1
176
     0
 77
     6
176
     0
 78
     2
176
     0
 67
     7
176
     0
 79
     5
176
     0
170
     0
176
     0
171
     0
176
     0
290
     0
176
     0
 93
        1
176
     0
 44
0.0
176
     0
173
     0
176
     0
1001
ACAD
1000
AcDbSavedByObjectVersion
1070
     0
  0
VISUALSTYLE
  5
D1
102
{ACAD_XDICTIONARY
360
164
102
}
102
{ACAD_REACTORS
330
C3
102
}
330
C3
100
AcDbVisualStyle
  2
Linepattern
 70
    14
177
     2
291
     1
 71
     2
176
     1
 72
     2
176
     1
 73
     0
176
     1
 90
        0
176
     1
 40
0.6
176
     1
 41
30.0
176
     1
 63
     7
421
 16777215
176
     1
 74
     1
176
     1
 91
        4
176
     1
 64
     7
176
     1
 65
   257
176
     1
 75
     7
176
     1
175
     7
176
     1
 42
1.0
176
     1
 92
        8
176
     1
 66
     7
176
     1
 43
1.0
176
     1
 76
     1
176
     1
 77
     6
176
     1
 78
     2
176
     1
 67
     7
176
     1
 79
     5
176
     1
170
     0
176
     1
171
     0
176
     1
290
     0
176
     1
 93
        1
176
     1
 44
0.0
176
     1
173
     0
176
     1
1001
ACAD
1000
AcDbSavedByObjectVersion
1070
     0
  0
VISUALSTYLE
  5
DA
102
{ACAD_XDICTIONARY
360
176
102
}
102
{ACAD_REACTORS
330
C3
102
}
330
C3
100
AcDbVisualStyle
  2
OverhangOff
 70
    21
177
     2
291
     1
 71
     2
176
     0
 72
     2
176
     0
 73
     0
176
     0
 90
        0
176
     0
 40
0.6
176
     0
 41
30.0
176
     0
 63
     7
421
 16777215
176
     0
 74
     1
176
     0
 91
        4
176
     0
 64
     7
176
     0
 65
   257
176
     0
 75
     1
176
     0
175
     1
176
     0
 42
1.0
176
     0
 92
        9
176
     2
 66
     7
176
     0
 43
1.0
176
     0
 76
     1
176
     0
 77
     6
176
     0
 78
     2
176
     0
 67
     7
176
     0
 79
     5
176
     0
170
     0
176
     0
171
     0
176
     0
290
     0
176
     0
 93
        1
176
     0
 44
0.0
176
     0
173
     0
176
     0
1001
ACAD
1000
AcDbSavedByObjectVersion
1070
     0
  0
VISUALSTYLE
  5
CD
102
{ACAD_XDICTIONARY
360
15C
102
}
102
{ACAD_REACTORS
330
C3
102
}
330
C3
100
AcDbVisualStyle
  2
Realistic
 70
     8
177
     2
291
     0
 71
     2
176
     1
 72
     3
176
     1
 73
     0
176
     1
 90
        2
176
     1
 40
0.6
176
     1
 41
30.0
176
     1
 63
     7
421
 16777215
176
     1
 74
     0
176
     1
 91
        0
176
     1
 64
     7
176
     1
 65
   257
176
     1
 75
     1
176
     1
175
     1
176
     1
 42
1.0
176
     1
 92
        8
176
     1
 66
   257
176
     1
 43
1.0
176
     1
 76
     1
176
     1
 77
     6
176
     1
 78
     2
176
     1
 67
     7
176
     1
 79
     3
176
     1
170
     0
176
     1
171
     0
176
     1
290
     0
176
     1
 93
       13
176
     1
 44
0.0
176
     1
173
     0
176
     1
1001
ACAD
1000
AcDbSavedByObjectVersion
1070
     0
  0
VISUALSTYLE
  5
D8
102
{ACAD_XDICTIONARY
360
172
102
}
102
{ACAD_REACTORS
330
C3
102
}
330
C3
100
AcDbVisualStyle
  2
Shaded
 70
    27
177
     2
291
     0
 71
     2
176
     1
 72
     2
176
     1
 73
     1
176
     1
 90
        2
176
     1
 40
0.6
176
     1
 41
30.0
176
     1
 63
     7
421
 16777215
176
     1
 74
     0
176
     1
 91
        4
176
     1
 64
     7
176
     1
 65
   257
176
     1
 75
     1
176
     1
175
     1
176
     1
 42
1.0
176
     1
 92
        8
176
     1
 66
   257
176
     1
 43
1.0
176
     1
 76
     1
176
     1
 77
     6
176
     1
 78
     2
176
     1
 67
     8
425
  7895160
176
     1
 79
     3
176
     1
170
     0
176
     1
171
     0
176
     1
290
     0
176
     1
 93
        5
176
     1
 44
0.0
176
     1
173
     0
176
     1
1001
ACAD
1000
AcDbSavedByObjectVersion
1070
     0
  0
VISUALSTYLE
  5
D7
102
{ACAD_XDICTIONARY
360
170
102
}
102
{ACAD_REACTORS
330
C3
102
}
330
C3
100
AcDbVisualStyle
  2
Shaded with edges
 70
    26
177
     2
291
     0
 71
     2
176
     1
 72
     2
176
     1
 73
     1
176
     1
 90
        2
176
     1
 40
0.6
176
     1
 41
30.0
176
     1
 63
     7
421
 16777215
176
     1
 74
     1
176
     1
 91
       10
176
     1
 64
     7
176
     1
 65
   257
176
     1
 75
     2
176
     1
175
     1
176
     1
 42
1.0
176
     1
 92
        8
176
     1
 66
   257
176
     1
 43
1.0
176
     1
 76
     1
176
     1
 77
     6
176
     1
 78
     2
176
     1
 67
     7
176
     1
 79
     3
176
     1
170
     0
176
     1
171
     0
176
     1
290
     0
176
     1
 93
        5
176
     1
 44
0.0
176
     1
173
     0
176
     1
1001
ACAD
1000
AcDbSavedByObjectVersion
1070
     0
  0
VISUALSTYLE
  5
D4
102
{ACAD_XDICTIONARY
360
16A
102
}
102
{ACAD_REACTORS
330
C3
102
}
330
C3
100
AcDbVisualStyle
  2
Shades of Gray
 70
    23
177
     2
291
     0
 71
     2
176
     1
 72
     2
176
     1
 73
     3
176
     1
 90
        0
176
     1
 40
0.6
176
     1
 41
30.0
176
     1
 63
     7
421
 16777215
176
     1
 74
     2
176
     1
 91
        2
176
     1
 64
     7
176
     1
 65
     7
176
     1
 75
     1
176
     1
175
     1
176
     1
 42
40.0
176
     1
 92
        8
176
     1
 66
     7
176
     1
 43
1.0
176
     1
 76
     1
176
     1
 77
     6
176
     1
 78
     2
176
     1
 67
     7
176
     1
 79
     3
176
     1
170
     0
176
     1
171
     0
176
     1
290
     0
176
     1
 93
        1
176
     1
 44
0.0
176
     1
173
     0
176
     1
1001
ACAD
1000
AcDbSavedByObjectVersion
1070
     0
  0
VISUALSTYLE
  5
D5
102
{ACAD_XDICTIONARY
360
16C
102
}
102
{ACAD_REACTORS
330
C3
102
}
330
C3
100
AcDbVisualStyle
  2
Sketchy
 70
    24
177
     2
291
     0
 71
     1
176
     1
 72
     2
176
     1
 73
     2
176
     1
 90
        0
176
     1
 40
0.6
176
     1
 41
30.0
176
     1
 63
     7
421
 16777215
176
     1
 74
     2
176
     1
 91
        2
176
     1
 64
     7
176
     1
 65
     7
176
     1
 75
     1
176
     1
175
     1
176
     1
 42
40.0
176
     1
 92
       11
176
     1
 66
     7
176
     1
 43
1.0
176
     1
 76
     1
176
     1
 77
     6
176
     1
 78
     2
176
     1
 67
     7
176
     1
 79
     6
176
     1
170
     0
176
     1
171
     0
176
     1
290
     0
176
     1
 93
        1
176
     1
 44
0.0
176
     1
173
     0
176
     1
1001
ACAD
1000
AcDbSavedByObjectVersion
1070
     0
  0
VISUALSTYLE
  5
D0
102
{ACAD_XDICTIONARY
360
162
102
}
102
{ACAD_REACTORS
330
C3
102
}
330
C3
100
AcDbVisualStyle
  2
Thicken
 70
    13
177
     2
291
     1
 71
     2
176
     1
 72
     2
176
     1
 73
     0
176
     1
 90
        0
176
     1
 40
0.6
176
     1
 41
30.0
176
     1
 63
     7
421
 16777215
176
     1
 74
     1
176
     1
 91
        4
176
     1
 64
     7
176
     1
 65
   257
176
     1
 75
     1
176
     1
175
     1
176
     1
 42
1.0
176
     1
 92
       12
176
     1
 66
     7
176
     1
 43
1.0
176
     1
 76
     1
176
     1
 77
     6
176
     1
 78
     2
176
     1
 67
     7
176
     1
 79
     5
176
     1
170
     0
176
     1
171
     0
176
     1
290
     0
176
     1
 93
        1
176
     1
 44
0.0
176
     1
173
     0
176
     1
1001
ACAD
1000
AcDbSavedByObjectVersion
1070
     0
  0
VISUALSTYLE
  5
CA
102
{ACAD_XDICTIONARY
360
156
102
}
102
{ACAD_REACTORS
330
C3
102
}
330
C3
100
AcDbVisualStyle
  2
Wireframe
 70
     5
177
     2
291
     0
 71
     0
176
     1
 72
     2
176
     1
 73
     0
176
     1
 90
        0
176
     1
 40
0.6
176
     1
 41
30.0
176
     1
 63
     7
421
 16777215
176
     1
 74
     1
176
     1
 91
        4
176
     1
 64
     7
176
     1
 65
   257
176
     1
 75
     1
176
     1
175
     1
176
     1
 42
1.0
176
     1
 92
        0
176
     1
 66
   257
176
     1
 43
1.0
176
     1
 76
     1
176
     1
 77
     6
176
     1
 78
     2
176
     1
 67
     7
176
     1
 79
     3
176
     1
170
     0
176
     1
171
     0
176
     1
290
     0
176
     1
 93
        1
176
     1
 44
0.0
176
     1
173
     0
176
     1
1001
ACAD
1000
AcDbSavedByObjectVersion
1070
     0
  0
VISUALSTYLE
  5
D6
102
{ACAD_XDICTIONARY
360
16E
102
}
102
{ACAD_REACTORS
330
C3
102
}
330
C3
100
AcDbVisualStyle
  2
X-Ray
 70
    25
177
     2
291
     0
 71
     2
176
     1
 72
     2
176
     1
 73
     1
176
     1
 90
        1
176
     1
 40
0.5
176
     1
 41
30.0
176
     1
 63
     7
421
 16777215
176
     1
 74
     1
176
     1
 91
        0
176
     1
 64
     7
176
     1
 65
   257
176
     1
 75
     1
176
     1
175
     1
176
     1
 42
1.0
176
     1
 92
        8
176
     1
 66
     7
176
     1
 43
1.0
176
     1
 76
     1
176
     1
 77
     6
176
     1
 78
     2
176
     1
 67
     7
176
     1
 79
     3
176
     1
170
     0
176
     1
171
     0
176
     1
290
     0
176
     1
 93
       13
176
     1
 44
0.0
176
     1
173
     0
176
     1
1001
ACAD
1000
AcDbSavedByObjectVersion
1070
     0
  0
DICTIONARYVAR
  5
143
102
{ACAD_REACTORS
330
13D
102
}
330
13D
100
DictionaryVariables
280
     0
  1
1:1
  0
DICTIONARYVAR
  5
13F
102
{ACAD_REACTORS
330
13D
102
}
330
13D
100
DictionaryVariables
280
     0
  1
STANDARD
  0
DICTIONARYVAR
  5
13E
102
{ACAD_REACTORS
330
13D
102
}
330
13D
100
DictionaryVariables
280
     0
  1
STANDARD
  0
DICTIONARYVAR
  5
140
102
{ACAD_REACTORS
330
13D
102
}
330
13D
100
DictionaryVariables
280
     0
  1
Imperial24
  0
DICTIONARYVAR
  5
141
102
{ACAD_REACTORS
330
13D
102
}
330
13D
100
DictionaryVariables
280
     0
  1
Imperial24
  0
DICTIONARYVAR
  5
145
102
{ACAD_REACTORS
330
13D
102
}
330
13D
100
DictionaryVariables
280
     0
  1
1
  0
DICTIONARYVAR
  5
146
102
{ACAD_REACTORS
330
13D
102
}
330
13D
100
DictionaryVariables
280
     0
  1
15
  0
DICTIONARYVAR
  5
144
102
{ACAD_REACTORS
330
13D
102
}
330
13D
100
DictionaryVariables
280
     0
  1
0
  0
DICTIONARYVAR
  5
142
102
{ACAD_REACTORS
330
13D
102
}
330
13D
100
DictionaryVariables
280
     0
  1
0
  0
DICTIONARY
  5
17E
330
F6
100
AcDbDictionary
280
     1
281
     1
  3
ACAD_XREC_ROUNDTRIP
360
17F
  0
DICTIONARY
  5
B4
330
B3
100
AcDbDictionary
280
     1
281
     1
  3
BUMPTILE
360
B6
  3
DIFFUSETILE
360
B5
  3
OPACITYTILE
360
B9
  3
REFLECTIONTILE
360
B8
  3
REFRACTIONTILE
360
BA
  3
SPECULARTILE
360
B7
  0
DICTIONARY
  5
AC
330
AB
100
AcDbDictionary
280
     1
281
     1
  3
BUMPTILE
360
AE
  3
DIFFUSETILE
360
AD
  3
OPACITYTILE
360
B1
  3
REFLECTIONTILE
360
B0
  3
REFRACTIONTILE
360
B2
  3
SPECULARTILE
360
AF
  0
DICTIONARY
  5
BC
330
BB
100
AcDbDictionary
280
     1
281
     1
  3
BUMPTILE
360
BE
  3
DIFFUSETILE
360
BD
  3
OPACITYTILE
360
C1
  3
REFLECTIONTILE
360
C0
  3
REFRACTIONTILE
360
C2
  3
SPECULARTILE
360
BF
  0
DICTIONARY
  5
17A
330
F2
100
AcDbDictionary
280
     1
281
     1
  3
ACAD_XREC_ROUNDTRIP
360
17B
  0
DICTIONARY
  5
17C
330
F4
100
AcDbDictionary
280
     1
281
     1
  3
ACAD_XREC_ROUNDTRIP
360
17D
  0
DICTIONARY
  5
147
330
DE
100
AcDbDictionary
280
     1
281
     1
  3
ACAD_ROUNDTRIP_2008_TABLESTYLE_CELLSTYLEMAP
360
148
  0
DICTIONARY
  5
154
330
C9
100
AcDbDictionary
280
     1
281
     1
  3
ACAD_XREC_ROUNDTRIP
360
155
  0
DICTIONARY
  5
152
330
C8
100
AcDbDictionary
280
     1
281
     1
  3
ACAD_XREC_ROUNDTRIP
360
153
  0
DICTIONARY
  5
160
330
CF
100
AcDbDictionary
280
     1
281
     1
  3
ACAD_XREC_ROUNDTRIP
360
161
  0
DICTIONARY
  5
168
330
D3
100
AcDbDictionary
280
     1
281
     1
  3
ACAD_XREC_ROUNDTRIP
360
169
  0
DICTIONARY
  5
15A
330
CC
100
AcDbDictionary
280
     1
281
     1
  3
ACAD_XREC_ROUNDTRIP
360
15B
  0
DICTIONARY
  5
15E
330
CE
100
AcDbDictionary
280
     1
281
     1
  3
ACAD_XREC_ROUNDTRIP
360
15F
  0
DICTIONARY
  5
178
330
DB
100
AcDbDictionary
280
     1
281
     1
  3
ACAD_XREC_ROUNDTRIP
360
179
  0
DICTIONARY
  5
166
330
D2
100
AcDbDictionary
280
     1
281
     1
  3
ACAD_XREC_ROUNDTRIP
360
167
  0
DICTIONARY
  5
14A
330
C4
100
AcDbDictionary
280
     1
281
     1
  3
ACAD_XREC_ROUNDTRIP
360
14B
  0
DICTIONARY
  5
14C
330
C5
100
AcDbDictionary
280
     1
281
     1
  3
ACAD_XREC_ROUNDTRIP
360
14D
  0
DICTIONARY
  5
14E
330
C6
100
AcDbDictionary
280
     1
281
     1
  3
ACAD_XREC_ROUNDTRIP
360
14F
  0
DICTIONARY
  5
150
330
C7
100
AcDbDictionary
280
     1
281
     1
  3
ACAD_XREC_ROUNDTRIP
360
151
  0
DICTIONARY
  5
158
330
CB
100
AcDbDictionary
280
     1
281
     1
  3
ACAD_XREC_ROUNDTRIP
360
159
  0
DICTIONARY
  5
174
330
D9
100
AcDbDictionary
280
     1
281
     1
  3
ACAD_XREC_ROUNDTRIP
360
175
  0
DICTIONARY
  5
164
330
D1
100
AcDbDictionary
280
     1
281
     1
  3
ACAD_XREC_ROUNDTRIP
360
165
  0
DICTIONARY
  5
176
330
DA
100
AcDbDictionary
280
     1
281
     1
  3
ACAD_XREC_ROUNDTRIP
360
177
  0
DICTIONARY
  5
15C
330
CD
100
AcDbDictionary
280
     1
281
     1
  3
ACAD_XREC_ROUNDTRIP
360
15D
  0
DICTIONARY
  5
172
330
D8
100
AcDbDictionary
280
     1
281
     1
  3
ACAD_XREC_ROUNDTRIP
360
173
  0
DICTIONARY
  5
170
330
D7
100
AcDbDictionary
280
     1
281
     1
  3
ACAD_XREC_ROUNDTRIP
360
171
  0
DICTIONARY
  5
16A
330
D4
100
AcDbDictionary
280
     1
281
     1
  3
ACAD_XREC_ROUNDTRIP
360
16B
  0
DICTIONARY
  5
16C
330
D5
100
AcDbDictionary
280
     1
281
     1
  3
ACAD_XREC_ROUNDTRIP
360
16D
  0
DICTIONARY
  5
162
330
D0
100
AcDbDictionary
280
     1
281
     1
  3
ACAD_XREC_ROUNDTRIP
360
163
  0
DICTIONARY
  5
156
330
CA
100
AcDbDictionary
280
     1
281
     1
  3
ACAD_XREC_ROUNDTRIP
360
157
  0
DICTIONARY
  5
16E
330
D6
100
AcDbDictionary
280
     1
281
     1
  3
ACAD_XREC_ROUNDTRIP
360
16F
  0
XRECORD
  5
17F
102
{ACAD_REACTORS
330
17E
102
}
330
17E
100
AcDbXrecord
280
     1
102
DISPLAYNAME
  1
Imperial24
102
FLAGS
 90
        0
  0
XRECORD
  5
B6
102
{ACAD_REACTORS
330
B4
102
}
330
B4
100
AcDbXrecord
280
     1
270
     1
271
     1
  0
XRECORD
  5
B5
102
{ACAD_REACTORS
330
B4
102
}
330
B4
100
AcDbXrecord
280
     1
270
     1
271
     1
  0
XRECORD
  5
B9
102
{ACAD_REACTORS
330
B4
102
}
330
B4
100
AcDbXrecord
280
     1
270
     1
271
     1
  0
XRECORD
  5
B8
102
{ACAD_REACTORS
330
B4
102
}
330
B4
100
AcDbXrecord
280
     1
270
     1
271
     1
  0
XRECORD
  5
BA
102
{ACAD_REACTORS
330
B4
102
}
330
B4
100
AcDbXrecord
280
     1
270
     1
271
     1
  0
XRECORD
  5
B7
102
{ACAD_REACTORS
330
B4
102
}
330
B4
100
AcDbXrecord
280
     1
270
     1
271
     1
  0
XRECORD
  5
AE
102
{ACAD_REACTORS
330
AC
102
}
330
AC
100
AcDbXrecord
280
     1
270
     1
271
     1
  0
XRECORD
  5
AD
102
{ACAD_REACTORS
330
AC
102
}
330
AC
100
AcDbXrecord
280
     1
270
     1
271
     1
  0
XRECORD
  5
B1
102
{ACAD_REACTORS
330
AC
102
}
330
AC
100
AcDbXrecord
280
     1
270
     1
271
     1
  0
XRECORD
  5
B0
102
{ACAD_REACTORS
330
AC
102
}
330
AC
100
AcDbXrecord
280
     1
270
     1
271
     1
  0
XRECORD
  5
B2
102
{ACAD_REACTORS
330
AC
102
}
330
AC
100
AcDbXrecord
280
     1
270
     1
271
     1
  0
XRECORD
  5
AF
102
{ACAD_REACTORS
330
AC
102
}
330
AC
100
AcDbXrecord
280
     1
270
     1
271
     1
  0
XRECORD
  5
BE
102
{ACAD_REACTORS
330
BC
102
}
330
BC
100
AcDbXrecord
280
     1
270
     1
271
     1
  0
XRECORD
  5
BD
102
{ACAD_REACTORS
330
BC
102
}
330
BC
100
AcDbXrecord
280
     1
270
     1
271
     1
  0
XRECORD
  5
C1
102
{ACAD_REACTORS
330
BC
102
}
330
BC
100
AcDbXrecord
280
     1
270
     1
271
     1
  0
XRECORD
  5
C0
102
{ACAD_REACTORS
330
BC
102
}
330
BC
100
AcDbXrecord
280
     1
270
     1
271
     1
  0
XRECORD
  5
C2
102
{ACAD_REACTORS
330
BC
102
}
330
BC
100
AcDbXrecord
280
     1
270
     1
271
     1
  0
XRECORD
  5
BF
102
{ACAD_REACTORS
330
BC
102
}
330
BC
100
AcDbXrecord
280
     1
270
     1
271
     1
  0
XRECORD
  5
17B
102
{ACAD_REACTORS
330
17A
102
}
330
17A
100
AcDbXrecord
280
     1
102
ACAD_ROUNDTRIP_2012_MLEADER_STYLE
298
     1
  0
XRECORD
  5
17D
102
{ACAD_REACTORS
330
17C
102
}
330
17C
100
AcDbXrecord
280
     1
102
DISPLAYNAME
  1
Imperial24
102
FLAGS
 90
        0
  0
CELLSTYLEMAP
  5
148
102
{ACAD_REACTORS
330
147
102
}
330
147
100
AcDbCellStyleMap
 90
        3
300
CELLSTYLE
  1
TABLEFORMAT_BEGIN
 90
        5
170
     1
 91
        0
 92
    32768
 62
   257
 93
        1
300
CONTENTFORMAT
  1
CONTENTFORMAT_BEGIN
 90
        0
 91
        0
 92
      512
 93
        0
300

 40
0.0
140
1.0
 94
        5
 62
     0
340
11
144
0.25
309
CONTENTFORMAT_END
171
     0
 94
        0
309
TABLEFORMAT_END
  1
CELLSTYLE_BEGIN
 90
        1
 91
        1
300
_TITLE
309
CELLSTYLE_END
300
CELLSTYLE
  1
TABLEFORMAT_BEGIN
 90
        5
170
     1
 91
        0
 92
        0
 62
   257
 93
        1
300
CONTENTFORMAT
  1
CONTENTFORMAT_BEGIN
 90
        0
 91
        0
 92
      512
 93
        0
300

 40
0.0
140
1.0
 94
        5
 62
     0
340
11
144
0.18
309
CONTENTFORMAT_END
171
     0
 94
        0
309
TABLEFORMAT_END
  1
CELLSTYLE_BEGIN
 90
        2
 91
        1
300
_HEADER
309
CELLSTYLE_END
300
CELLSTYLE
  1
TABLEFORMAT_BEGIN
 90
        5
170
     1
 91
        0
 92
        0
 62
   257
 93
        1
300
CONTENTFORMAT
  1
CONTENTFORMAT_BEGIN
 90
        0
 91
        0
 92
      512
 93
        0
300

 40
0.0
140
1.0
 94
        2
 62
     0
340
11
144
0.18
309
CONTENTFORMAT_END
171
     0
 94
        0
309
TABLEFORMAT_END
  1
CELLSTYLE_BEGIN
 90
        3
 91
        2
300
_DATA
309
CELLSTYLE_END
  0
XRECORD
  5
155
102
{ACAD_REACTORS
330
154
102
}
330
154
100
AcDbXrecord
280
     1
102
RTVSPost2010Prop28
280
     1
102
RTVSPost2010PropOp28
 70
     1
102
RTVSPost2010Prop29
280
     1
102
RTVSPost2010PropOp29
 70
     1
102
RTVSPost2010Prop30
280
     0
102
RTVSPost2010PropOp30
 70
     1
102
RTVSPost2010Prop31
280
     0
102
RTVSPost2010PropOp31
 70
     1
102
RTVSPost2010Prop32
280
     0
102
RTVSPost2010PropOp32
 70
     1
102
RTVSPost2010Prop33
280
     0
102
RTVSPost2010PropOp33
 70
     1
102
RTVSPost2010Prop34
280
     0
102
RTVSPost2010PropOp34
 70
     1
102
RTVSPost2010Prop35
280
     0
102
RTVSPost2010PropOp35
 70
     1
102
RTVSPost2010Prop36
280
     0
102
RTVSPost2010PropOp36
 70
     1
102
RTVSPost2010Prop37
 90
       50
102
RTVSPost2010PropOp37
 70
     1
102
RTVSPost2010Prop38
140
0.0
102
RTVSPost2010PropOp38
 70
     1
102
RTVSPost2010Prop39
140
1.0
102
RTVSPost2010PropOp39
 70
     1
102
RTVSPost2010Prop40
 90
        0
102
RTVSPost2010PropOp40
 70
     1
102
RTVSPost2010Prop41ColorIndex
 90
       18
102
RTVSPost2010Prop41ColorRGB
 90
        0
102
RTVSPost2010PropOp41
 70
     1
102
RTVSPost2010Prop42
 90
       50
102
RTVSPost2010PropOp42
 70
     1
102
RTVSPost2010Prop43
 90
        3
102
RTVSPost2010PropOp43
 70
     1
102
RTVSPost2010Prop44ColorIndex
 90
        5
102
RTVSPost2010Prop44ColorRGB
 90
      255
102
RTVSPost2010PropOp44
 70
     1
102
RTVSPost2010Prop45
280
     0
102
RTVSPost2010PropOp45
 70
     1
102
RTVSPost2010Prop46
 90
       50
102
RTVSPost2010PropOp46
 70
     1
102
RTVSPost2010Prop47
 90
       50
102
RTVSPost2010PropOp47
 70
     1
102
RTVSPost2010Prop48
 90
       50
102
RTVSPost2010PropOp48
 70
     1
102
RTVSPost2010Prop49
280
     0
102
RTVSPost2010PropOp49
 70
     1
102
RTVSPost2010Prop50
 90
       50
102
RTVSPost2010PropOp50
 70
     1
102
RTVSPost2010Prop51ColorIndex
 90
      256
102
RTVSPost2010Prop51ColorRGB
 90
-16777216
102
RTVSPost2010PropOp51
 70
     0
102
RTVSPost2010Prop52
140
1.0
102
RTVSPost2010PropOp52
 70
     0
102
RTVSPost2010Prop53
 90
        2
102
RTVSPost2010PropOp53
 70
     1
102
RTVSPost2010Prop54
  1
strokes_ogs.tif
102
RTVSPost2010PropOp54
 70
     1
102
RTVSPost2010Prop55
280
     0
102
RTVSPost2010PropOp55
 70
     1
102
RTVSPost2010Prop56
140
1.0
102
RTVSPost2010PropOp56
 70
     1
102
RTVSPost2010Prop57
140
1.0
102
RTVSPost2010PropOp57
 70
     1
  0
XRECORD
  5
153
102
{ACAD_REACTORS
330
152
102
}
330
152
100
AcDbXrecord
280
     1
102
RTVSPost2010Prop28
280
     0
102
RTVSPost2010PropOp28
 70
     1
102
RTVSPost2010Prop29
280
     1
102
RTVSPost2010PropOp29
 70
     1
102
RTVSPost2010Prop30
280
     1
102
RTVSPost2010PropOp30
 70
     1
102
RTVSPost2010Prop31
280
     0
102
RTVSPost2010PropOp31
 70
     1
102
RTVSPost2010Prop32
280
     0
102
RTVSPost2010PropOp32
 70
     1
102
RTVSPost2010Prop33
280
     0
102
RTVSPost2010PropOp33
 70
     1
102
RTVSPost2010Prop34
280
     0
102
RTVSPost2010PropOp34
 70
     1
102
RTVSPost2010Prop35
280
     0
102
RTVSPost2010PropOp35
 70
     1
102
RTVSPost2010Prop36
280
     0
102
RTVSPost2010PropOp36
 70
     1
102
RTVSPost2010Prop37
 90
       50
102
RTVSPost2010PropOp37
 70
     1
102
RTVSPost2010Prop38
140
0.0
102
RTVSPost2010PropOp38
 70
     1
102
RTVSPost2010Prop39
140
1.0
102
RTVSPost2010PropOp39
 70
     1
102
RTVSPost2010Prop40
 90
        0
102
RTVSPost2010PropOp40
 70
     1
102
RTVSPost2010Prop41ColorIndex
 90
       18
102
RTVSPost2010Prop41ColorRGB
 90
        0
102
RTVSPost2010PropOp41
 70
     1
102
RTVSPost2010Prop42
 90
       50
102
RTVSPost2010PropOp42
 70
     1
102
RTVSPost2010Prop43
 90
        3
102
RTVSPost2010PropOp43
 70
     1
102
RTVSPost2010Prop44ColorIndex
 90
        5
102
RTVSPost2010Prop44ColorRGB
 90
      255
102
RTVSPost2010PropOp44
 70
     1
102
RTVSPost2010Prop45
280
     0
102
RTVSPost2010PropOp45
 70
     1
102
RTVSPost2010Prop46
 90
       50
102
RTVSPost2010PropOp46
 70
     1
102
RTVSPost2010Prop47
 90
       50
102
RTVSPost2010PropOp47
 70
     1
102
RTVSPost2010Prop48
 90
       50
102
RTVSPost2010PropOp48
 70
     1
102
RTVSPost2010Prop49
280
     0
102
RTVSPost2010PropOp49
 70
     1
102
RTVSPost2010Prop50
 90
       50
102
RTVSPost2010PropOp50
 70
     1
102
RTVSPost2010Prop51ColorIndex
 90
      256
102
RTVSPost2010Prop51ColorRGB
 90
-16777216
102
RTVSPost2010PropOp51
 70
     0
102
RTVSPost2010Prop52
140
1.0
102
RTVSPost2010PropOp52
 70
     0
102
RTVSPost2010Prop53
 90
        2
102
RTVSPost2010PropOp53
 70
     1
102
RTVSPost2010Prop54
  1
strokes_ogs.tif
102
RTVSPost2010PropOp54
 70
     1
102
RTVSPost2010Prop55
280
     0
102
RTVSPost2010PropOp55
 70
     1
102
RTVSPost2010Prop56
140
1.0
102
RTVSPost2010PropOp56
 70
     1
102
RTVSPost2010Prop57
140
1.0
102
RTVSPost2010PropOp57
 70
     1
  0
XRECORD
  5
161
102
{ACAD_REACTORS
330
160
102
}
330
160
100
AcDbXrecord
280
     1
102
RTVSPost2010Prop28
280
     0
102
RTVSPost2010PropOp28
 70
     1
102
RTVSPost2010Prop29
280
     1
102
RTVSPost2010PropOp29
 70
     1
102
RTVSPost2010Prop30
280
     1
102
RTVSPost2010PropOp30
 70
     1
102
RTVSPost2010Prop31
280
     0
102
RTVSPost2010PropOp31
 70
     1
102
RTVSPost2010Prop32
280
     0
102
RTVSPost2010PropOp32
 70
     1
102
RTVSPost2010Prop33
280
     0
102
RTVSPost2010PropOp33
 70
     1
102
RTVSPost2010Prop34
280
     0
102
RTVSPost2010PropOp34
 70
     1
102
RTVSPost2010Prop35
280
     0
102
RTVSPost2010PropOp35
 70
     1
102
RTVSPost2010Prop36
280
     0
102
RTVSPost2010PropOp36
 70
     1
102
RTVSPost2010Prop37
 90
       50
102
RTVSPost2010PropOp37
 70
     1
102
RTVSPost2010Prop38
140
0.0
102
RTVSPost2010PropOp38
 70
     1
102
RTVSPost2010Prop39
140
1.0
102
RTVSPost2010PropOp39
 70
     1
102
RTVSPost2010Prop40
 90
        0
102
RTVSPost2010PropOp40
 70
     1
102
RTVSPost2010Prop41ColorIndex
 90
       18
102
RTVSPost2010Prop41ColorRGB
 90
        0
102
RTVSPost2010PropOp41
 70
     1
102
RTVSPost2010Prop42
 90
       50
102
RTVSPost2010PropOp42
 70
     1
102
RTVSPost2010Prop43
 90
        3
102
RTVSPost2010PropOp43
 70
     1
102
RTVSPost2010Prop44ColorIndex
 90
        5
102
RTVSPost2010Prop44ColorRGB
 90
      255
102
RTVSPost2010PropOp44
 70
     1
102
RTVSPost2010Prop45
280
     0
102
RTVSPost2010PropOp45
 70
     1
102
RTVSPost2010Prop46
 90
       50
102
RTVSPost2010PropOp46
 70
     1
102
RTVSPost2010Prop47
 90
       50
102
RTVSPost2010PropOp47
 70
     1
102
RTVSPost2010Prop48
 90
       50
102
RTVSPost2010PropOp48
 70
     1
102
RTVSPost2010Prop49
280
     0
102
RTVSPost2010PropOp49
 70
     1
102
RTVSPost2010Prop50
 90
       50
102
RTVSPost2010PropOp50
 70
     1
102
RTVSPost2010Prop51ColorIndex
 90
      256
102
RTVSPost2010Prop51ColorRGB
 90
-16777216
102
RTVSPost2010PropOp51
 70
     0
102
RTVSPost2010Prop52
140
1.0
102
RTVSPost2010PropOp52
 70
     0
102
RTVSPost2010Prop53
 90
        2
102
RTVSPost2010PropOp53
 70
     1
102
RTVSPost2010Prop54
  1
strokes_ogs.tif
102
RTVSPost2010PropOp54
 70
     1
102
RTVSPost2010Prop55
280
     0
102
RTVSPost2010PropOp55
 70
     1
102
RTVSPost2010Prop56
140
1.0
102
RTVSPost2010PropOp56
 70
     1
102
RTVSPost2010Prop57
140
1.0
102
RTVSPost2010PropOp57
 70
     1
  0
XRECORD
  5
169
102
{ACAD_REACTORS
330
168
102
}
330
168
100
AcDbXrecord
280
     1
102
RTVSPost2010Prop28
280
     0
102
RTVSPost2010PropOp28
 70
     1
102
RTVSPost2010Prop29
280
     1
102
RTVSPost2010PropOp29
 70
     1
102
RTVSPost2010Prop30
280
     1
102
RTVSPost2010PropOp30
 70
     1
102
RTVSPost2010Prop31
280
     0
102
RTVSPost2010PropOp31
 70
     1
102
RTVSPost2010Prop32
280
     0
102
RTVSPost2010PropOp32
 70
     1
102
RTVSPost2010Prop33
280
     0
102
RTVSPost2010PropOp33
 70
     1
102
RTVSPost2010Prop34
280
     0
102
RTVSPost2010PropOp34
 70
     1
102
RTVSPost2010Prop35
280
     0
102
RTVSPost2010PropOp35
 70
     1
102
RTVSPost2010Prop36
280
     0
102
RTVSPost2010PropOp36
 70
     1
102
RTVSPost2010Prop37
 90
       50
102
RTVSPost2010PropOp37
 70
     1
102
RTVSPost2010Prop38
140
0.0
102
RTVSPost2010PropOp38
 70
     1
102
RTVSPost2010Prop39
140
1.0
102
RTVSPost2010PropOp39
 70
     1
102
RTVSPost2010Prop40
 90
        0
102
RTVSPost2010PropOp40
 70
     1
102
RTVSPost2010Prop41ColorIndex
 90
       18
102
RTVSPost2010Prop41ColorRGB
 90
        0
102
RTVSPost2010PropOp41
 70
     1
102
RTVSPost2010Prop42
 90
       50
102
RTVSPost2010PropOp42
 70
     1
102
RTVSPost2010Prop43
 90
        3
102
RTVSPost2010PropOp43
 70
     1
102
RTVSPost2010Prop44ColorIndex
 90
        5
102
RTVSPost2010Prop44ColorRGB
 90
      255
102
RTVSPost2010PropOp44
 70
     1
102
RTVSPost2010Prop45
280
     0
102
RTVSPost2010PropOp45
 70
     1
102
RTVSPost2010Prop46
 90
       50
102
RTVSPost2010PropOp46
 70
     1
102
RTVSPost2010Prop47
 90
       50
102
RTVSPost2010PropOp47
 70
     1
102
RTVSPost2010Prop48
 90
       50
102
RTVSPost2010PropOp48
 70
     1
102
RTVSPost2010Prop49
280
     0
102
RTVSPost2010PropOp49
 70
     1
102
RTVSPost2010Prop50
 90
       50
102
RTVSPost2010PropOp50
 70
     1
102
RTVSPost2010Prop51ColorIndex
 90
      256
102
RTVSPost2010Prop51ColorRGB
 90
-16777216
102
RTVSPost2010PropOp51
 70
     0
102
RTVSPost2010Prop52
140
1.0
102
RTVSPost2010PropOp52
 70
     0
102
RTVSPost2010Prop53
 90
        2
102
RTVSPost2010PropOp53
 70
     1
102
RTVSPost2010Prop54
  1
strokes_ogs.tif
102
RTVSPost2010PropOp54
 70
     1
102
RTVSPost2010Prop55
280
     0
102
RTVSPost2010PropOp55
 70
     1
102
RTVSPost2010Prop56
140
1.0
102
RTVSPost2010PropOp56
 70
     1
102
RTVSPost2010Prop57
140
1.0
102
RTVSPost2010PropOp57
 70
     1
  0
XRECORD
  5
15B
102
{ACAD_REACTORS
330
15A
102
}
330
15A
100
AcDbXrecord
280
     1
102
RTVSPost2010Prop28
280
     0
102
RTVSPost2010PropOp28
 70
     1
102
RTVSPost2010Prop29
280
     1
102
RTVSPost2010PropOp29
 70
     1
102
RTVSPost2010Prop30
280
     1
102
RTVSPost2010PropOp30
 70
     1
102
RTVSPost2010Prop31
280
     0
102
RTVSPost2010PropOp31
 70
     1
102
RTVSPost2010Prop32
280
     0
102
RTVSPost2010PropOp32
 70
     1
102
RTVSPost2010Prop33
280
     0
102
RTVSPost2010PropOp33
 70
     1
102
RTVSPost2010Prop34
280
     0
102
RTVSPost2010PropOp34
 70
     1
102
RTVSPost2010Prop35
280
     0
102
RTVSPost2010PropOp35
 70
     1
102
RTVSPost2010Prop36
280
     0
102
RTVSPost2010PropOp36
 70
     1
102
RTVSPost2010Prop37
 90
       50
102
RTVSPost2010PropOp37
 70
     1
102
RTVSPost2010Prop38
140
0.0
102
RTVSPost2010PropOp38
 70
     1
102
RTVSPost2010Prop39
140
1.0
102
RTVSPost2010PropOp39
 70
     1
102
RTVSPost2010Prop40
 90
        0
102
RTVSPost2010PropOp40
 70
     1
102
RTVSPost2010Prop41ColorIndex
 90
       18
102
RTVSPost2010Prop41ColorRGB
 90
        0
102
RTVSPost2010PropOp41
 70
     1
102
RTVSPost2010Prop42
 90
       50
102
RTVSPost2010PropOp42
 70
     1
102
RTVSPost2010Prop43
 90
        3
102
RTVSPost2010PropOp43
 70
     1
102
RTVSPost2010Prop44ColorIndex
 90
        5
102
RTVSPost2010Prop44ColorRGB
 90
      255
102
RTVSPost2010PropOp44
 70
     1
102
RTVSPost2010Prop45
280
     0
102
RTVSPost2010PropOp45
 70
     1
102
RTVSPost2010Prop46
 90
       50
102
RTVSPost2010PropOp46
 70
     1
102
RTVSPost2010Prop47
 90
       50
102
RTVSPost2010PropOp47
 70
     1
102
RTVSPost2010Prop48
 90
       50
102
RTVSPost2010PropOp48
 70
     1
102
RTVSPost2010Prop49
280
     0
102
RTVSPost2010PropOp49
 70
     1
102
RTVSPost2010Prop50
 90
       50
102
RTVSPost2010PropOp50
 70
     1
102
RTVSPost2010Prop51ColorIndex
 90
      256
102
RTVSPost2010Prop51ColorRGB
 90
-16777216
102
RTVSPost2010PropOp51
 70
     0
102
RTVSPost2010Prop52
140
1.0
102
RTVSPost2010PropOp52
 70
     0
102
RTVSPost2010Prop53
 90
        2
102
RTVSPost2010PropOp53
 70
     1
102
RTVSPost2010Prop54
  1
strokes_ogs.tif
102
RTVSPost2010PropOp54
 70
     1
102
RTVSPost2010Prop55
280
     0
102
RTVSPost2010PropOp55
 70
     1
102
RTVSPost2010Prop56
140
1.0
102
RTVSPost2010PropOp56
 70
     1
102
RTVSPost2010Prop57
140
1.0
102
RTVSPost2010PropOp57
 70
     1
  0
XRECORD
  5
15F
102
{ACAD_REACTORS
330
15E
102
}
330
15E
100
AcDbXrecord
280
     1
102
RTVSPost2010Prop28
280
     0
102
RTVSPost2010PropOp28
 70
     1
102
RTVSPost2010Prop29
280
     1
102
RTVSPost2010PropOp29
 70
     1
102
RTVSPost2010Prop30
280
     1
102
RTVSPost2010PropOp30
 70
     1
102
RTVSPost2010Prop31
280
     0
102
RTVSPost2010PropOp31
 70
     1
102
RTVSPost2010Prop32
280
     0
102
RTVSPost2010PropOp32
 70
     1
102
RTVSPost2010Prop33
280
     0
102
RTVSPost2010PropOp33
 70
     1
102
RTVSPost2010Prop34
280
     0
102
RTVSPost2010PropOp34
 70
     1
102
RTVSPost2010Prop35
280
     0
102
RTVSPost2010PropOp35
 70
     1
102
RTVSPost2010Prop36
280
     0
102
RTVSPost2010PropOp36
 70
     1
102
RTVSPost2010Prop37
 90
       50
102
RTVSPost2010PropOp37
 70
     1
102
RTVSPost2010Prop38
140
0.0
102
RTVSPost2010PropOp38
 70
     1
102
RTVSPost2010Prop39
140
1.0
102
RTVSPost2010PropOp39
 70
     1
102
RTVSPost2010Prop40
 90
        0
102
RTVSPost2010PropOp40
 70
     1
102
RTVSPost2010Prop41ColorIndex
 90
       18
102
RTVSPost2010Prop41ColorRGB
 90
        0
102
RTVSPost2010PropOp41
 70
     1
102
RTVSPost2010Prop42
 90
       50
102
RTVSPost2010PropOp42
 70
     1
102
RTVSPost2010Prop43
 90
        3
102
RTVSPost2010PropOp43
 70
     1
102
RTVSPost2010Prop44ColorIndex
 90
        5
102
RTVSPost2010Prop44ColorRGB
 90
      255
102
RTVSPost2010PropOp44
 70
     1
102
RTVSPost2010Prop45
280
     0
102
RTVSPost2010PropOp45
 70
     1
102
RTVSPost2010Prop46
 90
       50
102
RTVSPost2010PropOp46
 70
     1
102
RTVSPost2010Prop47
 90
       50
102
RTVSPost2010PropOp47
 70
     1
102
RTVSPost2010Prop48
 90
       50
102
RTVSPost2010PropOp48
 70
     1
102
RTVSPost2010Prop49
280
     0
102
RTVSPost2010PropOp49
 70
     1
102
RTVSPost2010Prop50
 90
       50
102
RTVSPost2010PropOp50
 70
     1
102
RTVSPost2010Prop51ColorIndex
 90
      256
102
RTVSPost2010Prop51ColorRGB
 90
-16777216
102
RTVSPost2010PropOp51
 70
     0
102
RTVSPost2010Prop52
140
1.0
102
RTVSPost2010PropOp52
 70
     0
102
RTVSPost2010Prop53
 90
        2
102
RTVSPost2010PropOp53
 70
     1
102
RTVSPost2010Prop54
  1
strokes_ogs.tif
102
RTVSPost2010PropOp54
 70
     1
102
RTVSPost2010Prop55
280
     0
102
RTVSPost2010PropOp55
 70
     1
102
RTVSPost2010Prop56
140
1.0
102
RTVSPost2010PropOp56
 70
     1
102
RTVSPost2010Prop57
140
1.0
102
RTVSPost2010PropOp57
 70
     1
  0
XRECORD
  5
179
102
{ACAD_REACTORS
330
178
102
}
330
178
100
AcDbXrecord
280
     1
102
RTVSPost2010Prop28
280
     0
102
RTVSPost2010PropOp28
 70
     0
102
RTVSPost2010Prop29
280
     1
102
RTVSPost2010PropOp29
 70
     0
102
RTVSPost2010Prop30
280
     1
102
RTVSPost2010PropOp30
 70
     0
102
RTVSPost2010Prop31
280
     0
102
RTVSPost2010PropOp31
 70
     0
102
RTVSPost2010Prop32
280
     0
102
RTVSPost2010PropOp32
 70
     0
102
RTVSPost2010Prop33
280
     0
102
RTVSPost2010PropOp33
 70
     0
102
RTVSPost2010Prop34
280
     0
102
RTVSPost2010PropOp34
 70
     0
102
RTVSPost2010Prop35
280
     0
102
RTVSPost2010PropOp35
 70
     0
102
RTVSPost2010Prop36
280
     0
102
RTVSPost2010PropOp36
 70
     0
102
RTVSPost2010Prop37
 90
       50
102
RTVSPost2010PropOp37
 70
     0
102
RTVSPost2010Prop38
140
0.0
102
RTVSPost2010PropOp38
 70
     0
102
RTVSPost2010Prop39
140
1.0
102
RTVSPost2010PropOp39
 70
     0
102
RTVSPost2010Prop40
 90
        0
102
RTVSPost2010PropOp40
 70
     0
102
RTVSPost2010Prop41ColorIndex
 90
       18
102
RTVSPost2010Prop41ColorRGB
 90
        0
102
RTVSPost2010PropOp41
 70
     0
102
RTVSPost2010Prop42
 90
       50
102
RTVSPost2010PropOp42
 70
     0
102
RTVSPost2010Prop43
 90
        3
102
RTVSPost2010PropOp43
 70
     0
102
RTVSPost2010Prop44ColorIndex
 90
        5
102
RTVSPost2010Prop44ColorRGB
 90
      255
102
RTVSPost2010PropOp44
 70
     0
102
RTVSPost2010Prop45
280
     0
102
RTVSPost2010PropOp45
 70
     0
102
RTVSPost2010Prop46
 90
       50
102
RTVSPost2010PropOp46
 70
     0
102
RTVSPost2010Prop47
 90
       50
102
RTVSPost2010PropOp47
 70
     0
102
RTVSPost2010Prop48
 90
       50
102
RTVSPost2010PropOp48
 70
     0
102
RTVSPost2010Prop49
280
     0
102
RTVSPost2010PropOp49
 70
     0
102
RTVSPost2010Prop50
 90
       50
102
RTVSPost2010PropOp50
 70
     0
102
RTVSPost2010Prop51ColorIndex
 90
      256
102
RTVSPost2010Prop51ColorRGB
 90
-16777216
102
RTVSPost2010PropOp51
 70
     0
102
RTVSPost2010Prop52
140
1.0
102
RTVSPost2010PropOp52
 70
     0
102
RTVSPost2010Prop53
 90
        2
102
RTVSPost2010PropOp53
 70
     0
102
RTVSPost2010Prop54
  1
strokes_ogs.tif
102
RTVSPost2010PropOp54
 70
     0
102
RTVSPost2010Prop55
280
     0
102
RTVSPost2010PropOp55
 70
     0
102
RTVSPost2010Prop56
140
1.0
102
RTVSPost2010PropOp56
 70
     0
102
RTVSPost2010Prop57
140
1.0
102
RTVSPost2010PropOp57
 70
     0
  0
XRECORD
  5
167
102
{ACAD_REACTORS
330
166
102
}
330
166
100
AcDbXrecord
280
     1
102
RTVSPost2010Prop28
280
     0
102
RTVSPost2010PropOp28
 70
     1
102
RTVSPost2010Prop29
280
     1
102
RTVSPost2010PropOp29
 70
     1
102
RTVSPost2010Prop30
280
     1
102
RTVSPost2010PropOp30
 70
     1
102
RTVSPost2010Prop31
280
     0
102
RTVSPost2010PropOp31
 70
     1
102
RTVSPost2010Prop32
280
     0
102
RTVSPost2010PropOp32
 70
     1
102
RTVSPost2010Prop33
280
     0
102
RTVSPost2010PropOp33
 70
     1
102
RTVSPost2010Prop34
280
     0
102
RTVSPost2010PropOp34
 70
     1
102
RTVSPost2010Prop35
280
     0
102
RTVSPost2010PropOp35
 70
     1
102
RTVSPost2010Prop36
280
     0
102
RTVSPost2010PropOp36
 70
     1
102
RTVSPost2010Prop37
 90
       50
102
RTVSPost2010PropOp37
 70
     1
102
RTVSPost2010Prop38
140
0.0
102
RTVSPost2010PropOp38
 70
     1
102
RTVSPost2010Prop39
140
1.0
102
RTVSPost2010PropOp39
 70
     1
102
RTVSPost2010Prop40
 90
        0
102
RTVSPost2010PropOp40
 70
     1
102
RTVSPost2010Prop41ColorIndex
 90
       18
102
RTVSPost2010Prop41ColorRGB
 90
        0
102
RTVSPost2010PropOp41
 70
     1
102
RTVSPost2010Prop42
 90
       50
102
RTVSPost2010PropOp42
 70
     1
102
RTVSPost2010Prop43
 90
        3
102
RTVSPost2010PropOp43
 70
     1
102
RTVSPost2010Prop44ColorIndex
 90
        5
102
RTVSPost2010Prop44ColorRGB
 90
      255
102
RTVSPost2010PropOp44
 70
     1
102
RTVSPost2010Prop45
280
     0
102
RTVSPost2010PropOp45
 70
     1
102
RTVSPost2010Prop46
 90
       50
102
RTVSPost2010PropOp46
 70
     1
102
RTVSPost2010Prop47
 90
       50
102
RTVSPost2010PropOp47
 70
     1
102
RTVSPost2010Prop48
 90
       50
102
RTVSPost2010PropOp48
 70
     1
102
RTVSPost2010Prop49
280
     0
102
RTVSPost2010PropOp49
 70
     1
102
RTVSPost2010Prop50
 90
       50
102
RTVSPost2010PropOp50
 70
     1
102
RTVSPost2010Prop51ColorIndex
 90
      256
102
RTVSPost2010Prop51ColorRGB
 90
-16777216
102
RTVSPost2010PropOp51
 70
     0
102
RTVSPost2010Prop52
140
1.0
102
RTVSPost2010PropOp52
 70
     0
102
RTVSPost2010Prop53
 90
        2
102
RTVSPost2010PropOp53
 70
     1
102
RTVSPost2010Prop54
  1
strokes_ogs.tif
102
RTVSPost2010PropOp54
 70
     1
102
RTVSPost2010Prop55
280
     0
102
RTVSPost2010PropOp55
 70
     1
102
RTVSPost2010Prop56
140
1.0
102
RTVSPost2010PropOp56
 70
     1
102
RTVSPost2010Prop57
140
1.0
102
RTVSPost2010PropOp57
 70
     1
  0
XRECORD
  5
14B
102
{ACAD_REACTORS
330
14A
102
}
330
14A
100
AcDbXrecord
280
     1
102
RTVSPost2010Prop28
280
     0
102
RTVSPost2010PropOp28
 70
     1
102
RTVSPost2010Prop29
280
     1
102
RTVSPost2010PropOp29
 70
     1
102
RTVSPost2010Prop30
280
     1
102
RTVSPost2010PropOp30
 70
     1
102
RTVSPost2010Prop31
280
     0
102
RTVSPost2010PropOp31
 70
     1
102
RTVSPost2010Prop32
280
     0
102
RTVSPost2010PropOp32
 70
     1
102
RTVSPost2010Prop33
280
     0
102
RTVSPost2010PropOp33
 70
     1
102
RTVSPost2010Prop34
280
     0
102
RTVSPost2010PropOp34
 70
     1
102
RTVSPost2010Prop35
280
     0
102
RTVSPost2010PropOp35
 70
     1
102
RTVSPost2010Prop36
280
     0
102
RTVSPost2010PropOp36
 70
     1
102
RTVSPost2010Prop37
 90
       50
102
RTVSPost2010PropOp37
 70
     1
102
RTVSPost2010Prop38
140
0.0
102
RTVSPost2010PropOp38
 70
     1
102
RTVSPost2010Prop39
140
1.0
102
RTVSPost2010PropOp39
 70
     1
102
RTVSPost2010Prop40
 90
        0
102
RTVSPost2010PropOp40
 70
     1
102
RTVSPost2010Prop41ColorIndex
 90
       18
102
RTVSPost2010Prop41ColorRGB
 90
        0
102
RTVSPost2010PropOp41
 70
     1
102
RTVSPost2010Prop42
 90
       50
102
RTVSPost2010PropOp42
 70
     1
102
RTVSPost2010Prop43
 90
        3
102
RTVSPost2010PropOp43
 70
     1
102
RTVSPost2010Prop44ColorIndex
 90
        5
102
RTVSPost2010Prop44ColorRGB
 90
      255
102
RTVSPost2010PropOp44
 70
     1
102
RTVSPost2010Prop45
280
     0
102
RTVSPost2010PropOp45
 70
     1
102
RTVSPost2010Prop46
 90
       50
102
RTVSPost2010PropOp46
 70
     1
102
RTVSPost2010Prop47
 90
       50
102
RTVSPost2010PropOp47
 70
     1
102
RTVSPost2010Prop48
 90
       50
102
RTVSPost2010PropOp48
 70
     1
102
RTVSPost2010Prop49
280
     0
102
RTVSPost2010PropOp49
 70
     1
102
RTVSPost2010Prop50
 90
       50
102
RTVSPost2010PropOp50
 70
     1
102
RTVSPost2010Prop51ColorIndex
 90
      256
102
RTVSPost2010Prop51ColorRGB
 90
-16777216
102
RTVSPost2010PropOp51
 70
     0
102
RTVSPost2010Prop52
140
1.0
102
RTVSPost2010PropOp52
 70
     0
102
RTVSPost2010Prop53
 90
        2
102
RTVSPost2010PropOp53
 70
     1
102
RTVSPost2010Prop54
  1
strokes_ogs.tif
102
RTVSPost2010PropOp54
 70
     1
102
RTVSPost2010Prop55
280
     0
102
RTVSPost2010PropOp55
 70
     1
102
RTVSPost2010Prop56
140
1.0
102
RTVSPost2010PropOp56
 70
     1
102
RTVSPost2010Prop57
140
1.0
102
RTVSPost2010PropOp57
 70
     1
  0
XRECORD
  5
14D
102
{ACAD_REACTORS
330
14C
102
}
330
14C
100
AcDbXrecord
280
     1
102
RTVSPost2010Prop28
280
     0
102
RTVSPost2010PropOp28
 70
     1
102
RTVSPost2010Prop29
280
     1
102
RTVSPost2010PropOp29
 70
     1
102
RTVSPost2010Prop30
280
     1
102
RTVSPost2010PropOp30
 70
     1
102
RTVSPost2010Prop31
280
     0
102
RTVSPost2010PropOp31
 70
     1
102
RTVSPost2010Prop32
280
     0
102
RTVSPost2010PropOp32
 70
     1
102
RTVSPost2010Prop33
280
     0
102
RTVSPost2010PropOp33
 70
     1
102
RTVSPost2010Prop34
280
     0
102
RTVSPost2010PropOp34
 70
     1
102
RTVSPost2010Prop35
280
     0
102
RTVSPost2010PropOp35
 70
     1
102
RTVSPost2010Prop36
280
     0
102
RTVSPost2010PropOp36
 70
     1
102
RTVSPost2010Prop37
 90
       50
102
RTVSPost2010PropOp37
 70
     1
102
RTVSPost2010Prop38
140
0.0
102
RTVSPost2010PropOp38
 70
     1
102
RTVSPost2010Prop39
140
1.0
102
RTVSPost2010PropOp39
 70
     1
102
RTVSPost2010Prop40
 90
        0
102
RTVSPost2010PropOp40
 70
     1
102
RTVSPost2010Prop41ColorIndex
 90
       18
102
RTVSPost2010Prop41ColorRGB
 90
        0
102
RTVSPost2010PropOp41
 70
     1
102
RTVSPost2010Prop42
 90
       50
102
RTVSPost2010PropOp42
 70
     1
102
RTVSPost2010Prop43
 90
        3
102
RTVSPost2010PropOp43
 70
     1
102
RTVSPost2010Prop44ColorIndex
 90
        5
102
RTVSPost2010Prop44ColorRGB
 90
      255
102
RTVSPost2010PropOp44
 70
     1
102
RTVSPost2010Prop45
280
     0
102
RTVSPost2010PropOp45
 70
     1
102
RTVSPost2010Prop46
 90
       50
102
RTVSPost2010PropOp46
 70
     1
102
RTVSPost2010Prop47
 90
       50
102
RTVSPost2010PropOp47
 70
     1
102
RTVSPost2010Prop48
 90
       50
102
RTVSPost2010PropOp48
 70
     1
102
RTVSPost2010Prop49
280
     0
102
RTVSPost2010PropOp49
 70
     1
102
RTVSPost2010Prop50
 90
       50
102
RTVSPost2010PropOp50
 70
     1
102
RTVSPost2010Prop51ColorIndex
 90
      256
102
RTVSPost2010Prop51ColorRGB
 90
-16777216
102
RTVSPost2010PropOp51
 70
     0
102
RTVSPost2010Prop52
140
1.0
102
RTVSPost2010PropOp52
 70
     0
102
RTVSPost2010Prop53
 90
        2
102
RTVSPost2010PropOp53
 70
     1
102
RTVSPost2010Prop54
  1
strokes_ogs.tif
102
RTVSPost2010PropOp54
 70
     1
102
RTVSPost2010Prop55
280
     0
102
RTVSPost2010PropOp55
 70
     1
102
RTVSPost2010Prop56
140
1.0
102
RTVSPost2010PropOp56
 70
     1
102
RTVSPost2010Prop57
140
1.0
102
RTVSPost2010PropOp57
 70
     1
  0
XRECORD
  5
14F
102
{ACAD_REACTORS
330
14E
102
}
330
14E
100
AcDbXrecord
280
     1
102
RTVSPost2010Prop28
280
     0
102
RTVSPost2010PropOp28
 70
     1
102
RTVSPost2010Prop29
280
     1
102
RTVSPost2010PropOp29
 70
     1
102
RTVSPost2010Prop30
280
     1
102
RTVSPost2010PropOp30
 70
     1
102
RTVSPost2010Prop31
280
     0
102
RTVSPost2010PropOp31
 70
     1
102
RTVSPost2010Prop32
280
     0
102
RTVSPost2010PropOp32
 70
     1
102
RTVSPost2010Prop33
280
     0
102
RTVSPost2010PropOp33
 70
     1
102
RTVSPost2010Prop34
280
     0
102
RTVSPost2010PropOp34
 70
     1
102
RTVSPost2010Prop35
280
     0
102
RTVSPost2010PropOp35
 70
     1
102
RTVSPost2010Prop36
280
     0
102
RTVSPost2010PropOp36
 70
     1
102
RTVSPost2010Prop37
 90
       50
102
RTVSPost2010PropOp37
 70
     1
102
RTVSPost2010Prop38
140
0.0
102
RTVSPost2010PropOp38
 70
     1
102
RTVSPost2010Prop39
140
1.0
102
RTVSPost2010PropOp39
 70
     1
102
RTVSPost2010Prop40
 90
        0
102
RTVSPost2010PropOp40
 70
     1
102
RTVSPost2010Prop41ColorIndex
 90
       18
102
RTVSPost2010Prop41ColorRGB
 90
        0
102
RTVSPost2010PropOp41
 70
     1
102
RTVSPost2010Prop42
 90
       50
102
RTVSPost2010PropOp42
 70
     1
102
RTVSPost2010Prop43
 90
        3
102
RTVSPost2010PropOp43
 70
     1
102
RTVSPost2010Prop44ColorIndex
 90
        5
102
RTVSPost2010Prop44ColorRGB
 90
      255
102
RTVSPost2010PropOp44
 70
     1
102
RTVSPost2010Prop45
280
     0
102
RTVSPost2010PropOp45
 70
     1
102
RTVSPost2010Prop46
 90
       50
102
RTVSPost2010PropOp46
 70
     1
102
RTVSPost2010Prop47
 90
       50
102
RTVSPost2010PropOp47
 70
     1
102
RTVSPost2010Prop48
 90
       50
102
RTVSPost2010PropOp48
 70
     1
102
RTVSPost2010Prop49
280
     0
102
RTVSPost2010PropOp49
 70
     1
102
RTVSPost2010Prop50
 90
       50
102
RTVSPost2010PropOp50
 70
     1
102
RTVSPost2010Prop51ColorIndex
 90
      256
102
RTVSPost2010Prop51ColorRGB
 90
-16777216
102
RTVSPost2010PropOp51
 70
     0
102
RTVSPost2010Prop52
140
1.0
102
RTVSPost2010PropOp52
 70
     0
102
RTVSPost2010Prop53
 90
        2
102
RTVSPost2010PropOp53
 70
     1
102
RTVSPost2010Prop54
  1
strokes_ogs.tif
102
RTVSPost2010PropOp54
 70
     1
102
RTVSPost2010Prop55
280
     0
102
RTVSPost2010PropOp55
 70
     1
102
RTVSPost2010Prop56
140
1.0
102
RTVSPost2010PropOp56
 70
     1
102
RTVSPost2010Prop57
140
1.0
102
RTVSPost2010PropOp57
 70
     1
  0
XRECORD
  5
151
102
{ACAD_REACTORS
330
150
102
}
330
150
100
AcDbXrecord
280
     1
102
RTVSPost2010Prop28
280
     0
102
RTVSPost2010PropOp28
 70
     1
102
RTVSPost2010Prop29
280
     1
102
RTVSPost2010PropOp29
 70
     1
102
RTVSPost2010Prop30
280
     1
102
RTVSPost2010PropOp30
 70
     1
102
RTVSPost2010Prop31
280
     0
102
RTVSPost2010PropOp31
 70
     1
102
RTVSPost2010Prop32
280
     0
102
RTVSPost2010PropOp32
 70
     1
102
RTVSPost2010Prop33
280
     0
102
RTVSPost2010PropOp33
 70
     1
102
RTVSPost2010Prop34
280
     0
102
RTVSPost2010PropOp34
 70
     1
102
RTVSPost2010Prop35
280
     0
102
RTVSPost2010PropOp35
 70
     1
102
RTVSPost2010Prop36
280
     0
102
RTVSPost2010PropOp36
 70
     1
102
RTVSPost2010Prop37
 90
       50
102
RTVSPost2010PropOp37
 70
     1
102
RTVSPost2010Prop38
140
0.0
102
RTVSPost2010PropOp38
 70
     1
102
RTVSPost2010Prop39
140
1.0
102
RTVSPost2010PropOp39
 70
     1
102
RTVSPost2010Prop40
 90
        0
102
RTVSPost2010PropOp40
 70
     1
102
RTVSPost2010Prop41ColorIndex
 90
       18
102
RTVSPost2010Prop41ColorRGB
 90
        0
102
RTVSPost2010PropOp41
 70
     1
102
RTVSPost2010Prop42
 90
       50
102
RTVSPost2010PropOp42
 70
     1
102
RTVSPost2010Prop43
 90
        3
102
RTVSPost2010PropOp43
 70
     1
102
RTVSPost2010Prop44ColorIndex
 90
        5
102
RTVSPost2010Prop44ColorRGB
 90
      255
102
RTVSPost2010PropOp44
 70
     1
102
RTVSPost2010Prop45
280
     0
102
RTVSPost2010PropOp45
 70
     1
102
RTVSPost2010Prop46
 90
       50
102
RTVSPost2010PropOp46
 70
     1
102
RTVSPost2010Prop47
 90
       50
102
RTVSPost2010PropOp47
 70
     1
102
RTVSPost2010Prop48
 90
       50
102
RTVSPost2010PropOp48
 70
     1
102
RTVSPost2010Prop49
280
     0
102
RTVSPost2010PropOp49
 70
     1
102
RTVSPost2010Prop50
 90
       50
102
RTVSPost2010PropOp50
 70
     1
102
RTVSPost2010Prop51ColorIndex
 90
      256
102
RTVSPost2010Prop51ColorRGB
 90
-16777216
102
RTVSPost2010PropOp51
 70
     0
102
RTVSPost2010Prop52
140
1.0
102
RTVSPost2010PropOp52
 70
     0
102
RTVSPost2010Prop53
 90
        2
102
RTVSPost2010PropOp53
 70
     1
102
RTVSPost2010Prop54
  1
strokes_ogs.tif
102
RTVSPost2010PropOp54
 70
     1
102
RTVSPost2010Prop55
280
     0
102
RTVSPost2010PropOp55
 70
     1
102
RTVSPost2010Prop56
140
1.0
102
RTVSPost2010PropOp56
 70
     1
102
RTVSPost2010Prop57
140
1.0
102
RTVSPost2010PropOp57
 70
     1
  0
XRECORD
  5
159
102
{ACAD_REACTORS
330
158
102
}
330
158
100
AcDbXrecord
280
     1
102
RTVSPost2010Prop28
280
     0
102
RTVSPost2010PropOp28
 70
     1
102
RTVSPost2010Prop29
280
     1
102
RTVSPost2010PropOp29
 70
     1
102
RTVSPost2010Prop30
280
     1
102
RTVSPost2010PropOp30
 70
     1
102
RTVSPost2010Prop31
280
     0
102
RTVSPost2010PropOp31
 70
     1
102
RTVSPost2010Prop32
280
     0
102
RTVSPost2010PropOp32
 70
     1
102
RTVSPost2010Prop33
280
     0
102
RTVSPost2010PropOp33
 70
     1
102
RTVSPost2010Prop34
280
     0
102
RTVSPost2010PropOp34
 70
     1
102
RTVSPost2010Prop35
280
     0
102
RTVSPost2010PropOp35
 70
     1
102
RTVSPost2010Prop36
280
     0
102
RTVSPost2010PropOp36
 70
     1
102
RTVSPost2010Prop37
 90
       50
102
RTVSPost2010PropOp37
 70
     1
102
RTVSPost2010Prop38
140
0.0
102
RTVSPost2010PropOp38
 70
     1
102
RTVSPost2010Prop39
140
1.0
102
RTVSPost2010PropOp39
 70
     1
102
RTVSPost2010Prop40
 90
        0
102
RTVSPost2010PropOp40
 70
     1
102
RTVSPost2010Prop41ColorIndex
 90
       18
102
RTVSPost2010Prop41ColorRGB
 90
        0
102
RTVSPost2010PropOp41
 70
     1
102
RTVSPost2010Prop42
 90
       50
102
RTVSPost2010PropOp42
 70
     1
102
RTVSPost2010Prop43
 90
        3
102
RTVSPost2010PropOp43
 70
     1
102
RTVSPost2010Prop44ColorIndex
 90
        5
102
RTVSPost2010Prop44ColorRGB
 90
      255
102
RTVSPost2010PropOp44
 70
     1
102
RTVSPost2010Prop45
280
     0
102
RTVSPost2010PropOp45
 70
     1
102
RTVSPost2010Prop46
 90
       50
102
RTVSPost2010PropOp46
 70
     1
102
RTVSPost2010Prop47
 90
       50
102
RTVSPost2010PropOp47
 70
     1
102
RTVSPost2010Prop48
 90
       50
102
RTVSPost2010PropOp48
 70
     1
102
RTVSPost2010Prop49
280
     0
102
RTVSPost2010PropOp49
 70
     1
102
RTVSPost2010Prop50
 90
       50
102
RTVSPost2010PropOp50
 70
     1
102
RTVSPost2010Prop51ColorIndex
 90
      256
102
RTVSPost2010Prop51ColorRGB
 90
-16777216
102
RTVSPost2010PropOp51
 70
     0
102
RTVSPost2010Prop52
140
1.0
102
RTVSPost2010PropOp52
 70
     0
102
RTVSPost2010Prop53
 90
        2
102
RTVSPost2010PropOp53
 70
     1
102
RTVSPost2010Prop54
  1
strokes_ogs.tif
102
RTVSPost2010PropOp54
 70
     1
102
RTVSPost2010Prop55
280
     0
102
RTVSPost2010PropOp55
 70
     1
102
RTVSPost2010Prop56
140
1.0
102
RTVSPost2010PropOp56
 70
     1
102
RTVSPost2010Prop57
140
1.0
102
RTVSPost2010PropOp57
 70
     1
  0
XRECORD
  5
175
102
{ACAD_REACTORS
330
174
102
}
330
174
100
AcDbXrecord
280
     1
102
RTVSPost2010Prop28
280
     0
102
RTVSPost2010PropOp28
 70
     0
102
RTVSPost2010Prop29
280
     1
102
RTVSPost2010PropOp29
 70
     0
102
RTVSPost2010Prop30
280
     1
102
RTVSPost2010PropOp30
 70
     0
102
RTVSPost2010Prop31
280
     0
102
RTVSPost2010PropOp31
 70
     0
102
RTVSPost2010Prop32
280
     0
102
RTVSPost2010PropOp32
 70
     0
102
RTVSPost2010Prop33
280
     0
102
RTVSPost2010PropOp33
 70
     0
102
RTVSPost2010Prop34
280
     0
102
RTVSPost2010PropOp34
 70
     0
102
RTVSPost2010Prop35
280
     0
102
RTVSPost2010PropOp35
 70
     0
102
RTVSPost2010Prop36
280
     0
102
RTVSPost2010PropOp36
 70
     0
102
RTVSPost2010Prop37
 90
       50
102
RTVSPost2010PropOp37
 70
     0
102
RTVSPost2010Prop38
140
0.0
102
RTVSPost2010PropOp38
 70
     0
102
RTVSPost2010Prop39
140
1.0
102
RTVSPost2010PropOp39
 70
     0
102
RTVSPost2010Prop40
 90
        0
102
RTVSPost2010PropOp40
 70
     0
102
RTVSPost2010Prop41ColorIndex
 90
       18
102
RTVSPost2010Prop41ColorRGB
 90
        0
102
RTVSPost2010PropOp41
 70
     0
102
RTVSPost2010Prop42
 90
       50
102
RTVSPost2010PropOp42
 70
     0
102
RTVSPost2010Prop43
 90
        3
102
RTVSPost2010PropOp43
 70
     0
102
RTVSPost2010Prop44ColorIndex
 90
        5
102
RTVSPost2010Prop44ColorRGB
 90
      255
102
RTVSPost2010PropOp44
 70
     0
102
RTVSPost2010Prop45
280
     0
102
RTVSPost2010PropOp45
 70
     0
102
RTVSPost2010Prop46
 90
       50
102
RTVSPost2010PropOp46
 70
     0
102
RTVSPost2010Prop47
 90
       50
102
RTVSPost2010PropOp47
 70
     0
102
RTVSPost2010Prop48
 90
       50
102
RTVSPost2010PropOp48
 70
     0
102
RTVSPost2010Prop49
280
     0
102
RTVSPost2010PropOp49
 70
     0
102
RTVSPost2010Prop50
 90
       50
102
RTVSPost2010PropOp50
 70
     0
102
RTVSPost2010Prop51ColorIndex
 90
      256
102
RTVSPost2010Prop51ColorRGB
 90
-16777216
102
RTVSPost2010PropOp51
 70
     0
102
RTVSPost2010Prop52
140
1.0
102
RTVSPost2010PropOp52
 70
     0
102
RTVSPost2010Prop53
 90
        2
102
RTVSPost2010PropOp53
 70
     0
102
RTVSPost2010Prop54
  1
strokes_ogs.tif
102
RTVSPost2010PropOp54
 70
     0
102
RTVSPost2010Prop55
280
     0
102
RTVSPost2010PropOp55
 70
     0
102
RTVSPost2010Prop56
140
1.0
102
RTVSPost2010PropOp56
 70
     0
102
RTVSPost2010Prop57
140
1.0
102
RTVSPost2010PropOp57
 70
     0
  0
XRECORD
  5
165
102
{ACAD_REACTORS
330
164
102
}
330
164
100
AcDbXrecord
280
     1
102
RTVSPost2010Prop28
280
     0
102
RTVSPost2010PropOp28
 70
     1
102
RTVSPost2010Prop29
280
     1
102
RTVSPost2010PropOp29
 70
     1
102
RTVSPost2010Prop30
280
     1
102
RTVSPost2010PropOp30
 70
     1
102
RTVSPost2010Prop31
280
     0
102
RTVSPost2010PropOp31
 70
     1
102
RTVSPost2010Prop32
280
     0
102
RTVSPost2010PropOp32
 70
     1
102
RTVSPost2010Prop33
280
     0
102
RTVSPost2010PropOp33
 70
     1
102
RTVSPost2010Prop34
280
     0
102
RTVSPost2010PropOp34
 70
     1
102
RTVSPost2010Prop35
280
     0
102
RTVSPost2010PropOp35
 70
     1
102
RTVSPost2010Prop36
280
     0
102
RTVSPost2010PropOp36
 70
     1
102
RTVSPost2010Prop37
 90
       50
102
RTVSPost2010PropOp37
 70
     1
102
RTVSPost2010Prop38
140
0.0
102
RTVSPost2010PropOp38
 70
     1
102
RTVSPost2010Prop39
140
1.0
102
RTVSPost2010PropOp39
 70
     1
102
RTVSPost2010Prop40
 90
        0
102
RTVSPost2010PropOp40
 70
     1
102
RTVSPost2010Prop41ColorIndex
 90
       18
102
RTVSPost2010Prop41ColorRGB
 90
        0
102
RTVSPost2010PropOp41
 70
     1
102
RTVSPost2010Prop42
 90
       50
102
RTVSPost2010PropOp42
 70
     1
102
RTVSPost2010Prop43
 90
        3
102
RTVSPost2010PropOp43
 70
     1
102
RTVSPost2010Prop44ColorIndex
 90
        5
102
RTVSPost2010Prop44ColorRGB
 90
      255
102
RTVSPost2010PropOp44
 70
     1
102
RTVSPost2010Prop45
280
     0
102
RTVSPost2010PropOp45
 70
     1
102
RTVSPost2010Prop46
 90
       50
102
RTVSPost2010PropOp46
 70
     1
102
RTVSPost2010Prop47
 90
       50
102
RTVSPost2010PropOp47
 70
     1
102
RTVSPost2010Prop48
 90
       50
102
RTVSPost2010PropOp48
 70
     1
102
RTVSPost2010Prop49
280
     0
102
RTVSPost2010PropOp49
 70
     1
102
RTVSPost2010Prop50
 90
       50
102
RTVSPost2010PropOp50
 70
     1
102
RTVSPost2010Prop51ColorIndex
 90
      256
102
RTVSPost2010Prop51ColorRGB
 90
-16777216
102
RTVSPost2010PropOp51
 70
     0
102
RTVSPost2010Prop52
140
1.0
102
RTVSPost2010PropOp52
 70
     0
102
RTVSPost2010Prop53
 90
        2
102
RTVSPost2010PropOp53
 70
     1
102
RTVSPost2010Prop54
  1
strokes_ogs.tif
102
RTVSPost2010PropOp54
 70
     1
102
RTVSPost2010Prop55
280
     0
102
RTVSPost2010PropOp55
 70
     1
102
RTVSPost2010Prop56
140
1.0
102
RTVSPost2010PropOp56
 70
     1
102
RTVSPost2010Prop57
140
1.0
102
RTVSPost2010PropOp57
 70
     1
  0
XRECORD
  5
177
102
{ACAD_REACTORS
330
176
102
}
330
176
100
AcDbXrecord
280
     1
102
RTVSPost2010Prop28
280
     0
102
RTVSPost2010PropOp28
 70
     0
102
RTVSPost2010Prop29
280
     1
102
RTVSPost2010PropOp29
 70
     0
102
RTVSPost2010Prop30
280
     1
102
RTVSPost2010PropOp30
 70
     0
102
RTVSPost2010Prop31
280
     0
102
RTVSPost2010PropOp31
 70
     0
102
RTVSPost2010Prop32
280
     0
102
RTVSPost2010PropOp32
 70
     0
102
RTVSPost2010Prop33
280
     0
102
RTVSPost2010PropOp33
 70
     0
102
RTVSPost2010Prop34
280
     0
102
RTVSPost2010PropOp34
 70
     0
102
RTVSPost2010Prop35
280
     0
102
RTVSPost2010PropOp35
 70
     0
102
RTVSPost2010Prop36
280
     0
102
RTVSPost2010PropOp36
 70
     0
102
RTVSPost2010Prop37
 90
       50
102
RTVSPost2010PropOp37
 70
     0
102
RTVSPost2010Prop38
140
0.0
102
RTVSPost2010PropOp38
 70
     0
102
RTVSPost2010Prop39
140
1.0
102
RTVSPost2010PropOp39
 70
     0
102
RTVSPost2010Prop40
 90
        0
102
RTVSPost2010PropOp40
 70
     0
102
RTVSPost2010Prop41ColorIndex
 90
       18
102
RTVSPost2010Prop41ColorRGB
 90
        0
102
RTVSPost2010PropOp41
 70
     0
102
RTVSPost2010Prop42
 90
       50
102
RTVSPost2010PropOp42
 70
     0
102
RTVSPost2010Prop43
 90
        3
102
RTVSPost2010PropOp43
 70
     0
102
RTVSPost2010Prop44ColorIndex
 90
        5
102
RTVSPost2010Prop44ColorRGB
 90
      255
102
RTVSPost2010PropOp44
 70
     0
102
RTVSPost2010Prop45
280
     0
102
RTVSPost2010PropOp45
 70
     0
102
RTVSPost2010Prop46
 90
       50
102
RTVSPost2010PropOp46
 70
     0
102
RTVSPost2010Prop47
 90
       50
102
RTVSPost2010PropOp47
 70
     0
102
RTVSPost2010Prop48
 90
       50
102
RTVSPost2010PropOp48
 70
     0
102
RTVSPost2010Prop49
280
     0
102
RTVSPost2010PropOp49
 70
     0
102
RTVSPost2010Prop50
 90
       50
102
RTVSPost2010PropOp50
 70
     0
102
RTVSPost2010Prop51ColorIndex
 90
      256
102
RTVSPost2010Prop51ColorRGB
 90
-16777216
102
RTVSPost2010PropOp51
 70
     0
102
RTVSPost2010Prop52
140
1.0
102
RTVSPost2010PropOp52
 70
     0
102
RTVSPost2010Prop53
 90
        2
102
RTVSPost2010PropOp53
 70
     0
102
RTVSPost2010Prop54
  1
strokes_ogs.tif
102
RTVSPost2010PropOp54
 70
     0
102
RTVSPost2010Prop55
280
     0
102
RTVSPost2010PropOp55
 70
     0
102
RTVSPost2010Prop56
140
1.0
102
RTVSPost2010PropOp56
 70
     0
102
RTVSPost2010Prop57
140
1.0
102
RTVSPost2010PropOp57
 70
     0
  0
XRECORD
  5
15D
102
{ACAD_REACTORS
330
15C
102
}
330
15C
100
AcDbXrecord
280
     1
102
RTVSPost2010Prop28
280
     0
102
RTVSPost2010PropOp28
 70
     1
102
RTVSPost2010Prop29
280
     1
102
RTVSPost2010PropOp29
 70
     1
102
RTVSPost2010Prop30
280
     1
102
RTVSPost2010PropOp30
 70
     1
102
RTVSPost2010Prop31
280
     0
102
RTVSPost2010PropOp31
 70
     1
102
RTVSPost2010Prop32
280
     0
102
RTVSPost2010PropOp32
 70
     1
102
RTVSPost2010Prop33
280
     0
102
RTVSPost2010PropOp33
 70
     1
102
RTVSPost2010Prop34
280
     0
102
RTVSPost2010PropOp34
 70
     1
102
RTVSPost2010Prop35
280
     0
102
RTVSPost2010PropOp35
 70
     1
102
RTVSPost2010Prop36
280
     0
102
RTVSPost2010PropOp36
 70
     1
102
RTVSPost2010Prop37
 90
       50
102
RTVSPost2010PropOp37
 70
     1
102
RTVSPost2010Prop38
140
0.0
102
RTVSPost2010PropOp38
 70
     1
102
RTVSPost2010Prop39
140
1.0
102
RTVSPost2010PropOp39
 70
     1
102
RTVSPost2010Prop40
 90
        0
102
RTVSPost2010PropOp40
 70
     1
102
RTVSPost2010Prop41ColorIndex
 90
       18
102
RTVSPost2010Prop41ColorRGB
 90
        0
102
RTVSPost2010PropOp41
 70
     1
102
RTVSPost2010Prop42
 90
       50
102
RTVSPost2010PropOp42
 70
     1
102
RTVSPost2010Prop43
 90
        3
102
RTVSPost2010PropOp43
 70
     1
102
RTVSPost2010Prop44ColorIndex
 90
        5
102
RTVSPost2010Prop44ColorRGB
 90
      255
102
RTVSPost2010PropOp44
 70
     1
102
RTVSPost2010Prop45
280
     0
102
RTVSPost2010PropOp45
 70
     1
102
RTVSPost2010Prop46
 90
       50
102
RTVSPost2010PropOp46
 70
     1
102
RTVSPost2010Prop47
 90
       50
102
RTVSPost2010PropOp47
 70
     1
102
RTVSPost2010Prop48
 90
       50
102
RTVSPost2010PropOp48
 70
     1
102
RTVSPost2010Prop49
280
     0
102
RTVSPost2010PropOp49
 70
     1
102
RTVSPost2010Prop50
 90
       50
102
RTVSPost2010PropOp50
 70
     1
102
RTVSPost2010Prop51ColorIndex
 90
      256
102
RTVSPost2010Prop51ColorRGB
 90
-16777216
102
RTVSPost2010PropOp51
 70
     0
102
RTVSPost2010Prop52
140
1.0
102
RTVSPost2010PropOp52
 70
     0
102
RTVSPost2010Prop53
 90
        2
102
RTVSPost2010PropOp53
 70
     1
102
RTVSPost2010Prop54
  1
strokes_ogs.tif
102
RTVSPost2010PropOp54
 70
     1
102
RTVSPost2010Prop55
280
     0
102
RTVSPost2010PropOp55
 70
     1
102
RTVSPost2010Prop56
140
1.0
102
RTVSPost2010PropOp56
 70
     1
102
RTVSPost2010Prop57
140
1.0
102
RTVSPost2010PropOp57
 70
     1
  0
XRECORD
  5
173
102
{ACAD_REACTORS
330
172
102
}
330
172
100
AcDbXrecord
280
     1
102
RTVSPost2010Prop28
280
     0
102
RTVSPost2010PropOp28
 70
     1
102
RTVSPost2010Prop29
280
     1
102
RTVSPost2010PropOp29
 70
     1
102
RTVSPost2010Prop30
280
     1
102
RTVSPost2010PropOp30
 70
     1
102
RTVSPost2010Prop31
280
     0
102
RTVSPost2010PropOp31
 70
     1
102
RTVSPost2010Prop32
280
     0
102
RTVSPost2010PropOp32
 70
     1
102
RTVSPost2010Prop33
280
     0
102
RTVSPost2010PropOp33
 70
     1
102
RTVSPost2010Prop34
280
     0
102
RTVSPost2010PropOp34
 70
     1
102
RTVSPost2010Prop35
280
     0
102
RTVSPost2010PropOp35
 70
     1
102
RTVSPost2010Prop36
280
     0
102
RTVSPost2010PropOp36
 70
     1
102
RTVSPost2010Prop37
 90
       50
102
RTVSPost2010PropOp37
 70
     1
102
RTVSPost2010Prop38
140
0.0
102
RTVSPost2010PropOp38
 70
     1
102
RTVSPost2010Prop39
140
1.0
102
RTVSPost2010PropOp39
 70
     1
102
RTVSPost2010Prop40
 90
        0
102
RTVSPost2010PropOp40
 70
     1
102
RTVSPost2010Prop41ColorIndex
 90
       18
102
RTVSPost2010Prop41ColorRGB
 90
        0
102
RTVSPost2010PropOp41
 70
     1
102
RTVSPost2010Prop42
 90
       50
102
RTVSPost2010PropOp42
 70
     1
102
RTVSPost2010Prop43
 90
        3
102
RTVSPost2010PropOp43
 70
     1
102
RTVSPost2010Prop44ColorIndex
 90
        5
102
RTVSPost2010Prop44ColorRGB
 90
      255
102
RTVSPost2010PropOp44
 70
     1
102
RTVSPost2010Prop45
280
     0
102
RTVSPost2010PropOp45
 70
     1
102
RTVSPost2010Prop46
 90
       50
102
RTVSPost2010PropOp46
 70
     1
102
RTVSPost2010Prop47
 90
       50
102
RTVSPost2010PropOp47
 70
     1
102
RTVSPost2010Prop48
 90
       50
102
RTVSPost2010PropOp48
 70
     1
102
RTVSPost2010Prop49
280
     0
102
RTVSPost2010PropOp49
 70
     1
102
RTVSPost2010Prop50
 90
       50
102
RTVSPost2010PropOp50
 70
     1
102
RTVSPost2010Prop51ColorIndex
 90
      256
102
RTVSPost2010Prop51ColorRGB
 90
-16777216
102
RTVSPost2010PropOp51
 70
     0
102
RTVSPost2010Prop52
140
1.0
102
RTVSPost2010PropOp52
 70
     0
102
RTVSPost2010Prop53
 90
        2
102
RTVSPost2010PropOp53
 70
     1
102
RTVSPost2010Prop54
  1
strokes_ogs.tif
102
RTVSPost2010PropOp54
 70
     1
102
RTVSPost2010Prop55
280
     0
102
RTVSPost2010PropOp55
 70
     1
102
RTVSPost2010Prop56
140
1.0
102
RTVSPost2010PropOp56
 70
     1
102
RTVSPost2010Prop57
140
1.0
102
RTVSPost2010PropOp57
 70
     1
  0
XRECORD
  5
171
102
{ACAD_REACTORS
330
170
102
}
330
170
100
AcDbXrecord
280
     1
102
RTVSPost2010Prop28
280
     0
102
RTVSPost2010PropOp28
 70
     1
102
RTVSPost2010Prop29
280
     1
102
RTVSPost2010PropOp29
 70
     1
102
RTVSPost2010Prop30
280
     1
102
RTVSPost2010PropOp30
 70
     1
102
RTVSPost2010Prop31
280
     0
102
RTVSPost2010PropOp31
 70
     1
102
RTVSPost2010Prop32
280
     0
102
RTVSPost2010PropOp32
 70
     1
102
RTVSPost2010Prop33
280
     0
102
RTVSPost2010PropOp33
 70
     1
102
RTVSPost2010Prop34
280
     0
102
RTVSPost2010PropOp34
 70
     1
102
RTVSPost2010Prop35
280
     0
102
RTVSPost2010PropOp35
 70
     1
102
RTVSPost2010Prop36
280
     0
102
RTVSPost2010PropOp36
 70
     1
102
RTVSPost2010Prop37
 90
       50
102
RTVSPost2010PropOp37
 70
     1
102
RTVSPost2010Prop38
140
0.0
102
RTVSPost2010PropOp38
 70
     1
102
RTVSPost2010Prop39
140
1.0
102
RTVSPost2010PropOp39
 70
     1
102
RTVSPost2010Prop40
 90
        0
102
RTVSPost2010PropOp40
 70
     1
102
RTVSPost2010Prop41ColorIndex
 90
       18
102
RTVSPost2010Prop41ColorRGB
 90
        0
102
RTVSPost2010PropOp41
 70
     1
102
RTVSPost2010Prop42
 90
       50
102
RTVSPost2010PropOp42
 70
     1
102
RTVSPost2010Prop43
 90
        3
102
RTVSPost2010PropOp43
 70
     1
102
RTVSPost2010Prop44ColorIndex
 90
        5
102
RTVSPost2010Prop44ColorRGB
 90
      255
102
RTVSPost2010PropOp44
 70
     1
102
RTVSPost2010Prop45
280
     0
102
RTVSPost2010PropOp45
 70
     1
102
RTVSPost2010Prop46
 90
       50
102
RTVSPost2010PropOp46
 70
     1
102
RTVSPost2010Prop47
 90
       50
102
RTVSPost2010PropOp47
 70
     1
102
RTVSPost2010Prop48
 90
       50
102
RTVSPost2010PropOp48
 70
     1
102
RTVSPost2010Prop49
280
     0
102
RTVSPost2010PropOp49
 70
     1
102
RTVSPost2010Prop50
 90
       50
102
RTVSPost2010PropOp50
 70
     1
102
RTVSPost2010Prop51ColorIndex
 90
      256
102
RTVSPost2010Prop51ColorRGB
 90
-16777216
102
RTVSPost2010PropOp51
 70
     0
102
RTVSPost2010Prop52
140
1.0
102
RTVSPost2010PropOp52
 70
     0
102
RTVSPost2010Prop53
 90
        2
102
RTVSPost2010PropOp53
 70
     1
102
RTVSPost2010Prop54
  1
strokes_ogs.tif
102
RTVSPost2010PropOp54
 70
     1
102
RTVSPost2010Prop55
280
     0
102
RTVSPost2010PropOp55
 70
     1
102
RTVSPost2010Prop56
140
1.0
102
RTVSPost2010PropOp56
 70
     1
102
RTVSPost2010Prop57
140
1.0
102
RTVSPost2010PropOp57
 70
     1
  0
XRECORD
  5
16B
102
{ACAD_REACTORS
330
16A
102
}
330
16A
100
AcDbXrecord
280
     1
102
RTVSPost2010Prop28
280
     0
102
RTVSPost2010PropOp28
 70
     1
102
RTVSPost2010Prop29
280
     1
102
RTVSPost2010PropOp29
 70
     1
102
RTVSPost2010Prop30
280
     1
102
RTVSPost2010PropOp30
 70
     1
102
RTVSPost2010Prop31
280
     0
102
RTVSPost2010PropOp31
 70
     1
102
RTVSPost2010Prop32
280
     0
102
RTVSPost2010PropOp32
 70
     1
102
RTVSPost2010Prop33
280
     0
102
RTVSPost2010PropOp33
 70
     1
102
RTVSPost2010Prop34
280
     0
102
RTVSPost2010PropOp34
 70
     1
102
RTVSPost2010Prop35
280
     0
102
RTVSPost2010PropOp35
 70
     1
102
RTVSPost2010Prop36
280
     0
102
RTVSPost2010PropOp36
 70
     1
102
RTVSPost2010Prop37
 90
       50
102
RTVSPost2010PropOp37
 70
     1
102
RTVSPost2010Prop38
140
0.0
102
RTVSPost2010PropOp38
 70
     1
102
RTVSPost2010Prop39
140
1.0
102
RTVSPost2010PropOp39
 70
     1
102
RTVSPost2010Prop40
 90
        0
102
RTVSPost2010PropOp40
 70
     1
102
RTVSPost2010Prop41ColorIndex
 90
       18
102
RTVSPost2010Prop41ColorRGB
 90
        0
102
RTVSPost2010PropOp41
 70
     1
102
RTVSPost2010Prop42
 90
       50
102
RTVSPost2010PropOp42
 70
     1
102
RTVSPost2010Prop43
 90
        3
102
RTVSPost2010PropOp43
 70
     1
102
RTVSPost2010Prop44ColorIndex
 90
        5
102
RTVSPost2010Prop44ColorRGB
 90
      255
102
RTVSPost2010PropOp44
 70
     1
102
RTVSPost2010Prop45
280
     0
102
RTVSPost2010PropOp45
 70
     1
102
RTVSPost2010Prop46
 90
       50
102
RTVSPost2010PropOp46
 70
     1
102
RTVSPost2010Prop47
 90
       50
102
RTVSPost2010PropOp47
 70
     1
102
RTVSPost2010Prop48
 90
       50
102
RTVSPost2010PropOp48
 70
     1
102
RTVSPost2010Prop49
280
     0
102
RTVSPost2010PropOp49
 70
     1
102
RTVSPost2010Prop50
 90
       50
102
RTVSPost2010PropOp50
 70
     1
102
RTVSPost2010Prop51ColorIndex
 90
      256
102
RTVSPost2010Prop51ColorRGB
 90
-16777216
102
RTVSPost2010PropOp51
 70
     0
102
RTVSPost2010Prop52
140
1.0
102
RTVSPost2010PropOp52
 70
     0
102
RTVSPost2010Prop53
 90
        2
102
RTVSPost2010PropOp53
 70
     1
102
RTVSPost2010Prop54
  1
strokes_ogs.tif
102
RTVSPost2010PropOp54
 70
     1
102
RTVSPost2010Prop55
280
     0
102
RTVSPost2010PropOp55
 70
     1
102
RTVSPost2010Prop56
140
1.0
102
RTVSPost2010PropOp56
 70
     1
102
RTVSPost2010Prop57
140
1.0
102
RTVSPost2010PropOp57
 70
     1
  0
XRECORD
  5
16D
102
{ACAD_REACTORS
330
16C
102
}
330
16C
100
AcDbXrecord
280
     1
102
RTVSPost2010Prop28
280
     0
102
RTVSPost2010PropOp28
 70
     1
102
RTVSPost2010Prop29
280
     1
102
RTVSPost2010PropOp29
 70
     1
102
RTVSPost2010Prop30
280
     1
102
RTVSPost2010PropOp30
 70
     1
102
RTVSPost2010Prop31
280
     0
102
RTVSPost2010PropOp31
 70
     1
102
RTVSPost2010Prop32
280
     0
102
RTVSPost2010PropOp32
 70
     1
102
RTVSPost2010Prop33
280
     0
102
RTVSPost2010PropOp33
 70
     1
102
RTVSPost2010Prop34
280
     0
102
RTVSPost2010PropOp34
 70
     1
102
RTVSPost2010Prop35
280
     0
102
RTVSPost2010PropOp35
 70
     1
102
RTVSPost2010Prop36
280
     0
102
RTVSPost2010PropOp36
 70
     1
102
RTVSPost2010Prop37
 90
       50
102
RTVSPost2010PropOp37
 70
     1
102
RTVSPost2010Prop38
140
0.0
102
RTVSPost2010PropOp38
 70
     1
102
RTVSPost2010Prop39
140
1.0
102
RTVSPost2010PropOp39
 70
     1
102
RTVSPost2010Prop40
 90
        0
102
RTVSPost2010PropOp40
 70
     1
102
RTVSPost2010Prop41ColorIndex
 90
       18
102
RTVSPost2010Prop41ColorRGB
 90
        0
102
RTVSPost2010PropOp41
 70
     1
102
RTVSPost2010Prop42
 90
       50
102
RTVSPost2010PropOp42
 70
     1
102
RTVSPost2010Prop43
 90
        3
102
RTVSPost2010PropOp43
 70
     1
102
RTVSPost2010Prop44ColorIndex
 90
        5
102
RTVSPost2010Prop44ColorRGB
 90
      255
102
RTVSPost2010PropOp44
 70
     1
102
RTVSPost2010Prop45
280
     0
102
RTVSPost2010PropOp45
 70
     1
102
RTVSPost2010Prop46
 90
       50
102
RTVSPost2010PropOp46
 70
     1
102
RTVSPost2010Prop47
 90
       50
102
RTVSPost2010PropOp47
 70
     1
102
RTVSPost2010Prop48
 90
       50
102
RTVSPost2010PropOp48
 70
     1
102
RTVSPost2010Prop49
280
     0
102
RTVSPost2010PropOp49
 70
     1
102
RTVSPost2010Prop50
 90
       50
102
RTVSPost2010PropOp50
 70
     1
102
RTVSPost2010Prop51ColorIndex
 90
      256
102
RTVSPost2010Prop51ColorRGB
 90
-16777216
102
RTVSPost2010PropOp51
 70
     0
102
RTVSPost2010Prop52
140
1.0
102
RTVSPost2010PropOp52
 70
     0
102
RTVSPost2010Prop53
 90
        2
102
RTVSPost2010PropOp53
 70
     1
102
RTVSPost2010Prop54
  1
strokes_ogs.tif
102
RTVSPost2010PropOp54
 70
     1
102
RTVSPost2010Prop55
280
     0
102
RTVSPost2010PropOp55
 70
     1
102
RTVSPost2010Prop56
140
1.0
102
RTVSPost2010PropOp56
 70
     1
102
RTVSPost2010Prop57
140
1.0
102
RTVSPost2010PropOp57
 70
     1
  0
XRECORD
  5
163
102
{ACAD_REACTORS
330
162
102
}
330
162
100
AcDbXrecord
280
     1
102
RTVSPost2010Prop28
280
     0
102
RTVSPost2010PropOp28
 70
     1
102
RTVSPost2010Prop29
280
     1
102
RTVSPost2010PropOp29
 70
     1
102
RTVSPost2010Prop30
280
     1
102
RTVSPost2010PropOp30
 70
     1
102
RTVSPost2010Prop31
280
     0
102
RTVSPost2010PropOp31
 70
     1
102
RTVSPost2010Prop32
280
     0
102
RTVSPost2010PropOp32
 70
     1
102
RTVSPost2010Prop33
280
     0
102
RTVSPost2010PropOp33
 70
     1
102
RTVSPost2010Prop34
280
     0
102
RTVSPost2010PropOp34
 70
     1
102
RTVSPost2010Prop35
280
     0
102
RTVSPost2010PropOp35
 70
     1
102
RTVSPost2010Prop36
280
     0
102
RTVSPost2010PropOp36
 70
     1
102
RTVSPost2010Prop37
 90
       50
102
RTVSPost2010PropOp37
 70
     1
102
RTVSPost2010Prop38
140
0.0
102
RTVSPost2010PropOp38
 70
     1
102
RTVSPost2010Prop39
140
1.0
102
RTVSPost2010PropOp39
 70
     1
102
RTVSPost2010Prop40
 90
        0
102
RTVSPost2010PropOp40
 70
     1
102
RTVSPost2010Prop41ColorIndex
 90
       18
102
RTVSPost2010Prop41ColorRGB
 90
        0
102
RTVSPost2010PropOp41
 70
     1
102
RTVSPost2010Prop42
 90
       50
102
RTVSPost2010PropOp42
 70
     1
102
RTVSPost2010Prop43
 90
        3
102
RTVSPost2010PropOp43
 70
     1
102
RTVSPost2010Prop44ColorIndex
 90
        5
102
RTVSPost2010Prop44ColorRGB
 90
      255
102
RTVSPost2010PropOp44
 70
     1
102
RTVSPost2010Prop45
280
     0
102
RTVSPost2010PropOp45
 70
     1
102
RTVSPost2010Prop46
 90
       50
102
RTVSPost2010PropOp46
 70
     1
102
RTVSPost2010Prop47
 90
       50
102
RTVSPost2010PropOp47
 70
     1
102
RTVSPost2010Prop48
 90
       50
102
RTVSPost2010PropOp48
 70
     1
102
RTVSPost2010Prop49
280
     0
102
RTVSPost2010PropOp49
 70
     1
102
RTVSPost2010Prop50
 90
       50
102
RTVSPost2010PropOp50
 70
     1
102
RTVSPost2010Prop51ColorIndex
 90
      256
102
RTVSPost2010Prop51ColorRGB
 90
-16777216
102
RTVSPost2010PropOp51
 70
     0
102
RTVSPost2010Prop52
140
1.0
102
RTVSPost2010PropOp52
 70
     0
102
RTVSPost2010Prop53
 90
        2
102
RTVSPost2010PropOp53
 70
     1
102
RTVSPost2010Prop54
  1
strokes_ogs.tif
102
RTVSPost2010PropOp54
 70
     1
102
RTVSPost2010Prop55
280
     0
102
RTVSPost2010PropOp55
 70
     1
102
RTVSPost2010Prop56
140
1.0
102
RTVSPost2010PropOp56
 70
     1
102
RTVSPost2010Prop57
140
1.0
102
RTVSPost2010PropOp57
 70
     1
  0
XRECORD
  5
157
102
{ACAD_REACTORS
330
156
102
}
330
156
100
AcDbXrecord
280
     1
102
RTVSPost2010Prop28
280
     0
102
RTVSPost2010PropOp28
 70
     1
102
RTVSPost2010Prop29
280
     1
102
RTVSPost2010PropOp29
 70
     1
102
RTVSPost2010Prop30
280
     1
102
RTVSPost2010PropOp30
 70
     1
102
RTVSPost2010Prop31
280
     0
102
RTVSPost2010PropOp31
 70
     1
102
RTVSPost2010Prop32
280
     0
102
RTVSPost2010PropOp32
 70
     1
102
RTVSPost2010Prop33
280
     0
102
RTVSPost2010PropOp33
 70
     1
102
RTVSPost2010Prop34
280
     0
102
RTVSPost2010PropOp34
 70
     1
102
RTVSPost2010Prop35
280
     0
102
RTVSPost2010PropOp35
 70
     1
102
RTVSPost2010Prop36
280
     0
102
RTVSPost2010PropOp36
 70
     1
102
RTVSPost2010Prop37
 90
       50
102
RTVSPost2010PropOp37
 70
     1
102
RTVSPost2010Prop38
140
0.0
102
RTVSPost2010PropOp38
 70
     1
102
RTVSPost2010Prop39
140
1.0
102
RTVSPost2010PropOp39
 70
     1
102
RTVSPost2010Prop40
 90
        0
102
RTVSPost2010PropOp40
 70
     1
102
RTVSPost2010Prop41ColorIndex
 90
       18
102
RTVSPost2010Prop41ColorRGB
 90
        0
102
RTVSPost2010PropOp41
 70
     1
102
RTVSPost2010Prop42
 90
       50
102
RTVSPost2010PropOp42
 70
     1
102
RTVSPost2010Prop43
 90
        3
102
RTVSPost2010PropOp43
 70
     1
102
RTVSPost2010Prop44ColorIndex
 90
        5
102
RTVSPost2010Prop44ColorRGB
 90
      255
102
RTVSPost2010PropOp44
 70
     1
102
RTVSPost2010Prop45
280
     0
102
RTVSPost2010PropOp45
 70
     1
102
RTVSPost2010Prop46
 90
       50
102
RTVSPost2010PropOp46
 70
     1
102
RTVSPost2010Prop47
 90
       50
102
RTVSPost2010PropOp47
 70
     1
102
RTVSPost2010Prop48
 90
       50
102
RTVSPost2010PropOp48
 70
     1
102
RTVSPost2010Prop49
280
     0
102
RTVSPost2010PropOp49
 70
     1
102
RTVSPost2010Prop50
 90
       50
102
RTVSPost2010PropOp50
 70
     1
102
RTVSPost2010Prop51ColorIndex
 90
      256
102
RTVSPost2010Prop51ColorRGB
 90
-16777216
102
RTVSPost2010PropOp51
 70
     0
102
RTVSPost2010Prop52
140
1.0
102
RTVSPost2010PropOp52
 70
     0
102
RTVSPost2010Prop53
 90
        2
102
RTVSPost2010PropOp53
 70
     1
102
RTVSPost2010Prop54
  1
strokes_ogs.tif
102
RTVSPost2010PropOp54
 70
     1
102
RTVSPost2010Prop55
280
     0
102
RTVSPost2010PropOp55
 70
     1
102
RTVSPost2010Prop56
140
1.0
102
RTVSPost2010PropOp56
 70
     1
102
RTVSPost2010Prop57
140
1.0
102
RTVSPost2010PropOp57
 70
     1
  0
XRECORD
  5
16F
102
{ACAD_REACTORS
330
16E
102
}
330
16E
100
AcDbXrecord
280
     1
102
RTVSPost2010Prop28
280
     0
102
RTVSPost2010PropOp28
 70
     1
102
RTVSPost2010Prop29
280
     1
102
RTVSPost2010PropOp29
 70
     1
102
RTVSPost2010Prop30
280
     1
102
RTVSPost2010PropOp30
 70
     1
102
RTVSPost2010Prop31
280
     0
102
RTVSPost2010PropOp31
 70
     1
102
RTVSPost2010Prop32
280
     0
102
RTVSPost2010PropOp32
 70
     1
102
RTVSPost2010Prop33
280
     0
102
RTVSPost2010PropOp33
 70
     1
102
RTVSPost2010Prop34
280
     0
102
RTVSPost2010PropOp34
 70
     1
102
RTVSPost2010Prop35
280
     0
102
RTVSPost2010PropOp35
 70
     1
102
RTVSPost2010Prop36
280
     0
102
RTVSPost2010PropOp36
 70
     1
102
RTVSPost2010Prop37
 90
       50
102
RTVSPost2010PropOp37
 70
     1
102
RTVSPost2010Prop38
140
0.0
102
RTVSPost2010PropOp38
 70
     1
102
RTVSPost2010Prop39
140
1.0
102
RTVSPost2010PropOp39
 70
     1
102
RTVSPost2010Prop40
 90
        0
102
RTVSPost2010PropOp40
 70
     1
102
RTVSPost2010Prop41ColorIndex
 90
       18
102
RTVSPost2010Prop41ColorRGB
 90
        0
102
RTVSPost2010PropOp41
 70
     1
102
RTVSPost2010Prop42
 90
       50
102
RTVSPost2010PropOp42
 70
     1
102
RTVSPost2010Prop43
 90
        3
102
RTVSPost2010PropOp43
 70
     1
102
RTVSPost2010Prop44ColorIndex
 90
        5
102
RTVSPost2010Prop44ColorRGB
 90
      255
102
RTVSPost2010PropOp44
 70
     1
102
RTVSPost2010Prop45
280
     0
102
RTVSPost2010PropOp45
 70
     1
102
RTVSPost2010Prop46
 90
       50
102
RTVSPost2010PropOp46
 70
     1
102
RTVSPost2010Prop47
 90
       50
102
RTVSPost2010PropOp47
 70
     1
102
RTVSPost2010Prop48
 90
       50
102
RTVSPost2010PropOp48
 70
     1
102
RTVSPost2010Prop49
280
     0
102
RTVSPost2010PropOp49
 70
     1
102
RTVSPost2010Prop50
 90
       50
102
RTVSPost2010PropOp50
 70
     1
102
RTVSPost2010Prop51ColorIndex
 90
      256
102
RTVSPost2010Prop51ColorRGB
 90
-16777216
102
RTVSPost2010PropOp51
 70
     0
102
RTVSPost2010Prop52
140
1.0
102
RTVSPost2010PropOp52
 70
     0
102
RTVSPost2010Prop53
 90
        2
102
RTVSPost2010PropOp53
 70
     1
102
RTVSPost2010Prop54
  1
strokes_ogs.tif
102
RTVSPost2010PropOp54
 70
     1
102
RTVSPost2010Prop55
280
     0
102
RTVSPost2010PropOp55
 70
     1
102
RTVSPost2010Prop56
140
1.0
102
RTVSPost2010PropOp56
 70
     1
102
RTVSPost2010Prop57
140
1.0
102
RTVSPost2010PropOp57
 70
     1
  0
ENDSEC
  0
EOF
