  0
SECTION
  2
HEADER
  9
$ACADVER
  1
AC1024
  9
$ACADMAINTVER
 70
   205
  9
$DWGCODEPAGE
  3
ANSI_1251
  9
$INSBASE
 10
0.0
 20
0.0
 30
0.0
  9
$EXTMIN
 10
1.000000000000000E+20
 20
1.000000000000000E+20
 30
1.000000000000000E+20
  9
$EXTMAX
 10
-1.000000000000000E+20
 20
-1.000000000000000E+20
 30
-1.000000000000000E+20
  9
$LIMMIN
 10
0.0
 20
0.0
  9
$LIMMAX
 10
12.0
 20
9.0
  9
$ORTHOMODE
 70
     0
  9
$REGENMODE
 70
     1
  9
$FILLMODE
 70
     1
  9
$QTEXTMODE
 70
     0
  9
$MIRRTEXT
 70
     1
  9
$LTSCALE
 40
1.0
  9
$ATTMODE
 70
     1
  9
$TEXTSIZE
 40
0.2
  9
$TRACEWID
 40
0.05
  9
$TEXTSTYLE
  7
Standard
  9
$CLAYER
  8
OracDecor_cornice_mouldings
  9
$CELTYPE
  6
ByLayer
  9
$CECOLOR
 62
   256
  9
$CELTSCALE
 40
1.0
  9
$DISPSILH
 70
     0
  9
$DIMSCALE
 40
1.0
  9
$DIMASZ
 40
0.18
  9
$DIMEXO
 40
0.0625
  9
$DIMDLI
 40
0.38
  9
$DIMRND
 40
0.0
  9
$DIMDLE
 40
0.0
  9
$DIMEXE
 40
0.18
  9
$DIMTP
 40
0.0
  9
$DIMTM
 40
0.0
  9
$DIMTXT
 40
0.18
  9
$DIMCEN
 40
0.09
  9
$DIMTSZ
 40
0.0
  9
$DIMTOL
 70
     0
  9
$DIMLIM
 70
     0
  9
$DIMTIH
 70
     1
  9
$DIMTOH
 70
     1
  9
$DIMSE1
 70
     0
  9
$DIMSE2
 70
     0
  9
$DIMTAD
 70
     0
  9
$DIMZIN
 70
     0
  9
$DIMBLK
  1

  9
$DIMASO
 70
     1
  9
$DIMSHO
 70
     1
  9
$DIMPOST
  1

  9
$DIMAPOST
  1

  9
$DIMALT
 70
     0
  9
$DIMALTD
 70
     2
  9
$DIMALTF
 40
25.4
  9
$DIMLFAC
 40
1.0
  9
$DIMTOFL
 70
     0
  9
$DIMTVP
 40
0.0
  9
$DIMTIX
 70
     0
  9
$DIMSOXD
 70
     0
  9
$DIMSAH
 70
     0
  9
$DIMBLK1
  1

  9
$DIMBLK2
  1

  9
$DIMSTYLE
  2
Standard
  9
$DIMCLRD
 70
     0
  9
$DIMCLRE
 70
     0
  9
$DIMCLRT
 70
     0
  9
$DIMTFAC
 40
1.0
  9
$DIMGAP
 40
0.09
  9
$DIMJUST
 70
     0
  9
$DIMSD1
 70
     0
  9
$DIMSD2
 70
     0
  9
$DIMTOLJ
 70
     1
  9
$DIMTZIN
 70
     0
  9
$DIMALTZ
 70
     0
  9
$DIMALTTZ
 70
     0
  9
$DIMUPT
 70
     0
  9
$DIMDEC
 70
     4
  9
$DIMTDEC
 70
     4
  9
$DIMALTU
 70
     2
  9
$DIMALTTD
 70
     2
  9
$DIMTXSTY
  7
Standard
  9
$DIMAUNIT
 70
     0
  9
$DIMADEC
 70
     0
  9
$DIMALTRND
 40
0.0
  9
$DIMAZIN
 70
     0
  9
$DIMDSEP
 70
    46
  9
$DIMATFIT
 70
     3
  9
$DIMFRAC
 70
     0
  9
$DIMLDRBLK
  1

  9
$DIMLUNIT
 70
     2
  9
$DIMLWD
 70
    -2
  9
$DIMLWE
 70
    -2
  9
$DIMTMOVE
 70
     0
  9
$DIMFXL
 40
1.0
  9
$DIMFXLON
 70
     0
  9
$DIMJOGANG
 40
0.7853981633974483
  9
$DIMTFILL
 70
     0
  9
$DIMTFILLCLR
 70
     0
  9
$DIMARCSYM
 70
     0
  9
$DIMLTYPE
  6

  9
$DIMLTEX1
  6

  9
$DIMLTEX2
  6

  9
$DIMTXTDIRECTION
 70
     0
  9
$LUNITS
 70
     2
  9
$LUPREC
 70
     4
  9
$SKETCHINC
 40
0.1
  9
$FILLETRAD
 40
0.5
  9
$AUNITS
 70
     0
  9
$AUPREC
 70
     0
  9
$MENU
  1
.
  9
$ELEVATION
 40
0.0
  9
$PELEVATION
 40
0.0
  9
$THICKNESS
 40
0.0
  9
$LIMCHECK
 70
     0
  9
$CHAMFERA
 40
0.5
  9
$CHAMFERB
 40
0.5
  9
$CHAMFERC
 40
1.0
  9
$CHAMFERD
 40
0.0
  9
$SKPOLY
 70
     0
  9
$TDCREATE
 40
2451380.930432396
  9
$TDUCREATE
 40
2451380.805432396
  9
$TDUPDATE
 40
2451380.966180555
  9
$TDUUPDATE
 40
2451380.841180556
  9
$TDINDWG
 40
0.0075632407
  9
$TDUSRTIMER
 40
0.0075542014
  9
$USRTIMER
 70
     1
  9
$ANGBASE
 50
0.0
  9
$ANGDIR
 70
     0
  9
$PDMODE
 70
     0
  9
$PDSIZE
 40
0.0
  9
$PLINEWID
 40
0.0
  9
$SPLFRAME
 70
     0
  9
$SPLINETYPE
 70
     6
  9
$SPLINESEGS
 70
     8
  9
$HANDSEED
  5
187
  9
$SURFTAB1
 70
     6
  9
$SURFTAB2
 70
     6
  9
$SURFTYPE
 70
     6
  9
$SURFU
 70
     6
  9
$SURFV
 70
     6
  9
$UCSBASE
  2

  9
$UCSNAME
  2

  9
$UCSORG
 10
0.0
 20
0.0
 30
0.0
  9
$UCSXDIR
 10
1.0
 20
0.0
 30
0.0
  9
$UCSYDIR
 10
0.0
 20
1.0
 30
0.0
  9
$UCSORTHOREF
  2

  9
$UCSORTHOVIEW
 70
     0
  9
$UCSORGTOP
 10
0.0
 20
0.0
 30
0.0
  9
$UCSORGBOTTOM
 10
0.0
 20
0.0
 30
0.0
  9
$UCSORGLEFT
 10
0.0
 20
0.0
 30
0.0
  9
$UCSORGRIGHT
 10
0.0
 20
0.0
 30
0.0
  9
$UCSORGFRONT
 10
0.0
 20
0.0
 30
0.0
  9
$UCSORGBACK
 10
0.0
 20
0.0
 30
0.0
  9
$PUCSBASE
  2

  9
$PUCSNAME
  2

  9
$PUCSORG
 10
0.0
 20
0.0
 30
0.0
  9
$PUCSXDIR
 10
1.0
 20
0.0
 30
0.0
  9
$PUCSYDIR
 10
0.0
 20
1.0
 30
0.0
  9
$PUCSORTHOREF
  2

  9
$PUCSORTHOVIEW
 70
     0
  9
$PUCSORGTOP
 10
0.0
 20
0.0
 30
0.0
  9
$PUCSORGBOTTOM
 10
0.0
 20
0.0
 30
0.0
  9
$PUCSORGLEFT
 10
0.0
 20
0.0
 30
0.0
  9
$PUCSORGRIGHT
 10
0.0
 20
0.0
 30
0.0
  9
$PUCSORGFRONT
 10
0.0
 20
0.0
 30
0.0
  9
$PUCSORGBACK
 10
0.0
 20
0.0
 30
0.0
  9
$USERI1
 70
     0
  9
$USERI2
 70
     0
  9
$USERI3
 70
     0
  9
$USERI4
 70
     0
  9
$USERI5
 70
     0
  9
$USERR1
 40
0.0
  9
$USERR2
 40
0.0
  9
$USERR3
 40
0.0
  9
$USERR4
 40
0.0
  9
$USERR5
 40
0.0
  9
$WORLDVIEW
 70
     1
  9
$SHADEDGE
 70
     3
  9
$SHADEDIF
 70
    70
  9
$TILEMODE
 70
     1
  9
$MAXACTVP
 70
    64
  9
$PINSBASE
 10
0.0
 20
0.0
 30
0.0
  9
$PLIMCHECK
 70
     0
  9
$PEXTMIN
 10
1.000000000000000E+20
 20
1.000000000000000E+20
 30
1.000000000000000E+20
  9
$PEXTMAX
 10
-1.000000000000000E+20
 20
-1.000000000000000E+20
 30
-1.000000000000000E+20
  9
$PLIMMIN
 10
0.0
 20
0.0
  9
$PLIMMAX
 10
12.0
 20
9.0
  9
$UNITMODE
 70
     0
  9
$VISRETAIN
 70
     1
  9
$PLINEGEN
 70
     0
  9
$PSLTSCALE
 70
     1
  9
$TREEDEPTH
 70
  3020
  9
$CMLSTYLE
  2
Standard
  9
$CMLJUST
 70
     0
  9
$CMLSCALE
 40
1.0
  9
$PROXYGRAPHICS
 70
     1
  9
$MEASUREMENT
 70
     1
  9
$CELWEIGHT
370
    -1
  9
$ENDCAPS
280
     0
  9
$JOINSTYLE
280
     0
  9
$LWDISPLAY
290
     0
  9
$INSUNITS
 70
     4
  9
$HYPERLINKBASE
  1

  9
$STYLESHEET
  1

  9
$XEDIT
290
     1
  9
$CEPSNTYPE
380
     0
  9
$PSTYLEMODE
290
     1
  9
$FINGERPRINTGUID
  2
{12F50282-3ED8-11D3-A8B7-0060B0F84BC6}
  9
$VERSIONGUID
  2
{12F50293-3ED8-11D3-A8B7-0060B0F84BC6}
  9
$EXTNAMES
290
     1
  9
$PSVPSCALE
 40
0.0
  9
$OLESTARTUP
290
     0
  9
$SORTENTS
280
   127
  9
$INDEXCTL
280
     0
  9
$HIDETEXT
280
     0
  9
$XCLIPFRAME
280
     2
  9
$HALOGAP
280
     0
  9
$OBSCOLOR
 70
   257
  9
$OBSLTYPE
280
     0
  9
$INTERSECTIONDISPLAY
280
     0
  9
$INTERSECTIONCOLOR
 70
   257
  9
$DIMASSOC
280
     1
  9
$PROJECTNAME
  1

  9
$CAMERADISPLAY
290
     0
  9
$LENSLENGTH
 40
50.0
  9
$CAMERAHEIGHT
 40
0.0
  9
$STEPSPERSEC
 40
2.0
  9
$STEPSIZE
 40
6.0
  9
$3DDWFPREC
 40
2.0
  9
$PSOLWIDTH
 40
0.25
  9
$PSOLHEIGHT
 40
4.0
  9
$LOFTANG1
 40
1.570796326794896
  9
$LOFTANG2
 40
1.570796326794896
  9
$LOFTMAG1
 40
0.0
  9
$LOFTMAG2
 40
0.0
  9
$LOFTPARAM
 70
     7
  9
$LOFTNORMALS
280
     1
  9
$LATITUDE
 40
37.795
  9
$LONGITUDE
 40
-122.394
  9
$NORTHDIRECTION
 40
0.0
  9
$TIMEZONE
 70
 -8000
  9
$LIGHTGLYPHDISPLAY
280
     1
  9
$TILEMODELIGHTSYNCH
280
     1
  9
$CMATERIAL
347
AB
  9
$SOLIDHIST
280
     0
  9
$SHOWHIST
280
     1
  9
$DWFFRAME
280
     2
  9
$DGNFRAME
280
     0
  9
$REALWORLDSCALE
290
     1
  9
$INTERFERECOLOR
 62
     1
  9
$INTERFEREOBJVS
345
CD
  9
$INTERFEREVPVS
346
CA
  9
$CSHADOW
280
     0
  9
$SHADOWPLANELOCATION
 40
0.0
  0
ENDSEC
  0
SECTION
  2
CLASSES
  0
CLASS
  1
ACDBDICTIONARYWDFLT
  2
AcDbDictionaryWithDefault
  3
ObjectDBX Classes
 90
        0
 91
        1
280
     0
281
     0
  0
CLASS
  1
ACDBPLACEHOLDER
  2
AcDbPlaceHolder
  3
ObjectDBX Classes
 90
        0
 91
        2
280
     0
281
     0
  0
CLASS
  1
LAYOUT
  2
AcDbLayout
  3
ObjectDBX Classes
 90
        0
 91
        3
280
     0
281
     0
  0
CLASS
  1
MATERIAL
  2
AcDbMaterial
  3
ObjectDBX Classes
 90
     1153
 91
        3
280
     0
281
     0
  0
CLASS
  1
VISUALSTYLE
  2
AcDbVisualStyle
  3
ObjectDBX Classes
 90
     4095
 91
       24
280
     0
281
     0
  0
CLASS
  1
TABLESTYLE
  2
AcDbTableStyle
  3
ObjectDBX Classes
 90
     4095
 91
        1
280
     0
281
     0
  0
CLASS
  1
SCALE
  2
AcDbScale
  3
ObjectDBX Classes
 90
     1153
 91
       17
280
     0
281
     0
  0
CLASS
  1
MLEADERSTYLE
  2
AcDbMLeaderStyle
  3
ACDB_MLEADERSTYLE_CLASS
 90
     4095
 91
        1
280
     0
281
     0
  0
CLASS
  1
ACDBSECTIONVIEWSTYLE
  2
AcDbSectionViewStyle
  3
ObjectDBX Classes
 90
     1025
 91
        1
280
     0
281
     0
  0
CLASS
  1
ACDBDETAILVIEWSTYLE
  2
AcDbDetailViewStyle
  3
ObjectDBX Classes
 90
     1025
 91
        1
280
     0
281
     0
  0
CLASS
  1
MESH
  2
AcDbSubDMesh
  3
ObjectDBX Classes
 90
        0
 91
        1
280
     0
281
     1
  0
CLASS
  1
DICTIONARYVAR
  2
AcDbDictionaryVar
  3
ObjectDBX Classes
 90
        0
 91
        9
280
     0
281
     0
  0
CLASS
  1
CELLSTYLEMAP
  2
AcDbCellStyleMap
  3
ObjectDBX Classes
 90
     1152
 91
        1
280
     0
281
     0
  0
ENDSEC
  0
SECTION
  2
TABLES
  0
TABLE
  2
VPORT
  5
8
330
0
100
AcDbSymbolTable
 70
     1
  0
VPORT
  5
A8
330
8
100
AcDbSymbolTableRecord
100
AcDbViewportTableRecord
  2
*Active
 70
     0
 10
0.0
 20
0.0
 11
1.0
 21
1.0
 12
-0.0000188817884919
 22
-17.96297454833984
 13
0.0
 23
0.0
 14
0.5
 24
0.5
 15
0.5
 25
0.5
 16
-1.0
 26
-1.0
 36
1.0
 17
0.0
 27
0.0
 37
0.0
 40
1088.000184985755
 41
1.662004468022168
 42
50.0
 43
0.0
 44
0.0
 50
0.0
 51
0.0
 71
     0
 72
   100
 73
     1
 74
     3
 75
     0
 76
     0
 77
     0
 78
     0
281
     0
 65
     1
110
0.0
120
0.0
130
0.0
111
1.0
121
0.0
131
0.0
112
0.0
122
1.0
132
0.0
 79
     0
146
0.0
348
C9
 60
     3
 61
     5
292
     1
282
     1
141
0.0
142
0.0
 63
   250
421
  3355443
  0
ENDTAB
  0
TABLE
  2
LTYPE
  5
5
330
0
100
AcDbSymbolTable
 70
     1
  0
LTYPE
  5
14
330
5
100
AcDbSymbolTableRecord
100
AcDbLinetypeTableRecord
  2
ByBlock
 70
     0
  3

 72
    65
 73
     0
 40
0.0
  0
LTYPE
  5
15
330
5
100
AcDbSymbolTableRecord
100
AcDbLinetypeTableRecord
  2
ByLayer
 70
     0
  3

 72
    65
 73
     0
 40
0.0
  0
LTYPE
  5
16
330
5
100
AcDbSymbolTableRecord
100
AcDbLinetypeTableRecord
  2
Continuous
 70
     0
  3
Solid line
 72
    65
 73
     0
 40
0.0
  0
ENDTAB
  0
TABLE
  2
LAYER
  5
2
330
0
100
AcDbSymbolTable
 70
     3
  0
LAYER
  5
10
330
2
100
AcDbSymbolTableRecord
100
AcDbLayerTableRecord
  2
0
 70
     0
 62
     7
  6
Continuous
370
    -3
390
F
347
BB
  0
LAYER
  5
2B
330
2
100
AcDbSymbolTableRecord
100
AcDbLayerTableRecord
  2
ASHADE
 70
     4
 62
     7
  6
Continuous
370
    -3
390
2D
347
BB
  0
LAYER
  5
F8
330
2
100
AcDbSymbolTableRecord
100
AcDbLayerTableRecord
  2
OracDecor_cornice_mouldings
 70
     0
 62
    61
420
 14083225
  6
Continuous
370
    -3
390
F
347
BB
  0
ENDTAB
  0
TABLE
  2
STYLE
  5
3
330
0
100
AcDbSymbolTable
 70
     2
  0
STYLE
  5
11
330
3
100
AcDbSymbolTableRecord
100
AcDbTextStyleTableRecord
  2
Standard
 70
     0
 40
0.0
 41
1.0
 50
0.0
 71
     0
 42
0.2
  3
txt
  4

  0
STYLE
  5
2C
330
3
100
AcDbSymbolTableRecord
100
AcDbTextStyleTableRecord
  2
ASHADE
 70
     0
 40
0.2
 41
1.0
 50
0.0
 71
     0
 42
0.2
  3
simplex
  4

  0
ENDTAB
  0
TABLE
  2
VIEW
  5
6
330
0
100
AcDbSymbolTable
 70
     0
  0
ENDTAB
  0
TABLE
  2
UCS
  5
7
330
0
100
AcDbSymbolTable
 70
     0
  0
ENDTAB
  0
TABLE
  2
APPID
  5
9
330
0
100
AcDbSymbolTable
 70
     6
  0
APPID
  5
12
330
9
100
AcDbSymbolTableRecord
100
AcDbRegAppTableRecord
  2
ACAD
 70
     0
  0
APPID
  5
8F
330
9
100
AcDbSymbolTableRecord
100
AcDbRegAppTableRecord
  2
AVE_RENDER
 70
     0
  0
APPID
  5
90
330
9
100
AcDbSymbolTableRecord
100
AcDbRegAppTableRecord
  2
AVE_ENTITY_MATERIAL
 70
     0
  0
APPID
  5
9C
330
9
100
AcDbSymbolTableRecord
100
AcDbRegAppTableRecord
  2
AVE_FINISH
 70
     0
  0
APPID
  5
9D
330
9
100
AcDbSymbolTableRecord
100
AcDbRegAppTableRecord
  2
AVE_MATERIAL
 70
     0
  0
APPID
  5
9E
330
9
100
AcDbSymbolTableRecord
100
AcDbRegAppTableRecord
  2
AVE_GLOBAL
 70
     0
  0
ENDTAB
  0
TABLE
  2
DIMSTYLE
  5
A
330
0
100
AcDbSymbolTable
 70
     1
100
AcDbDimStyleTable
 71
     0
  0
DIMSTYLE
105
27
330
A
100
AcDbSymbolTableRecord
100
AcDbDimStyleTableRecord
  2
Standard
 70
     0
340
11
  0
ENDTAB
  0
TABLE
  2
BLOCK_RECORD
  5
1
330
0
100
AcDbSymbolTable
 70
     6
  0
BLOCK_RECORD
  5
1F
330
1
100
AcDbSymbolTableRecord
100
AcDbBlockTableRecord
  2
*Model_Space
340
22
 70
     0
280
     1
281
     0
  0
BLOCK_RECORD
  5
1B
330
1
100
AcDbSymbolTableRecord
100
AcDbBlockTableRecord
  2
*Paper_Space
340
1E
 70
     0
280
     1
281
     0
  0
BLOCK_RECORD
  5
23
330
1
100
AcDbSymbolTableRecord
100
AcDbBlockTableRecord
  2
*Paper_Space0
340
26
 70
     0
280
     1
281
     0
  0
BLOCK_RECORD
  5
2E
330
1
100
AcDbSymbolTableRecord
100
AcDbBlockTableRecord
  2
direct
340
0
 70
     0
280
     1
281
     0
  0
BLOCK_RECORD
  5
42
330
1
100
AcDbSymbolTableRecord
100
AcDbBlockTableRecord
  2
overhead
340
0
 70
     0
280
     1
281
     0
  0
BLOCK_RECORD
  5
5F
330
1
100
AcDbSymbolTableRecord
100
AcDbBlockTableRecord
  2
sh_spot
340
0
 70
     0
280
     1
281
     0
  0
BLOCK_RECORD
  5
91
330
1
100
AcDbSymbolTableRecord
100
AcDbBlockTableRecord
  2
AVE_RENDER
340
0
102
{BLKREFS
331
94
331
95
331
96
331
97
331
98
331
99
331
9A
331
9B
102
}
 70
     0
280
     1
281
     0
  0
BLOCK_RECORD
  5
9F
330
1
100
AcDbSymbolTableRecord
100
AcDbBlockTableRecord
  2
AVE_GLOBAL
340
0
102
{BLKREFS
331
A2
102
}
 70
     0
280
     1
281
     0
  0
ENDTAB
  0
ENDSEC
  0
SECTION
  2
BLOCKS
  0
BLOCK
  5
20
330
1F
100
AcDbEntity
  8
0
100
AcDbBlockBegin
  2
*Model_Space
 70
     0
 10
0.0
 20
0.0
 30
0.0
  3
*Model_Space
  1

  0
ENDBLK
  5
21
330
1F
100
AcDbEntity
  8
0
100
AcDbBlockEnd
  0
BLOCK
  5
1C
330
1B
100
AcDbEntity
 67
     1
  8
0
100
AcDbBlockBegin
  2
*Paper_Space
 70
     0
 10
0.0
 20
0.0
 30
0.0
  3
*Paper_Space
  1

  0
ENDBLK
  5
1D
330
1B
100
AcDbEntity
 67
     1
  8
0
100
AcDbBlockEnd
  0
BLOCK
  5
24
330
23
100
AcDbEntity
 67
     1
  8
0
100
AcDbBlockBegin
  2
*Paper_Space0
 70
     0
 10
0.0
 20
0.0
 30
0.0
  3
*Paper_Space0
  1

  0
ENDBLK
  5
25
330
23
100
AcDbEntity
 67
     1
  8
0
100
AcDbBlockEnd
  0
BLOCK
  5
40
330
2E
100
AcDbEntity
  8
0
100
AcDbBlockBegin
  2
direct
 70
     2
 10
0.0
 20
0.0
 30
0.0
  3
direct
  1

  0
ATTDEF
  5
2F
330
2E
100
AcDbEntity
  8
ASHADE
  6
Continuous
 62
     1
100
AcDbText
 10
0.0
 20
-0.1
 30
0.0
 40
0.2
  1

  7
ASHADE
 72
     1
 11
0.0
 21
-0.1
 31
0.0
100
AcDbAttributeDefinition
280
     0
  3
Light Name
  2
SNAME
 70
     0
280
     0
  0
ARC
  5
30
330
2E
100
AcDbEntity
  8
ASHADE
  6
Continuous
 62
     7
100
AcDbCircle
 10
0.0
 20
0.0
 30
0.0
 40
0.3
100
AcDbArc
 50
205.6792886194569
 51
334.3207113805431
  0
ARC
  5
31
330
2E
100
AcDbEntity
  8
ASHADE
  6
Continuous
 62
     7
100
AcDbCircle
 10
0.0
 20
0.0
 30
0.0
 40
0.3
100
AcDbArc
 50
25.67928861945685
 51
154.3207113805431
  0
LINE
  5
32
330
2E
100
AcDbEntity
  8
ASHADE
  6
Continuous
 62
     7
100
AcDbLine
 10
-0.21
 20
0.2142428528562855
 30
0.0
 11
-0.21
 21
0.5
 31
0.0
  0
LINE
  5
33
330
2E
100
AcDbEntity
  8
ASHADE
  6
Continuous
 62
     7
100
AcDbLine
 10
-0.11
 20
0.2791057147390572
 30
0.0
 11
-0.11
 21
0.5
 31
0.0
  0
LINE
  5
34
330
2E
100
AcDbEntity
  8
ASHADE
  6
Continuous
 62
     7
100
AcDbLine
 10
0.21
 20
0.2142428528562855
 30
0.0
 11
0.21
 21
0.5
 31
0.0
  0
ATTDEF
  5
35
330
2E
100
AcDbEntity
  8
ASHADE
  6
Continuous
 62
     7
100
AcDbText
 10
0.0
 20
0.25
 30
0.0
 40
0.01
  1

100
AcDbAttributeDefinition
280
     0
  3
Look-at Y
  2
LAY
 70
     1
280
     0
  0
ATTDEF
  5
36
330
2E
100
AcDbEntity
  8
ASHADE
  6
Continuous
 62
     7
100
AcDbText
 10
0.0
 20
0.22
 30
0.0
 40
0.01
  1
1
100
AcDbAttributeDefinition
280
     0
  3
Light Intensity
  2
INTENSITY
 70
     1
280
     0
  0
ATTDEF
  5
37
330
2E
100
AcDbEntity
  8
ASHADE
  6
Continuous
 62
     7
100
AcDbText
 10
0.0
 20
0.16
 30
0.0
 40
0.01
  1
-1
100
AcDbAttributeDefinition
280
     0
  3
*not used*
  2
BEAMD
 70
     1
280
     0
  0
ATTDEF
  5
38
330
2E
100
AcDbEntity
  8
ASHADE
  6
Continuous
 62
     7
100
AcDbText
 10
0.0
 20
0.175
 30
0.0
 40
0.01
  1
-1
100
AcDbAttributeDefinition
280
     0
  3
*not used*
  2
CONED
 70
     1
280
     0
  0
ATTDEF
  5
39
330
2E
100
AcDbEntity
  8
ASHADE
  6
Continuous
 62
     7
100
AcDbText
 10
0.0
 20
0.19
 30
0.0
 40
0.01
  1
0
100
AcDbAttributeDefinition
280
     0
  3
Depth Map Size
  2
CONEA
 70
     1
280
     0
  0
ATTDEF
  5
3A
330
2E
100
AcDbEntity
  8
ASHADE
  6
Continuous
 62
     7
100
AcDbText
 10
0.0
 20
0.2050000000000001
 30
0.0
 40
0.01
  1
1,1,1
100
AcDbAttributeDefinition
280
     0
  3
Light Color (RGB)
  2
COLOR
 70
     1
280
     0
  0
ATTDEF
  5
3B
330
2E
100
AcDbEntity
  8
ASHADE
  6
Continuous
 62
     7
100
AcDbText
 10
0.0
 20
0.235
 30
0.0
 40
0.01
  1

100
AcDbAttributeDefinition
280
     0
  3
Look-at Z
  2
LAZ
 70
     1
280
     0
  0
LINE
  5
3C
330
2E
100
AcDbEntity
  8
ASHADE
  6
Continuous
 62
     7
100
AcDbLine
 10
0.0
 20
0.3
 30
0.0
 11
0.0
 21
0.5
 31
0.0
  0
LINE
  5
3D
330
2E
100
AcDbEntity
  8
ASHADE
  6
Continuous
 62
     7
100
AcDbLine
 10
0.11
 20
0.2791057147390572
 30
0.0
 11
0.11
 21
0.5
 31
0.0
  0
ATTDEF
  5
3E
330
2E
100
AcDbEntity
  8
ASHADE
  6
Continuous
 62
     7
100
AcDbText
 10
0.0
 20
0.265
 30
0.0
 40
0.01
  1

100
AcDbAttributeDefinition
280
     0
  3
Look-at X
  2
LAX
 70
     1
280
     0
  0
ATTDEF
  5
3F
330
2E
100
AcDbEntity
  8
ASHADE
  6
Continuous
 62
     7
100
AcDbText
 10
0.0
 20
0.28
 30
0.0
 40
0.01
  1

100
AcDbAttributeDefinition
280
     0
  3

  2
GNAME
 70
     1
280
     0
  0
ENDBLK
  5
41
330
2E
100
AcDbEntity
  8
0
100
AcDbBlockEnd
  0
BLOCK
  5
5D
330
42
100
AcDbEntity
  8
0
100
AcDbBlockBegin
  2
overhead
 70
     2
 10
0.0
 20
0.0
 30
0.0
  3
overhead
  1

  0
ATTDEF
  5
43
330
42
100
AcDbEntity
  8
ASHADE
  6
Continuous
 62
     1
100
AcDbText
 10
0.0
 20
-0.1
 30
0.0
 40
0.2
  1

  7
ASHADE
 72
     1
 11
0.0
 21
-0.1
 31
0.0
100
AcDbAttributeDefinition
280
     0
  3
Light Name
  2
SNAME
 70
     0
280
     0
  0
ARC
  5
44
330
42
100
AcDbEntity
  8
ASHADE
  6
Continuous
 62
     7
100
AcDbCircle
 10
0.0
 20
0.0
 30
0.0
 40
0.3
100
AcDbArc
 50
205.6792886194569
 51
334.3207113805431
  0
LINE
  5
45
330
42
100
AcDbEntity
  8
ASHADE
  6
Continuous
 62
     7
100
AcDbLine
 10
-0.2041413561583015
 20
-0.2198324514393848
 30
0.0
 11
-0.2721884748777353
 21
-0.2931099352525131
 31
0.0
  0
LINE
  5
46
330
42
100
AcDbEntity
  8
ASHADE
  6
Continuous
 62
     7
100
AcDbLine
 10
-0.1096591641591904
 20
-0.2792398032442862
 30
0.0
 11
-0.1279356915190555
 21
-0.3257797704516673
 31
0.0
  0
LINE
  5
47
330
42
100
AcDbEntity
  8
ASHADE
  6
Continuous
 62
     7
100
AcDbLine
 10
0.0
 20
-0.2999999999999999
 30
0.0
 11
0.0
 21
-0.4
 31
0.0
  0
LINE
  5
48
330
42
100
AcDbEntity
  8
ASHADE
  6
Continuous
 62
     7
100
AcDbLine
 10
0.1096591641591904
 20
-0.2792398032442862
 30
0.0
 11
0.1279356915190555
 21
-0.3257797704516673
 31
0.0
  0
LINE
  5
49
330
42
100
AcDbEntity
  8
ASHADE
  6
Continuous
 62
     7
100
AcDbLine
 10
0.2041413561583015
 20
-0.2198324514393848
 30
0.0
 11
0.2721884748777353
 21
-0.2931099352525131
 31
0.0
  0
ARC
  5
4A
330
42
100
AcDbEntity
  8
ASHADE
  6
Continuous
 62
     7
100
AcDbCircle
 10
0.0
 20
0.0
 30
0.0
 40
0.3
100
AcDbArc
 50
25.67928861945685
 51
154.3207113805431
  0
LINE
  5
4B
330
42
100
AcDbEntity
  8
ASHADE
  6
Continuous
 62
     7
100
AcDbLine
 10
-0.2703701166919155
 20
0.13
 30
0.0
 11
-0.3154318028072347
 21
0.1516666666666666
 31
0.0
  0
LINE
  5
4C
330
42
100
AcDbEntity
  8
ASHADE
  6
Continuous
 62
     7
100
AcDbLine
 10
-0.2703701166919155
 20
-0.13
 30
0.0
 11
-0.3154318028072347
 21
-0.1516666666666666
 31
0.0
  0
LINE
  5
4D
330
42
100
AcDbEntity
  8
ASHADE
  6
Continuous
 62
     7
100
AcDbLine
 10
-0.2041413561583015
 20
0.2198324514393849
 30
0.0
 11
-0.2721884748777353
 21
0.2931099352525131
 31
0.0
  0
LINE
  5
4E
330
42
100
AcDbEntity
  8
ASHADE
  6
Continuous
 62
     7
100
AcDbLine
 10
-0.1096591641591904
 20
0.2792398032442862
 30
0.0
 11
-0.1279356915190555
 21
0.3257797704516674
 31
0.0
  0
LINE
  5
4F
330
42
100
AcDbEntity
  8
ASHADE
  6
Continuous
 62
     7
100
AcDbLine
 10
0.2703701166919155
 20
-0.13
 30
0.0
 11
0.3154318028072347
 21
-0.1516666666666666
 31
0.0
  0
LINE
  5
50
330
42
100
AcDbEntity
  8
ASHADE
  6
Continuous
 62
     7
100
AcDbLine
 10
0.2703701166919155
 20
0.13
 30
0.0
 11
0.3154318028072347
 21
0.1516666666666666
 31
0.0
  0
LINE
  5
51
330
42
100
AcDbEntity
  8
ASHADE
  6
Continuous
 62
     7
100
AcDbLine
 10
0.0
 20
0.3
 30
0.0
 11
0.0
 21
0.4
 31
0.0
  0
ATTDEF
  5
52
330
42
100
AcDbEntity
  8
ASHADE
  6
Continuous
 62
     7
100
AcDbText
 10
0.0
 20
0.22
 30
0.0
 40
0.01
  1
1
100
AcDbAttributeDefinition
280
     0
  3
Light Intensity
  2
INTENSITY
 70
     1
280
     0
  0
ATTDEF
  5
53
330
42
100
AcDbEntity
  8
ASHADE
  6
Continuous
 62
     7
100
AcDbText
 10
0.0
 20
0.16
 30
0.0
 40
0.01
  1
-1
100
AcDbAttributeDefinition
280
     0
  3
*not used*
  2
BEAMD
 70
     1
280
     0
  0
ATTDEF
  5
54
330
42
100
AcDbEntity
  8
ASHADE
  6
Continuous
 62
     7
100
AcDbText
 10
0.0
 20
0.175
 30
0.0
 40
0.01
  1
-1
100
AcDbAttributeDefinition
280
     0
  3
*not used*
  2
CONED
 70
     1
280
     0
  0
ATTDEF
  5
55
330
42
100
AcDbEntity
  8
ASHADE
  6
Continuous
 62
     7
100
AcDbText
 10
0.0
 20
0.19
 30
0.0
 40
0.01
  1
0
100
AcDbAttributeDefinition
280
     0
  3
Depth Map Size
  2
CONEA
 70
     1
280
     0
  0
ATTDEF
  5
56
330
42
100
AcDbEntity
  8
ASHADE
  6
Continuous
 62
     7
100
AcDbText
 10
0.0
 20
0.2050000000000001
 30
0.0
 40
0.01
  1
1,1,1
100
AcDbAttributeDefinition
280
     0
  3
Light Color (RGB)
  2
COLOR
 70
     1
280
     0
  0
ATTDEF
  5
57
330
42
100
AcDbEntity
  8
ASHADE
  6
Continuous
 62
     7
100
AcDbText
 10
0.0
 20
0.235
 30
0.0
 40
0.01
  1

100
AcDbAttributeDefinition
280
     0
  3
Look-at Z
  2
LAZ
 70
     1
280
     0
  0
ATTDEF
  5
58
330
42
100
AcDbEntity
  8
ASHADE
  6
Continuous
 62
     7
100
AcDbText
 10
0.0
 20
0.25
 30
0.0
 40
0.01
  1

100
AcDbAttributeDefinition
280
     0
  3
Look-at Y
  2
LAY
 70
     1
280
     0
  0
ATTDEF
  5
59
330
42
100
AcDbEntity
  8
ASHADE
  6
Continuous
 62
     7
100
AcDbText
 10
0.0
 20
0.265
 30
0.0
 40
0.01
  1

100
AcDbAttributeDefinition
280
     0
  3
Look-at X
  2
LAX
 70
     1
280
     0
  0
ATTDEF
  5
5A
330
42
100
AcDbEntity
  8
ASHADE
  6
Continuous
 62
     7
100
AcDbText
 10
0.0
 20
0.28
 30
0.0
 40
0.01
  1

100
AcDbAttributeDefinition
280
     0
  3

  2
GNAME
 70
     1
280
     0
  0
LINE
  5
5B
330
42
100
AcDbEntity
  8
ASHADE
  6
Continuous
 62
     7
100
AcDbLine
 10
0.1096591641591904
 20
0.2792398032442862
 30
0.0
 11
0.1279356915190555
 21
0.3257797704516674
 31
0.0
  0
LINE
  5
5C
330
42
100
AcDbEntity
  8
ASHADE
  6
Continuous
 62
     7
100
AcDbLine
 10
0.2041413561583015
 20
0.2198324514393849
 30
0.0
 11
0.2721884748777353
 21
0.2931099352525131
 31
0.0
  0
ENDBLK
  5
5E
330
42
100
AcDbEntity
  8
0
100
AcDbBlockEnd
  0
BLOCK
  5
85
330
5F
100
AcDbEntity
  8
0
100
AcDbBlockBegin
  2
sh_spot
 70
     2
 10
0.0
 20
0.0
 30
0.0
  3
sh_spot
  1

  0
LINE
  5
60
330
5F
100
AcDbEntity
  8
ASHADE
  6
Continuous
 62
     7
100
AcDbLine
 10
0.25
 20
0.26
 30
0.0
 11
-0.25
 21
0.26
 31
0.0
  0
LINE
  5
61
330
5F
100
AcDbEntity
  8
ASHADE
  6
Continuous
 62
     7
100
AcDbLine
 10
-0.25
 20
-0.3399999999999999
 30
0.0
 11
0.25
 21
-0.3399999999999999
 31
0.0
  0
ATTDEF
  5
62
330
5F
100
AcDbEntity
  8
ASHADE
  6
Continuous
 62
     1
100
AcDbText
 10
0.0
 20
-0.1
 30
0.0
 40
0.2
  1

  7
ASHADE
 72
     1
 11
0.0
 21
-0.1
 31
0.0
100
AcDbAttributeDefinition
280
     0
  3
Light Name
  2
SNAME
 70
     0
280
     0
  0
LINE
  5
63
330
5F
100
AcDbEntity
  8
ASHADE
  6
Continuous
 62
     7
100
AcDbLine
 10
-0.25
 20
-0.13
 30
0.0
 11
-0.25
 21
-0.3399999999999999
 31
0.0
  0
LINE
  5
64
330
5F
100
AcDbEntity
  8
ASHADE
  6
Continuous
 62
     7
100
AcDbLine
 10
-0.25
 20
-0.18
 30
0.0
 11
-0.29
 21
-0.18
 31
0.0
  0
LINE
  5
65
330
5F
100
AcDbEntity
  8
ASHADE
  6
Continuous
 62
     7
100
AcDbLine
 10
-0.29
 20
-0.22
 30
0.0
 11
-0.25
 21
-0.22
 31
0.0
  0
LINE
  5
66
330
5F
100
AcDbEntity
  8
ASHADE
  6
Continuous
 62
     7
100
AcDbLine
 10
-0.29
 20
-0.18
 30
0.0
 11
-0.29
 21
-0.22
 31
0.0
  0
LINE
  5
67
330
5F
100
AcDbEntity
  8
ASHADE
  6
Continuous
 62
     7
100
AcDbLine
 10
-0.1045454545454545
 20
0.26
 30
0.0
 11
-0.15
 21
0.46
 31
0.0
  0
LINE
  5
68
330
5F
100
AcDbEntity
  8
ASHADE
  6
Continuous
 62
     7
100
AcDbLine
 10
-0.21
 20
0.26
 30
0.0
 11
-0.301304347826087
 21
0.46
 31
0.0
  0
LINE
  5
69
330
5F
100
AcDbEntity
  8
ASHADE
  6
Continuous
 62
     7
100
AcDbLine
 10
-0.25
 20
0.26
 30
0.0
 11
-0.25
 21
0.13
 31
0.0
  0
LINE
  5
6A
330
5F
100
AcDbEntity
  8
ASHADE
  6
Continuous
 62
     7
100
AcDbLine
 10
-0.25
 20
0.22
 30
0.0
 11
-0.29
 21
0.22
 31
0.0
  0
LINE
  5
6B
330
5F
100
AcDbEntity
  8
ASHADE
  6
Continuous
 62
     7
100
AcDbLine
 10
-0.29
 20
0.1799999999999999
 30
0.0
 11
-0.25
 21
0.1799999999999999
 31
0.0
  0
LINE
  5
6C
330
5F
100
AcDbEntity
  8
ASHADE
  6
Continuous
 62
     7
100
AcDbLine
 10
-0.29
 20
0.22
 30
0.0
 11
-0.29
 21
0.1799999999999999
 31
0.0
  0
ATTDEF
  5
6D
330
5F
100
AcDbEntity
  8
ASHADE
  6
Continuous
 62
     7
100
AcDbText
 10
0.0
 20
-0.24
 30
0.0
 40
0.01
  1
0
100
AcDbAttributeDefinition
280
     0
  3
Depth Map Size
  2
ZSIZE
 70
     1
280
     0
  0
ATTDEF
  5
6E
330
5F
100
AcDbEntity
  8
ASHADE
  6
Continuous
 62
     7
100
AcDbText
 10
0.0
 20
-0.3300000000000001
 30
0.0
 40
0.01
  1
0,0,0
100
AcDbAttributeDefinition
280
     0
  3
Look-from XYZ
  2
LFXYZ
 70
     1
280
     0
  0
ATTDEF
  5
6F
330
5F
100
AcDbEntity
  8
ASHADE
  6
Continuous
 62
     7
100
AcDbText
 10
0.0
 20
-0.315
 30
0.0
 40
0.01
  1
0.0
100
AcDbAttributeDefinition
280
     0
  3
Beam Distribution
  2
BEAMDI
 70
     1
280
     0
  0
ATTDEF
  5
70
330
5F
100
AcDbEntity
  8
ASHADE
  6
Continuous
 62
     7
100
AcDbText
 10
0.0
 20
-0.3
 30
0.0
 40
0.01
  1
0.0
100
AcDbAttributeDefinition
280
     0
  3
Cone Delta
  2
CONEDE
 70
     1
280
     0
  0
ATTDEF
  5
71
330
5F
100
AcDbEntity
  8
ASHADE
  6
Continuous
 62
     7
100
AcDbText
 10
0.0
 20
-0.2850000000000001
 30
0.0
 40
0.01
  1
10.0
100
AcDbAttributeDefinition
280
     0
  3
Cone Angle
  2
CONEAN
 70
     1
280
     0
  0
ATTDEF
  5
72
330
5F
100
AcDbEntity
  8
ASHADE
  6
Continuous
 62
     7
100
AcDbText
 10
0.0
 20
-0.27
 30
0.0
 40
0.01
  1
-1
100
AcDbAttributeDefinition
280
     0
  3
*not used*
  2
BIASMAX
 70
     1
280
     0
  0
ATTDEF
  5
73
330
5F
100
AcDbEntity
  8
ASHADE
  6
Continuous
 62
     7
100
AcDbText
 10
0.0
 20
-0.255
 30
0.0
 40
0.01
  1
-1
100
AcDbAttributeDefinition
280
     0
  3
*not used*
  2
BIASMIN
 70
     1
280
     0
  0
ATTDEF
  5
74
330
5F
100
AcDbEntity
  8
ASHADE
  6
Continuous
 62
     7
100
AcDbText
 10
0.0
 20
-0.225
 30
0.0
 40
0.01
  1
1,1,1
100
AcDbAttributeDefinition
280
     0
  3
Light Color (RGB)
  2
COLOR
 70
     1
280
     0
  0
ATTDEF
  5
75
330
5F
100
AcDbEntity
  8
ASHADE
  6
Continuous
 62
     7
100
AcDbText
 10
0.0
 20
-0.21
 30
0.0
 40
0.01
  1
1
100
AcDbAttributeDefinition
280
     0
  3
Light Intensity
  2
INTENSITY
 70
     1
280
     0
  0
ATTDEF
  5
76
330
5F
100
AcDbEntity
  8
ASHADE
  6
Continuous
 62
     7
100
AcDbText
 10
0.0
 20
-0.15
 30
0.0
 40
0.01
  1

100
AcDbAttributeDefinition
280
     0
  3

  2
GNAME
 70
     1
280
     0
  0
ATTDEF
  5
77
330
5F
100
AcDbEntity
  8
ASHADE
  6
Continuous
 62
     7
100
AcDbText
 10
0.0
 20
-0.195
 30
0.0
 40
0.01
  1

100
AcDbAttributeDefinition
280
     0
  3
Look-at Z
  2
LAZ
 70
     1
280
     0
  0
ATTDEF
  5
78
330
5F
100
AcDbEntity
  8
ASHADE
  6
Continuous
 62
     7
100
AcDbText
 10
0.0
 20
-0.18
 30
0.0
 40
0.01
  1

100
AcDbAttributeDefinition
280
     0
  3
Look-at Y
  2
LAY
 70
     1
280
     0
  0
ATTDEF
  5
79
330
5F
100
AcDbEntity
  8
ASHADE
  6
Continuous
 62
     7
100
AcDbText
 10
0.0
 20
-0.165
 30
0.0
 40
0.01
  1

100
AcDbAttributeDefinition
280
     0
  3
Look-at X
  2
LAX
 70
     1
280
     0
  0
LINE
  5
7A
330
5F
100
AcDbEntity
  8
ASHADE
  6
Continuous
 62
     7
100
AcDbLine
 10
0.25
 20
-0.3399999999999999
 30
0.0
 11
0.25
 21
-0.13
 31
0.0
  0
LINE
  5
7B
330
5F
100
AcDbEntity
  8
ASHADE
  6
Continuous
 62
     7
100
AcDbLine
 10
0.25
 20
-0.18
 30
0.0
 11
0.29
 21
-0.18
 31
0.0
  0
LINE
  5
7C
330
5F
100
AcDbEntity
  8
ASHADE
  6
Continuous
 62
     7
100
AcDbLine
 10
0.29
 20
-0.22
 30
0.0
 11
0.25
 21
-0.22
 31
0.0
  0
LINE
  5
7D
330
5F
100
AcDbEntity
  8
ASHADE
  6
Continuous
 62
     7
100
AcDbLine
 10
0.29
 20
-0.18
 30
0.0
 11
0.29
 21
-0.22
 31
0.0
  0
LINE
  5
7E
330
5F
100
AcDbEntity
  8
ASHADE
  6
Continuous
 62
     7
100
AcDbLine
 10
0.21
 20
0.26
 30
0.0
 11
0.301304347826087
 21
0.46
 31
0.0
  0
LINE
  5
7F
330
5F
100
AcDbEntity
  8
ASHADE
  6
Continuous
 62
     7
100
AcDbLine
 10
0.1045454545454545
 20
0.26
 30
0.0
 11
0.15
 21
0.46
 31
0.0
  0
LINE
  5
80
330
5F
100
AcDbEntity
  8
ASHADE
  6
Continuous
 62
     7
100
AcDbLine
 10
0.0
 20
0.26
 30
0.0
 11
0.0
 21
0.46
 31
0.0
  0
LINE
  5
81
330
5F
100
AcDbEntity
  8
ASHADE
  6
Continuous
 62
     7
100
AcDbLine
 10
0.25
 20
0.13
 30
0.0
 11
0.25
 21
0.26
 31
0.0
  0
LINE
  5
82
330
5F
100
AcDbEntity
  8
ASHADE
  6
Continuous
 62
     7
100
AcDbLine
 10
0.25
 20
0.22
 30
0.0
 11
0.29
 21
0.22
 31
0.0
  0
LINE
  5
83
330
5F
100
AcDbEntity
  8
ASHADE
  6
Continuous
 62
     7
100
AcDbLine
 10
0.29
 20
0.1799999999999999
 30
0.0
 11
0.25
 21
0.1799999999999999
 31
0.0
  0
LINE
  5
84
330
5F
100
AcDbEntity
  8
ASHADE
  6
Continuous
 62
     7
100
AcDbLine
 10
0.29
 20
0.22
 30
0.0
 11
0.29
 21
0.1799999999999999
 31
0.0
  0
ENDBLK
  5
86
330
5F
100
AcDbEntity
  8
0
100
AcDbBlockEnd
  0
BLOCK
  5
92
330
91
100
AcDbEntity
  8
ASHADE
100
AcDbBlockBegin
  2
AVE_RENDER
 70
     0
 10
0.0
 20
0.0
 30
0.0
  3
AVE_RENDER
  1
AVE_RENDER
  0
ENDBLK
  5
93
330
91
100
AcDbEntity
  8
0
100
AcDbBlockEnd
  0
BLOCK
  5
A0
330
9F
100
AcDbEntity
  8
ASHADE
100
AcDbBlockBegin
  2
AVE_GLOBAL
 70
     0
 10
0.0
 20
0.0
 30
0.0
  3
AVE_GLOBAL
  1
AVE_GLOBAL
  0
ENDBLK
  5
A1
330
9F
100
AcDbEntity
  8
0
100
AcDbBlockEnd
  0
ENDSEC
  0
SECTION
  2
ENTITIES
  0
INSERT
  5
94
330
1F
100
AcDbEntity
  8
ASHADE
 62
     1
100
AcDbBlockReference
  2
AVE_RENDER
 10
0.0
 20
0.0
 30
0.0
1001
AVE_RENDER
1002
{
1070
     7
1000
Pref
1070
    30
1070
    20
1070
     1
1070
     0
1000

1070
    10
1070
     1
1070
    10
1040
1.0
1070
     1
1040
0.3
1040
0.7
1040
0.0
1040
10.0
1010
-1.0
1020
-1.0
1030
-1.0
1040
0.3
1070
    49
1070
     0
1070
     0
1010
1.0
1020
1.0
1030
1.0
1040
45.0
1070
     1
1070
     0
1000
WCS
1040
0.0
1070
     0
1040
10.0
1002
}
  0
INSERT
  5
95
330
1F
100
AcDbEntity
  8
ASHADE
 62
     3
100
AcDbBlockReference
  2
AVE_RENDER
 10
0.0
 20
0.0
 30
0.0
1001
AVE_RENDER
1002
{
1070
     0
1000
Full Opt
1070
     0
1070
     1
1070
     1
1070
     1
1070
     0
1070
     0
1070
     0
1070
     1
1070
     1
1040
0.0001
1040
0.0001
1002
}
  0
INSERT
  5
96
330
1F
100
AcDbEntity
  8
ASHADE
 62
     4
100
AcDbBlockReference
  2
AVE_RENDER
 10
0.0
 20
0.0
 30
0.0
1001
AVE_RENDER
1002
{
1070
     0
1000
Quick Opt
1070
     0
1070
     1
1070
     1
1070
     1
1070
     0
1070
     0
1070
     1
1002
}
  0
INSERT
  5
97
330
1F
100
AcDbEntity
  8
ASHADE
 62
     5
100
AcDbBlockReference
  2
AVE_RENDER
 10
0.0
 20
0.0
 30
0.0
1001
AVE_RENDER
1002
{
1070
     1
1000
Scanl Opt
1070
     2
1070
     0
1070
     2
1040
2.0
1040
4.0
1070
     0
1070
     1
1070
     0
1040
0.03
1002
}
  0
INSERT
  5
98
330
1F
100
AcDbEntity
  8
ASHADE
 62
     6
100
AcDbBlockReference
  2
AVE_RENDER
 10
0.0
 20
0.0
 30
0.0
1001
AVE_RENDER
1002
{
1070
     2
1000
Raytr Opt
1070
     2
1070
     0
1070
     2
1040
2.0
1040
4.0
1070
     0
1070
     1
1070
     1
1040
0.03
1070
     3
1040
0.03
1002
}
  0
INSERT
  5
99
330
1F
100
AcDbEntity
  8
ASHADE
 62
     7
100
AcDbBlockReference
  2
AVE_RENDER
 10
0.0
 20
0.0
 30
0.0
1001
AVE_RENDER
1002
{
1070
     0
1000
RFile Opt
1070
     1
1070
   640
1070
   480
1070
 10000
1070
     1
1070
     8
1070
     8
1070
     0
1070
     0
1070
     0
1070
     0
1070
     0
1070
     0
1070
     0
1002
}
  0
INSERT
  5
9A
330
1F
100
AcDbEntity
  8
ASHADE
 62
     8
100
AcDbBlockReference
  2
AVE_RENDER
 10
0.0
 20
0.0
 30
0.0
1001
AVE_RENDER
1002
{
1070
     0
1000
Fog Opt
1070
     0
1070
     0
1040
0.0
1040
1.0
1040
0.0
1040
1.0
1010
0.5
1020
0.5
1030
0.5
1002
}
  0
INSERT
  5
9B
330
1F
100
AcDbEntity
  8
ASHADE
 62
     9
100
AcDbBlockReference
  2
AVE_RENDER
 10
0.0
 20
0.0
 30
0.0
1001
AVE_RENDER
1002
{
1070
     0
1000
BG Opt
1070
     0
1070
     1
1010
0.0
1020
0.0
1030
0.0
1010
1.0
1020
0.0
1030
0.0
1010
0.0
1020
1.0
1030
0.0
1010
0.0
1020
0.0
1030
1.0
1040
0.5
1040
0.33
1040
0.0
1000

1070
     1
1000

1070
     1
1070
     1
1040
1.0
1040
1.0
1040
0.0
1040
0.0
1070
     0
1002
}
  0
INSERT
  5
A2
330
1F
100
AcDbEntity
  8
ASHADE
 62
     1
100
AcDbBlockReference
  2
AVE_GLOBAL
 10
0.0
 20
0.0
 30
0.0
1001
AVE_MATERIAL
1002
{
1000
*GLOBAL*
1000
2
1000
Global finish.
1002
{
1002
}
1002
{
1070
    63
1002
{
1002
{
1010
-1.0
1020
-1.0
1030
-1.0
1002
}
1040
0.1000000014901161
1000

1040
0.0
1002
{
1002
}
1040
0.0
1002
{
1002
}
1040
0.0
1002
}
1002
{
1002
{
1010
-1.0
1020
-1.0
1030
-1.0
1002
}
1040
0.6999999880790711
1000

1040
0.0
1002
{
1002
}
1040
0.0
1002
{
1002
}
1040
0.0
1002
}
1002
{
1002
{
1010
-1.0
1020
-1.0
1030
-1.0
1002
}
1040
0.2000000029802322
1000

1040
0.0
1002
{
1002
}
1040
0.0
1002
{
1002
}
1040
0.0
1002
}
1002
{
1070
     0
1002
{
1070
     1
1002
{
1040
1.0
1040
1.0
1000

1040
0.0
1002
{
1002
}
1040
0.0
1002
{
1002
}
1040
0.0
1002
}
1002
}
1040
1.0
1040
0.0
1040
0.0
1002
}
1002
{
1040
1.0
1040
1.0
1000

1040
0.0
1002
{
1002
}
1040
0.0
1002
{
1002
}
1040
0.0
1002
}
1002
{
1040
0.5
1040
1.0
1000

1040
0.0
1002
{
1002
}
1040
0.0
1002
{
1002
}
1040
0.0
1002
}
1002
{
1070
     0
1040
0.0
1002
{
1002
}
1040
1.0
1002
{
1002
}
1040
0.0
1002
}
1002
{
1040
0.0
1002
{
1002
{
1010
0.0
1020
0.0
1030
0.0
1002
}
1040
1.0
1000

1040
0.0
1002
{
1002
}
1040
0.0
1002
{
1002
}
1040
0.0
1002
}
1002
}
1002
{
1002
{
1070
     1
1002
{
1040
0.0
1040
1.0
1000

1040
0.0
1002
{
1002
}
1040
0.0
1002
{
1002
}
1040
0.0
1002
}
1002
}
1040
0.0
1002
{
1002
}
1010
1.0
1020
0.0
1030
0.0
1010
0.0
1020
1.0
1030
0.0
1010
0.0
1020
0.0
1030
1.0
1070
     0
1002
}
1002
{
1002
{
1040
1.0
1040
1.0
1002
{
1070
     1
1002
{
1040
1.0
1040
1.0
1000

1040
0.0
1002
{
1002
}
1040
0.0
1002
{
1002
}
1040
0.0
1002
}
1002
}
1002
}
1070
     0
1040
0.0
1002
{
1002
}
1002
}
1002
{
1002
}
1002
}
1002
{
1071
        3
1070
     3
1070
     0
1002
{
1070
     2
1070
     0
1070
     0
1040
0.0
1002
}
1070
     0
1070
     2
1002
{
1002
}
1002
}
1002
{
1040
8030.0
1040
190.3000030517578
1040
0.3050000071525574
1040
228.0
1040
545.0
1040
14.0
1040
17.39999961853027
1040
0.4560000002384186
1002
}
1002
}
  0
MESH
  5
F9
330
1F
100
AcDbEntity
  8
OracDecor_cornice_mouldings
 62
   151
420
 10140133
160
             21392
310
90530000520200000C00000013000000020000003C00000006000000020000000000000000408FC000000000030046C000000000000000000000000000408FC000000000030046C00000000086BA0DC00C000000130000000A0000003C00000006000000020000000000000000408FC000000000030046C00000000086BA0D
310
C0000000C0FF3F8F4000000080030046C00000000086BA0DC00C00000013000000120000003C0000000600000002000000000000C0FF3F8F4000000080030046C00000000086BA0DC0000000C0FF3F8F4000000080030046C000000000000000000C000000130000001A0000003C0000000600000002000000000000000040
310
8FC000000000030046C00000000000000000000000C0FF3F8F4000000080030046C000000000000000000C00000013000000220000003C00000006000000020000000000000000408FC000000000030046C00000000086BA0DC00000000000408FC000000000BAF845C000000000FAD40EC00C000000130000002A0000003C
310
00000006000000020000000000000000408FC000000000BAF845C000000000FAD40EC0000000C0FF3F8F4000000080BAF845C000000000FAD40EC00C00000013000000320000003C0000000600000002000000000000C0FF3F8F4000000080030046C00000000086BA0DC0000000C0FF3F8F4000000080BAF845C000000000
310
FAD40EC00C000000130000003A0000003C00000006000000020000000000000000408FC000000000BAF845C000000000FAD40EC00000000000408FC0000000801CE745C000000000044B0FC00C00000013000000420000003C00000006000000020000000000000000408FC0000000801CE745C000000000044B0FC0000000
310
C0FF3F8F40000000001DE745C000000000044B0FC00C000000130000004A0000003C0000000600000002000000000000C0FF3F8F4000000080BAF845C000000000FAD40EC0000000C0FF3F8F40000000001DE745C000000000044B0FC00C00000013000000520000003C00000006000000020000000000000000408FC00000
310
00801CE745C000000000044B0FC00000000000408FC000000080947A43C000000000419D11C00C000000130000005A0000003C0000000600000002000000000000E0FF3F8F4000000000A67A43C0000000801D9D11C00000000000408FC000000080947A43C000000000419D11C00C00000013000000620000003C00000006
310
00000002000000000000E0FF3F8F4000000000A67A43C0000000801D9D11C0000000C0FF3F8F40000000001DE745C000000000044B0FC00C000000130000006A0000003C00000006000000020000000000000000408FC000000080F94941C000000000401C15C00000000000408FC000000060050840C000000000C22418C0
310
0C00000013000000720000003C00000006000000020000000000000000408FC000000060050840C000000000C22418C0000000E0FF3F8F40000000C0FB0740C000000080D62418C00C000000130000007A0000003C0000000600000002000000000000E0FF3F8F40000000000B4A41C000000000131C15C0000000E0FF3F8F
310
40000000C0FB0740C000000080D62418C00C00000013000000820000003C00000006000000020000000000000000408FC000000080F94941C000000000401C15C0000000E0FF3F8F40000000000B4A41C000000000131C15C00C000000130000008A0000003C00000006000000020000000000000000408FC00000006001EE
310
3BC000000000E0E91EC00000000000408FC0000000E02A9A39C0000000003CE821C00C00000013000000920000003C00000006000000020000000000000000408FC0000000E02A9A39C0000000003CE821C0000000E0FF3F8F4000000000429A39C0000000201CE821C00C000000130000009A0000003C0000000600000002
310
000000000000E0FF3F8F4000000040EEED3BC000000040F6E91EC0000000E0FF3F8F4000000000429A39C0000000201CE821C00C00000013000000A20000003C00000006000000020000000000000000408FC00000006001EE3BC000000000E0E91EC0000000E0FF3F8F4000000040EEED3BC000000040F6E91EC00C000000
310
13000000AA0000003C00000006000000020000000000000000408FC0000000C017DE35C0000000002CCE26C00000000000408FC0000000007ED133C0000000403A182AC00C00000013000000B20000003C00000006000000020000000000000000408FC0000000007ED133C0000000403A182AC0000000E0FF3F8F40000000
310
007DD133C00000004035182AC00C00000013000000BA0000003C0000000600000002000000000000E0FF3F8F40000000A02DDE35C00000008009CE26C0000000E0FF3F8F40000000007DD133C00000004035182AC00C00000013000000C20000003C00000006000000020000000000000000408FC0000000C017DE35C00000
310
00002CCE26C0000000E0FF3F8F40000000A02DDE35C00000008009CE26C00C00000013000000CA0000003C00000006000000020000000000000000408FC000000020649E30C000000000C52930C00000000000408FC00000006031D72DC0000000C0042B32C00C00000013000000D20000003C000000060000000200000000
310
00000000408FC00000006031D72DC0000000C0042B32C0000000E0FF3F8F400000004011D72DC0000000C0182B32C00C00000013000000DA0000003C0000000600000002000000000000E0FF3F8F4000000080639E30C000000040C22930C0000000E0FF3F8F400000004011D72DC0000000C0182B32C00C00000013000000
310
E20000003C00000006000000020000000000000000408FC000000020649E30C000000000C52930C0000000E0FF3F8F4000000080639E30C000000040C22930C00C00000013000000EA0000003C00000006000000020000000000000000408FC000000040FABE28C00000006020D635C00000000000408FC0000000E04A2C26
310
C0000000A06F2138C00C00000013000000F20000003C00000006000000020000000000000000408FC0000000E04A2C26C0000000A06F2138C0000000E0FF3F8F40000000405A2C26C0000000205B2138C00C00000013000000FA0000003C0000000600000002000000000000E0FF3F8F40000000405A2C26C0000000205B21
310
38C0000000E0FF3F8F40000000C0DCBE28C00000008035D635C00C00000013000000020100003C00000006000000020000000000000000408FC000000040FABE28C00000006020D635C0000000E0FF3F8F40000000C0DCBE28C00000008035D635C00C000000130000000A0100003C00000006000000020000000000000000
310
408FC000000020E99122C0000000809B373CC00000000000408FC000000080A2EB20C00000008023B63EC00C00000013000000120100003C0000000600000002000000000000E0FF3F8F40000000008DEB20C00000000045B63EC00000000000408FC000000080A2EB20C00000008023B63EC00C000000130000001A010000
310
3C0000000600000002000000000000E0FF3F8F40000000008DEB20C00000000045B63EC0000000E0FF3F8F4000000080F79122C0000000C086373CC00C00000013000000220100003C00000006000000020000000000000000408FC000000020E99122C0000000809B373CC0000000E0FF3F8F4000000080F79122C0000000
310
C086373CC00C000000130000002A0100003C00000006000000020000000000000000408FC000000000A1E11DC0000000A0828841C00000000000408FC00000008062661BC00000004027F343C00C00000013000000320100003C00000006000000020000000000000000408FC00000008062661BC00000004027F343C00000
310
00E0FF3F8F400000004068661BC00000004027F343C00C000000130000003A0100003C0000000600000002000000000000E0FF3F8F400000000080E11DC000000080938841C0000000E0FF3F8F400000004068661BC00000004027F343C00C00000013000000420100003C00000006000000020000000000000000408FC000
310
000000A1E11DC0000000A0828841C0000000E0FF3F8F400000000080E11DC000000080938841C00C000000130000004A0100003C00000006000000020000000000000000408FC00000008062661BC00000004027F343C00000000000408FC00000000091291BC000000040560444C00C00000013000000520100003C000000
310
06000000020000000000000000408FC00000000091291BC000000040560444C0000000E0FF3F8F400000008094291BC000000000560444C00C000000130000005A0100003C0000000600000002000000000000E0FF3F8F400000008094291BC000000000560444C0000000E0FF3F8F400000004068661BC00000004027F343
310
C00C00000013000000620100003C00000006000000020000000000000000408FC00000000091291BC000000040560444C00000000000408FC0000000803C9E1AC0000000C0630B44C00C000000130000006A0100003C00000006000000020000000000000000408FC0000000803C9E1AC0000000C0630B44C0000000E0FF3F
310
8F4000000040429E1AC0000000C0630B44C00C00000013000000720100003C0000000600000002000000000000E0FF3F8F4000000040429E1AC0000000C0630B44C0000000E0FF3F8F400000008094291BC000000000560444C00C000000130000007A0100003C00000006000000020000000000000000408FC0000000803C
310
9E1AC0000000C0630B44C00000000000408FC0000000803A6D10C0000000C0630B44C00C00000013000000820100003C00000006000000020000000000000000408FC0000000803A6D10C0000000C0630B44C0000000E0FF3F8F4000000040406D10C0000000C0630B44C00C000000130000008A0100003C00000006000000
310
02000000000000E0FF3F8F4000000040406D10C0000000C0630B44C0000000E0FF3F8F4000000040429E1AC0000000C0630B44C00C00000013000000920100003C00000006000000020000000000000000408FC0000000803A6D10C0000000C0630B44C00000000000408FC0000000807D2010C0000000E04C0D44C00C0000
310
00130000009A0100003C00000006000000020000000000000000408FC0000000807D2010C0000000E04C0D44C0000000E0FF3F8F4000000040832010C0000000E04C0D44C00C00000013000000A20100003C0000000600000002000000000000E0FF3F8F4000000040832010C0000000E04C0D44C0000000E0FF3F8F400000
310
0040406D10C0000000C0630B44C00C00000013000000AA0100003C00000006000000020000000000000000408FC0000000807D2010C0000000E04C0D44C00000000000408FC00000008042BF0FC000000080B81244C00C00000013000000B20100003C00000006000000020000000000000000408FC00000008042BF0FC000
310
000080B81244C0000000E0FF3F8F40000000004EBF0FC000000080B81244C00C00000013000000BA0100003C0000000600000002000000000000E0FF3F8F40000000004EBF0FC000000080B81244C0000000E0FF3F8F4000000040832010C0000000E04C0D44C00C00000013000000C20100003C0000000600000002000000
310
0000000000408FC00000008042BF0FC000000080B81244C00000000000408FC00000008087680FC000000020D41A44C00C00000013000000CA0100003C00000006000000020000000000000000408FC00000008087680FC000000020D41A44C0000000E0FF3F8F400000000093680FC000000020D41A44C00C000000130000
310
00D20100003C0000000600000002000000000000E0FF3F8F400000000093680FC000000020D41A44C0000000E0FF3F8F40000000004EBF0FC000000080B81244C00C00000013000000DA0100003C00000006000000020000000000000000408FC00000008087680FC000000020D41A44C00000000000408FC000000080F449
310
0FC0000000A06B2444C00C00000013000000E20100003C00000006000000020000000000000000408FC000000080F4490FC0000000A06B2444C0000000E0FF3F8F4000000000004A0FC0000000A06B2444C00C00000013000000EA0100003C0000000600000002000000000000E0FF3F8F4000000000004A0FC0000000A06B
310
2444C0000000E0FF3F8F400000000093680FC000000020D41A44C00C00000013000000F20100003C00000006000000020000000000000000408FC000000080F4490FC0000000A06B2444C00000000000408FC000000000F5490FC000000040FBE645C00C00000013000000FA0100003C000000060000000200000000000000
310
00408FC000000000F5490FC000000040FBE645C0000000E0FF3F8F4000000080004A0FC000000040FBE645C00C00000013000000020200003C0000000600000002000000000000E0FF3F8F4000000080004A0FC000000040FBE645C0000000E0FF3F8F4000000000004A0FC0000000A06B2444C00C000000130000000A0200
310
003C00000006000000020000000000000000408FC000000000F5490FC000000040FBE645C00000000000408FC000000000622B0FC0000000E092F045C00C00000013000000120200003C00000006000000020000000000000000408FC000000000622B0FC0000000E092F045C0000000E0FF3F8F40000000806D2B0FC00000
310
00E092F045C00C000000130000001A0200003C0000000600000002000000000000E0FF3F8F40000000806D2B0FC0000000E092F045C0000000E0FF3F8F4000000080004A0FC000000040FBE645C00C00000013000000220200003C00000006000000020000000000000000408FC000000000622B0FC0000000E092F045C000
310
00000000408FC000000000A7D40EC000000060AEF845C00C000000130000002A0200003C00000006000000020000000000000000408FC000000000A7D40EC000000060AEF845C0000000E0FF3F8F4000000000B3D40EC000000060AEF845C00C00000013000000320200003C0000000600000002000000000000E0FF3F8F40
310
00000000B3D40EC000000060AEF845C0000000E0FF3F8F40000000806D2B0FC0000000E092F045C00C000000130000003A0200003C00000006000000020000000000000000408FC000000000A7D40EC000000060AEF845C00000000000408FC000000000EF520EC0000000201AFE45C00C00000013000000420200003C0000
310
0006000000020000000000000000408FC000000000EF520EC0000000201AFE45C0000000E0FF3F8F4000000080FA520EC0000000201AFE45C00C000000130000004A0200003C0000000600000002000000000000E0FF3F8F4000000080FA520EC0000000201AFE45C0000000E0FF3F8F4000000000B3D40EC000000060AEF8
310
45C00C00000013000000520200003C00000006000000020000000000000000408FC000000000EF520EC0000000201AFE45C00000000000408FC00000000075B90DC000000040030046C00C000000130000005A0200003C00000006000000020000000000000000408FC00000000075B90DC000000040030046C0000000E0FF
310
3F8F400000000081B90DC000000040030046C00C00000013000000620200003C0000000600000002000000000000E0FF3F8F400000000081B90DC000000040030046C0000000E0FF3F8F4000000080FA520EC0000000201AFE45C00C000000130000006A0200003C00000006000000020000000000000000408FC000000000
310
75B90DC000000040030046C00000000000408FC0000000000000E23E00000040030046C00C00000013000000720200003C00000006000000020000000000000000408FC0000000000000E23E00000040030046C0000000E0FF3F8F40000000000000ECBE00000040030046C00C000000130000007A0200003C000000060000
310
0002000000000000E0FF3F8F40000000000000ECBE00000040030046C0000000E0FF3F8F400000000081B90DC000000040030046C00C00000013000000820200003C00000006000000020000000000000000408FC0000000000000E23E00000040030046C00000000000408FC0000000000000E23E00000000EC9342C00C00
310
0000130000008A0200003C00000006000000020000000000000000408FC0000000000000E23E00000000EC9342C0000000E0FF3F8F40000000000000ECBE00000000EC9342C00C00000013000000920200003C0000000600000002000000000000E0FF3F8F40000000000000ECBE00000000EC9342C0000000E0FF3F8F4000
310
0000000000ECBE00000040030046C00C000000130000009A0200003C00000006000000020000000000000000408FC0000000000000E23E00000000EC9342C00000000000408FC0000000008010A1BF000000A0877342C00C00000013000000A20200003C00000006000000020000000000000000408FC0000000008010A1BF
310
000000A0877342C0000000E0FF3F8F40000000000012A1BF00000080877342C00C00000013000000AA0200003C0000000600000002000000000000E0FF3F8F40000000000000ECBE00000000EC9342C0000000E0FF3F8F40000000000012A1BF00000080877342C00C00000013000000B20200003C00000006000000020000
310
000000000000408FC0000000008010A1BF000000A0877342C00000000000408FC00000000040C4C0BF00000020585542C00C00000013000000BA0200003C00000006000000020000000000000000408FC00000000040C4C0BF00000020585542C0000000E0FF3F8F400000000000C5C0BF00000020585542C00C0000001300
310
0000C20200003C0000000600000002000000000000E0FF3F8F40000000000012A1BF00000080877342C0000000E0FF3F8F400000000000C5C0BF00000020585542C00C00000013000000CA0200003C00000006000000020000000000000000408FC00000000040C4C0BF00000020585542C00000000000408FC0000000009C
310
41E6BF0000002030D841C00C00000013000000D20200003C00000006000000020000000000000000408FC0000000009C41E6BF0000002030D841C0000000E0FF3F8F4000000000CC41E6BF0000002030D841C00C00000013000000DA0200003C0000000600000002000000000000E0FF3F8F400000000000C5C0BF00000020
310
585542C0000000E0FF3F8F4000000000CC41E6BF0000002030D841C00C00000013000000E20200003C00000006000000020000000000000000408FC0000000009C41E6BF0000002030D841C00000000000408FC000000000C072EABF000000409C9941C00C00000013000000EA0200003C0000000600000002000000000000
310
0000408FC000000000C072EABF000000409C9941C0000000E0FF3F8F4000000000EE72EABF000000409C9941C00C00000013000000F20200003C0000000600000002000000000000E0FF3F8F4000000000CC41E6BF0000002030D841C0000000E0FF3F8F4000000000EE72EABF000000409C9941C00C00000013000000FA02
310
00003C00000006000000020000000000000000408FC000000000C072EABF000000409C9941C00000000000408FC0000000009C41E6BF00000040085B41C00C00000013000000020300003C00000006000000020000000000000000408FC0000000009C41E6BF00000040085B41C0000000E0FF3F8F4000000000CC41E6BF00
310
000040085B41C00C000000130000000A0300003C0000000600000002000000000000E0FF3F8F4000000000EE72EABF000000409C9941C0000000E0FF3F8F4000000000CC41E6BF00000040085B41C00C00000013000000120300003C00000006000000020000000000000000408FC0000000009C41E6BF00000040085B41C0
310
0000000000408FC00000000038C4C0BF00000060E0DD40C00C000000130000001A0300003C00000006000000020000000000000000408FC00000000038C4C0BF00000060E0DD40C0000000E0FF3F8F4000000000F0C4C0BF00000060E0DD40C00C00000013000000220300003C0000000600000002000000000000E0FF3F8F
310
4000000000CC41E6BF00000040085B41C0000000E0FF3F8F4000000000F0C4C0BF00000060E0DD40C00C000000130000002A0300003C00000006000000020000000000000000408FC00000000038C4C0BF00000060E0DD40C00000000000408FC0000000006010A1BF000000C0B0BF40C00C00000013000000320300003C00
310
000006000000020000000000000000408FC0000000006010A1BF000000C0B0BF40C0000000E0FF3F8F40000000000012A1BF000000E0B0BF40C00C000000130000003A0300003C0000000600000002000000000000E0FF3F8F4000000000F0C4C0BF00000060E0DD40C0000000E0FF3F8F40000000000012A1BF000000E0B0
310
BF40C00C00000013000000420300003C00000006000000020000000000000000408FC0000000006010A1BF000000C0B0BF40C00000000000408FC0000000000000E43E000000604C9F40C00C000000130000004A0300003C00000006000000020000000000000000408FC0000000000000E43E000000604C9F40C0000000E0
310
FF3F8F40000000000000EABE000000604C9F40C00C00000013000000520300003C0000000600000002000000000000E0FF3F8F40000000000012A1BF000000E0B0BF40C0000000E0FF3F8F40000000000000EABE000000604C9F40C00C000000130000005A0300003C00000006000000020000000000000000408FC0000000
310
000000E43E000000604C9F40C00000000000408FC0000000000000E03E00000000AB663EC00C00000013000000620300003C00000006000000020000000000000000408FC0000000000000E03E00000000AB663EC0000000E0FF3F8F40000000000000EEBE00000000AB663EC00C000000130000006A0300003C0000000600
310
000002000000000000E0FF3F8F40000000000000EABE000000604C9F40C0000000E0FF3F8F40000000000000EEBE00000000AB663EC00C00000013000000720300003C00000006000000020000000000000000408FC0000000000000E03E00000000AB663EC00000000000408FC00000000078A4C6BF00000060D5653DC00C
310
000000130000007A0300003C00000006000000020000000000000000408FC00000000078A4C6BF00000060D5653DC0000000E0FF3F8F400000000070A5C6BF00000080D5653DC00C00000013000000820300003C0000000600000002000000000000E0FF3F8F400000000070A5C6BF00000080D5653DC0000000E0FF3F8F40
310
000000000000EEBE00000000AB663EC00C000000130000008A0300003C00000006000000020000000000000000408FC00000000078A4C6BF00000060D5653DC00000000000408FC000000000DEF5E5BF00000000FA833CC00C00000013000000920300003C00000006000000020000000000000000408FC000000000DEF5E5
310
BF00000000FA833CC0000000E0FF3F8F40000000000CF6E5BF00000000FA833CC00C000000130000009A0300003C0000000600000002000000000000E0FF3F8F400000000070A5C6BF00000080D5653DC0000000E0FF3F8F40000000000CF6E5BF00000000FA833CC00C00000013000000A20300003C000000060000000200
310
00000000000000408FC000000000DEF5E5BF00000000FA833CC00000000000408FC000000000E0F9F4BF0000000060C53BC00C00000013000000AA0300003C00000006000000020000000000000000408FC000000000E0F9F4BF0000000060C53BC0000000E0FF3F8F4000000000F7F9F4BF0000000060C53BC00C00000013
310
000000B20300003C0000000600000002000000000000E0FF3F8F4000000000F7F9F4BF0000000060C53BC0000000E0FF3F8F40000000000CF6E5BF00000000FA833CC00C00000013000000BA0300003C00000006000000020000000000000000408FC000000000E0F9F4BF0000000060C53BC00000000000408FC000000000
310
A0B5FBBF00000000EF123BC00C00000013000000C20300003C00000006000000020000000000000000408FC000000000A0B5FBBF00000000EF123BC0000000E0FF3F8F4000000000BAB5FBBF00000020EF123BC00C00000013000000CA0300003C0000000600000002000000000000E0FF3F8F4000000000BAB5FBBF000000
310
20EF123BC0000000E0FF3F8F4000000000F7F9F4BF0000000060C53BC00C00000013000000D20300003C00000006000000020000000000000000408FC000000000A0B5FBBF00000000EF123BC00000000000408FC0000000C0EE3515C0000000A0981A33C00C00000013000000DA0300003C00000006000000020000000000
310
000000408FC0000000C0EE3515C0000000A0981A33C0000000E0FF3F8F40000000009D3515C000000040BB1A33C00C00000013000000E20300003C0000000600000002000000000000E0FF3F8F40000000009D3515C000000040BB1A33C0000000E0FF3F8F4000000000BAB5FBBF00000020EF123BC00C00000013000000EA
310
0300003C00000006000000020000000000000000408FC0000000C0EE3515C0000000A0981A33C00000000000408FC0000000C0CF5124C000000040A45B28C00C00000013000000F20300003C00000006000000020000000000000000408FC0000000C0CF5124C000000040A45B28C0000000E0FF3F8F4000000060CB5124C0
310
000000209E5B28C00C00000013000000FA0300003C0000000600000002000000000000E0FF3F8F40000000009D3515C000000040BB1A33C0000000E0FF3F8F4000000060CB5124C0000000209E5B28C00C00000013000000020400003C00000006000000020000000000000000408FC0000000C0CF5124C000000040A45B28
310
C00000000000408FC000000040453D30C0000000803E3119C00C000000130000000A0400003C00000006000000020000000000000000408FC000000040453D30C0000000803E3119C0000000E0FF3F8F4000000080653D30C000000040D23019C00C00000013000000120400003C0000000600000002000000000000E0FF3F
310
8F4000000080653D30C000000040D23019C0000000E0FF3F8F4000000060CB5124C0000000209E5B28C00C000000130000001A0400003C00000006000000020000000000000000408FC000000040453D30C0000000803E3119C00000000000408FC000000040A69637C0000000003208F8BF0C00000013000000220400003C
310
00000006000000020000000000000000408FC000000040A69637C0000000003208F8BF000000E0FF3F8F40000000C0A79637C0000000002608F8BF0C000000130000002A0400003C0000000600000002000000000000E0FF3F8F40000000C0A79637C0000000002608F8BF000000E0FF3F8F4000000080653D30C000000040
310
D23019C00C00000013000000320400003C00000006000000020000000000000000408FC000000040A69637C0000000003208F8BF0000000000408FC000000040BA9A38C000000000E8F5E5BF0C000000130000003A0400003C00000006000000020000000000000000408FC000000040BA9A38C000000000E8F5E5BF000000
310
E0FF3F8F40000000C0BB9A38C000000000D4F5E5BF0C00000013000000420400003C0000000600000002000000000000E0FF3F8F40000000C0BB9A38C000000000D4F5E5BF000000E0FF3F8F40000000C0A79637C0000000002608F8BF0C000000130000004A0400003C00000006000000020000000000000000408FC00000
310
0040BA9A38C000000000E8F5E5BF0000000000408FC0000000C0957C39C000000000A0A4C6BF0C00000013000000520400003C00000006000000020000000000000000408FC0000000C0957C39C000000000A0A4C6BF000000E0FF3F8F4000000060977C39C00000000090A4C6BF0C000000130000005A0400003C00000006
310
00000002000000000000E0FF3F8F4000000060977C39C00000000090A4C6BF000000E0FF3F8F40000000C0BB9A38C000000000D4F5E5BF0C00000013000000620400003C00000006000000020000000000000000408FC0000000406B7D3AC0000000000000D03E0000000000408FC0000000C0957C39C000000000A0A4C6BF
310
0C000000130000006A0400003C00000006000000020000000000000000408FC0000000406B7D3AC0000000000000D03E000000E0FF3F8F40000000C06C7D3AC0000000000000EC3E0C00000013000000720400003C0000000600000002000000000000E0FF3F8F40000000C06C7D3AC0000000000000EC3E000000E0FF3F8F
310
4000000060977C39C00000000090A4C6BF0C000000130000007A0400003C00000006000000020000000000000000408FC0000000406B7D3AC0000000000000D03E0000000000408FC000000080F8493FC0000000000000D03E0C00000013000000820400003C00000006000000020000000000000000408FC000000080F849
310
3FC0000000000000D03E000000E0FF3F8F40000000C0F9493FC0000000000000EC3E0C000000130000008A0400003C0000000600000002000000000000E0FF3F8F40000000C06C7D3AC0000000000000EC3E000000E0FF3F8F40000000C0F9493FC0000000000000EC3E0C00000013000000920400003C0000000600000002
310
0000000000000000408FC000000080F8493FC0000000000000D03E0000000000408FC000000040C18A3FC0000000004011A1BF0C000000130000009A0400003C00000006000000020000000000000000408FC000000040C18A3FC0000000004011A1BF000000E0FF3F8F40000000C0C28A3FC000000000800EA1BF0C000000
310
13000000A20400003C0000000600000002000000000000E0FF3F8F40000000C0F9493FC0000000000000EC3E000000E0FF3F8F40000000C0C28A3FC000000000800EA1BF0C00000013000000AA0400003C00000006000000020000000000000000408FC000000040C18A3FC0000000004011A1BF0000000000408FC0000000
310
8020C73FC00000000070C4C0BF0C00000013000000B20400003C00000006000000020000000000000000408FC00000008020C73FC00000000070C4C0BF000000E0FF3F8F40000000A021C73FC00000000010C4C0BF0C00000013000000BA0400003C0000000600000002000000000000E0FF3F8F40000000A021C73FC00000
310
000010C4C0BF000000E0FF3F8F40000000C0C28A3FC000000000800EA1BF0C00000013000000C20400003C00000006000000020000000000000000408FC00000008020C73FC00000000070C4C0BF0000000000408FC000000040B86040C000000000A841E6BF0C00000013000000CA0400003C000000060000000200000000
310
00000000408FC000000040B86040C000000000A841E6BF000000E0FF3F8F40000000C0B86040C0000000009441E6BF0C00000013000000D20400003C0000000600000002000000000000E0FF3F8F40000000C0B86040C0000000009441E6BF000000E0FF3F8F40000000A021C73FC00000000010C4C0BF0C00000013000000
310
DA0400003C00000006000000020000000000000000408FC000000040B86040C000000000A841E6BF0000000000408FC0000000004C9F40C000000000CC72EABF0C00000013000000E20400003C00000006000000020000000000000000408FC0000000004C9F40C000000000CC72EABF000000E0FF3F8F40000000804C9F40
310
C000000000B472EABF0C00000013000000EA0400003C0000000600000002000000000000E0FF3F8F40000000804C9F40C000000000B472EABF000000E0FF3F8F40000000C0B86040C0000000009441E6BF0C00000013000000F20400003C00000006000000020000000000000000408FC0000000004C9F40C000000000CC72
310
EABF0000000000408FC000000000E0DD40C000000000A841E6BF0C00000013000000FA0400003C00000006000000020000000000000000408FC000000000E0DD40C000000000A841E6BF000000E0FF3F8F4000000080E0DD40C0000000009441E6BF0C00000013000000020500003C0000000600000002000000000000E0FF
310
3F8F4000000080E0DD40C0000000009441E6BF000000E0FF3F8F40000000804C9F40C000000000B472EABF0C000000130000000A0500003C00000006000000020000000000000000408FC000000000E0DD40C000000000A841E6BF0000000000408FC000000000085B41C00000000070C4C0BF0C0000001300000012050000
310
3C00000006000000020000000000000000408FC000000000085B41C00000000070C4C0BF000000E0FF3F8F4000000080085B41C00000000010C4C0BF0C000000130000001A0500003C0000000600000002000000000000E0FF3F8F4000000080085B41C00000000010C4C0BF000000E0FF3F8F4000000080E0DD40C0000000
310
009441E6BF0C00000013000000220500003C00000006000000020000000000000000408FC000000000085B41C00000000070C4C0BF0000000000408FC000000080377941C0000000004011A1BF0C000000130000002A0500003C00000006000000020000000000000000408FC000000080377941C0000000004011A1BF0000
310
00E0FF3F8F4000000000387941C000000000800EA1BF0C00000013000000320500003C0000000600000002000000000000E0FF3F8F4000000000387941C000000000800EA1BF000000E0FF3F8F4000000080085B41C00000000010C4C0BF0C000000130000003A0500003C00000006000000020000000000000000408FC000
310
000080377941C0000000004011A1BF0000000000408FC0000000009C9941C0000000000000D03E0C00000013000000420500003C00000006000000020000000000000000408FC0000000009C9941C0000000000000D03E000000E0FF3F8F40000000809C9941C0000000000000EC3E0C000000130000004A0500003C000000
310
0600000002000000000000E0FF3F8F40000000809C9941C0000000000000EC3E000000E0FF3F8F4000000000387941C000000000800EA1BF0C00000013000000520500003C00000006000000020000000000000000408FC0000000009C9941C0000000000000D03E0000000000408FC000000000030046C000000000000000
310
000C000000130000005A0500003C0000000600000002000000000000C0FF3F8F4000000080030046C00000000000000000000000E0FF3F8F40000000809C9941C0000000000000EC3E0C00000013000000620500003C00000006000000020000000000000000408FC000000080947A43C000000000419D11C0000000000040
310
8FC0000000A0965F42C000000080F5F012C00C000000130000006A0500003C00000006000000020000000000000000408FC0000000A0965F42C000000080F5F012C0000000E0FF3F8F4000000000A85F42C000000080CBF012C00C00000013000000720500003C0000000600000002000000000000E0FF3F8F4000000000A6
310
7A43C0000000801D9D11C0000000E0FF3F8F4000000000A85F42C000000080CBF012C00C000000130000007A0500003C00000006000000020000000000000000408FC000000060050840C000000000C22418C00000000000408FC0000000C09BF43DC0000000C093211BC00C00000013000000820500003C00000006000000
310
020000000000000000408FC0000000C09BF43DC0000000C093211BC0000000E0FF3F8F400000006088F43DC0000000C0A8211BC00C000000130000008A0500003C0000000600000002000000000000E0FF3F8F400000006088F43DC0000000C0A8211BC0000000E0FF3F8F40000000C0FB0740C000000080D62418C00C0000
310
0013000000920500003C00000006000000020000000000000000408FC0000000E02A9A39C0000000003CE821C00000000000408FC0000000200EAD37C0000000403A2D24C00C000000130000009A0500003C00000006000000020000000000000000408FC0000000200EAD37C0000000403A2D24C0000000E0FF3F8F400000
310
000025AD37C0000000401A2D24C00C00000013000000A20500003C0000000600000002000000000000E0FF3F8F4000000000429A39C0000000201CE821C0000000E0FF3F8F400000000025AD37C0000000401A2D24C00C00000013000000AA0500003C00000006000000020000000000000000408FC0000000007ED133C000
310
0000403A182AC00000000000408FC0000000E0C52432C0000000E0830E2DC00C00000013000000B20500003C00000006000000020000000000000000408FC0000000E0C52432C0000000E0830E2DC0000000E0FF3F8F4000000040C42432C0000000007D0E2DC00C00000013000000BA0500003C0000000600000002000000
310
000000E0FF3F8F40000000007DD133C00000004035182AC0000000E0FF3F8F4000000040C42432C0000000007D0E2DC00C00000013000000C20500003C00000006000000020000000000000000408FC00000006031D72DC0000000C0042B32C00000000000408FC000000000ED1D2BC0000000C0E4F033C00C000000130000
310
00CA0500003C00000006000000020000000000000000408FC000000000ED1D2BC0000000C0E4F033C0000000E0FF3F8F4000000060CF1D2BC0000000C0F9F033C00C00000013000000D20500003C0000000600000002000000000000E0FF3F8F4000000060CF1D2BC0000000C0F9F033C0000000E0FF3F8F400000004011D7
310
2DC0000000C0182B32C00C00000013000000DA0500003C00000006000000020000000000000000408FC0000000E04A2C26C0000000A06F2138C00000000000408FC000000080CD2C24C0000000606F213AC00C00000013000000E20500003C00000006000000020000000000000000408FC000000080CD2C24C0000000606F
310
213AC0000000E0FF3F8F4000000000DC2C24C0000000C05A213AC00C00000013000000EA0500003C0000000600000002000000000000E0FF3F8F40000000405A2C26C0000000205B2138C0000000E0FF3F8F4000000000DC2C24C0000000C05A213AC00C00000013000000F20500003C000000060000000200000000000000
310
00408FC000000080A2EB20C00000008023B63EC00000000000408FC00000000044711FC0000000A0BE6E40C00C00000013000000FA0500003C00000006000000020000000000000000408FC00000000044711FC0000000A0BE6E40C0000000E0FF3F8F40000000A01B711FC000000060CF6E40C00C00000013000000020600
310
003C0000000600000002000000000000E0FF3F8F40000000008DEB20C00000000045B63EC0000000E0FF3F8F40000000A01B711FC000000060CF6E40C00C000000130000000A0600003C00000006000000020000000000000000408FC000000080F94941C000000000401C15C00000000000408FC0000000A0965F42C00000
310
0080F5F012C00C00000013000000120600003C0000000600000002000000000000E0FF3F8F40000000000B4A41C000000000131C15C0000000E0FF3F8F4000000000A85F42C000000080CBF012C00C000000130000001A0600003C00000006000000020000000000000000408FC00000006001EE3BC000000000E0E91EC000
310
00000000408FC0000000C09BF43DC0000000C093211BC00C00000013000000220600003C0000000600000002000000000000E0FF3F8F400000006088F43DC0000000C0A8211BC0000000E0FF3F8F4000000040EEED3BC000000040F6E91EC00C000000130000002A0600003C00000006000000020000000000000000408FC0
310
000000C017DE35C0000000002CCE26C00000000000408FC0000000200EAD37C0000000403A2D24C00C00000013000000320600003C0000000600000002000000000000E0FF3F8F400000000025AD37C0000000401A2D24C0000000E0FF3F8F40000000A02DDE35C00000008009CE26C00C000000130000003A0600003C0000
310
0006000000020000000000000000408FC000000020649E30C000000000C52930C00000000000408FC0000000E0C52432C0000000E0830E2DC00C00000013000000420600003C0000000600000002000000000000E0FF3F8F4000000080639E30C000000040C22930C0000000E0FF3F8F4000000040C42432C0000000007D0E
310
2DC00C000000130000004A0600003C00000006000000020000000000000000408FC000000040FABE28C00000006020D635C00000000000408FC000000000ED1D2BC0000000C0E4F033C00C00000013000000520600003C0000000600000002000000000000E0FF3F8F4000000060CF1D2BC0000000C0F9F033C0000000E0FF
310
3F8F40000000C0DCBE28C00000008035D635C00C000000130000005A0600003C00000006000000020000000000000000408FC000000020E99122C0000000809B373CC00000000000408FC000000080CD2C24C0000000606F213AC00C00000013000000620600003C0000000600000002000000000000E0FF3F8F4000000080
310
F79122C0000000C086373CC0000000E0FF3F8F4000000000DC2C24C0000000C05A213AC00C000000130000006A0600003C00000006000000020000000000000000408FC000000000A1E11DC0000000A0828841C00000000000408FC00000000044711FC0000000A0BE6E40C00C00000013000000720600003C000000060000
310
0002000000000000E0FF3F8F400000000080E11DC000000080938841C0000000E0FF3F8F40000000A01B711FC000000060CF6E40C00C000000130000007A0600003C00000006000000020000000000000000408FC0000000406B7D3AC0000000000000D03E0000000000408FC0000000C09BF43DC0000000C093211BC00C00
310
000013000000820600003C00000006000000020000000000000000408FC000000080F8493FC0000000000000D03E0000000000408FC000000060050840C000000000C22418C00C000000130000008A0600003C00000006000000020000000000000000408FC0000000009C9941C0000000000000D03E0000000000408FC000
310
000000030046C00000000086BA0DC00C00000013000000920600003C00000006000000020000000000000000408FC000000080377941C0000000004011A1BF0000000000408FC000000000BAF845C000000000FAD40EC00C000000130000009A0600003C00000006000000020000000000000000408FC000000000085B41C0
310
0000000070C4C0BF0000000000408FC0000000801CE745C000000000044B0FC00C00000013000000A20600003C00000006000000020000000000000000408FC000000000E0DD40C000000000A841E6BF0000000000408FC000000080947A43C000000000419D11C00C00000013000000AA0600003C00000006000000020000
310
000000000000408FC0000000004C9F40C000000000CC72EABF0000000000408FC0000000A0965F42C000000080F5F012C00C00000013000000B20600003C00000006000000020000000000000000408FC000000040B86040C000000000A841E6BF0000000000408FC000000080F94941C000000000401C15C00C0000001300
310
0000BA0600003C00000006000000020000000000000000408FC00000008020C73FC00000000070C4C0BF0000000000408FC000000060050840C000000000C22418C00C00000013000000C20600003C00000006000000020000000000000000408FC000000040C18A3FC0000000004011A1BF0000000000408FC00000006005
310
0840C000000000C22418C00C00000013000000CA0600003C00000006000000020000000000000000408FC00000006001EE3BC000000000E0E91EC00000000000408FC0000000C0957C39C000000000A0A4C6BF0C00000013000000D20600003C00000006000000020000000000000000408FC00000000075B90DC000000040
310
030046C00000000000408FC0000000000000E23E00000000EC9342C00C00000013000000DA0600003C00000006000000020000000000000000408FC000000000EF520EC0000000201AFE45C00000000000408FC0000000000000E23E00000000EC9342C00C00000013000000E20600003C0000000600000002000000000000
310
0000408FC000000000A7D40EC000000060AEF845C00000000000408FC0000000000000E23E00000000EC9342C00C00000013000000EA0600003C00000006000000020000000000000000408FC000000000622B0FC0000000E092F045C00000000000408FC0000000000000E23E00000000EC9342C00C00000013000000F206
310
00003C00000006000000020000000000000000408FC000000000F5490FC000000040FBE645C00000000000408FC0000000000000E23E00000000EC9342C00C00000013000000FA0600003C00000006000000020000000000000000408FC000000080F4490FC0000000A06B2444C00000000000408FC0000000008010A1BF00
310
0000A0877342C00C00000013000000020700003C00000006000000020000000000000000408FC00000008087680FC000000020D41A44C00000000000408FC0000000008010A1BF000000A0877342C00C000000130000000A0700003C00000006000000020000000000000000408FC00000008042BF0FC000000080B81244C0
310
0000000000408FC00000000040C4C0BF00000020585542C00C00000013000000120700003C00000006000000020000000000000000408FC0000000807D2010C0000000E04C0D44C00000000000408FC00000000040C4C0BF00000020585542C00C000000130000001A0700003C00000006000000020000000000000000408F
310
C0000000803A6D10C0000000C0630B44C00000000000408FC00000000040C4C0BF00000020585542C00C00000013000000220700003C00000006000000020000000000000000408FC00000008042BF0FC000000080B81244C00000000000408FC0000000008010A1BF000000A0877342C00C000000130000002A0700003C00
310
000006000000020000000000000000408FC0000000803C9E1AC0000000C0630B44C00000000000408FC0000000009C41E6BF0000002030D841C00C00000013000000320700003C00000006000000020000000000000000408FC00000000091291BC000000040560444C00000000000408FC000000000C072EABF000000409C
310
9941C00C000000130000003A0700003C00000006000000020000000000000000408FC00000008062661BC00000004027F343C00000000000408FC0000000009C41E6BF00000040085B41C00C00000013000000420700003C00000006000000020000000000000000408FC000000000A1E11DC0000000A0828841C000000000
310
00408FC00000000038C4C0BF00000060E0DD40C00C000000130000004A0700003C00000006000000020000000000000000408FC000000040BA9A38C000000000E8F5E5BF0000000000408FC0000000E02A9A39C0000000003CE821C00C00000013000000520700003C00000006000000020000000000000000408FC0000000
310
40A69637C0000000003208F8BF0000000000408FC0000000200EAD37C0000000403A2D24C00C000000130000005A0700003C00000006000000020000000000000000408FC0000000C017DE35C0000000002CCE26C00000000000408FC000000040453D30C0000000803E3119C00C00000013000000620700003C0000000600
310
0000020000000000000000408FC000000040453D30C0000000803E3119C00000000000408FC0000000007ED133C0000000403A182AC00C000000130000006A0700003C00000006000000020000000000000000408FC0000000006010A1BF000000C0B0BF40C00000000000408FC00000000044711FC0000000A0BE6E40C00C
310
00000013000000720700003C00000006000000020000000000000000408FC0000000000000E43E000000604C9F40C00000000000408FC00000000044711FC0000000A0BE6E40C00C000000130000007A0700003C00000006000000020000000000000000408FC000000020649E30C000000000C52930C00000000000408FC0
310
000000C0CF5124C000000040A45B28C00C00000013000000820700003C00000006000000020000000000000000408FC000000040453D30C0000000803E3119C00000000000408FC0000000E0C52432C0000000E0830E2DC00C000000130000008A0700003C00000006000000020000000000000000408FC0000000C0EE3515
310
C0000000A0981A33C00000000000408FC000000000ED1D2BC0000000C0E4F033C00C00000013000000920700003C00000006000000020000000000000000408FC0000000C0CF5124C000000040A45B28C00000000000408FC00000006031D72DC0000000C0042B32C00C000000130000009A0700003C000000060000000200
310
00000000000000408FC0000000C0EE3515C0000000A0981A33C00000000000408FC0000000E04A2C26C0000000A06F2138C00C00000013000000A20700003C00000006000000020000000000000000408FC000000040FABE28C00000006020D635C00000000000408FC0000000C0EE3515C0000000A0981A33C00C00000013
310
000000AA0700003C00000006000000020000000000000000408FC000000020E99122C0000000809B373CC00000000000408FC000000000A0B5FBBF00000000EF123BC00C00000013000000B20700003C00000006000000020000000000000000408FC0000000C0EE3515C0000000A0981A33C00000000000408FC000000080
310
CD2C24C0000000606F213AC00C00000013000000BA0700003C00000006000000020000000000000000408FC0000000000000E03E00000000AB663EC00000000000408FC000000080A2EB20C00000008023B63EC00C00000013000000C20700003C00000006000000020000000000000000408FC00000000078A4C6BF000000
310
60D5653DC00000000000408FC000000080A2EB20C00000008023B63EC00C00000013000000CA0700003C00000006000000020000000000000000408FC000000020E99122C0000000809B373CC00000000000408FC000000000DEF5E5BF00000000FA833CC00C00000013000000D20700003C00000006000000020000000000
310
000000408FC000000020E99122C0000000809B373CC00000000000408FC000000000E0F9F4BF0000000060C53BC00C00000013000000DA0700003C00000006000000020000000000000000408FC000000000DEF5E5BF00000000FA833CC00000000000408FC000000080A2EB20C00000008023B63EC00C00000013000000E2
310
0700003C0000000600000002000000000000E0FF3F8F40000000C0FB0740C000000080D62418C0000000E0FF3F8F40000000C0F9493FC0000000000000EC3E0C00000013000000EA0700003C0000000600000002000000000000E0FF3F8F40000000C06C7D3AC0000000000000EC3E000000E0FF3F8F400000006088F43DC0
310
000000C0A8211BC00C00000013000000F20700003C0000000600000002000000000000C0FF3F8F4000000080030046C00000000086BA0DC0000000E0FF3F8F40000000809C9941C0000000000000EC3E0C00000013000000FA0700003C0000000600000002000000000000C0FF3F8F4000000080BAF845C000000000FAD40E
310
C0000000E0FF3F8F4000000000387941C000000000800EA1BF0C00000013000000020800003C0000000600000002000000000000C0FF3F8F40000000001DE745C000000000044B0FC0000000E0FF3F8F4000000080085B41C00000000010C4C0BF0C000000130000000A0800003C0000000600000002000000000000E0FF3F
310
8F4000000000A67A43C0000000801D9D11C0000000E0FF3F8F4000000080E0DD40C0000000009441E6BF0C00000013000000120800003C0000000600000002000000000000E0FF3F8F4000000000A85F42C000000080CBF012C0000000E0FF3F8F40000000804C9F40C000000000B472EABF0C000000130000001A0800003C
310
0000000600000002000000000000E0FF3F8F40000000000B4A41C000000000131C15C0000000E0FF3F8F40000000C0B86040C0000000009441E6BF0C00000013000000220800003C0000000600000002000000000000E0FF3F8F40000000C0FB0740C000000080D62418C0000000E0FF3F8F40000000A021C73FC000000000
310
10C4C0BF0C000000130000002A0800003C0000000600000002000000000000E0FF3F8F40000000C0FB0740C000000080D62418C0000000E0FF3F8F40000000C0C28A3FC000000000800EA1BF0C00000013000000320800003C0000000600000002000000000000E0FF3F8F4000000060977C39C00000000090A4C6BF000000
310
E0FF3F8F4000000040EEED3BC000000040F6E91EC00C000000130000003A0800003C0000000600000002000000000000E0FF3F8F40000000000000ECBE00000000EC9342C0000000E0FF3F8F400000000081B90DC000000040030046C00C00000013000000420800003C0000000600000002000000000000E0FF3F8F400000
310
00000000ECBE00000000EC9342C0000000E0FF3F8F4000000080FA520EC0000000201AFE45C00C000000130000004A0800003C0000000600000002000000000000E0FF3F8F40000000000000ECBE00000000EC9342C0000000E0FF3F8F4000000000B3D40EC000000060AEF845C00C00000013000000520800003C00000006
310
00000002000000000000E0FF3F8F40000000000000ECBE00000000EC9342C0000000E0FF3F8F40000000806D2B0FC0000000E092F045C00C000000130000005A0800003C0000000600000002000000000000E0FF3F8F40000000000000ECBE00000000EC9342C0000000E0FF3F8F4000000080004A0FC000000040FBE645C0
310
0C00000013000000620800003C0000000600000002000000000000E0FF3F8F40000000000012A1BF00000080877342C0000000E0FF3F8F4000000000004A0FC0000000A06B2444C00C000000130000006A0800003C0000000600000002000000000000E0FF3F8F40000000000012A1BF00000080877342C0000000E0FF3F8F
310
400000000093680FC000000020D41A44C00C00000013000000720800003C0000000600000002000000000000E0FF3F8F400000000000C5C0BF00000020585542C0000000E0FF3F8F4000000040832010C0000000E04C0D44C00C000000130000007A0800003C0000000600000002000000000000E0FF3F8F400000000000C5
310
C0BF00000020585542C0000000E0FF3F8F40000000004EBF0FC000000080B81244C00C00000013000000820800003C0000000600000002000000000000E0FF3F8F400000000000C5C0BF00000020585542C0000000E0FF3F8F4000000040406D10C0000000C0630B44C00C000000130000008A0800003C0000000600000002
310
000000000000E0FF3F8F40000000000012A1BF00000080877342C0000000E0FF3F8F40000000004EBF0FC000000080B81244C00C00000013000000920800003C0000000600000002000000000000E0FF3F8F4000000000CC41E6BF0000002030D841C0000000E0FF3F8F4000000040429E1AC0000000C0630B44C00C000000
310
130000009A0800003C0000000600000002000000000000E0FF3F8F4000000000EE72EABF000000409C9941C0000000E0FF3F8F400000008094291BC000000000560444C00C00000013000000A20800003C0000000600000002000000000000E0FF3F8F4000000000CC41E6BF00000040085B41C0000000E0FF3F8F40000000
310
4068661BC00000004027F343C00C00000013000000AA0800003C0000000600000002000000000000E0FF3F8F400000000080E11DC000000080938841C0000000E0FF3F8F4000000000F0C4C0BF00000060E0DD40C00C00000013000000B20800003C0000000600000002000000000000E0FF3F8F40000000C0BB9A38C00000
310
0000D4F5E5BF000000E0FF3F8F4000000000429A39C0000000201CE821C00C00000013000000BA0800003C0000000600000002000000000000E0FF3F8F40000000C0A79637C0000000002608F8BF000000E0FF3F8F400000000025AD37C0000000401A2D24C00C00000013000000C20800003C000000060000000200000000
310
0000E0FF3F8F4000000080653D30C000000040D23019C0000000E0FF3F8F40000000A02DDE35C00000008009CE26C00C00000013000000CA0800003C0000000600000002000000000000E0FF3F8F4000000080653D30C000000040D23019C0000000E0FF3F8F40000000007DD133C00000004035182AC00C00000013000000
310
D20800003C0000000600000002000000000000E0FF3F8F40000000A01B711FC000000060CF6E40C0000000E0FF3F8F40000000000012A1BF000000E0B0BF40C00C00000013000000DA0800003C0000000600000002000000000000E0FF3F8F40000000A01B711FC000000060CF6E40C0000000E0FF3F8F40000000000000EA
310
BE000000604C9F40C00C00000013000000E20800003C0000000600000002000000000000E0FF3F8F4000000080653D30C000000040D23019C0000000E0FF3F8F4000000040C42432C0000000007D0E2DC00C00000013000000EA0800003C0000000600000002000000000000E0FF3F8F4000000060CB5124C0000000209E5B
310
28C0000000E0FF3F8F4000000080639E30C000000040C22930C00C00000013000000F20800003C0000000600000002000000000000E0FF3F8F4000000060CB5124C0000000209E5B28C0000000E0FF3F8F400000004011D72DC0000000C0182B32C00C00000013000000FA0800003C0000000600000002000000000000E0FF
310
3F8F40000000009D3515C000000040BB1A33C0000000E0FF3F8F4000000060CF1D2BC0000000C0F9F033C00C00000013000000020900003C0000000600000002000000000000E0FF3F8F40000000009D3515C000000040BB1A33C0000000E0FF3F8F40000000C0DCBE28C00000008035D635C00C000000130000000A090000
310
3C0000000600000002000000000000E0FF3F8F40000000009D3515C000000040BB1A33C0000000E0FF3F8F40000000405A2C26C0000000205B2138C00C00000013000000120900003C0000000600000002000000000000E0FF3F8F40000000009D3515C000000040BB1A33C0000000E0FF3F8F4000000000DC2C24C0000000
310
C05A213AC00C000000130000001A0900003C0000000600000002000000000000E0FF3F8F4000000000BAB5FBBF00000020EF123BC0000000E0FF3F8F4000000080F79122C0000000C086373CC00C00000013000000220900003C0000000600000002000000000000E0FF3F8F40000000008DEB20C00000000045B63EC00000
310
00E0FF3F8F400000000070A5C6BF00000080D5653DC00C000000130000002A0900003C0000000600000002000000000000E0FF3F8F40000000008DEB20C00000000045B63EC0000000E0FF3F8F40000000000000EEBE00000000AB663EC00C00000013000000320900003C0000000600000002000000000000E0FF3F8F4000
310
000080F79122C0000000C086373CC0000000E0FF3F8F4000000000F7F9F4BF0000000060C53BC00C000000130000003A0900003C0000000600000002000000000000E0FF3F8F4000000080F79122C0000000C086373CC0000000E0FF3F8F40000000000CF6E5BF00000000FA833CC00C00000013000000420900003C000000
310
0600000002000000000000E0FF3F8F40000000008DEB20C00000000045B63EC0000000E0FF3F8F40000000000CF6E5BF00000000FA833CC0
100
AcDbSubDMesh
 71
     2
 72
     0
 91
        0
 92
      138
 10
-1000.0
 20
-26.48991775512695
 30
0.0000038146972656
 10
-1000.0
 20
-31.28894805908203
 30
0.0000038146972656
 10
-1000.0
 20
-31.54201126098633
 30
-0.0333347320556641
 10
-1000.0
 20
-31.77783966064453
 30
-0.1309947967529297
 10
-1000.0
 20
-32.75562286376953
 30
-0.6955146789550782
 10
-1000.0
 20
-33.2445068359375
 30
-0.8265132904052734
 10
-1000.0
 20
-33.7333984375
 30
-0.6955146789550782
 10
-1000.0
 20
-34.711181640625
 30
-0.1309947967529297
 10
-1000.0
 20
-34.94700622558594
 30
-0.0333347320556641
 10
-1000.0
 20
-35.2000732421875
 30
0.0000038146972656
 10
-1000.0
 20
-44.00009155273437
 30
0.0
 10
-1000.0
 20
-44.00009155273437
 30
-3.716075897216796
 10
-1000.0
 20
-43.94317626953125
 30
-3.853992462158203
 10
-1000.0
 20
-43.80555725097656
 30
-3.911628723144531
 10
-1000.0
 20
-34.57792663574219
 30
-5.277587890625
 10
-1000.0
 20
-27.92970848083496
 30
-7.7283935546875
 10
-1000.0
 20
-21.86754989624024
 30
-11.40267944335937
 10
-1000.0
 20
-16.61871528625488
 30
-16.16316223144531
 10
-1000.0
 20
-12.37300300598144
 30
-21.8364315032959
 10
-1000.0
 20
-9.284981727600097
 30
-28.21721649169922
 10
-1000.0
 20
-7.470340728759765
 30
-35.06648635864258
 10
-1000.0
 20
-6.849985122680664
 30
-39.8996353149414
 10
-1000.0
 20
-6.790592193603515
 30
-40.03388214111327
 10
-1000.0
 20
-6.65452766418457
 30
-40.08898162841797
 10
-1000.0
 20
-4.106668472290039
 30
-40.08898162841797
 10
-1000.0
 20
-4.031728744506835
 30
-40.10390853881836
 10
-1000.0
 20
-3.968388557434082
 30
-40.14625549316406
 10
-1000.0
 20
-3.926039695739746
 30
-40.20959854125976
 10
-1000.0
 20
-3.911110877990722
 30
-40.2845344543457
 10
-1000.0
 20
-3.911111831665039
 30
-43.8045425415039
 10
-1000.0
 20
-3.896183013916015
 30
-43.87948226928711
 10
-1000.0
 20
-3.853834152221679
 30
-43.94282150268554
 10
-1000.0
 20
-3.790494918823242
 30
-43.98517227172852
 10
-1000.0
 20
-3.715555191040039
 30
-44.0000991821289
 10
-1000.0
 20
0.0000085830688477
 30
-44.0000991821289
 10
-1000.0
 20
0.0000085830688477
 30
-37.1556396484375
 10
-1000.0
 20
-0.0333290100097656
 30
-36.9025764465332
 10
-1000.0
 20
-0.1309890747070312
 30
-36.66675186157227
 10
-1000.0
 20
-0.6955089569091797
 30
-35.68896865844727
 10
-1000.0
 20
-0.826507568359375
 30
-35.20008087158203
 10
-1000.0
 20
-0.6955089569091797
 30
-34.71118927001953
 10
-1000.0
 20
-0.1309881210327148
 30
-33.7334098815918
 10
-1000.0
 20
-0.0333280563354492
 30
-33.49758148193359
 10
-1000.0
 20
0.0000095367431641
 30
-33.2445182800293
 10
-1000.0
 20
0.0000076293945313
 30
-30.40104675292969
 10
-1000.0
 20
-0.1768941879272461
 30
-29.39778709411621
 10
-1000.0
 20
-0.6862630844116211
 30
-28.51553344726563
 10
-1000.0
 20
-1.311004638671875
 30
-27.77099609375
 10
-1000.0
 20
-1.731842041015625
 30
-27.07395935058594
 10
-1000.0
 20
-5.302668571472167
 30
-19.10389137268066
 10
-1000.0
 20
-10.15978813171386
 30
-12.17898750305176
 10
-1000.0
 20
-16.23933792114257
 30
-6.298089981079101
 10
-1000.0
 20
-23.58847427368164
 30
-1.50200080871582
 10
-1000.0
 20
-24.60440444946289
 30
-0.6862678527832032
 10
-1000.0
 20
-25.48666000366211
 30
-0.1768989562988281
 10
999.9999389648436
 20
-38.95819091796875
 30
-4.403432846069335
 10
999.9999389648436
 20
-8.460060119628906
 30
-30.71199035644531
 10
999.9999389648436
 20
-5.302356719970703
 30
-19.10441970825195
 10
-1000.0
 20
-38.95765686035156
 30
-4.403568267822265
 10
-1000.0
 20
-32.06266403198242
 30
-6.035896301269531
 10
-1000.0
 20
-25.60221672058105
 30
-8.953582763671875
 10
-1000.0
 20
-19.81832885742187
 30
-13.04731941223144
 10
-1000.0
 20
-14.92029857635498
 30
-18.16804122924805
 10
-1000.0
 20
-11.08650875091552
 30
-24.1306095123291
 10
-1000.0
 20
-8.460224151611328
 30
-30.71147918701172
 10
999.9999389648436
 20
-34.57846069335938
 30
-5.277416229248046
 10
999.9999389648436
 20
-7.47021484375
 30
-35.06700134277344
 10
-1000.0
 20
-36.74678421020508
 30
-4.73531150817871
 10
-1000.0
 20
-29.95550155639648
 30
-6.782790184020996
 10
-1000.0
 20
-23.67599678039551
 30
-10.08833503723144
 10
-1000.0
 20
-18.14364433288574
 30
-14.52834987640381
 10
-1000.0
 20
-13.5584487915039
 30
-19.94099044799805
 10
-1000.0
 20
-10.08750534057617
 30
-26.13060569763184
 10
-1000.0
 20
-7.860610961914062
 30
-32.86519241333008
 10
999.9999389648436
 20
-36.747314453125
 30
-4.735151290893554
 10
999.9999389648436
 20
-7.860456943511962
 30
-32.86570358276367
 10
999.9999389648436
 20
-26.48994064331055
 30
0.0000133514404297
 10
999.9999389648436
 20
-29.9552059173584
 30
-6.782870292663574
 10
999.9999389648436
 20
-32.06237030029297
 30
-6.035974502563476
 10
999.9999389648436
 20
-31.28896713256836
 30
0.0000133514404297
 10
999.9998779296875
 20
-44.00010681152344
 30
-3.716075897216796
 10
999.9998779296875
 20
-44.00010681152344
 30
0.0
 10
999.9999389648436
 20
-35.20008850097656
 30
0.0000133514404297
 10
999.9998779296875
 20
-43.94319152832031
 30
-3.853992462158203
 10
999.9999389648436
 20
-34.947021484375
 30
-0.0333137512207031
 10
999.9998779296875
 20
-43.80557250976562
 30
-3.911628723144531
 10
999.9999389648436
 20
-34.71119689941406
 30
-0.1309833526611328
 10
999.9999389648436
 20
-33.73341369628906
 30
-0.6955051422119141
 10
999.9999389648436
 20
-33.24452209472656
 30
-0.8265018463134765
 10
999.9999389648436
 20
-32.75563812255859
 30
-0.6955051422119141
 10
999.9999389648436
 20
-31.77785682678223
 30
-0.1309833526611328
 10
999.9999389648436
 20
-31.54203414916992
 30
-0.0333137512207031
 10
999.9999389648436
 20
-25.48668479919434
 30
-0.1768970489501953
 10
999.9999389648436
 20
-27.92941665649414
 30
-7.72847843170166
 10
999.9999389648436
 20
-0.0000133514404297
 30
-37.1556396484375
 10
999.9999389648436
 20
-0.0000133514404297
 30
-44.0000991821289
 10
999.9999389648436
 20
-3.715578079223632
 30
-44.0000991821289
 10
999.9999389648436
 20
-3.790516853332519
 30
-43.98517227172852
 10
999.9999389648436
 20
-3.853857040405273
 30
-43.94282150268554
 10
999.9999389648436
 20
-3.896204948425292
 30
-43.87948226928711
 10
999.9999389648436
 20
-3.911133766174316
 30
-43.8045425415039
 10
999.9999389648436
 20
-0.0333404541015625
 30
-36.90257263183594
 10
999.9999389648436
 20
-3.9111328125
 30
-40.2845344543457
 10
999.9999389648436
 20
-3.926061630249023
 30
-40.20959854125976
 10
999.9999389648436
 20
-0.131011962890625
 30
-36.66675186157227
 10
999.9999389648436
 20
-3.968410491943359
 30
-40.14625549316406
 10
999.9999389648436
 20
-4.031750679016113
 30
-40.10390853881836
 10
999.9999389648436
 20
-4.106690406799316
 30
-40.08898162841797
 10
999.9999389648436
 20
-0.6955318450927735
 30
-35.68896865844727
 10
999.9999389648436
 20
-6.654549598693847
 30
-40.08898162841797
 10
999.9999389648436
 20
-0.8265295028686523
 30
-35.20008087158203
 10
999.9999389648436
 20
-6.790605545043945
 30
-40.03387451171875
 10
999.9999389648436
 20
-0.6955318450927735
 30
-34.71118927001953
 10
999.9999389648436
 20
-6.850007057189941
 30
-39.8996353149414
 10
999.9999389648436
 20
-0.1310100555419922
 30
-33.7334098815918
 10
999.9999389648436
 20
-24.60442733764649
 30
-0.6862583160400391
 10
999.9999389648436
 20
-25.60256958007812
 30
-8.953339576721191
 10
999.9999389648436
 20
-23.58849716186524
 30
-1.501989364624023
 10
999.9999389648436
 20
-23.67634582519531
 30
-10.08809089660644
 10
999.9999389648436
 20
-16.23983001708984
 30
-6.297677040100097
 10
999.9999389648436
 20
-21.86788368225098
 30
-11.40241622924804
 10
999.9999389648436
 20
-19.81831359863281
 30
-13.04728126525879
 10
999.9999389648436
 20
-0.0333404541015625
 30
-33.49758529663086
 10
999.9999389648436
 20
-0.0000123977661133
 30
-33.2445182800293
 10
999.9999389648436
 20
-10.15975475311279
 30
-12.17894077301025
 10
999.9999389648436
 20
-16.61870574951172
 30
-16.16312026977539
 10
999.9999389648436
 20
-18.14361953735351
 30
-14.5282974243164
 10
999.9999389648436
 20
-13.55822277069092
 30
-19.94131088256836
 10
999.9999389648436
 20
-14.92005348205566
 30
-18.1683464050293
 10
999.9999389648436
 20
-11.08662605285644
 30
-24.13029670715332
 10
999.9999389648436
 20
-12.37277793884277
 30
-21.83675384521484
 10
999.9999389648436
 20
-1.731866836547851
 30
-27.07396125793457
 10
999.9999389648436
 20
-9.285091400146484
 30
-28.21689987182617
 10
999.9999389648436
 20
-10.08761596679687
 30
-26.13029098510742
 10
999.9999389648436
 20
-0.1769237518310547
 30
-29.39778900146484
 10
999.9999389648436
 20
-0.0000143051147461
 30
-30.40104675292969
 10
999.9999389648436
 20
-1.311026573181152
 30
-27.77099609375
 10
999.9999389648436
 20
-0.6862850189208985
 30
-28.51553344726563
 93
      755
 90
        4
 90
       10
 90
       11
 90
       80
 90
       81
 90
        4
 90
       11
 90
       12
 90
       83
 90
       80
 90
        4
 90
       12
 90
       13
 90
       85
 90
       83
 90
        4
 90
       13
 90
       58
 90
       55
 90
       85
 90
        4
 90
       14
 90
       59
 90
       78
 90
       65
 90
        4
 90
       15
 90
       60
 90
      116
 90
       93
 90
        4
 90
       16
 90
       61
 90
      121
 90
      120
 90
        4
 90
       17
 90
       62
 90
      128
 90
      125
 90
        4
 90
       18
 90
       63
 90
      129
 90
      130
 90
        4
 90
       19
 90
       64
 90
       56
 90
      132
 90
        4
 90
       20
 90
       21
 90
      113
 90
       66
 90
        4
 90
       21
 90
       22
 90
      111
 90
      113
 90
        4
 90
       22
 90
       23
 90
      109
 90
      111
 90
        4
 90
       23
 90
       24
 90
      107
 90
      109
 90
        4
 90
       24
 90
       25
 90
      106
 90
      107
 90
        4
 90
       25
 90
       26
 90
      105
 90
      106
 90
        4
 90
       26
 90
       27
 90
      103
 90
      105
 90
        4
 90
       27
 90
       28
 90
      102
 90
      103
 90
        4
 90
       28
 90
       29
 90
      100
 90
      102
 90
        4
 90
       29
 90
       30
 90
       99
 90
      100
 90
        4
 90
       30
 90
       31
 90
       98
 90
       99
 90
        4
 90
       31
 90
       32
 90
       97
 90
       98
 90
        4
 90
       32
 90
       33
 90
       96
 90
       97
 90
        4
 90
       33
 90
       34
 90
       95
 90
       96
 90
        4
 90
       34
 90
       35
 90
       94
 90
       95
 90
        4
 90
       35
 90
       36
 90
      101
 90
       94
 90
        4
 90
       36
 90
       37
 90
      104
 90
      101
 90
        4
 90
       37
 90
       38
 90
      108
 90
      104
 90
        4
 90
       38
 90
       39
 90
      110
 90
      108
 90
        4
 90
       39
 90
       40
 90
      112
 90
      110
 90
        4
 90
       40
 90
       41
 90
      114
 90
      112
 90
        4
 90
       41
 90
       42
 90
      122
 90
      114
 90
        4
 90
       42
 90
       43
 90
      123
 90
      122
 90
        4
 90
       43
 90
       44
 90
      135
 90
      123
 90
        4
 90
       44
 90
       45
 90
      134
 90
      135
 90
        4
 90
       45
 90
       46
 90
      137
 90
      134
 90
        4
 90
       46
 90
       47
 90
      136
 90
      137
 90
        4
 90
       47
 90
       48
 90
      131
 90
      136
 90
        4
 90
       48
 90
       49
 90
       57
 90
      131
 90
        4
 90
       49
 90
       50
 90
      124
 90
       57
 90
        4
 90
       50
 90
       51
 90
      119
 90
      124
 90
        4
 90
       51
 90
       52
 90
      117
 90
      119
 90
        4
 90
       52
 90
       53
 90
      115
 90
      117
 90
        4
 90
       53
 90
       54
 90
       92
 90
      115
 90
        4
 90
       54
 90
        0
 90
       76
 90
       92
 90
        4
 90
        0
 90
        1
 90
       79
 90
       76
 90
        4
 90
        1
 90
        2
 90
       91
 90
       79
 90
        4
 90
        2
 90
        3
 90
       90
 90
       91
 90
        4
 90
        3
 90
        4
 90
       89
 90
       90
 90
        4
 90
        4
 90
        5
 90
       88
 90
       89
 90
        4
 90
        5
 90
        6
 90
       87
 90
       88
 90
        4
 90
        6
 90
        7
 90
       86
 90
       87
 90
        4
 90
        7
 90
        8
 90
       84
 90
       86
 90
        4
 90
        8
 90
        9
 90
       82
 90
       84
 90
        4
 90
        9
 90
       10
 90
       81
 90
       82
 90
        4
 90
       58
 90
       67
 90
       74
 90
       55
 90
        4
 90
       59
 90
       68
 90
       77
 90
       78
 90
        4
 90
       60
 90
       69
 90
      118
 90
      116
 90
        4
 90
       61
 90
       70
 90
      126
 90
      121
 90
        4
 90
       62
 90
       71
 90
      127
 90
      128
 90
        4
 90
       63
 90
       72
 90
      133
 90
      129
 90
        4
 90
       64
 90
       73
 90
       75
 90
       56
 90
        4
 90
       67
 90
       14
 90
       65
 90
       74
 90
        4
 90
       68
 90
       15
 90
       93
 90
       77
 90
        4
 90
       69
 90
       16
 90
      120
 90
      118
 90
        4
 90
       70
 90
       17
 90
      125
 90
      126
 90
        4
 90
       71
 90
       18
 90
      130
 90
      127
 90
        4
 90
       72
 90
       19
 90
      132
 90
      133
 90
        4
 90
       73
 90
       20
 90
       66
 90
       75
 90
        4
 90
        0
 90
       68
 90
       59
 90
        1
 90
        3
 90
       11
 90
       10
 90
        9
 90
        4
 90
       12
 90
       11
 90
        9
 90
        8
 90
        4
 90
       13
 90
       12
 90
        8
 90
        7
 90
        4
 90
       58
 90
       13
 90
        7
 90
        6
 90
        4
 90
       67
 90
       58
 90
        6
 90
        5
 90
        4
 90
       14
 90
       67
 90
        5
 90
        4
 90
        4
 90
       59
 90
       14
 90
        4
 90
        3
 90
        3
 90
       59
 90
        3
 90
        2
 90
        3
 90
       59
 90
        2
 90
        1
 90
        4
 90
        0
 90
       54
 90
       15
 90
       68
 90
        3
 90
       35
 90
       34
 90
       33
 90
        3
 90
       35
 90
       33
 90
       32
 90
        3
 90
       35
 90
       32
 90
       31
 90
        3
 90
       35
 90
       31
 90
       30
 90
        3
 90
       35
 90
       30
 90
       29
 90
        4
 90
       36
 90
       35
 90
       29
 90
       28
 90
        3
 90
       36
 90
       28
 90
       27
 90
        3
 90
       37
 90
       26
 90
       25
 90
        3
 90
       37
 90
       25
 90
       24
 90
        3
 90
       37
 90
       36
 90
       26
 90
        3
 90
       36
 90
       27
 90
       26
 90
        4
 90
       38
 90
       37
 90
       24
 90
       23
 90
        4
 90
       39
 90
       38
 90
       23
 90
       22
 90
        4
 90
       40
 90
       39
 90
       22
 90
       21
 90
        4
 90
       41
 90
       40
 90
       21
 90
       20
 90
        4
 90
       54
 90
       53
 90
       60
 90
       15
 90
        4
 90
       53
 90
       52
 90
       69
 90
       60
 90
        4
 90
       52
 90
       51
 90
       16
 90
       69
 90
        3
 90
       51
 90
       61
 90
       16
 90
        4
 90
       42
 90
       41
 90
       20
 90
       73
 90
        3
 90
       43
 90
       42
 90
       73
 90
        4
 90
       51
 90
       50
 90
       17
 90
       70
 90
        3
 90
       51
 90
       70
 90
       61
 90
        4
 90
       50
 90
       49
 90
       71
 90
       62
 90
        3
 90
       50
 90
       62
 90
       17
 90
        3
 90
       49
 90
       63
 90
       18
 90
        3
 90
       49
 90
       18
 90
       71
 90
        4
 90
       49
 90
       48
 90
       19
 90
       72
 90
        3
 90
       49
 90
       72
 90
       63
 90
        3
 90
       45
 90
       44
 90
       64
 90
        4
 90
       44
 90
       43
 90
       73
 90
       64
 90
        3
 90
       47
 90
       46
 90
       19
 90
        3
 90
       48
 90
       47
 90
       19
 90
        3
 90
       46
 90
       45
 90
       64
 90
        3
 90
       46
 90
       64
 90
       19
 90
        4
 90
       76
 90
       79
 90
       78
 90
       77
 90
        3
 90
       80
 90
       82
 90
       81
 90
        4
 90
       83
 90
       84
 90
       82
 90
       80
 90
        4
 90
       85
 90
       86
 90
       84
 90
       83
 90
        4
 90
       55
 90
       87
 90
       86
 90
       85
 90
        4
 90
       74
 90
       88
 90
       87
 90
       55
 90
        4
 90
       65
 90
       89
 90
       88
 90
       74
 90
        4
 90
       78
 90
       90
 90
       89
 90
       65
 90
        3
 90
       78
 90
       91
 90
       90
 90
        3
 90
       78
 90
       79
 90
       91
 90
        4
 90
       76
 90
       77
 90
       93
 90
       92
 90
        3
 90
       94
 90
       96
 90
       95
 90
        3
 90
       94
 90
       97
 90
       96
 90
        3
 90
       94
 90
       98
 90
       97
 90
        3
 90
       94
 90
       99
 90
       98
 90
        3
 90
       94
 90
      100
 90
       99
 90
        4
 90
      101
 90
      102
 90
      100
 90
       94
 90
        3
 90
      101
 90
      103
 90
      102
 90
        3
 90
      104
 90
      106
 90
      105
 90
        3
 90
      104
 90
      107
 90
      106
 90
        3
 90
      104
 90
      105
 90
      101
 90
        3
 90
      101
 90
      105
 90
      103
 90
        4
 90
      108
 90
      109
 90
      107
 90
      104
 90
        4
 90
      110
 90
      111
 90
      109
 90
      108
 90
        4
 90
      112
 90
      113
 90
      111
 90
      110
 90
        4
 90
      114
 90
       66
 90
      113
 90
      112
 90
        4
 90
       92
 90
       93
 90
      116
 90
      115
 90
        4
 90
      115
 90
      116
 90
      118
 90
      117
 90
        4
 90
      117
 90
      118
 90
      120
 90
      119
 90
        3
 90
      119
 90
      120
 90
      121
 90
        4
 90
      122
 90
       75
 90
       66
 90
      114
 90
        3
 90
      123
 90
       75
 90
      122
 90
        4
 90
      119
 90
      126
 90
      125
 90
      124
 90
        3
 90
      119
 90
      121
 90
      126
 90
        4
 90
      124
 90
      128
 90
      127
 90
       57
 90
        3
 90
      124
 90
      125
 90
      128
 90
        3
 90
       57
 90
      130
 90
      129
 90
        3
 90
       57
 90
      127
 90
      130
 90
        4
 90
       57
 90
      133
 90
      132
 90
      131
 90
        3
 90
       57
 90
      129
 90
      133
 90
        3
 90
      134
 90
       56
 90
      135
 90
        4
 90
      135
 90
       56
 90
       75
 90
      123
 90
        3
 90
      136
 90
      132
 90
      137
 90
        3
 90
      131
 90
      132
 90
      136
 90
        3
 90
      137
 90
       56
 90
      134
 90
        3
 90
      137
 90
      132
 90
       56
 94
      297
 90
       10
 90
       11
 90
       11
 90
       80
 90
       80
 90
       81
 90
       10
 90
       81
 90
       11
 90
       12
 90
       12
 90
       83
 90
       80
 90
       83
 90
       12
 90
       13
 90
       13
 90
       85
 90
       83
 90
       85
 90
       13
 90
       58
 90
       55
 90
       58
 90
       55
 90
       85
 90
       14
 90
       59
 90
       59
 90
       78
 90
       65
 90
       78
 90
       14
 90
       65
 90
       15
 90
       60
 90
       60
 90
      116
 90
       93
 90
      116
 90
       15
 90
       93
 90
       16
 90
       61
 90
       61
 90
      121
 90
      120
 90
      121
 90
       16
 90
      120
 90
       17
 90
       62
 90
       62
 90
      128
 90
      125
 90
      128
 90
       17
 90
      125
 90
       18
 90
       63
 90
       63
 90
      129
 90
      129
 90
      130
 90
       18
 90
      130
 90
       19
 90
       64
 90
       56
 90
       64
 90
       56
 90
      132
 90
       19
 90
      132
 90
       20
 90
       21
 90
       21
 90
      113
 90
       66
 90
      113
 90
       20
 90
       66
 90
       21
 90
       22
 90
       22
 90
      111
 90
      111
 90
      113
 90
       22
 90
       23
 90
       23
 90
      109
 90
      109
 90
      111
 90
       23
 90
       24
 90
       24
 90
      107
 90
      107
 90
      109
 90
       24
 90
       25
 90
       25
 90
      106
 90
      106
 90
      107
 90
       25
 90
       26
 90
       26
 90
      105
 90
      105
 90
      106
 90
       26
 90
       27
 90
       27
 90
      103
 90
      103
 90
      105
 90
       27
 90
       28
 90
       28
 90
      102
 90
      102
 90
      103
 90
       28
 90
       29
 90
       29
 90
      100
 90
      100
 90
      102
 90
       29
 90
       30
 90
       30
 90
       99
 90
       99
 90
      100
 90
       30
 90
       31
 90
       31
 90
       98
 90
       98
 90
       99
 90
       31
 90
       32
 90
       32
 90
       97
 90
       97
 90
       98
 90
       32
 90
       33
 90
       33
 90
       96
 90
       96
 90
       97
 90
       33
 90
       34
 90
       34
 90
       95
 90
       95
 90
       96
 90
       34
 90
       35
 90
       35
 90
       94
 90
       94
 90
       95
 90
       35
 90
       36
 90
       36
 90
      101
 90
       94
 90
      101
 90
       36
 90
       37
 90
       37
 90
      104
 90
      101
 90
      104
 90
       37
 90
       38
 90
       38
 90
      108
 90
      104
 90
      108
 90
       38
 90
       39
 90
       39
 90
      110
 90
      108
 90
      110
 90
       39
 90
       40
 90
       40
 90
      112
 90
      110
 90
      112
 90
       40
 90
       41
 90
       41
 90
      114
 90
      112
 90
      114
 90
       41
 90
       42
 90
       42
 90
      122
 90
      114
 90
      122
 90
       42
 90
       43
 90
       43
 90
      123
 90
      122
 90
      123
 90
       43
 90
       44
 90
       44
 90
      135
 90
      123
 90
      135
 90
       44
 90
       45
 90
       45
 90
      134
 90
      134
 90
      135
 90
       45
 90
       46
 90
       46
 90
      137
 90
      134
 90
      137
 90
       46
 90
       47
 90
       47
 90
      136
 90
      136
 90
      137
 90
       47
 90
       48
 90
       48
 90
      131
 90
      131
 90
      136
 90
       48
 90
       49
 90
       49
 90
       57
 90
       57
 90
      131
 90
       49
 90
       50
 90
       50
 90
      124
 90
       57
 90
      124
 90
       50
 90
       51
 90
       51
 90
      119
 90
      119
 90
      124
 90
       51
 90
       52
 90
       52
 90
      117
 90
      117
 90
      119
 90
       52
 90
       53
 90
       53
 90
      115
 90
      115
 90
      117
 90
       53
 90
       54
 90
       54
 90
       92
 90
       92
 90
      115
 90
        0
 90
       54
 90
        0
 90
       76
 90
       76
 90
       92
 90
        0
 90
        1
 90
        1
 90
       79
 90
       76
 90
       79
 90
        1
 90
        2
 90
        2
 90
       91
 90
       79
 90
       91
 90
        2
 90
        3
 90
        3
 90
       90
 90
       90
 90
       91
 90
        3
 90
        4
 90
        4
 90
       89
 90
       89
 90
       90
 90
        4
 90
        5
 90
        5
 90
       88
 90
       88
 90
       89
 90
        5
 90
        6
 90
        6
 90
       87
 90
       87
 90
       88
 90
        6
 90
        7
 90
        7
 90
       86
 90
       86
 90
       87
 90
        7
 90
        8
 90
        8
 90
       84
 90
       84
 90
       86
 90
        8
 90
        9
 90
        9
 90
       82
 90
       82
 90
       84
 90
        9
 90
       10
 90
       81
 90
       82
 90
       58
 90
       67
 90
       67
 90
       74
 90
       55
 90
       74
 90
       59
 90
       68
 90
       68
 90
       77
 90
       77
 90
       78
 90
       60
 90
       69
 90
       69
 90
      118
 90
      116
 90
      118
 90
       61
 90
       70
 90
       70
 90
      126
 90
      121
 90
      126
 90
       62
 90
       71
 90
       71
 90
      127
 90
      127
 90
      128
 90
       63
 90
       72
 90
       72
 90
      133
 90
      129
 90
      133
 90
       64
 90
       73
 90
       73
 90
       75
 90
       56
 90
       75
 90
       14
 90
       67
 90
       65
 90
       74
 90
       15
 90
       68
 90
       77
 90
       93
 90
       16
 90
       69
 90
      118
 90
      120
 90
       17
 90
       70
 90
      125
 90
      126
 90
       18
 90
       71
 90
      127
 90
      130
 90
       19
 90
       72
 90
      132
 90
      133
 90
       20
 90
       73
 90
       66
 90
       75
 90
        0
 90
       68
 90
        1
 90
       59
 90
        9
 90
       11
 90
        8
 90
       12
 90
        7
 90
       13
 90
        6
 90
       58
 90
        5
 90
       67
 90
        4
 90
       14
 90
        3
 90
       59
 90
        2
 90
       59
 90
       15
 90
       54
 90
       33
 90
       35
 90
       32
 90
       35
 90
       31
 90
       35
 90
       30
 90
       35
 90
       29
 90
       35
 90
       28
 90
       36
 90
       27
 90
       36
 90
       26
 90
       37
 90
       25
 90
       37
 90
       24
 90
       37
 90
       26
 90
       36
 90
       23
 90
       38
 90
       22
 90
       39
 90
       21
 90
       40
 90
       20
 90
       41
 90
       53
 90
       60
 90
       52
 90
       69
 90
       16
 90
       51
 90
       51
 90
       61
 90
       42
 90
       73
 90
       43
 90
       73
 90
       17
 90
       50
 90
       51
 90
       70
 90
       49
 90
       71
 90
       50
 90
       62
 90
       49
 90
       63
 90
       18
 90
       49
 90
       19
 90
       48
 90
       49
 90
       72
 90
       44
 90
       64
 90
       45
 90
       64
 90
       19
 90
       46
 90
       19
 90
       47
 90
       46
 90
       64
 90
       78
 90
       79
 90
       76
 90
       77
 90
       80
 90
       82
 90
       83
 90
       84
 90
       85
 90
       86
 90
       55
 90
       87
 90
       74
 90
       88
 90
       65
 90
       89
 90
       78
 90
       90
 90
       78
 90
       91
 90
       92
 90
       93
 90
       94
 90
       96
 90
       94
 90
       97
 90
       94
 90
       98
 90
       94
 90
       99
 90
       94
 90
      100
 90
      101
 90
      102
 90
      101
 90
      103
 90
      104
 90
      106
 90
      104
 90
      105
 90
      104
 90
      107
 90
      101
 90
      105
 90
      108
 90
      109
 90
      110
 90
      111
 90
      112
 90
      113
 90
       66
 90
      114
 90
      115
 90
      116
 90
      117
 90
      118
 90
      119
 90
      120
 90
      119
 90
      121
 90
       75
 90
      122
 90
       75
 90
      123
 90
      119
 90
      126
 90
      124
 90
      125
 90
      124
 90
      128
 90
       57
 90
      127
 90
       57
 90
      130
 90
       57
 90
      129
 90
       57
 90
      133
 90
      131
 90
      132
 90
       56
 90
      134
 90
       56
 90
      135
 90
      132
 90
      136
 90
      132
 90
      137
 90
       56
 90
      137
 95
      297
140
0.0
140
0.0
140
0.0
140
0.0
140
0.0
140
0.0
140
0.0
140
0.0
140
0.0
140
0.0
140
0.0
140
0.0
140
0.0
140
0.0
140
0.0
140
0.0
140
0.0
140
0.0
140
0.0
140
0.0
140
0.0
140
0.0
140
0.0
140
0.0
140
0.0
140
0.0
140
0.0
140
0.0
140
0.0
140
0.0
140
0.0
140
0.0
140
0.0
140
0.0
140
0.0
140
0.0
140
0.0
140
0.0
140
0.0
140
0.0
140
0.0
140
0.0
140
0.0
140
0.0
140
0.0
140
0.0
140
0.0
140
0.0
140
0.0
140
0.0
140
0.0
140
0.0
140
0.0
140
0.0
140
0.0
140
0.0
140
0.0
140
0.0
140
0.0
140
0.0
140
0.0
140
0.0
140
0.0
140
0.0
140
0.0
140
0.0
140
0.0
140
0.0
140
0.0
140
0.0
140
0.0
140
0.0
140
0.0
140
0.0
140
0.0
140
0.0
140
0.0
140
0.0
140
0.0
140
0.0
140
0.0
140
0.0
140
0.0
140
0.0
140
0.0
140
0.0
140
0.0
140
0.0
140
0.0
140
0.0
140
0.0
140
0.0
140
0.0
140
0.0
140
0.0
140
0.0
140
0.0
140
0.0
140
0.0
140
0.0
140
0.0
140
0.0
140
0.0
140
0.0
140
0.0
140
0.0
140
0.0
140
0.0
140
0.0
140
0.0
140
0.0
140
0.0
140
0.0
140
0.0
140
0.0
140
0.0
140
0.0
140
0.0
140
0.0
140
0.0
140
0.0
140
0.0
140
0.0
140
0.0
140
0.0
140
0.0
140
0.0
140
0.0
140
0.0
140
0.0
140
0.0
140
0.0
140
0.0
140
0.0
140
0.0
140
0.0
140
0.0
140
0.0
140
0.0
140
0.0
140
0.0
140
0.0
140
0.0
140
0.0
140
0.0
140
0.0
140
0.0
140
0.0
140
0.0
140
0.0
140
0.0
140
0.0
140
0.0
140
0.0
140
0.0
140
0.0
140
0.0
140
0.0
140
0.0
140
0.0
140
0.0
140
0.0
140
0.0
140
0.0
140
0.0
140
0.0
140
0.0
140
0.0
140
0.0
140
0.0
140
0.0
140
0.0
140
0.0
140
0.0
140
0.0
140
0.0
140
0.0
140
0.0
140
0.0
140
0.0
140
0.0
140
0.0
140
0.0
140
0.0
140
0.0
140
0.0
140
0.0
140
0.0
140
0.0
140
0.0
140
0.0
140
0.0
140
0.0
140
0.0
140
0.0
140
0.0
140
0.0
140
0.0
140
0.0
140
0.0
140
0.0
140
0.0
140
0.0
140
0.0
140
0.0
140
0.0
140
0.0
140
0.0
140
0.0
140
0.0
140
0.0
140
0.0
140
0.0
140
0.0
140
0.0
140
0.0
140
0.0
140
0.0
140
0.0
140
0.0
140
0.0
140
0.0
140
0.0
140
0.0
140
0.0
140
0.0
140
0.0
140
0.0
140
0.0
140
0.0
140
0.0
140
0.0
140
0.0
140
0.0
140
0.0
140
0.0
140
0.0
140
0.0
140
0.0
140
0.0
140
0.0
140
0.0
140
0.0
140
0.0
140
0.0
140
0.0
140
0.0
140
0.0
140
0.0
140
0.0
140
0.0
140
0.0
140
0.0
140
0.0
140
0.0
140
0.0
140
0.0
140
0.0
140
0.0
140
0.0
140
0.0
140
0.0
140
0.0
140
0.0
140
0.0
140
0.0
140
0.0
140
0.0
140
0.0
140
0.0
140
0.0
140
0.0
140
0.0
140
0.0
140
0.0
140
0.0
140
0.0
140
0.0
140
0.0
140
0.0
140
0.0
140
0.0
140
0.0
140
0.0
140
0.0
140
0.0
140
0.0
140
0.0
140
0.0
140
0.0
140
0.0
140
0.0
140
0.0
140
0.0
140
0.0
140
0.0
140
0.0
 90
        0
  0
POLYLINE
  5
FA
330
1F
100
AcDbEntity
  8
OracDecor_cornice_mouldings
 62
    41
420
 14997145
100
AcDb2dPolyline
 66
     1
 10
0.0
 20
0.0
 30
0.0000004210106113
 70
     1
210
-0.9999999999999769
220
0.0000001788139343
230
-0.0000001192092896
  0
VERTEX
  5
FB
330
FA
100
AcDbEntity
  8
OracDecor_cornice_mouldings
 62
    41
420
 14997145
100
AcDbVertex
100
AcDb2dVertex
 10
-26.48992538452148
 20
0.0000045515971578
 30
0.0000004210106113
  0
VERTEX
  5
FC
330
FA
100
AcDbEntity
  8
OracDecor_cornice_mouldings
 62
    41
420
 14997145
100
AcDbVertex
100
AcDb2dVertex
 10
-31.28895568847656
 20
0.0000046850973376
 30
0.0000004210106113
  0
VERTEX
  5
FD
330
FA
100
AcDbEntity
  8
OracDecor_cornice_mouldings
 62
    41
420
 14997145
100
AcDbVertex
100
AcDb2dVertex
 10
-31.54201889038086
 20
-0.0333338566124439
 30
0.0000004210106113
  0
VERTEX
  5
FE
330
FA
100
AcDbEntity
  8
OracDecor_cornice_mouldings
 62
    41
420
 14997145
100
AcDbVertex
100
AcDb2dVertex
 10
-31.77784729003906
 20
-0.1309939175844192
 30
0.0000004210106113
  0
VERTEX
  5
FF
330
FA
100
AcDbEntity
  8
OracDecor_cornice_mouldings
 62
    41
420
 14997145
100
AcDbVertex
100
AcDb2dVertex
 10
-32.75563049316406
 20
-0.6955137848854065
 30
0.0000004210106113
  0
VERTEX
  5
100
330
FA
100
AcDbEntity
  8
OracDecor_cornice_mouldings
 62
    41
420
 14997145
100
AcDbVertex
100
AcDb2dVertex
 10
-33.24451446533203
 20
-0.826512336730957
 30
0.0000004210106113
  0
VERTEX
  5
101
330
FA
100
AcDbEntity
  8
OracDecor_cornice_mouldings
 62
    41
420
 14997145
100
AcDbVertex
100
AcDb2dVertex
 10
-33.73340606689453
 20
-0.6955137848854065
 30
0.0000004210106113
  0
VERTEX
  5
102
330
FA
100
AcDbEntity
  8
OracDecor_cornice_mouldings
 62
    41
420
 14997145
100
AcDbVertex
100
AcDb2dVertex
 10
-34.71118927001953
 20
-0.1309938281774521
 30
0.0000004210106113
  0
VERTEX
  5
103
330
FA
100
AcDbEntity
  8
OracDecor_cornice_mouldings
 62
    41
420
 14997145
100
AcDbVertex
100
AcDb2dVertex
 10
-34.94701385498047
 20
-0.0333337597548962
 30
0.0000004210106113
  0
VERTEX
  5
104
330
FA
100
AcDbEntity
  8
OracDecor_cornice_mouldings
 62
    41
420
 14997145
100
AcDbVertex
100
AcDb2dVertex
 10
-35.20008087158203
 20
0.0000047938974603
 30
0.0000004210106113
  0
VERTEX
  5
105
330
FA
100
AcDbEntity
  8
OracDecor_cornice_mouldings
 62
    41
420
 14997145
100
AcDbVertex
100
AcDb2dVertex
 10
-44.0000991821289
 20
0.000001224000016
 30
0.0000004210106113
  0
VERTEX
  5
106
330
FA
100
AcDbEntity
  8
OracDecor_cornice_mouldings
 62
    41
420
 14997145
100
AcDbVertex
100
AcDb2dVertex
 10
-44.0000991821289
 20
-3.716074705123901
 30
0.0000004210106113
  0
VERTEX
  5
107
330
FA
100
AcDbEntity
  8
OracDecor_cornice_mouldings
 62
    41
420
 14997145
100
AcDbVertex
100
AcDb2dVertex
 10
-43.94318389892577
 20
-3.853991270065307
 30
0.0000004210106113
  0
VERTEX
  5
108
330
FA
100
AcDbEntity
  8
OracDecor_cornice_mouldings
 62
    41
420
 14997145
100
AcDbVertex
100
AcDb2dVertex
 10
-43.80556488037109
 20
-3.911627531051635
 30
0.0000004210106113
  0
VERTEX
  5
109
330
FA
100
AcDbEntity
  8
OracDecor_cornice_mouldings
 62
    41
420
 14997145
100
AcDbVertex
100
AcDb2dVertex
 10
-38.9576644897461
 20
-4.403566837310791
 30
0.0000004210106113
  0
VERTEX
  5
10A
330
FA
100
AcDbEntity
  8
OracDecor_cornice_mouldings
 62
    41
420
 14997145
100
AcDbVertex
100
AcDb2dVertex
 10
-36.74679183959961
 20
-4.73531150817871
 30
0.0000004210106113
  0
VERTEX
  5
10B
330
FA
100
AcDbEntity
  8
OracDecor_cornice_mouldings
 62
    41
420
 14997145
100
AcDbVertex
100
AcDb2dVertex
 10
-34.57793426513672
 20
-5.277586460113525
 30
0.0000004210106113
  0
VERTEX
  5
10C
330
FA
100
AcDbEntity
  8
OracDecor_cornice_mouldings
 62
    41
420
 14997145
100
AcDbVertex
100
AcDb2dVertex
 10
-32.06267166137696
 20
-6.035894870758056
 30
0.0000004210106113
  0
VERTEX
  5
10D
330
FA
100
AcDbEntity
  8
OracDecor_cornice_mouldings
 62
    41
420
 14997145
100
AcDbVertex
100
AcDb2dVertex
 10
-29.95550918579102
 20
-6.782789707183837
 30
0.0000004210106113
  0
VERTEX
  5
10E
330
FA
100
AcDbEntity
  8
OracDecor_cornice_mouldings
 62
    41
420
 14997145
100
AcDbVertex
100
AcDb2dVertex
 10
-27.92971611022949
 20
-7.728392124176025
 30
0.0000004210106113
  0
VERTEX
  5
10F
330
FA
100
AcDbEntity
  8
OracDecor_cornice_mouldings
 62
    41
420
 14997145
100
AcDbVertex
100
AcDb2dVertex
 10
-25.60222434997559
 20
-8.953582763671875
 30
0.0000004210106113
  0
VERTEX
  5
110
330
FA
100
AcDbEntity
  8
OracDecor_cornice_mouldings
 62
    41
420
 14997145
100
AcDbVertex
100
AcDb2dVertex
 10
-23.67600440979004
 20
-10.08833408355713
 30
0.0000004210106113
  0
VERTEX
  5
111
330
FA
100
AcDbEntity
  8
OracDecor_cornice_mouldings
 62
    41
420
 14997145
100
AcDbVertex
100
AcDb2dVertex
 10
-21.8675594329834
 20
-11.40267848968506
 30
0.0000004210106113
  0
VERTEX
  5
112
330
FA
100
AcDbEntity
  8
OracDecor_cornice_mouldings
 62
    41
420
 14997145
100
AcDbVertex
100
AcDb2dVertex
 10
-19.81833839416504
 20
-13.04731845855713
 30
0.0000004210106113
  0
VERTEX
  5
113
330
FA
100
AcDbEntity
  8
OracDecor_cornice_mouldings
 62
    41
420
 14997145
100
AcDbVertex
100
AcDb2dVertex
 10
-18.1436538696289
 20
-14.52834892272949
 30
0.0000004210106113
  0
VERTEX
  5
114
330
FA
100
AcDbEntity
  8
OracDecor_cornice_mouldings
 62
    41
420
 14997145
100
AcDbVertex
100
AcDb2dVertex
 10
-16.61872482299805
 20
-16.16316223144531
 30
0.0000004210106113
  0
VERTEX
  5
115
330
FA
100
AcDbEntity
  8
OracDecor_cornice_mouldings
 62
    41
420
 14997145
100
AcDbVertex
100
AcDb2dVertex
 10
-14.92030811309814
 20
-18.16803932189941
 30
0.0000004210106113
  0
VERTEX
  5
116
330
FA
100
AcDbEntity
  8
OracDecor_cornice_mouldings
 62
    41
420
 14997145
100
AcDbVertex
100
AcDb2dVertex
 10
-13.55845832824707
 20
-19.94098854064941
 30
0.0000004210106113
  0
VERTEX
  5
117
330
FA
100
AcDbEntity
  8
OracDecor_cornice_mouldings
 62
    41
420
 14997145
100
AcDbVertex
100
AcDb2dVertex
 10
-12.37301254272461
 20
-21.83642959594727
 30
0.0000004210106113
  0
VERTEX
  5
118
330
FA
100
AcDbEntity
  8
OracDecor_cornice_mouldings
 62
    41
420
 14997145
100
AcDbVertex
100
AcDb2dVertex
 10
-11.08651828765869
 20
-24.13060760498047
 30
0.0000004210106113
  0
VERTEX
  5
119
330
FA
100
AcDbEntity
  8
OracDecor_cornice_mouldings
 62
    41
420
 14997145
100
AcDbVertex
100
AcDb2dVertex
 10
-10.08751487731933
 20
-26.13060569763184
 30
0.0000004210106113
  0
VERTEX
  5
11A
330
FA
100
AcDbEntity
  8
OracDecor_cornice_mouldings
 62
    41
420
 14997145
100
AcDbVertex
100
AcDb2dVertex
 10
-9.284992218017578
 20
-28.21721649169922
 30
0.0000004210106113
  0
VERTEX
  5
11B
330
FA
100
AcDbEntity
  8
OracDecor_cornice_mouldings
 62
    41
420
 14997145
100
AcDbVertex
100
AcDb2dVertex
 10
-8.460234642028808
 20
-30.71147918701172
 30
0.0000004210106113
  0
VERTEX
  5
11C
330
FA
100
AcDbEntity
  8
OracDecor_cornice_mouldings
 62
    41
420
 14997145
100
AcDbVertex
100
AcDb2dVertex
 10
-7.860620975494384
 20
-32.86519241333008
 30
0.0000004210106113
  0
VERTEX
  5
11D
330
FA
100
AcDbEntity
  8
OracDecor_cornice_mouldings
 62
    41
420
 14997145
100
AcDbVertex
100
AcDb2dVertex
 10
-7.470350742340087
 20
-35.06648635864258
 30
0.0000004210106113
  0
VERTEX
  5
11E
330
FA
100
AcDbEntity
  8
OracDecor_cornice_mouldings
 62
    41
420
 14997145
100
AcDbVertex
100
AcDb2dVertex
 10
-6.849995613098144
 20
-39.8996353149414
 30
0.0000004210106113
  0
VERTEX
  5
11F
330
FA
100
AcDbEntity
  8
OracDecor_cornice_mouldings
 62
    41
420
 14997145
100
AcDbVertex
100
AcDb2dVertex
 10
-6.790602684020996
 20
-40.03388214111327
 30
0.0000004210106113
  0
VERTEX
  5
120
330
FA
100
AcDbEntity
  8
OracDecor_cornice_mouldings
 62
    41
420
 14997145
100
AcDbVertex
100
AcDb2dVertex
 10
-6.65453815460205
 20
-40.08898162841797
 30
0.0000004210106113
  0
VERTEX
  5
121
330
FA
100
AcDbEntity
  8
OracDecor_cornice_mouldings
 62
    41
420
 14997145
100
AcDbVertex
100
AcDb2dVertex
 10
-4.106678962707519
 20
-40.08898162841797
 30
0.0000004210106113
  0
VERTEX
  5
122
330
FA
100
AcDbEntity
  8
OracDecor_cornice_mouldings
 62
    41
420
 14997145
100
AcDbVertex
100
AcDb2dVertex
 10
-4.031739234924316
 20
-40.10390853881836
 30
0.0000004210106113
  0
VERTEX
  5
123
330
FA
100
AcDbEntity
  8
OracDecor_cornice_mouldings
 62
    41
420
 14997145
100
AcDbVertex
100
AcDb2dVertex
 10
-3.96839952468872
 20
-40.14625549316406
 30
0.0000004210106113
  0
VERTEX
  5
124
330
FA
100
AcDbEntity
  8
OracDecor_cornice_mouldings
 62
    41
420
 14997145
100
AcDbVertex
100
AcDb2dVertex
 10
-3.926050662994384
 20
-40.20959854125976
 30
0.0000004210106113
  0
VERTEX
  5
125
330
FA
100
AcDbEntity
  8
OracDecor_cornice_mouldings
 62
    41
420
 14997145
100
AcDbVertex
100
AcDb2dVertex
 10
-3.911121845245361
 20
-40.2845344543457
 30
0.0000004210106113
  0
VERTEX
  5
126
330
FA
100
AcDbEntity
  8
OracDecor_cornice_mouldings
 62
    41
420
 14997145
100
AcDbVertex
100
AcDb2dVertex
 10
-3.911123037338256
 20
-43.8045425415039
 30
0.0000004210106113
  0
VERTEX
  5
127
330
FA
100
AcDbEntity
  8
OracDecor_cornice_mouldings
 62
    41
420
 14997145
100
AcDbVertex
100
AcDb2dVertex
 10
-3.896194219589233
 20
-43.87948226928711
 30
0.0000004210106113
  0
VERTEX
  5
128
330
FA
100
AcDbEntity
  8
OracDecor_cornice_mouldings
 62
    41
420
 14997145
100
AcDbVertex
100
AcDb2dVertex
 10
-3.853845357894897
 20
-43.94282150268554
 30
0.0000004210106113
  0
VERTEX
  5
129
330
FA
100
AcDbEntity
  8
OracDecor_cornice_mouldings
 62
    41
420
 14997145
100
AcDbVertex
100
AcDb2dVertex
 10
-3.790506124496459
 20
-43.98517227172852
 30
0.0000004210106113
  0
VERTEX
  5
12A
330
FA
100
AcDbEntity
  8
OracDecor_cornice_mouldings
 62
    41
420
 14997145
100
AcDbVertex
100
AcDb2dVertex
 10
-3.715566396713256
 20
-44.0000991821289
 30
0.0000004210106113
  0
VERTEX
  5
12B
330
FA
100
AcDbEntity
  8
OracDecor_cornice_mouldings
 62
    41
420
 14997145
100
AcDbVertex
100
AcDb2dVertex
 10
-0.0000025558761081
 20
-44.0000991821289
 30
0.0000004210106113
  0
VERTEX
  5
12C
330
FA
100
AcDbEntity
  8
OracDecor_cornice_mouldings
 62
    41
420
 14997145
100
AcDbVertex
100
AcDb2dVertex
 10
-0.0000019575145416
 20
-37.1556396484375
 30
0.0000004210106113
  0
VERTEX
  5
12D
330
FA
100
AcDbEntity
  8
OracDecor_cornice_mouldings
 62
    41
420
 14997145
100
AcDbVertex
100
AcDb2dVertex
 10
-0.0333395302295685
 20
-36.9025764465332
 30
0.0000004210106113
  0
VERTEX
  5
12E
330
FA
100
AcDbEntity
  8
OracDecor_cornice_mouldings
 62
    41
420
 14997145
100
AcDbVertex
100
AcDb2dVertex
 10
-0.1309995651245117
 20
-36.66675186157227
 30
0.0000004210106113
  0
VERTEX
  5
12F
330
FA
100
AcDbEntity
  8
OracDecor_cornice_mouldings
 62
    41
420
 14997145
100
AcDbVertex
100
AcDb2dVertex
 10
-0.6955193281173706
 20
-35.68896865844727
 30
0.0000004210106113
  0
VERTEX
  5
130
330
FA
100
AcDbEntity
  8
OracDecor_cornice_mouldings
 62
    41
420
 14997145
100
AcDbVertex
100
AcDb2dVertex
 10
-0.8265179395675659
 20
-35.20008087158203
 30
0.0000004210106113
  0
VERTEX
  5
131
330
FA
100
AcDbEntity
  8
OracDecor_cornice_mouldings
 62
    41
420
 14997145
100
AcDbVertex
100
AcDb2dVertex
 10
-0.6955192685127259
 20
-34.71118927001953
 30
0.0000004210106113
  0
VERTEX
  5
132
330
FA
100
AcDbEntity
  8
OracDecor_cornice_mouldings
 62
    41
420
 14997145
100
AcDbVertex
100
AcDb2dVertex
 10
-0.130998358130455
 20
-33.7334098815918
 30
0.0000004210106113
  0
VERTEX
  5
133
330
FA
100
AcDbEntity
  8
OracDecor_cornice_mouldings
 62
    41
420
 14997145
100
AcDbVertex
100
AcDb2dVertex
 10
-0.0333382785320282
 20
-33.49758148193359
 30
0.0000004210106113
  0
VERTEX
  5
134
330
FA
100
AcDbEntity
  8
OracDecor_cornice_mouldings
 62
    41
420
 14997145
100
AcDbVertex
100
AcDb2dVertex
 10
-0.000000661918989
 20
-33.2445182800293
 30
0.0000004210106113
  0
VERTEX
  5
135
330
FA
100
AcDbEntity
  8
OracDecor_cornice_mouldings
 62
    41
420
 14997145
100
AcDbVertex
100
AcDb2dVertex
 10
-0.0000023206832793
 20
-30.40104675292969
 30
0.0000004210106113
  0
VERTEX
  5
136
330
FA
100
AcDbEntity
  8
OracDecor_cornice_mouldings
 62
    41
420
 14997145
100
AcDbVertex
100
AcDb2dVertex
 10
-0.1769040375947952
 20
-29.39778709411621
 30
0.0000004210106113
  0
VERTEX
  5
137
330
FA
100
AcDbEntity
  8
OracDecor_cornice_mouldings
 62
    41
420
 14997145
100
AcDbVertex
100
AcDb2dVertex
 10
-0.6862728595733643
 20
-28.51553344726563
 30
0.0000004210106113
  0
VERTEX
  5
138
330
FA
100
AcDbEntity
  8
OracDecor_cornice_mouldings
 62
    41
420
 14997145
100
AcDbVertex
100
AcDb2dVertex
 10
-1.311014294624328
 20
-27.77099609375
 30
0.0000004210106113
  0
VERTEX
  5
139
330
FA
100
AcDbEntity
  8
OracDecor_cornice_mouldings
 62
    41
420
 14997145
100
AcDbVertex
100
AcDb2dVertex
 10
-1.620975613594055
 20
-27.32283401489258
 30
0.0000004210106113
  0
VERTEX
  5
13A
330
FA
100
AcDbEntity
  8
OracDecor_cornice_mouldings
 62
    41
420
 14997145
100
AcDbVertex
100
AcDb2dVertex
 10
-1.842726826667785
 20
-26.82508659362793
 30
0.0000004210106113
  0
VERTEX
  5
13B
330
FA
100
AcDbEntity
  8
OracDecor_cornice_mouldings
 62
    41
420
 14997145
100
AcDbVertex
100
AcDb2dVertex
 10
-5.302677631378173
 20
-19.10389137268066
 30
0.0000004210106113
  0
VERTEX
  5
13C
330
FA
100
AcDbEntity
  8
OracDecor_cornice_mouldings
 62
    41
420
 14997145
100
AcDbVertex
100
AcDb2dVertex
 10
-10.15979671478271
 20
-12.17898750305176
 30
0.0000004210106113
  0
VERTEX
  5
13D
330
FA
100
AcDbEntity
  8
OracDecor_cornice_mouldings
 62
    41
420
 14997145
100
AcDbVertex
100
AcDb2dVertex
 10
-16.23934555053711
 20
-6.298089504241943
 30
0.0000004210106113
  0
VERTEX
  5
13E
330
FA
100
AcDbEntity
  8
OracDecor_cornice_mouldings
 62
    41
420
 14997145
100
AcDbVertex
100
AcDb2dVertex
 10
-23.32400894165039
 20
-1.672540068626403
 30
0.0000004210106113
  0
VERTEX
  5
13F
330
FA
100
AcDbEntity
  8
OracDecor_cornice_mouldings
 62
    41
420
 14997145
100
AcDbVertex
100
AcDb2dVertex
 10
-23.59476470947265
 20
-1.511369109153747
 30
0.0000004210106113
  0
VERTEX
  5
140
330
FA
100
AcDbEntity
  8
OracDecor_cornice_mouldings
 62
    41
420
 14997145
100
AcDbVertex
100
AcDb2dVertex
 10
-23.8466682434082
 20
-1.322089552879333
 30
0.0000004210106113
  0
VERTEX
  5
141
330
FA
100
AcDbEntity
  8
OracDecor_cornice_mouldings
 62
    41
420
 14997145
100
AcDbVertex
100
AcDb2dVertex
 10
-24.60441207885742
 20
-0.6862671971321106
 30
0.0000004210106113
  0
VERTEX
  5
142
330
FA
100
AcDbEntity
  8
OracDecor_cornice_mouldings
 62
    41
420
 14997145
100
AcDbVertex
100
AcDb2dVertex
 10
-25.48666763305664
 20
-0.1768982410430908
 30
0.0000004210106113
  0
SEQEND
  5
143
330
FA
100
AcDbEntity
  8
OracDecor_cornice_mouldings
 62
    41
420
 14997145
  0
ENDSEC
  0
SECTION
  2
OBJECTS
  0
DICTIONARY
  5
C
330
0
100
AcDbDictionary
281
     1
  3
ACAD_COLOR
350
DC
  3
ACAD_DETAILVIEWSTYLE
350
F5
  3
ACAD_GROUP
350
D
  3
ACAD_LAYOUT
350
1A
  3
ACAD_MATERIAL
350
AA
  3
ACAD_MLEADERSTYLE
350
F1
  3
ACAD_MLINESTYLE
350
17
  3
ACAD_PLOTSETTINGS
350
19
  3
ACAD_PLOTSTYLENAME
350
E
  3
ACAD_SCALELIST
350
DF
  3
ACAD_SECTIONVIEWSTYLE
350
F3
  3
ACAD_TABLESTYLE
350
DD
  3
ACAD_VISUALSTYLE
350
C3
  3
ACDB_RECOMPOSE_DATA
350
150
  3
AcDbVariableDictionary
350
144
  0
DICTIONARY
  5
DC
102
{ACAD_REACTORS
330
C
102
}
330
C
100
AcDbDictionary
281
     1
  0
DICTIONARY
  5
F5
102
{ACAD_REACTORS
330
C
102
}
330
C
100
AcDbDictionary
281
     1
  3
Imperial24
350
F6
  0
DICTIONARY
  5
D
102
{ACAD_REACTORS
330
C
102
}
330
C
100
AcDbDictionary
281
     1
  0
DICTIONARY
  5
1A
102
{ACAD_REACTORS
330
C
102
}
330
C
100
AcDbDictionary
281
     1
  3
Layout1
350
1E
  3
Layout2
350
26
  3
Model
350
22
  0
DICTIONARY
  5
AA
102
{ACAD_REACTORS
330
C
102
}
330
C
100
AcDbDictionary
281
     1
  3
ByBlock
350
B3
  3
ByLayer
350
AB
  3
Global
350
BB
  0
DICTIONARY
  5
F1
102
{ACAD_REACTORS
330
C
102
}
330
C
100
AcDbDictionary
281
     1
  3
Standard
350
F2
  0
DICTIONARY
  5
17
102
{ACAD_REACTORS
330
C
102
}
330
C
100
AcDbDictionary
281
     1
  3
Standard
350
18
  0
DICTIONARY
  5
19
102
{ACAD_REACTORS
330
C
102
}
330
C
100
AcDbDictionary
281
     1
  0
ACDBDICTIONARYWDFLT
  5
E
102
{ACAD_REACTORS
330
C
102
}
330
C
100
AcDbDictionary
281
     1
  3
ByLayer
350
2D
  3
Normal
350
F
100
AcDbDictionaryWithDefault
340
F
  0
DICTIONARY
  5
DF
102
{ACAD_REACTORS
330
C
102
}
330
C
100
AcDbDictionary
281
     1
  3
A0
350
E0
  3
A1
350
E1
  3
A2
350
E2
  3
A3
350
E3
  3
A4
350
E4
  3
A5
350
E5
  3
A6
350
E6
  3
A7
350
E7
  3
A8
350
E8
  3
A9
350
E9
  3
B0
350
EA
  3
B1
350
EB
  3
B2
350
EC
  3
B3
350
ED
  3
B4
350
EE
  3
B5
350
EF
  3
B6
350
F0
  0
DICTIONARY
  5
F3
102
{ACAD_REACTORS
330
C
102
}
330
C
100
AcDbDictionary
281
     1
  3
Imperial24
350
F4
  0
DICTIONARY
  5
DD
102
{ACAD_REACTORS
330
C
102
}
330
C
100
AcDbDictionary
281
     1
  3
Standard
350
DE
  0
DICTIONARY
  5
C3
102
{ACAD_REACTORS
330
C
102
}
330
C
100
AcDbDictionary
281
     1
  3
2dWireframe
350
C9
  3
Basic
350
C8
  3
Brighten
350
CF
  3
ColorChange
350
D3
  3
Conceptual
350
CC
  3
Dim
350
CE
  3
EdgeColorOff
350
DB
  3
Facepattern
350
D2
  3
Flat
350
C4
  3
FlatWithEdges
350
C5
  3
Gouraud
350
C6
  3
GouraudWithEdges
350
C7
  3
Hidden
350
CB
  3
JitterOff
350
D9
  3
Linepattern
350
D1
  3
OverhangOff
350
DA
  3
Realistic
350
CD
  3
Shaded
350
D8
  3
Shaded with edges
350
D7
  3
Shades of Gray
350
D4
  3
Sketchy
350
D5
  3
Thicken
350
D0
  3
Wireframe
350
CA
  3
X-Ray
350
D6
  0
XRECORD
  5
150
102
{ACAD_REACTORS
330
C
102
}
330
C
100
AcDbXrecord
280
     1
 90
        1
330
DE
  0
DICTIONARY
  5
144
102
{ACAD_REACTORS
330
C
102
}
330
C
100
AcDbDictionary
281
     1
  3
CANNOSCALE
350
14A
  3
CMLEADERSTYLE
350
146
  3
CTABLESTYLE
350
145
  3
CVIEWDETAILSTYLE
350
147
  3
CVIEWSECTIONSTYLE
350
148
  3
LAYEREVAL
350
14C
  3
LAYERNOTIFY
350
14D
  3
LIGHTINGUNITS
350
14B
  3
MSLTSCALE
350
149
  0
ACDBDETAILVIEWSTYLE
  5
F6
102
{ACAD_XDICTIONARY
360
185
102
}
102
{ACAD_REACTORS
330
F5
102
}
330
F5
100
AcDbModelDocViewStyle
 70
     0
  3
Imperial24
290
     0
100
AcDbDetailViewStyle
 70
     0
 71
     0
 90
        3
 71
     1
340
11
 62
   256
 40
0.24
340
0
 62
   256
 40
0.24
300

 40
0.36
280
     3
 71
     2
340
16
 90
       25
 62
   256
 71
     3
340
11
 62
   256
 40
0.24
 90
        1
 40
0.75
 90
        1
300
%<\AcVar ViewType \f "%tc1">% %<\AcVar ViewDetailId>%\PSCALE %<\AcVar ViewScale \f "%sn">%
 71
     4
340
16
 90
       25
 62
   256
340
16
 90
       25
 62
   256
280
     0
  0
LAYOUT
  5
1E
102
{ACAD_REACTORS
330
1A
102
}
330
1A
100
AcDbPlotSettings
  1

  2
\\KTXNTBDC\CASF2PN1
  4

  6

 40
0.0
 41
0.0
 42
0.0
 43
0.0
 44
0.0
 45
0.0
 46
0.0
 47
0.0
 48
0.0
 49
0.0
140
0.0
141
0.0
142
1.0
143
1.0
 70
   688
 72
     0
 73
     0
 74
     5
  7

 75
    16
147
1.0
 76
     0
 77
     2
 78
   300
148
0.0
149
0.0
100
AcDbLayout
  1
Layout1
 70
     1
 71
     1
 10
0.0
 20
0.0
 11
12.0
 21
9.0
 12
0.0
 22
0.0
 32
0.0
 14
1.000000000000000E+20
 24
1.000000000000000E+20
 34
1.000000000000000E+20
 15
-1.000000000000000E+20
 25
-1.000000000000000E+20
 35
-1.000000000000000E+20
146
0.0
 13
0.0
 23
0.0
 33
0.0
 16
1.0
 26
0.0
 36
0.0
 17
0.0
 27
1.0
 37
0.0
 76
     0
330
1B
  0
LAYOUT
  5
26
102
{ACAD_REACTORS
330
1A
102
}
330
1A
100
AcDbPlotSettings
  1

  2
\\KTXNTBDC\CASF2PN1
  4

  6

 40
0.0
 41
0.0
 42
0.0
 43
0.0
 44
0.0
 45
0.0
 46
0.0
 47
0.0
 48
0.0
 49
0.0
140
0.0
141
0.0
142
1.0
143
1.0
 70
   688
 72
     0
 73
     0
 74
     5
  7

 75
    16
147
1.0
 76
     0
 77
     2
 78
   300
148
0.0
149
0.0
100
AcDbLayout
  1
Layout2
 70
     1
 71
     2
 10
0.0
 20
0.0
 11
12.0
 21
9.0
 12
0.0
 22
0.0
 32
0.0
 14
0.0
 24
0.0
 34
0.0
 15
0.0
 25
0.0
 35
0.0
146
0.0
 13
0.0
 23
0.0
 33
0.0
 16
1.0
 26
0.0
 36
0.0
 17
0.0
 27
1.0
 37
0.0
 76
     0
330
23
  0
LAYOUT
  5
22
102
{ACAD_REACTORS
330
1A
102
}
330
1A
100
AcDbPlotSettings
  1

  2
\\KTXNTBDC\CASF2PN1
  4

  6

 40
0.0
 41
0.0
 42
0.0
 43
0.0
 44
0.0
 45
0.0
 46
0.0
 47
0.0
 48
0.0
 49
0.0
140
0.0
141
0.0
142
1.0
143
1.0
 70
  1712
 72
     0
 73
     0
 74
     0
  7

 75
     0
147
1.0
 76
     0
 77
     2
 78
   300
148
0.0
149
0.0
100
AcDbLayout
  1
Model
 70
     1
 71
     0
 10
0.0
 20
0.0
 11
12.0
 21
9.0
 12
0.0
 22
0.0
 32
0.0
 14
0.0
 24
0.0
 34
0.0
 15
0.0
 25
0.0
 35
0.0
146
0.0
 13
0.0
 23
0.0
 33
0.0
 16
1.0
 26
0.0
 36
0.0
 17
0.0
 27
1.0
 37
0.0
 76
     0
330
1F
  0
MATERIAL
  5
B3
102
{ACAD_XDICTIONARY
360
B4
102
}
102
{ACAD_REACTORS
330
AA
102
}
330
AA
100
AcDbMaterial
  1
ByBlock
 72
     0
 43
0.0208333333333333
 43
0.0
 43
0.0
 43
0.0
 43
0.0
 43
0.0208333333333333
 43
0.0
 43
0.0
 43
0.0
 43
0.0
 43
1.0
 43
0.0
 43
0.0
 43
0.0
 43
0.0
 43
1.0
 77
     0
 47
0.0208333333333333
 47
0.0
 47
0.0
 47
0.0
 47
0.0
 47
0.0208333333333333
 47
0.0
 47
0.0
 47
0.0
 47
0.0
 47
1.0
 47
0.0
 47
0.0
 47
0.0
 47
0.0
 47
1.0
171
     0
 49
0.0208333333333333
 49
0.0
 49
0.0
 49
0.0
 49
0.0
 49
0.0208333333333333
 49
0.0
 49
0.0
 49
0.0
 49
0.0
 49
1.0
 49
0.0
 49
0.0
 49
0.0
 49
0.0
 49
1.0
175
     0
142
0.0208333333333333
142
0.0
142
0.0
142
0.0
142
0.0
142
0.0208333333333333
142
0.0
142
0.0
142
0.0
142
0.0
142
1.0
142
0.0
142
0.0
142
0.0
142
0.0
142
1.0
179
     0
144
0.0208333333333333
144
0.0
144
0.0
144
0.0
144
0.0
144
0.0208333333333333
144
0.0
144
0.0
144
0.0
144
0.0
144
1.0
144
0.0
144
0.0
144
0.0
144
0.0
144
1.0
147
0.0208333333333333
147
0.0
147
0.0
147
0.0
147
0.0
147
0.0208333333333333
147
0.0
147
0.0
147
0.0
147
0.0
147
1.0
147
0.0
147
0.0
147
0.0
147
0.0
147
1.0
  0
MATERIAL
  5
AB
102
{ACAD_XDICTIONARY
360
AC
102
}
102
{ACAD_REACTORS
330
AA
102
}
330
AA
100
AcDbMaterial
  1
ByLayer
 72
     0
 43
0.0208333333333333
 43
0.0
 43
0.0
 43
0.0
 43
0.0
 43
0.0208333333333333
 43
0.0
 43
0.0
 43
0.0
 43
0.0
 43
1.0
 43
0.0
 43
0.0
 43
0.0
 43
0.0
 43
1.0
 77
     0
 47
0.0208333333333333
 47
0.0
 47
0.0
 47
0.0
 47
0.0
 47
0.0208333333333333
 47
0.0
 47
0.0
 47
0.0
 47
0.0
 47
1.0
 47
0.0
 47
0.0
 47
0.0
 47
0.0
 47
1.0
171
     0
 49
0.0208333333333333
 49
0.0
 49
0.0
 49
0.0
 49
0.0
 49
0.0208333333333333
 49
0.0
 49
0.0
 49
0.0
 49
0.0
 49
1.0
 49
0.0
 49
0.0
 49
0.0
 49
0.0
 49
1.0
175
     0
142
0.0208333333333333
142
0.0
142
0.0
142
0.0
142
0.0
142
0.0208333333333333
142
0.0
142
0.0
142
0.0
142
0.0
142
1.0
142
0.0
142
0.0
142
0.0
142
0.0
142
1.0
179
     0
144
0.0208333333333333
144
0.0
144
0.0
144
0.0
144
0.0
144
0.0208333333333333
144
0.0
144
0.0
144
0.0
144
0.0
144
1.0
144
0.0
144
0.0
144
0.0
144
0.0
144
1.0
147
0.0208333333333333
147
0.0
147
0.0
147
0.0
147
0.0
147
0.0208333333333333
147
0.0
147
0.0
147
0.0
147
0.0
147
1.0
147
0.0
147
0.0
147
0.0
147
0.0
147
1.0
  0
MATERIAL
  5
BB
102
{ACAD_XDICTIONARY
360
BC
102
}
102
{ACAD_REACTORS
330
AA
102
}
330
AA
100
AcDbMaterial
  1
Global
 72
     0
 43
0.0208333333333333
 43
0.0
 43
0.0
 43
0.0
 43
0.0
 43
0.0208333333333333
 43
0.0
 43
0.0
 43
0.0
 43
0.0
 43
1.0
 43
0.0
 43
0.0
 43
0.0
 43
0.0
 43
1.0
 77
     0
 47
0.0208333333333333
 47
0.0
 47
0.0
 47
0.0
 47
0.0
 47
0.0208333333333333
 47
0.0
 47
0.0
 47
0.0
 47
0.0
 47
1.0
 47
0.0
 47
0.0
 47
0.0
 47
0.0
 47
1.0
171
     0
 49
0.0208333333333333
 49
0.0
 49
0.0
 49
0.0
 49
0.0
 49
0.0208333333333333
 49
0.0
 49
0.0
 49
0.0
 49
0.0
 49
1.0
 49
0.0
 49
0.0
 49
0.0
 49
0.0
 49
1.0
175
     0
142
0.0208333333333333
142
0.0
142
0.0
142
0.0
142
0.0
142
0.0208333333333333
142
0.0
142
0.0
142
0.0
142
0.0
142
1.0
142
0.0
142
0.0
142
0.0
142
0.0
142
1.0
179
     0
144
0.0208333333333333
144
0.0
144
0.0
144
0.0
144
0.0
144
0.0208333333333333
144
0.0
144
0.0
144
0.0
144
0.0
144
1.0
144
0.0
144
0.0
144
0.0
144
0.0
144
1.0
147
0.0208333333333333
147
0.0
147
0.0
147
0.0
147
0.0
147
0.0208333333333333
147
0.0
147
0.0
147
0.0
147
0.0
147
1.0
147
0.0
147
0.0
147
0.0
147
0.0
147
1.0
  0
MLEADERSTYLE
  5
F2
102
{ACAD_XDICTIONARY
360
181
102
}
102
{ACAD_REACTORS
330
F1
102
}
330
F1
100
AcDbMLeaderStyle
179
     2
170
     2
171
     1
172
     0
 90
        2
 40
0.0
 41
0.0
173
     1
 91
-1056964608
340
14
 92
       -2
290
     1
 42
0.09
291
     1
 43
0.36
  3
Standard
 44
0.18
300

342
11
174
     1
178
     6
175
     1
176
     0
 93
-1056964608
 45
0.18
292
     0
297
     0
 46
0.18
 94
-1056964608
 47
1.0
 49
1.0
140
1.0
293
     1
141
0.0
294
     1
177
     0
142
1.0
295
     0
296
     0
143
0.125
271
     0
272
     9
273
     9
  0
MLINESTYLE
  5
18
102
{ACAD_REACTORS
330
17
102
}
330
17
100
AcDbMlineStyle
  2
STANDARD
 70
     0
  3

 62
   256
 51
90.0
 52
90.0
 71
     2
 49
0.5
 62
   256
  6
BYLAYER
 49
-0.5
 62
   256
  6
BYLAYER
  0
ACDBPLACEHOLDER
  5
2D
102
{ACAD_REACTORS
330
E
102
}
330
E
  0
ACDBPLACEHOLDER
  5
F
102
{ACAD_REACTORS
330
E
102
}
330
E
  0
SCALE
  5
E0
102
{ACAD_REACTORS
330
DF
102
}
330
DF
100
AcDbScale
 70
     0
300
1:1
140
1.0
141
1.0
290
     1
  0
SCALE
  5
E1
102
{ACAD_REACTORS
330
DF
102
}
330
DF
100
AcDbScale
 70
     0
300
1/128" = 1'-0"
140
0.0078125
141
12.0
290
     0
  0
SCALE
  5
E2
102
{ACAD_REACTORS
330
DF
102
}
330
DF
100
AcDbScale
 70
     0
300
1/64" = 1'-0"
140
0.015625
141
12.0
290
     0
  0
SCALE
  5
E3
102
{ACAD_REACTORS
330
DF
102
}
330
DF
100
AcDbScale
 70
     0
300
1/32" = 1'-0"
140
0.03125
141
12.0
290
     0
  0
SCALE
  5
E4
102
{ACAD_REACTORS
330
DF
102
}
330
DF
100
AcDbScale
 70
     0
300
1/16" = 1'-0"
140
0.0625
141
12.0
290
     0
  0
SCALE
  5
E5
102
{ACAD_REACTORS
330
DF
102
}
330
DF
100
AcDbScale
 70
     0
300
3/32" = 1'-0"
140
0.09375
141
12.0
290
     0
  0
SCALE
  5
E6
102
{ACAD_REACTORS
330
DF
102
}
330
DF
100
AcDbScale
 70
     0
300
1/8" = 1'-0"
140
0.125
141
12.0
290
     0
  0
SCALE
  5
E7
102
{ACAD_REACTORS
330
DF
102
}
330
DF
100
AcDbScale
 70
     0
300
3/16" = 1'-0"
140
0.1875
141
12.0
290
     0
  0
SCALE
  5
E8
102
{ACAD_REACTORS
330
DF
102
}
330
DF
100
AcDbScale
 70
     0
300
1/4" = 1'-0"
140
0.25
141
12.0
290
     0
  0
SCALE
  5
E9
102
{ACAD_REACTORS
330
DF
102
}
330
DF
100
AcDbScale
 70
     0
300
3/8" = 1'-0"
140
0.375
141
12.0
290
     0
  0
SCALE
  5
EA
102
{ACAD_REACTORS
330
DF
102
}
330
DF
100
AcDbScale
 70
     0
300
1/2" = 1'-0"
140
0.5
141
12.0
290
     0
  0
SCALE
  5
EB
102
{ACAD_REACTORS
330
DF
102
}
330
DF
100
AcDbScale
 70
     0
300
3/4" = 1'-0"
140
0.75
141
12.0
290
     0
  0
SCALE
  5
EC
102
{ACAD_REACTORS
330
DF
102
}
330
DF
100
AcDbScale
 70
     0
300
1" = 1'-0"
140
1.0
141
12.0
290
     0
  0
SCALE
  5
ED
102
{ACAD_REACTORS
330
DF
102
}
330
DF
100
AcDbScale
 70
     0
300
1-1/2" = 1'-0"
140
1.5
141
12.0
290
     0
  0
SCALE
  5
EE
102
{ACAD_REACTORS
330
DF
102
}
330
DF
100
AcDbScale
 70
     0
300
3" = 1'-0"
140
3.0
141
12.0
290
     0
  0
SCALE
  5
EF
102
{ACAD_REACTORS
330
DF
102
}
330
DF
100
AcDbScale
 70
     0
300
6" = 1'-0"
140
6.0
141
12.0
290
     0
  0
SCALE
  5
F0
102
{ACAD_REACTORS
330
DF
102
}
330
DF
100
AcDbScale
 70
     0
300
1'-0" = 1'-0"
140
12.0
141
12.0
290
     0
  0
ACDBSECTIONVIEWSTYLE
  5
F4
102
{ACAD_XDICTIONARY
360
183
102
}
102
{ACAD_REACTORS
330
F3
102
}
330
F3
100
AcDbModelDocViewStyle
 70
     0
  3
Imperial24
290
     0
100
AcDbSectionViewStyle
 70
     0
 71
     0
 90
       78
 71
     1
340
11
 62
   256
 40
0.24
340
0
340
0
 62
   256
 40
0.24
300
I, O, Q, S, X, Z
 40
0.48
 90
        3
 40
0.18
 90
        1
 71
     2
340
16
 90
       25
 62
   256
340
16
 90
       50
 62
   256
 40
0.24
 40
0.0
 40
0.24
 71
     3
340
11
 62
   256
 40
0.24
 90
        1
 40
0.75
 90
        1
300
%<\AcVar ViewType \f "%tc1">% %<\AcVar ViewSectionStartId>%-%<\AcVar ViewSectionEndId>%\PSCALE %<\AcVar ViewScale \f "%sn">%
 71
     4
 62
   256
 62
   257
300
ANSI31
 40
1.0
 90
        0
290
     0
290
     0
 90
        6
 40
0.0
 40
1.570796326794896
 40
0.2617993877991494
 40
1.308996938995747
 40
-0.2617993877991494
 40
1.832595714594046
  0
TABLESTYLE
  5
DE
102
{ACAD_XDICTIONARY
360
14E
102
}
102
{ACAD_REACTORS
330
DD
102
}
330
DD
100
AcDbTableStyle
280
     0
  3
Standard
 70
     0
 71
     0
 40
0.06
 41
0.06
280
     0
281
     0
  7
Standard
140
0.18
170
     2
 62
     0
 63
     7
283
     0
 90
      512
 91
        0
  1

274
    -2
284
     1
 64
     0
275
    -2
285
     1
 65
     0
276
    -2
286
     1
 66
     0
277
    -2
287
     1
 67
     0
278
    -2
288
     1
 68
     0
279
    -2
289
     1
 69
     0
  7
Standard
140
0.25
170
     5
 62
     0
 63
     7
283
     0
 90
      512
 91
        0
  1

274
    -2
284
     1
 64
     0
275
    -2
285
     1
 65
     0
276
    -2
286
     1
 66
     0
277
    -2
287
     1
 67
     0
278
    -2
288
     1
 68
     0
279
    -2
289
     1
 69
     0
  7
Standard
140
0.18
170
     5
 62
     0
 63
     7
283
     0
 90
      512
 91
        0
  1

274
    -2
284
     1
 64
     0
275
    -2
285
     1
 65
     0
276
    -2
286
     1
 66
     0
277
    -2
287
     1
 67
     0
278
    -2
288
     1
 68
     0
279
    -2
289
     1
 69
     0
  0
VISUALSTYLE
  5
C9
102
{ACAD_XDICTIONARY
360
15B
102
}
102
{ACAD_REACTORS
330
C3
102
}
330
C3
100
AcDbVisualStyle
  2
2dWireframe
 70
     4
177
     2
291
     0
 71
     0
176
     1
 72
     2
176
     1
 73
     0
176
     1
 90
        0
176
     1
 40
0.6
176
     1
 41
30.0
176
     1
 63
     7
421
 16777215
176
     1
 74
     1
176
     1
 91
        4
176
     1
 64
     7
176
     1
 65
   257
176
     1
 75
     1
176
     1
175
     1
176
     1
 42
1.0
176
     1
 92
        0
176
     1
 66
   257
176
     1
 43
1.0
176
     1
 76
     1
176
     1
 77
     6
176
     1
 78
     2
176
     1
 67
     7
176
     1
 79
     5
176
     1
170
     0
176
     1
171
     0
176
     1
290
     0
176
     1
 93
        1
176
     1
 44
0.0
176
     1
173
     0
176
     1
1001
ACAD
1000
AcDbSavedByObjectVersion
1070
     0
  0
VISUALSTYLE
  5
C8
102
{ACAD_XDICTIONARY
360
159
102
}
102
{ACAD_REACTORS
330
C3
102
}
330
C3
100
AcDbVisualStyle
  2
Basic
 70
     7
177
     2
291
     1
 71
     1
176
     1
 72
     0
176
     1
 73
     1
176
     1
 90
        0
176
     1
 40
0.6
176
     1
 41
30.0
176
     1
 63
     7
421
 16777215
176
     1
 74
     0
176
     1
 91
        4
176
     1
 64
     7
176
     1
 65
   257
176
     1
 75
     1
176
     1
175
     1
176
     1
 42
1.0
176
     1
 92
        8
176
     1
 66
     7
176
     1
 43
1.0
176
     1
 76
     1
176
     1
 77
     6
176
     1
 78
     2
176
     1
 67
     7
176
     1
 79
     5
176
     1
170
     0
176
     1
171
     0
176
     1
290
     0
176
     1
 93
        1
176
     1
 44
0.0
176
     1
173
     0
176
     1
1001
ACAD
1000
AcDbSavedByObjectVersion
1070
     0
  0
VISUALSTYLE
  5
CF
102
{ACAD_XDICTIONARY
360
167
102
}
102
{ACAD_REACTORS
330
C3
102
}
330
C3
100
AcDbVisualStyle
  2
Brighten
 70
    12
177
     2
291
     1
 71
     2
176
     1
 72
     2
176
     1
 73
     0
176
     1
 90
        0
176
     1
 40
0.6
176
     1
 41
30.0
176
     1
 63
     7
421
 16777215
176
     1
 74
     1
176
     1
 91
        4
176
     1
 64
     7
176
     1
 65
   257
176
     1
 75
     1
176
     1
175
     1
176
     1
 42
1.0
176
     1
 92
        8
176
     1
 66
     7
176
     1
 43
1.0
176
     1
 76
     1
176
     1
 77
     6
176
     1
 78
     2
176
     1
 67
     7
176
     1
 79
     5
176
     1
170
     0
176
     1
171
     0
176
     1
290
     0
176
     1
 93
        1
176
     1
 44
50.0
176
     1
173
     0
176
     1
1001
ACAD
1000
AcDbSavedByObjectVersion
1070
     0
  0
VISUALSTYLE
  5
D3
102
{ACAD_XDICTIONARY
360
16F
102
}
102
{ACAD_REACTORS
330
C3
102
}
330
C3
100
AcDbVisualStyle
  2
ColorChange
 70
    16
177
     2
291
     1
 71
     2
176
     1
 72
     2
176
     1
 73
     3
176
     1
 90
        0
176
     1
 40
0.6
176
     1
 41
30.0
176
     1
 63
     8
421
  8421504
176
     1
 74
     1
176
     1
 91
        4
176
     1
 64
     7
176
     1
 65
   257
176
     1
 75
     1
176
     1
175
     1
176
     1
 42
1.0
176
     1
 92
        8
176
     1
 66
     8
424
  8421504
176
     1
 43
1.0
176
     1
 76
     1
176
     1
 77
     6
176
     1
 78
     2
176
     1
 67
     7
176
     1
 79
     5
176
     1
170
     0
176
     1
171
     0
176
     1
290
     0
176
     1
 93
        1
176
     1
 44
0.0
176
     1
173
     0
176
     1
1001
ACAD
1000
AcDbSavedByObjectVersion
1070
     0
  0
VISUALSTYLE
  5
CC
102
{ACAD_XDICTIONARY
360
161
102
}
102
{ACAD_REACTORS
330
C3
102
}
330
C3
100
AcDbVisualStyle
  2
Conceptual
 70
     9
177
     2
291
     0
 71
     3
176
     1
 72
     2
176
     1
 73
     0
176
     1
 90
        0
176
     1
 40
0.6
176
     1
 41
30.0
176
     1
 63
     7
421
 16777215
176
     1
 74
     2
176
     1
 91
        2
176
     1
 64
     7
176
     1
 65
   257
176
     1
 75
     1
176
     1
175
     1
176
     1
 42
179.0
176
     1
 92
        8
176
     1
 66
     7
176
     1
 43
1.0
176
     1
 76
     1
176
     1
 77
     6
176
     1
 78
     2
176
     1
 67
     7
176
     1
 79
     3
176
     1
170
     0
176
     1
171
     0
176
     1
290
     0
176
     1
 93
        1
176
     1
 44
0.0
176
     1
173
     0
176
     1
1001
ACAD
1000
AcDbSavedByObjectVersion
1070
     0
  0
VISUALSTYLE
  5
CE
102
{ACAD_XDICTIONARY
360
165
102
}
102
{ACAD_REACTORS
330
C3
102
}
330
C3
100
AcDbVisualStyle
  2
Dim
 70
    11
177
     2
291
     1
 71
     2
176
     1
 72
     2
176
     1
 73
     0
176
     1
 90
        0
176
     1
 40
0.6
176
     1
 41
30.0
176
     1
 63
     7
421
 16777215
176
     1
 74
     1
176
     1
 91
        4
176
     1
 64
     7
176
     1
 65
   257
176
     1
 75
     1
176
     1
175
     1
176
     1
 42
1.0
176
     1
 92
        8
176
     1
 66
     7
176
     1
 43
1.0
176
     1
 76
     1
176
     1
 77
     6
176
     1
 78
     2
176
     1
 67
     7
176
     1
 79
     5
176
     1
170
     0
176
     1
171
     0
176
     1
290
     0
176
     1
 93
        1
176
     1
 44
-50.0
176
     1
173
     0
176
     1
1001
ACAD
1000
AcDbSavedByObjectVersion
1070
     0
  0
VISUALSTYLE
  5
DB
102
{ACAD_XDICTIONARY
360
17F
102
}
102
{ACAD_REACTORS
330
C3
102
}
330
C3
100
AcDbVisualStyle
  2
EdgeColorOff
 70
    22
177
     2
291
     1
 71
     2
176
     0
 72
     2
176
     0
 73
     0
176
     0
 90
        0
176
     0
 40
0.6
176
     0
 41
30.0
176
     0
 63
     7
421
 16777215
176
     0
 74
     1
176
     0
 91
        4
176
     0
 64
     7
176
     0
 65
   257
176
     0
 75
     1
176
     0
175
     1
176
     0
 42
1.0
176
     0
 92
        8
176
     2
 66
     7
176
     0
 43
1.0
176
     0
 76
     1
176
     0
 77
     6
176
     0
 78
     2
176
     0
 67
     7
176
     0
 79
     5
176
     0
170
     0
176
     0
171
     0
176
     0
290
     0
176
     0
 93
        1
176
     0
 44
0.0
176
     0
173
     0
176
     0
1001
ACAD
1000
AcDbSavedByObjectVersion
1070
     0
  0
VISUALSTYLE
  5
D2
102
{ACAD_XDICTIONARY
360
16D
102
}
102
{ACAD_REACTORS
330
C3
102
}
330
C3
100
AcDbVisualStyle
  2
Facepattern
 70
    15
177
     2
291
     1
 71
     2
176
     1
 72
     2
176
     1
 73
     0
176
     1
 90
        0
176
     1
 40
0.6
176
     1
 41
30.0
176
     1
 63
     7
421
 16777215
176
     1
 74
     1
176
     1
 91
        4
176
     1
 64
     7
176
     1
 65
   257
176
     1
 75
     1
176
     1
175
     1
176
     1
 42
1.0
176
     1
 92
        8
176
     1
 66
     7
176
     1
 43
1.0
176
     1
 76
     1
176
     1
 77
     6
176
     1
 78
     2
176
     1
 67
     7
176
     1
 79
     5
176
     1
170
     0
176
     1
171
     0
176
     1
290
     0
176
     1
 93
        1
176
     1
 44
0.0
176
     1
173
     0
176
     1
1001
ACAD
1000
AcDbSavedByObjectVersion
1070
     0
  0
VISUALSTYLE
  5
C4
102
{ACAD_XDICTIONARY
360
151
102
}
102
{ACAD_REACTORS
330
C3
102
}
330
C3
100
AcDbVisualStyle
  2
Flat
 70
     0
177
     2
291
     1
 71
     2
176
     1
 72
     1
176
     1
 73
     1
176
     1
 90
        2
176
     1
 40
0.6
176
     1
 41
30.0
176
     1
 63
     7
421
 16777215
176
     1
 74
     0
176
     1
 91
        0
176
     1
 64
     7
176
     1
 65
   257
176
     1
 75
     1
176
     1
175
     1
176
     1
 42
1.0
176
     1
 92
        8
176
     1
 66
     7
176
     1
 43
1.0
176
     1
 76
     1
176
     1
 77
     6
176
     1
 78
     2
176
     1
 67
     7
176
     1
 79
     5
176
     1
170
     0
176
     1
171
     0
176
     1
290
     0
176
     1
 93
       13
176
     1
 44
0.0
176
     1
173
     0
176
     1
1001
ACAD
1000
AcDbSavedByObjectVersion
1070
     0
  0
VISUALSTYLE
  5
C5
102
{ACAD_XDICTIONARY
360
153
102
}
102
{ACAD_REACTORS
330
C3
102
}
330
C3
100
AcDbVisualStyle
  2
FlatWithEdges
 70
     1
177
     2
291
     1
 71
     2
176
     1
 72
     1
176
     1
 73
     1
176
     1
 90
        2
176
     1
 40
0.6
176
     1
 41
30.0
176
     1
 63
     7
421
 16777215
176
     1
 74
     1
176
     1
 91
        0
176
     1
 64
     7
176
     1
 65
   257
176
     1
 75
     1
176
     1
175
     1
176
     1
 42
1.0
176
     1
 92
        0
176
     1
 66
   257
176
     1
 43
1.0
176
     1
 76
     1
176
     1
 77
     6
176
     1
 78
     2
176
     1
 67
     7
176
     1
 79
     5
176
     1
170
     0
176
     1
171
     0
176
     1
290
     0
176
     1
 93
       13
176
     1
 44
0.0
176
     1
173
     0
176
     1
1001
ACAD
1000
AcDbSavedByObjectVersion
1070
     0
  0
VISUALSTYLE
  5
C6
102
{ACAD_XDICTIONARY
360
155
102
}
102
{ACAD_REACTORS
330
C3
102
}
330
C3
100
AcDbVisualStyle
  2
Gouraud
 70
     2
177
     2
291
     1
 71
     2
176
     1
 72
     2
176
     1
 73
     1
176
     1
 90
        2
176
     1
 40
0.6
176
     1
 41
30.0
176
     1
 63
     7
421
 16777215
176
     1
 74
     0
176
     1
 91
        0
176
     1
 64
     7
176
     1
 65
   257
176
     1
 75
     1
176
     1
175
     1
176
     1
 42
1.0
176
     1
 92
        0
176
     1
 66
     7
176
     1
 43
1.0
176
     1
 76
     1
176
     1
 77
     6
176
     1
 78
     2
176
     1
 67
     7
176
     1
 79
     5
176
     1
170
     0
176
     1
171
     0
176
     1
290
     0
176
     1
 93
       13
176
     1
 44
0.0
176
     1
173
     0
176
     1
1001
ACAD
1000
AcDbSavedByObjectVersion
1070
     0
  0
VISUALSTYLE
  5
C7
102
{ACAD_XDICTIONARY
360
157
102
}
102
{ACAD_REACTORS
330
C3
102
}
330
C3
100
AcDbVisualStyle
  2
GouraudWithEdges
 70
     3
177
     2
291
     1
 71
     2
176
     1
 72
     2
176
     1
 73
     1
176
     1
 90
        2
176
     1
 40
0.6
176
     1
 41
30.0
176
     1
 63
     7
421
 16777215
176
     1
 74
     1
176
     1
 91
        0
176
     1
 64
     7
176
     1
 65
   257
176
     1
 75
     1
176
     1
175
     1
176
     1
 42
1.0
176
     1
 92
        0
176
     1
 66
   257
176
     1
 43
1.0
176
     1
 76
     1
176
     1
 77
     6
176
     1
 78
     2
176
     1
 67
     7
176
     1
 79
     5
176
     1
170
     0
176
     1
171
     0
176
     1
290
     0
176
     1
 93
       13
176
     1
 44
0.0
176
     1
173
     0
176
     1
1001
ACAD
1000
AcDbSavedByObjectVersion
1070
     0
  0
VISUALSTYLE
  5
CB
102
{ACAD_XDICTIONARY
360
15F
102
}
102
{ACAD_REACTORS
330
C3
102
}
330
C3
100
AcDbVisualStyle
  2
Hidden
 70
     6
177
     2
291
     0
 71
     1
176
     1
 72
     2
176
     1
 73
     2
176
     1
 90
        0
176
     1
 40
0.6
176
     1
 41
30.0
176
     1
 63
     7
421
 16777215
176
     1
 74
     2
176
     1
 91
        2
176
     1
 64
     7
176
     1
 65
   257
176
     1
 75
     2
176
     1
175
     1
176
     1
 42
40.0
176
     1
 92
        0
176
     1
 66
   257
176
     1
 43
1.0
176
     1
 76
     1
176
     1
 77
     6
176
     1
 78
     2
176
     1
 67
     7
176
     1
 79
     3
176
     1
170
     0
176
     1
171
     0
176
     1
290
     0
176
     1
 93
        1
176
     1
 44
0.0
176
     1
173
     0
176
     1
1001
ACAD
1000
AcDbSavedByObjectVersion
1070
     0
  0
VISUALSTYLE
  5
D9
102
{ACAD_XDICTIONARY
360
17B
102
}
102
{ACAD_REACTORS
330
C3
102
}
330
C3
100
AcDbVisualStyle
  2
JitterOff
 70
    20
177
     2
291
     1
 71
     2
176
     0
 72
     2
176
     0
 73
     0
176
     0
 90
        0
176
     0
 40
0.6
176
     0
 41
30.0
176
     0
 63
     7
421
 16777215
176
     0
 74
     1
176
     0
 91
        4
176
     0
 64
     7
176
     0
 65
   257
176
     0
 75
     1
176
     0
175
     1
176
     0
 42
1.0
176
     0
 92
       10
176
     2
 66
     7
176
     0
 43
1.0
176
     0
 76
     1
176
     0
 77
     6
176
     0
 78
     2
176
     0
 67
     7
176
     0
 79
     5
176
     0
170
     0
176
     0
171
     0
176
     0
290
     0
176
     0
 93
        1
176
     0
 44
0.0
176
     0
173
     0
176
     0
1001
ACAD
1000
AcDbSavedByObjectVersion
1070
     0
  0
VISUALSTYLE
  5
D1
102
{ACAD_XDICTIONARY
360
16B
102
}
102
{ACAD_REACTORS
330
C3
102
}
330
C3
100
AcDbVisualStyle
  2
Linepattern
 70
    14
177
     2
291
     1
 71
     2
176
     1
 72
     2
176
     1
 73
     0
176
     1
 90
        0
176
     1
 40
0.6
176
     1
 41
30.0
176
     1
 63
     7
421
 16777215
176
     1
 74
     1
176
     1
 91
        4
176
     1
 64
     7
176
     1
 65
   257
176
     1
 75
     7
176
     1
175
     7
176
     1
 42
1.0
176
     1
 92
        8
176
     1
 66
     7
176
     1
 43
1.0
176
     1
 76
     1
176
     1
 77
     6
176
     1
 78
     2
176
     1
 67
     7
176
     1
 79
     5
176
     1
170
     0
176
     1
171
     0
176
     1
290
     0
176
     1
 93
        1
176
     1
 44
0.0
176
     1
173
     0
176
     1
1001
ACAD
1000
AcDbSavedByObjectVersion
1070
     0
  0
VISUALSTYLE
  5
DA
102
{ACAD_XDICTIONARY
360
17D
102
}
102
{ACAD_REACTORS
330
C3
102
}
330
C3
100
AcDbVisualStyle
  2
OverhangOff
 70
    21
177
     2
291
     1
 71
     2
176
     0
 72
     2
176
     0
 73
     0
176
     0
 90
        0
176
     0
 40
0.6
176
     0
 41
30.0
176
     0
 63
     7
421
 16777215
176
     0
 74
     1
176
     0
 91
        4
176
     0
 64
     7
176
     0
 65
   257
176
     0
 75
     1
176
     0
175
     1
176
     0
 42
1.0
176
     0
 92
        9
176
     2
 66
     7
176
     0
 43
1.0
176
     0
 76
     1
176
     0
 77
     6
176
     0
 78
     2
176
     0
 67
     7
176
     0
 79
     5
176
     0
170
     0
176
     0
171
     0
176
     0
290
     0
176
     0
 93
        1
176
     0
 44
0.0
176
     0
173
     0
176
     0
1001
ACAD
1000
AcDbSavedByObjectVersion
1070
     0
  0
VISUALSTYLE
  5
CD
102
{ACAD_XDICTIONARY
360
163
102
}
102
{ACAD_REACTORS
330
C3
102
}
330
C3
100
AcDbVisualStyle
  2
Realistic
 70
     8
177
     2
291
     0
 71
     2
176
     1
 72
     3
176
     1
 73
     0
176
     1
 90
        2
176
     1
 40
0.6
176
     1
 41
30.0
176
     1
 63
     7
421
 16777215
176
     1
 74
     0
176
     1
 91
        0
176
     1
 64
     7
176
     1
 65
   257
176
     1
 75
     1
176
     1
175
     1
176
     1
 42
1.0
176
     1
 92
        8
176
     1
 66
   257
176
     1
 43
1.0
176
     1
 76
     1
176
     1
 77
     6
176
     1
 78
     2
176
     1
 67
     7
176
     1
 79
     3
176
     1
170
     0
176
     1
171
     0
176
     1
290
     0
176
     1
 93
       13
176
     1
 44
0.0
176
     1
173
     0
176
     1
1001
ACAD
1000
AcDbSavedByObjectVersion
1070
     0
  0
VISUALSTYLE
  5
D8
102
{ACAD_XDICTIONARY
360
179
102
}
102
{ACAD_REACTORS
330
C3
102
}
330
C3
100
AcDbVisualStyle
  2
Shaded
 70
    27
177
     2
291
     0
 71
     2
176
     1
 72
     2
176
     1
 73
     1
176
     1
 90
        2
176
     1
 40
0.6
176
     1
 41
30.0
176
     1
 63
     7
421
 16777215
176
     1
 74
     0
176
     1
 91
        4
176
     1
 64
     7
176
     1
 65
   257
176
     1
 75
     1
176
     1
175
     1
176
     1
 42
1.0
176
     1
 92
        8
176
     1
 66
   257
176
     1
 43
1.0
176
     1
 76
     1
176
     1
 77
     6
176
     1
 78
     2
176
     1
 67
     8
425
  7895160
176
     1
 79
     3
176
     1
170
     0
176
     1
171
     0
176
     1
290
     0
176
     1
 93
        5
176
     1
 44
0.0
176
     1
173
     0
176
     1
1001
ACAD
1000
AcDbSavedByObjectVersion
1070
     0
  0
VISUALSTYLE
  5
D7
102
{ACAD_XDICTIONARY
360
177
102
}
102
{ACAD_REACTORS
330
C3
102
}
330
C3
100
AcDbVisualStyle
  2
Shaded with edges
 70
    26
177
     2
291
     0
 71
     2
176
     1
 72
     2
176
     1
 73
     1
176
     1
 90
        2
176
     1
 40
0.6
176
     1
 41
30.0
176
     1
 63
     7
421
 16777215
176
     1
 74
     1
176
     1
 91
       10
176
     1
 64
     7
176
     1
 65
   257
176
     1
 75
     2
176
     1
175
     1
176
     1
 42
1.0
176
     1
 92
        8
176
     1
 66
   257
176
     1
 43
1.0
176
     1
 76
     1
176
     1
 77
     6
176
     1
 78
     2
176
     1
 67
     7
176
     1
 79
     3
176
     1
170
     0
176
     1
171
     0
176
     1
290
     0
176
     1
 93
        5
176
     1
 44
0.0
176
     1
173
     0
176
     1
1001
ACAD
1000
AcDbSavedByObjectVersion
1070
     0
  0
VISUALSTYLE
  5
D4
102
{ACAD_XDICTIONARY
360
171
102
}
102
{ACAD_REACTORS
330
C3
102
}
330
C3
100
AcDbVisualStyle
  2
Shades of Gray
 70
    23
177
     2
291
     0
 71
     2
176
     1
 72
     2
176
     1
 73
     3
176
     1
 90
        0
176
     1
 40
0.6
176
     1
 41
30.0
176
     1
 63
     7
421
 16777215
176
     1
 74
     2
176
     1
 91
        2
176
     1
 64
     7
176
     1
 65
     7
176
     1
 75
     1
176
     1
175
     1
176
     1
 42
40.0
176
     1
 92
        8
176
     1
 66
     7
176
     1
 43
1.0
176
     1
 76
     1
176
     1
 77
     6
176
     1
 78
     2
176
     1
 67
     7
176
     1
 79
     3
176
     1
170
     0
176
     1
171
     0
176
     1
290
     0
176
     1
 93
        1
176
     1
 44
0.0
176
     1
173
     0
176
     1
1001
ACAD
1000
AcDbSavedByObjectVersion
1070
     0
  0
VISUALSTYLE
  5
D5
102
{ACAD_XDICTIONARY
360
173
102
}
102
{ACAD_REACTORS
330
C3
102
}
330
C3
100
AcDbVisualStyle
  2
Sketchy
 70
    24
177
     2
291
     0
 71
     1
176
     1
 72
     2
176
     1
 73
     2
176
     1
 90
        0
176
     1
 40
0.6
176
     1
 41
30.0
176
     1
 63
     7
421
 16777215
176
     1
 74
     2
176
     1
 91
        2
176
     1
 64
     7
176
     1
 65
     7
176
     1
 75
     1
176
     1
175
     1
176
     1
 42
40.0
176
     1
 92
       11
176
     1
 66
     7
176
     1
 43
1.0
176
     1
 76
     1
176
     1
 77
     6
176
     1
 78
     2
176
     1
 67
     7
176
     1
 79
     6
176
     1
170
     0
176
     1
171
     0
176
     1
290
     0
176
     1
 93
        1
176
     1
 44
0.0
176
     1
173
     0
176
     1
1001
ACAD
1000
AcDbSavedByObjectVersion
1070
     0
  0
VISUALSTYLE
  5
D0
102
{ACAD_XDICTIONARY
360
169
102
}
102
{ACAD_REACTORS
330
C3
102
}
330
C3
100
AcDbVisualStyle
  2
Thicken
 70
    13
177
     2
291
     1
 71
     2
176
     1
 72
     2
176
     1
 73
     0
176
     1
 90
        0
176
     1
 40
0.6
176
     1
 41
30.0
176
     1
 63
     7
421
 16777215
176
     1
 74
     1
176
     1
 91
        4
176
     1
 64
     7
176
     1
 65
   257
176
     1
 75
     1
176
     1
175
     1
176
     1
 42
1.0
176
     1
 92
       12
176
     1
 66
     7
176
     1
 43
1.0
176
     1
 76
     1
176
     1
 77
     6
176
     1
 78
     2
176
     1
 67
     7
176
     1
 79
     5
176
     1
170
     0
176
     1
171
     0
176
     1
290
     0
176
     1
 93
        1
176
     1
 44
0.0
176
     1
173
     0
176
     1
1001
ACAD
1000
AcDbSavedByObjectVersion
1070
     0
  0
VISUALSTYLE
  5
CA
102
{ACAD_XDICTIONARY
360
15D
102
}
102
{ACAD_REACTORS
330
C3
102
}
330
C3
100
AcDbVisualStyle
  2
Wireframe
 70
     5
177
     2
291
     0
 71
     0
176
     1
 72
     2
176
     1
 73
     0
176
     1
 90
        0
176
     1
 40
0.6
176
     1
 41
30.0
176
     1
 63
     7
421
 16777215
176
     1
 74
     1
176
     1
 91
        4
176
     1
 64
     7
176
     1
 65
   257
176
     1
 75
     1
176
     1
175
     1
176
     1
 42
1.0
176
     1
 92
        0
176
     1
 66
   257
176
     1
 43
1.0
176
     1
 76
     1
176
     1
 77
     6
176
     1
 78
     2
176
     1
 67
     7
176
     1
 79
     3
176
     1
170
     0
176
     1
171
     0
176
     1
290
     0
176
     1
 93
        1
176
     1
 44
0.0
176
     1
173
     0
176
     1
1001
ACAD
1000
AcDbSavedByObjectVersion
1070
     0
  0
VISUALSTYLE
  5
D6
102
{ACAD_XDICTIONARY
360
175
102
}
102
{ACAD_REACTORS
330
C3
102
}
330
C3
100
AcDbVisualStyle
  2
X-Ray
 70
    25
177
     2
291
     0
 71
     2
176
     1
 72
     2
176
     1
 73
     1
176
     1
 90
        1
176
     1
 40
0.5
176
     1
 41
30.0
176
     1
 63
     7
421
 16777215
176
     1
 74
     1
176
     1
 91
        0
176
     1
 64
     7
176
     1
 65
   257
176
     1
 75
     1
176
     1
175
     1
176
     1
 42
1.0
176
     1
 92
        8
176
     1
 66
     7
176
     1
 43
1.0
176
     1
 76
     1
176
     1
 77
     6
176
     1
 78
     2
176
     1
 67
     7
176
     1
 79
     3
176
     1
170
     0
176
     1
171
     0
176
     1
290
     0
176
     1
 93
       13
176
     1
 44
0.0
176
     1
173
     0
176
     1
1001
ACAD
1000
AcDbSavedByObjectVersion
1070
     0
  0
DICTIONARYVAR
  5
14A
102
{ACAD_REACTORS
330
144
102
}
330
144
100
DictionaryVariables
280
     0
  1
1:1
  0
DICTIONARYVAR
  5
146
102
{ACAD_REACTORS
330
144
102
}
330
144
100
DictionaryVariables
280
     0
  1
STANDARD
  0
DICTIONARYVAR
  5
145
102
{ACAD_REACTORS
330
144
102
}
330
144
100
DictionaryVariables
280
     0
  1
STANDARD
  0
DICTIONARYVAR
  5
147
102
{ACAD_REACTORS
330
144
102
}
330
144
100
DictionaryVariables
280
     0
  1
Imperial24
  0
DICTIONARYVAR
  5
148
102
{ACAD_REACTORS
330
144
102
}
330
144
100
DictionaryVariables
280
     0
  1
Imperial24
  0
DICTIONARYVAR
  5
14C
102
{ACAD_REACTORS
330
144
102
}
330
144
100
DictionaryVariables
280
     0
  1
1
  0
DICTIONARYVAR
  5
14D
102
{ACAD_REACTORS
330
144
102
}
330
144
100
DictionaryVariables
280
     0
  1
15
  0
DICTIONARYVAR
  5
14B
102
{ACAD_REACTORS
330
144
102
}
330
144
100
DictionaryVariables
280
     0
  1
0
  0
DICTIONARYVAR
  5
149
102
{ACAD_REACTORS
330
144
102
}
330
144
100
DictionaryVariables
280
     0
  1
0
  0
DICTIONARY
  5
185
330
F6
100
AcDbDictionary
280
     1
281
     1
  3
ACAD_XREC_ROUNDTRIP
360
186
  0
DICTIONARY
  5
B4
330
B3
100
AcDbDictionary
280
     1
281
     1
  3
BUMPTILE
360
B6
  3
DIFFUSETILE
360
B5
  3
OPACITYTILE
360
B9
  3
REFLECTIONTILE
360
B8
  3
REFRACTIONTILE
360
BA
  3
SPECULARTILE
360
B7
  0
DICTIONARY
  5
AC
330
AB
100
AcDbDictionary
280
     1
281
     1
  3
BUMPTILE
360
AE
  3
DIFFUSETILE
360
AD
  3
OPACITYTILE
360
B1
  3
REFLECTIONTILE
360
B0
  3
REFRACTIONTILE
360
B2
  3
SPECULARTILE
360
AF
  0
DICTIONARY
  5
BC
330
BB
100
AcDbDictionary
280
     1
281
     1
  3
BUMPTILE
360
BE
  3
DIFFUSETILE
360
BD
  3
OPACITYTILE
360
C1
  3
REFLECTIONTILE
360
C0
  3
REFRACTIONTILE
360
C2
  3
SPECULARTILE
360
BF
  0
DICTIONARY
  5
181
330
F2
100
AcDbDictionary
280
     1
281
     1
  3
ACAD_XREC_ROUNDTRIP
360
182
  0
DICTIONARY
  5
183
330
F4
100
AcDbDictionary
280
     1
281
     1
  3
ACAD_XREC_ROUNDTRIP
360
184
  0
DICTIONARY
  5
14E
330
DE
100
AcDbDictionary
280
     1
281
     1
  3
ACAD_ROUNDTRIP_2008_TABLESTYLE_CELLSTYLEMAP
360
14F
  0
DICTIONARY
  5
15B
330
C9
100
AcDbDictionary
280
     1
281
     1
  3
ACAD_XREC_ROUNDTRIP
360
15C
  0
DICTIONARY
  5
159
330
C8
100
AcDbDictionary
280
     1
281
     1
  3
ACAD_XREC_ROUNDTRIP
360
15A
  0
DICTIONARY
  5
167
330
CF
100
AcDbDictionary
280
     1
281
     1
  3
ACAD_XREC_ROUNDTRIP
360
168
  0
DICTIONARY
  5
16F
330
D3
100
AcDbDictionary
280
     1
281
     1
  3
ACAD_XREC_ROUNDTRIP
360
170
  0
DICTIONARY
  5
161
330
CC
100
AcDbDictionary
280
     1
281
     1
  3
ACAD_XREC_ROUNDTRIP
360
162
  0
DICTIONARY
  5
165
330
CE
100
AcDbDictionary
280
     1
281
     1
  3
ACAD_XREC_ROUNDTRIP
360
166
  0
DICTIONARY
  5
17F
330
DB
100
AcDbDictionary
280
     1
281
     1
  3
ACAD_XREC_ROUNDTRIP
360
180
  0
DICTIONARY
  5
16D
330
D2
100
AcDbDictionary
280
     1
281
     1
  3
ACAD_XREC_ROUNDTRIP
360
16E
  0
DICTIONARY
  5
151
330
C4
100
AcDbDictionary
280
     1
281
     1
  3
ACAD_XREC_ROUNDTRIP
360
152
  0
DICTIONARY
  5
153
330
C5
100
AcDbDictionary
280
     1
281
     1
  3
ACAD_XREC_ROUNDTRIP
360
154
  0
DICTIONARY
  5
155
330
C6
100
AcDbDictionary
280
     1
281
     1
  3
ACAD_XREC_ROUNDTRIP
360
156
  0
DICTIONARY
  5
157
330
C7
100
AcDbDictionary
280
     1
281
     1
  3
ACAD_XREC_ROUNDTRIP
360
158
  0
DICTIONARY
  5
15F
330
CB
100
AcDbDictionary
280
     1
281
     1
  3
ACAD_XREC_ROUNDTRIP
360
160
  0
DICTIONARY
  5
17B
330
D9
100
AcDbDictionary
280
     1
281
     1
  3
ACAD_XREC_ROUNDTRIP
360
17C
  0
DICTIONARY
  5
16B
330
D1
100
AcDbDictionary
280
     1
281
     1
  3
ACAD_XREC_ROUNDTRIP
360
16C
  0
DICTIONARY
  5
17D
330
DA
100
AcDbDictionary
280
     1
281
     1
  3
ACAD_XREC_ROUNDTRIP
360
17E
  0
DICTIONARY
  5
163
330
CD
100
AcDbDictionary
280
     1
281
     1
  3
ACAD_XREC_ROUNDTRIP
360
164
  0
DICTIONARY
  5
179
330
D8
100
AcDbDictionary
280
     1
281
     1
  3
ACAD_XREC_ROUNDTRIP
360
17A
  0
DICTIONARY
  5
177
330
D7
100
AcDbDictionary
280
     1
281
     1
  3
ACAD_XREC_ROUNDTRIP
360
178
  0
DICTIONARY
  5
171
330
D4
100
AcDbDictionary
280
     1
281
     1
  3
ACAD_XREC_ROUNDTRIP
360
172
  0
DICTIONARY
  5
173
330
D5
100
AcDbDictionary
280
     1
281
     1
  3
ACAD_XREC_ROUNDTRIP
360
174
  0
DICTIONARY
  5
169
330
D0
100
AcDbDictionary
280
     1
281
     1
  3
ACAD_XREC_ROUNDTRIP
360
16A
  0
DICTIONARY
  5
15D
330
CA
100
AcDbDictionary
280
     1
281
     1
  3
ACAD_XREC_ROUNDTRIP
360
15E
  0
DICTIONARY
  5
175
330
D6
100
AcDbDictionary
280
     1
281
     1
  3
ACAD_XREC_ROUNDTRIP
360
176
  0
XRECORD
  5
186
102
{ACAD_REACTORS
330
185
102
}
330
185
100
AcDbXrecord
280
     1
102
DISPLAYNAME
  1
Imperial24
102
FLAGS
 90
        0
  0
XRECORD
  5
B6
102
{ACAD_REACTORS
330
B4
102
}
330
B4
100
AcDbXrecord
280
     1
270
     1
271
     1
  0
XRECORD
  5
B5
102
{ACAD_REACTORS
330
B4
102
}
330
B4
100
AcDbXrecord
280
     1
270
     1
271
     1
  0
XRECORD
  5
B9
102
{ACAD_REACTORS
330
B4
102
}
330
B4
100
AcDbXrecord
280
     1
270
     1
271
     1
  0
XRECORD
  5
B8
102
{ACAD_REACTORS
330
B4
102
}
330
B4
100
AcDbXrecord
280
     1
270
     1
271
     1
  0
XRECORD
  5
BA
102
{ACAD_REACTORS
330
B4
102
}
330
B4
100
AcDbXrecord
280
     1
270
     1
271
     1
  0
XRECORD
  5
B7
102
{ACAD_REACTORS
330
B4
102
}
330
B4
100
AcDbXrecord
280
     1
270
     1
271
     1
  0
XRECORD
  5
AE
102
{ACAD_REACTORS
330
AC
102
}
330
AC
100
AcDbXrecord
280
     1
270
     1
271
     1
  0
XRECORD
  5
AD
102
{ACAD_REACTORS
330
AC
102
}
330
AC
100
AcDbXrecord
280
     1
270
     1
271
     1
  0
XRECORD
  5
B1
102
{ACAD_REACTORS
330
AC
102
}
330
AC
100
AcDbXrecord
280
     1
270
     1
271
     1
  0
XRECORD
  5
B0
102
{ACAD_REACTORS
330
AC
102
}
330
AC
100
AcDbXrecord
280
     1
270
     1
271
     1
  0
XRECORD
  5
B2
102
{ACAD_REACTORS
330
AC
102
}
330
AC
100
AcDbXrecord
280
     1
270
     1
271
     1
  0
XRECORD
  5
AF
102
{ACAD_REACTORS
330
AC
102
}
330
AC
100
AcDbXrecord
280
     1
270
     1
271
     1
  0
XRECORD
  5
BE
102
{ACAD_REACTORS
330
BC
102
}
330
BC
100
AcDbXrecord
280
     1
270
     1
271
     1
  0
XRECORD
  5
BD
102
{ACAD_REACTORS
330
BC
102
}
330
BC
100
AcDbXrecord
280
     1
270
     1
271
     1
  0
XRECORD
  5
C1
102
{ACAD_REACTORS
330
BC
102
}
330
BC
100
AcDbXrecord
280
     1
270
     1
271
     1
  0
XRECORD
  5
C0
102
{ACAD_REACTORS
330
BC
102
}
330
BC
100
AcDbXrecord
280
     1
270
     1
271
     1
  0
XRECORD
  5
C2
102
{ACAD_REACTORS
330
BC
102
}
330
BC
100
AcDbXrecord
280
     1
270
     1
271
     1
  0
XRECORD
  5
BF
102
{ACAD_REACTORS
330
BC
102
}
330
BC
100
AcDbXrecord
280
     1
270
     1
271
     1
  0
XRECORD
  5
182
102
{ACAD_REACTORS
330
181
102
}
330
181
100
AcDbXrecord
280
     1
102
ACAD_ROUNDTRIP_2012_MLEADER_STYLE
298
     1
  0
XRECORD
  5
184
102
{ACAD_REACTORS
330
183
102
}
330
183
100
AcDbXrecord
280
     1
102
DISPLAYNAME
  1
Imperial24
102
FLAGS
 90
        0
  0
CELLSTYLEMAP
  5
14F
102
{ACAD_REACTORS
330
14E
102
}
330
14E
100
AcDbCellStyleMap
 90
        3
300
CELLSTYLE
  1
TABLEFORMAT_BEGIN
 90
        5
170
     1
 91
        0
 92
    32768
 62
   257
 93
        1
300
CONTENTFORMAT
  1
CONTENTFORMAT_BEGIN
 90
        0
 91
        0
 92
      512
 93
        0
300

 40
0.0
140
1.0
 94
        5
 62
     0
340
11
144
0.25
309
CONTENTFORMAT_END
171
     0
 94
        0
309
TABLEFORMAT_END
  1
CELLSTYLE_BEGIN
 90
        1
 91
        1
300
_TITLE
309
CELLSTYLE_END
300
CELLSTYLE
  1
TABLEFORMAT_BEGIN
 90
        5
170
     1
 91
        0
 92
        0
 62
   257
 93
        1
300
CONTENTFORMAT
  1
CONTENTFORMAT_BEGIN
 90
        0
 91
        0
 92
      512
 93
        0
300

 40
0.0
140
1.0
 94
        5
 62
     0
340
11
144
0.18
309
CONTENTFORMAT_END
171
     0
 94
        0
309
TABLEFORMAT_END
  1
CELLSTYLE_BEGIN
 90
        2
 91
        1
300
_HEADER
309
CELLSTYLE_END
300
CELLSTYLE
  1
TABLEFORMAT_BEGIN
 90
        5
170
     1
 91
        0
 92
        0
 62
   257
 93
        1
300
CONTENTFORMAT
  1
CONTENTFORMAT_BEGIN
 90
        0
 91
        0
 92
      512
 93
        0
300

 40
0.0
140
1.0
 94
        2
 62
     0
340
11
144
0.18
309
CONTENTFORMAT_END
171
     0
 94
        0
309
TABLEFORMAT_END
  1
CELLSTYLE_BEGIN
 90
        3
 91
        2
300
_DATA
309
CELLSTYLE_END
  0
XRECORD
  5
15C
102
{ACAD_REACTORS
330
15B
102
}
330
15B
100
AcDbXrecord
280
     1
102
RTVSPost2010Prop28
280
     1
102
RTVSPost2010PropOp28
 70
     1
102
RTVSPost2010Prop29
280
     1
102
RTVSPost2010PropOp29
 70
     1
102
RTVSPost2010Prop30
280
     0
102
RTVSPost2010PropOp30
 70
     1
102
RTVSPost2010Prop31
280
     0
102
RTVSPost2010PropOp31
 70
     1
102
RTVSPost2010Prop32
280
     0
102
RTVSPost2010PropOp32
 70
     1
102
RTVSPost2010Prop33
280
     0
102
RTVSPost2010PropOp33
 70
     1
102
RTVSPost2010Prop34
280
     0
102
RTVSPost2010PropOp34
 70
     1
102
RTVSPost2010Prop35
280
     0
102
RTVSPost2010PropOp35
 70
     1
102
RTVSPost2010Prop36
280
     0
102
RTVSPost2010PropOp36
 70
     1
102
RTVSPost2010Prop37
 90
       50
102
RTVSPost2010PropOp37
 70
     1
102
RTVSPost2010Prop38
140
0.0
102
RTVSPost2010PropOp38
 70
     1
102
RTVSPost2010Prop39
140
1.0
102
RTVSPost2010PropOp39
 70
     1
102
RTVSPost2010Prop40
 90
        0
102
RTVSPost2010PropOp40
 70
     1
102
RTVSPost2010Prop41ColorIndex
 90
       18
102
RTVSPost2010Prop41ColorRGB
 90
        0
102
RTVSPost2010PropOp41
 70
     1
102
RTVSPost2010Prop42
 90
       50
102
RTVSPost2010PropOp42
 70
     1
102
RTVSPost2010Prop43
 90
        3
102
RTVSPost2010PropOp43
 70
     1
102
RTVSPost2010Prop44ColorIndex
 90
        5
102
RTVSPost2010Prop44ColorRGB
 90
      255
102
RTVSPost2010PropOp44
 70
     1
102
RTVSPost2010Prop45
280
     0
102
RTVSPost2010PropOp45
 70
     1
102
RTVSPost2010Prop46
 90
       50
102
RTVSPost2010PropOp46
 70
     1
102
RTVSPost2010Prop47
 90
       50
102
RTVSPost2010PropOp47
 70
     1
102
RTVSPost2010Prop48
 90
       50
102
RTVSPost2010PropOp48
 70
     1
102
RTVSPost2010Prop49
280
     0
102
RTVSPost2010PropOp49
 70
     1
102
RTVSPost2010Prop50
 90
       50
102
RTVSPost2010PropOp50
 70
     1
102
RTVSPost2010Prop51ColorIndex
 90
      256
102
RTVSPost2010Prop51ColorRGB
 90
-16777216
102
RTVSPost2010PropOp51
 70
     0
102
RTVSPost2010Prop52
140
1.0
102
RTVSPost2010PropOp52
 70
     0
102
RTVSPost2010Prop53
 90
        2
102
RTVSPost2010PropOp53
 70
     1
102
RTVSPost2010Prop54
  1
strokes_ogs.tif
102
RTVSPost2010PropOp54
 70
     1
102
RTVSPost2010Prop55
280
     0
102
RTVSPost2010PropOp55
 70
     1
102
RTVSPost2010Prop56
140
1.0
102
RTVSPost2010PropOp56
 70
     1
102
RTVSPost2010Prop57
140
1.0
102
RTVSPost2010PropOp57
 70
     1
  0
XRECORD
  5
15A
102
{ACAD_REACTORS
330
159
102
}
330
159
100
AcDbXrecord
280
     1
102
RTVSPost2010Prop28
280
     0
102
RTVSPost2010PropOp28
 70
     1
102
RTVSPost2010Prop29
280
     1
102
RTVSPost2010PropOp29
 70
     1
102
RTVSPost2010Prop30
280
     1
102
RTVSPost2010PropOp30
 70
     1
102
RTVSPost2010Prop31
280
     0
102
RTVSPost2010PropOp31
 70
     1
102
RTVSPost2010Prop32
280
     0
102
RTVSPost2010PropOp32
 70
     1
102
RTVSPost2010Prop33
280
     0
102
RTVSPost2010PropOp33
 70
     1
102
RTVSPost2010Prop34
280
     0
102
RTVSPost2010PropOp34
 70
     1
102
RTVSPost2010Prop35
280
     0
102
RTVSPost2010PropOp35
 70
     1
102
RTVSPost2010Prop36
280
     0
102
RTVSPost2010PropOp36
 70
     1
102
RTVSPost2010Prop37
 90
       50
102
RTVSPost2010PropOp37
 70
     1
102
RTVSPost2010Prop38
140
0.0
102
RTVSPost2010PropOp38
 70
     1
102
RTVSPost2010Prop39
140
1.0
102
RTVSPost2010PropOp39
 70
     1
102
RTVSPost2010Prop40
 90
        0
102
RTVSPost2010PropOp40
 70
     1
102
RTVSPost2010Prop41ColorIndex
 90
       18
102
RTVSPost2010Prop41ColorRGB
 90
        0
102
RTVSPost2010PropOp41
 70
     1
102
RTVSPost2010Prop42
 90
       50
102
RTVSPost2010PropOp42
 70
     1
102
RTVSPost2010Prop43
 90
        3
102
RTVSPost2010PropOp43
 70
     1
102
RTVSPost2010Prop44ColorIndex
 90
        5
102
RTVSPost2010Prop44ColorRGB
 90
      255
102
RTVSPost2010PropOp44
 70
     1
102
RTVSPost2010Prop45
280
     0
102
RTVSPost2010PropOp45
 70
     1
102
RTVSPost2010Prop46
 90
       50
102
RTVSPost2010PropOp46
 70
     1
102
RTVSPost2010Prop47
 90
       50
102
RTVSPost2010PropOp47
 70
     1
102
RTVSPost2010Prop48
 90
       50
102
RTVSPost2010PropOp48
 70
     1
102
RTVSPost2010Prop49
280
     0
102
RTVSPost2010PropOp49
 70
     1
102
RTVSPost2010Prop50
 90
       50
102
RTVSPost2010PropOp50
 70
     1
102
RTVSPost2010Prop51ColorIndex
 90
      256
102
RTVSPost2010Prop51ColorRGB
 90
-16777216
102
RTVSPost2010PropOp51
 70
     0
102
RTVSPost2010Prop52
140
1.0
102
RTVSPost2010PropOp52
 70
     0
102
RTVSPost2010Prop53
 90
        2
102
RTVSPost2010PropOp53
 70
     1
102
RTVSPost2010Prop54
  1
strokes_ogs.tif
102
RTVSPost2010PropOp54
 70
     1
102
RTVSPost2010Prop55
280
     0
102
RTVSPost2010PropOp55
 70
     1
102
RTVSPost2010Prop56
140
1.0
102
RTVSPost2010PropOp56
 70
     1
102
RTVSPost2010Prop57
140
1.0
102
RTVSPost2010PropOp57
 70
     1
  0
XRECORD
  5
168
102
{ACAD_REACTORS
330
167
102
}
330
167
100
AcDbXrecord
280
     1
102
RTVSPost2010Prop28
280
     0
102
RTVSPost2010PropOp28
 70
     1
102
RTVSPost2010Prop29
280
     1
102
RTVSPost2010PropOp29
 70
     1
102
RTVSPost2010Prop30
280
     1
102
RTVSPost2010PropOp30
 70
     1
102
RTVSPost2010Prop31
280
     0
102
RTVSPost2010PropOp31
 70
     1
102
RTVSPost2010Prop32
280
     0
102
RTVSPost2010PropOp32
 70
     1
102
RTVSPost2010Prop33
280
     0
102
RTVSPost2010PropOp33
 70
     1
102
RTVSPost2010Prop34
280
     0
102
RTVSPost2010PropOp34
 70
     1
102
RTVSPost2010Prop35
280
     0
102
RTVSPost2010PropOp35
 70
     1
102
RTVSPost2010Prop36
280
     0
102
RTVSPost2010PropOp36
 70
     1
102
RTVSPost2010Prop37
 90
       50
102
RTVSPost2010PropOp37
 70
     1
102
RTVSPost2010Prop38
140
0.0
102
RTVSPost2010PropOp38
 70
     1
102
RTVSPost2010Prop39
140
1.0
102
RTVSPost2010PropOp39
 70
     1
102
RTVSPost2010Prop40
 90
        0
102
RTVSPost2010PropOp40
 70
     1
102
RTVSPost2010Prop41ColorIndex
 90
       18
102
RTVSPost2010Prop41ColorRGB
 90
        0
102
RTVSPost2010PropOp41
 70
     1
102
RTVSPost2010Prop42
 90
       50
102
RTVSPost2010PropOp42
 70
     1
102
RTVSPost2010Prop43
 90
        3
102
RTVSPost2010PropOp43
 70
     1
102
RTVSPost2010Prop44ColorIndex
 90
        5
102
RTVSPost2010Prop44ColorRGB
 90
      255
102
RTVSPost2010PropOp44
 70
     1
102
RTVSPost2010Prop45
280
     0
102
RTVSPost2010PropOp45
 70
     1
102
RTVSPost2010Prop46
 90
       50
102
RTVSPost2010PropOp46
 70
     1
102
RTVSPost2010Prop47
 90
       50
102
RTVSPost2010PropOp47
 70
     1
102
RTVSPost2010Prop48
 90
       50
102
RTVSPost2010PropOp48
 70
     1
102
RTVSPost2010Prop49
280
     0
102
RTVSPost2010PropOp49
 70
     1
102
RTVSPost2010Prop50
 90
       50
102
RTVSPost2010PropOp50
 70
     1
102
RTVSPost2010Prop51ColorIndex
 90
      256
102
RTVSPost2010Prop51ColorRGB
 90
-16777216
102
RTVSPost2010PropOp51
 70
     0
102
RTVSPost2010Prop52
140
1.0
102
RTVSPost2010PropOp52
 70
     0
102
RTVSPost2010Prop53
 90
        2
102
RTVSPost2010PropOp53
 70
     1
102
RTVSPost2010Prop54
  1
strokes_ogs.tif
102
RTVSPost2010PropOp54
 70
     1
102
RTVSPost2010Prop55
280
     0
102
RTVSPost2010PropOp55
 70
     1
102
RTVSPost2010Prop56
140
1.0
102
RTVSPost2010PropOp56
 70
     1
102
RTVSPost2010Prop57
140
1.0
102
RTVSPost2010PropOp57
 70
     1
  0
XRECORD
  5
170
102
{ACAD_REACTORS
330
16F
102
}
330
16F
100
AcDbXrecord
280
     1
102
RTVSPost2010Prop28
280
     0
102
RTVSPost2010PropOp28
 70
     1
102
RTVSPost2010Prop29
280
     1
102
RTVSPost2010PropOp29
 70
     1
102
RTVSPost2010Prop30
280
     1
102
RTVSPost2010PropOp30
 70
     1
102
RTVSPost2010Prop31
280
     0
102
RTVSPost2010PropOp31
 70
     1
102
RTVSPost2010Prop32
280
     0
102
RTVSPost2010PropOp32
 70
     1
102
RTVSPost2010Prop33
280
     0
102
RTVSPost2010PropOp33
 70
     1
102
RTVSPost2010Prop34
280
     0
102
RTVSPost2010PropOp34
 70
     1
102
RTVSPost2010Prop35
280
     0
102
RTVSPost2010PropOp35
 70
     1
102
RTVSPost2010Prop36
280
     0
102
RTVSPost2010PropOp36
 70
     1
102
RTVSPost2010Prop37
 90
       50
102
RTVSPost2010PropOp37
 70
     1
102
RTVSPost2010Prop38
140
0.0
102
RTVSPost2010PropOp38
 70
     1
102
RTVSPost2010Prop39
140
1.0
102
RTVSPost2010PropOp39
 70
     1
102
RTVSPost2010Prop40
 90
        0
102
RTVSPost2010PropOp40
 70
     1
102
RTVSPost2010Prop41ColorIndex
 90
       18
102
RTVSPost2010Prop41ColorRGB
 90
        0
102
RTVSPost2010PropOp41
 70
     1
102
RTVSPost2010Prop42
 90
       50
102
RTVSPost2010PropOp42
 70
     1
102
RTVSPost2010Prop43
 90
        3
102
RTVSPost2010PropOp43
 70
     1
102
RTVSPost2010Prop44ColorIndex
 90
        5
102
RTVSPost2010Prop44ColorRGB
 90
      255
102
RTVSPost2010PropOp44
 70
     1
102
RTVSPost2010Prop45
280
     0
102
RTVSPost2010PropOp45
 70
     1
102
RTVSPost2010Prop46
 90
       50
102
RTVSPost2010PropOp46
 70
     1
102
RTVSPost2010Prop47
 90
       50
102
RTVSPost2010PropOp47
 70
     1
102
RTVSPost2010Prop48
 90
       50
102
RTVSPost2010PropOp48
 70
     1
102
RTVSPost2010Prop49
280
     0
102
RTVSPost2010PropOp49
 70
     1
102
RTVSPost2010Prop50
 90
       50
102
RTVSPost2010PropOp50
 70
     1
102
RTVSPost2010Prop51ColorIndex
 90
      256
102
RTVSPost2010Prop51ColorRGB
 90
-16777216
102
RTVSPost2010PropOp51
 70
     0
102
RTVSPost2010Prop52
140
1.0
102
RTVSPost2010PropOp52
 70
     0
102
RTVSPost2010Prop53
 90
        2
102
RTVSPost2010PropOp53
 70
     1
102
RTVSPost2010Prop54
  1
strokes_ogs.tif
102
RTVSPost2010PropOp54
 70
     1
102
RTVSPost2010Prop55
280
     0
102
RTVSPost2010PropOp55
 70
     1
102
RTVSPost2010Prop56
140
1.0
102
RTVSPost2010PropOp56
 70
     1
102
RTVSPost2010Prop57
140
1.0
102
RTVSPost2010PropOp57
 70
     1
  0
XRECORD
  5
162
102
{ACAD_REACTORS
330
161
102
}
330
161
100
AcDbXrecord
280
     1
102
RTVSPost2010Prop28
280
     0
102
RTVSPost2010PropOp28
 70
     1
102
RTVSPost2010Prop29
280
     1
102
RTVSPost2010PropOp29
 70
     1
102
RTVSPost2010Prop30
280
     1
102
RTVSPost2010PropOp30
 70
     1
102
RTVSPost2010Prop31
280
     0
102
RTVSPost2010PropOp31
 70
     1
102
RTVSPost2010Prop32
280
     0
102
RTVSPost2010PropOp32
 70
     1
102
RTVSPost2010Prop33
280
     0
102
RTVSPost2010PropOp33
 70
     1
102
RTVSPost2010Prop34
280
     0
102
RTVSPost2010PropOp34
 70
     1
102
RTVSPost2010Prop35
280
     0
102
RTVSPost2010PropOp35
 70
     1
102
RTVSPost2010Prop36
280
     0
102
RTVSPost2010PropOp36
 70
     1
102
RTVSPost2010Prop37
 90
       50
102
RTVSPost2010PropOp37
 70
     1
102
RTVSPost2010Prop38
140
0.0
102
RTVSPost2010PropOp38
 70
     1
102
RTVSPost2010Prop39
140
1.0
102
RTVSPost2010PropOp39
 70
     1
102
RTVSPost2010Prop40
 90
        0
102
RTVSPost2010PropOp40
 70
     1
102
RTVSPost2010Prop41ColorIndex
 90
       18
102
RTVSPost2010Prop41ColorRGB
 90
        0
102
RTVSPost2010PropOp41
 70
     1
102
RTVSPost2010Prop42
 90
       50
102
RTVSPost2010PropOp42
 70
     1
102
RTVSPost2010Prop43
 90
        3
102
RTVSPost2010PropOp43
 70
     1
102
RTVSPost2010Prop44ColorIndex
 90
        5
102
RTVSPost2010Prop44ColorRGB
 90
      255
102
RTVSPost2010PropOp44
 70
     1
102
RTVSPost2010Prop45
280
     0
102
RTVSPost2010PropOp45
 70
     1
102
RTVSPost2010Prop46
 90
       50
102
RTVSPost2010PropOp46
 70
     1
102
RTVSPost2010Prop47
 90
       50
102
RTVSPost2010PropOp47
 70
     1
102
RTVSPost2010Prop48
 90
       50
102
RTVSPost2010PropOp48
 70
     1
102
RTVSPost2010Prop49
280
     0
102
RTVSPost2010PropOp49
 70
     1
102
RTVSPost2010Prop50
 90
       50
102
RTVSPost2010PropOp50
 70
     1
102
RTVSPost2010Prop51ColorIndex
 90
      256
102
RTVSPost2010Prop51ColorRGB
 90
-16777216
102
RTVSPost2010PropOp51
 70
     0
102
RTVSPost2010Prop52
140
1.0
102
RTVSPost2010PropOp52
 70
     0
102
RTVSPost2010Prop53
 90
        2
102
RTVSPost2010PropOp53
 70
     1
102
RTVSPost2010Prop54
  1
strokes_ogs.tif
102
RTVSPost2010PropOp54
 70
     1
102
RTVSPost2010Prop55
280
     0
102
RTVSPost2010PropOp55
 70
     1
102
RTVSPost2010Prop56
140
1.0
102
RTVSPost2010PropOp56
 70
     1
102
RTVSPost2010Prop57
140
1.0
102
RTVSPost2010PropOp57
 70
     1
  0
XRECORD
  5
166
102
{ACAD_REACTORS
330
165
102
}
330
165
100
AcDbXrecord
280
     1
102
RTVSPost2010Prop28
280
     0
102
RTVSPost2010PropOp28
 70
     1
102
RTVSPost2010Prop29
280
     1
102
RTVSPost2010PropOp29
 70
     1
102
RTVSPost2010Prop30
280
     1
102
RTVSPost2010PropOp30
 70
     1
102
RTVSPost2010Prop31
280
     0
102
RTVSPost2010PropOp31
 70
     1
102
RTVSPost2010Prop32
280
     0
102
RTVSPost2010PropOp32
 70
     1
102
RTVSPost2010Prop33
280
     0
102
RTVSPost2010PropOp33
 70
     1
102
RTVSPost2010Prop34
280
     0
102
RTVSPost2010PropOp34
 70
     1
102
RTVSPost2010Prop35
280
     0
102
RTVSPost2010PropOp35
 70
     1
102
RTVSPost2010Prop36
280
     0
102
RTVSPost2010PropOp36
 70
     1
102
RTVSPost2010Prop37
 90
       50
102
RTVSPost2010PropOp37
 70
     1
102
RTVSPost2010Prop38
140
0.0
102
RTVSPost2010PropOp38
 70
     1
102
RTVSPost2010Prop39
140
1.0
102
RTVSPost2010PropOp39
 70
     1
102
RTVSPost2010Prop40
 90
        0
102
RTVSPost2010PropOp40
 70
     1
102
RTVSPost2010Prop41ColorIndex
 90
       18
102
RTVSPost2010Prop41ColorRGB
 90
        0
102
RTVSPost2010PropOp41
 70
     1
102
RTVSPost2010Prop42
 90
       50
102
RTVSPost2010PropOp42
 70
     1
102
RTVSPost2010Prop43
 90
        3
102
RTVSPost2010PropOp43
 70
     1
102
RTVSPost2010Prop44ColorIndex
 90
        5
102
RTVSPost2010Prop44ColorRGB
 90
      255
102
RTVSPost2010PropOp44
 70
     1
102
RTVSPost2010Prop45
280
     0
102
RTVSPost2010PropOp45
 70
     1
102
RTVSPost2010Prop46
 90
       50
102
RTVSPost2010PropOp46
 70
     1
102
RTVSPost2010Prop47
 90
       50
102
RTVSPost2010PropOp47
 70
     1
102
RTVSPost2010Prop48
 90
       50
102
RTVSPost2010PropOp48
 70
     1
102
RTVSPost2010Prop49
280
     0
102
RTVSPost2010PropOp49
 70
     1
102
RTVSPost2010Prop50
 90
       50
102
RTVSPost2010PropOp50
 70
     1
102
RTVSPost2010Prop51ColorIndex
 90
      256
102
RTVSPost2010Prop51ColorRGB
 90
-16777216
102
RTVSPost2010PropOp51
 70
     0
102
RTVSPost2010Prop52
140
1.0
102
RTVSPost2010PropOp52
 70
     0
102
RTVSPost2010Prop53
 90
        2
102
RTVSPost2010PropOp53
 70
     1
102
RTVSPost2010Prop54
  1
strokes_ogs.tif
102
RTVSPost2010PropOp54
 70
     1
102
RTVSPost2010Prop55
280
     0
102
RTVSPost2010PropOp55
 70
     1
102
RTVSPost2010Prop56
140
1.0
102
RTVSPost2010PropOp56
 70
     1
102
RTVSPost2010Prop57
140
1.0
102
RTVSPost2010PropOp57
 70
     1
  0
XRECORD
  5
180
102
{ACAD_REACTORS
330
17F
102
}
330
17F
100
AcDbXrecord
280
     1
102
RTVSPost2010Prop28
280
     0
102
RTVSPost2010PropOp28
 70
     0
102
RTVSPost2010Prop29
280
     1
102
RTVSPost2010PropOp29
 70
     0
102
RTVSPost2010Prop30
280
     1
102
RTVSPost2010PropOp30
 70
     0
102
RTVSPost2010Prop31
280
     0
102
RTVSPost2010PropOp31
 70
     0
102
RTVSPost2010Prop32
280
     0
102
RTVSPost2010PropOp32
 70
     0
102
RTVSPost2010Prop33
280
     0
102
RTVSPost2010PropOp33
 70
     0
102
RTVSPost2010Prop34
280
     0
102
RTVSPost2010PropOp34
 70
     0
102
RTVSPost2010Prop35
280
     0
102
RTVSPost2010PropOp35
 70
     0
102
RTVSPost2010Prop36
280
     0
102
RTVSPost2010PropOp36
 70
     0
102
RTVSPost2010Prop37
 90
       50
102
RTVSPost2010PropOp37
 70
     0
102
RTVSPost2010Prop38
140
0.0
102
RTVSPost2010PropOp38
 70
     0
102
RTVSPost2010Prop39
140
1.0
102
RTVSPost2010PropOp39
 70
     0
102
RTVSPost2010Prop40
 90
        0
102
RTVSPost2010PropOp40
 70
     0
102
RTVSPost2010Prop41ColorIndex
 90
       18
102
RTVSPost2010Prop41ColorRGB
 90
        0
102
RTVSPost2010PropOp41
 70
     0
102
RTVSPost2010Prop42
 90
       50
102
RTVSPost2010PropOp42
 70
     0
102
RTVSPost2010Prop43
 90
        3
102
RTVSPost2010PropOp43
 70
     0
102
RTVSPost2010Prop44ColorIndex
 90
        5
102
RTVSPost2010Prop44ColorRGB
 90
      255
102
RTVSPost2010PropOp44
 70
     0
102
RTVSPost2010Prop45
280
     0
102
RTVSPost2010PropOp45
 70
     0
102
RTVSPost2010Prop46
 90
       50
102
RTVSPost2010PropOp46
 70
     0
102
RTVSPost2010Prop47
 90
       50
102
RTVSPost2010PropOp47
 70
     0
102
RTVSPost2010Prop48
 90
       50
102
RTVSPost2010PropOp48
 70
     0
102
RTVSPost2010Prop49
280
     0
102
RTVSPost2010PropOp49
 70
     0
102
RTVSPost2010Prop50
 90
       50
102
RTVSPost2010PropOp50
 70
     0
102
RTVSPost2010Prop51ColorIndex
 90
      256
102
RTVSPost2010Prop51ColorRGB
 90
-16777216
102
RTVSPost2010PropOp51
 70
     0
102
RTVSPost2010Prop52
140
1.0
102
RTVSPost2010PropOp52
 70
     0
102
RTVSPost2010Prop53
 90
        2
102
RTVSPost2010PropOp53
 70
     0
102
RTVSPost2010Prop54
  1
strokes_ogs.tif
102
RTVSPost2010PropOp54
 70
     0
102
RTVSPost2010Prop55
280
     0
102
RTVSPost2010PropOp55
 70
     0
102
RTVSPost2010Prop56
140
1.0
102
RTVSPost2010PropOp56
 70
     0
102
RTVSPost2010Prop57
140
1.0
102
RTVSPost2010PropOp57
 70
     0
  0
XRECORD
  5
16E
102
{ACAD_REACTORS
330
16D
102
}
330
16D
100
AcDbXrecord
280
     1
102
RTVSPost2010Prop28
280
     0
102
RTVSPost2010PropOp28
 70
     1
102
RTVSPost2010Prop29
280
     1
102
RTVSPost2010PropOp29
 70
     1
102
RTVSPost2010Prop30
280
     1
102
RTVSPost2010PropOp30
 70
     1
102
RTVSPost2010Prop31
280
     0
102
RTVSPost2010PropOp31
 70
     1
102
RTVSPost2010Prop32
280
     0
102
RTVSPost2010PropOp32
 70
     1
102
RTVSPost2010Prop33
280
     0
102
RTVSPost2010PropOp33
 70
     1
102
RTVSPost2010Prop34
280
     0
102
RTVSPost2010PropOp34
 70
     1
102
RTVSPost2010Prop35
280
     0
102
RTVSPost2010PropOp35
 70
     1
102
RTVSPost2010Prop36
280
     0
102
RTVSPost2010PropOp36
 70
     1
102
RTVSPost2010Prop37
 90
       50
102
RTVSPost2010PropOp37
 70
     1
102
RTVSPost2010Prop38
140
0.0
102
RTVSPost2010PropOp38
 70
     1
102
RTVSPost2010Prop39
140
1.0
102
RTVSPost2010PropOp39
 70
     1
102
RTVSPost2010Prop40
 90
        0
102
RTVSPost2010PropOp40
 70
     1
102
RTVSPost2010Prop41ColorIndex
 90
       18
102
RTVSPost2010Prop41ColorRGB
 90
        0
102
RTVSPost2010PropOp41
 70
     1
102
RTVSPost2010Prop42
 90
       50
102
RTVSPost2010PropOp42
 70
     1
102
RTVSPost2010Prop43
 90
        3
102
RTVSPost2010PropOp43
 70
     1
102
RTVSPost2010Prop44ColorIndex
 90
        5
102
RTVSPost2010Prop44ColorRGB
 90
      255
102
RTVSPost2010PropOp44
 70
     1
102
RTVSPost2010Prop45
280
     0
102
RTVSPost2010PropOp45
 70
     1
102
RTVSPost2010Prop46
 90
       50
102
RTVSPost2010PropOp46
 70
     1
102
RTVSPost2010Prop47
 90
       50
102
RTVSPost2010PropOp47
 70
     1
102
RTVSPost2010Prop48
 90
       50
102
RTVSPost2010PropOp48
 70
     1
102
RTVSPost2010Prop49
280
     0
102
RTVSPost2010PropOp49
 70
     1
102
RTVSPost2010Prop50
 90
       50
102
RTVSPost2010PropOp50
 70
     1
102
RTVSPost2010Prop51ColorIndex
 90
      256
102
RTVSPost2010Prop51ColorRGB
 90
-16777216
102
RTVSPost2010PropOp51
 70
     0
102
RTVSPost2010Prop52
140
1.0
102
RTVSPost2010PropOp52
 70
     0
102
RTVSPost2010Prop53
 90
        2
102
RTVSPost2010PropOp53
 70
     1
102
RTVSPost2010Prop54
  1
strokes_ogs.tif
102
RTVSPost2010PropOp54
 70
     1
102
RTVSPost2010Prop55
280
     0
102
RTVSPost2010PropOp55
 70
     1
102
RTVSPost2010Prop56
140
1.0
102
RTVSPost2010PropOp56
 70
     1
102
RTVSPost2010Prop57
140
1.0
102
RTVSPost2010PropOp57
 70
     1
  0
XRECORD
  5
152
102
{ACAD_REACTORS
330
151
102
}
330
151
100
AcDbXrecord
280
     1
102
RTVSPost2010Prop28
280
     0
102
RTVSPost2010PropOp28
 70
     1
102
RTVSPost2010Prop29
280
     1
102
RTVSPost2010PropOp29
 70
     1
102
RTVSPost2010Prop30
280
     1
102
RTVSPost2010PropOp30
 70
     1
102
RTVSPost2010Prop31
280
     0
102
RTVSPost2010PropOp31
 70
     1
102
RTVSPost2010Prop32
280
     0
102
RTVSPost2010PropOp32
 70
     1
102
RTVSPost2010Prop33
280
     0
102
RTVSPost2010PropOp33
 70
     1
102
RTVSPost2010Prop34
280
     0
102
RTVSPost2010PropOp34
 70
     1
102
RTVSPost2010Prop35
280
     0
102
RTVSPost2010PropOp35
 70
     1
102
RTVSPost2010Prop36
280
     0
102
RTVSPost2010PropOp36
 70
     1
102
RTVSPost2010Prop37
 90
       50
102
RTVSPost2010PropOp37
 70
     1
102
RTVSPost2010Prop38
140
0.0
102
RTVSPost2010PropOp38
 70
     1
102
RTVSPost2010Prop39
140
1.0
102
RTVSPost2010PropOp39
 70
     1
102
RTVSPost2010Prop40
 90
        0
102
RTVSPost2010PropOp40
 70
     1
102
RTVSPost2010Prop41ColorIndex
 90
       18
102
RTVSPost2010Prop41ColorRGB
 90
        0
102
RTVSPost2010PropOp41
 70
     1
102
RTVSPost2010Prop42
 90
       50
102
RTVSPost2010PropOp42
 70
     1
102
RTVSPost2010Prop43
 90
        3
102
RTVSPost2010PropOp43
 70
     1
102
RTVSPost2010Prop44ColorIndex
 90
        5
102
RTVSPost2010Prop44ColorRGB
 90
      255
102
RTVSPost2010PropOp44
 70
     1
102
RTVSPost2010Prop45
280
     0
102
RTVSPost2010PropOp45
 70
     1
102
RTVSPost2010Prop46
 90
       50
102
RTVSPost2010PropOp46
 70
     1
102
RTVSPost2010Prop47
 90
       50
102
RTVSPost2010PropOp47
 70
     1
102
RTVSPost2010Prop48
 90
       50
102
RTVSPost2010PropOp48
 70
     1
102
RTVSPost2010Prop49
280
     0
102
RTVSPost2010PropOp49
 70
     1
102
RTVSPost2010Prop50
 90
       50
102
RTVSPost2010PropOp50
 70
     1
102
RTVSPost2010Prop51ColorIndex
 90
      256
102
RTVSPost2010Prop51ColorRGB
 90
-16777216
102
RTVSPost2010PropOp51
 70
     0
102
RTVSPost2010Prop52
140
1.0
102
RTVSPost2010PropOp52
 70
     0
102
RTVSPost2010Prop53
 90
        2
102
RTVSPost2010PropOp53
 70
     1
102
RTVSPost2010Prop54
  1
strokes_ogs.tif
102
RTVSPost2010PropOp54
 70
     1
102
RTVSPost2010Prop55
280
     0
102
RTVSPost2010PropOp55
 70
     1
102
RTVSPost2010Prop56
140
1.0
102
RTVSPost2010PropOp56
 70
     1
102
RTVSPost2010Prop57
140
1.0
102
RTVSPost2010PropOp57
 70
     1
  0
XRECORD
  5
154
102
{ACAD_REACTORS
330
153
102
}
330
153
100
AcDbXrecord
280
     1
102
RTVSPost2010Prop28
280
     0
102
RTVSPost2010PropOp28
 70
     1
102
RTVSPost2010Prop29
280
     1
102
RTVSPost2010PropOp29
 70
     1
102
RTVSPost2010Prop30
280
     1
102
RTVSPost2010PropOp30
 70
     1
102
RTVSPost2010Prop31
280
     0
102
RTVSPost2010PropOp31
 70
     1
102
RTVSPost2010Prop32
280
     0
102
RTVSPost2010PropOp32
 70
     1
102
RTVSPost2010Prop33
280
     0
102
RTVSPost2010PropOp33
 70
     1
102
RTVSPost2010Prop34
280
     0
102
RTVSPost2010PropOp34
 70
     1
102
RTVSPost2010Prop35
280
     0
102
RTVSPost2010PropOp35
 70
     1
102
RTVSPost2010Prop36
280
     0
102
RTVSPost2010PropOp36
 70
     1
102
RTVSPost2010Prop37
 90
       50
102
RTVSPost2010PropOp37
 70
     1
102
RTVSPost2010Prop38
140
0.0
102
RTVSPost2010PropOp38
 70
     1
102
RTVSPost2010Prop39
140
1.0
102
RTVSPost2010PropOp39
 70
     1
102
RTVSPost2010Prop40
 90
        0
102
RTVSPost2010PropOp40
 70
     1
102
RTVSPost2010Prop41ColorIndex
 90
       18
102
RTVSPost2010Prop41ColorRGB
 90
        0
102
RTVSPost2010PropOp41
 70
     1
102
RTVSPost2010Prop42
 90
       50
102
RTVSPost2010PropOp42
 70
     1
102
RTVSPost2010Prop43
 90
        3
102
RTVSPost2010PropOp43
 70
     1
102
RTVSPost2010Prop44ColorIndex
 90
        5
102
RTVSPost2010Prop44ColorRGB
 90
      255
102
RTVSPost2010PropOp44
 70
     1
102
RTVSPost2010Prop45
280
     0
102
RTVSPost2010PropOp45
 70
     1
102
RTVSPost2010Prop46
 90
       50
102
RTVSPost2010PropOp46
 70
     1
102
RTVSPost2010Prop47
 90
       50
102
RTVSPost2010PropOp47
 70
     1
102
RTVSPost2010Prop48
 90
       50
102
RTVSPost2010PropOp48
 70
     1
102
RTVSPost2010Prop49
280
     0
102
RTVSPost2010PropOp49
 70
     1
102
RTVSPost2010Prop50
 90
       50
102
RTVSPost2010PropOp50
 70
     1
102
RTVSPost2010Prop51ColorIndex
 90
      256
102
RTVSPost2010Prop51ColorRGB
 90
-16777216
102
RTVSPost2010PropOp51
 70
     0
102
RTVSPost2010Prop52
140
1.0
102
RTVSPost2010PropOp52
 70
     0
102
RTVSPost2010Prop53
 90
        2
102
RTVSPost2010PropOp53
 70
     1
102
RTVSPost2010Prop54
  1
strokes_ogs.tif
102
RTVSPost2010PropOp54
 70
     1
102
RTVSPost2010Prop55
280
     0
102
RTVSPost2010PropOp55
 70
     1
102
RTVSPost2010Prop56
140
1.0
102
RTVSPost2010PropOp56
 70
     1
102
RTVSPost2010Prop57
140
1.0
102
RTVSPost2010PropOp57
 70
     1
  0
XRECORD
  5
156
102
{ACAD_REACTORS
330
155
102
}
330
155
100
AcDbXrecord
280
     1
102
RTVSPost2010Prop28
280
     0
102
RTVSPost2010PropOp28
 70
     1
102
RTVSPost2010Prop29
280
     1
102
RTVSPost2010PropOp29
 70
     1
102
RTVSPost2010Prop30
280
     1
102
RTVSPost2010PropOp30
 70
     1
102
RTVSPost2010Prop31
280
     0
102
RTVSPost2010PropOp31
 70
     1
102
RTVSPost2010Prop32
280
     0
102
RTVSPost2010PropOp32
 70
     1
102
RTVSPost2010Prop33
280
     0
102
RTVSPost2010PropOp33
 70
     1
102
RTVSPost2010Prop34
280
     0
102
RTVSPost2010PropOp34
 70
     1
102
RTVSPost2010Prop35
280
     0
102
RTVSPost2010PropOp35
 70
     1
102
RTVSPost2010Prop36
280
     0
102
RTVSPost2010PropOp36
 70
     1
102
RTVSPost2010Prop37
 90
       50
102
RTVSPost2010PropOp37
 70
     1
102
RTVSPost2010Prop38
140
0.0
102
RTVSPost2010PropOp38
 70
     1
102
RTVSPost2010Prop39
140
1.0
102
RTVSPost2010PropOp39
 70
     1
102
RTVSPost2010Prop40
 90
        0
102
RTVSPost2010PropOp40
 70
     1
102
RTVSPost2010Prop41ColorIndex
 90
       18
102
RTVSPost2010Prop41ColorRGB
 90
        0
102
RTVSPost2010PropOp41
 70
     1
102
RTVSPost2010Prop42
 90
       50
102
RTVSPost2010PropOp42
 70
     1
102
RTVSPost2010Prop43
 90
        3
102
RTVSPost2010PropOp43
 70
     1
102
RTVSPost2010Prop44ColorIndex
 90
        5
102
RTVSPost2010Prop44ColorRGB
 90
      255
102
RTVSPost2010PropOp44
 70
     1
102
RTVSPost2010Prop45
280
     0
102
RTVSPost2010PropOp45
 70
     1
102
RTVSPost2010Prop46
 90
       50
102
RTVSPost2010PropOp46
 70
     1
102
RTVSPost2010Prop47
 90
       50
102
RTVSPost2010PropOp47
 70
     1
102
RTVSPost2010Prop48
 90
       50
102
RTVSPost2010PropOp48
 70
     1
102
RTVSPost2010Prop49
280
     0
102
RTVSPost2010PropOp49
 70
     1
102
RTVSPost2010Prop50
 90
       50
102
RTVSPost2010PropOp50
 70
     1
102
RTVSPost2010Prop51ColorIndex
 90
      256
102
RTVSPost2010Prop51ColorRGB
 90
-16777216
102
RTVSPost2010PropOp51
 70
     0
102
RTVSPost2010Prop52
140
1.0
102
RTVSPost2010PropOp52
 70
     0
102
RTVSPost2010Prop53
 90
        2
102
RTVSPost2010PropOp53
 70
     1
102
RTVSPost2010Prop54
  1
strokes_ogs.tif
102
RTVSPost2010PropOp54
 70
     1
102
RTVSPost2010Prop55
280
     0
102
RTVSPost2010PropOp55
 70
     1
102
RTVSPost2010Prop56
140
1.0
102
RTVSPost2010PropOp56
 70
     1
102
RTVSPost2010Prop57
140
1.0
102
RTVSPost2010PropOp57
 70
     1
  0
XRECORD
  5
158
102
{ACAD_REACTORS
330
157
102
}
330
157
100
AcDbXrecord
280
     1
102
RTVSPost2010Prop28
280
     0
102
RTVSPost2010PropOp28
 70
     1
102
RTVSPost2010Prop29
280
     1
102
RTVSPost2010PropOp29
 70
     1
102
RTVSPost2010Prop30
280
     1
102
RTVSPost2010PropOp30
 70
     1
102
RTVSPost2010Prop31
280
     0
102
RTVSPost2010PropOp31
 70
     1
102
RTVSPost2010Prop32
280
     0
102
RTVSPost2010PropOp32
 70
     1
102
RTVSPost2010Prop33
280
     0
102
RTVSPost2010PropOp33
 70
     1
102
RTVSPost2010Prop34
280
     0
102
RTVSPost2010PropOp34
 70
     1
102
RTVSPost2010Prop35
280
     0
102
RTVSPost2010PropOp35
 70
     1
102
RTVSPost2010Prop36
280
     0
102
RTVSPost2010PropOp36
 70
     1
102
RTVSPost2010Prop37
 90
       50
102
RTVSPost2010PropOp37
 70
     1
102
RTVSPost2010Prop38
140
0.0
102
RTVSPost2010PropOp38
 70
     1
102
RTVSPost2010Prop39
140
1.0
102
RTVSPost2010PropOp39
 70
     1
102
RTVSPost2010Prop40
 90
        0
102
RTVSPost2010PropOp40
 70
     1
102
RTVSPost2010Prop41ColorIndex
 90
       18
102
RTVSPost2010Prop41ColorRGB
 90
        0
102
RTVSPost2010PropOp41
 70
     1
102
RTVSPost2010Prop42
 90
       50
102
RTVSPost2010PropOp42
 70
     1
102
RTVSPost2010Prop43
 90
        3
102
RTVSPost2010PropOp43
 70
     1
102
RTVSPost2010Prop44ColorIndex
 90
        5
102
RTVSPost2010Prop44ColorRGB
 90
      255
102
RTVSPost2010PropOp44
 70
     1
102
RTVSPost2010Prop45
280
     0
102
RTVSPost2010PropOp45
 70
     1
102
RTVSPost2010Prop46
 90
       50
102
RTVSPost2010PropOp46
 70
     1
102
RTVSPost2010Prop47
 90
       50
102
RTVSPost2010PropOp47
 70
     1
102
RTVSPost2010Prop48
 90
       50
102
RTVSPost2010PropOp48
 70
     1
102
RTVSPost2010Prop49
280
     0
102
RTVSPost2010PropOp49
 70
     1
102
RTVSPost2010Prop50
 90
       50
102
RTVSPost2010PropOp50
 70
     1
102
RTVSPost2010Prop51ColorIndex
 90
      256
102
RTVSPost2010Prop51ColorRGB
 90
-16777216
102
RTVSPost2010PropOp51
 70
     0
102
RTVSPost2010Prop52
140
1.0
102
RTVSPost2010PropOp52
 70
     0
102
RTVSPost2010Prop53
 90
        2
102
RTVSPost2010PropOp53
 70
     1
102
RTVSPost2010Prop54
  1
strokes_ogs.tif
102
RTVSPost2010PropOp54
 70
     1
102
RTVSPost2010Prop55
280
     0
102
RTVSPost2010PropOp55
 70
     1
102
RTVSPost2010Prop56
140
1.0
102
RTVSPost2010PropOp56
 70
     1
102
RTVSPost2010Prop57
140
1.0
102
RTVSPost2010PropOp57
 70
     1
  0
XRECORD
  5
160
102
{ACAD_REACTORS
330
15F
102
}
330
15F
100
AcDbXrecord
280
     1
102
RTVSPost2010Prop28
280
     0
102
RTVSPost2010PropOp28
 70
     1
102
RTVSPost2010Prop29
280
     1
102
RTVSPost2010PropOp29
 70
     1
102
RTVSPost2010Prop30
280
     1
102
RTVSPost2010PropOp30
 70
     1
102
RTVSPost2010Prop31
280
     0
102
RTVSPost2010PropOp31
 70
     1
102
RTVSPost2010Prop32
280
     0
102
RTVSPost2010PropOp32
 70
     1
102
RTVSPost2010Prop33
280
     0
102
RTVSPost2010PropOp33
 70
     1
102
RTVSPost2010Prop34
280
     0
102
RTVSPost2010PropOp34
 70
     1
102
RTVSPost2010Prop35
280
     0
102
RTVSPost2010PropOp35
 70
     1
102
RTVSPost2010Prop36
280
     0
102
RTVSPost2010PropOp36
 70
     1
102
RTVSPost2010Prop37
 90
       50
102
RTVSPost2010PropOp37
 70
     1
102
RTVSPost2010Prop38
140
0.0
102
RTVSPost2010PropOp38
 70
     1
102
RTVSPost2010Prop39
140
1.0
102
RTVSPost2010PropOp39
 70
     1
102
RTVSPost2010Prop40
 90
        0
102
RTVSPost2010PropOp40
 70
     1
102
RTVSPost2010Prop41ColorIndex
 90
       18
102
RTVSPost2010Prop41ColorRGB
 90
        0
102
RTVSPost2010PropOp41
 70
     1
102
RTVSPost2010Prop42
 90
       50
102
RTVSPost2010PropOp42
 70
     1
102
RTVSPost2010Prop43
 90
        3
102
RTVSPost2010PropOp43
 70
     1
102
RTVSPost2010Prop44ColorIndex
 90
        5
102
RTVSPost2010Prop44ColorRGB
 90
      255
102
RTVSPost2010PropOp44
 70
     1
102
RTVSPost2010Prop45
280
     0
102
RTVSPost2010PropOp45
 70
     1
102
RTVSPost2010Prop46
 90
       50
102
RTVSPost2010PropOp46
 70
     1
102
RTVSPost2010Prop47
 90
       50
102
RTVSPost2010PropOp47
 70
     1
102
RTVSPost2010Prop48
 90
       50
102
RTVSPost2010PropOp48
 70
     1
102
RTVSPost2010Prop49
280
     0
102
RTVSPost2010PropOp49
 70
     1
102
RTVSPost2010Prop50
 90
       50
102
RTVSPost2010PropOp50
 70
     1
102
RTVSPost2010Prop51ColorIndex
 90
      256
102
RTVSPost2010Prop51ColorRGB
 90
-16777216
102
RTVSPost2010PropOp51
 70
     0
102
RTVSPost2010Prop52
140
1.0
102
RTVSPost2010PropOp52
 70
     0
102
RTVSPost2010Prop53
 90
        2
102
RTVSPost2010PropOp53
 70
     1
102
RTVSPost2010Prop54
  1
strokes_ogs.tif
102
RTVSPost2010PropOp54
 70
     1
102
RTVSPost2010Prop55
280
     0
102
RTVSPost2010PropOp55
 70
     1
102
RTVSPost2010Prop56
140
1.0
102
RTVSPost2010PropOp56
 70
     1
102
RTVSPost2010Prop57
140
1.0
102
RTVSPost2010PropOp57
 70
     1
  0
XRECORD
  5
17C
102
{ACAD_REACTORS
330
17B
102
}
330
17B
100
AcDbXrecord
280
     1
102
RTVSPost2010Prop28
280
     0
102
RTVSPost2010PropOp28
 70
     0
102
RTVSPost2010Prop29
280
     1
102
RTVSPost2010PropOp29
 70
     0
102
RTVSPost2010Prop30
280
     1
102
RTVSPost2010PropOp30
 70
     0
102
RTVSPost2010Prop31
280
     0
102
RTVSPost2010PropOp31
 70
     0
102
RTVSPost2010Prop32
280
     0
102
RTVSPost2010PropOp32
 70
     0
102
RTVSPost2010Prop33
280
     0
102
RTVSPost2010PropOp33
 70
     0
102
RTVSPost2010Prop34
280
     0
102
RTVSPost2010PropOp34
 70
     0
102
RTVSPost2010Prop35
280
     0
102
RTVSPost2010PropOp35
 70
     0
102
RTVSPost2010Prop36
280
     0
102
RTVSPost2010PropOp36
 70
     0
102
RTVSPost2010Prop37
 90
       50
102
RTVSPost2010PropOp37
 70
     0
102
RTVSPost2010Prop38
140
0.0
102
RTVSPost2010PropOp38
 70
     0
102
RTVSPost2010Prop39
140
1.0
102
RTVSPost2010PropOp39
 70
     0
102
RTVSPost2010Prop40
 90
        0
102
RTVSPost2010PropOp40
 70
     0
102
RTVSPost2010Prop41ColorIndex
 90
       18
102
RTVSPost2010Prop41ColorRGB
 90
        0
102
RTVSPost2010PropOp41
 70
     0
102
RTVSPost2010Prop42
 90
       50
102
RTVSPost2010PropOp42
 70
     0
102
RTVSPost2010Prop43
 90
        3
102
RTVSPost2010PropOp43
 70
     0
102
RTVSPost2010Prop44ColorIndex
 90
        5
102
RTVSPost2010Prop44ColorRGB
 90
      255
102
RTVSPost2010PropOp44
 70
     0
102
RTVSPost2010Prop45
280
     0
102
RTVSPost2010PropOp45
 70
     0
102
RTVSPost2010Prop46
 90
       50
102
RTVSPost2010PropOp46
 70
     0
102
RTVSPost2010Prop47
 90
       50
102
RTVSPost2010PropOp47
 70
     0
102
RTVSPost2010Prop48
 90
       50
102
RTVSPost2010PropOp48
 70
     0
102
RTVSPost2010Prop49
280
     0
102
RTVSPost2010PropOp49
 70
     0
102
RTVSPost2010Prop50
 90
       50
102
RTVSPost2010PropOp50
 70
     0
102
RTVSPost2010Prop51ColorIndex
 90
      256
102
RTVSPost2010Prop51ColorRGB
 90
-16777216
102
RTVSPost2010PropOp51
 70
     0
102
RTVSPost2010Prop52
140
1.0
102
RTVSPost2010PropOp52
 70
     0
102
RTVSPost2010Prop53
 90
        2
102
RTVSPost2010PropOp53
 70
     0
102
RTVSPost2010Prop54
  1
strokes_ogs.tif
102
RTVSPost2010PropOp54
 70
     0
102
RTVSPost2010Prop55
280
     0
102
RTVSPost2010PropOp55
 70
     0
102
RTVSPost2010Prop56
140
1.0
102
RTVSPost2010PropOp56
 70
     0
102
RTVSPost2010Prop57
140
1.0
102
RTVSPost2010PropOp57
 70
     0
  0
XRECORD
  5
16C
102
{ACAD_REACTORS
330
16B
102
}
330
16B
100
AcDbXrecord
280
     1
102
RTVSPost2010Prop28
280
     0
102
RTVSPost2010PropOp28
 70
     1
102
RTVSPost2010Prop29
280
     1
102
RTVSPost2010PropOp29
 70
     1
102
RTVSPost2010Prop30
280
     1
102
RTVSPost2010PropOp30
 70
     1
102
RTVSPost2010Prop31
280
     0
102
RTVSPost2010PropOp31
 70
     1
102
RTVSPost2010Prop32
280
     0
102
RTVSPost2010PropOp32
 70
     1
102
RTVSPost2010Prop33
280
     0
102
RTVSPost2010PropOp33
 70
     1
102
RTVSPost2010Prop34
280
     0
102
RTVSPost2010PropOp34
 70
     1
102
RTVSPost2010Prop35
280
     0
102
RTVSPost2010PropOp35
 70
     1
102
RTVSPost2010Prop36
280
     0
102
RTVSPost2010PropOp36
 70
     1
102
RTVSPost2010Prop37
 90
       50
102
RTVSPost2010PropOp37
 70
     1
102
RTVSPost2010Prop38
140
0.0
102
RTVSPost2010PropOp38
 70
     1
102
RTVSPost2010Prop39
140
1.0
102
RTVSPost2010PropOp39
 70
     1
102
RTVSPost2010Prop40
 90
        0
102
RTVSPost2010PropOp40
 70
     1
102
RTVSPost2010Prop41ColorIndex
 90
       18
102
RTVSPost2010Prop41ColorRGB
 90
        0
102
RTVSPost2010PropOp41
 70
     1
102
RTVSPost2010Prop42
 90
       50
102
RTVSPost2010PropOp42
 70
     1
102
RTVSPost2010Prop43
 90
        3
102
RTVSPost2010PropOp43
 70
     1
102
RTVSPost2010Prop44ColorIndex
 90
        5
102
RTVSPost2010Prop44ColorRGB
 90
      255
102
RTVSPost2010PropOp44
 70
     1
102
RTVSPost2010Prop45
280
     0
102
RTVSPost2010PropOp45
 70
     1
102
RTVSPost2010Prop46
 90
       50
102
RTVSPost2010PropOp46
 70
     1
102
RTVSPost2010Prop47
 90
       50
102
RTVSPost2010PropOp47
 70
     1
102
RTVSPost2010Prop48
 90
       50
102
RTVSPost2010PropOp48
 70
     1
102
RTVSPost2010Prop49
280
     0
102
RTVSPost2010PropOp49
 70
     1
102
RTVSPost2010Prop50
 90
       50
102
RTVSPost2010PropOp50
 70
     1
102
RTVSPost2010Prop51ColorIndex
 90
      256
102
RTVSPost2010Prop51ColorRGB
 90
-16777216
102
RTVSPost2010PropOp51
 70
     0
102
RTVSPost2010Prop52
140
1.0
102
RTVSPost2010PropOp52
 70
     0
102
RTVSPost2010Prop53
 90
        2
102
RTVSPost2010PropOp53
 70
     1
102
RTVSPost2010Prop54
  1
strokes_ogs.tif
102
RTVSPost2010PropOp54
 70
     1
102
RTVSPost2010Prop55
280
     0
102
RTVSPost2010PropOp55
 70
     1
102
RTVSPost2010Prop56
140
1.0
102
RTVSPost2010PropOp56
 70
     1
102
RTVSPost2010Prop57
140
1.0
102
RTVSPost2010PropOp57
 70
     1
  0
XRECORD
  5
17E
102
{ACAD_REACTORS
330
17D
102
}
330
17D
100
AcDbXrecord
280
     1
102
RTVSPost2010Prop28
280
     0
102
RTVSPost2010PropOp28
 70
     0
102
RTVSPost2010Prop29
280
     1
102
RTVSPost2010PropOp29
 70
     0
102
RTVSPost2010Prop30
280
     1
102
RTVSPost2010PropOp30
 70
     0
102
RTVSPost2010Prop31
280
     0
102
RTVSPost2010PropOp31
 70
     0
102
RTVSPost2010Prop32
280
     0
102
RTVSPost2010PropOp32
 70
     0
102
RTVSPost2010Prop33
280
     0
102
RTVSPost2010PropOp33
 70
     0
102
RTVSPost2010Prop34
280
     0
102
RTVSPost2010PropOp34
 70
     0
102
RTVSPost2010Prop35
280
     0
102
RTVSPost2010PropOp35
 70
     0
102
RTVSPost2010Prop36
280
     0
102
RTVSPost2010PropOp36
 70
     0
102
RTVSPost2010Prop37
 90
       50
102
RTVSPost2010PropOp37
 70
     0
102
RTVSPost2010Prop38
140
0.0
102
RTVSPost2010PropOp38
 70
     0
102
RTVSPost2010Prop39
140
1.0
102
RTVSPost2010PropOp39
 70
     0
102
RTVSPost2010Prop40
 90
        0
102
RTVSPost2010PropOp40
 70
     0
102
RTVSPost2010Prop41ColorIndex
 90
       18
102
RTVSPost2010Prop41ColorRGB
 90
        0
102
RTVSPost2010PropOp41
 70
     0
102
RTVSPost2010Prop42
 90
       50
102
RTVSPost2010PropOp42
 70
     0
102
RTVSPost2010Prop43
 90
        3
102
RTVSPost2010PropOp43
 70
     0
102
RTVSPost2010Prop44ColorIndex
 90
        5
102
RTVSPost2010Prop44ColorRGB
 90
      255
102
RTVSPost2010PropOp44
 70
     0
102
RTVSPost2010Prop45
280
     0
102
RTVSPost2010PropOp45
 70
     0
102
RTVSPost2010Prop46
 90
       50
102
RTVSPost2010PropOp46
 70
     0
102
RTVSPost2010Prop47
 90
       50
102
RTVSPost2010PropOp47
 70
     0
102
RTVSPost2010Prop48
 90
       50
102
RTVSPost2010PropOp48
 70
     0
102
RTVSPost2010Prop49
280
     0
102
RTVSPost2010PropOp49
 70
     0
102
RTVSPost2010Prop50
 90
       50
102
RTVSPost2010PropOp50
 70
     0
102
RTVSPost2010Prop51ColorIndex
 90
      256
102
RTVSPost2010Prop51ColorRGB
 90
-16777216
102
RTVSPost2010PropOp51
 70
     0
102
RTVSPost2010Prop52
140
1.0
102
RTVSPost2010PropOp52
 70
     0
102
RTVSPost2010Prop53
 90
        2
102
RTVSPost2010PropOp53
 70
     0
102
RTVSPost2010Prop54
  1
strokes_ogs.tif
102
RTVSPost2010PropOp54
 70
     0
102
RTVSPost2010Prop55
280
     0
102
RTVSPost2010PropOp55
 70
     0
102
RTVSPost2010Prop56
140
1.0
102
RTVSPost2010PropOp56
 70
     0
102
RTVSPost2010Prop57
140
1.0
102
RTVSPost2010PropOp57
 70
     0
  0
XRECORD
  5
164
102
{ACAD_REACTORS
330
163
102
}
330
163
100
AcDbXrecord
280
     1
102
RTVSPost2010Prop28
280
     0
102
RTVSPost2010PropOp28
 70
     1
102
RTVSPost2010Prop29
280
     1
102
RTVSPost2010PropOp29
 70
     1
102
RTVSPost2010Prop30
280
     1
102
RTVSPost2010PropOp30
 70
     1
102
RTVSPost2010Prop31
280
     0
102
RTVSPost2010PropOp31
 70
     1
102
RTVSPost2010Prop32
280
     0
102
RTVSPost2010PropOp32
 70
     1
102
RTVSPost2010Prop33
280
     0
102
RTVSPost2010PropOp33
 70
     1
102
RTVSPost2010Prop34
280
     0
102
RTVSPost2010PropOp34
 70
     1
102
RTVSPost2010Prop35
280
     0
102
RTVSPost2010PropOp35
 70
     1
102
RTVSPost2010Prop36
280
     0
102
RTVSPost2010PropOp36
 70
     1
102
RTVSPost2010Prop37
 90
       50
102
RTVSPost2010PropOp37
 70
     1
102
RTVSPost2010Prop38
140
0.0
102
RTVSPost2010PropOp38
 70
     1
102
RTVSPost2010Prop39
140
1.0
102
RTVSPost2010PropOp39
 70
     1
102
RTVSPost2010Prop40
 90
        0
102
RTVSPost2010PropOp40
 70
     1
102
RTVSPost2010Prop41ColorIndex
 90
       18
102
RTVSPost2010Prop41ColorRGB
 90
        0
102
RTVSPost2010PropOp41
 70
     1
102
RTVSPost2010Prop42
 90
       50
102
RTVSPost2010PropOp42
 70
     1
102
RTVSPost2010Prop43
 90
        3
102
RTVSPost2010PropOp43
 70
     1
102
RTVSPost2010Prop44ColorIndex
 90
        5
102
RTVSPost2010Prop44ColorRGB
 90
      255
102
RTVSPost2010PropOp44
 70
     1
102
RTVSPost2010Prop45
280
     0
102
RTVSPost2010PropOp45
 70
     1
102
RTVSPost2010Prop46
 90
       50
102
RTVSPost2010PropOp46
 70
     1
102
RTVSPost2010Prop47
 90
       50
102
RTVSPost2010PropOp47
 70
     1
102
RTVSPost2010Prop48
 90
       50
102
RTVSPost2010PropOp48
 70
     1
102
RTVSPost2010Prop49
280
     0
102
RTVSPost2010PropOp49
 70
     1
102
RTVSPost2010Prop50
 90
       50
102
RTVSPost2010PropOp50
 70
     1
102
RTVSPost2010Prop51ColorIndex
 90
      256
102
RTVSPost2010Prop51ColorRGB
 90
-16777216
102
RTVSPost2010PropOp51
 70
     0
102
RTVSPost2010Prop52
140
1.0
102
RTVSPost2010PropOp52
 70
     0
102
RTVSPost2010Prop53
 90
        2
102
RTVSPost2010PropOp53
 70
     1
102
RTVSPost2010Prop54
  1
strokes_ogs.tif
102
RTVSPost2010PropOp54
 70
     1
102
RTVSPost2010Prop55
280
     0
102
RTVSPost2010PropOp55
 70
     1
102
RTVSPost2010Prop56
140
1.0
102
RTVSPost2010PropOp56
 70
     1
102
RTVSPost2010Prop57
140
1.0
102
RTVSPost2010PropOp57
 70
     1
  0
XRECORD
  5
17A
102
{ACAD_REACTORS
330
179
102
}
330
179
100
AcDbXrecord
280
     1
102
RTVSPost2010Prop28
280
     0
102
RTVSPost2010PropOp28
 70
     1
102
RTVSPost2010Prop29
280
     1
102
RTVSPost2010PropOp29
 70
     1
102
RTVSPost2010Prop30
280
     1
102
RTVSPost2010PropOp30
 70
     1
102
RTVSPost2010Prop31
280
     0
102
RTVSPost2010PropOp31
 70
     1
102
RTVSPost2010Prop32
280
     0
102
RTVSPost2010PropOp32
 70
     1
102
RTVSPost2010Prop33
280
     0
102
RTVSPost2010PropOp33
 70
     1
102
RTVSPost2010Prop34
280
     0
102
RTVSPost2010PropOp34
 70
     1
102
RTVSPost2010Prop35
280
     0
102
RTVSPost2010PropOp35
 70
     1
102
RTVSPost2010Prop36
280
     0
102
RTVSPost2010PropOp36
 70
     1
102
RTVSPost2010Prop37
 90
       50
102
RTVSPost2010PropOp37
 70
     1
102
RTVSPost2010Prop38
140
0.0
102
RTVSPost2010PropOp38
 70
     1
102
RTVSPost2010Prop39
140
1.0
102
RTVSPost2010PropOp39
 70
     1
102
RTVSPost2010Prop40
 90
        0
102
RTVSPost2010PropOp40
 70
     1
102
RTVSPost2010Prop41ColorIndex
 90
       18
102
RTVSPost2010Prop41ColorRGB
 90
        0
102
RTVSPost2010PropOp41
 70
     1
102
RTVSPost2010Prop42
 90
       50
102
RTVSPost2010PropOp42
 70
     1
102
RTVSPost2010Prop43
 90
        3
102
RTVSPost2010PropOp43
 70
     1
102
RTVSPost2010Prop44ColorIndex
 90
        5
102
RTVSPost2010Prop44ColorRGB
 90
      255
102
RTVSPost2010PropOp44
 70
     1
102
RTVSPost2010Prop45
280
     0
102
RTVSPost2010PropOp45
 70
     1
102
RTVSPost2010Prop46
 90
       50
102
RTVSPost2010PropOp46
 70
     1
102
RTVSPost2010Prop47
 90
       50
102
RTVSPost2010PropOp47
 70
     1
102
RTVSPost2010Prop48
 90
       50
102
RTVSPost2010PropOp48
 70
     1
102
RTVSPost2010Prop49
280
     0
102
RTVSPost2010PropOp49
 70
     1
102
RTVSPost2010Prop50
 90
       50
102
RTVSPost2010PropOp50
 70
     1
102
RTVSPost2010Prop51ColorIndex
 90
      256
102
RTVSPost2010Prop51ColorRGB
 90
-16777216
102
RTVSPost2010PropOp51
 70
     0
102
RTVSPost2010Prop52
140
1.0
102
RTVSPost2010PropOp52
 70
     0
102
RTVSPost2010Prop53
 90
        2
102
RTVSPost2010PropOp53
 70
     1
102
RTVSPost2010Prop54
  1
strokes_ogs.tif
102
RTVSPost2010PropOp54
 70
     1
102
RTVSPost2010Prop55
280
     0
102
RTVSPost2010PropOp55
 70
     1
102
RTVSPost2010Prop56
140
1.0
102
RTVSPost2010PropOp56
 70
     1
102
RTVSPost2010Prop57
140
1.0
102
RTVSPost2010PropOp57
 70
     1
  0
XRECORD
  5
178
102
{ACAD_REACTORS
330
177
102
}
330
177
100
AcDbXrecord
280
     1
102
RTVSPost2010Prop28
280
     0
102
RTVSPost2010PropOp28
 70
     1
102
RTVSPost2010Prop29
280
     1
102
RTVSPost2010PropOp29
 70
     1
102
RTVSPost2010Prop30
280
     1
102
RTVSPost2010PropOp30
 70
     1
102
RTVSPost2010Prop31
280
     0
102
RTVSPost2010PropOp31
 70
     1
102
RTVSPost2010Prop32
280
     0
102
RTVSPost2010PropOp32
 70
     1
102
RTVSPost2010Prop33
280
     0
102
RTVSPost2010PropOp33
 70
     1
102
RTVSPost2010Prop34
280
     0
102
RTVSPost2010PropOp34
 70
     1
102
RTVSPost2010Prop35
280
     0
102
RTVSPost2010PropOp35
 70
     1
102
RTVSPost2010Prop36
280
     0
102
RTVSPost2010PropOp36
 70
     1
102
RTVSPost2010Prop37
 90
       50
102
RTVSPost2010PropOp37
 70
     1
102
RTVSPost2010Prop38
140
0.0
102
RTVSPost2010PropOp38
 70
     1
102
RTVSPost2010Prop39
140
1.0
102
RTVSPost2010PropOp39
 70
     1
102
RTVSPost2010Prop40
 90
        0
102
RTVSPost2010PropOp40
 70
     1
102
RTVSPost2010Prop41ColorIndex
 90
       18
102
RTVSPost2010Prop41ColorRGB
 90
        0
102
RTVSPost2010PropOp41
 70
     1
102
RTVSPost2010Prop42
 90
       50
102
RTVSPost2010PropOp42
 70
     1
102
RTVSPost2010Prop43
 90
        3
102
RTVSPost2010PropOp43
 70
     1
102
RTVSPost2010Prop44ColorIndex
 90
        5
102
RTVSPost2010Prop44ColorRGB
 90
      255
102
RTVSPost2010PropOp44
 70
     1
102
RTVSPost2010Prop45
280
     0
102
RTVSPost2010PropOp45
 70
     1
102
RTVSPost2010Prop46
 90
       50
102
RTVSPost2010PropOp46
 70
     1
102
RTVSPost2010Prop47
 90
       50
102
RTVSPost2010PropOp47
 70
     1
102
RTVSPost2010Prop48
 90
       50
102
RTVSPost2010PropOp48
 70
     1
102
RTVSPost2010Prop49
280
     0
102
RTVSPost2010PropOp49
 70
     1
102
RTVSPost2010Prop50
 90
       50
102
RTVSPost2010PropOp50
 70
     1
102
RTVSPost2010Prop51ColorIndex
 90
      256
102
RTVSPost2010Prop51ColorRGB
 90
-16777216
102
RTVSPost2010PropOp51
 70
     0
102
RTVSPost2010Prop52
140
1.0
102
RTVSPost2010PropOp52
 70
     0
102
RTVSPost2010Prop53
 90
        2
102
RTVSPost2010PropOp53
 70
     1
102
RTVSPost2010Prop54
  1
strokes_ogs.tif
102
RTVSPost2010PropOp54
 70
     1
102
RTVSPost2010Prop55
280
     0
102
RTVSPost2010PropOp55
 70
     1
102
RTVSPost2010Prop56
140
1.0
102
RTVSPost2010PropOp56
 70
     1
102
RTVSPost2010Prop57
140
1.0
102
RTVSPost2010PropOp57
 70
     1
  0
XRECORD
  5
172
102
{ACAD_REACTORS
330
171
102
}
330
171
100
AcDbXrecord
280
     1
102
RTVSPost2010Prop28
280
     0
102
RTVSPost2010PropOp28
 70
     1
102
RTVSPost2010Prop29
280
     1
102
RTVSPost2010PropOp29
 70
     1
102
RTVSPost2010Prop30
280
     1
102
RTVSPost2010PropOp30
 70
     1
102
RTVSPost2010Prop31
280
     0
102
RTVSPost2010PropOp31
 70
     1
102
RTVSPost2010Prop32
280
     0
102
RTVSPost2010PropOp32
 70
     1
102
RTVSPost2010Prop33
280
     0
102
RTVSPost2010PropOp33
 70
     1
102
RTVSPost2010Prop34
280
     0
102
RTVSPost2010PropOp34
 70
     1
102
RTVSPost2010Prop35
280
     0
102
RTVSPost2010PropOp35
 70
     1
102
RTVSPost2010Prop36
280
     0
102
RTVSPost2010PropOp36
 70
     1
102
RTVSPost2010Prop37
 90
       50
102
RTVSPost2010PropOp37
 70
     1
102
RTVSPost2010Prop38
140
0.0
102
RTVSPost2010PropOp38
 70
     1
102
RTVSPost2010Prop39
140
1.0
102
RTVSPost2010PropOp39
 70
     1
102
RTVSPost2010Prop40
 90
        0
102
RTVSPost2010PropOp40
 70
     1
102
RTVSPost2010Prop41ColorIndex
 90
       18
102
RTVSPost2010Prop41ColorRGB
 90
        0
102
RTVSPost2010PropOp41
 70
     1
102
RTVSPost2010Prop42
 90
       50
102
RTVSPost2010PropOp42
 70
     1
102
RTVSPost2010Prop43
 90
        3
102
RTVSPost2010PropOp43
 70
     1
102
RTVSPost2010Prop44ColorIndex
 90
        5
102
RTVSPost2010Prop44ColorRGB
 90
      255
102
RTVSPost2010PropOp44
 70
     1
102
RTVSPost2010Prop45
280
     0
102
RTVSPost2010PropOp45
 70
     1
102
RTVSPost2010Prop46
 90
       50
102
RTVSPost2010PropOp46
 70
     1
102
RTVSPost2010Prop47
 90
       50
102
RTVSPost2010PropOp47
 70
     1
102
RTVSPost2010Prop48
 90
       50
102
RTVSPost2010PropOp48
 70
     1
102
RTVSPost2010Prop49
280
     0
102
RTVSPost2010PropOp49
 70
     1
102
RTVSPost2010Prop50
 90
       50
102
RTVSPost2010PropOp50
 70
     1
102
RTVSPost2010Prop51ColorIndex
 90
      256
102
RTVSPost2010Prop51ColorRGB
 90
-16777216
102
RTVSPost2010PropOp51
 70
     0
102
RTVSPost2010Prop52
140
1.0
102
RTVSPost2010PropOp52
 70
     0
102
RTVSPost2010Prop53
 90
        2
102
RTVSPost2010PropOp53
 70
     1
102
RTVSPost2010Prop54
  1
strokes_ogs.tif
102
RTVSPost2010PropOp54
 70
     1
102
RTVSPost2010Prop55
280
     0
102
RTVSPost2010PropOp55
 70
     1
102
RTVSPost2010Prop56
140
1.0
102
RTVSPost2010PropOp56
 70
     1
102
RTVSPost2010Prop57
140
1.0
102
RTVSPost2010PropOp57
 70
     1
  0
XRECORD
  5
174
102
{ACAD_REACTORS
330
173
102
}
330
173
100
AcDbXrecord
280
     1
102
RTVSPost2010Prop28
280
     0
102
RTVSPost2010PropOp28
 70
     1
102
RTVSPost2010Prop29
280
     1
102
RTVSPost2010PropOp29
 70
     1
102
RTVSPost2010Prop30
280
     1
102
RTVSPost2010PropOp30
 70
     1
102
RTVSPost2010Prop31
280
     0
102
RTVSPost2010PropOp31
 70
     1
102
RTVSPost2010Prop32
280
     0
102
RTVSPost2010PropOp32
 70
     1
102
RTVSPost2010Prop33
280
     0
102
RTVSPost2010PropOp33
 70
     1
102
RTVSPost2010Prop34
280
     0
102
RTVSPost2010PropOp34
 70
     1
102
RTVSPost2010Prop35
280
     0
102
RTVSPost2010PropOp35
 70
     1
102
RTVSPost2010Prop36
280
     0
102
RTVSPost2010PropOp36
 70
     1
102
RTVSPost2010Prop37
 90
       50
102
RTVSPost2010PropOp37
 70
     1
102
RTVSPost2010Prop38
140
0.0
102
RTVSPost2010PropOp38
 70
     1
102
RTVSPost2010Prop39
140
1.0
102
RTVSPost2010PropOp39
 70
     1
102
RTVSPost2010Prop40
 90
        0
102
RTVSPost2010PropOp40
 70
     1
102
RTVSPost2010Prop41ColorIndex
 90
       18
102
RTVSPost2010Prop41ColorRGB
 90
        0
102
RTVSPost2010PropOp41
 70
     1
102
RTVSPost2010Prop42
 90
       50
102
RTVSPost2010PropOp42
 70
     1
102
RTVSPost2010Prop43
 90
        3
102
RTVSPost2010PropOp43
 70
     1
102
RTVSPost2010Prop44ColorIndex
 90
        5
102
RTVSPost2010Prop44ColorRGB
 90
      255
102
RTVSPost2010PropOp44
 70
     1
102
RTVSPost2010Prop45
280
     0
102
RTVSPost2010PropOp45
 70
     1
102
RTVSPost2010Prop46
 90
       50
102
RTVSPost2010PropOp46
 70
     1
102
RTVSPost2010Prop47
 90
       50
102
RTVSPost2010PropOp47
 70
     1
102
RTVSPost2010Prop48
 90
       50
102
RTVSPost2010PropOp48
 70
     1
102
RTVSPost2010Prop49
280
     0
102
RTVSPost2010PropOp49
 70
     1
102
RTVSPost2010Prop50
 90
       50
102
RTVSPost2010PropOp50
 70
     1
102
RTVSPost2010Prop51ColorIndex
 90
      256
102
RTVSPost2010Prop51ColorRGB
 90
-16777216
102
RTVSPost2010PropOp51
 70
     0
102
RTVSPost2010Prop52
140
1.0
102
RTVSPost2010PropOp52
 70
     0
102
RTVSPost2010Prop53
 90
        2
102
RTVSPost2010PropOp53
 70
     1
102
RTVSPost2010Prop54
  1
strokes_ogs.tif
102
RTVSPost2010PropOp54
 70
     1
102
RTVSPost2010Prop55
280
     0
102
RTVSPost2010PropOp55
 70
     1
102
RTVSPost2010Prop56
140
1.0
102
RTVSPost2010PropOp56
 70
     1
102
RTVSPost2010Prop57
140
1.0
102
RTVSPost2010PropOp57
 70
     1
  0
XRECORD
  5
16A
102
{ACAD_REACTORS
330
169
102
}
330
169
100
AcDbXrecord
280
     1
102
RTVSPost2010Prop28
280
     0
102
RTVSPost2010PropOp28
 70
     1
102
RTVSPost2010Prop29
280
     1
102
RTVSPost2010PropOp29
 70
     1
102
RTVSPost2010Prop30
280
     1
102
RTVSPost2010PropOp30
 70
     1
102
RTVSPost2010Prop31
280
     0
102
RTVSPost2010PropOp31
 70
     1
102
RTVSPost2010Prop32
280
     0
102
RTVSPost2010PropOp32
 70
     1
102
RTVSPost2010Prop33
280
     0
102
RTVSPost2010PropOp33
 70
     1
102
RTVSPost2010Prop34
280
     0
102
RTVSPost2010PropOp34
 70
     1
102
RTVSPost2010Prop35
280
     0
102
RTVSPost2010PropOp35
 70
     1
102
RTVSPost2010Prop36
280
     0
102
RTVSPost2010PropOp36
 70
     1
102
RTVSPost2010Prop37
 90
       50
102
RTVSPost2010PropOp37
 70
     1
102
RTVSPost2010Prop38
140
0.0
102
RTVSPost2010PropOp38
 70
     1
102
RTVSPost2010Prop39
140
1.0
102
RTVSPost2010PropOp39
 70
     1
102
RTVSPost2010Prop40
 90
        0
102
RTVSPost2010PropOp40
 70
     1
102
RTVSPost2010Prop41ColorIndex
 90
       18
102
RTVSPost2010Prop41ColorRGB
 90
        0
102
RTVSPost2010PropOp41
 70
     1
102
RTVSPost2010Prop42
 90
       50
102
RTVSPost2010PropOp42
 70
     1
102
RTVSPost2010Prop43
 90
        3
102
RTVSPost2010PropOp43
 70
     1
102
RTVSPost2010Prop44ColorIndex
 90
        5
102
RTVSPost2010Prop44ColorRGB
 90
      255
102
RTVSPost2010PropOp44
 70
     1
102
RTVSPost2010Prop45
280
     0
102
RTVSPost2010PropOp45
 70
     1
102
RTVSPost2010Prop46
 90
       50
102
RTVSPost2010PropOp46
 70
     1
102
RTVSPost2010Prop47
 90
       50
102
RTVSPost2010PropOp47
 70
     1
102
RTVSPost2010Prop48
 90
       50
102
RTVSPost2010PropOp48
 70
     1
102
RTVSPost2010Prop49
280
     0
102
RTVSPost2010PropOp49
 70
     1
102
RTVSPost2010Prop50
 90
       50
102
RTVSPost2010PropOp50
 70
     1
102
RTVSPost2010Prop51ColorIndex
 90
      256
102
RTVSPost2010Prop51ColorRGB
 90
-16777216
102
RTVSPost2010PropOp51
 70
     0
102
RTVSPost2010Prop52
140
1.0
102
RTVSPost2010PropOp52
 70
     0
102
RTVSPost2010Prop53
 90
        2
102
RTVSPost2010PropOp53
 70
     1
102
RTVSPost2010Prop54
  1
strokes_ogs.tif
102
RTVSPost2010PropOp54
 70
     1
102
RTVSPost2010Prop55
280
     0
102
RTVSPost2010PropOp55
 70
     1
102
RTVSPost2010Prop56
140
1.0
102
RTVSPost2010PropOp56
 70
     1
102
RTVSPost2010Prop57
140
1.0
102
RTVSPost2010PropOp57
 70
     1
  0
XRECORD
  5
15E
102
{ACAD_REACTORS
330
15D
102
}
330
15D
100
AcDbXrecord
280
     1
102
RTVSPost2010Prop28
280
     0
102
RTVSPost2010PropOp28
 70
     1
102
RTVSPost2010Prop29
280
     1
102
RTVSPost2010PropOp29
 70
     1
102
RTVSPost2010Prop30
280
     1
102
RTVSPost2010PropOp30
 70
     1
102
RTVSPost2010Prop31
280
     0
102
RTVSPost2010PropOp31
 70
     1
102
RTVSPost2010Prop32
280
     0
102
RTVSPost2010PropOp32
 70
     1
102
RTVSPost2010Prop33
280
     0
102
RTVSPost2010PropOp33
 70
     1
102
RTVSPost2010Prop34
280
     0
102
RTVSPost2010PropOp34
 70
     1
102
RTVSPost2010Prop35
280
     0
102
RTVSPost2010PropOp35
 70
     1
102
RTVSPost2010Prop36
280
     0
102
RTVSPost2010PropOp36
 70
     1
102
RTVSPost2010Prop37
 90
       50
102
RTVSPost2010PropOp37
 70
     1
102
RTVSPost2010Prop38
140
0.0
102
RTVSPost2010PropOp38
 70
     1
102
RTVSPost2010Prop39
140
1.0
102
RTVSPost2010PropOp39
 70
     1
102
RTVSPost2010Prop40
 90
        0
102
RTVSPost2010PropOp40
 70
     1
102
RTVSPost2010Prop41ColorIndex
 90
       18
102
RTVSPost2010Prop41ColorRGB
 90
        0
102
RTVSPost2010PropOp41
 70
     1
102
RTVSPost2010Prop42
 90
       50
102
RTVSPost2010PropOp42
 70
     1
102
RTVSPost2010Prop43
 90
        3
102
RTVSPost2010PropOp43
 70
     1
102
RTVSPost2010Prop44ColorIndex
 90
        5
102
RTVSPost2010Prop44ColorRGB
 90
      255
102
RTVSPost2010PropOp44
 70
     1
102
RTVSPost2010Prop45
280
     0
102
RTVSPost2010PropOp45
 70
     1
102
RTVSPost2010Prop46
 90
       50
102
RTVSPost2010PropOp46
 70
     1
102
RTVSPost2010Prop47
 90
       50
102
RTVSPost2010PropOp47
 70
     1
102
RTVSPost2010Prop48
 90
       50
102
RTVSPost2010PropOp48
 70
     1
102
RTVSPost2010Prop49
280
     0
102
RTVSPost2010PropOp49
 70
     1
102
RTVSPost2010Prop50
 90
       50
102
RTVSPost2010PropOp50
 70
     1
102
RTVSPost2010Prop51ColorIndex
 90
      256
102
RTVSPost2010Prop51ColorRGB
 90
-16777216
102
RTVSPost2010PropOp51
 70
     0
102
RTVSPost2010Prop52
140
1.0
102
RTVSPost2010PropOp52
 70
     0
102
RTVSPost2010Prop53
 90
        2
102
RTVSPost2010PropOp53
 70
     1
102
RTVSPost2010Prop54
  1
strokes_ogs.tif
102
RTVSPost2010PropOp54
 70
     1
102
RTVSPost2010Prop55
280
     0
102
RTVSPost2010PropOp55
 70
     1
102
RTVSPost2010Prop56
140
1.0
102
RTVSPost2010PropOp56
 70
     1
102
RTVSPost2010Prop57
140
1.0
102
RTVSPost2010PropOp57
 70
     1
  0
XRECORD
  5
176
102
{ACAD_REACTORS
330
175
102
}
330
175
100
AcDbXrecord
280
     1
102
RTVSPost2010Prop28
280
     0
102
RTVSPost2010PropOp28
 70
     1
102
RTVSPost2010Prop29
280
     1
102
RTVSPost2010PropOp29
 70
     1
102
RTVSPost2010Prop30
280
     1
102
RTVSPost2010PropOp30
 70
     1
102
RTVSPost2010Prop31
280
     0
102
RTVSPost2010PropOp31
 70
     1
102
RTVSPost2010Prop32
280
     0
102
RTVSPost2010PropOp32
 70
     1
102
RTVSPost2010Prop33
280
     0
102
RTVSPost2010PropOp33
 70
     1
102
RTVSPost2010Prop34
280
     0
102
RTVSPost2010PropOp34
 70
     1
102
RTVSPost2010Prop35
280
     0
102
RTVSPost2010PropOp35
 70
     1
102
RTVSPost2010Prop36
280
     0
102
RTVSPost2010PropOp36
 70
     1
102
RTVSPost2010Prop37
 90
       50
102
RTVSPost2010PropOp37
 70
     1
102
RTVSPost2010Prop38
140
0.0
102
RTVSPost2010PropOp38
 70
     1
102
RTVSPost2010Prop39
140
1.0
102
RTVSPost2010PropOp39
 70
     1
102
RTVSPost2010Prop40
 90
        0
102
RTVSPost2010PropOp40
 70
     1
102
RTVSPost2010Prop41ColorIndex
 90
       18
102
RTVSPost2010Prop41ColorRGB
 90
        0
102
RTVSPost2010PropOp41
 70
     1
102
RTVSPost2010Prop42
 90
       50
102
RTVSPost2010PropOp42
 70
     1
102
RTVSPost2010Prop43
 90
        3
102
RTVSPost2010PropOp43
 70
     1
102
RTVSPost2010Prop44ColorIndex
 90
        5
102
RTVSPost2010Prop44ColorRGB
 90
      255
102
RTVSPost2010PropOp44
 70
     1
102
RTVSPost2010Prop45
280
     0
102
RTVSPost2010PropOp45
 70
     1
102
RTVSPost2010Prop46
 90
       50
102
RTVSPost2010PropOp46
 70
     1
102
RTVSPost2010Prop47
 90
       50
102
RTVSPost2010PropOp47
 70
     1
102
RTVSPost2010Prop48
 90
       50
102
RTVSPost2010PropOp48
 70
     1
102
RTVSPost2010Prop49
280
     0
102
RTVSPost2010PropOp49
 70
     1
102
RTVSPost2010Prop50
 90
       50
102
RTVSPost2010PropOp50
 70
     1
102
RTVSPost2010Prop51ColorIndex
 90
      256
102
RTVSPost2010Prop51ColorRGB
 90
-16777216
102
RTVSPost2010PropOp51
 70
     0
102
RTVSPost2010Prop52
140
1.0
102
RTVSPost2010PropOp52
 70
     0
102
RTVSPost2010Prop53
 90
        2
102
RTVSPost2010PropOp53
 70
     1
102
RTVSPost2010Prop54
  1
strokes_ogs.tif
102
RTVSPost2010PropOp54
 70
     1
102
RTVSPost2010Prop55
280
     0
102
RTVSPost2010PropOp55
 70
     1
102
RTVSPost2010Prop56
140
1.0
102
RTVSPost2010PropOp56
 70
     1
102
RTVSPost2010Prop57
140
1.0
102
RTVSPost2010PropOp57
 70
     1
  0
ENDSEC
  0
EOF
