  0
SECTION
  2
HEADER
  9
$ACADVER
  1
AC1024
  9
$ACADMAINTVER
 70
   205
  9
$DWGCODEPAGE
  3
ANSI_1251
  9
$INSBASE
 10
0.0
 20
0.0
 30
0.0
  9
$EXTMIN
 10
1.000000000000000E+20
 20
1.000000000000000E+20
 30
1.000000000000000E+20
  9
$EXTMAX
 10
-1.000000000000000E+20
 20
-1.000000000000000E+20
 30
-1.000000000000000E+20
  9
$LIMMIN
 10
0.0
 20
0.0
  9
$LIMMAX
 10
12.0
 20
9.0
  9
$ORTHOMODE
 70
     0
  9
$REGENMODE
 70
     1
  9
$FILLMODE
 70
     1
  9
$QTEXTMODE
 70
     0
  9
$MIRRTEXT
 70
     1
  9
$LTSCALE
 40
1.0
  9
$ATTMODE
 70
     1
  9
$TEXTSIZE
 40
0.2
  9
$TRACEWID
 40
0.05
  9
$TEXTSTYLE
  7
Standard
  9
$CLAYER
  8
OracDecor_cornice_mouldings
  9
$CELTYPE
  6
ByLayer
  9
$CECOLOR
 62
   256
  9
$CELTSCALE
 40
1.0
  9
$DISPSILH
 70
     0
  9
$DIMSCALE
 40
1.0
  9
$DIMASZ
 40
0.18
  9
$DIMEXO
 40
0.0625
  9
$DIMDLI
 40
0.38
  9
$DIMRND
 40
0.0
  9
$DIMDLE
 40
0.0
  9
$DIMEXE
 40
0.18
  9
$DIMTP
 40
0.0
  9
$DIMTM
 40
0.0
  9
$DIMTXT
 40
0.18
  9
$DIMCEN
 40
0.09
  9
$DIMTSZ
 40
0.0
  9
$DIMTOL
 70
     0
  9
$DIMLIM
 70
     0
  9
$DIMTIH
 70
     1
  9
$DIMTOH
 70
     1
  9
$DIMSE1
 70
     0
  9
$DIMSE2
 70
     0
  9
$DIMTAD
 70
     0
  9
$DIMZIN
 70
     0
  9
$DIMBLK
  1

  9
$DIMASO
 70
     1
  9
$DIMSHO
 70
     1
  9
$DIMPOST
  1

  9
$DIMAPOST
  1

  9
$DIMALT
 70
     0
  9
$DIMALTD
 70
     2
  9
$DIMALTF
 40
25.4
  9
$DIMLFAC
 40
1.0
  9
$DIMTOFL
 70
     0
  9
$DIMTVP
 40
0.0
  9
$DIMTIX
 70
     0
  9
$DIMSOXD
 70
     0
  9
$DIMSAH
 70
     0
  9
$DIMBLK1
  1

  9
$DIMBLK2
  1

  9
$DIMSTYLE
  2
Standard
  9
$DIMCLRD
 70
     0
  9
$DIMCLRE
 70
     0
  9
$DIMCLRT
 70
     0
  9
$DIMTFAC
 40
1.0
  9
$DIMGAP
 40
0.09
  9
$DIMJUST
 70
     0
  9
$DIMSD1
 70
     0
  9
$DIMSD2
 70
     0
  9
$DIMTOLJ
 70
     1
  9
$DIMTZIN
 70
     0
  9
$DIMALTZ
 70
     0
  9
$DIMALTTZ
 70
     0
  9
$DIMUPT
 70
     0
  9
$DIMDEC
 70
     4
  9
$DIMTDEC
 70
     4
  9
$DIMALTU
 70
     2
  9
$DIMALTTD
 70
     2
  9
$DIMTXSTY
  7
Standard
  9
$DIMAUNIT
 70
     0
  9
$DIMADEC
 70
     0
  9
$DIMALTRND
 40
0.0
  9
$DIMAZIN
 70
     0
  9
$DIMDSEP
 70
    46
  9
$DIMATFIT
 70
     3
  9
$DIMFRAC
 70
     0
  9
$DIMLDRBLK
  1

  9
$DIMLUNIT
 70
     2
  9
$DIMLWD
 70
    -2
  9
$DIMLWE
 70
    -2
  9
$DIMTMOVE
 70
     0
  9
$DIMFXL
 40
1.0
  9
$DIMFXLON
 70
     0
  9
$DIMJOGANG
 40
0.7853981633974483
  9
$DIMTFILL
 70
     0
  9
$DIMTFILLCLR
 70
     0
  9
$DIMARCSYM
 70
     0
  9
$DIMLTYPE
  6

  9
$DIMLTEX1
  6

  9
$DIMLTEX2
  6

  9
$DIMTXTDIRECTION
 70
     0
  9
$LUNITS
 70
     2
  9
$LUPREC
 70
     4
  9
$SKETCHINC
 40
0.1
  9
$FILLETRAD
 40
0.5
  9
$AUNITS
 70
     0
  9
$AUPREC
 70
     0
  9
$MENU
  1
.
  9
$ELEVATION
 40
0.0
  9
$PELEVATION
 40
0.0
  9
$THICKNESS
 40
0.0
  9
$LIMCHECK
 70
     0
  9
$CHAMFERA
 40
0.5
  9
$CHAMFERB
 40
0.5
  9
$CHAMFERC
 40
1.0
  9
$CHAMFERD
 40
0.0
  9
$SKPOLY
 70
     0
  9
$TDCREATE
 40
2451380.930432396
  9
$TDUCREATE
 40
2451380.805432396
  9
$TDUPDATE
 40
2451380.966180555
  9
$TDUUPDATE
 40
2451380.841180556
  9
$TDINDWG
 40
0.0075613542
  9
$TDUSRTIMER
 40
0.0075523148
  9
$USRTIMER
 70
     1
  9
$ANGBASE
 50
0.0
  9
$ANGDIR
 70
     0
  9
$PDMODE
 70
     0
  9
$PDSIZE
 40
0.0
  9
$PLINEWID
 40
0.0
  9
$SPLFRAME
 70
     0
  9
$SPLINETYPE
 70
     6
  9
$SPLINESEGS
 70
     8
  9
$HANDSEED
  5
187
  9
$SURFTAB1
 70
     6
  9
$SURFTAB2
 70
     6
  9
$SURFTYPE
 70
     6
  9
$SURFU
 70
     6
  9
$SURFV
 70
     6
  9
$UCSBASE
  2

  9
$UCSNAME
  2

  9
$UCSORG
 10
0.0
 20
0.0
 30
0.0
  9
$UCSXDIR
 10
1.0
 20
0.0
 30
0.0
  9
$UCSYDIR
 10
0.0
 20
1.0
 30
0.0
  9
$UCSORTHOREF
  2

  9
$UCSORTHOVIEW
 70
     0
  9
$UCSORGTOP
 10
0.0
 20
0.0
 30
0.0
  9
$UCSORGBOTTOM
 10
0.0
 20
0.0
 30
0.0
  9
$UCSORGLEFT
 10
0.0
 20
0.0
 30
0.0
  9
$UCSORGRIGHT
 10
0.0
 20
0.0
 30
0.0
  9
$UCSORGFRONT
 10
0.0
 20
0.0
 30
0.0
  9
$UCSORGBACK
 10
0.0
 20
0.0
 30
0.0
  9
$PUCSBASE
  2

  9
$PUCSNAME
  2

  9
$PUCSORG
 10
0.0
 20
0.0
 30
0.0
  9
$PUCSXDIR
 10
1.0
 20
0.0
 30
0.0
  9
$PUCSYDIR
 10
0.0
 20
1.0
 30
0.0
  9
$PUCSORTHOREF
  2

  9
$PUCSORTHOVIEW
 70
     0
  9
$PUCSORGTOP
 10
0.0
 20
0.0
 30
0.0
  9
$PUCSORGBOTTOM
 10
0.0
 20
0.0
 30
0.0
  9
$PUCSORGLEFT
 10
0.0
 20
0.0
 30
0.0
  9
$PUCSORGRIGHT
 10
0.0
 20
0.0
 30
0.0
  9
$PUCSORGFRONT
 10
0.0
 20
0.0
 30
0.0
  9
$PUCSORGBACK
 10
0.0
 20
0.0
 30
0.0
  9
$USERI1
 70
     0
  9
$USERI2
 70
     0
  9
$USERI3
 70
     0
  9
$USERI4
 70
     0
  9
$USERI5
 70
     0
  9
$USERR1
 40
0.0
  9
$USERR2
 40
0.0
  9
$USERR3
 40
0.0
  9
$USERR4
 40
0.0
  9
$USERR5
 40
0.0
  9
$WORLDVIEW
 70
     1
  9
$SHADEDGE
 70
     3
  9
$SHADEDIF
 70
    70
  9
$TILEMODE
 70
     1
  9
$MAXACTVP
 70
    64
  9
$PINSBASE
 10
0.0
 20
0.0
 30
0.0
  9
$PLIMCHECK
 70
     0
  9
$PEXTMIN
 10
1.000000000000000E+20
 20
1.000000000000000E+20
 30
1.000000000000000E+20
  9
$PEXTMAX
 10
-1.000000000000000E+20
 20
-1.000000000000000E+20
 30
-1.000000000000000E+20
  9
$PLIMMIN
 10
0.0
 20
0.0
  9
$PLIMMAX
 10
12.0
 20
9.0
  9
$UNITMODE
 70
     0
  9
$VISRETAIN
 70
     1
  9
$PLINEGEN
 70
     0
  9
$PSLTSCALE
 70
     1
  9
$TREEDEPTH
 70
  3020
  9
$CMLSTYLE
  2
Standard
  9
$CMLJUST
 70
     0
  9
$CMLSCALE
 40
1.0
  9
$PROXYGRAPHICS
 70
     1
  9
$MEASUREMENT
 70
     1
  9
$CELWEIGHT
370
    -1
  9
$ENDCAPS
280
     0
  9
$JOINSTYLE
280
     0
  9
$LWDISPLAY
290
     0
  9
$INSUNITS
 70
     4
  9
$HYPERLINKBASE
  1

  9
$STYLESHEET
  1

  9
$XEDIT
290
     1
  9
$CEPSNTYPE
380
     0
  9
$PSTYLEMODE
290
     1
  9
$FINGERPRINTGUID
  2
{12F50282-3ED8-11D3-A8B7-0060B0F84BC6}
  9
$VERSIONGUID
  2
{12F50293-3ED8-11D3-A8B7-0060B0F84BC6}
  9
$EXTNAMES
290
     1
  9
$PSVPSCALE
 40
0.0
  9
$OLESTARTUP
290
     0
  9
$SORTENTS
280
   127
  9
$INDEXCTL
280
     0
  9
$HIDETEXT
280
     0
  9
$XCLIPFRAME
280
     2
  9
$HALOGAP
280
     0
  9
$OBSCOLOR
 70
   257
  9
$OBSLTYPE
280
     0
  9
$INTERSECTIONDISPLAY
280
     0
  9
$INTERSECTIONCOLOR
 70
   257
  9
$DIMASSOC
280
     1
  9
$PROJECTNAME
  1

  9
$CAMERADISPLAY
290
     0
  9
$LENSLENGTH
 40
50.0
  9
$CAMERAHEIGHT
 40
0.0
  9
$STEPSPERSEC
 40
2.0
  9
$STEPSIZE
 40
6.0
  9
$3DDWFPREC
 40
2.0
  9
$PSOLWIDTH
 40
0.25
  9
$PSOLHEIGHT
 40
4.0
  9
$LOFTANG1
 40
1.570796326794896
  9
$LOFTANG2
 40
1.570796326794896
  9
$LOFTMAG1
 40
0.0
  9
$LOFTMAG2
 40
0.0
  9
$LOFTPARAM
 70
     7
  9
$LOFTNORMALS
280
     1
  9
$LATITUDE
 40
37.795
  9
$LONGITUDE
 40
-122.394
  9
$NORTHDIRECTION
 40
0.0
  9
$TIMEZONE
 70
 -8000
  9
$LIGHTGLYPHDISPLAY
280
     1
  9
$TILEMODELIGHTSYNCH
280
     1
  9
$CMATERIAL
347
AB
  9
$SOLIDHIST
280
     0
  9
$SHOWHIST
280
     1
  9
$DWFFRAME
280
     2
  9
$DGNFRAME
280
     0
  9
$REALWORLDSCALE
290
     1
  9
$INTERFERECOLOR
 62
     1
  9
$INTERFEREOBJVS
345
CD
  9
$INTERFEREVPVS
346
CA
  9
$CSHADOW
280
     0
  9
$SHADOWPLANELOCATION
 40
0.0
  0
ENDSEC
  0
SECTION
  2
CLASSES
  0
CLASS
  1
ACDBDICTIONARYWDFLT
  2
AcDbDictionaryWithDefault
  3
ObjectDBX Classes
 90
        0
 91
        1
280
     0
281
     0
  0
CLASS
  1
ACDBPLACEHOLDER
  2
AcDbPlaceHolder
  3
ObjectDBX Classes
 90
        0
 91
        2
280
     0
281
     0
  0
CLASS
  1
LAYOUT
  2
AcDbLayout
  3
ObjectDBX Classes
 90
        0
 91
        3
280
     0
281
     0
  0
CLASS
  1
MATERIAL
  2
AcDbMaterial
  3
ObjectDBX Classes
 90
     1153
 91
        3
280
     0
281
     0
  0
CLASS
  1
VISUALSTYLE
  2
AcDbVisualStyle
  3
ObjectDBX Classes
 90
     4095
 91
       24
280
     0
281
     0
  0
CLASS
  1
TABLESTYLE
  2
AcDbTableStyle
  3
ObjectDBX Classes
 90
     4095
 91
        1
280
     0
281
     0
  0
CLASS
  1
SCALE
  2
AcDbScale
  3
ObjectDBX Classes
 90
     1153
 91
       17
280
     0
281
     0
  0
CLASS
  1
MLEADERSTYLE
  2
AcDbMLeaderStyle
  3
ACDB_MLEADERSTYLE_CLASS
 90
     4095
 91
        1
280
     0
281
     0
  0
CLASS
  1
ACDBSECTIONVIEWSTYLE
  2
AcDbSectionViewStyle
  3
ObjectDBX Classes
 90
     1025
 91
        1
280
     0
281
     0
  0
CLASS
  1
ACDBDETAILVIEWSTYLE
  2
AcDbDetailViewStyle
  3
ObjectDBX Classes
 90
     1025
 91
        1
280
     0
281
     0
  0
CLASS
  1
MESH
  2
AcDbSubDMesh
  3
ObjectDBX Classes
 90
        0
 91
        1
280
     0
281
     1
  0
CLASS
  1
DICTIONARYVAR
  2
AcDbDictionaryVar
  3
ObjectDBX Classes
 90
        0
 91
        9
280
     0
281
     0
  0
CLASS
  1
CELLSTYLEMAP
  2
AcDbCellStyleMap
  3
ObjectDBX Classes
 90
     1152
 91
        1
280
     0
281
     0
  0
ENDSEC
  0
SECTION
  2
TABLES
  0
TABLE
  2
VPORT
  5
8
330
0
100
AcDbSymbolTable
 70
     1
  0
VPORT
  5
A8
330
8
100
AcDbSymbolTableRecord
100
AcDbViewportTableRecord
  2
*Active
 70
     0
 10
0.0
 20
0.0
 11
1.0
 21
1.0
 12
-0.0000310200812237
 22
-17.14653778076172
 13
0.0
 23
0.0
 14
0.5
 24
0.5
 15
0.5
 25
0.5
 16
-1.0
 26
-1.0
 36
1.0
 17
0.0
 27
0.0
 37
0.0
 40
1068.000240299332
 41
1.663935979705945
 42
50.0
 43
0.0
 44
0.0
 50
0.0
 51
0.0
 71
     0
 72
   100
 73
     1
 74
     3
 75
     0
 76
     0
 77
     0
 78
     0
281
     0
 65
     1
110
0.0
120
0.0
130
0.0
111
1.0
121
0.0
131
0.0
112
0.0
122
1.0
132
0.0
 79
     0
146
0.0
348
C9
 60
     3
 61
     5
292
     1
282
     1
141
0.0
142
0.0
 63
   250
421
  3355443
  0
ENDTAB
  0
TABLE
  2
LTYPE
  5
5
330
0
100
AcDbSymbolTable
 70
     1
  0
LTYPE
  5
14
330
5
100
AcDbSymbolTableRecord
100
AcDbLinetypeTableRecord
  2
ByBlock
 70
     0
  3

 72
    65
 73
     0
 40
0.0
  0
LTYPE
  5
15
330
5
100
AcDbSymbolTableRecord
100
AcDbLinetypeTableRecord
  2
ByLayer
 70
     0
  3

 72
    65
 73
     0
 40
0.0
  0
LTYPE
  5
16
330
5
100
AcDbSymbolTableRecord
100
AcDbLinetypeTableRecord
  2
Continuous
 70
     0
  3
Solid line
 72
    65
 73
     0
 40
0.0
  0
ENDTAB
  0
TABLE
  2
LAYER
  5
2
330
0
100
AcDbSymbolTable
 70
     3
  0
LAYER
  5
10
330
2
100
AcDbSymbolTableRecord
100
AcDbLayerTableRecord
  2
0
 70
     0
 62
     7
  6
Continuous
370
    -3
390
F
347
BB
  0
LAYER
  5
2B
330
2
100
AcDbSymbolTableRecord
100
AcDbLayerTableRecord
  2
ASHADE
 70
     4
 62
     7
  6
Continuous
370
    -3
390
2D
347
BB
  0
LAYER
  5
F8
330
2
100
AcDbSymbolTableRecord
100
AcDbLayerTableRecord
  2
OracDecor_cornice_mouldings
 70
     0
 62
    36
420
  8862472
  6
Continuous
370
    -3
390
F
347
BB
  0
ENDTAB
  0
TABLE
  2
STYLE
  5
3
330
0
100
AcDbSymbolTable
 70
     2
  0
STYLE
  5
11
330
3
100
AcDbSymbolTableRecord
100
AcDbTextStyleTableRecord
  2
Standard
 70
     0
 40
0.0
 41
1.0
 50
0.0
 71
     0
 42
0.2
  3
txt
  4

  0
STYLE
  5
2C
330
3
100
AcDbSymbolTableRecord
100
AcDbTextStyleTableRecord
  2
ASHADE
 70
     0
 40
0.2
 41
1.0
 50
0.0
 71
     0
 42
0.2
  3
simplex
  4

  0
ENDTAB
  0
TABLE
  2
VIEW
  5
6
330
0
100
AcDbSymbolTable
 70
     0
  0
ENDTAB
  0
TABLE
  2
UCS
  5
7
330
0
100
AcDbSymbolTable
 70
     0
  0
ENDTAB
  0
TABLE
  2
APPID
  5
9
330
0
100
AcDbSymbolTable
 70
     6
  0
APPID
  5
12
330
9
100
AcDbSymbolTableRecord
100
AcDbRegAppTableRecord
  2
ACAD
 70
     0
  0
APPID
  5
8F
330
9
100
AcDbSymbolTableRecord
100
AcDbRegAppTableRecord
  2
AVE_RENDER
 70
     0
  0
APPID
  5
90
330
9
100
AcDbSymbolTableRecord
100
AcDbRegAppTableRecord
  2
AVE_ENTITY_MATERIAL
 70
     0
  0
APPID
  5
9C
330
9
100
AcDbSymbolTableRecord
100
AcDbRegAppTableRecord
  2
AVE_FINISH
 70
     0
  0
APPID
  5
9D
330
9
100
AcDbSymbolTableRecord
100
AcDbRegAppTableRecord
  2
AVE_MATERIAL
 70
     0
  0
APPID
  5
9E
330
9
100
AcDbSymbolTableRecord
100
AcDbRegAppTableRecord
  2
AVE_GLOBAL
 70
     0
  0
ENDTAB
  0
TABLE
  2
DIMSTYLE
  5
A
330
0
100
AcDbSymbolTable
 70
     1
100
AcDbDimStyleTable
 71
     0
  0
DIMSTYLE
105
27
330
A
100
AcDbSymbolTableRecord
100
AcDbDimStyleTableRecord
  2
Standard
 70
     0
340
11
  0
ENDTAB
  0
TABLE
  2
BLOCK_RECORD
  5
1
330
0
100
AcDbSymbolTable
 70
     6
  0
BLOCK_RECORD
  5
1F
330
1
100
AcDbSymbolTableRecord
100
AcDbBlockTableRecord
  2
*Model_Space
340
22
 70
     0
280
     1
281
     0
  0
BLOCK_RECORD
  5
1B
330
1
100
AcDbSymbolTableRecord
100
AcDbBlockTableRecord
  2
*Paper_Space
340
1E
 70
     0
280
     1
281
     0
  0
BLOCK_RECORD
  5
23
330
1
100
AcDbSymbolTableRecord
100
AcDbBlockTableRecord
  2
*Paper_Space0
340
26
 70
     0
280
     1
281
     0
  0
BLOCK_RECORD
  5
2E
330
1
100
AcDbSymbolTableRecord
100
AcDbBlockTableRecord
  2
direct
340
0
 70
     0
280
     1
281
     0
  0
BLOCK_RECORD
  5
42
330
1
100
AcDbSymbolTableRecord
100
AcDbBlockTableRecord
  2
overhead
340
0
 70
     0
280
     1
281
     0
  0
BLOCK_RECORD
  5
5F
330
1
100
AcDbSymbolTableRecord
100
AcDbBlockTableRecord
  2
sh_spot
340
0
 70
     0
280
     1
281
     0
  0
BLOCK_RECORD
  5
91
330
1
100
AcDbSymbolTableRecord
100
AcDbBlockTableRecord
  2
AVE_RENDER
340
0
102
{BLKREFS
331
94
331
95
331
96
331
97
331
98
331
99
331
9A
331
9B
102
}
 70
     0
280
     1
281
     0
  0
BLOCK_RECORD
  5
9F
330
1
100
AcDbSymbolTableRecord
100
AcDbBlockTableRecord
  2
AVE_GLOBAL
340
0
102
{BLKREFS
331
A2
102
}
 70
     0
280
     1
281
     0
  0
ENDTAB
  0
ENDSEC
  0
SECTION
  2
BLOCKS
  0
BLOCK
  5
20
330
1F
100
AcDbEntity
  8
0
100
AcDbBlockBegin
  2
*Model_Space
 70
     0
 10
0.0
 20
0.0
 30
0.0
  3
*Model_Space
  1

  0
ENDBLK
  5
21
330
1F
100
AcDbEntity
  8
0
100
AcDbBlockEnd
  0
BLOCK
  5
1C
330
1B
100
AcDbEntity
 67
     1
  8
0
100
AcDbBlockBegin
  2
*Paper_Space
 70
     0
 10
0.0
 20
0.0
 30
0.0
  3
*Paper_Space
  1

  0
ENDBLK
  5
1D
330
1B
100
AcDbEntity
 67
     1
  8
0
100
AcDbBlockEnd
  0
BLOCK
  5
24
330
23
100
AcDbEntity
 67
     1
  8
0
100
AcDbBlockBegin
  2
*Paper_Space0
 70
     0
 10
0.0
 20
0.0
 30
0.0
  3
*Paper_Space0
  1

  0
ENDBLK
  5
25
330
23
100
AcDbEntity
 67
     1
  8
0
100
AcDbBlockEnd
  0
BLOCK
  5
40
330
2E
100
AcDbEntity
  8
0
100
AcDbBlockBegin
  2
direct
 70
     2
 10
0.0
 20
0.0
 30
0.0
  3
direct
  1

  0
ATTDEF
  5
2F
330
2E
100
AcDbEntity
  8
ASHADE
  6
Continuous
 62
     1
100
AcDbText
 10
0.0
 20
-0.1
 30
0.0
 40
0.2
  1

  7
ASHADE
 72
     1
 11
0.0
 21
-0.1
 31
0.0
100
AcDbAttributeDefinition
280
     0
  3
Light Name
  2
SNAME
 70
     0
280
     0
  0
ARC
  5
30
330
2E
100
AcDbEntity
  8
ASHADE
  6
Continuous
 62
     7
100
AcDbCircle
 10
0.0
 20
0.0
 30
0.0
 40
0.3
100
AcDbArc
 50
205.6792886194569
 51
334.3207113805431
  0
ARC
  5
31
330
2E
100
AcDbEntity
  8
ASHADE
  6
Continuous
 62
     7
100
AcDbCircle
 10
0.0
 20
0.0
 30
0.0
 40
0.3
100
AcDbArc
 50
25.67928861945685
 51
154.3207113805431
  0
LINE
  5
32
330
2E
100
AcDbEntity
  8
ASHADE
  6
Continuous
 62
     7
100
AcDbLine
 10
-0.21
 20
0.2142428528562855
 30
0.0
 11
-0.21
 21
0.5
 31
0.0
  0
LINE
  5
33
330
2E
100
AcDbEntity
  8
ASHADE
  6
Continuous
 62
     7
100
AcDbLine
 10
-0.11
 20
0.2791057147390572
 30
0.0
 11
-0.11
 21
0.5
 31
0.0
  0
LINE
  5
34
330
2E
100
AcDbEntity
  8
ASHADE
  6
Continuous
 62
     7
100
AcDbLine
 10
0.21
 20
0.2142428528562855
 30
0.0
 11
0.21
 21
0.5
 31
0.0
  0
ATTDEF
  5
35
330
2E
100
AcDbEntity
  8
ASHADE
  6
Continuous
 62
     7
100
AcDbText
 10
0.0
 20
0.25
 30
0.0
 40
0.01
  1

100
AcDbAttributeDefinition
280
     0
  3
Look-at Y
  2
LAY
 70
     1
280
     0
  0
ATTDEF
  5
36
330
2E
100
AcDbEntity
  8
ASHADE
  6
Continuous
 62
     7
100
AcDbText
 10
0.0
 20
0.22
 30
0.0
 40
0.01
  1
1
100
AcDbAttributeDefinition
280
     0
  3
Light Intensity
  2
INTENSITY
 70
     1
280
     0
  0
ATTDEF
  5
37
330
2E
100
AcDbEntity
  8
ASHADE
  6
Continuous
 62
     7
100
AcDbText
 10
0.0
 20
0.16
 30
0.0
 40
0.01
  1
-1
100
AcDbAttributeDefinition
280
     0
  3
*not used*
  2
BEAMD
 70
     1
280
     0
  0
ATTDEF
  5
38
330
2E
100
AcDbEntity
  8
ASHADE
  6
Continuous
 62
     7
100
AcDbText
 10
0.0
 20
0.175
 30
0.0
 40
0.01
  1
-1
100
AcDbAttributeDefinition
280
     0
  3
*not used*
  2
CONED
 70
     1
280
     0
  0
ATTDEF
  5
39
330
2E
100
AcDbEntity
  8
ASHADE
  6
Continuous
 62
     7
100
AcDbText
 10
0.0
 20
0.19
 30
0.0
 40
0.01
  1
0
100
AcDbAttributeDefinition
280
     0
  3
Depth Map Size
  2
CONEA
 70
     1
280
     0
  0
ATTDEF
  5
3A
330
2E
100
AcDbEntity
  8
ASHADE
  6
Continuous
 62
     7
100
AcDbText
 10
0.0
 20
0.2050000000000001
 30
0.0
 40
0.01
  1
1,1,1
100
AcDbAttributeDefinition
280
     0
  3
Light Color (RGB)
  2
COLOR
 70
     1
280
     0
  0
ATTDEF
  5
3B
330
2E
100
AcDbEntity
  8
ASHADE
  6
Continuous
 62
     7
100
AcDbText
 10
0.0
 20
0.235
 30
0.0
 40
0.01
  1

100
AcDbAttributeDefinition
280
     0
  3
Look-at Z
  2
LAZ
 70
     1
280
     0
  0
LINE
  5
3C
330
2E
100
AcDbEntity
  8
ASHADE
  6
Continuous
 62
     7
100
AcDbLine
 10
0.0
 20
0.3
 30
0.0
 11
0.0
 21
0.5
 31
0.0
  0
LINE
  5
3D
330
2E
100
AcDbEntity
  8
ASHADE
  6
Continuous
 62
     7
100
AcDbLine
 10
0.11
 20
0.2791057147390572
 30
0.0
 11
0.11
 21
0.5
 31
0.0
  0
ATTDEF
  5
3E
330
2E
100
AcDbEntity
  8
ASHADE
  6
Continuous
 62
     7
100
AcDbText
 10
0.0
 20
0.265
 30
0.0
 40
0.01
  1

100
AcDbAttributeDefinition
280
     0
  3
Look-at X
  2
LAX
 70
     1
280
     0
  0
ATTDEF
  5
3F
330
2E
100
AcDbEntity
  8
ASHADE
  6
Continuous
 62
     7
100
AcDbText
 10
0.0
 20
0.28
 30
0.0
 40
0.01
  1

100
AcDbAttributeDefinition
280
     0
  3

  2
GNAME
 70
     1
280
     0
  0
ENDBLK
  5
41
330
2E
100
AcDbEntity
  8
0
100
AcDbBlockEnd
  0
BLOCK
  5
5D
330
42
100
AcDbEntity
  8
0
100
AcDbBlockBegin
  2
overhead
 70
     2
 10
0.0
 20
0.0
 30
0.0
  3
overhead
  1

  0
ATTDEF
  5
43
330
42
100
AcDbEntity
  8
ASHADE
  6
Continuous
 62
     1
100
AcDbText
 10
0.0
 20
-0.1
 30
0.0
 40
0.2
  1

  7
ASHADE
 72
     1
 11
0.0
 21
-0.1
 31
0.0
100
AcDbAttributeDefinition
280
     0
  3
Light Name
  2
SNAME
 70
     0
280
     0
  0
ARC
  5
44
330
42
100
AcDbEntity
  8
ASHADE
  6
Continuous
 62
     7
100
AcDbCircle
 10
0.0
 20
0.0
 30
0.0
 40
0.3
100
AcDbArc
 50
205.6792886194569
 51
334.3207113805431
  0
LINE
  5
45
330
42
100
AcDbEntity
  8
ASHADE
  6
Continuous
 62
     7
100
AcDbLine
 10
-0.2041413561583015
 20
-0.2198324514393848
 30
0.0
 11
-0.2721884748777353
 21
-0.2931099352525131
 31
0.0
  0
LINE
  5
46
330
42
100
AcDbEntity
  8
ASHADE
  6
Continuous
 62
     7
100
AcDbLine
 10
-0.1096591641591904
 20
-0.2792398032442862
 30
0.0
 11
-0.1279356915190555
 21
-0.3257797704516673
 31
0.0
  0
LINE
  5
47
330
42
100
AcDbEntity
  8
ASHADE
  6
Continuous
 62
     7
100
AcDbLine
 10
0.0
 20
-0.2999999999999999
 30
0.0
 11
0.0
 21
-0.4
 31
0.0
  0
LINE
  5
48
330
42
100
AcDbEntity
  8
ASHADE
  6
Continuous
 62
     7
100
AcDbLine
 10
0.1096591641591904
 20
-0.2792398032442862
 30
0.0
 11
0.1279356915190555
 21
-0.3257797704516673
 31
0.0
  0
LINE
  5
49
330
42
100
AcDbEntity
  8
ASHADE
  6
Continuous
 62
     7
100
AcDbLine
 10
0.2041413561583015
 20
-0.2198324514393848
 30
0.0
 11
0.2721884748777353
 21
-0.2931099352525131
 31
0.0
  0
ARC
  5
4A
330
42
100
AcDbEntity
  8
ASHADE
  6
Continuous
 62
     7
100
AcDbCircle
 10
0.0
 20
0.0
 30
0.0
 40
0.3
100
AcDbArc
 50
25.67928861945685
 51
154.3207113805431
  0
LINE
  5
4B
330
42
100
AcDbEntity
  8
ASHADE
  6
Continuous
 62
     7
100
AcDbLine
 10
-0.2703701166919155
 20
0.13
 30
0.0
 11
-0.3154318028072347
 21
0.1516666666666666
 31
0.0
  0
LINE
  5
4C
330
42
100
AcDbEntity
  8
ASHADE
  6
Continuous
 62
     7
100
AcDbLine
 10
-0.2703701166919155
 20
-0.13
 30
0.0
 11
-0.3154318028072347
 21
-0.1516666666666666
 31
0.0
  0
LINE
  5
4D
330
42
100
AcDbEntity
  8
ASHADE
  6
Continuous
 62
     7
100
AcDbLine
 10
-0.2041413561583015
 20
0.2198324514393849
 30
0.0
 11
-0.2721884748777353
 21
0.2931099352525131
 31
0.0
  0
LINE
  5
4E
330
42
100
AcDbEntity
  8
ASHADE
  6
Continuous
 62
     7
100
AcDbLine
 10
-0.1096591641591904
 20
0.2792398032442862
 30
0.0
 11
-0.1279356915190555
 21
0.3257797704516674
 31
0.0
  0
LINE
  5
4F
330
42
100
AcDbEntity
  8
ASHADE
  6
Continuous
 62
     7
100
AcDbLine
 10
0.2703701166919155
 20
-0.13
 30
0.0
 11
0.3154318028072347
 21
-0.1516666666666666
 31
0.0
  0
LINE
  5
50
330
42
100
AcDbEntity
  8
ASHADE
  6
Continuous
 62
     7
100
AcDbLine
 10
0.2703701166919155
 20
0.13
 30
0.0
 11
0.3154318028072347
 21
0.1516666666666666
 31
0.0
  0
LINE
  5
51
330
42
100
AcDbEntity
  8
ASHADE
  6
Continuous
 62
     7
100
AcDbLine
 10
0.0
 20
0.3
 30
0.0
 11
0.0
 21
0.4
 31
0.0
  0
ATTDEF
  5
52
330
42
100
AcDbEntity
  8
ASHADE
  6
Continuous
 62
     7
100
AcDbText
 10
0.0
 20
0.22
 30
0.0
 40
0.01
  1
1
100
AcDbAttributeDefinition
280
     0
  3
Light Intensity
  2
INTENSITY
 70
     1
280
     0
  0
ATTDEF
  5
53
330
42
100
AcDbEntity
  8
ASHADE
  6
Continuous
 62
     7
100
AcDbText
 10
0.0
 20
0.16
 30
0.0
 40
0.01
  1
-1
100
AcDbAttributeDefinition
280
     0
  3
*not used*
  2
BEAMD
 70
     1
280
     0
  0
ATTDEF
  5
54
330
42
100
AcDbEntity
  8
ASHADE
  6
Continuous
 62
     7
100
AcDbText
 10
0.0
 20
0.175
 30
0.0
 40
0.01
  1
-1
100
AcDbAttributeDefinition
280
     0
  3
*not used*
  2
CONED
 70
     1
280
     0
  0
ATTDEF
  5
55
330
42
100
AcDbEntity
  8
ASHADE
  6
Continuous
 62
     7
100
AcDbText
 10
0.0
 20
0.19
 30
0.0
 40
0.01
  1
0
100
AcDbAttributeDefinition
280
     0
  3
Depth Map Size
  2
CONEA
 70
     1
280
     0
  0
ATTDEF
  5
56
330
42
100
AcDbEntity
  8
ASHADE
  6
Continuous
 62
     7
100
AcDbText
 10
0.0
 20
0.2050000000000001
 30
0.0
 40
0.01
  1
1,1,1
100
AcDbAttributeDefinition
280
     0
  3
Light Color (RGB)
  2
COLOR
 70
     1
280
     0
  0
ATTDEF
  5
57
330
42
100
AcDbEntity
  8
ASHADE
  6
Continuous
 62
     7
100
AcDbText
 10
0.0
 20
0.235
 30
0.0
 40
0.01
  1

100
AcDbAttributeDefinition
280
     0
  3
Look-at Z
  2
LAZ
 70
     1
280
     0
  0
ATTDEF
  5
58
330
42
100
AcDbEntity
  8
ASHADE
  6
Continuous
 62
     7
100
AcDbText
 10
0.0
 20
0.25
 30
0.0
 40
0.01
  1

100
AcDbAttributeDefinition
280
     0
  3
Look-at Y
  2
LAY
 70
     1
280
     0
  0
ATTDEF
  5
59
330
42
100
AcDbEntity
  8
ASHADE
  6
Continuous
 62
     7
100
AcDbText
 10
0.0
 20
0.265
 30
0.0
 40
0.01
  1

100
AcDbAttributeDefinition
280
     0
  3
Look-at X
  2
LAX
 70
     1
280
     0
  0
ATTDEF
  5
5A
330
42
100
AcDbEntity
  8
ASHADE
  6
Continuous
 62
     7
100
AcDbText
 10
0.0
 20
0.28
 30
0.0
 40
0.01
  1

100
AcDbAttributeDefinition
280
     0
  3

  2
GNAME
 70
     1
280
     0
  0
LINE
  5
5B
330
42
100
AcDbEntity
  8
ASHADE
  6
Continuous
 62
     7
100
AcDbLine
 10
0.1096591641591904
 20
0.2792398032442862
 30
0.0
 11
0.1279356915190555
 21
0.3257797704516674
 31
0.0
  0
LINE
  5
5C
330
42
100
AcDbEntity
  8
ASHADE
  6
Continuous
 62
     7
100
AcDbLine
 10
0.2041413561583015
 20
0.2198324514393849
 30
0.0
 11
0.2721884748777353
 21
0.2931099352525131
 31
0.0
  0
ENDBLK
  5
5E
330
42
100
AcDbEntity
  8
0
100
AcDbBlockEnd
  0
BLOCK
  5
85
330
5F
100
AcDbEntity
  8
0
100
AcDbBlockBegin
  2
sh_spot
 70
     2
 10
0.0
 20
0.0
 30
0.0
  3
sh_spot
  1

  0
LINE
  5
60
330
5F
100
AcDbEntity
  8
ASHADE
  6
Continuous
 62
     7
100
AcDbLine
 10
0.25
 20
0.26
 30
0.0
 11
-0.25
 21
0.26
 31
0.0
  0
LINE
  5
61
330
5F
100
AcDbEntity
  8
ASHADE
  6
Continuous
 62
     7
100
AcDbLine
 10
-0.25
 20
-0.3399999999999999
 30
0.0
 11
0.25
 21
-0.3399999999999999
 31
0.0
  0
ATTDEF
  5
62
330
5F
100
AcDbEntity
  8
ASHADE
  6
Continuous
 62
     1
100
AcDbText
 10
0.0
 20
-0.1
 30
0.0
 40
0.2
  1

  7
ASHADE
 72
     1
 11
0.0
 21
-0.1
 31
0.0
100
AcDbAttributeDefinition
280
     0
  3
Light Name
  2
SNAME
 70
     0
280
     0
  0
LINE
  5
63
330
5F
100
AcDbEntity
  8
ASHADE
  6
Continuous
 62
     7
100
AcDbLine
 10
-0.25
 20
-0.13
 30
0.0
 11
-0.25
 21
-0.3399999999999999
 31
0.0
  0
LINE
  5
64
330
5F
100
AcDbEntity
  8
ASHADE
  6
Continuous
 62
     7
100
AcDbLine
 10
-0.25
 20
-0.18
 30
0.0
 11
-0.29
 21
-0.18
 31
0.0
  0
LINE
  5
65
330
5F
100
AcDbEntity
  8
ASHADE
  6
Continuous
 62
     7
100
AcDbLine
 10
-0.29
 20
-0.22
 30
0.0
 11
-0.25
 21
-0.22
 31
0.0
  0
LINE
  5
66
330
5F
100
AcDbEntity
  8
ASHADE
  6
Continuous
 62
     7
100
AcDbLine
 10
-0.29
 20
-0.18
 30
0.0
 11
-0.29
 21
-0.22
 31
0.0
  0
LINE
  5
67
330
5F
100
AcDbEntity
  8
ASHADE
  6
Continuous
 62
     7
100
AcDbLine
 10
-0.1045454545454545
 20
0.26
 30
0.0
 11
-0.15
 21
0.46
 31
0.0
  0
LINE
  5
68
330
5F
100
AcDbEntity
  8
ASHADE
  6
Continuous
 62
     7
100
AcDbLine
 10
-0.21
 20
0.26
 30
0.0
 11
-0.301304347826087
 21
0.46
 31
0.0
  0
LINE
  5
69
330
5F
100
AcDbEntity
  8
ASHADE
  6
Continuous
 62
     7
100
AcDbLine
 10
-0.25
 20
0.26
 30
0.0
 11
-0.25
 21
0.13
 31
0.0
  0
LINE
  5
6A
330
5F
100
AcDbEntity
  8
ASHADE
  6
Continuous
 62
     7
100
AcDbLine
 10
-0.25
 20
0.22
 30
0.0
 11
-0.29
 21
0.22
 31
0.0
  0
LINE
  5
6B
330
5F
100
AcDbEntity
  8
ASHADE
  6
Continuous
 62
     7
100
AcDbLine
 10
-0.29
 20
0.1799999999999999
 30
0.0
 11
-0.25
 21
0.1799999999999999
 31
0.0
  0
LINE
  5
6C
330
5F
100
AcDbEntity
  8
ASHADE
  6
Continuous
 62
     7
100
AcDbLine
 10
-0.29
 20
0.22
 30
0.0
 11
-0.29
 21
0.1799999999999999
 31
0.0
  0
ATTDEF
  5
6D
330
5F
100
AcDbEntity
  8
ASHADE
  6
Continuous
 62
     7
100
AcDbText
 10
0.0
 20
-0.24
 30
0.0
 40
0.01
  1
0
100
AcDbAttributeDefinition
280
     0
  3
Depth Map Size
  2
ZSIZE
 70
     1
280
     0
  0
ATTDEF
  5
6E
330
5F
100
AcDbEntity
  8
ASHADE
  6
Continuous
 62
     7
100
AcDbText
 10
0.0
 20
-0.3300000000000001
 30
0.0
 40
0.01
  1
0,0,0
100
AcDbAttributeDefinition
280
     0
  3
Look-from XYZ
  2
LFXYZ
 70
     1
280
     0
  0
ATTDEF
  5
6F
330
5F
100
AcDbEntity
  8
ASHADE
  6
Continuous
 62
     7
100
AcDbText
 10
0.0
 20
-0.315
 30
0.0
 40
0.01
  1
0.0
100
AcDbAttributeDefinition
280
     0
  3
Beam Distribution
  2
BEAMDI
 70
     1
280
     0
  0
ATTDEF
  5
70
330
5F
100
AcDbEntity
  8
ASHADE
  6
Continuous
 62
     7
100
AcDbText
 10
0.0
 20
-0.3
 30
0.0
 40
0.01
  1
0.0
100
AcDbAttributeDefinition
280
     0
  3
Cone Delta
  2
CONEDE
 70
     1
280
     0
  0
ATTDEF
  5
71
330
5F
100
AcDbEntity
  8
ASHADE
  6
Continuous
 62
     7
100
AcDbText
 10
0.0
 20
-0.2850000000000001
 30
0.0
 40
0.01
  1
10.0
100
AcDbAttributeDefinition
280
     0
  3
Cone Angle
  2
CONEAN
 70
     1
280
     0
  0
ATTDEF
  5
72
330
5F
100
AcDbEntity
  8
ASHADE
  6
Continuous
 62
     7
100
AcDbText
 10
0.0
 20
-0.27
 30
0.0
 40
0.01
  1
-1
100
AcDbAttributeDefinition
280
     0
  3
*not used*
  2
BIASMAX
 70
     1
280
     0
  0
ATTDEF
  5
73
330
5F
100
AcDbEntity
  8
ASHADE
  6
Continuous
 62
     7
100
AcDbText
 10
0.0
 20
-0.255
 30
0.0
 40
0.01
  1
-1
100
AcDbAttributeDefinition
280
     0
  3
*not used*
  2
BIASMIN
 70
     1
280
     0
  0
ATTDEF
  5
74
330
5F
100
AcDbEntity
  8
ASHADE
  6
Continuous
 62
     7
100
AcDbText
 10
0.0
 20
-0.225
 30
0.0
 40
0.01
  1
1,1,1
100
AcDbAttributeDefinition
280
     0
  3
Light Color (RGB)
  2
COLOR
 70
     1
280
     0
  0
ATTDEF
  5
75
330
5F
100
AcDbEntity
  8
ASHADE
  6
Continuous
 62
     7
100
AcDbText
 10
0.0
 20
-0.21
 30
0.0
 40
0.01
  1
1
100
AcDbAttributeDefinition
280
     0
  3
Light Intensity
  2
INTENSITY
 70
     1
280
     0
  0
ATTDEF
  5
76
330
5F
100
AcDbEntity
  8
ASHADE
  6
Continuous
 62
     7
100
AcDbText
 10
0.0
 20
-0.15
 30
0.0
 40
0.01
  1

100
AcDbAttributeDefinition
280
     0
  3

  2
GNAME
 70
     1
280
     0
  0
ATTDEF
  5
77
330
5F
100
AcDbEntity
  8
ASHADE
  6
Continuous
 62
     7
100
AcDbText
 10
0.0
 20
-0.195
 30
0.0
 40
0.01
  1

100
AcDbAttributeDefinition
280
     0
  3
Look-at Z
  2
LAZ
 70
     1
280
     0
  0
ATTDEF
  5
78
330
5F
100
AcDbEntity
  8
ASHADE
  6
Continuous
 62
     7
100
AcDbText
 10
0.0
 20
-0.18
 30
0.0
 40
0.01
  1

100
AcDbAttributeDefinition
280
     0
  3
Look-at Y
  2
LAY
 70
     1
280
     0
  0
ATTDEF
  5
79
330
5F
100
AcDbEntity
  8
ASHADE
  6
Continuous
 62
     7
100
AcDbText
 10
0.0
 20
-0.165
 30
0.0
 40
0.01
  1

100
AcDbAttributeDefinition
280
     0
  3
Look-at X
  2
LAX
 70
     1
280
     0
  0
LINE
  5
7A
330
5F
100
AcDbEntity
  8
ASHADE
  6
Continuous
 62
     7
100
AcDbLine
 10
0.25
 20
-0.3399999999999999
 30
0.0
 11
0.25
 21
-0.13
 31
0.0
  0
LINE
  5
7B
330
5F
100
AcDbEntity
  8
ASHADE
  6
Continuous
 62
     7
100
AcDbLine
 10
0.25
 20
-0.18
 30
0.0
 11
0.29
 21
-0.18
 31
0.0
  0
LINE
  5
7C
330
5F
100
AcDbEntity
  8
ASHADE
  6
Continuous
 62
     7
100
AcDbLine
 10
0.29
 20
-0.22
 30
0.0
 11
0.25
 21
-0.22
 31
0.0
  0
LINE
  5
7D
330
5F
100
AcDbEntity
  8
ASHADE
  6
Continuous
 62
     7
100
AcDbLine
 10
0.29
 20
-0.18
 30
0.0
 11
0.29
 21
-0.22
 31
0.0
  0
LINE
  5
7E
330
5F
100
AcDbEntity
  8
ASHADE
  6
Continuous
 62
     7
100
AcDbLine
 10
0.21
 20
0.26
 30
0.0
 11
0.301304347826087
 21
0.46
 31
0.0
  0
LINE
  5
7F
330
5F
100
AcDbEntity
  8
ASHADE
  6
Continuous
 62
     7
100
AcDbLine
 10
0.1045454545454545
 20
0.26
 30
0.0
 11
0.15
 21
0.46
 31
0.0
  0
LINE
  5
80
330
5F
100
AcDbEntity
  8
ASHADE
  6
Continuous
 62
     7
100
AcDbLine
 10
0.0
 20
0.26
 30
0.0
 11
0.0
 21
0.46
 31
0.0
  0
LINE
  5
81
330
5F
100
AcDbEntity
  8
ASHADE
  6
Continuous
 62
     7
100
AcDbLine
 10
0.25
 20
0.13
 30
0.0
 11
0.25
 21
0.26
 31
0.0
  0
LINE
  5
82
330
5F
100
AcDbEntity
  8
ASHADE
  6
Continuous
 62
     7
100
AcDbLine
 10
0.25
 20
0.22
 30
0.0
 11
0.29
 21
0.22
 31
0.0
  0
LINE
  5
83
330
5F
100
AcDbEntity
  8
ASHADE
  6
Continuous
 62
     7
100
AcDbLine
 10
0.29
 20
0.1799999999999999
 30
0.0
 11
0.25
 21
0.1799999999999999
 31
0.0
  0
LINE
  5
84
330
5F
100
AcDbEntity
  8
ASHADE
  6
Continuous
 62
     7
100
AcDbLine
 10
0.29
 20
0.22
 30
0.0
 11
0.29
 21
0.1799999999999999
 31
0.0
  0
ENDBLK
  5
86
330
5F
100
AcDbEntity
  8
0
100
AcDbBlockEnd
  0
BLOCK
  5
92
330
91
100
AcDbEntity
  8
ASHADE
100
AcDbBlockBegin
  2
AVE_RENDER
 70
     0
 10
0.0
 20
0.0
 30
0.0
  3
AVE_RENDER
  1
AVE_RENDER
  0
ENDBLK
  5
93
330
91
100
AcDbEntity
  8
0
100
AcDbBlockEnd
  0
BLOCK
  5
A0
330
9F
100
AcDbEntity
  8
ASHADE
100
AcDbBlockBegin
  2
AVE_GLOBAL
 70
     0
 10
0.0
 20
0.0
 30
0.0
  3
AVE_GLOBAL
  1
AVE_GLOBAL
  0
ENDBLK
  5
A1
330
9F
100
AcDbEntity
  8
0
100
AcDbBlockEnd
  0
ENDSEC
  0
SECTION
  2
ENTITIES
  0
INSERT
  5
94
330
1F
100
AcDbEntity
  8
ASHADE
 62
     1
100
AcDbBlockReference
  2
AVE_RENDER
 10
0.0
 20
0.0
 30
0.0
1001
AVE_RENDER
1002
{
1070
     7
1000
Pref
1070
    30
1070
    20
1070
     1
1070
     0
1000

1070
    10
1070
     1
1070
    10
1040
1.0
1070
     1
1040
0.3
1040
0.7
1040
0.0
1040
10.0
1010
-1.0
1020
-1.0
1030
-1.0
1040
0.3
1070
    49
1070
     0
1070
     0
1010
1.0
1020
1.0
1030
1.0
1040
45.0
1070
     1
1070
     0
1000
WCS
1040
0.0
1070
     0
1040
10.0
1002
}
  0
INSERT
  5
95
330
1F
100
AcDbEntity
  8
ASHADE
 62
     3
100
AcDbBlockReference
  2
AVE_RENDER
 10
0.0
 20
0.0
 30
0.0
1001
AVE_RENDER
1002
{
1070
     0
1000
Full Opt
1070
     0
1070
     1
1070
     1
1070
     1
1070
     0
1070
     0
1070
     0
1070
     1
1070
     1
1040
0.0001
1040
0.0001
1002
}
  0
INSERT
  5
96
330
1F
100
AcDbEntity
  8
ASHADE
 62
     4
100
AcDbBlockReference
  2
AVE_RENDER
 10
0.0
 20
0.0
 30
0.0
1001
AVE_RENDER
1002
{
1070
     0
1000
Quick Opt
1070
     0
1070
     1
1070
     1
1070
     1
1070
     0
1070
     0
1070
     1
1002
}
  0
INSERT
  5
97
330
1F
100
AcDbEntity
  8
ASHADE
 62
     5
100
AcDbBlockReference
  2
AVE_RENDER
 10
0.0
 20
0.0
 30
0.0
1001
AVE_RENDER
1002
{
1070
     1
1000
Scanl Opt
1070
     2
1070
     0
1070
     2
1040
2.0
1040
4.0
1070
     0
1070
     1
1070
     0
1040
0.03
1002
}
  0
INSERT
  5
98
330
1F
100
AcDbEntity
  8
ASHADE
 62
     6
100
AcDbBlockReference
  2
AVE_RENDER
 10
0.0
 20
0.0
 30
0.0
1001
AVE_RENDER
1002
{
1070
     2
1000
Raytr Opt
1070
     2
1070
     0
1070
     2
1040
2.0
1040
4.0
1070
     0
1070
     1
1070
     1
1040
0.03
1070
     3
1040
0.03
1002
}
  0
INSERT
  5
99
330
1F
100
AcDbEntity
  8
ASHADE
 62
     7
100
AcDbBlockReference
  2
AVE_RENDER
 10
0.0
 20
0.0
 30
0.0
1001
AVE_RENDER
1002
{
1070
     0
1000
RFile Opt
1070
     1
1070
   640
1070
   480
1070
 10000
1070
     1
1070
     8
1070
     8
1070
     0
1070
     0
1070
     0
1070
     0
1070
     0
1070
     0
1070
     0
1002
}
  0
INSERT
  5
9A
330
1F
100
AcDbEntity
  8
ASHADE
 62
     8
100
AcDbBlockReference
  2
AVE_RENDER
 10
0.0
 20
0.0
 30
0.0
1001
AVE_RENDER
1002
{
1070
     0
1000
Fog Opt
1070
     0
1070
     0
1040
0.0
1040
1.0
1040
0.0
1040
1.0
1010
0.5
1020
0.5
1030
0.5
1002
}
  0
INSERT
  5
9B
330
1F
100
AcDbEntity
  8
ASHADE
 62
     9
100
AcDbBlockReference
  2
AVE_RENDER
 10
0.0
 20
0.0
 30
0.0
1001
AVE_RENDER
1002
{
1070
     0
1000
BG Opt
1070
     0
1070
     1
1010
0.0
1020
0.0
1030
0.0
1010
1.0
1020
0.0
1030
0.0
1010
0.0
1020
1.0
1030
0.0
1010
0.0
1020
0.0
1030
1.0
1040
0.5
1040
0.33
1040
0.0
1000

1070
     1
1000

1070
     1
1070
     1
1040
1.0
1040
1.0
1040
0.0
1040
0.0
1070
     0
1002
}
  0
INSERT
  5
A2
330
1F
100
AcDbEntity
  8
ASHADE
 62
     1
100
AcDbBlockReference
  2
AVE_GLOBAL
 10
0.0
 20
0.0
 30
0.0
1001
AVE_MATERIAL
1002
{
1000
*GLOBAL*
1000
2
1000
Global finish.
1002
{
1002
}
1002
{
1070
    63
1002
{
1002
{
1010
-1.0
1020
-1.0
1030
-1.0
1002
}
1040
0.1000000014901161
1000

1040
0.0
1002
{
1002
}
1040
0.0
1002
{
1002
}
1040
0.0
1002
}
1002
{
1002
{
1010
-1.0
1020
-1.0
1030
-1.0
1002
}
1040
0.6999999880790711
1000

1040
0.0
1002
{
1002
}
1040
0.0
1002
{
1002
}
1040
0.0
1002
}
1002
{
1002
{
1010
-1.0
1020
-1.0
1030
-1.0
1002
}
1040
0.2000000029802322
1000

1040
0.0
1002
{
1002
}
1040
0.0
1002
{
1002
}
1040
0.0
1002
}
1002
{
1070
     0
1002
{
1070
     1
1002
{
1040
1.0
1040
1.0
1000

1040
0.0
1002
{
1002
}
1040
0.0
1002
{
1002
}
1040
0.0
1002
}
1002
}
1040
1.0
1040
0.0
1040
0.0
1002
}
1002
{
1040
1.0
1040
1.0
1000

1040
0.0
1002
{
1002
}
1040
0.0
1002
{
1002
}
1040
0.0
1002
}
1002
{
1040
0.5
1040
1.0
1000

1040
0.0
1002
{
1002
}
1040
0.0
1002
{
1002
}
1040
0.0
1002
}
1002
{
1070
     0
1040
0.0
1002
{
1002
}
1040
1.0
1002
{
1002
}
1040
0.0
1002
}
1002
{
1040
0.0
1002
{
1002
{
1010
0.0
1020
0.0
1030
0.0
1002
}
1040
1.0
1000

1040
0.0
1002
{
1002
}
1040
0.0
1002
{
1002
}
1040
0.0
1002
}
1002
}
1002
{
1002
{
1070
     1
1002
{
1040
0.0
1040
1.0
1000

1040
0.0
1002
{
1002
}
1040
0.0
1002
{
1002
}
1040
0.0
1002
}
1002
}
1040
0.0
1002
{
1002
}
1010
1.0
1020
0.0
1030
0.0
1010
0.0
1020
1.0
1030
0.0
1010
0.0
1020
0.0
1030
1.0
1070
     0
1002
}
1002
{
1002
{
1040
1.0
1040
1.0
1002
{
1070
     1
1002
{
1040
1.0
1040
1.0
1000

1040
0.0
1002
{
1002
}
1040
0.0
1002
{
1002
}
1040
0.0
1002
}
1002
}
1002
}
1070
     0
1040
0.0
1002
{
1002
}
1002
}
1002
{
1002
}
1002
}
1002
{
1071
        3
1070
     3
1070
     0
1002
{
1070
     2
1070
     0
1070
     0
1040
0.0
1002
}
1070
     0
1070
     2
1002
{
1002
}
1002
}
1002
{
1040
8030.0
1040
190.3000030517578
1040
0.3050000071525574
1040
228.0
1040
545.0
1040
14.0
1040
17.39999961853027
1040
0.4560000002384186
1002
}
1002
}
  0
MESH
  5
F9
330
1F
100
AcDbEntity
  8
OracDecor_cornice_mouldings
 62
   164
420
  1842353
160
             22904
310
785900007C0200000C00000013000000020000003C0000000600000002000000000000E0FF3F8F4000000040265C36C0000000000000C0BE000000E0FF3F8F4000000040FDFF39C0000000000000C0BE0C000000130000000A0000003C0000000600000002000000000000E0FF3F8F4000000040265C36C0000000000000C0
310
BE000000E0FF3F8FC000000080205C36C0000000000000C0BE0C00000013000000120000003C0000000600000002000000000000E0FF3F8FC000000080F7FF39C0000000000000C0BE000000E0FF3F8FC000000080205C36C0000000000000C0BE0C000000130000001A0000003C0000000600000002000000000000E0FF3F
310
8F4000000040FDFF39C0000000000000C0BE000000E0FF3F8FC000000080F7FF39C0000000000000C0BE0C00000013000000220000003C0000000600000002000000000000E0FF3F8F40000000C03D1736C000000000C048A0BF000000E0FF3F8F4000000040265C36C0000000000000C0BE0C000000130000002A0000003C
310
0000000600000002000000000000E0FF3F8F40000000C03D1736C000000000C048A0BF000000E0FF3F8FC000000000381736C000000000C048A0BF0C00000013000000320000003C0000000600000002000000000000E0FF3F8FC000000080205C36C0000000000000C0BE000000E0FF3F8FC000000000381736C000000000
310
C048A0BF0C000000130000003A0000003C0000000600000002000000000000E0FF3F8F400000008007D735C0000000008001C0BF000000E0FF3F8F40000000C03D1736C000000000C048A0BF0C00000013000000420000003C0000000600000002000000000000E0FF3F8F400000008007D735C0000000008001C0BF000000
310
E0FF3F8FC0000000C001D735C0000000008001C0BF0C000000130000004A0000003C0000000600000002000000000000E0FF3F8FC000000000381736C000000000C048A0BF000000E0FF3F8FC0000000C001D735C0000000008001C0BF0C00000013000000520000003C0000000600000002000000000000E0FF3F8F400000
310
00C0DBC434C00000000040C2E5BF000000E0FF3F8F400000008007D735C0000000008001C0BF0C000000130000005A0000003C0000000600000002000000000000E0FF3F8F40000000C0DBC434C00000000040C2E5BF000000E0FF3F8FC000000000D6C434C00000000040C2E5BF0C00000013000000620000003C00000006
310
00000002000000000000E0FF3F8FC0000000C001D735C0000000008001C0BF000000E0FF3F8FC000000000D6C434C00000000040C2E5BF0C000000130000006A0000003C0000000600000002000000000000E0FF3F8F4000000040B54634C00000000000C0E9BF000000E0FF3F8F40000000C0DBC434C00000000040C2E5BF
310
0C00000013000000720000003C0000000600000002000000000000E0FF3F8F4000000040B54634C00000000000C0E9BF000000E0FF3F8FC000000080AF4634C00000000000C0E9BF0C000000130000007A0000003C0000000600000002000000000000E0FF3F8FC000000000D6C434C00000000040C2E5BF000000E0FF3F8F
310
C000000080AF4634C00000000000C0E9BF0C00000013000000820000003C0000000600000002000000000000E0FF3F8F4000000040DEC633C0000000004481E6BF000000E0FF3F8F4000000040B54634C00000000000C0E9BF0C000000130000008A0000003C0000000600000002000000000000E0FF3F8F4000000040DEC6
310
33C0000000004481E6BF000000E0FF3F8FC000000080D8C633C0000000004481E6BF0C00000013000000920000003C0000000600000002000000000000E0FF3F8FC000000080AF4634C00000000000C0E9BF000000E0FF3F8FC000000080D8C633C0000000004481E6BF0C000000130000009A0000003C0000000600000002
310
000000000000E0FF3F8F4000000060187632C000000000200BBABF000000E0FF3F8F4000000040DEC633C0000000004481E6BF0C00000013000000A20000003C0000000600000002000000000000E0FF3F8F4000000060187632C000000000200BBABF000000E0FF3F8FC0000000A0127632C000000000200BBABF0C000000
310
13000000AA0000003C0000000600000002000000000000E0FF3F8FC000000080D8C633C0000000004481E6BF000000E0FF3F8FC0000000A0127632C000000000200BBABF0C00000013000000B20000003C0000000600000002000000000000E0FF3F8F4000000080603B32C00000000000699ABF000000E0FF3F8F40000000
310
60187632C000000000200BBABF0C00000013000000BA0000003C0000000600000002000000000000E0FF3F8F4000000080603B32C00000000000699ABF000000E0FF3F8FC0000000C05A3B32C00000000000699ABF0C00000013000000C20000003C0000000600000002000000000000E0FF3F8FC0000000A0127632C00000
310
0000200BBABF000000E0FF3F8FC0000000C05A3B32C00000000000699ABF0C00000013000000CA0000003C0000000600000002000000000000E0FF3F8F400000008039FD31C0000000000000D0BE000000E0FF3F8F4000000080603B32C00000000000699ABF0C00000013000000D20000003C000000060000000200000000
310
0000E0FF3F8F400000008039FD31C0000000000000D0BE000000E0FF3F8FC0000000C033FD31C0000000000000D0BE0C00000013000000DA0000003C0000000600000002000000000000E0FF3F8FC0000000C05A3B32C00000000000699ABF000000E0FF3F8FC0000000C033FD31C0000000000000D0BE0C00000013000000
310
E20000003C0000000600000002000000000000E0FF3F8F4000000000B1E830C0000000000000D0BE000000E0FF3F8F400000008039FD31C0000000000000D0BE0C00000013000000EA0000003C0000000600000002000000000000E0FF3F8F4000000000B1E830C0000000000000D0BE000000E0FF3F8FC000000040ABE830
310
C0000000000000D0BE0C00000013000000F20000003C0000000600000002000000000000E0FF3F8FC0000000C033FD31C0000000000000D0BE000000E0FF3F8FC000000040ABE830C0000000000000D0BE0C00000013000000FA0000003C0000000600000002000000000000E0FF3F8F40000000401A6030C000000000809D
310
B5BF000000E0FF3F8F4000000000B1E830C0000000000000D0BE0C00000013000000020100003C0000000600000002000000000000E0FF3F8F40000000401A6030C000000000809DB5BF000000E0FF3F8FC000000080146030C000000000809DB5BF0C000000130000000A0100003C0000000600000002000000000000E0FF
310
3F8FC000000040ABE830C0000000000000D0BE000000E0FF3F8FC000000080146030C000000000809DB5BF0C00000013000000120100003C0000000600000002000000000000E0FF3F8F40000000E0F9CF2FC00000000078F6D4BF000000E0FF3F8F40000000401A6030C000000000809DB5BF0C000000130000001A010000
310
3C0000000600000002000000000000E0FF3F8F40000000E0F9CF2FC00000000078F6D4BF000000E0FF3F8FC000000080EECF2FC00000000078F6D4BF0C00000013000000220100003C0000000600000002000000000000E0FF3F8FC000000080146030C000000000809DB5BF000000E0FF3F8FC000000080EECF2FC0000000
310
0078F6D4BF0C000000130000002A0100003C0000000600000002000000000000E0FF3F8F4000000000AC1D2FC0000000007866E6BF000000E0FF3F8F40000000E0F9CF2FC00000000078F6D4BF0C00000013000000320100003C0000000600000002000000000000E0FF3F8F4000000000AC1D2FC0000000007866E6BF0000
310
00E0FF3F8FC000000080A01D2FC0000000007866E6BF0C000000130000003A0100003C0000000600000002000000000000E0FF3F8FC000000080EECF2FC00000000078F6D4BF000000E0FF3F8FC000000080A01D2FC0000000007866E6BF0C00000013000000420100003C0000000600000002000000000000E0FF3F8F4000
310
000040CCBE2EC000000000AE82F2BF000000E0FF3F8F4000000000AC1D2FC0000000007866E6BF0C000000130000004A0100003C0000000600000002000000000000E0FF3F8F4000000040CCBE2EC000000000AE82F2BF000000E0FF3F8FC0000000C0C0BE2EC000000000AE82F2BF0C00000013000000520100003C000000
310
0600000002000000000000E0FF3F8FC0000000C0C0BE2EC000000000AE82F2BF000000E0FF3F8FC000000080A01D2FC0000000007866E6BF0C000000130000005A0100003C0000000600000002000000000000E0FF3F8F40000000C01AD22DC00000000013140CC0000000E0FF3F8F4000000040CCBE2EC000000000AE82F2
310
BF0C00000013000000620100003C0000000600000002000000000000E0FF3F8F40000000C01AD22DC00000000013140CC0000000E0FF3F8FC0000000600FD22DC00000000013140CC00C000000130000006A0100003C0000000600000002000000000000E0FF3F8FC0000000600FD22DC00000000013140CC0000000E0FF3F
310
8FC0000000C0C0BE2EC000000000AE82F2BF0C00000013000000720100003C0000000600000002000000000000E0FF3F8F40000000403B732DC000000000CCBB0FC0000000E0FF3F8F40000000C01AD22DC00000000013140CC00C000000130000007A0100003C0000000600000002000000000000E0FF3F8F40000000403B
310
732DC000000000CCBB0FC0000000E0FF3F8FC0000000C02F732DC000000080CBBB0FC00C00000013000000820100003C0000000600000002000000000000E0FF3F8FC0000000600FD22DC00000000013140CC0000000E0FF3F8FC0000000C02F732DC000000080CBBB0FC00C000000130000008A0100003C00000006000000
310
02000000000000E0FF3F8F4000000040EDC02CC0000000804D5B11C0000000E0FF3F8F40000000403B732DC000000000CCBB0FC00C00000013000000920100003C0000000600000002000000000000E0FF3F8F4000000040EDC02CC0000000804D5B11C0000000E0FF3F8FC0000000C0E1C02CC0000000804D5B11C00C0000
310
00130000009A0100003C0000000600000002000000000000E0FF3F8FC0000000C0E1C02CC0000000804D5B11C0000000E0FF3F8FC0000000C02F732DC000000080CBBB0FC00C00000013000000A20100003C0000000600000002000000000000E0FF3F8F4000000080B2D02BC0000000003F5412C0000000E0FF3F8F400000
310
0040EDC02CC0000000804D5B11C00C00000013000000AA0100003C0000000600000002000000000000E0FF3F8F4000000080B2D02BC0000000003F5412C0000000E0FF3F8FC000000020A7D02BC0000000003F5412C00C00000013000000B20100003C0000000600000002000000000000E0FF3F8FC000000020A7D02BC000
310
0000003F5412C0000000E0FF3F8FC0000000C0E1C02CC0000000804D5B11C00C00000013000000BA0100003C0000000600000002000000000000E0FF3F8F40000000C084BF2AC0000000C0B3AA12C0000000E0FF3F8F4000000080B2D02BC0000000003F5412C00C00000013000000C20100003C0000000600000002000000
310
000000E0FF3F8F40000000C084BF2AC0000000C0B3AA12C0000000E0FF3F8FC00000006079BF2AC0000000C0B3AA12C00C00000013000000CA0100003C0000000600000002000000000000E0FF3F8FC00000006079BF2AC0000000C0B3AA12C0000000E0FF3F8FC000000020A7D02BC0000000003F5412C00C000000130000
310
00D20100003C0000000600000002000000000000E0FF3F8F40000000C0BCF528C0000000C0B3AA12C0000000E0FF3F8F40000000C084BF2AC0000000C0B3AA12C00C00000013000000DA0100003C0000000600000002000000000000E0FF3F8F40000000C0BCF528C0000000C0B3AA12C0000000E0FF3F8FC000000060B1F5
310
28C0000000C0B3AA12C00C00000013000000E20100003C0000000600000002000000000000E0FF3F8FC000000060B1F528C0000000C0B3AA12C0000000E0FF3F8FC00000006079BF2AC0000000C0B3AA12C00C00000013000000EA0100003C0000000600000002000000000000E0FF3F8F40000000008E6326C000000040D0
310
6513C0000000E0FF3F8F40000000C0BCF528C0000000C0B3AA12C00C00000013000000F20100003C0000000600000002000000000000E0FF3F8F40000000008E6326C000000040D06513C0000000E0FF3F8FC0000000A0826326C000000040D06513C00C00000013000000FA0100003C0000000600000002000000000000E0
310
FF3F8FC000000060B1F528C0000000C0B3AA12C0000000E0FF3F8FC0000000A0826326C000000040D06513C00C00000013000000020200003C0000000600000002000000000000E0FF3F8F40000000C0CD1124C000000040D28415C0000000E0FF3F8F40000000008E6326C000000040D06513C00C000000130000000A0200
310
003C0000000600000002000000000000E0FF3F8F40000000C0CD1124C000000040D28415C0000000E0FF3F8FC000000060C21124C000000040D28415C00C00000013000000120200003C0000000600000002000000000000E0FF3F8FC000000060C21124C000000040D28415C0000000E0FF3F8FC0000000A0826326C00000
310
0040D06513C00C000000130000001A0200003C0000000600000002000000000000E0FF3F8F4000000000983A22C00000004096D218C0000000E0FF3F8F40000000C0CD1124C000000040D28415C00C00000013000000220200003C0000000600000002000000000000E0FF3F8F4000000000983A22C00000004096D218C000
310
0000E0FF3F8FC0000000A08C3A22C00000004096D218C00C000000130000002A0200003C0000000600000002000000000000E0FF3F8FC0000000A08C3A22C00000004096D218C0000000E0FF3F8FC000000060C21124C000000040D28415C00C00000013000000320200003C0000000600000002000000000000E0FF3F8F40
310
00000040100C21C0000000404DFC1CC0000000E0FF3F8F4000000000983A22C00000004096D218C00C000000130000003A0200003C0000000600000002000000000000E0FF3F8F4000000040100C21C0000000404DFC1CC0000000E0FF3F8FC0000000E0040C21C0000000404DFC1CC00C00000013000000420200003C0000
310
000600000002000000000000E0FF3F8FC0000000E0040C21C0000000404DFC1CC0000000E0FF3F8FC0000000A08C3A22C00000004096D218C00C000000130000004A0200003C0000000600000002000000000000E0FF3F8F4000000040D1A320C0000000E0D4CC20C0000000E0FF3F8F4000000040100C21C0000000404DFC
310
1CC00C00000013000000520200003C0000000600000002000000000000E0FF3F8F4000000040D1A320C0000000E0D4CC20C0000000E0FF3F8FC0000000C0C5A320C0000000E0D4CC20C00C000000130000005A0200003C0000000600000002000000000000E0FF3F8FC0000000C0C5A320C0000000E0D4CC20C0000000E0FF
310
3F8FC0000000E0040C21C0000000404DFC1CC00C00000013000000620200003C0000000600000002000000000000E0FF3F8F4000000000D1A320C0000000E077C636C0000000E0FF3F8F4000000040D1A320C0000000E0D4CC20C00C000000130000006A0200003C0000000600000002000000000000E0FF3F8F4000000000
310
D1A320C0000000E077C636C0000000E0FF3F8FC0000000A0C5A320C0000000E077C636C00C00000013000000720200003C0000000600000002000000000000E0FF3F8FC0000000A0C5A320C0000000E077C636C0000000E0FF3F8FC0000000C0C5A320C0000000E0D4CC20C00C000000130000007A0200003C000000060000
310
0002000000000000E0FF3F8F40000000807E6220C0000000C06C5437C0000000E0FF3F8F4000000000D1A320C0000000E077C636C00C00000013000000820200003C0000000600000002000000000000E0FF3F8F40000000807E6220C0000000C06C5437C0000000E0FF3F8FC000000000736220C0000000C06C5437C00C00
310
0000130000008A0200003C0000000600000002000000000000E0FF3F8FC0000000A0C5A320C0000000E077C636C0000000E0FF3F8FC000000000736220C0000000C06C5437C00C00000013000000920200003C0000000600000002000000000000E0FF3F8F40000000206D521FC00000000029CB37C0000000E0FF3F8F4000
310
0000807E6220C0000000C06C5437C00C000000130000009A0200003C0000000600000002000000000000E0FF3F8F40000000206D521FC00000000029CB37C0000000E0FF3F8FC00000004056521FC00000000029CB37C00C00000013000000A20200003C0000000600000002000000000000E0FF3F8FC00000004056521FC0
310
0000000029CB37C0000000E0FF3F8FC000000000736220C0000000C06C5437C00C00000013000000AA0200003C0000000600000002000000000000E0FF3F8F40000000E08C2C1DC0000000A0411738C0000000E0FF3F8F40000000206D521FC00000000029CB37C00C00000013000000B20200003C00000006000000020000
310
00000000E0FF3F8F40000000E08C2C1DC0000000A0411738C0000000E0FF3F8FC000000000762C1DC0000000A0411738C00C00000013000000BA0200003C0000000600000002000000000000E0FF3F8FC000000000762C1DC0000000A0411738C0000000E0FF3F8FC00000004056521FC00000000029CB37C00C0000001300
310
0000C20200003C0000000600000002000000000000E0FF3F8F40000000809A370EC0000000A04B3D39C0000000E0FF3F8F40000000E08C2C1DC0000000A0411738C00C00000013000000CA0200003C0000000600000002000000000000E0FF3F8F40000000809A370EC0000000A04B3D39C0000000E0FF3F8FC0000000C06C
310
370EC0000000A04B3D39C00C00000013000000D20200003C0000000600000002000000000000E0FF3F8FC0000000C06C370EC0000000A04B3D39C0000000E0FF3F8FC000000000762C1DC0000000A0411738C00C00000013000000DA0200003C0000000600000002000000000000E0FF3F8F40000000C00F5705C000000040
310
28C939C0000000E0FF3F8F40000000809A370EC0000000A04B3D39C00C00000013000000E20200003C0000000600000002000000000000E0FF3F8F40000000C00F5705C00000004028C939C0000000E0FF3F8FC000000000E25605C00000004028C939C00C00000013000000EA0200003C0000000600000002000000000000
310
E0FF3F8FC0000000C06C370EC0000000A04B3D39C0000000E0FF3F8FC000000000E25605C00000004028C939C00C00000013000000F20200003C0000000600000002000000000000E0FF3F8F400000000031ADFCBF00000040359B3AC0000000E0FF3F8F40000000C00F5705C00000004028C939C00C00000013000000FA02
310
00003C0000000600000002000000000000E0FF3F8F400000000031ADFCBF00000040359B3AC0000000E0FF3F8FC000000000D5ACFCBF00000040359B3AC00C00000013000000020300003C0000000600000002000000000000E0FF3F8FC000000000D5ACFCBF00000040359B3AC0000000E0FF3F8FC000000000E25605C000
310
00004028C939C00C000000130000000A0300003C0000000600000002000000000000E0FF3F8F400000000048B8F3BF0000008000A03BC0000000E0FF3F8F400000000031ADFCBF00000040359B3AC00C00000013000000120300003C0000000600000002000000000000E0FF3F8F400000000048B8F3BF0000008000A03BC0
310
000000E0FF3F8FC000000000EDB7F3BF0000008000A03BC00C000000130000001A0300003C0000000600000002000000000000E0FF3F8FC000000000EDB7F3BF0000008000A03BC0000000E0FF3F8FC000000000D5ACFCBF00000040359B3AC00C00000013000000220300003C0000000600000002000000000000E0FF3F8F
310
4000000000A7A3F0BF000000C065BF3CC0000000E0FF3F8F400000000048B8F3BF0000008000A03BC00C000000130000002A0300003C0000000600000002000000000000E0FF3F8F4000000000A7A3F0BF000000C065BF3CC0000000E0FF3F8FC0000000004CA3F0BF000000C065BF3CC00C00000013000000320300003C00
310
00000600000002000000000000E0FF3F8FC0000000004CA3F0BF000000C065BF3CC0000000E0FF3F8FC000000000EDB7F3BF0000008000A03BC00C000000130000003A0300003C0000000600000002000000000000E0FF3F8F4000000000A7A3F0BF0000008056E13EC0000000E0FF3F8F4000000000A7A3F0BF000000C065
310
BF3CC00C00000013000000420300003C0000000600000002000000000000E0FF3F8F4000000000A7A3F0BF0000008056E13EC0000000E0FF3F8FC0000000004CA3F0BF0000008056E13EC00C000000130000004A0300003C0000000600000002000000000000E0FF3F8FC0000000004CA3F0BF0000008056E13EC0000000E0
310
FF3F8FC0000000004CA3F0BF000000C065BF3CC00C00000013000000520300003C0000000600000002000000000000E0FF3F8F4000000000A8E9EEBF000000405D4E3FC0000000E0FF3F8F4000000000A7A3F0BF0000008056E13EC00C000000130000005A0300003C0000000600000002000000000000E0FF3F8F40000000
310
00A8E9EEBF000000405D4E3FC0000000E0FF3F8FC000000000F0E8EEBF000000405D4E3FC00C00000013000000620300003C0000000600000002000000000000E0FF3F8FC0000000004CA3F0BF0000008056E13EC0000000E0FF3F8FC000000000F0E8EEBF000000405D4E3FC00C000000130000006A0300003C0000000600
310
000002000000000000E0FF3F8F40000000001E0AE8BF000000800EB13FC0000000E0FF3F8F4000000000A8E9EEBF000000405D4E3FC00C00000013000000720300003C0000000600000002000000000000E0FF3F8F40000000001E0AE8BF000000800EB13FC0000000E0FF3F8FC0000000006809E8BF000000800EB13FC00C
310
000000130000007A0300003C0000000600000002000000000000E0FF3F8FC0000000006809E8BF000000800EB13FC0000000E0FF3F8FC000000000F0E8EEBF000000405D4E3FC00C00000013000000820300003C0000000600000002000000000000E0FF3F8F4000000000009FDABF000000A0070040C0000000E0FF3F8F40
310
000000001E0AE8BF000000800EB13FC00C000000130000008A0300003C0000000600000002000000000000E0FF3F8F4000000000009FDABF000000A0070040C0000000E0FF3F8FC000000000909DDABF000000A0070040C00C00000013000000920300003C0000000600000002000000000000E0FF3F8FC000000000909DDA
310
BF000000A0070040C0000000E0FF3F8FC0000000006809E8BF000000800EB13FC00C000000130000009A0300003C0000000600000002000000000000E0FF3F8F40000000009018BCBF000000202D2A40C0000000E0FF3F8F4000000000009FDABF000000A0070040C00C00000013000000A20300003C000000060000000200
310
0000000000E0FF3F8F40000000009018BCBF000000202D2A40C0000000E0FF3F8FC000000000E012BCBF000000202D2A40C00C00000013000000AA0300003C0000000600000002000000000000E0FF3F8FC000000000909DDABF000000A0070040C0000000E0FF3F8FC000000000E012BCBF000000202D2A40C00C00000013
310
000000B20300003C0000000600000002000000000000E0FF3F8F40000000000000083F000000809A5F40C0000000E0FF3F8F40000000009018BCBF000000202D2A40C00C00000013000000BA0300003C0000000600000002000000000000E0FF3F8F40000000000000083F000000809A5F40C0000000E0FF3F8FC000000000
310
0080213F000000809A5F40C00C00000013000000C20300003C0000000600000002000000000000E0FF3F8FC0000000000080213F000000809A5F40C0000000E0FF3F8FC000000000E012BCBF000000202D2A40C00C00000013000000CA0300003C0000000600000002000000000000E0FF3F8F40000000000000083F000000
310
40088041C0000000E0FF3F8F40000000000000083F000000809A5F40C00C00000013000000D20300003C0000000600000002000000000000E0FF3F8F40000000000000083F00000040088041C0000000E0FF3F8FC0000000000080213F00000040088041C00C00000013000000DA0300003C00000006000000020000000000
310
00E0FF3F8FC0000000000080213F00000040088041C0000000E0FF3F8FC0000000000080213F000000809A5F40C00C00000013000000E20300003C0000000600000002000000000000E0FF3F8F4000000000C01EA2BF000000E0F39E41C0000000E0FF3F8F40000000000000083F00000040088041C00C00000013000000EA
310
0300003C0000000600000002000000000000E0FF3F8F4000000000C01EA2BF000000E0F39E41C0000000E0FF3F8FC0000000006013A2BF000000E0F39E41C00C00000013000000F20300003C0000000600000002000000000000E0FF3F8FC0000000000080213F00000040088041C0000000E0FF3F8FC0000000006013A2BF
310
000000E0F39E41C00C00000013000000FA0300003C0000000600000002000000000000E0FF3F8F400000000030D4C1BF00000000C4BB41C0000000E0FF3F8F4000000000C01EA2BF000000E0F39E41C00C00000013000000020400003C0000000600000002000000000000E0FF3F8F400000000030D4C1BF00000000C4BB41
310
C0000000E0FF3F8FC00000000058D1C1BF00000000C4BB41C00C000000130000000A0400003C0000000600000002000000000000E0FF3F8FC00000000058D1C1BF00000000C4BB41C0000000E0FF3F8FC0000000006013A2BF000000E0F39E41C00C00000013000000120400003C0000000600000002000000000000E0FF3F
310
8F4000000000E4ABE7BF000000C03B3342C0000000E0FF3F8F400000000030D4C1BF00000000C4BB41C00C000000130000001A0400003C0000000600000002000000000000E0FF3F8F4000000000E4ABE7BF000000C03B3342C0000000E0FF3F8FC0000000002EABE7BF000000C03B3342C00C00000013000000220400003C
310
0000000600000002000000000000E0FF3F8FC0000000002EABE7BF000000C03B3342C0000000E0FF3F8FC00000000058D1C1BF00000000C4BB41C00C000000130000002A0400003C0000000600000002000000000000E0FF3F8F4000000000E09FEBBF000000C0385A42C0000000E0FF3F8F4000000000E4ABE7BF000000C0
310
3B3342C00C00000013000000320400003C0000000600000002000000000000E0FF3F8F4000000000E09FEBBF000000C0385A42C0000000E0FF3F8FC000000000289FEBBF000000C0385A42C00C000000130000003A0400003C0000000600000002000000000000E0FF3F8FC0000000002EABE7BF000000C03B3342C0000000
310
E0FF3F8FC000000000289FEBBF000000C0385A42C00C00000013000000420400003C0000000600000002000000000000E0FF3F8F4000000000E09FEBBF00000060B68342C0000000E0FF3F8F4000000000E09FEBBF000000C0385A42C00C000000130000004A0400003C0000000600000002000000000000E0FF3F8F400000
310
0000E09FEBBF00000060B68342C0000000E0FF3F8FC000000000289FEBBF00000060B68342C00C00000013000000520400003C0000000600000002000000000000E0FF3F8FC000000000289FEBBF00000060B68342C0000000E0FF3F8FC000000000289FEBBF000000C0385A42C00C000000130000005A0400003C00000006
310
00000002000000000000E0FF3F8F4000000000E2ABE7BF00000060B3AA42C0000000E0FF3F8F4000000000E09FEBBF00000060B68342C00C00000013000000620400003C0000000600000002000000000000E0FF3F8F4000000000E2ABE7BF00000060B3AA42C0000000E0FF3F8FC0000000002CABE7BF00000060B3AA42C0
310
0C000000130000006A0400003C0000000600000002000000000000E0FF3F8FC0000000002CABE7BF00000060B3AA42C0000000E0FF3F8FC000000000289FEBBF00000060B68342C00C00000013000000720400003C0000000600000002000000000000E0FF3F8F400000000030D4C1BF000000202B2243C0000000E0FF3F8F
310
4000000000E2ABE7BF00000060B3AA42C00C000000130000007A0400003C0000000600000002000000000000E0FF3F8F400000000030D4C1BF000000202B2243C0000000E0FF3F8FC00000000050D1C1BF000000202B2243C00C00000013000000820400003C0000000600000002000000000000E0FF3F8FC00000000050D1
310
C1BF000000202B2243C0000000E0FF3F8FC0000000002CABE7BF00000060B3AA42C00C000000130000008A0400003C0000000600000002000000000000E0FF3F8F4000000000C01EA2BF00000040FB3E43C0000000E0FF3F8F400000000030D4C1BF000000202B2243C00C00000013000000920400003C0000000600000002
310
000000000000E0FF3F8F4000000000C01EA2BF00000040FB3E43C0000000E0FF3F8FC0000000004013A2BF00000040FB3E43C00C000000130000009A0400003C0000000600000002000000000000E0FF3F8FC00000000050D1C1BF000000202B2243C0000000E0FF3F8FC0000000004013A2BF00000040FB3E43C00C000000
310
13000000A20400003C0000000600000002000000000000E0FF3F8F40000000000080083F000000E0E65D43C0000000E0FF3F8F4000000000C01EA2BF00000040FB3E43C00C00000013000000AA0400003C0000000600000002000000000000E0FF3F8F40000000000080083F000000E0E65D43C0000000E0FF3F8FC0000000
310
000080213F000000E0E65D43C00C00000013000000B20400003C0000000600000002000000000000E0FF3F8FC0000000000080213F000000E0E65D43C0000000E0FF3F8FC0000000004013A2BF00000040FB3E43C00C00000013000000BA0400003C0000000600000002000000000000E0FF3F8F40000000000080083F0000
310
00E0090045C0000000E0FF3F8F40000000000080083F000000E0E65D43C00C00000013000000C20400003C0000000600000002000000000000E0FF3F8F40000000000080083F000000E0090045C0000000E0FF3F8FC0000000000080213F000000E0090045C00C00000013000000CA0400003C000000060000000200000000
310
0000E0FF3F8FC0000000000080213F000000E0090045C0000000E0FF3F8FC0000000000080213F000000E0E65D43C00C00000013000000D20400003C0000000600000002000000000000E0FF3F8F40000000C0A1471FC0000000E0090045C0000000E0FF3F8F40000000000080083F000000E0090045C00C00000013000000
310
DA0400003C0000000600000002000000000000E0FF3F8F40000000C0A1471FC0000000E0090045C0000000E0FF3F8FC0000000008B471FC0000000E0090045C00C00000013000000E20400003C0000000600000002000000000000E0FF3F8FC0000000000080213F000000E0090045C0000000E0FF3F8FC0000000008B471F
310
C0000000E0090045C00C00000013000000EA0400003C0000000600000002000000000000E0FF3F8F40000000C0D02320C0000000C076F744C0000000E0FF3F8F40000000C0A1471FC0000000E0090045C00C00000013000000F20400003C0000000600000002000000000000E0FF3F8F40000000C0D02320C0000000C076F7
310
44C0000000E0FF3F8FC000000060C52320C0000000C076F744C00C00000013000000FA0400003C0000000600000002000000000000E0FF3F8FC0000000008B471FC0000000E0090045C0000000E0FF3F8FC000000060C52320C0000000C076F744C00C00000013000000020500003C0000000600000002000000000000E0FF
310
3F8F40000000A0848120C0000000E009E044C0000000E0FF3F8F40000000C0D02320C0000000C076F744C00C000000130000000A0500003C0000000600000002000000000000E0FF3F8F40000000A0848120C0000000E009E044C0000000E0FF3F8FC000000040798120C0000000E009E044C00C0000001300000012050000
310
3C0000000600000002000000000000E0FF3F8FC000000060C52320C0000000C076F744C0000000E0FF3F8FC000000040798120C0000000E009E044C00C000000130000001A0500003C0000000600000002000000000000E0FF3F8F40000000C0D0A320C0000000E009C044C0000000E0FF3F8F40000000A0848120C0000000
310
E009E044C00C00000013000000220500003C0000000600000002000000000000E0FF3F8F40000000C0D0A320C0000000E009C044C0000000E0FF3F8FC000000060C5A320C0000000E009C044C00C000000130000002A0500003C0000000600000002000000000000E0FF3F8FC000000060C5A320C0000000E009C044C00000
310
00E0FF3F8FC000000040798120C0000000E009E044C00C00000013000000320500003C0000000600000002000000000000E0FF3F8F4000000000D1A320C0000000005D9540C0000000E0FF3F8F40000000C0D0A320C0000000E009C044C00C000000130000003A0500003C0000000600000002000000000000E0FF3F8F4000
310
000000D1A320C0000000005D9540C0000000E0FF3F8FC000000080C5A320C0000000005D9540C00C00000013000000420500003C0000000600000002000000000000E0FF3F8FC000000080C5A320C0000000005D9540C0000000E0FF3F8FC000000060C5A320C0000000E009C044C00C000000130000004A0500003C000000
310
0600000002000000000000E0FF3F8F40000000001DC620C0000000005D7540C0000000E0FF3F8F4000000000D1A320C0000000005D9540C00C00000013000000520500003C0000000600000002000000000000E0FF3F8F40000000001DC620C0000000005D7540C0000000E0FF3F8FC0000000A011C620C0000000005D7540
310
C00C000000130000005A0500003C0000000600000002000000000000E0FF3F8FC000000080C5A320C0000000005D9540C0000000E0FF3F8FC0000000A011C620C0000000005D7540C00C00000013000000620500003C0000000600000002000000000000E0FF3F8F4000000000D12321C000000000F05D40C0000000E0FF3F
310
8F40000000001DC620C0000000005D7540C00C000000130000006A0500003C0000000600000002000000000000E0FF3F8F4000000000D12321C000000000F05D40C0000000E0FF3F8FC000000080C52321C000000000F05D40C00C00000013000000720500003C0000000600000002000000000000E0FF3F8FC0000000A011
310
C620C0000000005D7540C0000000E0FF3F8FC000000080C52321C000000000F05D40C00C000000130000007A0500003C0000000600000002000000000000E0FF3F8F4000000000D1A321C0000000005D5540C0000000E0FF3F8F4000000000D12321C000000000F05D40C00C00000013000000820500003C00000006000000
310
02000000000000E0FF3F8F4000000000D1A321C0000000005D5540C0000000E0FF3F8FC000000080C5A321C0000000005D5540C00C000000130000008A0500003C0000000600000002000000000000E0FF3F8FC000000080C5A321C0000000005D5540C0000000E0FF3F8FC000000080C52321C000000000F05D40C00C0000
310
0013000000920500003C0000000600000002000000000000E0FF3F8F40000000202D332EC0000000005D5540C0000000E0FF3F8F4000000000D1A321C0000000005D5540C00C000000130000009A0500003C0000000600000002000000000000E0FF3F8F40000000202D332EC0000000005D5540C0000000E0FF3F8FC00000
310
00A021332EC0000000005D5540C00C00000013000000A20500003C0000000600000002000000000000E0FF3F8FC0000000A021332EC0000000005D5540C0000000E0FF3F8FC000000080C5A321C0000000005D5540C00C00000013000000AA0500003C0000000600000002000000000000E0FF3F8F40000000202DB32EC000
310
000000CA4C40C0000000E0FF3F8F40000000202D332EC0000000005D5540C00C00000013000000B20500003C0000000600000002000000000000E0FF3F8F40000000202DB32EC000000000CA4C40C0000000E0FF3F8FC0000000A021B32EC000000000CA4C40C00C00000013000000BA0500003C0000000600000002000000
310
000000E0FF3F8FC0000000A021332EC0000000005D5540C0000000E0FF3F8FC0000000A021B32EC000000000CA4C40C00C00000013000000C20500003C0000000600000002000000000000E0FF3F8F4000000000E1102FC0000000005D3540C0000000E0FF3F8F40000000202DB32EC000000000CA4C40C00C000000130000
310
00CA0500003C0000000600000002000000000000E0FF3F8F4000000000E1102FC0000000005D3540C0000000E0FF3F8FC0000000A0D5102FC0000000005D3540C00C00000013000000D20500003C0000000600000002000000000000E0FF3F8FC0000000A021B32EC000000000CA4C40C0000000E0FF3F8FC0000000A0D510
310
2FC0000000005D3540C00C00000013000000DA0500003C0000000600000002000000000000E0FF3F8F40000000202D332FC0000000005D1540C0000000E0FF3F8F4000000000E1102FC0000000005D3540C00C00000013000000E20500003C0000000600000002000000000000E0FF3F8F40000000202D332FC0000000005D
310
1540C0000000E0FF3F8FC0000000A021332FC0000000005D1540C00C00000013000000EA0500003C0000000600000002000000000000E0FF3F8FC0000000A021332FC0000000005D1540C0000000E0FF3F8FC0000000A0D5102FC0000000005D3540C00C00000013000000F20500003C0000000600000002000000000000E0
310
FF3F8F40000000802D332FC000000020716627C0000000E0FF3F8F40000000202D332FC0000000005D1540C00C00000013000000FA0500003C0000000600000002000000000000E0FF3F8F40000000802D332FC000000020716627C0000000E0FF3F8FC00000000022332FC000000020716627C00C00000013000000020600
310
003C0000000600000002000000000000E0FF3F8FC00000000022332FC000000020716627C0000000E0FF3F8FC0000000A021332FC0000000005D1540C00C000000130000000A0600003C0000000600000002000000000000E0FF3F8F400000008079552FC00000002071E626C0000000E0FF3F8F40000000802D332FC00000
310
0020716627C00C00000013000000120600003C0000000600000002000000000000E0FF3F8F400000008079552FC00000002071E626C0000000E0FF3F8FC0000000206E552FC00000002071E626C00C000000130000001A0600003C0000000600000002000000000000E0FF3F8FC00000000022332FC000000020716627C000
310
0000E0FF3F8FC0000000206E552FC00000002071E626C00C00000013000000220600003C0000000600000002000000000000E0FF3F8F40000000602DB32FC000000040BD8826C0000000E0FF3F8F400000008079552FC00000002071E626C00C000000130000002A0600003C0000000600000002000000000000E0FF3F8F40
310
000000602DB32FC000000040BD8826C0000000E0FF3F8FC0000000E021B32FC000000040BD8826C00C00000013000000320600003C0000000600000002000000000000E0FF3F8FC0000000206E552FC00000002071E626C0000000E0FF3F8FC0000000E021B32FC000000040BD8826C00C000000130000003A0600003C0000
310
000600000002000000000000E0FF3F8F4000000080961930C000000000716626C0000000E0FF3F8F40000000602DB32FC000000040BD8826C00C00000013000000420600003C0000000600000002000000000000E0FF3F8F4000000080961930C000000000716626C0000000E0FF3F8FC0000000E0901930C0000000007166
310
26C00C000000130000004A0600003C0000000600000002000000000000E0FF3F8FC0000000E0901930C000000000716626C0000000E0FF3F8FC0000000E021B32FC000000040BD8826C00C00000013000000520600003C0000000600000002000000000000E0FF3F8F4000000000FD7F39C000000040716626C0000000E0FF
310
3F8F4000000080961930C000000000716626C00C000000130000005A0600003C0000000600000002000000000000E0FF3F8F4000000000FD7F39C000000040716626C0000000E0FF3F8FC000000040F77F39C000000040716626C00C00000013000000620600003C0000000600000002000000000000E0FF3F8FC000000040
310
F77F39C000000040716626C0000000E0FF3F8FC0000000E0901930C000000000716626C00C000000130000006A0600003C0000000600000002000000000000E0FF3F8F4000000000FD7F39C000000040716626C0000000E0FF3F8F4000000000FDBF39C000000020254426C00C00000013000000720600003C000000060000
310
0002000000000000E0FF3F8F4000000000FDBF39C000000020254426C0000000E0FF3F8FC000000040F7BF39C000000020254426C00C000000130000007A0600003C0000000600000002000000000000E0FF3F8FC000000040F77F39C000000040716626C0000000E0FF3F8FC000000040F7BF39C000000020254426C00C00
310
000013000000820600003C0000000600000002000000000000E0FF3F8F4000000000D7EE39C00000004071E625C0000000E0FF3F8F4000000000FDBF39C000000020254426C00C000000130000008A0600003C0000000600000002000000000000E0FF3F8F4000000000D7EE39C00000004071E625C0000000E0FF3F8FC000
310
000040D1EE39C00000004071E625C00C00000013000000920600003C0000000600000002000000000000E0FF3F8FC000000040F7BF39C000000020254426C0000000E0FF3F8FC000000040D1EE39C00000004071E625C00C000000130000009A0600003C0000000600000002000000000000E0FF3F8F4000000040FDFF39C0
310
00000040716625C0000000E0FF3F8F4000000000D7EE39C00000004071E625C00C00000013000000A20600003C0000000600000002000000000000E0FF3F8F4000000040FDFF39C000000040716625C0000000E0FF3F8FC000000080F7FF39C000000040716625C00C00000013000000AA0600003C00000006000000020000
310
00000000E0FF3F8FC000000080F7FF39C000000040716625C0000000E0FF3F8FC000000040D1EE39C00000004071E625C00C00000013000000B20600003C0000000600000002000000000000E0FF3F8F4000000040FDFF39C0000000000000C0BE000000E0FF3F8F4000000040FDFF39C000000040716625C00C0000001300
310
0000BA0600003C0000000600000002000000000000E0FF3F8FC000000080F7FF39C000000040716625C0000000E0FF3F8FC000000080F7FF39C0000000000000C0BE0C00000013000000C20600003C0000000600000002000000000000E0FF3F8FC000000040F77F39C000000040716626C0000000E0FF3F8FC0000000C0C0
310
BE2EC000000000AE82F2BF0C00000013000000CA0600003C0000000600000002000000000000E0FF3F8FC0000000E0901930C000000000716626C0000000E0FF3F8FC0000000600FD22DC00000000013140CC00C00000013000000D20600003C0000000600000002000000000000E0FF3F8FC000000080F7FF39C000000040
310
716625C0000000E0FF3F8FC000000080205C36C0000000000000C0BE0C00000013000000DA0600003C0000000600000002000000000000E0FF3F8FC000000000381736C000000000C048A0BF000000E0FF3F8FC000000040D1EE39C00000004071E625C00C00000013000000E20600003C0000000600000002000000000000
310
E0FF3F8FC0000000C001D735C0000000008001C0BF000000E0FF3F8FC000000040F7BF39C000000020254426C00C00000013000000EA0600003C0000000600000002000000000000E0FF3F8FC000000040F77F39C000000040716626C0000000E0FF3F8FC000000000D6C434C00000000040C2E5BF0C00000013000000F206
310
00003C0000000600000002000000000000E0FF3F8FC000000040F77F39C000000040716626C0000000E0FF3F8FC000000080AF4634C00000000000C0E9BF0C00000013000000FA0600003C0000000600000002000000000000E0FF3F8FC0000000A021332FC0000000005D1540C0000000E0FF3F8FC0000000A0C5A320C000
310
0000E077C636C00C00000013000000020700003C0000000600000002000000000000E0FF3F8FC00000000022332FC000000020716627C0000000E0FF3F8FC0000000C0C5A320C0000000E0D4CC20C00C000000130000000A0700003C0000000600000002000000000000E0FF3F8FC00000000022332FC000000020716627C0
310
000000E0FF3F8FC0000000E0040C21C0000000404DFC1CC00C00000013000000120700003C0000000600000002000000000000E0FF3F8FC00000000022332FC000000020716627C0000000E0FF3F8FC0000000A08C3A22C00000004096D218C00C000000130000001A0700003C0000000600000002000000000000E0FF3F8F
310
C000000060C21124C000000040D28415C0000000E0FF3F8FC0000000206E552FC00000002071E626C00C00000013000000220700003C0000000600000002000000000000E0FF3F8FC0000000A0826326C000000040D06513C0000000E0FF3F8FC0000000206E552FC00000002071E626C00C000000130000002A0700003C00
310
00000600000002000000000000E0FF3F8FC000000060B1F528C0000000C0B3AA12C0000000E0FF3F8FC0000000206E552FC00000002071E626C00C00000013000000320700003C0000000600000002000000000000E0FF3F8FC00000006079BF2AC0000000C0B3AA12C0000000E0FF3F8FC0000000E021B32FC000000040BD
310
8826C00C000000130000003A0700003C0000000600000002000000000000E0FF3F8FC000000020A7D02BC0000000003F5412C0000000E0FF3F8FC0000000E021B32FC000000040BD8826C00C00000013000000420700003C0000000600000002000000000000E0FF3F8FC0000000C0E1C02CC0000000804D5B11C0000000E0
310
FF3F8FC0000000E021B32FC000000040BD8826C00C000000130000004A0700003C0000000600000002000000000000E0FF3F8FC0000000E0901930C000000000716626C0000000E0FF3F8FC0000000C02F732DC000000080CBBB0FC00C00000013000000520700003C0000000600000002000000000000E0FF3F8FC0000000
310
40F77F39C000000040716626C0000000E0FF3F8FC000000080D8C633C0000000004481E6BF0C000000130000005A0700003C0000000600000002000000000000E0FF3F8FC000000040F77F39C000000040716626C0000000E0FF3F8FC000000080A01D2FC0000000007866E6BF0C00000013000000620700003C0000000600
310
000002000000000000E0FF3F8FC000000040F77F39C000000040716626C0000000E0FF3F8FC000000080EECF2FC00000000078F6D4BF0C000000130000006A0700003C0000000600000002000000000000E0FF3F8FC000000040F77F39C000000040716626C0000000E0FF3F8FC000000040ABE830C0000000000000D0BE0C
310
00000013000000720700003C0000000600000002000000000000E0FF3F8FC000000040F77F39C000000040716626C0000000E0FF3F8FC000000080146030C000000000809DB5BF0C000000130000007A0700003C0000000600000002000000000000E0FF3F8FC000000040F77F39C000000040716626C0000000E0FF3F8FC0
310
000000C05A3B32C00000000000699ABF0C00000013000000820700003C0000000600000002000000000000E0FF3F8FC000000040F77F39C000000040716626C0000000E0FF3F8FC0000000C033FD31C0000000000000D0BE0C000000130000008A0700003C0000000600000002000000000000E0FF3F8FC000000040F77F39
310
C000000040716626C0000000E0FF3F8FC0000000A0127632C000000000200BBABF0C00000013000000920700003C0000000600000002000000000000E0FF3F8FC000000080C5A321C0000000005D5540C0000000E0FF3F8FC0000000C06C370EC0000000A04B3D39C00C000000130000009A0700003C000000060000000200
310
0000000000E0FF3F8FC0000000A021332EC0000000005D5540C0000000E0FF3F8FC000000000762C1DC0000000A0411738C00C00000013000000A20700003C0000000600000002000000000000E0FF3F8FC000000000736220C0000000C06C5437C0000000E0FF3F8FC0000000A0D5102FC0000000005D3540C00C00000013
310
000000AA0700003C0000000600000002000000000000E0FF3F8FC00000004056521FC00000000029CB37C0000000E0FF3F8FC0000000A021B32EC000000000CA4C40C00C00000013000000B20700003C0000000600000002000000000000E0FF3F8FC000000000E25605C00000004028C939C0000000E0FF3F8FC000000080
310
C52321C000000000F05D40C00C00000013000000BA0700003C0000000600000002000000000000E0FF3F8FC000000080C5A320C0000000005D9540C0000000E0FF3F8FC0000000004CA3F0BF0000008056E13EC00C00000013000000C20700003C0000000600000002000000000000E0FF3F8FC000000080C5A320C0000000
310
005D9540C0000000E0FF3F8FC0000000004CA3F0BF000000C065BF3CC00C00000013000000CA0700003C0000000600000002000000000000E0FF3F8FC000000000EDB7F3BF0000008000A03BC0000000E0FF3F8FC0000000A011C620C0000000005D7540C00C00000013000000D20700003C00000006000000020000000000
310
00E0FF3F8FC000000000D5ACFCBF00000040359B3AC0000000E0FF3F8FC000000080C52321C000000000F05D40C00C00000013000000DA0700003C0000000600000002000000000000E0FF3F8FC000000000D5ACFCBF00000040359B3AC0000000E0FF3F8FC0000000A011C620C0000000005D7540C00C00000013000000E2
310
0700003C0000000600000002000000000000E0FF3F8FC0000000000080213F000000E0E65D43C0000000E0FF3F8FC0000000008B471FC0000000E0090045C00C00000013000000EA0700003C0000000600000002000000000000E0FF3F8FC0000000004013A2BF00000040FB3E43C0000000E0FF3F8FC000000060C52320C0
310
000000C076F744C00C00000013000000F20700003C0000000600000002000000000000E0FF3F8FC00000000050D1C1BF000000202B2243C0000000E0FF3F8FC000000040798120C0000000E009E044C00C00000013000000FA0700003C0000000600000002000000000000E0FF3F8FC000000060C5A320C0000000E009C044
310
C0000000E0FF3F8FC0000000002CABE7BF00000060B3AA42C00C00000013000000020800003C0000000600000002000000000000E0FF3F8FC000000060C5A320C0000000E009C044C0000000E0FF3F8FC000000000289FEBBF00000060B68342C00C000000130000000A0800003C0000000600000002000000000000E0FF3F
310
8FC000000080C5A320C0000000005D9540C0000000E0FF3F8FC000000000F0E8EEBF000000405D4E3FC00C00000013000000120800003C0000000600000002000000000000E0FF3F8FC000000080C5A320C0000000005D9540C0000000E0FF3F8FC0000000006809E8BF000000800EB13FC00C000000130000001A0800003C
310
0000000600000002000000000000E0FF3F8FC000000060C5A320C0000000E009C044C0000000E0FF3F8FC000000000289FEBBF000000C0385A42C00C00000013000000220800003C0000000600000002000000000000E0FF3F8FC000000060C5A320C0000000E009C044C0000000E0FF3F8FC0000000002EABE7BF000000C0
310
3B3342C00C000000130000002A0800003C0000000600000002000000000000E0FF3F8FC000000080C5A320C0000000005D9540C0000000E0FF3F8FC00000000058D1C1BF00000000C4BB41C00C00000013000000320800003C0000000600000002000000000000E0FF3F8FC000000080C5A320C0000000005D9540C0000000
310
E0FF3F8FC0000000006013A2BF000000E0F39E41C00C000000130000003A0800003C0000000600000002000000000000E0FF3F8FC0000000000080213F00000040088041C0000000E0FF3F8FC000000080C5A320C0000000005D9540C00C00000013000000420800003C0000000600000002000000000000E0FF3F8FC00000
310
00000080213F000000809A5F40C0000000E0FF3F8FC000000080C5A320C0000000005D9540C00C000000130000004A0800003C0000000600000002000000000000E0FF3F8FC000000080C5A320C0000000005D9540C0000000E0FF3F8FC000000000E012BCBF000000202D2A40C00C00000013000000520800003C00000006
310
00000002000000000000E0FF3F8FC000000080C5A320C0000000005D9540C0000000E0FF3F8FC000000000909DDABF000000A0070040C00C000000130000005A0800003C0000000600000002000000000000E0FF3F8F4000000080961930C000000000716626C0000000E0FF3F8F40000000C01AD22DC00000000013140CC0
310
0C00000013000000620800003C0000000600000002000000000000E0FF3F8F4000000000FD7F39C000000040716626C0000000E0FF3F8F4000000040CCBE2EC000000000AE82F2BF0C000000130000006A0800003C0000000600000002000000000000E0FF3F8F4000000040265C36C0000000000000C0BE000000E0FF3F8F
310
4000000040FDFF39C000000040716625C00C00000013000000720800003C0000000600000002000000000000E0FF3F8F400000008007D735C0000000008001C0BF000000E0FF3F8F4000000000FDBF39C000000020254426C00C000000130000007A0800003C0000000600000002000000000000E0FF3F8F40000000C03D17
310
36C000000000C048A0BF000000E0FF3F8F4000000000D7EE39C00000004071E625C00C00000013000000820800003C0000000600000002000000000000E0FF3F8F4000000000FD7F39C000000040716626C0000000E0FF3F8F40000000C0DBC434C00000000040C2E5BF0C000000130000008A0800003C0000000600000002
310
000000000000E0FF3F8F4000000000FD7F39C000000040716626C0000000E0FF3F8F4000000040B54634C00000000000C0E9BF0C00000013000000920800003C0000000600000002000000000000E0FF3F8F40000000802D332FC000000020716627C0000000E0FF3F8F4000000040D1A320C0000000E0D4CC20C00C000000
310
130000009A0800003C0000000600000002000000000000E0FF3F8F40000000202D332FC0000000005D1540C0000000E0FF3F8F4000000000D1A320C0000000E077C636C00C00000013000000A20800003C0000000600000002000000000000E0FF3F8F40000000802D332FC000000020716627C0000000E0FF3F8F40000000
310
40100C21C0000000404DFC1CC00C00000013000000AA0800003C0000000600000002000000000000E0FF3F8F40000000802D332FC000000020716627C0000000E0FF3F8F4000000000983A22C00000004096D218C00C00000013000000B20800003C0000000600000002000000000000E0FF3F8F400000008079552FC00000
310
002071E626C0000000E0FF3F8F40000000008E6326C000000040D06513C00C00000013000000BA0800003C0000000600000002000000000000E0FF3F8F400000008079552FC00000002071E626C0000000E0FF3F8F40000000C0CD1124C000000040D28415C00C00000013000000C20800003C000000060000000200000000
310
0000E0FF3F8F400000008079552FC00000002071E626C0000000E0FF3F8F40000000C0BCF528C0000000C0B3AA12C00C00000013000000CA0800003C0000000600000002000000000000E0FF3F8F40000000602DB32FC000000040BD8826C0000000E0FF3F8F4000000080B2D02BC0000000003F5412C00C00000013000000
310
D20800003C0000000600000002000000000000E0FF3F8F40000000602DB32FC000000040BD8826C0000000E0FF3F8F40000000C084BF2AC0000000C0B3AA12C00C00000013000000DA0800003C0000000600000002000000000000E0FF3F8F40000000602DB32FC000000040BD8826C0000000E0FF3F8F4000000040EDC02C
310
C0000000804D5B11C00C00000013000000E20800003C0000000600000002000000000000E0FF3F8F4000000080961930C000000000716626C0000000E0FF3F8F40000000403B732DC000000000CCBB0FC00C00000013000000EA0800003C0000000600000002000000000000E0FF3F8F4000000000FD7F39C0000000407166
310
26C0000000E0FF3F8F4000000040DEC633C0000000004481E6BF0C00000013000000F20800003C0000000600000002000000000000E0FF3F8F4000000000FD7F39C000000040716626C0000000E0FF3F8F4000000000AC1D2FC0000000007866E6BF0C00000013000000FA0800003C0000000600000002000000000000E0FF
310
3F8F4000000000FD7F39C000000040716626C0000000E0FF3F8F40000000E0F9CF2FC00000000078F6D4BF0C00000013000000020900003C0000000600000002000000000000E0FF3F8F4000000000FD7F39C000000040716626C0000000E0FF3F8F40000000401A6030C000000000809DB5BF0C000000130000000A090000
310
3C0000000600000002000000000000E0FF3F8F4000000000FD7F39C000000040716626C0000000E0FF3F8F4000000000B1E830C0000000000000D0BE0C00000013000000120900003C0000000600000002000000000000E0FF3F8F4000000000FD7F39C000000040716626C0000000E0FF3F8F400000008039FD31C0000000
310
000000D0BE0C000000130000001A0900003C0000000600000002000000000000E0FF3F8F4000000000FD7F39C000000040716626C0000000E0FF3F8F4000000080603B32C00000000000699ABF0C00000013000000220900003C0000000600000002000000000000E0FF3F8F4000000000FD7F39C000000040716626C00000
310
00E0FF3F8F4000000060187632C000000000200BBABF0C000000130000002A0900003C0000000600000002000000000000E0FF3F8F40000000202D332EC0000000005D5540C0000000E0FF3F8F40000000E08C2C1DC0000000A0411738C00C00000013000000320900003C0000000600000002000000000000E0FF3F8F4000
310
000000D1A321C0000000005D5540C0000000E0FF3F8F40000000809A370EC0000000A04B3D39C00C000000130000003A0900003C0000000600000002000000000000E0FF3F8F4000000000E1102FC0000000005D3540C0000000E0FF3F8F40000000807E6220C0000000C06C5437C00C00000013000000420900003C000000
310
0600000002000000000000E0FF3F8F40000000202DB32EC000000000CA4C40C0000000E0FF3F8F40000000206D521FC00000000029CB37C00C000000130000004A0900003C0000000600000002000000000000E0FF3F8F4000000000D12321C000000000F05D40C0000000E0FF3F8F40000000C00F5705C00000004028C939
310
C00C00000013000000520900003C0000000600000002000000000000E0FF3F8F4000000000D1A320C0000000005D9540C0000000E0FF3F8F4000000000A7A3F0BF000000C065BF3CC00C000000130000005A0900003C0000000600000002000000000000E0FF3F8F4000000000D1A320C0000000005D9540C0000000E0FF3F
310
8F4000000000A7A3F0BF0000008056E13EC00C00000013000000620900003C0000000600000002000000000000E0FF3F8F40000000001DC620C0000000005D7540C0000000E0FF3F8F400000000048B8F3BF0000008000A03BC00C000000130000006A0900003C0000000600000002000000000000E0FF3F8F4000000000D1
310
2321C000000000F05D40C0000000E0FF3F8F400000000031ADFCBF00000040359B3AC00C00000013000000720900003C0000000600000002000000000000E0FF3F8F40000000001DC620C0000000005D7540C0000000E0FF3F8F400000000031ADFCBF00000040359B3AC00C000000130000007A0900003C00000006000000
310
02000000000000E0FF3F8F40000000C0A1471FC0000000E0090045C0000000E0FF3F8F40000000000080083F000000E0E65D43C00C00000013000000820900003C0000000600000002000000000000E0FF3F8F40000000C0D02320C0000000C076F744C0000000E0FF3F8F4000000000C01EA2BF00000040FB3E43C00C0000
310
00130000008A0900003C0000000600000002000000000000E0FF3F8F40000000A0848120C0000000E009E044C0000000E0FF3F8F400000000030D4C1BF000000202B2243C00C00000013000000920900003C0000000600000002000000000000E0FF3F8F40000000C0D0A320C0000000E009C044C0000000E0FF3F8F400000
310
0000E09FEBBF00000060B68342C00C000000130000009A0900003C0000000600000002000000000000E0FF3F8F40000000C0D0A320C0000000E009C044C0000000E0FF3F8F4000000000E2ABE7BF00000060B3AA42C00C00000013000000A20900003C0000000600000002000000000000E0FF3F8F4000000000D1A320C000
310
0000005D9540C0000000E0FF3F8F4000000000A8E9EEBF000000405D4E3FC00C00000013000000AA0900003C0000000600000002000000000000E0FF3F8F4000000000D1A320C0000000005D9540C0000000E0FF3F8F40000000001E0AE8BF000000800EB13FC00C00000013000000B20900003C0000000600000002000000
310
000000E0FF3F8F40000000C0D0A320C0000000E009C044C0000000E0FF3F8F4000000000E09FEBBF000000C0385A42C00C00000013000000BA0900003C0000000600000002000000000000E0FF3F8F40000000C0D0A320C0000000E009C044C0000000E0FF3F8F4000000000E4ABE7BF000000C03B3342C00C000000130000
310
00C20900003C0000000600000002000000000000E0FF3F8F4000000000D1A320C0000000005D9540C0000000E0FF3F8F4000000000C01EA2BF000000E0F39E41C00C00000013000000CA0900003C0000000600000002000000000000E0FF3F8F4000000000D1A320C0000000005D9540C0000000E0FF3F8F400000000030D4
310
C1BF00000000C4BB41C00C00000013000000D20900003C0000000600000002000000000000E0FF3F8F4000000000D1A320C0000000005D9540C0000000E0FF3F8F40000000000000083F000000809A5F40C00C00000013000000DA0900003C0000000600000002000000000000E0FF3F8F4000000000D1A320C0000000005D
310
9540C0000000E0FF3F8F40000000000000083F00000040088041C00C00000013000000E20900003C0000000600000002000000000000E0FF3F8F4000000000D1A320C0000000005D9540C0000000E0FF3F8F40000000009018BCBF000000202D2A40C00C00000013000000EA0900003C0000000600000002000000000000E0
310
FF3F8F4000000000D1A320C0000000005D9540C0000000E0FF3F8F4000000000009FDABF000000A0070040C0
100
AcDbSubDMesh
 71
     2
 72
     0
 91
        0
 92
      144
 10
999.9999389648436
 20
-25.49995422363281
 30
-11.20008277893066
 10
999.9999389648436
 20
-16.0999526977539
 30
-11.20008087158203
 10
999.9999389648436
 20
-15.84995555877685
 30
-11.26706886291504
 10
999.9999389648436
 20
-15.66694259643554
 30
-11.45008182525635
 10
999.9999389648436
 20
-15.59995651245117
 30
-11.70008182525634
 10
999.9999389648436
 20
-15.59995365142822
 30
-32.16690063476562
 10
999.9999389648436
 20
-15.53296661376953
 30
-32.41690063476563
 10
999.9999389648436
 20
-15.34995365142822
 30
-32.59991455078125
 10
999.9999389648436
 20
-15.09995365142822
 30
-32.66690063476563
 10
999.9999389648436
 20
-8.819953918457031
 30
-32.66690063476563
 10
999.9999389648436
 20
-8.569953918457031
 30
-32.73388671875
 10
999.9999389648436
 20
-8.386940002441406
 30
-32.91690063476563
 10
999.9999389648436
 20
-8.319953918457031
 30
-33.16690063476563
 10
999.9999389648436
 20
-8.319952011108398
 30
-41.50030136108398
 10
999.9999389648436
 20
-8.252964973449707
 30
-41.75030136108398
 10
999.9999389648436
 20
-8.069952011108398
 30
-41.93331146240234
 10
999.9999389648436
 20
-7.819952964782714
 30
-42.00030136108398
 10
999.9999389648436
 20
0.0000467300415039
 30
-42.00030136108398
 10
999.9999389648436
 20
0.0000467300415039
 30
-38.73360824584961
 10
999.9999389648436
 20
-0.0353908538818359
 30
-38.49204254150391
 10
999.9999389648436
 20
-0.1392879486083984
 30
-38.26694107055664
 10
999.9999389648436
 20
-0.7397317886352539
 30
-37.33359909057617
 10
999.9999389648436
 20
-0.8632659912109375
 30
-37.02900314331055
 10
999.9999389648436
 20
-0.8632659912109375
 30
-36.70485687255859
 10
999.9999389648436
 20
-0.7397327423095704
 30
-36.40026092529297
 10
999.9999389648436
 20
-0.1392879486083984
 30
-35.4669189453125
 10
999.9999389648436
 20
-0.0353908538818359
 30
-35.24181747436524
 10
999.9999389648436
 20
0.0000457763671875
 30
-35.00025177001953
 10
999.9999389648436
 20
0.0000457763671875
 30
-32.74690246582031
 10
999.9999389648436
 20
-0.1097497940063477
 30
-32.32950210571289
 10
999.9999389648436
 20
-0.41595458984375
 30
-32.0002326965332
 10
999.9999389648436
 20
-0.7512350082397461
 30
-31.69162750244141
 10
999.9999389648436
 20
-0.9660224914550781
 30
-31.30611038208008
 10
999.9999389648436
 20
-1.039954185485839
 30
-30.88022613525391
 10
999.9999389648436
 20
-1.039954185485839
 30
-28.74764633178711
 10
999.9999389648436
 20
-1.232490539550781
 30
-27.62500762939453
 10
999.9999389648436
 20
-1.792283058166503
 30
-26.60628128051758
 10
999.9999389648436
 20
-2.667510509490966
 30
-25.78577041625977
 10
999.9999389648436
 20
-3.777150154113769
 30
-25.23943519592285
 10
999.9999389648436
 20
-7.293506145477294
 30
-24.09084510803223
 10
999.9999389648436
 20
-7.830494403839111
 30
-23.79359436035156
 10
999.9999389648436
 20
-8.192371368408203
 30
-23.32978439331055
 10
999.9999389648436
 20
-8.319953918457031
 30
-22.77526664733887
 10
999.9999389648436
 20
-8.319955825805664
 30
-8.400061607360839
 10
999.9999389648436
 20
-8.523561477661132
 30
-7.246388435363769
 10
999.9999389648436
 20
-9.11444091796875
 30
-6.20565128326416
 10
999.9999389648436
 20
-10.0347728729248
 30
-5.379708290100097
 10
999.9999389648436
 20
-11.19444274902344
 30
-4.849427223205566
 10
999.9999389648436
 20
-12.47995567321777
 30
-4.666701316833496
 10
999.9999389648436
 20
-13.37405967712402
 30
-4.666701316833496
 10
999.9999389648436
 20
-13.90761184692383
 30
-4.582271575927734
 10
999.9999389648436
 20
-14.37681007385254
 30
-4.339162826538085
 10
999.9999389648436
 20
-14.72506141662598
 30
-3.966697692871093
 10
999.9999389648436
 20
-14.91036033630371
 30
-3.509801864624023
 10
999.9999389648436
 20
-15.37265205383301
 30
-1.156904220581054
 10
999.9999389648436
 20
-15.55795288085937
 30
-0.7000083923339844
 10
999.9999389648436
 20
-15.90620326995849
 30
-0.3275432586669922
 10
999.9999389648436
 20
-16.37540054321289
 30
-0.0844345092773438
 10
999.9999389648436
 20
-16.90895080566406
 30
-0.0000038146972656
 10
999.9999389648436
 20
-17.98915863037109
 30
-0.0000038146972656
 10
999.9999389648436
 20
-18.23194122314453
 30
-0.0257911682128906
 10
999.9999389648436
 20
-18.4613094329834
 30
-0.1017322540283203
 10
999.9999389648436
 20
-19.77682876586914
 30
-0.7032794952392579
 10
999.9999389648436
 20
-20.27620315551758
 30
-0.8046875
 10
999.9999389648436
 20
-20.76897811889649
 30
-0.679962158203125
 10
999.9999389648436
 20
-21.83995819091797
 30
-0.1250457763671875
 10
999.9999389648436
 20
-22.09078598022461
 30
-0.0318050384521484
 10
999.9999389648436
 20
-22.35995864868164
 30
-0.0000019073486328
 10
999.9999389648436
 20
-25.99995803833008
 30
-0.0000019073486328
 10
999.9999389648436
 20
-25.99995803833008
 30
-10.70008277893066
 10
999.9999389648436
 20
-25.93296813964844
 30
-10.95008277893066
 10
999.9999389648436
 20
-25.74995422363282
 30
-11.13309574127197
 10
-999.9999389648436
 20
-25.49986648559571
 30
-11.20008277893066
 10
-999.9999389648436
 20
-16.09986686706543
 30
-11.20008087158203
 10
-999.9999389648436
 20
0.0001335144042969
 30
-42.00030136108398
 10
-999.9999389648436
 20
0.0001335144042969
 30
-38.73360824584961
 10
-999.9999389648436
 20
0.0001335144042969
 30
-35.00025177001953
 10
-999.9999389648436
 20
0.0001335144042969
 30
-32.74690246582031
 10
-999.9999389648436
 20
-8.319866180419921
 30
-33.16690063476563
 10
-999.9999389648436
 20
-8.319865226745605
 30
-41.50030136108398
 10
-999.9999389648436
 20
-15.09986591339111
 30
-32.66690063476563
 10
-999.9999389648436
 20
-8.819866180419921
 30
-32.66690063476563
 10
-999.9999389648436
 20
-15.59986877441406
 30
-11.70008182525634
 10
-999.9999389648436
 20
-15.59986591339111
 30
-32.16690063476562
 10
-999.9999389648436
 20
-14.91027355194091
 30
-3.509801864624023
 10
-999.9999389648436
 20
-15.3725643157959
 30
-1.156904220581054
 10
-999.9999389648436
 20
-1.039867401123046
 30
-30.88022613525391
 10
-999.9999389648436
 20
-1.039867401123046
 30
-28.74764633178711
 10
-999.9999389648436
 20
-12.47986888885498
 30
-4.666701316833496
 10
-999.9999389648436
 20
-13.37397289276123
 30
-4.666701316833496
 10
-999.9999389648436
 20
-3.777062892913818
 30
-25.23943519592285
 10
-999.9999389648436
 20
-7.293418884277343
 30
-24.09084510803223
 10
-999.9999389648436
 20
-8.319867134094238
 30
-22.77526664733887
 10
-999.9999389648436
 20
-8.319868087768554
 30
-8.400061607360839
 10
-999.9999389648436
 20
-0.1392002105712891
 30
-38.26694107055664
 10
-999.9999389648436
 20
-0.739645004272461
 30
-37.33359909057617
 10
-999.9999389648436
 20
-0.7396459579467774
 30
-36.40026092529297
 10
-999.9999389648436
 20
-0.1392011642456055
 30
-35.4669189453125
 10
-999.9999389648436
 20
-0.0353031158447266
 30
-38.49204254150391
 10
-999.9999389648436
 20
-0.8631782531738281
 30
-37.02900314331055
 10
-999.9999389648436
 20
-0.8631782531738281
 30
-36.70485687255859
 10
-999.9999389648436
 20
-0.035304069519043
 30
-35.24181747436524
 10
-999.9999389648436
 20
-13.90752506256103
 30
-4.582271575927734
 10
-999.9999389648436
 20
-14.37672233581543
 30
-4.339162826538085
 10
-999.9999389648436
 20
-14.72497367858887
 30
-3.966696739196777
 10
-999.9999389648436
 20
-0.4158668518066407
 30
-32.0002326965332
 10
-999.9999389648436
 20
-0.7511482238769532
 30
-31.69162750244141
 10
-999.9999389648436
 20
-0.9659347534179687
 30
-31.30611038208008
 10
-999.9999389648436
 20
-8.523474693298339
 30
-7.246388435363769
 10
-999.9999389648436
 20
-9.114354133605957
 30
-6.20565128326416
 10
-999.9999389648436
 20
-10.03468608856201
 30
-5.379708290100097
 10
-999.9999389648436
 20
-11.19435596466064
 30
-4.849427223205566
 10
-999.9999389648436
 20
-1.232403755187988
 30
-27.62500762939453
 10
-999.9999389648436
 20
-1.792195320129394
 30
-26.60628128051758
 10
-999.9999389648436
 20
-2.667423248291015
 30
-25.78577041625977
 10
-999.9999389648436
 20
-7.83040714263916
 30
-23.79359436035156
 10
-999.9999389648436
 20
-8.192283630371093
 30
-23.32978439331055
 10
-999.9999389648436
 20
-0.1096630096435547
 30
-32.32950210571289
 10
-999.9999389648436
 20
-25.99987030029297
 30
-10.70008277893066
 10
-999.9999389648436
 20
-25.99987030029297
 30
-0.0000019073486328
 10
-999.9999389648436
 20
-22.35987091064453
 30
-0.0000019073486328
 10
-999.9999389648436
 20
-22.0906982421875
 30
-0.0318050384521484
 10
-999.9999389648436
 20
-21.83987045288086
 30
-0.1250457763671875
 10
-999.9999389648436
 20
-20.76889038085937
 30
-0.679962158203125
 10
-999.9999389648436
 20
-20.27611541748047
 30
-0.8046875
 10
-999.9999389648436
 20
-19.77674102783203
 30
-0.7032794952392579
 10
-999.9999389648436
 20
-18.46122169494629
 30
-0.1017322540283203
 10
-999.9999389648436
 20
-18.23185348510742
 30
-0.0257911682128906
 10
-999.9999389648436
 20
-17.98907089233398
 30
-0.0000038146972656
 10
-999.9999389648436
 20
-16.90886306762695
 30
-0.0000038146972656
 10
-999.9999389648436
 20
-16.37531280517578
 30
-0.0844345092773438
 10
-999.9999389648436
 20
-15.9061164855957
 30
-0.3275432586669922
 10
-999.9999389648436
 20
-15.55786514282226
 30
-0.7000083923339844
 10
-999.9999389648436
 20
-7.819866180419921
 30
-42.00030136108398
 10
-999.9999389648436
 20
-8.069865226745605
 30
-41.93331146240234
 10
-999.9999389648436
 20
-8.252878189086914
 30
-41.75030136108398
 10
-999.9999389648436
 20
-8.386853218078613
 30
-32.91690063476563
 10
-999.9999389648436
 20
-8.569866180419921
 30
-32.73388671875
 10
-999.9999389648436
 20
-15.34986591339111
 30
-32.59991455078125
 10
-999.9999389648436
 20
-15.53287982940674
 30
-32.41690063476563
 10
-999.9999389648436
 20
-15.66685581207275
 30
-11.45008182525635
 10
-999.9999389648436
 20
-15.84986782073974
 30
-11.26706886291504
 10
-999.9999389648436
 20
-25.7498664855957
 30
-11.13309574127197
 10
-999.9999389648436
 20
-25.93288040161133
 30
-10.95008277893066
 93
      812
 90
        4
 90
       68
 90
       67
 90
      120
 90
      119
 90
        4
 90
       67
 90
       66
 90
      121
 90
      120
 90
        4
 90
       66
 90
       65
 90
      122
 90
      121
 90
        4
 90
       65
 90
       64
 90
      123
 90
      122
 90
        4
 90
       64
 90
       63
 90
      124
 90
      123
 90
        4
 90
       63
 90
       62
 90
      125
 90
      124
 90
        4
 90
       62
 90
       61
 90
      126
 90
      125
 90
        4
 90
       61
 90
       60
 90
      127
 90
      126
 90
        4
 90
       60
 90
       59
 90
      128
 90
      127
 90
        4
 90
       59
 90
       58
 90
      129
 90
      128
 90
        4
 90
       58
 90
       57
 90
      130
 90
      129
 90
        4
 90
       57
 90
       56
 90
      131
 90
      130
 90
        4
 90
       56
 90
       55
 90
      132
 90
      131
 90
        4
 90
       55
 90
       54
 90
       85
 90
      132
 90
        4
 90
       54
 90
       53
 90
       84
 90
       85
 90
        4
 90
       53
 90
       52
 90
      104
 90
       84
 90
        4
 90
       52
 90
       51
 90
      103
 90
      104
 90
        4
 90
       51
 90
       50
 90
      102
 90
      103
 90
        4
 90
       50
 90
       49
 90
       89
 90
      102
 90
        4
 90
       49
 90
       48
 90
       88
 90
       89
 90
        4
 90
       48
 90
       47
 90
      111
 90
       88
 90
        4
 90
       47
 90
       46
 90
      110
 90
      111
 90
        4
 90
       46
 90
       45
 90
      109
 90
      110
 90
        4
 90
       45
 90
       44
 90
      108
 90
      109
 90
        4
 90
       44
 90
       43
 90
       93
 90
      108
 90
        4
 90
       43
 90
       42
 90
       92
 90
       93
 90
        4
 90
       42
 90
       41
 90
      116
 90
       92
 90
        4
 90
       41
 90
       40
 90
      115
 90
      116
 90
        4
 90
       40
 90
       39
 90
       91
 90
      115
 90
        4
 90
       39
 90
       38
 90
       90
 90
       91
 90
        4
 90
       38
 90
       37
 90
      114
 90
       90
 90
        4
 90
       37
 90
       36
 90
      113
 90
      114
 90
        4
 90
       36
 90
       35
 90
      112
 90
      113
 90
        4
 90
       35
 90
       34
 90
       87
 90
      112
 90
        4
 90
       34
 90
       33
 90
       86
 90
       87
 90
        4
 90
       33
 90
       32
 90
      107
 90
       86
 90
        4
 90
       32
 90
       31
 90
      106
 90
      107
 90
        4
 90
       31
 90
       30
 90
      105
 90
      106
 90
        4
 90
       30
 90
       29
 90
      117
 90
      105
 90
        4
 90
       29
 90
       28
 90
       77
 90
      117
 90
        4
 90
       28
 90
       27
 90
       76
 90
       77
 90
        4
 90
       27
 90
       26
 90
      101
 90
       76
 90
        4
 90
       26
 90
       25
 90
       97
 90
      101
 90
        4
 90
       25
 90
       24
 90
       96
 90
       97
 90
        4
 90
       24
 90
       23
 90
      100
 90
       96
 90
        4
 90
       23
 90
       22
 90
       99
 90
      100
 90
        4
 90
       22
 90
       21
 90
       95
 90
       99
 90
        4
 90
       21
 90
       20
 90
       94
 90
       95
 90
        4
 90
       20
 90
       19
 90
       98
 90
       94
 90
        4
 90
       19
 90
       18
 90
       75
 90
       98
 90
        4
 90
       18
 90
       17
 90
       74
 90
       75
 90
        4
 90
       17
 90
       16
 90
      133
 90
       74
 90
        4
 90
       16
 90
       15
 90
      134
 90
      133
 90
        4
 90
       15
 90
       14
 90
      135
 90
      134
 90
        4
 90
       14
 90
       13
 90
       79
 90
      135
 90
        4
 90
       13
 90
       12
 90
       78
 90
       79
 90
        4
 90
       12
 90
       11
 90
      136
 90
       78
 90
        4
 90
       11
 90
       10
 90
      137
 90
      136
 90
        4
 90
       10
 90
        9
 90
       81
 90
      137
 90
        4
 90
        9
 90
        8
 90
       80
 90
       81
 90
        4
 90
        8
 90
        7
 90
      138
 90
       80
 90
        4
 90
        7
 90
        6
 90
      139
 90
      138
 90
        4
 90
        6
 90
        5
 90
       83
 90
      139
 90
        4
 90
        5
 90
        4
 90
       82
 90
       83
 90
        4
 90
        4
 90
        3
 90
      140
 90
       82
 90
        4
 90
        3
 90
        2
 90
      141
 90
      140
 90
        4
 90
        2
 90
        1
 90
       73
 90
      141
 90
        4
 90
        1
 90
        0
 90
       72
 90
       73
 90
        4
 90
        0
 90
       71
 90
      142
 90
       72
 90
        4
 90
       71
 90
       70
 90
      143
 90
      142
 90
        4
 90
       70
 90
       69
 90
      118
 90
      143
 90
        4
 90
       69
 90
       68
 90
      119
 90
      118
 90
        4
 90
       72
 90
       85
 90
       84
 90
       73
 90
        3
 90
      118
 90
      119
 90
      120
 90
        4
 90
      142
 90
      143
 90
      121
 90
      122
 90
        4
 90
      143
 90
      118
 90
      120
 90
      121
 90
        4
 90
       72
 90
      142
 90
      122
 90
      123
 90
        3
 90
       72
 90
      123
 90
      124
 90
        4
 90
       93
 90
       92
 90
       83
 90
       82
 90
        3
 90
      108
 90
       93
 90
       82
 90
        3
 90
      109
 90
      108
 90
       82
 90
        3
 90
      111
 90
      110
 90
      140
 90
        4
 90
      110
 90
      109
 90
       82
 90
      140
 90
        3
 90
       88
 90
      111
 90
      140
 90
        3
 90
      102
 90
       89
 90
      141
 90
        4
 90
       89
 90
       88
 90
      140
 90
      141
 90
        3
 90
      103
 90
      102
 90
      141
 90
        3
 90
       84
 90
      104
 90
       73
 90
        4
 90
      104
 90
      103
 90
      141
 90
       73
 90
        3
 90
       72
 90
      124
 90
      125
 90
        3
 90
       72
 90
      132
 90
       85
 90
        3
 90
       72
 90
      131
 90
      132
 90
        3
 90
       72
 90
      129
 90
      130
 90
        3
 90
       72
 90
      130
 90
      131
 90
        3
 90
       72
 90
      127
 90
      128
 90
        3
 90
       72
 90
      128
 90
      129
 90
        3
 90
       72
 90
      125
 90
      126
 90
        3
 90
       72
 90
      126
 90
      127
 90
        4
 90
       91
 90
       90
 90
       81
 90
       80
 90
        4
 90
       92
 90
      116
 90
      139
 90
       83
 90
        4
 90
      116
 90
      115
 90
      138
 90
      139
 90
        4
 90
      115
 90
       91
 90
       80
 90
      138
 90
        4
 90
       90
 90
      114
 90
      137
 90
       81
 90
        3
 90
       87
 90
       86
 90
       78
 90
        4
 90
      112
 90
       87
 90
       78
 90
      136
 90
        3
 90
      114
 90
      113
 90
      137
 90
        3
 90
      113
 90
      136
 90
      137
 90
        3
 90
      113
 90
      112
 90
      136
 90
        3
 90
       75
 90
       74
 90
      133
 90
        4
 90
       98
 90
       75
 90
      133
 90
      134
 90
        4
 90
       94
 90
       98
 90
      134
 90
      135
 90
        3
 90
       99
 90
       95
 90
       79
 90
        4
 90
       95
 90
       94
 90
      135
 90
       79
 90
        3
 90
       86
 90
      107
 90
       78
 90
        3
 90
      107
 90
      106
 90
       78
 90
        3
 90
      100
 90
       99
 90
       79
 90
        3
 90
       96
 90
      100
 90
       79
 90
        3
 90
      101
 90
       97
 90
       78
 90
        4
 90
       97
 90
       96
 90
       79
 90
       78
 90
        3
 90
       77
 90
       76
 90
       78
 90
        3
 90
      117
 90
       77
 90
       78
 90
        3
 90
       76
 90
      101
 90
       78
 90
        3
 90
      106
 90
      105
 90
       78
 90
        3
 90
      105
 90
      117
 90
       78
 90
        4
 90
        0
 90
        1
 90
       53
 90
       54
 90
        3
 90
       69
 90
       67
 90
       68
 90
        4
 90
       71
 90
       65
 90
       66
 90
       70
 90
        4
 90
       70
 90
       66
 90
       67
 90
       69
 90
        4
 90
        0
 90
       64
 90
       65
 90
       71
 90
        3
 90
        0
 90
       63
 90
       64
 90
        4
 90
       43
 90
        4
 90
        5
 90
       42
 90
        3
 90
       44
 90
        4
 90
       43
 90
        3
 90
       45
 90
        4
 90
       44
 90
        3
 90
       47
 90
        3
 90
       46
 90
        4
 90
       46
 90
        3
 90
        4
 90
       45
 90
        3
 90
       48
 90
        3
 90
       47
 90
        3
 90
       50
 90
        2
 90
       49
 90
        4
 90
       49
 90
        2
 90
        3
 90
       48
 90
        3
 90
       51
 90
        2
 90
       50
 90
        3
 90
       53
 90
        1
 90
       52
 90
        4
 90
       52
 90
        1
 90
        2
 90
       51
 90
        3
 90
        0
 90
       62
 90
       63
 90
        3
 90
        0
 90
       54
 90
       55
 90
        3
 90
        0
 90
       55
 90
       56
 90
        3
 90
        0
 90
       57
 90
       58
 90
        3
 90
        0
 90
       56
 90
       57
 90
        3
 90
        0
 90
       59
 90
       60
 90
        3
 90
        0
 90
       58
 90
       59
 90
        3
 90
        0
 90
       61
 90
       62
 90
        3
 90
        0
 90
       60
 90
       61
 90
        4
 90
       39
 90
        8
 90
        9
 90
       38
 90
        4
 90
       42
 90
        5
 90
        6
 90
       41
 90
        4
 90
       41
 90
        6
 90
        7
 90
       40
 90
        4
 90
       40
 90
        7
 90
        8
 90
       39
 90
        4
 90
       38
 90
        9
 90
       10
 90
       37
 90
        3
 90
       34
 90
       12
 90
       33
 90
        4
 90
       35
 90
       11
 90
       12
 90
       34
 90
        3
 90
       37
 90
       10
 90
       36
 90
        3
 90
       36
 90
       10
 90
       11
 90
        3
 90
       36
 90
       11
 90
       35
 90
        3
 90
       18
 90
       16
 90
       17
 90
        4
 90
       19
 90
       15
 90
       16
 90
       18
 90
        4
 90
       20
 90
       14
 90
       15
 90
       19
 90
        3
 90
       22
 90
       13
 90
       21
 90
        4
 90
       21
 90
       13
 90
       14
 90
       20
 90
        3
 90
       33
 90
       12
 90
       32
 90
        3
 90
       32
 90
       12
 90
       31
 90
        3
 90
       23
 90
       13
 90
       22
 90
        3
 90
       24
 90
       13
 90
       23
 90
        3
 90
       26
 90
       12
 90
       25
 90
        4
 90
       25
 90
       12
 90
       13
 90
       24
 90
        3
 90
       28
 90
       12
 90
       27
 90
        3
 90
       29
 90
       12
 90
       28
 90
        3
 90
       27
 90
       12
 90
       26
 90
        3
 90
       31
 90
       12
 90
       30
 90
        3
 90
       30
 90
       12
 90
       29
 94
      318
 90
       67
 90
       68
 90
       67
 90
      120
 90
      119
 90
      120
 90
       68
 90
      119
 90
       66
 90
       67
 90
       66
 90
      121
 90
      120
 90
      121
 90
       65
 90
       66
 90
       65
 90
      122
 90
      121
 90
      122
 90
       64
 90
       65
 90
       64
 90
      123
 90
      122
 90
      123
 90
       63
 90
       64
 90
       63
 90
      124
 90
      123
 90
      124
 90
       62
 90
       63
 90
       62
 90
      125
 90
      124
 90
      125
 90
       61
 90
       62
 90
       61
 90
      126
 90
      125
 90
      126
 90
       60
 90
       61
 90
       60
 90
      127
 90
      126
 90
      127
 90
       59
 90
       60
 90
       59
 90
      128
 90
      127
 90
      128
 90
       58
 90
       59
 90
       58
 90
      129
 90
      128
 90
      129
 90
       57
 90
       58
 90
       57
 90
      130
 90
      129
 90
      130
 90
       56
 90
       57
 90
       56
 90
      131
 90
      130
 90
      131
 90
       55
 90
       56
 90
       55
 90
      132
 90
      131
 90
      132
 90
       54
 90
       55
 90
       54
 90
       85
 90
       85
 90
      132
 90
       53
 90
       54
 90
       53
 90
       84
 90
       84
 90
       85
 90
       52
 90
       53
 90
       52
 90
      104
 90
       84
 90
      104
 90
       51
 90
       52
 90
       51
 90
      103
 90
      103
 90
      104
 90
       50
 90
       51
 90
       50
 90
      102
 90
      102
 90
      103
 90
       49
 90
       50
 90
       49
 90
       89
 90
       89
 90
      102
 90
       48
 90
       49
 90
       48
 90
       88
 90
       88
 90
       89
 90
       47
 90
       48
 90
       47
 90
      111
 90
       88
 90
      111
 90
       46
 90
       47
 90
       46
 90
      110
 90
      110
 90
      111
 90
       45
 90
       46
 90
       45
 90
      109
 90
      109
 90
      110
 90
       44
 90
       45
 90
       44
 90
      108
 90
      108
 90
      109
 90
       43
 90
       44
 90
       43
 90
       93
 90
       93
 90
      108
 90
       42
 90
       43
 90
       42
 90
       92
 90
       92
 90
       93
 90
       41
 90
       42
 90
       41
 90
      116
 90
       92
 90
      116
 90
       40
 90
       41
 90
       40
 90
      115
 90
      115
 90
      116
 90
       39
 90
       40
 90
       39
 90
       91
 90
       91
 90
      115
 90
       38
 90
       39
 90
       38
 90
       90
 90
       90
 90
       91
 90
       37
 90
       38
 90
       37
 90
      114
 90
       90
 90
      114
 90
       36
 90
       37
 90
       36
 90
      113
 90
      113
 90
      114
 90
       35
 90
       36
 90
       35
 90
      112
 90
      112
 90
      113
 90
       34
 90
       35
 90
       34
 90
       87
 90
       87
 90
      112
 90
       33
 90
       34
 90
       33
 90
       86
 90
       86
 90
       87
 90
       32
 90
       33
 90
       32
 90
      107
 90
       86
 90
      107
 90
       31
 90
       32
 90
       31
 90
      106
 90
      106
 90
      107
 90
       30
 90
       31
 90
       30
 90
      105
 90
      105
 90
      106
 90
       29
 90
       30
 90
       29
 90
      117
 90
      105
 90
      117
 90
       28
 90
       29
 90
       28
 90
       77
 90
       77
 90
      117
 90
       27
 90
       28
 90
       27
 90
       76
 90
       76
 90
       77
 90
       26
 90
       27
 90
       26
 90
      101
 90
       76
 90
      101
 90
       25
 90
       26
 90
       25
 90
       97
 90
       97
 90
      101
 90
       24
 90
       25
 90
       24
 90
       96
 90
       96
 90
       97
 90
       23
 90
       24
 90
       23
 90
      100
 90
       96
 90
      100
 90
       22
 90
       23
 90
       22
 90
       99
 90
       99
 90
      100
 90
       21
 90
       22
 90
       21
 90
       95
 90
       95
 90
       99
 90
       20
 90
       21
 90
       20
 90
       94
 90
       94
 90
       95
 90
       19
 90
       20
 90
       19
 90
       98
 90
       94
 90
       98
 90
       18
 90
       19
 90
       18
 90
       75
 90
       75
 90
       98
 90
       17
 90
       18
 90
       17
 90
       74
 90
       74
 90
       75
 90
       16
 90
       17
 90
       16
 90
      133
 90
       74
 90
      133
 90
       15
 90
       16
 90
       15
 90
      134
 90
      133
 90
      134
 90
       14
 90
       15
 90
       14
 90
      135
 90
      134
 90
      135
 90
       13
 90
       14
 90
       13
 90
       79
 90
       79
 90
      135
 90
       12
 90
       13
 90
       12
 90
       78
 90
       78
 90
       79
 90
       11
 90
       12
 90
       11
 90
      136
 90
       78
 90
      136
 90
       10
 90
       11
 90
       10
 90
      137
 90
      136
 90
      137
 90
        9
 90
       10
 90
        9
 90
       81
 90
       81
 90
      137
 90
        8
 90
        9
 90
        8
 90
       80
 90
       80
 90
       81
 90
        7
 90
        8
 90
        7
 90
      138
 90
       80
 90
      138
 90
        6
 90
        7
 90
        6
 90
      139
 90
      138
 90
      139
 90
        5
 90
        6
 90
        5
 90
       83
 90
       83
 90
      139
 90
        4
 90
        5
 90
        4
 90
       82
 90
       82
 90
       83
 90
        3
 90
        4
 90
        3
 90
      140
 90
       82
 90
      140
 90
        2
 90
        3
 90
        2
 90
      141
 90
      140
 90
      141
 90
        1
 90
        2
 90
        1
 90
       73
 90
       73
 90
      141
 90
        0
 90
        1
 90
        0
 90
       72
 90
       72
 90
       73
 90
        0
 90
       71
 90
       71
 90
      142
 90
       72
 90
      142
 90
       70
 90
       71
 90
       70
 90
      143
 90
      142
 90
      143
 90
       69
 90
       70
 90
       69
 90
      118
 90
      118
 90
      143
 90
       68
 90
       69
 90
      118
 90
      119
 90
       72
 90
       85
 90
       73
 90
       84
 90
      118
 90
      120
 90
      121
 90
      143
 90
      122
 90
      142
 90
       72
 90
      123
 90
       72
 90
      124
 90
       83
 90
       92
 90
       82
 90
       93
 90
       82
 90
      108
 90
       82
 90
      109
 90
      110
 90
      140
 90
      111
 90
      140
 90
       88
 90
      140
 90
       89
 90
      141
 90
      102
 90
      141
 90
      103
 90
      141
 90
       73
 90
      104
 90
       72
 90
      125
 90
       72
 90
      132
 90
       72
 90
      131
 90
       72
 90
      129
 90
       72
 90
      130
 90
       72
 90
      127
 90
       72
 90
      128
 90
       72
 90
      126
 90
       81
 90
       90
 90
       80
 90
       91
 90
      116
 90
      139
 90
      115
 90
      138
 90
      114
 90
      137
 90
       78
 90
       86
 90
       78
 90
       87
 90
      112
 90
      136
 90
      113
 90
      137
 90
      113
 90
      136
 90
       75
 90
      133
 90
       98
 90
      134
 90
       94
 90
      135
 90
       79
 90
       95
 90
       79
 90
       99
 90
       78
 90
      107
 90
       78
 90
      106
 90
       79
 90
      100
 90
       79
 90
       96
 90
       78
 90
       97
 90
       78
 90
      101
 90
       76
 90
       78
 90
       77
 90
       78
 90
       78
 90
      117
 90
       78
 90
      105
 90
        1
 90
       53
 90
        0
 90
       54
 90
       67
 90
       69
 90
       65
 90
       71
 90
       66
 90
       70
 90
        0
 90
       64
 90
        0
 90
       63
 90
        4
 90
       43
 90
        5
 90
       42
 90
        4
 90
       44
 90
        4
 90
       45
 90
        3
 90
       47
 90
        3
 90
       46
 90
        3
 90
       48
 90
        2
 90
       50
 90
        2
 90
       49
 90
        2
 90
       51
 90
        1
 90
       52
 90
        0
 90
       62
 90
        0
 90
       55
 90
        0
 90
       56
 90
        0
 90
       57
 90
        0
 90
       58
 90
        0
 90
       59
 90
        0
 90
       60
 90
        0
 90
       61
 90
        8
 90
       39
 90
        9
 90
       38
 90
        6
 90
       41
 90
        7
 90
       40
 90
       10
 90
       37
 90
       12
 90
       34
 90
       12
 90
       33
 90
       11
 90
       35
 90
       10
 90
       36
 90
       11
 90
       36
 90
       16
 90
       18
 90
       15
 90
       19
 90
       14
 90
       20
 90
       13
 90
       22
 90
       13
 90
       21
 90
       12
 90
       32
 90
       12
 90
       31
 90
       13
 90
       23
 90
       13
 90
       24
 90
       12
 90
       26
 90
       12
 90
       25
 90
       12
 90
       28
 90
       12
 90
       27
 90
       12
 90
       29
 90
       12
 90
       30
 95
      318
140
0.0
140
0.0
140
0.0
140
0.0
140
0.0
140
0.0
140
0.0
140
0.0
140
0.0
140
0.0
140
0.0
140
0.0
140
0.0
140
0.0
140
0.0
140
0.0
140
0.0
140
0.0
140
0.0
140
0.0
140
0.0
140
0.0
140
0.0
140
0.0
140
0.0
140
0.0
140
0.0
140
0.0
140
0.0
140
0.0
140
0.0
140
0.0
140
0.0
140
0.0
140
0.0
140
0.0
140
0.0
140
0.0
140
0.0
140
0.0
140
0.0
140
0.0
140
0.0
140
0.0
140
0.0
140
0.0
140
0.0
140
0.0
140
0.0
140
0.0
140
0.0
140
0.0
140
0.0
140
0.0
140
0.0
140
0.0
140
0.0
140
0.0
140
0.0
140
0.0
140
0.0
140
0.0
140
0.0
140
0.0
140
0.0
140
0.0
140
0.0
140
0.0
140
0.0
140
0.0
140
0.0
140
0.0
140
0.0
140
0.0
140
0.0
140
0.0
140
0.0
140
0.0
140
0.0
140
0.0
140
0.0
140
0.0
140
0.0
140
0.0
140
0.0
140
0.0
140
0.0
140
0.0
140
0.0
140
0.0
140
0.0
140
0.0
140
0.0
140
0.0
140
0.0
140
0.0
140
0.0
140
0.0
140
0.0
140
0.0
140
0.0
140
0.0
140
0.0
140
0.0
140
0.0
140
0.0
140
0.0
140
0.0
140
0.0
140
0.0
140
0.0
140
0.0
140
0.0
140
0.0
140
0.0
140
0.0
140
0.0
140
0.0
140
0.0
140
0.0
140
0.0
140
0.0
140
0.0
140
0.0
140
0.0
140
0.0
140
0.0
140
0.0
140
0.0
140
0.0
140
0.0
140
0.0
140
0.0
140
0.0
140
0.0
140
0.0
140
0.0
140
0.0
140
0.0
140
0.0
140
0.0
140
0.0
140
0.0
140
0.0
140
0.0
140
0.0
140
0.0
140
0.0
140
0.0
140
0.0
140
0.0
140
0.0
140
0.0
140
0.0
140
0.0
140
0.0
140
0.0
140
0.0
140
0.0
140
0.0
140
0.0
140
0.0
140
0.0
140
0.0
140
0.0
140
0.0
140
0.0
140
0.0
140
0.0
140
0.0
140
0.0
140
0.0
140
0.0
140
0.0
140
0.0
140
0.0
140
0.0
140
0.0
140
0.0
140
0.0
140
0.0
140
0.0
140
0.0
140
0.0
140
0.0
140
0.0
140
0.0
140
0.0
140
0.0
140
0.0
140
0.0
140
0.0
140
0.0
140
0.0
140
0.0
140
0.0
140
0.0
140
0.0
140
0.0
140
0.0
140
0.0
140
0.0
140
0.0
140
0.0
140
0.0
140
0.0
140
0.0
140
0.0
140
0.0
140
0.0
140
0.0
140
0.0
140
0.0
140
0.0
140
0.0
140
0.0
140
0.0
140
0.0
140
0.0
140
0.0
140
0.0
140
0.0
140
0.0
140
0.0
140
0.0
140
0.0
140
0.0
140
0.0
140
0.0
140
0.0
140
0.0
140
0.0
140
0.0
140
0.0
140
0.0
140
0.0
140
0.0
140
0.0
140
0.0
140
0.0
140
0.0
140
0.0
140
0.0
140
0.0
140
0.0
140
0.0
140
0.0
140
0.0
140
0.0
140
0.0
140
0.0
140
0.0
140
0.0
140
0.0
140
0.0
140
0.0
140
0.0
140
0.0
140
0.0
140
0.0
140
0.0
140
0.0
140
0.0
140
0.0
140
0.0
140
0.0
140
0.0
140
0.0
140
0.0
140
0.0
140
0.0
140
0.0
140
0.0
140
0.0
140
0.0
140
0.0
140
0.0
140
0.0
140
0.0
140
0.0
140
0.0
140
0.0
140
0.0
140
0.0
140
0.0
140
0.0
140
0.0
140
0.0
140
0.0
140
0.0
140
0.0
140
0.0
140
0.0
140
0.0
140
0.0
140
0.0
140
0.0
140
0.0
140
0.0
140
0.0
140
0.0
140
0.0
140
0.0
140
0.0
140
0.0
140
0.0
140
0.0
140
0.0
140
0.0
140
0.0
140
0.0
140
0.0
140
0.0
140
0.0
140
0.0
140
0.0
140
0.0
140
0.0
 90
        0
  0
POLYLINE
  5
FA
330
1F
100
AcDbEntity
  8
OracDecor_cornice_mouldings
 62
   236
420
  9242426
100
AcDb2dPolyline
 66
     1
 10
0.0
 20
0.0
 30
0.0000028205404305
 70
     1
210
-0.9999999999999769
220
0.0000001788139343
230
-0.0000001192092896
  0
VERTEX
  5
FB
330
FA
100
AcDbEntity
  8
OracDecor_cornice_mouldings
 62
   236
420
  9242426
100
AcDbVertex
100
AcDb2dVertex
 10
-16.10004043579101
 20
-11.20008182525634
 30
0.0000028205404305
  0
VERTEX
  5
FC
330
FA
100
AcDbEntity
  8
OracDecor_cornice_mouldings
 62
   236
420
  9242426
100
AcDbVertex
100
AcDb2dVertex
 10
-25.50004005432129
 20
-11.20008468627929
 30
0.0000028205404305
  0
VERTEX
  5
FD
330
FA
100
AcDbEntity
  8
OracDecor_cornice_mouldings
 62
   236
420
  9242426
100
AcDbVertex
100
AcDb2dVertex
 10
-25.75004005432129
 20
-11.1330976486206
 30
0.0000028205404305
  0
VERTEX
  5
FE
330
FA
100
AcDbEntity
  8
OracDecor_cornice_mouldings
 62
   236
420
  9242426
100
AcDbVertex
100
AcDb2dVertex
 10
-25.93305397033692
 20
-10.9500846862793
 30
0.0000028205404305
  0
VERTEX
  5
FF
330
FA
100
AcDbEntity
  8
OracDecor_cornice_mouldings
 62
   236
420
  9242426
100
AcDbVertex
100
AcDb2dVertex
 10
-26.00004577636719
 20
-10.70008468627929
 30
0.0000028205404305
  0
VERTEX
  5
100
330
FA
100
AcDbEntity
  8
OracDecor_cornice_mouldings
 62
   236
420
  9242426
100
AcDbVertex
100
AcDb2dVertex
 10
-26.00004386901856
 20
-0.0000038227190089
 30
0.0000028205404305
  0
VERTEX
  5
101
330
FA
100
AcDbEntity
  8
OracDecor_cornice_mouldings
 62
   236
420
  9242426
100
AcDbVertex
100
AcDb2dVertex
 10
-22.36004447937012
 20
-0.0000032875393572
 30
0.0000028205404305
  0
VERTEX
  5
102
330
FA
100
AcDbEntity
  8
OracDecor_cornice_mouldings
 62
   236
420
  9242426
100
AcDbVertex
100
AcDb2dVertex
 10
-22.09087181091309
 20
-0.0318063758313656
 30
0.0000028205404305
  0
VERTEX
  5
103
330
FA
100
AcDbEntity
  8
OracDecor_cornice_mouldings
 62
   236
420
  9242426
100
AcDbVertex
100
AcDb2dVertex
 10
-21.84004402160645
 20
-0.1250470727682114
 30
0.0000028205404305
  0
VERTEX
  5
104
330
FA
100
AcDbEntity
  8
OracDecor_cornice_mouldings
 62
   236
420
  9242426
100
AcDbVertex
100
AcDb2dVertex
 10
-20.76906585693359
 20
-0.6799632906913758
 30
0.0000028205404305
  0
VERTEX
  5
105
330
FA
100
AcDbEntity
  8
OracDecor_cornice_mouldings
 62
   236
420
  9242426
100
AcDbVertex
100
AcDb2dVertex
 10
-20.27628898620605
 20
-0.8046885728836059
 30
0.0000028205404305
  0
VERTEX
  5
106
330
FA
100
AcDbEntity
  8
OracDecor_cornice_mouldings
 62
   236
420
  9242426
100
AcDbVertex
100
AcDb2dVertex
 10
-19.77691650390625
 20
-0.703280508518219
 30
0.0000028205404305
  0
VERTEX
  5
107
330
FA
100
AcDbEntity
  8
OracDecor_cornice_mouldings
 62
   236
420
  9242426
100
AcDbVertex
100
AcDb2dVertex
 10
-18.46139717102051
 20
-0.1017330661416054
 30
0.0000028205404305
  0
VERTEX
  5
108
330
FA
100
AcDbEntity
  8
OracDecor_cornice_mouldings
 62
   236
420
  9242426
100
AcDbVertex
100
AcDb2dVertex
 10
-18.23202896118164
 20
-0.0257919412106276
 30
0.0000028205404305
  0
VERTEX
  5
109
330
FA
100
AcDbEntity
  8
OracDecor_cornice_mouldings
 62
   236
420
  9242426
100
AcDbVertex
100
AcDb2dVertex
 10
-17.9892463684082
 20
-0.0000045522606342
 30
0.0000028205404305
  0
VERTEX
  5
10A
330
FA
100
AcDbEntity
  8
OracDecor_cornice_mouldings
 62
   236
420
  9242426
100
AcDbVertex
100
AcDb2dVertex
 10
-16.90903854370117
 20
-0.0000043934405767
 30
0.0000028205404305
  0
VERTEX
  5
10B
330
FA
100
AcDbEntity
  8
OracDecor_cornice_mouldings
 62
   236
420
  9242426
100
AcDbVertex
100
AcDb2dVertex
 10
-16.37548828125
 20
-0.0844350084662438
 30
0.0000028205404305
  0
VERTEX
  5
10C
330
FA
100
AcDbEntity
  8
OracDecor_cornice_mouldings
 62
   236
420
  9242426
100
AcDbVertex
100
AcDb2dVertex
 10
-15.90629005432129
 20
-0.327543705701828
 30
0.0000028205404305
  0
VERTEX
  5
10D
330
FA
100
AcDbEntity
  8
OracDecor_cornice_mouldings
 62
   236
420
  9242426
100
AcDbVertex
100
AcDb2dVertex
 10
-15.55803966522217
 20
-0.7000088095664978
 30
0.0000028205404305
  0
VERTEX
  5
10E
330
FA
100
AcDbEntity
  8
OracDecor_cornice_mouldings
 62
   236
420
  9242426
100
AcDbVertex
100
AcDb2dVertex
 10
-15.3727388381958
 20
-1.156904578208923
 30
0.0000028205404305
  0
VERTEX
  5
10F
330
FA
100
AcDbEntity
  8
OracDecor_cornice_mouldings
 62
   236
420
  9242426
100
AcDbVertex
100
AcDb2dVertex
 10
-14.91044807434082
 20
-3.509802103042602
 30
0.0000028205404305
  0
VERTEX
  5
110
330
FA
100
AcDbEntity
  8
OracDecor_cornice_mouldings
 62
   236
420
  9242426
100
AcDbVertex
100
AcDb2dVertex
 10
-14.72514820098877
 20
-3.966697931289672
 30
0.0000028205404305
  0
VERTEX
  5
111
330
FA
100
AcDbEntity
  8
OracDecor_cornice_mouldings
 62
   236
420
  9242426
100
AcDbVertex
100
AcDb2dVertex
 10
-14.37689685821533
 20
-4.339163303375244
 30
0.0000028205404305
  0
VERTEX
  5
112
330
FA
100
AcDbEntity
  8
OracDecor_cornice_mouldings
 62
   236
420
  9242426
100
AcDbVertex
100
AcDb2dVertex
 10
-13.90769958496093
 20
-4.582273006439208
 30
0.0000028205404305
  0
VERTEX
  5
113
330
FA
100
AcDbEntity
  8
OracDecor_cornice_mouldings
 62
   236
420
  9242426
100
AcDbVertex
100
AcDb2dVertex
 10
-13.37414741516113
 20
-4.666702270507812
 30
0.0000028205404305
  0
VERTEX
  5
114
330
FA
100
AcDbEntity
  8
OracDecor_cornice_mouldings
 62
   236
420
  9242426
100
AcDbVertex
100
AcDb2dVertex
 10
-12.48004341125488
 20
-4.666702270507812
 30
0.0000028205404305
  0
VERTEX
  5
115
330
FA
100
AcDbEntity
  8
OracDecor_cornice_mouldings
 62
   236
420
  9242426
100
AcDbVertex
100
AcDb2dVertex
 10
-11.19453048706054
 20
-4.849427700042724
 30
0.0000028205404305
  0
VERTEX
  5
116
330
FA
100
AcDbEntity
  8
OracDecor_cornice_mouldings
 62
   236
420
  9242426
100
AcDbVertex
100
AcDb2dVertex
 10
-10.03486061096191
 20
-5.379708766937255
 30
0.0000028205404305
  0
VERTEX
  5
117
330
FA
100
AcDbEntity
  8
OracDecor_cornice_mouldings
 62
   236
420
  9242426
100
AcDbVertex
100
AcDb2dVertex
 10
-9.114528656005859
 20
-6.205651760101318
 30
0.0000028205404305
  0
VERTEX
  5
118
330
FA
100
AcDbEntity
  8
OracDecor_cornice_mouldings
 62
   236
420
  9242426
100
AcDbVertex
100
AcDb2dVertex
 10
-8.523648262023925
 20
-7.246388912200927
 30
0.0000028205404305
  0
VERTEX
  5
119
330
FA
100
AcDbEntity
  8
OracDecor_cornice_mouldings
 62
   236
420
  9242426
100
AcDbVertex
100
AcDb2dVertex
 10
-8.320042610168457
 20
-8.400062561035156
 30
0.0000028205404305
  0
VERTEX
  5
11A
330
FA
100
AcDbEntity
  8
OracDecor_cornice_mouldings
 62
   236
420
  9242426
100
AcDbVertex
100
AcDb2dVertex
 10
-8.32004165649414
 20
-22.77526664733887
 30
0.0000028205404305
  0
VERTEX
  5
11B
330
FA
100
AcDbEntity
  8
OracDecor_cornice_mouldings
 62
   236
420
  9242426
100
AcDbVertex
100
AcDb2dVertex
 10
-8.192458152770996
 20
-23.32978439331055
 30
0.0000028205404305
  0
VERTEX
  5
11C
330
FA
100
AcDbEntity
  8
OracDecor_cornice_mouldings
 62
   236
420
  9242426
100
AcDbVertex
100
AcDb2dVertex
 10
-7.830581665039062
 20
-23.79359436035156
 30
0.0000028205404305
  0
VERTEX
  5
11D
330
FA
100
AcDbEntity
  8
OracDecor_cornice_mouldings
 62
   236
420
  9242426
100
AcDbVertex
100
AcDb2dVertex
 10
-7.293593406677246
 20
-24.09084510803223
 30
0.0000028205404305
  0
VERTEX
  5
11E
330
FA
100
AcDbEntity
  8
OracDecor_cornice_mouldings
 62
   236
420
  9242426
100
AcDbVertex
100
AcDb2dVertex
 10
-3.77723741531372
 20
-25.23943519592285
 30
0.0000028205404305
  0
VERTEX
  5
11F
330
FA
100
AcDbEntity
  8
OracDecor_cornice_mouldings
 62
   236
420
  9242426
100
AcDbVertex
100
AcDb2dVertex
 10
-2.667597770690917
 20
-25.78577041625977
 30
0.0000028205404305
  0
VERTEX
  5
120
330
FA
100
AcDbEntity
  8
OracDecor_cornice_mouldings
 62
   236
420
  9242426
100
AcDbVertex
100
AcDb2dVertex
 10
-1.792370557785034
 20
-26.60628128051758
 30
0.0000028205404305
  0
VERTEX
  5
121
330
FA
100
AcDbEntity
  8
OracDecor_cornice_mouldings
 62
   236
420
  9242426
100
AcDbVertex
100
AcDb2dVertex
 10
-1.232578039169311
 20
-27.62500762939453
 30
0.0000028205404305
  0
VERTEX
  5
122
330
FA
100
AcDbEntity
  8
OracDecor_cornice_mouldings
 62
   236
420
  9242426
100
AcDbVertex
100
AcDb2dVertex
 10
-1.04004156589508
 20
-28.74764633178711
 30
0.0000028205404305
  0
VERTEX
  5
123
330
FA
100
AcDbEntity
  8
OracDecor_cornice_mouldings
 62
   236
420
  9242426
100
AcDbVertex
100
AcDb2dVertex
 10
-1.040041327476501
 20
-30.88022613525391
 30
0.0000028205404305
  0
VERTEX
  5
124
330
FA
100
AcDbEntity
  8
OracDecor_cornice_mouldings
 62
   236
420
  9242426
100
AcDbVertex
100
AcDb2dVertex
 10
-0.9661096334457397
 20
-31.30611038208008
 30
0.0000028205404305
  0
VERTEX
  5
125
330
FA
100
AcDbEntity
  8
OracDecor_cornice_mouldings
 62
   236
420
  9242426
100
AcDbVertex
100
AcDb2dVertex
 10
-0.7513221502304078
 20
-31.69162750244141
 30
0.0000028205404305
  0
VERTEX
  5
126
330
FA
100
AcDbEntity
  8
OracDecor_cornice_mouldings
 62
   236
420
  9242426
100
AcDbVertex
100
AcDb2dVertex
 10
-0.4160416722297669
 20
-32.0002326965332
 30
0.0000028205404305
  0
VERTEX
  5
127
330
FA
100
AcDbEntity
  8
OracDecor_cornice_mouldings
 62
   236
420
  9242426
100
AcDbVertex
100
AcDb2dVertex
 10
-0.1098368540406227
 20
-32.32950210571289
 30
0.0000028205404305
  0
VERTEX
  5
128
330
FA
100
AcDbEntity
  8
OracDecor_cornice_mouldings
 62
   236
420
  9242426
100
AcDbVertex
100
AcDb2dVertex
 10
-0.000041248054913
 20
-32.74690246582031
 30
0.0000028205404305
  0
VERTEX
  5
129
330
FA
100
AcDbEntity
  8
OracDecor_cornice_mouldings
 62
   236
420
  9242426
100
AcDbVertex
100
AcDb2dVertex
 10
-0.0000410510583606
 20
-35.00025177001953
 30
0.0000028205404305
  0
VERTEX
  5
12A
330
FA
100
AcDbEntity
  8
OracDecor_cornice_mouldings
 62
   236
420
  9242426
100
AcDbVertex
100
AcDb2dVertex
 10
-0.0354776605963707
 20
-35.24181747436524
 30
0.0000028205404305
  0
VERTEX
  5
12B
330
FA
100
AcDbEntity
  8
OracDecor_cornice_mouldings
 62
   236
420
  9242426
100
AcDbVertex
100
AcDb2dVertex
 10
-0.1393747329711914
 20
-35.4669189453125
 30
0.0000028205404305
  0
VERTEX
  5
12C
330
FA
100
AcDbEntity
  8
OracDecor_cornice_mouldings
 62
   236
420
  9242426
100
AcDbVertex
100
AcDb2dVertex
 10
-0.7398194670677185
 20
-36.40026092529297
 30
0.0000028205404305
  0
VERTEX
  5
12D
330
FA
100
AcDbEntity
  8
OracDecor_cornice_mouldings
 62
   236
420
  9242426
100
AcDbVertex
100
AcDb2dVertex
 10
-0.8633536100387573
 20
-36.70485687255859
 30
0.0000028205404305
  0
VERTEX
  5
12E
330
FA
100
AcDbEntity
  8
OracDecor_cornice_mouldings
 62
   236
420
  9242426
100
AcDbVertex
100
AcDb2dVertex
 10
-0.8633536100387573
 20
-37.02900314331055
 30
0.0000028205404305
  0
VERTEX
  5
12F
330
FA
100
AcDbEntity
  8
OracDecor_cornice_mouldings
 62
   236
420
  9242426
100
AcDbVertex
100
AcDb2dVertex
 10
-0.739819347858429
 20
-37.33359909057617
 30
0.0000028205404305
  0
VERTEX
  5
130
330
FA
100
AcDbEntity
  8
OracDecor_cornice_mouldings
 62
   236
420
  9242426
100
AcDbVertex
100
AcDb2dVertex
 10
-0.1393754333257675
 20
-38.26694107055664
 30
0.0000028205404305
  0
VERTEX
  5
131
330
FA
100
AcDbEntity
  8
OracDecor_cornice_mouldings
 62
   236
420
  9242426
100
AcDbVertex
100
AcDb2dVertex
 10
-0.0354783311486244
 20
-38.49204254150391
 30
0.0000028205404305
  0
VERTEX
  5
132
330
FA
100
AcDbEntity
  8
OracDecor_cornice_mouldings
 62
   236
420
  9242426
100
AcDbVertex
100
AcDb2dVertex
 10
-0.0000407246770919
 20
-38.73360824584961
 30
0.0000028205404305
  0
VERTEX
  5
133
330
FA
100
AcDbEntity
  8
OracDecor_cornice_mouldings
 62
   236
420
  9242426
100
AcDbVertex
100
AcDb2dVertex
 10
-0.0000404390957556
 20
-42.00030136108398
 30
0.0000028205404305
  0
VERTEX
  5
134
330
FA
100
AcDbEntity
  8
OracDecor_cornice_mouldings
 62
   236
420
  9242426
100
AcDbVertex
100
AcDb2dVertex
 10
-7.820040225982666
 20
-42.00030136108398
 30
0.0000028205404305
  0
VERTEX
  5
135
330
FA
100
AcDbEntity
  8
OracDecor_cornice_mouldings
 62
   236
420
  9242426
100
AcDbVertex
100
AcDb2dVertex
 10
-8.070039749145507
 20
-41.93331146240234
 30
0.0000028205404305
  0
VERTEX
  5
136
330
FA
100
AcDbEntity
  8
OracDecor_cornice_mouldings
 62
   236
420
  9242426
100
AcDbVertex
100
AcDb2dVertex
 10
-8.2530517578125
 20
-41.75030136108398
 30
0.0000028205404305
  0
VERTEX
  5
137
330
FA
100
AcDbEntity
  8
OracDecor_cornice_mouldings
 62
   236
420
  9242426
100
AcDbVertex
100
AcDb2dVertex
 10
-8.320039749145507
 20
-41.50030136108398
 30
0.0000028205404305
  0
VERTEX
  5
138
330
FA
100
AcDbEntity
  8
OracDecor_cornice_mouldings
 62
   236
420
  9242426
100
AcDbVertex
100
AcDb2dVertex
 10
-8.320040702819824
 20
-33.16690063476563
 30
0.0000028205404305
  0
VERTEX
  5
139
330
FA
100
AcDbEntity
  8
OracDecor_cornice_mouldings
 62
   236
420
  9242426
100
AcDbVertex
100
AcDb2dVertex
 10
-8.387027740478515
 20
-32.91690063476563
 30
0.0000028205404305
  0
VERTEX
  5
13A
330
FA
100
AcDbEntity
  8
OracDecor_cornice_mouldings
 62
   236
420
  9242426
100
AcDbVertex
100
AcDb2dVertex
 10
-8.570040702819824
 20
-32.73388671875
 30
0.0000028205404305
  0
VERTEX
  5
13B
330
FA
100
AcDbEntity
  8
OracDecor_cornice_mouldings
 62
   236
420
  9242426
100
AcDbVertex
100
AcDb2dVertex
 10
-8.820040702819824
 20
-32.66690063476563
 30
0.0000028205404305
  0
VERTEX
  5
13C
330
FA
100
AcDbEntity
  8
OracDecor_cornice_mouldings
 62
   236
420
  9242426
100
AcDbVertex
100
AcDb2dVertex
 10
-15.10004138946533
 20
-32.66690063476563
 30
0.0000028205404305
  0
VERTEX
  5
13D
330
FA
100
AcDbEntity
  8
OracDecor_cornice_mouldings
 62
   236
420
  9242426
100
AcDbVertex
100
AcDb2dVertex
 10
-15.35004138946533
 20
-32.59991455078125
 30
0.0000028205404305
  0
VERTEX
  5
13E
330
FA
100
AcDbEntity
  8
OracDecor_cornice_mouldings
 62
   236
420
  9242426
100
AcDbVertex
100
AcDb2dVertex
 10
-15.53305339813232
 20
-32.41690063476563
 30
0.0000028205404305
  0
VERTEX
  5
13F
330
FA
100
AcDbEntity
  8
OracDecor_cornice_mouldings
 62
   236
420
  9242426
100
AcDbVertex
100
AcDb2dVertex
 10
-15.60004138946533
 20
-32.16690063476562
 30
0.0000028205404305
  0
VERTEX
  5
140
330
FA
100
AcDbEntity
  8
OracDecor_cornice_mouldings
 62
   236
420
  9242426
100
AcDbVertex
100
AcDb2dVertex
 10
-15.60004329681396
 20
-11.70008277893066
 30
0.0000028205404305
  0
VERTEX
  5
141
330
FA
100
AcDbEntity
  8
OracDecor_cornice_mouldings
 62
   236
420
  9242426
100
AcDbVertex
100
AcDb2dVertex
 10
-15.66702938079834
 20
-11.45008277893066
 30
0.0000028205404305
  0
VERTEX
  5
142
330
FA
100
AcDbEntity
  8
OracDecor_cornice_mouldings
 62
   236
420
  9242426
100
AcDbVertex
100
AcDb2dVertex
 10
-15.85004329681396
 20
-11.26706981658935
 30
0.0000028205404305
  0
SEQEND
  5
143
330
FA
100
AcDbEntity
  8
OracDecor_cornice_mouldings
 62
   236
420
  9242426
  0
ENDSEC
  0
SECTION
  2
OBJECTS
  0
DICTIONARY
  5
C
330
0
100
AcDbDictionary
281
     1
  3
ACAD_COLOR
350
DC
  3
ACAD_DETAILVIEWSTYLE
350
F5
  3
ACAD_GROUP
350
D
  3
ACAD_LAYOUT
350
1A
  3
ACAD_MATERIAL
350
AA
  3
ACAD_MLEADERSTYLE
350
F1
  3
ACAD_MLINESTYLE
350
17
  3
ACAD_PLOTSETTINGS
350
19
  3
ACAD_PLOTSTYLENAME
350
E
  3
ACAD_SCALELIST
350
DF
  3
ACAD_SECTIONVIEWSTYLE
350
F3
  3
ACAD_TABLESTYLE
350
DD
  3
ACAD_VISUALSTYLE
350
C3
  3
ACDB_RECOMPOSE_DATA
350
150
  3
AcDbVariableDictionary
350
144
  0
DICTIONARY
  5
DC
102
{ACAD_REACTORS
330
C
102
}
330
C
100
AcDbDictionary
281
     1
  0
DICTIONARY
  5
F5
102
{ACAD_REACTORS
330
C
102
}
330
C
100
AcDbDictionary
281
     1
  3
Imperial24
350
F6
  0
DICTIONARY
  5
D
102
{ACAD_REACTORS
330
C
102
}
330
C
100
AcDbDictionary
281
     1
  0
DICTIONARY
  5
1A
102
{ACAD_REACTORS
330
C
102
}
330
C
100
AcDbDictionary
281
     1
  3
Layout1
350
1E
  3
Layout2
350
26
  3
Model
350
22
  0
DICTIONARY
  5
AA
102
{ACAD_REACTORS
330
C
102
}
330
C
100
AcDbDictionary
281
     1
  3
ByBlock
350
B3
  3
ByLayer
350
AB
  3
Global
350
BB
  0
DICTIONARY
  5
F1
102
{ACAD_REACTORS
330
C
102
}
330
C
100
AcDbDictionary
281
     1
  3
Standard
350
F2
  0
DICTIONARY
  5
17
102
{ACAD_REACTORS
330
C
102
}
330
C
100
AcDbDictionary
281
     1
  3
Standard
350
18
  0
DICTIONARY
  5
19
102
{ACAD_REACTORS
330
C
102
}
330
C
100
AcDbDictionary
281
     1
  0
ACDBDICTIONARYWDFLT
  5
E
102
{ACAD_REACTORS
330
C
102
}
330
C
100
AcDbDictionary
281
     1
  3
ByLayer
350
2D
  3
Normal
350
F
100
AcDbDictionaryWithDefault
340
F
  0
DICTIONARY
  5
DF
102
{ACAD_REACTORS
330
C
102
}
330
C
100
AcDbDictionary
281
     1
  3
A0
350
E0
  3
A1
350
E1
  3
A2
350
E2
  3
A3
350
E3
  3
A4
350
E4
  3
A5
350
E5
  3
A6
350
E6
  3
A7
350
E7
  3
A8
350
E8
  3
A9
350
E9
  3
B0
350
EA
  3
B1
350
EB
  3
B2
350
EC
  3
B3
350
ED
  3
B4
350
EE
  3
B5
350
EF
  3
B6
350
F0
  0
DICTIONARY
  5
F3
102
{ACAD_REACTORS
330
C
102
}
330
C
100
AcDbDictionary
281
     1
  3
Imperial24
350
F4
  0
DICTIONARY
  5
DD
102
{ACAD_REACTORS
330
C
102
}
330
C
100
AcDbDictionary
281
     1
  3
Standard
350
DE
  0
DICTIONARY
  5
C3
102
{ACAD_REACTORS
330
C
102
}
330
C
100
AcDbDictionary
281
     1
  3
2dWireframe
350
C9
  3
Basic
350
C8
  3
Brighten
350
CF
  3
ColorChange
350
D3
  3
Conceptual
350
CC
  3
Dim
350
CE
  3
EdgeColorOff
350
DB
  3
Facepattern
350
D2
  3
Flat
350
C4
  3
FlatWithEdges
350
C5
  3
Gouraud
350
C6
  3
GouraudWithEdges
350
C7
  3
Hidden
350
CB
  3
JitterOff
350
D9
  3
Linepattern
350
D1
  3
OverhangOff
350
DA
  3
Realistic
350
CD
  3
Shaded
350
D8
  3
Shaded with edges
350
D7
  3
Shades of Gray
350
D4
  3
Sketchy
350
D5
  3
Thicken
350
D0
  3
Wireframe
350
CA
  3
X-Ray
350
D6
  0
XRECORD
  5
150
102
{ACAD_REACTORS
330
C
102
}
330
C
100
AcDbXrecord
280
     1
 90
        1
330
DE
  0
DICTIONARY
  5
144
102
{ACAD_REACTORS
330
C
102
}
330
C
100
AcDbDictionary
281
     1
  3
CANNOSCALE
350
14A
  3
CMLEADERSTYLE
350
146
  3
CTABLESTYLE
350
145
  3
CVIEWDETAILSTYLE
350
147
  3
CVIEWSECTIONSTYLE
350
148
  3
LAYEREVAL
350
14C
  3
LAYERNOTIFY
350
14D
  3
LIGHTINGUNITS
350
14B
  3
MSLTSCALE
350
149
  0
ACDBDETAILVIEWSTYLE
  5
F6
102
{ACAD_XDICTIONARY
360
185
102
}
102
{ACAD_REACTORS
330
F5
102
}
330
F5
100
AcDbModelDocViewStyle
 70
     0
  3
Imperial24
290
     0
100
AcDbDetailViewStyle
 70
     0
 71
     0
 90
        3
 71
     1
340
11
 62
   256
 40
0.24
340
0
 62
   256
 40
0.24
300

 40
0.36
280
     3
 71
     2
340
16
 90
       25
 62
   256
 71
     3
340
11
 62
   256
 40
0.24
 90
        1
 40
0.75
 90
        1
300
%<\AcVar ViewType \f "%tc1">% %<\AcVar ViewDetailId>%\PSCALE %<\AcVar ViewScale \f "%sn">%
 71
     4
340
16
 90
       25
 62
   256
340
16
 90
       25
 62
   256
280
     0
  0
LAYOUT
  5
1E
102
{ACAD_REACTORS
330
1A
102
}
330
1A
100
AcDbPlotSettings
  1

  2
\\KTXNTBDC\CASF2PN1
  4

  6

 40
0.0
 41
0.0
 42
0.0
 43
0.0
 44
0.0
 45
0.0
 46
0.0
 47
0.0
 48
0.0
 49
0.0
140
0.0
141
0.0
142
1.0
143
1.0
 70
   688
 72
     0
 73
     0
 74
     5
  7

 75
    16
147
1.0
 76
     0
 77
     2
 78
   300
148
0.0
149
0.0
100
AcDbLayout
  1
Layout1
 70
     1
 71
     1
 10
0.0
 20
0.0
 11
12.0
 21
9.0
 12
0.0
 22
0.0
 32
0.0
 14
1.000000000000000E+20
 24
1.000000000000000E+20
 34
1.000000000000000E+20
 15
-1.000000000000000E+20
 25
-1.000000000000000E+20
 35
-1.000000000000000E+20
146
0.0
 13
0.0
 23
0.0
 33
0.0
 16
1.0
 26
0.0
 36
0.0
 17
0.0
 27
1.0
 37
0.0
 76
     0
330
1B
  0
LAYOUT
  5
26
102
{ACAD_REACTORS
330
1A
102
}
330
1A
100
AcDbPlotSettings
  1

  2
\\KTXNTBDC\CASF2PN1
  4

  6

 40
0.0
 41
0.0
 42
0.0
 43
0.0
 44
0.0
 45
0.0
 46
0.0
 47
0.0
 48
0.0
 49
0.0
140
0.0
141
0.0
142
1.0
143
1.0
 70
   688
 72
     0
 73
     0
 74
     5
  7

 75
    16
147
1.0
 76
     0
 77
     2
 78
   300
148
0.0
149
0.0
100
AcDbLayout
  1
Layout2
 70
     1
 71
     2
 10
0.0
 20
0.0
 11
12.0
 21
9.0
 12
0.0
 22
0.0
 32
0.0
 14
0.0
 24
0.0
 34
0.0
 15
0.0
 25
0.0
 35
0.0
146
0.0
 13
0.0
 23
0.0
 33
0.0
 16
1.0
 26
0.0
 36
0.0
 17
0.0
 27
1.0
 37
0.0
 76
     0
330
23
  0
LAYOUT
  5
22
102
{ACAD_REACTORS
330
1A
102
}
330
1A
100
AcDbPlotSettings
  1

  2
\\KTXNTBDC\CASF2PN1
  4

  6

 40
0.0
 41
0.0
 42
0.0
 43
0.0
 44
0.0
 45
0.0
 46
0.0
 47
0.0
 48
0.0
 49
0.0
140
0.0
141
0.0
142
1.0
143
1.0
 70
  1712
 72
     0
 73
     0
 74
     0
  7

 75
     0
147
1.0
 76
     0
 77
     2
 78
   300
148
0.0
149
0.0
100
AcDbLayout
  1
Model
 70
     1
 71
     0
 10
0.0
 20
0.0
 11
12.0
 21
9.0
 12
0.0
 22
0.0
 32
0.0
 14
0.0
 24
0.0
 34
0.0
 15
0.0
 25
0.0
 35
0.0
146
0.0
 13
0.0
 23
0.0
 33
0.0
 16
1.0
 26
0.0
 36
0.0
 17
0.0
 27
1.0
 37
0.0
 76
     0
330
1F
  0
MATERIAL
  5
B3
102
{ACAD_XDICTIONARY
360
B4
102
}
102
{ACAD_REACTORS
330
AA
102
}
330
AA
100
AcDbMaterial
  1
ByBlock
 72
     0
 43
0.0208333333333333
 43
0.0
 43
0.0
 43
0.0
 43
0.0
 43
0.0208333333333333
 43
0.0
 43
0.0
 43
0.0
 43
0.0
 43
1.0
 43
0.0
 43
0.0
 43
0.0
 43
0.0
 43
1.0
 77
     0
 47
0.0208333333333333
 47
0.0
 47
0.0
 47
0.0
 47
0.0
 47
0.0208333333333333
 47
0.0
 47
0.0
 47
0.0
 47
0.0
 47
1.0
 47
0.0
 47
0.0
 47
0.0
 47
0.0
 47
1.0
171
     0
 49
0.0208333333333333
 49
0.0
 49
0.0
 49
0.0
 49
0.0
 49
0.0208333333333333
 49
0.0
 49
0.0
 49
0.0
 49
0.0
 49
1.0
 49
0.0
 49
0.0
 49
0.0
 49
0.0
 49
1.0
175
     0
142
0.0208333333333333
142
0.0
142
0.0
142
0.0
142
0.0
142
0.0208333333333333
142
0.0
142
0.0
142
0.0
142
0.0
142
1.0
142
0.0
142
0.0
142
0.0
142
0.0
142
1.0
179
     0
144
0.0208333333333333
144
0.0
144
0.0
144
0.0
144
0.0
144
0.0208333333333333
144
0.0
144
0.0
144
0.0
144
0.0
144
1.0
144
0.0
144
0.0
144
0.0
144
0.0
144
1.0
147
0.0208333333333333
147
0.0
147
0.0
147
0.0
147
0.0
147
0.0208333333333333
147
0.0
147
0.0
147
0.0
147
0.0
147
1.0
147
0.0
147
0.0
147
0.0
147
0.0
147
1.0
  0
MATERIAL
  5
AB
102
{ACAD_XDICTIONARY
360
AC
102
}
102
{ACAD_REACTORS
330
AA
102
}
330
AA
100
AcDbMaterial
  1
ByLayer
 72
     0
 43
0.0208333333333333
 43
0.0
 43
0.0
 43
0.0
 43
0.0
 43
0.0208333333333333
 43
0.0
 43
0.0
 43
0.0
 43
0.0
 43
1.0
 43
0.0
 43
0.0
 43
0.0
 43
0.0
 43
1.0
 77
     0
 47
0.0208333333333333
 47
0.0
 47
0.0
 47
0.0
 47
0.0
 47
0.0208333333333333
 47
0.0
 47
0.0
 47
0.0
 47
0.0
 47
1.0
 47
0.0
 47
0.0
 47
0.0
 47
0.0
 47
1.0
171
     0
 49
0.0208333333333333
 49
0.0
 49
0.0
 49
0.0
 49
0.0
 49
0.0208333333333333
 49
0.0
 49
0.0
 49
0.0
 49
0.0
 49
1.0
 49
0.0
 49
0.0
 49
0.0
 49
0.0
 49
1.0
175
     0
142
0.0208333333333333
142
0.0
142
0.0
142
0.0
142
0.0
142
0.0208333333333333
142
0.0
142
0.0
142
0.0
142
0.0
142
1.0
142
0.0
142
0.0
142
0.0
142
0.0
142
1.0
179
     0
144
0.0208333333333333
144
0.0
144
0.0
144
0.0
144
0.0
144
0.0208333333333333
144
0.0
144
0.0
144
0.0
144
0.0
144
1.0
144
0.0
144
0.0
144
0.0
144
0.0
144
1.0
147
0.0208333333333333
147
0.0
147
0.0
147
0.0
147
0.0
147
0.0208333333333333
147
0.0
147
0.0
147
0.0
147
0.0
147
1.0
147
0.0
147
0.0
147
0.0
147
0.0
147
1.0
  0
MATERIAL
  5
BB
102
{ACAD_XDICTIONARY
360
BC
102
}
102
{ACAD_REACTORS
330
AA
102
}
330
AA
100
AcDbMaterial
  1
Global
 72
     0
 43
0.0208333333333333
 43
0.0
 43
0.0
 43
0.0
 43
0.0
 43
0.0208333333333333
 43
0.0
 43
0.0
 43
0.0
 43
0.0
 43
1.0
 43
0.0
 43
0.0
 43
0.0
 43
0.0
 43
1.0
 77
     0
 47
0.0208333333333333
 47
0.0
 47
0.0
 47
0.0
 47
0.0
 47
0.0208333333333333
 47
0.0
 47
0.0
 47
0.0
 47
0.0
 47
1.0
 47
0.0
 47
0.0
 47
0.0
 47
0.0
 47
1.0
171
     0
 49
0.0208333333333333
 49
0.0
 49
0.0
 49
0.0
 49
0.0
 49
0.0208333333333333
 49
0.0
 49
0.0
 49
0.0
 49
0.0
 49
1.0
 49
0.0
 49
0.0
 49
0.0
 49
0.0
 49
1.0
175
     0
142
0.0208333333333333
142
0.0
142
0.0
142
0.0
142
0.0
142
0.0208333333333333
142
0.0
142
0.0
142
0.0
142
0.0
142
1.0
142
0.0
142
0.0
142
0.0
142
0.0
142
1.0
179
     0
144
0.0208333333333333
144
0.0
144
0.0
144
0.0
144
0.0
144
0.0208333333333333
144
0.0
144
0.0
144
0.0
144
0.0
144
1.0
144
0.0
144
0.0
144
0.0
144
0.0
144
1.0
147
0.0208333333333333
147
0.0
147
0.0
147
0.0
147
0.0
147
0.0208333333333333
147
0.0
147
0.0
147
0.0
147
0.0
147
1.0
147
0.0
147
0.0
147
0.0
147
0.0
147
1.0
  0
MLEADERSTYLE
  5
F2
102
{ACAD_XDICTIONARY
360
181
102
}
102
{ACAD_REACTORS
330
F1
102
}
330
F1
100
AcDbMLeaderStyle
179
     2
170
     2
171
     1
172
     0
 90
        2
 40
0.0
 41
0.0
173
     1
 91
-1056964608
340
14
 92
       -2
290
     1
 42
0.09
291
     1
 43
0.36
  3
Standard
 44
0.18
300

342
11
174
     1
178
     6
175
     1
176
     0
 93
-1056964608
 45
0.18
292
     0
297
     0
 46
0.18
 94
-1056964608
 47
1.0
 49
1.0
140
1.0
293
     1
141
0.0
294
     1
177
     0
142
1.0
295
     0
296
     0
143
0.125
271
     0
272
     9
273
     9
  0
MLINESTYLE
  5
18
102
{ACAD_REACTORS
330
17
102
}
330
17
100
AcDbMlineStyle
  2
STANDARD
 70
     0
  3

 62
   256
 51
90.0
 52
90.0
 71
     2
 49
0.5
 62
   256
  6
BYLAYER
 49
-0.5
 62
   256
  6
BYLAYER
  0
ACDBPLACEHOLDER
  5
2D
102
{ACAD_REACTORS
330
E
102
}
330
E
  0
ACDBPLACEHOLDER
  5
F
102
{ACAD_REACTORS
330
E
102
}
330
E
  0
SCALE
  5
E0
102
{ACAD_REACTORS
330
DF
102
}
330
DF
100
AcDbScale
 70
     0
300
1:1
140
1.0
141
1.0
290
     1
  0
SCALE
  5
E1
102
{ACAD_REACTORS
330
DF
102
}
330
DF
100
AcDbScale
 70
     0
300
1/128" = 1'-0"
140
0.0078125
141
12.0
290
     0
  0
SCALE
  5
E2
102
{ACAD_REACTORS
330
DF
102
}
330
DF
100
AcDbScale
 70
     0
300
1/64" = 1'-0"
140
0.015625
141
12.0
290
     0
  0
SCALE
  5
E3
102
{ACAD_REACTORS
330
DF
102
}
330
DF
100
AcDbScale
 70
     0
300
1/32" = 1'-0"
140
0.03125
141
12.0
290
     0
  0
SCALE
  5
E4
102
{ACAD_REACTORS
330
DF
102
}
330
DF
100
AcDbScale
 70
     0
300
1/16" = 1'-0"
140
0.0625
141
12.0
290
     0
  0
SCALE
  5
E5
102
{ACAD_REACTORS
330
DF
102
}
330
DF
100
AcDbScale
 70
     0
300
3/32" = 1'-0"
140
0.09375
141
12.0
290
     0
  0
SCALE
  5
E6
102
{ACAD_REACTORS
330
DF
102
}
330
DF
100
AcDbScale
 70
     0
300
1/8" = 1'-0"
140
0.125
141
12.0
290
     0
  0
SCALE
  5
E7
102
{ACAD_REACTORS
330
DF
102
}
330
DF
100
AcDbScale
 70
     0
300
3/16" = 1'-0"
140
0.1875
141
12.0
290
     0
  0
SCALE
  5
E8
102
{ACAD_REACTORS
330
DF
102
}
330
DF
100
AcDbScale
 70
     0
300
1/4" = 1'-0"
140
0.25
141
12.0
290
     0
  0
SCALE
  5
E9
102
{ACAD_REACTORS
330
DF
102
}
330
DF
100
AcDbScale
 70
     0
300
3/8" = 1'-0"
140
0.375
141
12.0
290
     0
  0
SCALE
  5
EA
102
{ACAD_REACTORS
330
DF
102
}
330
DF
100
AcDbScale
 70
     0
300
1/2" = 1'-0"
140
0.5
141
12.0
290
     0
  0
SCALE
  5
EB
102
{ACAD_REACTORS
330
DF
102
}
330
DF
100
AcDbScale
 70
     0
300
3/4" = 1'-0"
140
0.75
141
12.0
290
     0
  0
SCALE
  5
EC
102
{ACAD_REACTORS
330
DF
102
}
330
DF
100
AcDbScale
 70
     0
300
1" = 1'-0"
140
1.0
141
12.0
290
     0
  0
SCALE
  5
ED
102
{ACAD_REACTORS
330
DF
102
}
330
DF
100
AcDbScale
 70
     0
300
1-1/2" = 1'-0"
140
1.5
141
12.0
290
     0
  0
SCALE
  5
EE
102
{ACAD_REACTORS
330
DF
102
}
330
DF
100
AcDbScale
 70
     0
300
3" = 1'-0"
140
3.0
141
12.0
290
     0
  0
SCALE
  5
EF
102
{ACAD_REACTORS
330
DF
102
}
330
DF
100
AcDbScale
 70
     0
300
6" = 1'-0"
140
6.0
141
12.0
290
     0
  0
SCALE
  5
F0
102
{ACAD_REACTORS
330
DF
102
}
330
DF
100
AcDbScale
 70
     0
300
1'-0" = 1'-0"
140
12.0
141
12.0
290
     0
  0
ACDBSECTIONVIEWSTYLE
  5
F4
102
{ACAD_XDICTIONARY
360
183
102
}
102
{ACAD_REACTORS
330
F3
102
}
330
F3
100
AcDbModelDocViewStyle
 70
     0
  3
Imperial24
290
     0
100
AcDbSectionViewStyle
 70
     0
 71
     0
 90
       78
 71
     1
340
11
 62
   256
 40
0.24
340
0
340
0
 62
   256
 40
0.24
300
I, O, Q, S, X, Z
 40
0.48
 90
        3
 40
0.18
 90
        1
 71
     2
340
16
 90
       25
 62
   256
340
16
 90
       50
 62
   256
 40
0.24
 40
0.0
 40
0.24
 71
     3
340
11
 62
   256
 40
0.24
 90
        1
 40
0.75
 90
        1
300
%<\AcVar ViewType \f "%tc1">% %<\AcVar ViewSectionStartId>%-%<\AcVar ViewSectionEndId>%\PSCALE %<\AcVar ViewScale \f "%sn">%
 71
     4
 62
   256
 62
   257
300
ANSI31
 40
1.0
 90
        0
290
     0
290
     0
 90
        6
 40
0.0
 40
1.570796326794896
 40
0.2617993877991494
 40
1.308996938995747
 40
-0.2617993877991494
 40
1.832595714594046
  0
TABLESTYLE
  5
DE
102
{ACAD_XDICTIONARY
360
14E
102
}
102
{ACAD_REACTORS
330
DD
102
}
330
DD
100
AcDbTableStyle
280
     0
  3
Standard
 70
     0
 71
     0
 40
0.06
 41
0.06
280
     0
281
     0
  7
Standard
140
0.18
170
     2
 62
     0
 63
     7
283
     0
 90
      512
 91
        0
  1

274
    -2
284
     1
 64
     0
275
    -2
285
     1
 65
     0
276
    -2
286
     1
 66
     0
277
    -2
287
     1
 67
     0
278
    -2
288
     1
 68
     0
279
    -2
289
     1
 69
     0
  7
Standard
140
0.25
170
     5
 62
     0
 63
     7
283
     0
 90
      512
 91
        0
  1

274
    -2
284
     1
 64
     0
275
    -2
285
     1
 65
     0
276
    -2
286
     1
 66
     0
277
    -2
287
     1
 67
     0
278
    -2
288
     1
 68
     0
279
    -2
289
     1
 69
     0
  7
Standard
140
0.18
170
     5
 62
     0
 63
     7
283
     0
 90
      512
 91
        0
  1

274
    -2
284
     1
 64
     0
275
    -2
285
     1
 65
     0
276
    -2
286
     1
 66
     0
277
    -2
287
     1
 67
     0
278
    -2
288
     1
 68
     0
279
    -2
289
     1
 69
     0
  0
VISUALSTYLE
  5
C9
102
{ACAD_XDICTIONARY
360
15B
102
}
102
{ACAD_REACTORS
330
C3
102
}
330
C3
100
AcDbVisualStyle
  2
2dWireframe
 70
     4
177
     2
291
     0
 71
     0
176
     1
 72
     2
176
     1
 73
     0
176
     1
 90
        0
176
     1
 40
0.6
176
     1
 41
30.0
176
     1
 63
     7
421
 16777215
176
     1
 74
     1
176
     1
 91
        4
176
     1
 64
     7
176
     1
 65
   257
176
     1
 75
     1
176
     1
175
     1
176
     1
 42
1.0
176
     1
 92
        0
176
     1
 66
   257
176
     1
 43
1.0
176
     1
 76
     1
176
     1
 77
     6
176
     1
 78
     2
176
     1
 67
     7
176
     1
 79
     5
176
     1
170
     0
176
     1
171
     0
176
     1
290
     0
176
     1
 93
        1
176
     1
 44
0.0
176
     1
173
     0
176
     1
1001
ACAD
1000
AcDbSavedByObjectVersion
1070
     0
  0
VISUALSTYLE
  5
C8
102
{ACAD_XDICTIONARY
360
159
102
}
102
{ACAD_REACTORS
330
C3
102
}
330
C3
100
AcDbVisualStyle
  2
Basic
 70
     7
177
     2
291
     1
 71
     1
176
     1
 72
     0
176
     1
 73
     1
176
     1
 90
        0
176
     1
 40
0.6
176
     1
 41
30.0
176
     1
 63
     7
421
 16777215
176
     1
 74
     0
176
     1
 91
        4
176
     1
 64
     7
176
     1
 65
   257
176
     1
 75
     1
176
     1
175
     1
176
     1
 42
1.0
176
     1
 92
        8
176
     1
 66
     7
176
     1
 43
1.0
176
     1
 76
     1
176
     1
 77
     6
176
     1
 78
     2
176
     1
 67
     7
176
     1
 79
     5
176
     1
170
     0
176
     1
171
     0
176
     1
290
     0
176
     1
 93
        1
176
     1
 44
0.0
176
     1
173
     0
176
     1
1001
ACAD
1000
AcDbSavedByObjectVersion
1070
     0
  0
VISUALSTYLE
  5
CF
102
{ACAD_XDICTIONARY
360
167
102
}
102
{ACAD_REACTORS
330
C3
102
}
330
C3
100
AcDbVisualStyle
  2
Brighten
 70
    12
177
     2
291
     1
 71
     2
176
     1
 72
     2
176
     1
 73
     0
176
     1
 90
        0
176
     1
 40
0.6
176
     1
 41
30.0
176
     1
 63
     7
421
 16777215
176
     1
 74
     1
176
     1
 91
        4
176
     1
 64
     7
176
     1
 65
   257
176
     1
 75
     1
176
     1
175
     1
176
     1
 42
1.0
176
     1
 92
        8
176
     1
 66
     7
176
     1
 43
1.0
176
     1
 76
     1
176
     1
 77
     6
176
     1
 78
     2
176
     1
 67
     7
176
     1
 79
     5
176
     1
170
     0
176
     1
171
     0
176
     1
290
     0
176
     1
 93
        1
176
     1
 44
50.0
176
     1
173
     0
176
     1
1001
ACAD
1000
AcDbSavedByObjectVersion
1070
     0
  0
VISUALSTYLE
  5
D3
102
{ACAD_XDICTIONARY
360
16F
102
}
102
{ACAD_REACTORS
330
C3
102
}
330
C3
100
AcDbVisualStyle
  2
ColorChange
 70
    16
177
     2
291
     1
 71
     2
176
     1
 72
     2
176
     1
 73
     3
176
     1
 90
        0
176
     1
 40
0.6
176
     1
 41
30.0
176
     1
 63
     8
421
  8421504
176
     1
 74
     1
176
     1
 91
        4
176
     1
 64
     7
176
     1
 65
   257
176
     1
 75
     1
176
     1
175
     1
176
     1
 42
1.0
176
     1
 92
        8
176
     1
 66
     8
424
  8421504
176
     1
 43
1.0
176
     1
 76
     1
176
     1
 77
     6
176
     1
 78
     2
176
     1
 67
     7
176
     1
 79
     5
176
     1
170
     0
176
     1
171
     0
176
     1
290
     0
176
     1
 93
        1
176
     1
 44
0.0
176
     1
173
     0
176
     1
1001
ACAD
1000
AcDbSavedByObjectVersion
1070
     0
  0
VISUALSTYLE
  5
CC
102
{ACAD_XDICTIONARY
360
161
102
}
102
{ACAD_REACTORS
330
C3
102
}
330
C3
100
AcDbVisualStyle
  2
Conceptual
 70
     9
177
     2
291
     0
 71
     3
176
     1
 72
     2
176
     1
 73
     0
176
     1
 90
        0
176
     1
 40
0.6
176
     1
 41
30.0
176
     1
 63
     7
421
 16777215
176
     1
 74
     2
176
     1
 91
        2
176
     1
 64
     7
176
     1
 65
   257
176
     1
 75
     1
176
     1
175
     1
176
     1
 42
179.0
176
     1
 92
        8
176
     1
 66
     7
176
     1
 43
1.0
176
     1
 76
     1
176
     1
 77
     6
176
     1
 78
     2
176
     1
 67
     7
176
     1
 79
     3
176
     1
170
     0
176
     1
171
     0
176
     1
290
     0
176
     1
 93
        1
176
     1
 44
0.0
176
     1
173
     0
176
     1
1001
ACAD
1000
AcDbSavedByObjectVersion
1070
     0
  0
VISUALSTYLE
  5
CE
102
{ACAD_XDICTIONARY
360
165
102
}
102
{ACAD_REACTORS
330
C3
102
}
330
C3
100
AcDbVisualStyle
  2
Dim
 70
    11
177
     2
291
     1
 71
     2
176
     1
 72
     2
176
     1
 73
     0
176
     1
 90
        0
176
     1
 40
0.6
176
     1
 41
30.0
176
     1
 63
     7
421
 16777215
176
     1
 74
     1
176
     1
 91
        4
176
     1
 64
     7
176
     1
 65
   257
176
     1
 75
     1
176
     1
175
     1
176
     1
 42
1.0
176
     1
 92
        8
176
     1
 66
     7
176
     1
 43
1.0
176
     1
 76
     1
176
     1
 77
     6
176
     1
 78
     2
176
     1
 67
     7
176
     1
 79
     5
176
     1
170
     0
176
     1
171
     0
176
     1
290
     0
176
     1
 93
        1
176
     1
 44
-50.0
176
     1
173
     0
176
     1
1001
ACAD
1000
AcDbSavedByObjectVersion
1070
     0
  0
VISUALSTYLE
  5
DB
102
{ACAD_XDICTIONARY
360
17F
102
}
102
{ACAD_REACTORS
330
C3
102
}
330
C3
100
AcDbVisualStyle
  2
EdgeColorOff
 70
    22
177
     2
291
     1
 71
     2
176
     0
 72
     2
176
     0
 73
     0
176
     0
 90
        0
176
     0
 40
0.6
176
     0
 41
30.0
176
     0
 63
     7
421
 16777215
176
     0
 74
     1
176
     0
 91
        4
176
     0
 64
     7
176
     0
 65
   257
176
     0
 75
     1
176
     0
175
     1
176
     0
 42
1.0
176
     0
 92
        8
176
     2
 66
     7
176
     0
 43
1.0
176
     0
 76
     1
176
     0
 77
     6
176
     0
 78
     2
176
     0
 67
     7
176
     0
 79
     5
176
     0
170
     0
176
     0
171
     0
176
     0
290
     0
176
     0
 93
        1
176
     0
 44
0.0
176
     0
173
     0
176
     0
1001
ACAD
1000
AcDbSavedByObjectVersion
1070
     0
  0
VISUALSTYLE
  5
D2
102
{ACAD_XDICTIONARY
360
16D
102
}
102
{ACAD_REACTORS
330
C3
102
}
330
C3
100
AcDbVisualStyle
  2
Facepattern
 70
    15
177
     2
291
     1
 71
     2
176
     1
 72
     2
176
     1
 73
     0
176
     1
 90
        0
176
     1
 40
0.6
176
     1
 41
30.0
176
     1
 63
     7
421
 16777215
176
     1
 74
     1
176
     1
 91
        4
176
     1
 64
     7
176
     1
 65
   257
176
     1
 75
     1
176
     1
175
     1
176
     1
 42
1.0
176
     1
 92
        8
176
     1
 66
     7
176
     1
 43
1.0
176
     1
 76
     1
176
     1
 77
     6
176
     1
 78
     2
176
     1
 67
     7
176
     1
 79
     5
176
     1
170
     0
176
     1
171
     0
176
     1
290
     0
176
     1
 93
        1
176
     1
 44
0.0
176
     1
173
     0
176
     1
1001
ACAD
1000
AcDbSavedByObjectVersion
1070
     0
  0
VISUALSTYLE
  5
C4
102
{ACAD_XDICTIONARY
360
151
102
}
102
{ACAD_REACTORS
330
C3
102
}
330
C3
100
AcDbVisualStyle
  2
Flat
 70
     0
177
     2
291
     1
 71
     2
176
     1
 72
     1
176
     1
 73
     1
176
     1
 90
        2
176
     1
 40
0.6
176
     1
 41
30.0
176
     1
 63
     7
421
 16777215
176
     1
 74
     0
176
     1
 91
        0
176
     1
 64
     7
176
     1
 65
   257
176
     1
 75
     1
176
     1
175
     1
176
     1
 42
1.0
176
     1
 92
        8
176
     1
 66
     7
176
     1
 43
1.0
176
     1
 76
     1
176
     1
 77
     6
176
     1
 78
     2
176
     1
 67
     7
176
     1
 79
     5
176
     1
170
     0
176
     1
171
     0
176
     1
290
     0
176
     1
 93
       13
176
     1
 44
0.0
176
     1
173
     0
176
     1
1001
ACAD
1000
AcDbSavedByObjectVersion
1070
     0
  0
VISUALSTYLE
  5
C5
102
{ACAD_XDICTIONARY
360
153
102
}
102
{ACAD_REACTORS
330
C3
102
}
330
C3
100
AcDbVisualStyle
  2
FlatWithEdges
 70
     1
177
     2
291
     1
 71
     2
176
     1
 72
     1
176
     1
 73
     1
176
     1
 90
        2
176
     1
 40
0.6
176
     1
 41
30.0
176
     1
 63
     7
421
 16777215
176
     1
 74
     1
176
     1
 91
        0
176
     1
 64
     7
176
     1
 65
   257
176
     1
 75
     1
176
     1
175
     1
176
     1
 42
1.0
176
     1
 92
        0
176
     1
 66
   257
176
     1
 43
1.0
176
     1
 76
     1
176
     1
 77
     6
176
     1
 78
     2
176
     1
 67
     7
176
     1
 79
     5
176
     1
170
     0
176
     1
171
     0
176
     1
290
     0
176
     1
 93
       13
176
     1
 44
0.0
176
     1
173
     0
176
     1
1001
ACAD
1000
AcDbSavedByObjectVersion
1070
     0
  0
VISUALSTYLE
  5
C6
102
{ACAD_XDICTIONARY
360
155
102
}
102
{ACAD_REACTORS
330
C3
102
}
330
C3
100
AcDbVisualStyle
  2
Gouraud
 70
     2
177
     2
291
     1
 71
     2
176
     1
 72
     2
176
     1
 73
     1
176
     1
 90
        2
176
     1
 40
0.6
176
     1
 41
30.0
176
     1
 63
     7
421
 16777215
176
     1
 74
     0
176
     1
 91
        0
176
     1
 64
     7
176
     1
 65
   257
176
     1
 75
     1
176
     1
175
     1
176
     1
 42
1.0
176
     1
 92
        0
176
     1
 66
     7
176
     1
 43
1.0
176
     1
 76
     1
176
     1
 77
     6
176
     1
 78
     2
176
     1
 67
     7
176
     1
 79
     5
176
     1
170
     0
176
     1
171
     0
176
     1
290
     0
176
     1
 93
       13
176
     1
 44
0.0
176
     1
173
     0
176
     1
1001
ACAD
1000
AcDbSavedByObjectVersion
1070
     0
  0
VISUALSTYLE
  5
C7
102
{ACAD_XDICTIONARY
360
157
102
}
102
{ACAD_REACTORS
330
C3
102
}
330
C3
100
AcDbVisualStyle
  2
GouraudWithEdges
 70
     3
177
     2
291
     1
 71
     2
176
     1
 72
     2
176
     1
 73
     1
176
     1
 90
        2
176
     1
 40
0.6
176
     1
 41
30.0
176
     1
 63
     7
421
 16777215
176
     1
 74
     1
176
     1
 91
        0
176
     1
 64
     7
176
     1
 65
   257
176
     1
 75
     1
176
     1
175
     1
176
     1
 42
1.0
176
     1
 92
        0
176
     1
 66
   257
176
     1
 43
1.0
176
     1
 76
     1
176
     1
 77
     6
176
     1
 78
     2
176
     1
 67
     7
176
     1
 79
     5
176
     1
170
     0
176
     1
171
     0
176
     1
290
     0
176
     1
 93
       13
176
     1
 44
0.0
176
     1
173
     0
176
     1
1001
ACAD
1000
AcDbSavedByObjectVersion
1070
     0
  0
VISUALSTYLE
  5
CB
102
{ACAD_XDICTIONARY
360
15F
102
}
102
{ACAD_REACTORS
330
C3
102
}
330
C3
100
AcDbVisualStyle
  2
Hidden
 70
     6
177
     2
291
     0
 71
     1
176
     1
 72
     2
176
     1
 73
     2
176
     1
 90
        0
176
     1
 40
0.6
176
     1
 41
30.0
176
     1
 63
     7
421
 16777215
176
     1
 74
     2
176
     1
 91
        2
176
     1
 64
     7
176
     1
 65
   257
176
     1
 75
     2
176
     1
175
     1
176
     1
 42
40.0
176
     1
 92
        0
176
     1
 66
   257
176
     1
 43
1.0
176
     1
 76
     1
176
     1
 77
     6
176
     1
 78
     2
176
     1
 67
     7
176
     1
 79
     3
176
     1
170
     0
176
     1
171
     0
176
     1
290
     0
176
     1
 93
        1
176
     1
 44
0.0
176
     1
173
     0
176
     1
1001
ACAD
1000
AcDbSavedByObjectVersion
1070
     0
  0
VISUALSTYLE
  5
D9
102
{ACAD_XDICTIONARY
360
17B
102
}
102
{ACAD_REACTORS
330
C3
102
}
330
C3
100
AcDbVisualStyle
  2
JitterOff
 70
    20
177
     2
291
     1
 71
     2
176
     0
 72
     2
176
     0
 73
     0
176
     0
 90
        0
176
     0
 40
0.6
176
     0
 41
30.0
176
     0
 63
     7
421
 16777215
176
     0
 74
     1
176
     0
 91
        4
176
     0
 64
     7
176
     0
 65
   257
176
     0
 75
     1
176
     0
175
     1
176
     0
 42
1.0
176
     0
 92
       10
176
     2
 66
     7
176
     0
 43
1.0
176
     0
 76
     1
176
     0
 77
     6
176
     0
 78
     2
176
     0
 67
     7
176
     0
 79
     5
176
     0
170
     0
176
     0
171
     0
176
     0
290
     0
176
     0
 93
        1
176
     0
 44
0.0
176
     0
173
     0
176
     0
1001
ACAD
1000
AcDbSavedByObjectVersion
1070
     0
  0
VISUALSTYLE
  5
D1
102
{ACAD_XDICTIONARY
360
16B
102
}
102
{ACAD_REACTORS
330
C3
102
}
330
C3
100
AcDbVisualStyle
  2
Linepattern
 70
    14
177
     2
291
     1
 71
     2
176
     1
 72
     2
176
     1
 73
     0
176
     1
 90
        0
176
     1
 40
0.6
176
     1
 41
30.0
176
     1
 63
     7
421
 16777215
176
     1
 74
     1
176
     1
 91
        4
176
     1
 64
     7
176
     1
 65
   257
176
     1
 75
     7
176
     1
175
     7
176
     1
 42
1.0
176
     1
 92
        8
176
     1
 66
     7
176
     1
 43
1.0
176
     1
 76
     1
176
     1
 77
     6
176
     1
 78
     2
176
     1
 67
     7
176
     1
 79
     5
176
     1
170
     0
176
     1
171
     0
176
     1
290
     0
176
     1
 93
        1
176
     1
 44
0.0
176
     1
173
     0
176
     1
1001
ACAD
1000
AcDbSavedByObjectVersion
1070
     0
  0
VISUALSTYLE
  5
DA
102
{ACAD_XDICTIONARY
360
17D
102
}
102
{ACAD_REACTORS
330
C3
102
}
330
C3
100
AcDbVisualStyle
  2
OverhangOff
 70
    21
177
     2
291
     1
 71
     2
176
     0
 72
     2
176
     0
 73
     0
176
     0
 90
        0
176
     0
 40
0.6
176
     0
 41
30.0
176
     0
 63
     7
421
 16777215
176
     0
 74
     1
176
     0
 91
        4
176
     0
 64
     7
176
     0
 65
   257
176
     0
 75
     1
176
     0
175
     1
176
     0
 42
1.0
176
     0
 92
        9
176
     2
 66
     7
176
     0
 43
1.0
176
     0
 76
     1
176
     0
 77
     6
176
     0
 78
     2
176
     0
 67
     7
176
     0
 79
     5
176
     0
170
     0
176
     0
171
     0
176
     0
290
     0
176
     0
 93
        1
176
     0
 44
0.0
176
     0
173
     0
176
     0
1001
ACAD
1000
AcDbSavedByObjectVersion
1070
     0
  0
VISUALSTYLE
  5
CD
102
{ACAD_XDICTIONARY
360
163
102
}
102
{ACAD_REACTORS
330
C3
102
}
330
C3
100
AcDbVisualStyle
  2
Realistic
 70
     8
177
     2
291
     0
 71
     2
176
     1
 72
     3
176
     1
 73
     0
176
     1
 90
        2
176
     1
 40
0.6
176
     1
 41
30.0
176
     1
 63
     7
421
 16777215
176
     1
 74
     0
176
     1
 91
        0
176
     1
 64
     7
176
     1
 65
   257
176
     1
 75
     1
176
     1
175
     1
176
     1
 42
1.0
176
     1
 92
        8
176
     1
 66
   257
176
     1
 43
1.0
176
     1
 76
     1
176
     1
 77
     6
176
     1
 78
     2
176
     1
 67
     7
176
     1
 79
     3
176
     1
170
     0
176
     1
171
     0
176
     1
290
     0
176
     1
 93
       13
176
     1
 44
0.0
176
     1
173
     0
176
     1
1001
ACAD
1000
AcDbSavedByObjectVersion
1070
     0
  0
VISUALSTYLE
  5
D8
102
{ACAD_XDICTIONARY
360
179
102
}
102
{ACAD_REACTORS
330
C3
102
}
330
C3
100
AcDbVisualStyle
  2
Shaded
 70
    27
177
     2
291
     0
 71
     2
176
     1
 72
     2
176
     1
 73
     1
176
     1
 90
        2
176
     1
 40
0.6
176
     1
 41
30.0
176
     1
 63
     7
421
 16777215
176
     1
 74
     0
176
     1
 91
        4
176
     1
 64
     7
176
     1
 65
   257
176
     1
 75
     1
176
     1
175
     1
176
     1
 42
1.0
176
     1
 92
        8
176
     1
 66
   257
176
     1
 43
1.0
176
     1
 76
     1
176
     1
 77
     6
176
     1
 78
     2
176
     1
 67
     8
425
  7895160
176
     1
 79
     3
176
     1
170
     0
176
     1
171
     0
176
     1
290
     0
176
     1
 93
        5
176
     1
 44
0.0
176
     1
173
     0
176
     1
1001
ACAD
1000
AcDbSavedByObjectVersion
1070
     0
  0
VISUALSTYLE
  5
D7
102
{ACAD_XDICTIONARY
360
177
102
}
102
{ACAD_REACTORS
330
C3
102
}
330
C3
100
AcDbVisualStyle
  2
Shaded with edges
 70
    26
177
     2
291
     0
 71
     2
176
     1
 72
     2
176
     1
 73
     1
176
     1
 90
        2
176
     1
 40
0.6
176
     1
 41
30.0
176
     1
 63
     7
421
 16777215
176
     1
 74
     1
176
     1
 91
       10
176
     1
 64
     7
176
     1
 65
   257
176
     1
 75
     2
176
     1
175
     1
176
     1
 42
1.0
176
     1
 92
        8
176
     1
 66
   257
176
     1
 43
1.0
176
     1
 76
     1
176
     1
 77
     6
176
     1
 78
     2
176
     1
 67
     7
176
     1
 79
     3
176
     1
170
     0
176
     1
171
     0
176
     1
290
     0
176
     1
 93
        5
176
     1
 44
0.0
176
     1
173
     0
176
     1
1001
ACAD
1000
AcDbSavedByObjectVersion
1070
     0
  0
VISUALSTYLE
  5
D4
102
{ACAD_XDICTIONARY
360
171
102
}
102
{ACAD_REACTORS
330
C3
102
}
330
C3
100
AcDbVisualStyle
  2
Shades of Gray
 70
    23
177
     2
291
     0
 71
     2
176
     1
 72
     2
176
     1
 73
     3
176
     1
 90
        0
176
     1
 40
0.6
176
     1
 41
30.0
176
     1
 63
     7
421
 16777215
176
     1
 74
     2
176
     1
 91
        2
176
     1
 64
     7
176
     1
 65
     7
176
     1
 75
     1
176
     1
175
     1
176
     1
 42
40.0
176
     1
 92
        8
176
     1
 66
     7
176
     1
 43
1.0
176
     1
 76
     1
176
     1
 77
     6
176
     1
 78
     2
176
     1
 67
     7
176
     1
 79
     3
176
     1
170
     0
176
     1
171
     0
176
     1
290
     0
176
     1
 93
        1
176
     1
 44
0.0
176
     1
173
     0
176
     1
1001
ACAD
1000
AcDbSavedByObjectVersion
1070
     0
  0
VISUALSTYLE
  5
D5
102
{ACAD_XDICTIONARY
360
173
102
}
102
{ACAD_REACTORS
330
C3
102
}
330
C3
100
AcDbVisualStyle
  2
Sketchy
 70
    24
177
     2
291
     0
 71
     1
176
     1
 72
     2
176
     1
 73
     2
176
     1
 90
        0
176
     1
 40
0.6
176
     1
 41
30.0
176
     1
 63
     7
421
 16777215
176
     1
 74
     2
176
     1
 91
        2
176
     1
 64
     7
176
     1
 65
     7
176
     1
 75
     1
176
     1
175
     1
176
     1
 42
40.0
176
     1
 92
       11
176
     1
 66
     7
176
     1
 43
1.0
176
     1
 76
     1
176
     1
 77
     6
176
     1
 78
     2
176
     1
 67
     7
176
     1
 79
     6
176
     1
170
     0
176
     1
171
     0
176
     1
290
     0
176
     1
 93
        1
176
     1
 44
0.0
176
     1
173
     0
176
     1
1001
ACAD
1000
AcDbSavedByObjectVersion
1070
     0
  0
VISUALSTYLE
  5
D0
102
{ACAD_XDICTIONARY
360
169
102
}
102
{ACAD_REACTORS
330
C3
102
}
330
C3
100
AcDbVisualStyle
  2
Thicken
 70
    13
177
     2
291
     1
 71
     2
176
     1
 72
     2
176
     1
 73
     0
176
     1
 90
        0
176
     1
 40
0.6
176
     1
 41
30.0
176
     1
 63
     7
421
 16777215
176
     1
 74
     1
176
     1
 91
        4
176
     1
 64
     7
176
     1
 65
   257
176
     1
 75
     1
176
     1
175
     1
176
     1
 42
1.0
176
     1
 92
       12
176
     1
 66
     7
176
     1
 43
1.0
176
     1
 76
     1
176
     1
 77
     6
176
     1
 78
     2
176
     1
 67
     7
176
     1
 79
     5
176
     1
170
     0
176
     1
171
     0
176
     1
290
     0
176
     1
 93
        1
176
     1
 44
0.0
176
     1
173
     0
176
     1
1001
ACAD
1000
AcDbSavedByObjectVersion
1070
     0
  0
VISUALSTYLE
  5
CA
102
{ACAD_XDICTIONARY
360
15D
102
}
102
{ACAD_REACTORS
330
C3
102
}
330
C3
100
AcDbVisualStyle
  2
Wireframe
 70
     5
177
     2
291
     0
 71
     0
176
     1
 72
     2
176
     1
 73
     0
176
     1
 90
        0
176
     1
 40
0.6
176
     1
 41
30.0
176
     1
 63
     7
421
 16777215
176
     1
 74
     1
176
     1
 91
        4
176
     1
 64
     7
176
     1
 65
   257
176
     1
 75
     1
176
     1
175
     1
176
     1
 42
1.0
176
     1
 92
        0
176
     1
 66
   257
176
     1
 43
1.0
176
     1
 76
     1
176
     1
 77
     6
176
     1
 78
     2
176
     1
 67
     7
176
     1
 79
     3
176
     1
170
     0
176
     1
171
     0
176
     1
290
     0
176
     1
 93
        1
176
     1
 44
0.0
176
     1
173
     0
176
     1
1001
ACAD
1000
AcDbSavedByObjectVersion
1070
     0
  0
VISUALSTYLE
  5
D6
102
{ACAD_XDICTIONARY
360
175
102
}
102
{ACAD_REACTORS
330
C3
102
}
330
C3
100
AcDbVisualStyle
  2
X-Ray
 70
    25
177
     2
291
     0
 71
     2
176
     1
 72
     2
176
     1
 73
     1
176
     1
 90
        1
176
     1
 40
0.5
176
     1
 41
30.0
176
     1
 63
     7
421
 16777215
176
     1
 74
     1
176
     1
 91
        0
176
     1
 64
     7
176
     1
 65
   257
176
     1
 75
     1
176
     1
175
     1
176
     1
 42
1.0
176
     1
 92
        8
176
     1
 66
     7
176
     1
 43
1.0
176
     1
 76
     1
176
     1
 77
     6
176
     1
 78
     2
176
     1
 67
     7
176
     1
 79
     3
176
     1
170
     0
176
     1
171
     0
176
     1
290
     0
176
     1
 93
       13
176
     1
 44
0.0
176
     1
173
     0
176
     1
1001
ACAD
1000
AcDbSavedByObjectVersion
1070
     0
  0
DICTIONARYVAR
  5
14A
102
{ACAD_REACTORS
330
144
102
}
330
144
100
DictionaryVariables
280
     0
  1
1:1
  0
DICTIONARYVAR
  5
146
102
{ACAD_REACTORS
330
144
102
}
330
144
100
DictionaryVariables
280
     0
  1
STANDARD
  0
DICTIONARYVAR
  5
145
102
{ACAD_REACTORS
330
144
102
}
330
144
100
DictionaryVariables
280
     0
  1
STANDARD
  0
DICTIONARYVAR
  5
147
102
{ACAD_REACTORS
330
144
102
}
330
144
100
DictionaryVariables
280
     0
  1
Imperial24
  0
DICTIONARYVAR
  5
148
102
{ACAD_REACTORS
330
144
102
}
330
144
100
DictionaryVariables
280
     0
  1
Imperial24
  0
DICTIONARYVAR
  5
14C
102
{ACAD_REACTORS
330
144
102
}
330
144
100
DictionaryVariables
280
     0
  1
1
  0
DICTIONARYVAR
  5
14D
102
{ACAD_REACTORS
330
144
102
}
330
144
100
DictionaryVariables
280
     0
  1
15
  0
DICTIONARYVAR
  5
14B
102
{ACAD_REACTORS
330
144
102
}
330
144
100
DictionaryVariables
280
     0
  1
0
  0
DICTIONARYVAR
  5
149
102
{ACAD_REACTORS
330
144
102
}
330
144
100
DictionaryVariables
280
     0
  1
0
  0
DICTIONARY
  5
185
330
F6
100
AcDbDictionary
280
     1
281
     1
  3
ACAD_XREC_ROUNDTRIP
360
186
  0
DICTIONARY
  5
B4
330
B3
100
AcDbDictionary
280
     1
281
     1
  3
BUMPTILE
360
B6
  3
DIFFUSETILE
360
B5
  3
OPACITYTILE
360
B9
  3
REFLECTIONTILE
360
B8
  3
REFRACTIONTILE
360
BA
  3
SPECULARTILE
360
B7
  0
DICTIONARY
  5
AC
330
AB
100
AcDbDictionary
280
     1
281
     1
  3
BUMPTILE
360
AE
  3
DIFFUSETILE
360
AD
  3
OPACITYTILE
360
B1
  3
REFLECTIONTILE
360
B0
  3
REFRACTIONTILE
360
B2
  3
SPECULARTILE
360
AF
  0
DICTIONARY
  5
BC
330
BB
100
AcDbDictionary
280
     1
281
     1
  3
BUMPTILE
360
BE
  3
DIFFUSETILE
360
BD
  3
OPACITYTILE
360
C1
  3
REFLECTIONTILE
360
C0
  3
REFRACTIONTILE
360
C2
  3
SPECULARTILE
360
BF
  0
DICTIONARY
  5
181
330
F2
100
AcDbDictionary
280
     1
281
     1
  3
ACAD_XREC_ROUNDTRIP
360
182
  0
DICTIONARY
  5
183
330
F4
100
AcDbDictionary
280
     1
281
     1
  3
ACAD_XREC_ROUNDTRIP
360
184
  0
DICTIONARY
  5
14E
330
DE
100
AcDbDictionary
280
     1
281
     1
  3
ACAD_ROUNDTRIP_2008_TABLESTYLE_CELLSTYLEMAP
360
14F
  0
DICTIONARY
  5
15B
330
C9
100
AcDbDictionary
280
     1
281
     1
  3
ACAD_XREC_ROUNDTRIP
360
15C
  0
DICTIONARY
  5
159
330
C8
100
AcDbDictionary
280
     1
281
     1
  3
ACAD_XREC_ROUNDTRIP
360
15A
  0
DICTIONARY
  5
167
330
CF
100
AcDbDictionary
280
     1
281
     1
  3
ACAD_XREC_ROUNDTRIP
360
168
  0
DICTIONARY
  5
16F
330
D3
100
AcDbDictionary
280
     1
281
     1
  3
ACAD_XREC_ROUNDTRIP
360
170
  0
DICTIONARY
  5
161
330
CC
100
AcDbDictionary
280
     1
281
     1
  3
ACAD_XREC_ROUNDTRIP
360
162
  0
DICTIONARY
  5
165
330
CE
100
AcDbDictionary
280
     1
281
     1
  3
ACAD_XREC_ROUNDTRIP
360
166
  0
DICTIONARY
  5
17F
330
DB
100
AcDbDictionary
280
     1
281
     1
  3
ACAD_XREC_ROUNDTRIP
360
180
  0
DICTIONARY
  5
16D
330
D2
100
AcDbDictionary
280
     1
281
     1
  3
ACAD_XREC_ROUNDTRIP
360
16E
  0
DICTIONARY
  5
151
330
C4
100
AcDbDictionary
280
     1
281
     1
  3
ACAD_XREC_ROUNDTRIP
360
152
  0
DICTIONARY
  5
153
330
C5
100
AcDbDictionary
280
     1
281
     1
  3
ACAD_XREC_ROUNDTRIP
360
154
  0
DICTIONARY
  5
155
330
C6
100
AcDbDictionary
280
     1
281
     1
  3
ACAD_XREC_ROUNDTRIP
360
156
  0
DICTIONARY
  5
157
330
C7
100
AcDbDictionary
280
     1
281
     1
  3
ACAD_XREC_ROUNDTRIP
360
158
  0
DICTIONARY
  5
15F
330
CB
100
AcDbDictionary
280
     1
281
     1
  3
ACAD_XREC_ROUNDTRIP
360
160
  0
DICTIONARY
  5
17B
330
D9
100
AcDbDictionary
280
     1
281
     1
  3
ACAD_XREC_ROUNDTRIP
360
17C
  0
DICTIONARY
  5
16B
330
D1
100
AcDbDictionary
280
     1
281
     1
  3
ACAD_XREC_ROUNDTRIP
360
16C
  0
DICTIONARY
  5
17D
330
DA
100
AcDbDictionary
280
     1
281
     1
  3
ACAD_XREC_ROUNDTRIP
360
17E
  0
DICTIONARY
  5
163
330
CD
100
AcDbDictionary
280
     1
281
     1
  3
ACAD_XREC_ROUNDTRIP
360
164
  0
DICTIONARY
  5
179
330
D8
100
AcDbDictionary
280
     1
281
     1
  3
ACAD_XREC_ROUNDTRIP
360
17A
  0
DICTIONARY
  5
177
330
D7
100
AcDbDictionary
280
     1
281
     1
  3
ACAD_XREC_ROUNDTRIP
360
178
  0
DICTIONARY
  5
171
330
D4
100
AcDbDictionary
280
     1
281
     1
  3
ACAD_XREC_ROUNDTRIP
360
172
  0
DICTIONARY
  5
173
330
D5
100
AcDbDictionary
280
     1
281
     1
  3
ACAD_XREC_ROUNDTRIP
360
174
  0
DICTIONARY
  5
169
330
D0
100
AcDbDictionary
280
     1
281
     1
  3
ACAD_XREC_ROUNDTRIP
360
16A
  0
DICTIONARY
  5
15D
330
CA
100
AcDbDictionary
280
     1
281
     1
  3
ACAD_XREC_ROUNDTRIP
360
15E
  0
DICTIONARY
  5
175
330
D6
100
AcDbDictionary
280
     1
281
     1
  3
ACAD_XREC_ROUNDTRIP
360
176
  0
XRECORD
  5
186
102
{ACAD_REACTORS
330
185
102
}
330
185
100
AcDbXrecord
280
     1
102
DISPLAYNAME
  1
Imperial24
102
FLAGS
 90
        0
  0
XRECORD
  5
B6
102
{ACAD_REACTORS
330
B4
102
}
330
B4
100
AcDbXrecord
280
     1
270
     1
271
     1
  0
XRECORD
  5
B5
102
{ACAD_REACTORS
330
B4
102
}
330
B4
100
AcDbXrecord
280
     1
270
     1
271
     1
  0
XRECORD
  5
B9
102
{ACAD_REACTORS
330
B4
102
}
330
B4
100
AcDbXrecord
280
     1
270
     1
271
     1
  0
XRECORD
  5
B8
102
{ACAD_REACTORS
330
B4
102
}
330
B4
100
AcDbXrecord
280
     1
270
     1
271
     1
  0
XRECORD
  5
BA
102
{ACAD_REACTORS
330
B4
102
}
330
B4
100
AcDbXrecord
280
     1
270
     1
271
     1
  0
XRECORD
  5
B7
102
{ACAD_REACTORS
330
B4
102
}
330
B4
100
AcDbXrecord
280
     1
270
     1
271
     1
  0
XRECORD
  5
AE
102
{ACAD_REACTORS
330
AC
102
}
330
AC
100
AcDbXrecord
280
     1
270
     1
271
     1
  0
XRECORD
  5
AD
102
{ACAD_REACTORS
330
AC
102
}
330
AC
100
AcDbXrecord
280
     1
270
     1
271
     1
  0
XRECORD
  5
B1
102
{ACAD_REACTORS
330
AC
102
}
330
AC
100
AcDbXrecord
280
     1
270
     1
271
     1
  0
XRECORD
  5
B0
102
{ACAD_REACTORS
330
AC
102
}
330
AC
100
AcDbXrecord
280
     1
270
     1
271
     1
  0
XRECORD
  5
B2
102
{ACAD_REACTORS
330
AC
102
}
330
AC
100
AcDbXrecord
280
     1
270
     1
271
     1
  0
XRECORD
  5
AF
102
{ACAD_REACTORS
330
AC
102
}
330
AC
100
AcDbXrecord
280
     1
270
     1
271
     1
  0
XRECORD
  5
BE
102
{ACAD_REACTORS
330
BC
102
}
330
BC
100
AcDbXrecord
280
     1
270
     1
271
     1
  0
XRECORD
  5
BD
102
{ACAD_REACTORS
330
BC
102
}
330
BC
100
AcDbXrecord
280
     1
270
     1
271
     1
  0
XRECORD
  5
C1
102
{ACAD_REACTORS
330
BC
102
}
330
BC
100
AcDbXrecord
280
     1
270
     1
271
     1
  0
XRECORD
  5
C0
102
{ACAD_REACTORS
330
BC
102
}
330
BC
100
AcDbXrecord
280
     1
270
     1
271
     1
  0
XRECORD
  5
C2
102
{ACAD_REACTORS
330
BC
102
}
330
BC
100
AcDbXrecord
280
     1
270
     1
271
     1
  0
XRECORD
  5
BF
102
{ACAD_REACTORS
330
BC
102
}
330
BC
100
AcDbXrecord
280
     1
270
     1
271
     1
  0
XRECORD
  5
182
102
{ACAD_REACTORS
330
181
102
}
330
181
100
AcDbXrecord
280
     1
102
ACAD_ROUNDTRIP_2012_MLEADER_STYLE
298
     1
  0
XRECORD
  5
184
102
{ACAD_REACTORS
330
183
102
}
330
183
100
AcDbXrecord
280
     1
102
DISPLAYNAME
  1
Imperial24
102
FLAGS
 90
        0
  0
CELLSTYLEMAP
  5
14F
102
{ACAD_REACTORS
330
14E
102
}
330
14E
100
AcDbCellStyleMap
 90
        3
300
CELLSTYLE
  1
TABLEFORMAT_BEGIN
 90
        5
170
     1
 91
        0
 92
    32768
 62
   257
 93
        1
300
CONTENTFORMAT
  1
CONTENTFORMAT_BEGIN
 90
        0
 91
        0
 92
      512
 93
        0
300

 40
0.0
140
1.0
 94
        5
 62
     0
340
11
144
0.25
309
CONTENTFORMAT_END
171
     0
 94
        0
309
TABLEFORMAT_END
  1
CELLSTYLE_BEGIN
 90
        1
 91
        1
300
_TITLE
309
CELLSTYLE_END
300
CELLSTYLE
  1
TABLEFORMAT_BEGIN
 90
        5
170
     1
 91
        0
 92
        0
 62
   257
 93
        1
300
CONTENTFORMAT
  1
CONTENTFORMAT_BEGIN
 90
        0
 91
        0
 92
      512
 93
        0
300

 40
0.0
140
1.0
 94
        5
 62
     0
340
11
144
0.18
309
CONTENTFORMAT_END
171
     0
 94
        0
309
TABLEFORMAT_END
  1
CELLSTYLE_BEGIN
 90
        2
 91
        1
300
_HEADER
309
CELLSTYLE_END
300
CELLSTYLE
  1
TABLEFORMAT_BEGIN
 90
        5
170
     1
 91
        0
 92
        0
 62
   257
 93
        1
300
CONTENTFORMAT
  1
CONTENTFORMAT_BEGIN
 90
        0
 91
        0
 92
      512
 93
        0
300

 40
0.0
140
1.0
 94
        2
 62
     0
340
11
144
0.18
309
CONTENTFORMAT_END
171
     0
 94
        0
309
TABLEFORMAT_END
  1
CELLSTYLE_BEGIN
 90
        3
 91
        2
300
_DATA
309
CELLSTYLE_END
  0
XRECORD
  5
15C
102
{ACAD_REACTORS
330
15B
102
}
330
15B
100
AcDbXrecord
280
     1
102
RTVSPost2010Prop28
280
     1
102
RTVSPost2010PropOp28
 70
     1
102
RTVSPost2010Prop29
280
     1
102
RTVSPost2010PropOp29
 70
     1
102
RTVSPost2010Prop30
280
     0
102
RTVSPost2010PropOp30
 70
     1
102
RTVSPost2010Prop31
280
     0
102
RTVSPost2010PropOp31
 70
     1
102
RTVSPost2010Prop32
280
     0
102
RTVSPost2010PropOp32
 70
     1
102
RTVSPost2010Prop33
280
     0
102
RTVSPost2010PropOp33
 70
     1
102
RTVSPost2010Prop34
280
     0
102
RTVSPost2010PropOp34
 70
     1
102
RTVSPost2010Prop35
280
     0
102
RTVSPost2010PropOp35
 70
     1
102
RTVSPost2010Prop36
280
     0
102
RTVSPost2010PropOp36
 70
     1
102
RTVSPost2010Prop37
 90
       50
102
RTVSPost2010PropOp37
 70
     1
102
RTVSPost2010Prop38
140
0.0
102
RTVSPost2010PropOp38
 70
     1
102
RTVSPost2010Prop39
140
1.0
102
RTVSPost2010PropOp39
 70
     1
102
RTVSPost2010Prop40
 90
        0
102
RTVSPost2010PropOp40
 70
     1
102
RTVSPost2010Prop41ColorIndex
 90
       18
102
RTVSPost2010Prop41ColorRGB
 90
        0
102
RTVSPost2010PropOp41
 70
     1
102
RTVSPost2010Prop42
 90
       50
102
RTVSPost2010PropOp42
 70
     1
102
RTVSPost2010Prop43
 90
        3
102
RTVSPost2010PropOp43
 70
     1
102
RTVSPost2010Prop44ColorIndex
 90
        5
102
RTVSPost2010Prop44ColorRGB
 90
      255
102
RTVSPost2010PropOp44
 70
     1
102
RTVSPost2010Prop45
280
     0
102
RTVSPost2010PropOp45
 70
     1
102
RTVSPost2010Prop46
 90
       50
102
RTVSPost2010PropOp46
 70
     1
102
RTVSPost2010Prop47
 90
       50
102
RTVSPost2010PropOp47
 70
     1
102
RTVSPost2010Prop48
 90
       50
102
RTVSPost2010PropOp48
 70
     1
102
RTVSPost2010Prop49
280
     0
102
RTVSPost2010PropOp49
 70
     1
102
RTVSPost2010Prop50
 90
       50
102
RTVSPost2010PropOp50
 70
     1
102
RTVSPost2010Prop51ColorIndex
 90
      256
102
RTVSPost2010Prop51ColorRGB
 90
-16777216
102
RTVSPost2010PropOp51
 70
     0
102
RTVSPost2010Prop52
140
1.0
102
RTVSPost2010PropOp52
 70
     0
102
RTVSPost2010Prop53
 90
        2
102
RTVSPost2010PropOp53
 70
     1
102
RTVSPost2010Prop54
  1
strokes_ogs.tif
102
RTVSPost2010PropOp54
 70
     1
102
RTVSPost2010Prop55
280
     0
102
RTVSPost2010PropOp55
 70
     1
102
RTVSPost2010Prop56
140
1.0
102
RTVSPost2010PropOp56
 70
     1
102
RTVSPost2010Prop57
140
1.0
102
RTVSPost2010PropOp57
 70
     1
  0
XRECORD
  5
15A
102
{ACAD_REACTORS
330
159
102
}
330
159
100
AcDbXrecord
280
     1
102
RTVSPost2010Prop28
280
     0
102
RTVSPost2010PropOp28
 70
     1
102
RTVSPost2010Prop29
280
     1
102
RTVSPost2010PropOp29
 70
     1
102
RTVSPost2010Prop30
280
     1
102
RTVSPost2010PropOp30
 70
     1
102
RTVSPost2010Prop31
280
     0
102
RTVSPost2010PropOp31
 70
     1
102
RTVSPost2010Prop32
280
     0
102
RTVSPost2010PropOp32
 70
     1
102
RTVSPost2010Prop33
280
     0
102
RTVSPost2010PropOp33
 70
     1
102
RTVSPost2010Prop34
280
     0
102
RTVSPost2010PropOp34
 70
     1
102
RTVSPost2010Prop35
280
     0
102
RTVSPost2010PropOp35
 70
     1
102
RTVSPost2010Prop36
280
     0
102
RTVSPost2010PropOp36
 70
     1
102
RTVSPost2010Prop37
 90
       50
102
RTVSPost2010PropOp37
 70
     1
102
RTVSPost2010Prop38
140
0.0
102
RTVSPost2010PropOp38
 70
     1
102
RTVSPost2010Prop39
140
1.0
102
RTVSPost2010PropOp39
 70
     1
102
RTVSPost2010Prop40
 90
        0
102
RTVSPost2010PropOp40
 70
     1
102
RTVSPost2010Prop41ColorIndex
 90
       18
102
RTVSPost2010Prop41ColorRGB
 90
        0
102
RTVSPost2010PropOp41
 70
     1
102
RTVSPost2010Prop42
 90
       50
102
RTVSPost2010PropOp42
 70
     1
102
RTVSPost2010Prop43
 90
        3
102
RTVSPost2010PropOp43
 70
     1
102
RTVSPost2010Prop44ColorIndex
 90
        5
102
RTVSPost2010Prop44ColorRGB
 90
      255
102
RTVSPost2010PropOp44
 70
     1
102
RTVSPost2010Prop45
280
     0
102
RTVSPost2010PropOp45
 70
     1
102
RTVSPost2010Prop46
 90
       50
102
RTVSPost2010PropOp46
 70
     1
102
RTVSPost2010Prop47
 90
       50
102
RTVSPost2010PropOp47
 70
     1
102
RTVSPost2010Prop48
 90
       50
102
RTVSPost2010PropOp48
 70
     1
102
RTVSPost2010Prop49
280
     0
102
RTVSPost2010PropOp49
 70
     1
102
RTVSPost2010Prop50
 90
       50
102
RTVSPost2010PropOp50
 70
     1
102
RTVSPost2010Prop51ColorIndex
 90
      256
102
RTVSPost2010Prop51ColorRGB
 90
-16777216
102
RTVSPost2010PropOp51
 70
     0
102
RTVSPost2010Prop52
140
1.0
102
RTVSPost2010PropOp52
 70
     0
102
RTVSPost2010Prop53
 90
        2
102
RTVSPost2010PropOp53
 70
     1
102
RTVSPost2010Prop54
  1
strokes_ogs.tif
102
RTVSPost2010PropOp54
 70
     1
102
RTVSPost2010Prop55
280
     0
102
RTVSPost2010PropOp55
 70
     1
102
RTVSPost2010Prop56
140
1.0
102
RTVSPost2010PropOp56
 70
     1
102
RTVSPost2010Prop57
140
1.0
102
RTVSPost2010PropOp57
 70
     1
  0
XRECORD
  5
168
102
{ACAD_REACTORS
330
167
102
}
330
167
100
AcDbXrecord
280
     1
102
RTVSPost2010Prop28
280
     0
102
RTVSPost2010PropOp28
 70
     1
102
RTVSPost2010Prop29
280
     1
102
RTVSPost2010PropOp29
 70
     1
102
RTVSPost2010Prop30
280
     1
102
RTVSPost2010PropOp30
 70
     1
102
RTVSPost2010Prop31
280
     0
102
RTVSPost2010PropOp31
 70
     1
102
RTVSPost2010Prop32
280
     0
102
RTVSPost2010PropOp32
 70
     1
102
RTVSPost2010Prop33
280
     0
102
RTVSPost2010PropOp33
 70
     1
102
RTVSPost2010Prop34
280
     0
102
RTVSPost2010PropOp34
 70
     1
102
RTVSPost2010Prop35
280
     0
102
RTVSPost2010PropOp35
 70
     1
102
RTVSPost2010Prop36
280
     0
102
RTVSPost2010PropOp36
 70
     1
102
RTVSPost2010Prop37
 90
       50
102
RTVSPost2010PropOp37
 70
     1
102
RTVSPost2010Prop38
140
0.0
102
RTVSPost2010PropOp38
 70
     1
102
RTVSPost2010Prop39
140
1.0
102
RTVSPost2010PropOp39
 70
     1
102
RTVSPost2010Prop40
 90
        0
102
RTVSPost2010PropOp40
 70
     1
102
RTVSPost2010Prop41ColorIndex
 90
       18
102
RTVSPost2010Prop41ColorRGB
 90
        0
102
RTVSPost2010PropOp41
 70
     1
102
RTVSPost2010Prop42
 90
       50
102
RTVSPost2010PropOp42
 70
     1
102
RTVSPost2010Prop43
 90
        3
102
RTVSPost2010PropOp43
 70
     1
102
RTVSPost2010Prop44ColorIndex
 90
        5
102
RTVSPost2010Prop44ColorRGB
 90
      255
102
RTVSPost2010PropOp44
 70
     1
102
RTVSPost2010Prop45
280
     0
102
RTVSPost2010PropOp45
 70
     1
102
RTVSPost2010Prop46
 90
       50
102
RTVSPost2010PropOp46
 70
     1
102
RTVSPost2010Prop47
 90
       50
102
RTVSPost2010PropOp47
 70
     1
102
RTVSPost2010Prop48
 90
       50
102
RTVSPost2010PropOp48
 70
     1
102
RTVSPost2010Prop49
280
     0
102
RTVSPost2010PropOp49
 70
     1
102
RTVSPost2010Prop50
 90
       50
102
RTVSPost2010PropOp50
 70
     1
102
RTVSPost2010Prop51ColorIndex
 90
      256
102
RTVSPost2010Prop51ColorRGB
 90
-16777216
102
RTVSPost2010PropOp51
 70
     0
102
RTVSPost2010Prop52
140
1.0
102
RTVSPost2010PropOp52
 70
     0
102
RTVSPost2010Prop53
 90
        2
102
RTVSPost2010PropOp53
 70
     1
102
RTVSPost2010Prop54
  1
strokes_ogs.tif
102
RTVSPost2010PropOp54
 70
     1
102
RTVSPost2010Prop55
280
     0
102
RTVSPost2010PropOp55
 70
     1
102
RTVSPost2010Prop56
140
1.0
102
RTVSPost2010PropOp56
 70
     1
102
RTVSPost2010Prop57
140
1.0
102
RTVSPost2010PropOp57
 70
     1
  0
XRECORD
  5
170
102
{ACAD_REACTORS
330
16F
102
}
330
16F
100
AcDbXrecord
280
     1
102
RTVSPost2010Prop28
280
     0
102
RTVSPost2010PropOp28
 70
     1
102
RTVSPost2010Prop29
280
     1
102
RTVSPost2010PropOp29
 70
     1
102
RTVSPost2010Prop30
280
     1
102
RTVSPost2010PropOp30
 70
     1
102
RTVSPost2010Prop31
280
     0
102
RTVSPost2010PropOp31
 70
     1
102
RTVSPost2010Prop32
280
     0
102
RTVSPost2010PropOp32
 70
     1
102
RTVSPost2010Prop33
280
     0
102
RTVSPost2010PropOp33
 70
     1
102
RTVSPost2010Prop34
280
     0
102
RTVSPost2010PropOp34
 70
     1
102
RTVSPost2010Prop35
280
     0
102
RTVSPost2010PropOp35
 70
     1
102
RTVSPost2010Prop36
280
     0
102
RTVSPost2010PropOp36
 70
     1
102
RTVSPost2010Prop37
 90
       50
102
RTVSPost2010PropOp37
 70
     1
102
RTVSPost2010Prop38
140
0.0
102
RTVSPost2010PropOp38
 70
     1
102
RTVSPost2010Prop39
140
1.0
102
RTVSPost2010PropOp39
 70
     1
102
RTVSPost2010Prop40
 90
        0
102
RTVSPost2010PropOp40
 70
     1
102
RTVSPost2010Prop41ColorIndex
 90
       18
102
RTVSPost2010Prop41ColorRGB
 90
        0
102
RTVSPost2010PropOp41
 70
     1
102
RTVSPost2010Prop42
 90
       50
102
RTVSPost2010PropOp42
 70
     1
102
RTVSPost2010Prop43
 90
        3
102
RTVSPost2010PropOp43
 70
     1
102
RTVSPost2010Prop44ColorIndex
 90
        5
102
RTVSPost2010Prop44ColorRGB
 90
      255
102
RTVSPost2010PropOp44
 70
     1
102
RTVSPost2010Prop45
280
     0
102
RTVSPost2010PropOp45
 70
     1
102
RTVSPost2010Prop46
 90
       50
102
RTVSPost2010PropOp46
 70
     1
102
RTVSPost2010Prop47
 90
       50
102
RTVSPost2010PropOp47
 70
     1
102
RTVSPost2010Prop48
 90
       50
102
RTVSPost2010PropOp48
 70
     1
102
RTVSPost2010Prop49
280
     0
102
RTVSPost2010PropOp49
 70
     1
102
RTVSPost2010Prop50
 90
       50
102
RTVSPost2010PropOp50
 70
     1
102
RTVSPost2010Prop51ColorIndex
 90
      256
102
RTVSPost2010Prop51ColorRGB
 90
-16777216
102
RTVSPost2010PropOp51
 70
     0
102
RTVSPost2010Prop52
140
1.0
102
RTVSPost2010PropOp52
 70
     0
102
RTVSPost2010Prop53
 90
        2
102
RTVSPost2010PropOp53
 70
     1
102
RTVSPost2010Prop54
  1
strokes_ogs.tif
102
RTVSPost2010PropOp54
 70
     1
102
RTVSPost2010Prop55
280
     0
102
RTVSPost2010PropOp55
 70
     1
102
RTVSPost2010Prop56
140
1.0
102
RTVSPost2010PropOp56
 70
     1
102
RTVSPost2010Prop57
140
1.0
102
RTVSPost2010PropOp57
 70
     1
  0
XRECORD
  5
162
102
{ACAD_REACTORS
330
161
102
}
330
161
100
AcDbXrecord
280
     1
102
RTVSPost2010Prop28
280
     0
102
RTVSPost2010PropOp28
 70
     1
102
RTVSPost2010Prop29
280
     1
102
RTVSPost2010PropOp29
 70
     1
102
RTVSPost2010Prop30
280
     1
102
RTVSPost2010PropOp30
 70
     1
102
RTVSPost2010Prop31
280
     0
102
RTVSPost2010PropOp31
 70
     1
102
RTVSPost2010Prop32
280
     0
102
RTVSPost2010PropOp32
 70
     1
102
RTVSPost2010Prop33
280
     0
102
RTVSPost2010PropOp33
 70
     1
102
RTVSPost2010Prop34
280
     0
102
RTVSPost2010PropOp34
 70
     1
102
RTVSPost2010Prop35
280
     0
102
RTVSPost2010PropOp35
 70
     1
102
RTVSPost2010Prop36
280
     0
102
RTVSPost2010PropOp36
 70
     1
102
RTVSPost2010Prop37
 90
       50
102
RTVSPost2010PropOp37
 70
     1
102
RTVSPost2010Prop38
140
0.0
102
RTVSPost2010PropOp38
 70
     1
102
RTVSPost2010Prop39
140
1.0
102
RTVSPost2010PropOp39
 70
     1
102
RTVSPost2010Prop40
 90
        0
102
RTVSPost2010PropOp40
 70
     1
102
RTVSPost2010Prop41ColorIndex
 90
       18
102
RTVSPost2010Prop41ColorRGB
 90
        0
102
RTVSPost2010PropOp41
 70
     1
102
RTVSPost2010Prop42
 90
       50
102
RTVSPost2010PropOp42
 70
     1
102
RTVSPost2010Prop43
 90
        3
102
RTVSPost2010PropOp43
 70
     1
102
RTVSPost2010Prop44ColorIndex
 90
        5
102
RTVSPost2010Prop44ColorRGB
 90
      255
102
RTVSPost2010PropOp44
 70
     1
102
RTVSPost2010Prop45
280
     0
102
RTVSPost2010PropOp45
 70
     1
102
RTVSPost2010Prop46
 90
       50
102
RTVSPost2010PropOp46
 70
     1
102
RTVSPost2010Prop47
 90
       50
102
RTVSPost2010PropOp47
 70
     1
102
RTVSPost2010Prop48
 90
       50
102
RTVSPost2010PropOp48
 70
     1
102
RTVSPost2010Prop49
280
     0
102
RTVSPost2010PropOp49
 70
     1
102
RTVSPost2010Prop50
 90
       50
102
RTVSPost2010PropOp50
 70
     1
102
RTVSPost2010Prop51ColorIndex
 90
      256
102
RTVSPost2010Prop51ColorRGB
 90
-16777216
102
RTVSPost2010PropOp51
 70
     0
102
RTVSPost2010Prop52
140
1.0
102
RTVSPost2010PropOp52
 70
     0
102
RTVSPost2010Prop53
 90
        2
102
RTVSPost2010PropOp53
 70
     1
102
RTVSPost2010Prop54
  1
strokes_ogs.tif
102
RTVSPost2010PropOp54
 70
     1
102
RTVSPost2010Prop55
280
     0
102
RTVSPost2010PropOp55
 70
     1
102
RTVSPost2010Prop56
140
1.0
102
RTVSPost2010PropOp56
 70
     1
102
RTVSPost2010Prop57
140
1.0
102
RTVSPost2010PropOp57
 70
     1
  0
XRECORD
  5
166
102
{ACAD_REACTORS
330
165
102
}
330
165
100
AcDbXrecord
280
     1
102
RTVSPost2010Prop28
280
     0
102
RTVSPost2010PropOp28
 70
     1
102
RTVSPost2010Prop29
280
     1
102
RTVSPost2010PropOp29
 70
     1
102
RTVSPost2010Prop30
280
     1
102
RTVSPost2010PropOp30
 70
     1
102
RTVSPost2010Prop31
280
     0
102
RTVSPost2010PropOp31
 70
     1
102
RTVSPost2010Prop32
280
     0
102
RTVSPost2010PropOp32
 70
     1
102
RTVSPost2010Prop33
280
     0
102
RTVSPost2010PropOp33
 70
     1
102
RTVSPost2010Prop34
280
     0
102
RTVSPost2010PropOp34
 70
     1
102
RTVSPost2010Prop35
280
     0
102
RTVSPost2010PropOp35
 70
     1
102
RTVSPost2010Prop36
280
     0
102
RTVSPost2010PropOp36
 70
     1
102
RTVSPost2010Prop37
 90
       50
102
RTVSPost2010PropOp37
 70
     1
102
RTVSPost2010Prop38
140
0.0
102
RTVSPost2010PropOp38
 70
     1
102
RTVSPost2010Prop39
140
1.0
102
RTVSPost2010PropOp39
 70
     1
102
RTVSPost2010Prop40
 90
        0
102
RTVSPost2010PropOp40
 70
     1
102
RTVSPost2010Prop41ColorIndex
 90
       18
102
RTVSPost2010Prop41ColorRGB
 90
        0
102
RTVSPost2010PropOp41
 70
     1
102
RTVSPost2010Prop42
 90
       50
102
RTVSPost2010PropOp42
 70
     1
102
RTVSPost2010Prop43
 90
        3
102
RTVSPost2010PropOp43
 70
     1
102
RTVSPost2010Prop44ColorIndex
 90
        5
102
RTVSPost2010Prop44ColorRGB
 90
      255
102
RTVSPost2010PropOp44
 70
     1
102
RTVSPost2010Prop45
280
     0
102
RTVSPost2010PropOp45
 70
     1
102
RTVSPost2010Prop46
 90
       50
102
RTVSPost2010PropOp46
 70
     1
102
RTVSPost2010Prop47
 90
       50
102
RTVSPost2010PropOp47
 70
     1
102
RTVSPost2010Prop48
 90
       50
102
RTVSPost2010PropOp48
 70
     1
102
RTVSPost2010Prop49
280
     0
102
RTVSPost2010PropOp49
 70
     1
102
RTVSPost2010Prop50
 90
       50
102
RTVSPost2010PropOp50
 70
     1
102
RTVSPost2010Prop51ColorIndex
 90
      256
102
RTVSPost2010Prop51ColorRGB
 90
-16777216
102
RTVSPost2010PropOp51
 70
     0
102
RTVSPost2010Prop52
140
1.0
102
RTVSPost2010PropOp52
 70
     0
102
RTVSPost2010Prop53
 90
        2
102
RTVSPost2010PropOp53
 70
     1
102
RTVSPost2010Prop54
  1
strokes_ogs.tif
102
RTVSPost2010PropOp54
 70
     1
102
RTVSPost2010Prop55
280
     0
102
RTVSPost2010PropOp55
 70
     1
102
RTVSPost2010Prop56
140
1.0
102
RTVSPost2010PropOp56
 70
     1
102
RTVSPost2010Prop57
140
1.0
102
RTVSPost2010PropOp57
 70
     1
  0
XRECORD
  5
180
102
{ACAD_REACTORS
330
17F
102
}
330
17F
100
AcDbXrecord
280
     1
102
RTVSPost2010Prop28
280
     0
102
RTVSPost2010PropOp28
 70
     0
102
RTVSPost2010Prop29
280
     1
102
RTVSPost2010PropOp29
 70
     0
102
RTVSPost2010Prop30
280
     1
102
RTVSPost2010PropOp30
 70
     0
102
RTVSPost2010Prop31
280
     0
102
RTVSPost2010PropOp31
 70
     0
102
RTVSPost2010Prop32
280
     0
102
RTVSPost2010PropOp32
 70
     0
102
RTVSPost2010Prop33
280
     0
102
RTVSPost2010PropOp33
 70
     0
102
RTVSPost2010Prop34
280
     0
102
RTVSPost2010PropOp34
 70
     0
102
RTVSPost2010Prop35
280
     0
102
RTVSPost2010PropOp35
 70
     0
102
RTVSPost2010Prop36
280
     0
102
RTVSPost2010PropOp36
 70
     0
102
RTVSPost2010Prop37
 90
       50
102
RTVSPost2010PropOp37
 70
     0
102
RTVSPost2010Prop38
140
0.0
102
RTVSPost2010PropOp38
 70
     0
102
RTVSPost2010Prop39
140
1.0
102
RTVSPost2010PropOp39
 70
     0
102
RTVSPost2010Prop40
 90
        0
102
RTVSPost2010PropOp40
 70
     0
102
RTVSPost2010Prop41ColorIndex
 90
       18
102
RTVSPost2010Prop41ColorRGB
 90
        0
102
RTVSPost2010PropOp41
 70
     0
102
RTVSPost2010Prop42
 90
       50
102
RTVSPost2010PropOp42
 70
     0
102
RTVSPost2010Prop43
 90
        3
102
RTVSPost2010PropOp43
 70
     0
102
RTVSPost2010Prop44ColorIndex
 90
        5
102
RTVSPost2010Prop44ColorRGB
 90
      255
102
RTVSPost2010PropOp44
 70
     0
102
RTVSPost2010Prop45
280
     0
102
RTVSPost2010PropOp45
 70
     0
102
RTVSPost2010Prop46
 90
       50
102
RTVSPost2010PropOp46
 70
     0
102
RTVSPost2010Prop47
 90
       50
102
RTVSPost2010PropOp47
 70
     0
102
RTVSPost2010Prop48
 90
       50
102
RTVSPost2010PropOp48
 70
     0
102
RTVSPost2010Prop49
280
     0
102
RTVSPost2010PropOp49
 70
     0
102
RTVSPost2010Prop50
 90
       50
102
RTVSPost2010PropOp50
 70
     0
102
RTVSPost2010Prop51ColorIndex
 90
      256
102
RTVSPost2010Prop51ColorRGB
 90
-16777216
102
RTVSPost2010PropOp51
 70
     0
102
RTVSPost2010Prop52
140
1.0
102
RTVSPost2010PropOp52
 70
     0
102
RTVSPost2010Prop53
 90
        2
102
RTVSPost2010PropOp53
 70
     0
102
RTVSPost2010Prop54
  1
strokes_ogs.tif
102
RTVSPost2010PropOp54
 70
     0
102
RTVSPost2010Prop55
280
     0
102
RTVSPost2010PropOp55
 70
     0
102
RTVSPost2010Prop56
140
1.0
102
RTVSPost2010PropOp56
 70
     0
102
RTVSPost2010Prop57
140
1.0
102
RTVSPost2010PropOp57
 70
     0
  0
XRECORD
  5
16E
102
{ACAD_REACTORS
330
16D
102
}
330
16D
100
AcDbXrecord
280
     1
102
RTVSPost2010Prop28
280
     0
102
RTVSPost2010PropOp28
 70
     1
102
RTVSPost2010Prop29
280
     1
102
RTVSPost2010PropOp29
 70
     1
102
RTVSPost2010Prop30
280
     1
102
RTVSPost2010PropOp30
 70
     1
102
RTVSPost2010Prop31
280
     0
102
RTVSPost2010PropOp31
 70
     1
102
RTVSPost2010Prop32
280
     0
102
RTVSPost2010PropOp32
 70
     1
102
RTVSPost2010Prop33
280
     0
102
RTVSPost2010PropOp33
 70
     1
102
RTVSPost2010Prop34
280
     0
102
RTVSPost2010PropOp34
 70
     1
102
RTVSPost2010Prop35
280
     0
102
RTVSPost2010PropOp35
 70
     1
102
RTVSPost2010Prop36
280
     0
102
RTVSPost2010PropOp36
 70
     1
102
RTVSPost2010Prop37
 90
       50
102
RTVSPost2010PropOp37
 70
     1
102
RTVSPost2010Prop38
140
0.0
102
RTVSPost2010PropOp38
 70
     1
102
RTVSPost2010Prop39
140
1.0
102
RTVSPost2010PropOp39
 70
     1
102
RTVSPost2010Prop40
 90
        0
102
RTVSPost2010PropOp40
 70
     1
102
RTVSPost2010Prop41ColorIndex
 90
       18
102
RTVSPost2010Prop41ColorRGB
 90
        0
102
RTVSPost2010PropOp41
 70
     1
102
RTVSPost2010Prop42
 90
       50
102
RTVSPost2010PropOp42
 70
     1
102
RTVSPost2010Prop43
 90
        3
102
RTVSPost2010PropOp43
 70
     1
102
RTVSPost2010Prop44ColorIndex
 90
        5
102
RTVSPost2010Prop44ColorRGB
 90
      255
102
RTVSPost2010PropOp44
 70
     1
102
RTVSPost2010Prop45
280
     0
102
RTVSPost2010PropOp45
 70
     1
102
RTVSPost2010Prop46
 90
       50
102
RTVSPost2010PropOp46
 70
     1
102
RTVSPost2010Prop47
 90
       50
102
RTVSPost2010PropOp47
 70
     1
102
RTVSPost2010Prop48
 90
       50
102
RTVSPost2010PropOp48
 70
     1
102
RTVSPost2010Prop49
280
     0
102
RTVSPost2010PropOp49
 70
     1
102
RTVSPost2010Prop50
 90
       50
102
RTVSPost2010PropOp50
 70
     1
102
RTVSPost2010Prop51ColorIndex
 90
      256
102
RTVSPost2010Prop51ColorRGB
 90
-16777216
102
RTVSPost2010PropOp51
 70
     0
102
RTVSPost2010Prop52
140
1.0
102
RTVSPost2010PropOp52
 70
     0
102
RTVSPost2010Prop53
 90
        2
102
RTVSPost2010PropOp53
 70
     1
102
RTVSPost2010Prop54
  1
strokes_ogs.tif
102
RTVSPost2010PropOp54
 70
     1
102
RTVSPost2010Prop55
280
     0
102
RTVSPost2010PropOp55
 70
     1
102
RTVSPost2010Prop56
140
1.0
102
RTVSPost2010PropOp56
 70
     1
102
RTVSPost2010Prop57
140
1.0
102
RTVSPost2010PropOp57
 70
     1
  0
XRECORD
  5
152
102
{ACAD_REACTORS
330
151
102
}
330
151
100
AcDbXrecord
280
     1
102
RTVSPost2010Prop28
280
     0
102
RTVSPost2010PropOp28
 70
     1
102
RTVSPost2010Prop29
280
     1
102
RTVSPost2010PropOp29
 70
     1
102
RTVSPost2010Prop30
280
     1
102
RTVSPost2010PropOp30
 70
     1
102
RTVSPost2010Prop31
280
     0
102
RTVSPost2010PropOp31
 70
     1
102
RTVSPost2010Prop32
280
     0
102
RTVSPost2010PropOp32
 70
     1
102
RTVSPost2010Prop33
280
     0
102
RTVSPost2010PropOp33
 70
     1
102
RTVSPost2010Prop34
280
     0
102
RTVSPost2010PropOp34
 70
     1
102
RTVSPost2010Prop35
280
     0
102
RTVSPost2010PropOp35
 70
     1
102
RTVSPost2010Prop36
280
     0
102
RTVSPost2010PropOp36
 70
     1
102
RTVSPost2010Prop37
 90
       50
102
RTVSPost2010PropOp37
 70
     1
102
RTVSPost2010Prop38
140
0.0
102
RTVSPost2010PropOp38
 70
     1
102
RTVSPost2010Prop39
140
1.0
102
RTVSPost2010PropOp39
 70
     1
102
RTVSPost2010Prop40
 90
        0
102
RTVSPost2010PropOp40
 70
     1
102
RTVSPost2010Prop41ColorIndex
 90
       18
102
RTVSPost2010Prop41ColorRGB
 90
        0
102
RTVSPost2010PropOp41
 70
     1
102
RTVSPost2010Prop42
 90
       50
102
RTVSPost2010PropOp42
 70
     1
102
RTVSPost2010Prop43
 90
        3
102
RTVSPost2010PropOp43
 70
     1
102
RTVSPost2010Prop44ColorIndex
 90
        5
102
RTVSPost2010Prop44ColorRGB
 90
      255
102
RTVSPost2010PropOp44
 70
     1
102
RTVSPost2010Prop45
280
     0
102
RTVSPost2010PropOp45
 70
     1
102
RTVSPost2010Prop46
 90
       50
102
RTVSPost2010PropOp46
 70
     1
102
RTVSPost2010Prop47
 90
       50
102
RTVSPost2010PropOp47
 70
     1
102
RTVSPost2010Prop48
 90
       50
102
RTVSPost2010PropOp48
 70
     1
102
RTVSPost2010Prop49
280
     0
102
RTVSPost2010PropOp49
 70
     1
102
RTVSPost2010Prop50
 90
       50
102
RTVSPost2010PropOp50
 70
     1
102
RTVSPost2010Prop51ColorIndex
 90
      256
102
RTVSPost2010Prop51ColorRGB
 90
-16777216
102
RTVSPost2010PropOp51
 70
     0
102
RTVSPost2010Prop52
140
1.0
102
RTVSPost2010PropOp52
 70
     0
102
RTVSPost2010Prop53
 90
        2
102
RTVSPost2010PropOp53
 70
     1
102
RTVSPost2010Prop54
  1
strokes_ogs.tif
102
RTVSPost2010PropOp54
 70
     1
102
RTVSPost2010Prop55
280
     0
102
RTVSPost2010PropOp55
 70
     1
102
RTVSPost2010Prop56
140
1.0
102
RTVSPost2010PropOp56
 70
     1
102
RTVSPost2010Prop57
140
1.0
102
RTVSPost2010PropOp57
 70
     1
  0
XRECORD
  5
154
102
{ACAD_REACTORS
330
153
102
}
330
153
100
AcDbXrecord
280
     1
102
RTVSPost2010Prop28
280
     0
102
RTVSPost2010PropOp28
 70
     1
102
RTVSPost2010Prop29
280
     1
102
RTVSPost2010PropOp29
 70
     1
102
RTVSPost2010Prop30
280
     1
102
RTVSPost2010PropOp30
 70
     1
102
RTVSPost2010Prop31
280
     0
102
RTVSPost2010PropOp31
 70
     1
102
RTVSPost2010Prop32
280
     0
102
RTVSPost2010PropOp32
 70
     1
102
RTVSPost2010Prop33
280
     0
102
RTVSPost2010PropOp33
 70
     1
102
RTVSPost2010Prop34
280
     0
102
RTVSPost2010PropOp34
 70
     1
102
RTVSPost2010Prop35
280
     0
102
RTVSPost2010PropOp35
 70
     1
102
RTVSPost2010Prop36
280
     0
102
RTVSPost2010PropOp36
 70
     1
102
RTVSPost2010Prop37
 90
       50
102
RTVSPost2010PropOp37
 70
     1
102
RTVSPost2010Prop38
140
0.0
102
RTVSPost2010PropOp38
 70
     1
102
RTVSPost2010Prop39
140
1.0
102
RTVSPost2010PropOp39
 70
     1
102
RTVSPost2010Prop40
 90
        0
102
RTVSPost2010PropOp40
 70
     1
102
RTVSPost2010Prop41ColorIndex
 90
       18
102
RTVSPost2010Prop41ColorRGB
 90
        0
102
RTVSPost2010PropOp41
 70
     1
102
RTVSPost2010Prop42
 90
       50
102
RTVSPost2010PropOp42
 70
     1
102
RTVSPost2010Prop43
 90
        3
102
RTVSPost2010PropOp43
 70
     1
102
RTVSPost2010Prop44ColorIndex
 90
        5
102
RTVSPost2010Prop44ColorRGB
 90
      255
102
RTVSPost2010PropOp44
 70
     1
102
RTVSPost2010Prop45
280
     0
102
RTVSPost2010PropOp45
 70
     1
102
RTVSPost2010Prop46
 90
       50
102
RTVSPost2010PropOp46
 70
     1
102
RTVSPost2010Prop47
 90
       50
102
RTVSPost2010PropOp47
 70
     1
102
RTVSPost2010Prop48
 90
       50
102
RTVSPost2010PropOp48
 70
     1
102
RTVSPost2010Prop49
280
     0
102
RTVSPost2010PropOp49
 70
     1
102
RTVSPost2010Prop50
 90
       50
102
RTVSPost2010PropOp50
 70
     1
102
RTVSPost2010Prop51ColorIndex
 90
      256
102
RTVSPost2010Prop51ColorRGB
 90
-16777216
102
RTVSPost2010PropOp51
 70
     0
102
RTVSPost2010Prop52
140
1.0
102
RTVSPost2010PropOp52
 70
     0
102
RTVSPost2010Prop53
 90
        2
102
RTVSPost2010PropOp53
 70
     1
102
RTVSPost2010Prop54
  1
strokes_ogs.tif
102
RTVSPost2010PropOp54
 70
     1
102
RTVSPost2010Prop55
280
     0
102
RTVSPost2010PropOp55
 70
     1
102
RTVSPost2010Prop56
140
1.0
102
RTVSPost2010PropOp56
 70
     1
102
RTVSPost2010Prop57
140
1.0
102
RTVSPost2010PropOp57
 70
     1
  0
XRECORD
  5
156
102
{ACAD_REACTORS
330
155
102
}
330
155
100
AcDbXrecord
280
     1
102
RTVSPost2010Prop28
280
     0
102
RTVSPost2010PropOp28
 70
     1
102
RTVSPost2010Prop29
280
     1
102
RTVSPost2010PropOp29
 70
     1
102
RTVSPost2010Prop30
280
     1
102
RTVSPost2010PropOp30
 70
     1
102
RTVSPost2010Prop31
280
     0
102
RTVSPost2010PropOp31
 70
     1
102
RTVSPost2010Prop32
280
     0
102
RTVSPost2010PropOp32
 70
     1
102
RTVSPost2010Prop33
280
     0
102
RTVSPost2010PropOp33
 70
     1
102
RTVSPost2010Prop34
280
     0
102
RTVSPost2010PropOp34
 70
     1
102
RTVSPost2010Prop35
280
     0
102
RTVSPost2010PropOp35
 70
     1
102
RTVSPost2010Prop36
280
     0
102
RTVSPost2010PropOp36
 70
     1
102
RTVSPost2010Prop37
 90
       50
102
RTVSPost2010PropOp37
 70
     1
102
RTVSPost2010Prop38
140
0.0
102
RTVSPost2010PropOp38
 70
     1
102
RTVSPost2010Prop39
140
1.0
102
RTVSPost2010PropOp39
 70
     1
102
RTVSPost2010Prop40
 90
        0
102
RTVSPost2010PropOp40
 70
     1
102
RTVSPost2010Prop41ColorIndex
 90
       18
102
RTVSPost2010Prop41ColorRGB
 90
        0
102
RTVSPost2010PropOp41
 70
     1
102
RTVSPost2010Prop42
 90
       50
102
RTVSPost2010PropOp42
 70
     1
102
RTVSPost2010Prop43
 90
        3
102
RTVSPost2010PropOp43
 70
     1
102
RTVSPost2010Prop44ColorIndex
 90
        5
102
RTVSPost2010Prop44ColorRGB
 90
      255
102
RTVSPost2010PropOp44
 70
     1
102
RTVSPost2010Prop45
280
     0
102
RTVSPost2010PropOp45
 70
     1
102
RTVSPost2010Prop46
 90
       50
102
RTVSPost2010PropOp46
 70
     1
102
RTVSPost2010Prop47
 90
       50
102
RTVSPost2010PropOp47
 70
     1
102
RTVSPost2010Prop48
 90
       50
102
RTVSPost2010PropOp48
 70
     1
102
RTVSPost2010Prop49
280
     0
102
RTVSPost2010PropOp49
 70
     1
102
RTVSPost2010Prop50
 90
       50
102
RTVSPost2010PropOp50
 70
     1
102
RTVSPost2010Prop51ColorIndex
 90
      256
102
RTVSPost2010Prop51ColorRGB
 90
-16777216
102
RTVSPost2010PropOp51
 70
     0
102
RTVSPost2010Prop52
140
1.0
102
RTVSPost2010PropOp52
 70
     0
102
RTVSPost2010Prop53
 90
        2
102
RTVSPost2010PropOp53
 70
     1
102
RTVSPost2010Prop54
  1
strokes_ogs.tif
102
RTVSPost2010PropOp54
 70
     1
102
RTVSPost2010Prop55
280
     0
102
RTVSPost2010PropOp55
 70
     1
102
RTVSPost2010Prop56
140
1.0
102
RTVSPost2010PropOp56
 70
     1
102
RTVSPost2010Prop57
140
1.0
102
RTVSPost2010PropOp57
 70
     1
  0
XRECORD
  5
158
102
{ACAD_REACTORS
330
157
102
}
330
157
100
AcDbXrecord
280
     1
102
RTVSPost2010Prop28
280
     0
102
RTVSPost2010PropOp28
 70
     1
102
RTVSPost2010Prop29
280
     1
102
RTVSPost2010PropOp29
 70
     1
102
RTVSPost2010Prop30
280
     1
102
RTVSPost2010PropOp30
 70
     1
102
RTVSPost2010Prop31
280
     0
102
RTVSPost2010PropOp31
 70
     1
102
RTVSPost2010Prop32
280
     0
102
RTVSPost2010PropOp32
 70
     1
102
RTVSPost2010Prop33
280
     0
102
RTVSPost2010PropOp33
 70
     1
102
RTVSPost2010Prop34
280
     0
102
RTVSPost2010PropOp34
 70
     1
102
RTVSPost2010Prop35
280
     0
102
RTVSPost2010PropOp35
 70
     1
102
RTVSPost2010Prop36
280
     0
102
RTVSPost2010PropOp36
 70
     1
102
RTVSPost2010Prop37
 90
       50
102
RTVSPost2010PropOp37
 70
     1
102
RTVSPost2010Prop38
140
0.0
102
RTVSPost2010PropOp38
 70
     1
102
RTVSPost2010Prop39
140
1.0
102
RTVSPost2010PropOp39
 70
     1
102
RTVSPost2010Prop40
 90
        0
102
RTVSPost2010PropOp40
 70
     1
102
RTVSPost2010Prop41ColorIndex
 90
       18
102
RTVSPost2010Prop41ColorRGB
 90
        0
102
RTVSPost2010PropOp41
 70
     1
102
RTVSPost2010Prop42
 90
       50
102
RTVSPost2010PropOp42
 70
     1
102
RTVSPost2010Prop43
 90
        3
102
RTVSPost2010PropOp43
 70
     1
102
RTVSPost2010Prop44ColorIndex
 90
        5
102
RTVSPost2010Prop44ColorRGB
 90
      255
102
RTVSPost2010PropOp44
 70
     1
102
RTVSPost2010Prop45
280
     0
102
RTVSPost2010PropOp45
 70
     1
102
RTVSPost2010Prop46
 90
       50
102
RTVSPost2010PropOp46
 70
     1
102
RTVSPost2010Prop47
 90
       50
102
RTVSPost2010PropOp47
 70
     1
102
RTVSPost2010Prop48
 90
       50
102
RTVSPost2010PropOp48
 70
     1
102
RTVSPost2010Prop49
280
     0
102
RTVSPost2010PropOp49
 70
     1
102
RTVSPost2010Prop50
 90
       50
102
RTVSPost2010PropOp50
 70
     1
102
RTVSPost2010Prop51ColorIndex
 90
      256
102
RTVSPost2010Prop51ColorRGB
 90
-16777216
102
RTVSPost2010PropOp51
 70
     0
102
RTVSPost2010Prop52
140
1.0
102
RTVSPost2010PropOp52
 70
     0
102
RTVSPost2010Prop53
 90
        2
102
RTVSPost2010PropOp53
 70
     1
102
RTVSPost2010Prop54
  1
strokes_ogs.tif
102
RTVSPost2010PropOp54
 70
     1
102
RTVSPost2010Prop55
280
     0
102
RTVSPost2010PropOp55
 70
     1
102
RTVSPost2010Prop56
140
1.0
102
RTVSPost2010PropOp56
 70
     1
102
RTVSPost2010Prop57
140
1.0
102
RTVSPost2010PropOp57
 70
     1
  0
XRECORD
  5
160
102
{ACAD_REACTORS
330
15F
102
}
330
15F
100
AcDbXrecord
280
     1
102
RTVSPost2010Prop28
280
     0
102
RTVSPost2010PropOp28
 70
     1
102
RTVSPost2010Prop29
280
     1
102
RTVSPost2010PropOp29
 70
     1
102
RTVSPost2010Prop30
280
     1
102
RTVSPost2010PropOp30
 70
     1
102
RTVSPost2010Prop31
280
     0
102
RTVSPost2010PropOp31
 70
     1
102
RTVSPost2010Prop32
280
     0
102
RTVSPost2010PropOp32
 70
     1
102
RTVSPost2010Prop33
280
     0
102
RTVSPost2010PropOp33
 70
     1
102
RTVSPost2010Prop34
280
     0
102
RTVSPost2010PropOp34
 70
     1
102
RTVSPost2010Prop35
280
     0
102
RTVSPost2010PropOp35
 70
     1
102
RTVSPost2010Prop36
280
     0
102
RTVSPost2010PropOp36
 70
     1
102
RTVSPost2010Prop37
 90
       50
102
RTVSPost2010PropOp37
 70
     1
102
RTVSPost2010Prop38
140
0.0
102
RTVSPost2010PropOp38
 70
     1
102
RTVSPost2010Prop39
140
1.0
102
RTVSPost2010PropOp39
 70
     1
102
RTVSPost2010Prop40
 90
        0
102
RTVSPost2010PropOp40
 70
     1
102
RTVSPost2010Prop41ColorIndex
 90
       18
102
RTVSPost2010Prop41ColorRGB
 90
        0
102
RTVSPost2010PropOp41
 70
     1
102
RTVSPost2010Prop42
 90
       50
102
RTVSPost2010PropOp42
 70
     1
102
RTVSPost2010Prop43
 90
        3
102
RTVSPost2010PropOp43
 70
     1
102
RTVSPost2010Prop44ColorIndex
 90
        5
102
RTVSPost2010Prop44ColorRGB
 90
      255
102
RTVSPost2010PropOp44
 70
     1
102
RTVSPost2010Prop45
280
     0
102
RTVSPost2010PropOp45
 70
     1
102
RTVSPost2010Prop46
 90
       50
102
RTVSPost2010PropOp46
 70
     1
102
RTVSPost2010Prop47
 90
       50
102
RTVSPost2010PropOp47
 70
     1
102
RTVSPost2010Prop48
 90
       50
102
RTVSPost2010PropOp48
 70
     1
102
RTVSPost2010Prop49
280
     0
102
RTVSPost2010PropOp49
 70
     1
102
RTVSPost2010Prop50
 90
       50
102
RTVSPost2010PropOp50
 70
     1
102
RTVSPost2010Prop51ColorIndex
 90
      256
102
RTVSPost2010Prop51ColorRGB
 90
-16777216
102
RTVSPost2010PropOp51
 70
     0
102
RTVSPost2010Prop52
140
1.0
102
RTVSPost2010PropOp52
 70
     0
102
RTVSPost2010Prop53
 90
        2
102
RTVSPost2010PropOp53
 70
     1
102
RTVSPost2010Prop54
  1
strokes_ogs.tif
102
RTVSPost2010PropOp54
 70
     1
102
RTVSPost2010Prop55
280
     0
102
RTVSPost2010PropOp55
 70
     1
102
RTVSPost2010Prop56
140
1.0
102
RTVSPost2010PropOp56
 70
     1
102
RTVSPost2010Prop57
140
1.0
102
RTVSPost2010PropOp57
 70
     1
  0
XRECORD
  5
17C
102
{ACAD_REACTORS
330
17B
102
}
330
17B
100
AcDbXrecord
280
     1
102
RTVSPost2010Prop28
280
     0
102
RTVSPost2010PropOp28
 70
     0
102
RTVSPost2010Prop29
280
     1
102
RTVSPost2010PropOp29
 70
     0
102
RTVSPost2010Prop30
280
     1
102
RTVSPost2010PropOp30
 70
     0
102
RTVSPost2010Prop31
280
     0
102
RTVSPost2010PropOp31
 70
     0
102
RTVSPost2010Prop32
280
     0
102
RTVSPost2010PropOp32
 70
     0
102
RTVSPost2010Prop33
280
     0
102
RTVSPost2010PropOp33
 70
     0
102
RTVSPost2010Prop34
280
     0
102
RTVSPost2010PropOp34
 70
     0
102
RTVSPost2010Prop35
280
     0
102
RTVSPost2010PropOp35
 70
     0
102
RTVSPost2010Prop36
280
     0
102
RTVSPost2010PropOp36
 70
     0
102
RTVSPost2010Prop37
 90
       50
102
RTVSPost2010PropOp37
 70
     0
102
RTVSPost2010Prop38
140
0.0
102
RTVSPost2010PropOp38
 70
     0
102
RTVSPost2010Prop39
140
1.0
102
RTVSPost2010PropOp39
 70
     0
102
RTVSPost2010Prop40
 90
        0
102
RTVSPost2010PropOp40
 70
     0
102
RTVSPost2010Prop41ColorIndex
 90
       18
102
RTVSPost2010Prop41ColorRGB
 90
        0
102
RTVSPost2010PropOp41
 70
     0
102
RTVSPost2010Prop42
 90
       50
102
RTVSPost2010PropOp42
 70
     0
102
RTVSPost2010Prop43
 90
        3
102
RTVSPost2010PropOp43
 70
     0
102
RTVSPost2010Prop44ColorIndex
 90
        5
102
RTVSPost2010Prop44ColorRGB
 90
      255
102
RTVSPost2010PropOp44
 70
     0
102
RTVSPost2010Prop45
280
     0
102
RTVSPost2010PropOp45
 70
     0
102
RTVSPost2010Prop46
 90
       50
102
RTVSPost2010PropOp46
 70
     0
102
RTVSPost2010Prop47
 90
       50
102
RTVSPost2010PropOp47
 70
     0
102
RTVSPost2010Prop48
 90
       50
102
RTVSPost2010PropOp48
 70
     0
102
RTVSPost2010Prop49
280
     0
102
RTVSPost2010PropOp49
 70
     0
102
RTVSPost2010Prop50
 90
       50
102
RTVSPost2010PropOp50
 70
     0
102
RTVSPost2010Prop51ColorIndex
 90
      256
102
RTVSPost2010Prop51ColorRGB
 90
-16777216
102
RTVSPost2010PropOp51
 70
     0
102
RTVSPost2010Prop52
140
1.0
102
RTVSPost2010PropOp52
 70
     0
102
RTVSPost2010Prop53
 90
        2
102
RTVSPost2010PropOp53
 70
     0
102
RTVSPost2010Prop54
  1
strokes_ogs.tif
102
RTVSPost2010PropOp54
 70
     0
102
RTVSPost2010Prop55
280
     0
102
RTVSPost2010PropOp55
 70
     0
102
RTVSPost2010Prop56
140
1.0
102
RTVSPost2010PropOp56
 70
     0
102
RTVSPost2010Prop57
140
1.0
102
RTVSPost2010PropOp57
 70
     0
  0
XRECORD
  5
16C
102
{ACAD_REACTORS
330
16B
102
}
330
16B
100
AcDbXrecord
280
     1
102
RTVSPost2010Prop28
280
     0
102
RTVSPost2010PropOp28
 70
     1
102
RTVSPost2010Prop29
280
     1
102
RTVSPost2010PropOp29
 70
     1
102
RTVSPost2010Prop30
280
     1
102
RTVSPost2010PropOp30
 70
     1
102
RTVSPost2010Prop31
280
     0
102
RTVSPost2010PropOp31
 70
     1
102
RTVSPost2010Prop32
280
     0
102
RTVSPost2010PropOp32
 70
     1
102
RTVSPost2010Prop33
280
     0
102
RTVSPost2010PropOp33
 70
     1
102
RTVSPost2010Prop34
280
     0
102
RTVSPost2010PropOp34
 70
     1
102
RTVSPost2010Prop35
280
     0
102
RTVSPost2010PropOp35
 70
     1
102
RTVSPost2010Prop36
280
     0
102
RTVSPost2010PropOp36
 70
     1
102
RTVSPost2010Prop37
 90
       50
102
RTVSPost2010PropOp37
 70
     1
102
RTVSPost2010Prop38
140
0.0
102
RTVSPost2010PropOp38
 70
     1
102
RTVSPost2010Prop39
140
1.0
102
RTVSPost2010PropOp39
 70
     1
102
RTVSPost2010Prop40
 90
        0
102
RTVSPost2010PropOp40
 70
     1
102
RTVSPost2010Prop41ColorIndex
 90
       18
102
RTVSPost2010Prop41ColorRGB
 90
        0
102
RTVSPost2010PropOp41
 70
     1
102
RTVSPost2010Prop42
 90
       50
102
RTVSPost2010PropOp42
 70
     1
102
RTVSPost2010Prop43
 90
        3
102
RTVSPost2010PropOp43
 70
     1
102
RTVSPost2010Prop44ColorIndex
 90
        5
102
RTVSPost2010Prop44ColorRGB
 90
      255
102
RTVSPost2010PropOp44
 70
     1
102
RTVSPost2010Prop45
280
     0
102
RTVSPost2010PropOp45
 70
     1
102
RTVSPost2010Prop46
 90
       50
102
RTVSPost2010PropOp46
 70
     1
102
RTVSPost2010Prop47
 90
       50
102
RTVSPost2010PropOp47
 70
     1
102
RTVSPost2010Prop48
 90
       50
102
RTVSPost2010PropOp48
 70
     1
102
RTVSPost2010Prop49
280
     0
102
RTVSPost2010PropOp49
 70
     1
102
RTVSPost2010Prop50
 90
       50
102
RTVSPost2010PropOp50
 70
     1
102
RTVSPost2010Prop51ColorIndex
 90
      256
102
RTVSPost2010Prop51ColorRGB
 90
-16777216
102
RTVSPost2010PropOp51
 70
     0
102
RTVSPost2010Prop52
140
1.0
102
RTVSPost2010PropOp52
 70
     0
102
RTVSPost2010Prop53
 90
        2
102
RTVSPost2010PropOp53
 70
     1
102
RTVSPost2010Prop54
  1
strokes_ogs.tif
102
RTVSPost2010PropOp54
 70
     1
102
RTVSPost2010Prop55
280
     0
102
RTVSPost2010PropOp55
 70
     1
102
RTVSPost2010Prop56
140
1.0
102
RTVSPost2010PropOp56
 70
     1
102
RTVSPost2010Prop57
140
1.0
102
RTVSPost2010PropOp57
 70
     1
  0
XRECORD
  5
17E
102
{ACAD_REACTORS
330
17D
102
}
330
17D
100
AcDbXrecord
280
     1
102
RTVSPost2010Prop28
280
     0
102
RTVSPost2010PropOp28
 70
     0
102
RTVSPost2010Prop29
280
     1
102
RTVSPost2010PropOp29
 70
     0
102
RTVSPost2010Prop30
280
     1
102
RTVSPost2010PropOp30
 70
     0
102
RTVSPost2010Prop31
280
     0
102
RTVSPost2010PropOp31
 70
     0
102
RTVSPost2010Prop32
280
     0
102
RTVSPost2010PropOp32
 70
     0
102
RTVSPost2010Prop33
280
     0
102
RTVSPost2010PropOp33
 70
     0
102
RTVSPost2010Prop34
280
     0
102
RTVSPost2010PropOp34
 70
     0
102
RTVSPost2010Prop35
280
     0
102
RTVSPost2010PropOp35
 70
     0
102
RTVSPost2010Prop36
280
     0
102
RTVSPost2010PropOp36
 70
     0
102
RTVSPost2010Prop37
 90
       50
102
RTVSPost2010PropOp37
 70
     0
102
RTVSPost2010Prop38
140
0.0
102
RTVSPost2010PropOp38
 70
     0
102
RTVSPost2010Prop39
140
1.0
102
RTVSPost2010PropOp39
 70
     0
102
RTVSPost2010Prop40
 90
        0
102
RTVSPost2010PropOp40
 70
     0
102
RTVSPost2010Prop41ColorIndex
 90
       18
102
RTVSPost2010Prop41ColorRGB
 90
        0
102
RTVSPost2010PropOp41
 70
     0
102
RTVSPost2010Prop42
 90
       50
102
RTVSPost2010PropOp42
 70
     0
102
RTVSPost2010Prop43
 90
        3
102
RTVSPost2010PropOp43
 70
     0
102
RTVSPost2010Prop44ColorIndex
 90
        5
102
RTVSPost2010Prop44ColorRGB
 90
      255
102
RTVSPost2010PropOp44
 70
     0
102
RTVSPost2010Prop45
280
     0
102
RTVSPost2010PropOp45
 70
     0
102
RTVSPost2010Prop46
 90
       50
102
RTVSPost2010PropOp46
 70
     0
102
RTVSPost2010Prop47
 90
       50
102
RTVSPost2010PropOp47
 70
     0
102
RTVSPost2010Prop48
 90
       50
102
RTVSPost2010PropOp48
 70
     0
102
RTVSPost2010Prop49
280
     0
102
RTVSPost2010PropOp49
 70
     0
102
RTVSPost2010Prop50
 90
       50
102
RTVSPost2010PropOp50
 70
     0
102
RTVSPost2010Prop51ColorIndex
 90
      256
102
RTVSPost2010Prop51ColorRGB
 90
-16777216
102
RTVSPost2010PropOp51
 70
     0
102
RTVSPost2010Prop52
140
1.0
102
RTVSPost2010PropOp52
 70
     0
102
RTVSPost2010Prop53
 90
        2
102
RTVSPost2010PropOp53
 70
     0
102
RTVSPost2010Prop54
  1
strokes_ogs.tif
102
RTVSPost2010PropOp54
 70
     0
102
RTVSPost2010Prop55
280
     0
102
RTVSPost2010PropOp55
 70
     0
102
RTVSPost2010Prop56
140
1.0
102
RTVSPost2010PropOp56
 70
     0
102
RTVSPost2010Prop57
140
1.0
102
RTVSPost2010PropOp57
 70
     0
  0
XRECORD
  5
164
102
{ACAD_REACTORS
330
163
102
}
330
163
100
AcDbXrecord
280
     1
102
RTVSPost2010Prop28
280
     0
102
RTVSPost2010PropOp28
 70
     1
102
RTVSPost2010Prop29
280
     1
102
RTVSPost2010PropOp29
 70
     1
102
RTVSPost2010Prop30
280
     1
102
RTVSPost2010PropOp30
 70
     1
102
RTVSPost2010Prop31
280
     0
102
RTVSPost2010PropOp31
 70
     1
102
RTVSPost2010Prop32
280
     0
102
RTVSPost2010PropOp32
 70
     1
102
RTVSPost2010Prop33
280
     0
102
RTVSPost2010PropOp33
 70
     1
102
RTVSPost2010Prop34
280
     0
102
RTVSPost2010PropOp34
 70
     1
102
RTVSPost2010Prop35
280
     0
102
RTVSPost2010PropOp35
 70
     1
102
RTVSPost2010Prop36
280
     0
102
RTVSPost2010PropOp36
 70
     1
102
RTVSPost2010Prop37
 90
       50
102
RTVSPost2010PropOp37
 70
     1
102
RTVSPost2010Prop38
140
0.0
102
RTVSPost2010PropOp38
 70
     1
102
RTVSPost2010Prop39
140
1.0
102
RTVSPost2010PropOp39
 70
     1
102
RTVSPost2010Prop40
 90
        0
102
RTVSPost2010PropOp40
 70
     1
102
RTVSPost2010Prop41ColorIndex
 90
       18
102
RTVSPost2010Prop41ColorRGB
 90
        0
102
RTVSPost2010PropOp41
 70
     1
102
RTVSPost2010Prop42
 90
       50
102
RTVSPost2010PropOp42
 70
     1
102
RTVSPost2010Prop43
 90
        3
102
RTVSPost2010PropOp43
 70
     1
102
RTVSPost2010Prop44ColorIndex
 90
        5
102
RTVSPost2010Prop44ColorRGB
 90
      255
102
RTVSPost2010PropOp44
 70
     1
102
RTVSPost2010Prop45
280
     0
102
RTVSPost2010PropOp45
 70
     1
102
RTVSPost2010Prop46
 90
       50
102
RTVSPost2010PropOp46
 70
     1
102
RTVSPost2010Prop47
 90
       50
102
RTVSPost2010PropOp47
 70
     1
102
RTVSPost2010Prop48
 90
       50
102
RTVSPost2010PropOp48
 70
     1
102
RTVSPost2010Prop49
280
     0
102
RTVSPost2010PropOp49
 70
     1
102
RTVSPost2010Prop50
 90
       50
102
RTVSPost2010PropOp50
 70
     1
102
RTVSPost2010Prop51ColorIndex
 90
      256
102
RTVSPost2010Prop51ColorRGB
 90
-16777216
102
RTVSPost2010PropOp51
 70
     0
102
RTVSPost2010Prop52
140
1.0
102
RTVSPost2010PropOp52
 70
     0
102
RTVSPost2010Prop53
 90
        2
102
RTVSPost2010PropOp53
 70
     1
102
RTVSPost2010Prop54
  1
strokes_ogs.tif
102
RTVSPost2010PropOp54
 70
     1
102
RTVSPost2010Prop55
280
     0
102
RTVSPost2010PropOp55
 70
     1
102
RTVSPost2010Prop56
140
1.0
102
RTVSPost2010PropOp56
 70
     1
102
RTVSPost2010Prop57
140
1.0
102
RTVSPost2010PropOp57
 70
     1
  0
XRECORD
  5
17A
102
{ACAD_REACTORS
330
179
102
}
330
179
100
AcDbXrecord
280
     1
102
RTVSPost2010Prop28
280
     0
102
RTVSPost2010PropOp28
 70
     1
102
RTVSPost2010Prop29
280
     1
102
RTVSPost2010PropOp29
 70
     1
102
RTVSPost2010Prop30
280
     1
102
RTVSPost2010PropOp30
 70
     1
102
RTVSPost2010Prop31
280
     0
102
RTVSPost2010PropOp31
 70
     1
102
RTVSPost2010Prop32
280
     0
102
RTVSPost2010PropOp32
 70
     1
102
RTVSPost2010Prop33
280
     0
102
RTVSPost2010PropOp33
 70
     1
102
RTVSPost2010Prop34
280
     0
102
RTVSPost2010PropOp34
 70
     1
102
RTVSPost2010Prop35
280
     0
102
RTVSPost2010PropOp35
 70
     1
102
RTVSPost2010Prop36
280
     0
102
RTVSPost2010PropOp36
 70
     1
102
RTVSPost2010Prop37
 90
       50
102
RTVSPost2010PropOp37
 70
     1
102
RTVSPost2010Prop38
140
0.0
102
RTVSPost2010PropOp38
 70
     1
102
RTVSPost2010Prop39
140
1.0
102
RTVSPost2010PropOp39
 70
     1
102
RTVSPost2010Prop40
 90
        0
102
RTVSPost2010PropOp40
 70
     1
102
RTVSPost2010Prop41ColorIndex
 90
       18
102
RTVSPost2010Prop41ColorRGB
 90
        0
102
RTVSPost2010PropOp41
 70
     1
102
RTVSPost2010Prop42
 90
       50
102
RTVSPost2010PropOp42
 70
     1
102
RTVSPost2010Prop43
 90
        3
102
RTVSPost2010PropOp43
 70
     1
102
RTVSPost2010Prop44ColorIndex
 90
        5
102
RTVSPost2010Prop44ColorRGB
 90
      255
102
RTVSPost2010PropOp44
 70
     1
102
RTVSPost2010Prop45
280
     0
102
RTVSPost2010PropOp45
 70
     1
102
RTVSPost2010Prop46
 90
       50
102
RTVSPost2010PropOp46
 70
     1
102
RTVSPost2010Prop47
 90
       50
102
RTVSPost2010PropOp47
 70
     1
102
RTVSPost2010Prop48
 90
       50
102
RTVSPost2010PropOp48
 70
     1
102
RTVSPost2010Prop49
280
     0
102
RTVSPost2010PropOp49
 70
     1
102
RTVSPost2010Prop50
 90
       50
102
RTVSPost2010PropOp50
 70
     1
102
RTVSPost2010Prop51ColorIndex
 90
      256
102
RTVSPost2010Prop51ColorRGB
 90
-16777216
102
RTVSPost2010PropOp51
 70
     0
102
RTVSPost2010Prop52
140
1.0
102
RTVSPost2010PropOp52
 70
     0
102
RTVSPost2010Prop53
 90
        2
102
RTVSPost2010PropOp53
 70
     1
102
RTVSPost2010Prop54
  1
strokes_ogs.tif
102
RTVSPost2010PropOp54
 70
     1
102
RTVSPost2010Prop55
280
     0
102
RTVSPost2010PropOp55
 70
     1
102
RTVSPost2010Prop56
140
1.0
102
RTVSPost2010PropOp56
 70
     1
102
RTVSPost2010Prop57
140
1.0
102
RTVSPost2010PropOp57
 70
     1
  0
XRECORD
  5
178
102
{ACAD_REACTORS
330
177
102
}
330
177
100
AcDbXrecord
280
     1
102
RTVSPost2010Prop28
280
     0
102
RTVSPost2010PropOp28
 70
     1
102
RTVSPost2010Prop29
280
     1
102
RTVSPost2010PropOp29
 70
     1
102
RTVSPost2010Prop30
280
     1
102
RTVSPost2010PropOp30
 70
     1
102
RTVSPost2010Prop31
280
     0
102
RTVSPost2010PropOp31
 70
     1
102
RTVSPost2010Prop32
280
     0
102
RTVSPost2010PropOp32
 70
     1
102
RTVSPost2010Prop33
280
     0
102
RTVSPost2010PropOp33
 70
     1
102
RTVSPost2010Prop34
280
     0
102
RTVSPost2010PropOp34
 70
     1
102
RTVSPost2010Prop35
280
     0
102
RTVSPost2010PropOp35
 70
     1
102
RTVSPost2010Prop36
280
     0
102
RTVSPost2010PropOp36
 70
     1
102
RTVSPost2010Prop37
 90
       50
102
RTVSPost2010PropOp37
 70
     1
102
RTVSPost2010Prop38
140
0.0
102
RTVSPost2010PropOp38
 70
     1
102
RTVSPost2010Prop39
140
1.0
102
RTVSPost2010PropOp39
 70
     1
102
RTVSPost2010Prop40
 90
        0
102
RTVSPost2010PropOp40
 70
     1
102
RTVSPost2010Prop41ColorIndex
 90
       18
102
RTVSPost2010Prop41ColorRGB
 90
        0
102
RTVSPost2010PropOp41
 70
     1
102
RTVSPost2010Prop42
 90
       50
102
RTVSPost2010PropOp42
 70
     1
102
RTVSPost2010Prop43
 90
        3
102
RTVSPost2010PropOp43
 70
     1
102
RTVSPost2010Prop44ColorIndex
 90
        5
102
RTVSPost2010Prop44ColorRGB
 90
      255
102
RTVSPost2010PropOp44
 70
     1
102
RTVSPost2010Prop45
280
     0
102
RTVSPost2010PropOp45
 70
     1
102
RTVSPost2010Prop46
 90
       50
102
RTVSPost2010PropOp46
 70
     1
102
RTVSPost2010Prop47
 90
       50
102
RTVSPost2010PropOp47
 70
     1
102
RTVSPost2010Prop48
 90
       50
102
RTVSPost2010PropOp48
 70
     1
102
RTVSPost2010Prop49
280
     0
102
RTVSPost2010PropOp49
 70
     1
102
RTVSPost2010Prop50
 90
       50
102
RTVSPost2010PropOp50
 70
     1
102
RTVSPost2010Prop51ColorIndex
 90
      256
102
RTVSPost2010Prop51ColorRGB
 90
-16777216
102
RTVSPost2010PropOp51
 70
     0
102
RTVSPost2010Prop52
140
1.0
102
RTVSPost2010PropOp52
 70
     0
102
RTVSPost2010Prop53
 90
        2
102
RTVSPost2010PropOp53
 70
     1
102
RTVSPost2010Prop54
  1
strokes_ogs.tif
102
RTVSPost2010PropOp54
 70
     1
102
RTVSPost2010Prop55
280
     0
102
RTVSPost2010PropOp55
 70
     1
102
RTVSPost2010Prop56
140
1.0
102
RTVSPost2010PropOp56
 70
     1
102
RTVSPost2010Prop57
140
1.0
102
RTVSPost2010PropOp57
 70
     1
  0
XRECORD
  5
172
102
{ACAD_REACTORS
330
171
102
}
330
171
100
AcDbXrecord
280
     1
102
RTVSPost2010Prop28
280
     0
102
RTVSPost2010PropOp28
 70
     1
102
RTVSPost2010Prop29
280
     1
102
RTVSPost2010PropOp29
 70
     1
102
RTVSPost2010Prop30
280
     1
102
RTVSPost2010PropOp30
 70
     1
102
RTVSPost2010Prop31
280
     0
102
RTVSPost2010PropOp31
 70
     1
102
RTVSPost2010Prop32
280
     0
102
RTVSPost2010PropOp32
 70
     1
102
RTVSPost2010Prop33
280
     0
102
RTVSPost2010PropOp33
 70
     1
102
RTVSPost2010Prop34
280
     0
102
RTVSPost2010PropOp34
 70
     1
102
RTVSPost2010Prop35
280
     0
102
RTVSPost2010PropOp35
 70
     1
102
RTVSPost2010Prop36
280
     0
102
RTVSPost2010PropOp36
 70
     1
102
RTVSPost2010Prop37
 90
       50
102
RTVSPost2010PropOp37
 70
     1
102
RTVSPost2010Prop38
140
0.0
102
RTVSPost2010PropOp38
 70
     1
102
RTVSPost2010Prop39
140
1.0
102
RTVSPost2010PropOp39
 70
     1
102
RTVSPost2010Prop40
 90
        0
102
RTVSPost2010PropOp40
 70
     1
102
RTVSPost2010Prop41ColorIndex
 90
       18
102
RTVSPost2010Prop41ColorRGB
 90
        0
102
RTVSPost2010PropOp41
 70
     1
102
RTVSPost2010Prop42
 90
       50
102
RTVSPost2010PropOp42
 70
     1
102
RTVSPost2010Prop43
 90
        3
102
RTVSPost2010PropOp43
 70
     1
102
RTVSPost2010Prop44ColorIndex
 90
        5
102
RTVSPost2010Prop44ColorRGB
 90
      255
102
RTVSPost2010PropOp44
 70
     1
102
RTVSPost2010Prop45
280
     0
102
RTVSPost2010PropOp45
 70
     1
102
RTVSPost2010Prop46
 90
       50
102
RTVSPost2010PropOp46
 70
     1
102
RTVSPost2010Prop47
 90
       50
102
RTVSPost2010PropOp47
 70
     1
102
RTVSPost2010Prop48
 90
       50
102
RTVSPost2010PropOp48
 70
     1
102
RTVSPost2010Prop49
280
     0
102
RTVSPost2010PropOp49
 70
     1
102
RTVSPost2010Prop50
 90
       50
102
RTVSPost2010PropOp50
 70
     1
102
RTVSPost2010Prop51ColorIndex
 90
      256
102
RTVSPost2010Prop51ColorRGB
 90
-16777216
102
RTVSPost2010PropOp51
 70
     0
102
RTVSPost2010Prop52
140
1.0
102
RTVSPost2010PropOp52
 70
     0
102
RTVSPost2010Prop53
 90
        2
102
RTVSPost2010PropOp53
 70
     1
102
RTVSPost2010Prop54
  1
strokes_ogs.tif
102
RTVSPost2010PropOp54
 70
     1
102
RTVSPost2010Prop55
280
     0
102
RTVSPost2010PropOp55
 70
     1
102
RTVSPost2010Prop56
140
1.0
102
RTVSPost2010PropOp56
 70
     1
102
RTVSPost2010Prop57
140
1.0
102
RTVSPost2010PropOp57
 70
     1
  0
XRECORD
  5
174
102
{ACAD_REACTORS
330
173
102
}
330
173
100
AcDbXrecord
280
     1
102
RTVSPost2010Prop28
280
     0
102
RTVSPost2010PropOp28
 70
     1
102
RTVSPost2010Prop29
280
     1
102
RTVSPost2010PropOp29
 70
     1
102
RTVSPost2010Prop30
280
     1
102
RTVSPost2010PropOp30
 70
     1
102
RTVSPost2010Prop31
280
     0
102
RTVSPost2010PropOp31
 70
     1
102
RTVSPost2010Prop32
280
     0
102
RTVSPost2010PropOp32
 70
     1
102
RTVSPost2010Prop33
280
     0
102
RTVSPost2010PropOp33
 70
     1
102
RTVSPost2010Prop34
280
     0
102
RTVSPost2010PropOp34
 70
     1
102
RTVSPost2010Prop35
280
     0
102
RTVSPost2010PropOp35
 70
     1
102
RTVSPost2010Prop36
280
     0
102
RTVSPost2010PropOp36
 70
     1
102
RTVSPost2010Prop37
 90
       50
102
RTVSPost2010PropOp37
 70
     1
102
RTVSPost2010Prop38
140
0.0
102
RTVSPost2010PropOp38
 70
     1
102
RTVSPost2010Prop39
140
1.0
102
RTVSPost2010PropOp39
 70
     1
102
RTVSPost2010Prop40
 90
        0
102
RTVSPost2010PropOp40
 70
     1
102
RTVSPost2010Prop41ColorIndex
 90
       18
102
RTVSPost2010Prop41ColorRGB
 90
        0
102
RTVSPost2010PropOp41
 70
     1
102
RTVSPost2010Prop42
 90
       50
102
RTVSPost2010PropOp42
 70
     1
102
RTVSPost2010Prop43
 90
        3
102
RTVSPost2010PropOp43
 70
     1
102
RTVSPost2010Prop44ColorIndex
 90
        5
102
RTVSPost2010Prop44ColorRGB
 90
      255
102
RTVSPost2010PropOp44
 70
     1
102
RTVSPost2010Prop45
280
     0
102
RTVSPost2010PropOp45
 70
     1
102
RTVSPost2010Prop46
 90
       50
102
RTVSPost2010PropOp46
 70
     1
102
RTVSPost2010Prop47
 90
       50
102
RTVSPost2010PropOp47
 70
     1
102
RTVSPost2010Prop48
 90
       50
102
RTVSPost2010PropOp48
 70
     1
102
RTVSPost2010Prop49
280
     0
102
RTVSPost2010PropOp49
 70
     1
102
RTVSPost2010Prop50
 90
       50
102
RTVSPost2010PropOp50
 70
     1
102
RTVSPost2010Prop51ColorIndex
 90
      256
102
RTVSPost2010Prop51ColorRGB
 90
-16777216
102
RTVSPost2010PropOp51
 70
     0
102
RTVSPost2010Prop52
140
1.0
102
RTVSPost2010PropOp52
 70
     0
102
RTVSPost2010Prop53
 90
        2
102
RTVSPost2010PropOp53
 70
     1
102
RTVSPost2010Prop54
  1
strokes_ogs.tif
102
RTVSPost2010PropOp54
 70
     1
102
RTVSPost2010Prop55
280
     0
102
RTVSPost2010PropOp55
 70
     1
102
RTVSPost2010Prop56
140
1.0
102
RTVSPost2010PropOp56
 70
     1
102
RTVSPost2010Prop57
140
1.0
102
RTVSPost2010PropOp57
 70
     1
  0
XRECORD
  5
16A
102
{ACAD_REACTORS
330
169
102
}
330
169
100
AcDbXrecord
280
     1
102
RTVSPost2010Prop28
280
     0
102
RTVSPost2010PropOp28
 70
     1
102
RTVSPost2010Prop29
280
     1
102
RTVSPost2010PropOp29
 70
     1
102
RTVSPost2010Prop30
280
     1
102
RTVSPost2010PropOp30
 70
     1
102
RTVSPost2010Prop31
280
     0
102
RTVSPost2010PropOp31
 70
     1
102
RTVSPost2010Prop32
280
     0
102
RTVSPost2010PropOp32
 70
     1
102
RTVSPost2010Prop33
280
     0
102
RTVSPost2010PropOp33
 70
     1
102
RTVSPost2010Prop34
280
     0
102
RTVSPost2010PropOp34
 70
     1
102
RTVSPost2010Prop35
280
     0
102
RTVSPost2010PropOp35
 70
     1
102
RTVSPost2010Prop36
280
     0
102
RTVSPost2010PropOp36
 70
     1
102
RTVSPost2010Prop37
 90
       50
102
RTVSPost2010PropOp37
 70
     1
102
RTVSPost2010Prop38
140
0.0
102
RTVSPost2010PropOp38
 70
     1
102
RTVSPost2010Prop39
140
1.0
102
RTVSPost2010PropOp39
 70
     1
102
RTVSPost2010Prop40
 90
        0
102
RTVSPost2010PropOp40
 70
     1
102
RTVSPost2010Prop41ColorIndex
 90
       18
102
RTVSPost2010Prop41ColorRGB
 90
        0
102
RTVSPost2010PropOp41
 70
     1
102
RTVSPost2010Prop42
 90
       50
102
RTVSPost2010PropOp42
 70
     1
102
RTVSPost2010Prop43
 90
        3
102
RTVSPost2010PropOp43
 70
     1
102
RTVSPost2010Prop44ColorIndex
 90
        5
102
RTVSPost2010Prop44ColorRGB
 90
      255
102
RTVSPost2010PropOp44
 70
     1
102
RTVSPost2010Prop45
280
     0
102
RTVSPost2010PropOp45
 70
     1
102
RTVSPost2010Prop46
 90
       50
102
RTVSPost2010PropOp46
 70
     1
102
RTVSPost2010Prop47
 90
       50
102
RTVSPost2010PropOp47
 70
     1
102
RTVSPost2010Prop48
 90
       50
102
RTVSPost2010PropOp48
 70
     1
102
RTVSPost2010Prop49
280
     0
102
RTVSPost2010PropOp49
 70
     1
102
RTVSPost2010Prop50
 90
       50
102
RTVSPost2010PropOp50
 70
     1
102
RTVSPost2010Prop51ColorIndex
 90
      256
102
RTVSPost2010Prop51ColorRGB
 90
-16777216
102
RTVSPost2010PropOp51
 70
     0
102
RTVSPost2010Prop52
140
1.0
102
RTVSPost2010PropOp52
 70
     0
102
RTVSPost2010Prop53
 90
        2
102
RTVSPost2010PropOp53
 70
     1
102
RTVSPost2010Prop54
  1
strokes_ogs.tif
102
RTVSPost2010PropOp54
 70
     1
102
RTVSPost2010Prop55
280
     0
102
RTVSPost2010PropOp55
 70
     1
102
RTVSPost2010Prop56
140
1.0
102
RTVSPost2010PropOp56
 70
     1
102
RTVSPost2010Prop57
140
1.0
102
RTVSPost2010PropOp57
 70
     1
  0
XRECORD
  5
15E
102
{ACAD_REACTORS
330
15D
102
}
330
15D
100
AcDbXrecord
280
     1
102
RTVSPost2010Prop28
280
     0
102
RTVSPost2010PropOp28
 70
     1
102
RTVSPost2010Prop29
280
     1
102
RTVSPost2010PropOp29
 70
     1
102
RTVSPost2010Prop30
280
     1
102
RTVSPost2010PropOp30
 70
     1
102
RTVSPost2010Prop31
280
     0
102
RTVSPost2010PropOp31
 70
     1
102
RTVSPost2010Prop32
280
     0
102
RTVSPost2010PropOp32
 70
     1
102
RTVSPost2010Prop33
280
     0
102
RTVSPost2010PropOp33
 70
     1
102
RTVSPost2010Prop34
280
     0
102
RTVSPost2010PropOp34
 70
     1
102
RTVSPost2010Prop35
280
     0
102
RTVSPost2010PropOp35
 70
     1
102
RTVSPost2010Prop36
280
     0
102
RTVSPost2010PropOp36
 70
     1
102
RTVSPost2010Prop37
 90
       50
102
RTVSPost2010PropOp37
 70
     1
102
RTVSPost2010Prop38
140
0.0
102
RTVSPost2010PropOp38
 70
     1
102
RTVSPost2010Prop39
140
1.0
102
RTVSPost2010PropOp39
 70
     1
102
RTVSPost2010Prop40
 90
        0
102
RTVSPost2010PropOp40
 70
     1
102
RTVSPost2010Prop41ColorIndex
 90
       18
102
RTVSPost2010Prop41ColorRGB
 90
        0
102
RTVSPost2010PropOp41
 70
     1
102
RTVSPost2010Prop42
 90
       50
102
RTVSPost2010PropOp42
 70
     1
102
RTVSPost2010Prop43
 90
        3
102
RTVSPost2010PropOp43
 70
     1
102
RTVSPost2010Prop44ColorIndex
 90
        5
102
RTVSPost2010Prop44ColorRGB
 90
      255
102
RTVSPost2010PropOp44
 70
     1
102
RTVSPost2010Prop45
280
     0
102
RTVSPost2010PropOp45
 70
     1
102
RTVSPost2010Prop46
 90
       50
102
RTVSPost2010PropOp46
 70
     1
102
RTVSPost2010Prop47
 90
       50
102
RTVSPost2010PropOp47
 70
     1
102
RTVSPost2010Prop48
 90
       50
102
RTVSPost2010PropOp48
 70
     1
102
RTVSPost2010Prop49
280
     0
102
RTVSPost2010PropOp49
 70
     1
102
RTVSPost2010Prop50
 90
       50
102
RTVSPost2010PropOp50
 70
     1
102
RTVSPost2010Prop51ColorIndex
 90
      256
102
RTVSPost2010Prop51ColorRGB
 90
-16777216
102
RTVSPost2010PropOp51
 70
     0
102
RTVSPost2010Prop52
140
1.0
102
RTVSPost2010PropOp52
 70
     0
102
RTVSPost2010Prop53
 90
        2
102
RTVSPost2010PropOp53
 70
     1
102
RTVSPost2010Prop54
  1
strokes_ogs.tif
102
RTVSPost2010PropOp54
 70
     1
102
RTVSPost2010Prop55
280
     0
102
RTVSPost2010PropOp55
 70
     1
102
RTVSPost2010Prop56
140
1.0
102
RTVSPost2010PropOp56
 70
     1
102
RTVSPost2010Prop57
140
1.0
102
RTVSPost2010PropOp57
 70
     1
  0
XRECORD
  5
176
102
{ACAD_REACTORS
330
175
102
}
330
175
100
AcDbXrecord
280
     1
102
RTVSPost2010Prop28
280
     0
102
RTVSPost2010PropOp28
 70
     1
102
RTVSPost2010Prop29
280
     1
102
RTVSPost2010PropOp29
 70
     1
102
RTVSPost2010Prop30
280
     1
102
RTVSPost2010PropOp30
 70
     1
102
RTVSPost2010Prop31
280
     0
102
RTVSPost2010PropOp31
 70
     1
102
RTVSPost2010Prop32
280
     0
102
RTVSPost2010PropOp32
 70
     1
102
RTVSPost2010Prop33
280
     0
102
RTVSPost2010PropOp33
 70
     1
102
RTVSPost2010Prop34
280
     0
102
RTVSPost2010PropOp34
 70
     1
102
RTVSPost2010Prop35
280
     0
102
RTVSPost2010PropOp35
 70
     1
102
RTVSPost2010Prop36
280
     0
102
RTVSPost2010PropOp36
 70
     1
102
RTVSPost2010Prop37
 90
       50
102
RTVSPost2010PropOp37
 70
     1
102
RTVSPost2010Prop38
140
0.0
102
RTVSPost2010PropOp38
 70
     1
102
RTVSPost2010Prop39
140
1.0
102
RTVSPost2010PropOp39
 70
     1
102
RTVSPost2010Prop40
 90
        0
102
RTVSPost2010PropOp40
 70
     1
102
RTVSPost2010Prop41ColorIndex
 90
       18
102
RTVSPost2010Prop41ColorRGB
 90
        0
102
RTVSPost2010PropOp41
 70
     1
102
RTVSPost2010Prop42
 90
       50
102
RTVSPost2010PropOp42
 70
     1
102
RTVSPost2010Prop43
 90
        3
102
RTVSPost2010PropOp43
 70
     1
102
RTVSPost2010Prop44ColorIndex
 90
        5
102
RTVSPost2010Prop44ColorRGB
 90
      255
102
RTVSPost2010PropOp44
 70
     1
102
RTVSPost2010Prop45
280
     0
102
RTVSPost2010PropOp45
 70
     1
102
RTVSPost2010Prop46
 90
       50
102
RTVSPost2010PropOp46
 70
     1
102
RTVSPost2010Prop47
 90
       50
102
RTVSPost2010PropOp47
 70
     1
102
RTVSPost2010Prop48
 90
       50
102
RTVSPost2010PropOp48
 70
     1
102
RTVSPost2010Prop49
280
     0
102
RTVSPost2010PropOp49
 70
     1
102
RTVSPost2010Prop50
 90
       50
102
RTVSPost2010PropOp50
 70
     1
102
RTVSPost2010Prop51ColorIndex
 90
      256
102
RTVSPost2010Prop51ColorRGB
 90
-16777216
102
RTVSPost2010PropOp51
 70
     0
102
RTVSPost2010Prop52
140
1.0
102
RTVSPost2010PropOp52
 70
     0
102
RTVSPost2010Prop53
 90
        2
102
RTVSPost2010PropOp53
 70
     1
102
RTVSPost2010Prop54
  1
strokes_ogs.tif
102
RTVSPost2010PropOp54
 70
     1
102
RTVSPost2010Prop55
280
     0
102
RTVSPost2010PropOp55
 70
     1
102
RTVSPost2010Prop56
140
1.0
102
RTVSPost2010PropOp56
 70
     1
102
RTVSPost2010Prop57
140
1.0
102
RTVSPost2010PropOp57
 70
     1
  0
ENDSEC
  0
EOF
