  0
SECTION
  2
HEADER
  9
$ACADVER
  1
AC1024
  9
$ACADMAINTVER
 70
   205
  9
$DWGCODEPAGE
  3
ANSI_1251
  9
$INSBASE
 10
0.0
 20
0.0
 30
0.0
  9
$EXTMIN
 10
1.000000000000000E+20
 20
1.000000000000000E+20
 30
1.000000000000000E+20
  9
$EXTMAX
 10
-1.000000000000000E+20
 20
-1.000000000000000E+20
 30
-1.000000000000000E+20
  9
$LIMMIN
 10
0.0
 20
0.0
  9
$LIMMAX
 10
12.0
 20
9.0
  9
$ORTHOMODE
 70
     0
  9
$REGENMODE
 70
     1
  9
$FILLMODE
 70
     1
  9
$QTEXTMODE
 70
     0
  9
$MIRRTEXT
 70
     1
  9
$LTSCALE
 40
1.0
  9
$ATTMODE
 70
     1
  9
$TEXTSIZE
 40
0.2
  9
$TRACEWID
 40
0.05
  9
$TEXTSTYLE
  7
Standard
  9
$CLAYER
  8
OracDecor_cornice_mouldings
  9
$CELTYPE
  6
ByLayer
  9
$CECOLOR
 62
   256
  9
$CELTSCALE
 40
1.0
  9
$DISPSILH
 70
     0
  9
$DIMSCALE
 40
1.0
  9
$DIMASZ
 40
0.18
  9
$DIMEXO
 40
0.0625
  9
$DIMDLI
 40
0.38
  9
$DIMRND
 40
0.0
  9
$DIMDLE
 40
0.0
  9
$DIMEXE
 40
0.18
  9
$DIMTP
 40
0.0
  9
$DIMTM
 40
0.0
  9
$DIMTXT
 40
0.18
  9
$DIMCEN
 40
0.09
  9
$DIMTSZ
 40
0.0
  9
$DIMTOL
 70
     0
  9
$DIMLIM
 70
     0
  9
$DIMTIH
 70
     1
  9
$DIMTOH
 70
     1
  9
$DIMSE1
 70
     0
  9
$DIMSE2
 70
     0
  9
$DIMTAD
 70
     0
  9
$DIMZIN
 70
     0
  9
$DIMBLK
  1

  9
$DIMASO
 70
     1
  9
$DIMSHO
 70
     1
  9
$DIMPOST
  1

  9
$DIMAPOST
  1

  9
$DIMALT
 70
     0
  9
$DIMALTD
 70
     2
  9
$DIMALTF
 40
25.4
  9
$DIMLFAC
 40
1.0
  9
$DIMTOFL
 70
     0
  9
$DIMTVP
 40
0.0
  9
$DIMTIX
 70
     0
  9
$DIMSOXD
 70
     0
  9
$DIMSAH
 70
     0
  9
$DIMBLK1
  1

  9
$DIMBLK2
  1

  9
$DIMSTYLE
  2
Standard
  9
$DIMCLRD
 70
     0
  9
$DIMCLRE
 70
     0
  9
$DIMCLRT
 70
     0
  9
$DIMTFAC
 40
1.0
  9
$DIMGAP
 40
0.09
  9
$DIMJUST
 70
     0
  9
$DIMSD1
 70
     0
  9
$DIMSD2
 70
     0
  9
$DIMTOLJ
 70
     1
  9
$DIMTZIN
 70
     0
  9
$DIMALTZ
 70
     0
  9
$DIMALTTZ
 70
     0
  9
$DIMUPT
 70
     0
  9
$DIMDEC
 70
     4
  9
$DIMTDEC
 70
     4
  9
$DIMALTU
 70
     2
  9
$DIMALTTD
 70
     2
  9
$DIMTXSTY
  7
Standard
  9
$DIMAUNIT
 70
     0
  9
$DIMADEC
 70
     0
  9
$DIMALTRND
 40
0.0
  9
$DIMAZIN
 70
     0
  9
$DIMDSEP
 70
    46
  9
$DIMATFIT
 70
     3
  9
$DIMFRAC
 70
     0
  9
$DIMLDRBLK
  1

  9
$DIMLUNIT
 70
     2
  9
$DIMLWD
 70
    -2
  9
$DIMLWE
 70
    -2
  9
$DIMTMOVE
 70
     0
  9
$DIMFXL
 40
1.0
  9
$DIMFXLON
 70
     0
  9
$DIMJOGANG
 40
0.7853981633974483
  9
$DIMTFILL
 70
     0
  9
$DIMTFILLCLR
 70
     0
  9
$DIMARCSYM
 70
     0
  9
$DIMLTYPE
  6

  9
$DIMLTEX1
  6

  9
$DIMLTEX2
  6

  9
$DIMTXTDIRECTION
 70
     0
  9
$LUNITS
 70
     2
  9
$LUPREC
 70
     4
  9
$SKETCHINC
 40
0.1
  9
$FILLETRAD
 40
0.5
  9
$AUNITS
 70
     0
  9
$AUPREC
 70
     0
  9
$MENU
  1
.
  9
$ELEVATION
 40
0.0
  9
$PELEVATION
 40
0.0
  9
$THICKNESS
 40
0.0
  9
$LIMCHECK
 70
     0
  9
$CHAMFERA
 40
0.5
  9
$CHAMFERB
 40
0.5
  9
$CHAMFERC
 40
1.0
  9
$CHAMFERD
 40
0.0
  9
$SKPOLY
 70
     0
  9
$TDCREATE
 40
2451380.930432396
  9
$TDUCREATE
 40
2451380.805432396
  9
$TDUPDATE
 40
2451380.966180555
  9
$TDUUPDATE
 40
2451380.841180556
  9
$TDINDWG
 40
0.0075614468
  9
$TDUSRTIMER
 40
0.0075524074
  9
$USRTIMER
 70
     1
  9
$ANGBASE
 50
0.0
  9
$ANGDIR
 70
     0
  9
$PDMODE
 70
     0
  9
$PDSIZE
 40
0.0
  9
$PLINEWID
 40
0.0
  9
$SPLFRAME
 70
     0
  9
$SPLINETYPE
 70
     6
  9
$SPLINESEGS
 70
     8
  9
$HANDSEED
  5
1AF
  9
$SURFTAB1
 70
     6
  9
$SURFTAB2
 70
     6
  9
$SURFTYPE
 70
     6
  9
$SURFU
 70
     6
  9
$SURFV
 70
     6
  9
$UCSBASE
  2

  9
$UCSNAME
  2

  9
$UCSORG
 10
0.0
 20
0.0
 30
0.0
  9
$UCSXDIR
 10
1.0
 20
0.0
 30
0.0
  9
$UCSYDIR
 10
0.0
 20
1.0
 30
0.0
  9
$UCSORTHOREF
  2

  9
$UCSORTHOVIEW
 70
     0
  9
$UCSORGTOP
 10
0.0
 20
0.0
 30
0.0
  9
$UCSORGBOTTOM
 10
0.0
 20
0.0
 30
0.0
  9
$UCSORGLEFT
 10
0.0
 20
0.0
 30
0.0
  9
$UCSORGRIGHT
 10
0.0
 20
0.0
 30
0.0
  9
$UCSORGFRONT
 10
0.0
 20
0.0
 30
0.0
  9
$UCSORGBACK
 10
0.0
 20
0.0
 30
0.0
  9
$PUCSBASE
  2

  9
$PUCSNAME
  2

  9
$PUCSORG
 10
0.0
 20
0.0
 30
0.0
  9
$PUCSXDIR
 10
1.0
 20
0.0
 30
0.0
  9
$PUCSYDIR
 10
0.0
 20
1.0
 30
0.0
  9
$PUCSORTHOREF
  2

  9
$PUCSORTHOVIEW
 70
     0
  9
$PUCSORGTOP
 10
0.0
 20
0.0
 30
0.0
  9
$PUCSORGBOTTOM
 10
0.0
 20
0.0
 30
0.0
  9
$PUCSORGLEFT
 10
0.0
 20
0.0
 30
0.0
  9
$PUCSORGRIGHT
 10
0.0
 20
0.0
 30
0.0
  9
$PUCSORGFRONT
 10
0.0
 20
0.0
 30
0.0
  9
$PUCSORGBACK
 10
0.0
 20
0.0
 30
0.0
  9
$USERI1
 70
     0
  9
$USERI2
 70
     0
  9
$USERI3
 70
     0
  9
$USERI4
 70
     0
  9
$USERI5
 70
     0
  9
$USERR1
 40
0.0
  9
$USERR2
 40
0.0
  9
$USERR3
 40
0.0
  9
$USERR4
 40
0.0
  9
$USERR5
 40
0.0
  9
$WORLDVIEW
 70
     1
  9
$SHADEDGE
 70
     3
  9
$SHADEDIF
 70
    70
  9
$TILEMODE
 70
     1
  9
$MAXACTVP
 70
    64
  9
$PINSBASE
 10
0.0
 20
0.0
 30
0.0
  9
$PLIMCHECK
 70
     0
  9
$PEXTMIN
 10
1.000000000000000E+20
 20
1.000000000000000E+20
 30
1.000000000000000E+20
  9
$PEXTMAX
 10
-1.000000000000000E+20
 20
-1.000000000000000E+20
 30
-1.000000000000000E+20
  9
$PLIMMIN
 10
0.0
 20
0.0
  9
$PLIMMAX
 10
12.0
 20
9.0
  9
$UNITMODE
 70
     0
  9
$VISRETAIN
 70
     1
  9
$PLINEGEN
 70
     0
  9
$PSLTSCALE
 70
     1
  9
$TREEDEPTH
 70
  3020
  9
$CMLSTYLE
  2
Standard
  9
$CMLJUST
 70
     0
  9
$CMLSCALE
 40
1.0
  9
$PROXYGRAPHICS
 70
     1
  9
$MEASUREMENT
 70
     1
  9
$CELWEIGHT
370
    -1
  9
$ENDCAPS
280
     0
  9
$JOINSTYLE
280
     0
  9
$LWDISPLAY
290
     0
  9
$INSUNITS
 70
     4
  9
$HYPERLINKBASE
  1

  9
$STYLESHEET
  1

  9
$XEDIT
290
     1
  9
$CEPSNTYPE
380
     0
  9
$PSTYLEMODE
290
     1
  9
$FINGERPRINTGUID
  2
{12F50282-3ED8-11D3-A8B7-0060B0F84BC6}
  9
$VERSIONGUID
  2
{12F50293-3ED8-11D3-A8B7-0060B0F84BC6}
  9
$EXTNAMES
290
     1
  9
$PSVPSCALE
 40
0.0
  9
$OLESTARTUP
290
     0
  9
$SORTENTS
280
   127
  9
$INDEXCTL
280
     0
  9
$HIDETEXT
280
     0
  9
$XCLIPFRAME
280
     2
  9
$HALOGAP
280
     0
  9
$OBSCOLOR
 70
   257
  9
$OBSLTYPE
280
     0
  9
$INTERSECTIONDISPLAY
280
     0
  9
$INTERSECTIONCOLOR
 70
   257
  9
$DIMASSOC
280
     1
  9
$PROJECTNAME
  1

  9
$CAMERADISPLAY
290
     0
  9
$LENSLENGTH
 40
50.0
  9
$CAMERAHEIGHT
 40
0.0
  9
$STEPSPERSEC
 40
2.0
  9
$STEPSIZE
 40
6.0
  9
$3DDWFPREC
 40
2.0
  9
$PSOLWIDTH
 40
0.25
  9
$PSOLHEIGHT
 40
4.0
  9
$LOFTANG1
 40
1.570796326794896
  9
$LOFTANG2
 40
1.570796326794896
  9
$LOFTMAG1
 40
0.0
  9
$LOFTMAG2
 40
0.0
  9
$LOFTPARAM
 70
     7
  9
$LOFTNORMALS
280
     1
  9
$LATITUDE
 40
37.795
  9
$LONGITUDE
 40
-122.394
  9
$NORTHDIRECTION
 40
0.0
  9
$TIMEZONE
 70
 -8000
  9
$LIGHTGLYPHDISPLAY
280
     1
  9
$TILEMODELIGHTSYNCH
280
     1
  9
$CMATERIAL
347
AB
  9
$SOLIDHIST
280
     0
  9
$SHOWHIST
280
     1
  9
$DWFFRAME
280
     2
  9
$DGNFRAME
280
     0
  9
$REALWORLDSCALE
290
     1
  9
$INTERFERECOLOR
 62
     1
  9
$INTERFEREOBJVS
345
CD
  9
$INTERFEREVPVS
346
CA
  9
$CSHADOW
280
     0
  9
$SHADOWPLANELOCATION
 40
0.0
  0
ENDSEC
  0
SECTION
  2
CLASSES
  0
CLASS
  1
ACDBDICTIONARYWDFLT
  2
AcDbDictionaryWithDefault
  3
ObjectDBX Classes
 90
        0
 91
        1
280
     0
281
     0
  0
CLASS
  1
ACDBPLACEHOLDER
  2
AcDbPlaceHolder
  3
ObjectDBX Classes
 90
        0
 91
        2
280
     0
281
     0
  0
CLASS
  1
LAYOUT
  2
AcDbLayout
  3
ObjectDBX Classes
 90
        0
 91
        3
280
     0
281
     0
  0
CLASS
  1
MATERIAL
  2
AcDbMaterial
  3
ObjectDBX Classes
 90
     1153
 91
        3
280
     0
281
     0
  0
CLASS
  1
VISUALSTYLE
  2
AcDbVisualStyle
  3
ObjectDBX Classes
 90
     4095
 91
       24
280
     0
281
     0
  0
CLASS
  1
TABLESTYLE
  2
AcDbTableStyle
  3
ObjectDBX Classes
 90
     4095
 91
        1
280
     0
281
     0
  0
CLASS
  1
SCALE
  2
AcDbScale
  3
ObjectDBX Classes
 90
     1153
 91
       17
280
     0
281
     0
  0
CLASS
  1
MLEADERSTYLE
  2
AcDbMLeaderStyle
  3
ACDB_MLEADERSTYLE_CLASS
 90
     4095
 91
        1
280
     0
281
     0
  0
CLASS
  1
ACDBSECTIONVIEWSTYLE
  2
AcDbSectionViewStyle
  3
ObjectDBX Classes
 90
     1025
 91
        1
280
     0
281
     0
  0
CLASS
  1
ACDBDETAILVIEWSTYLE
  2
AcDbDetailViewStyle
  3
ObjectDBX Classes
 90
     1025
 91
        1
280
     0
281
     0
  0
CLASS
  1
MESH
  2
AcDbSubDMesh
  3
ObjectDBX Classes
 90
        0
 91
        1
280
     0
281
     1
  0
CLASS
  1
DICTIONARYVAR
  2
AcDbDictionaryVar
  3
ObjectDBX Classes
 90
        0
 91
        9
280
     0
281
     0
  0
CLASS
  1
CELLSTYLEMAP
  2
AcDbCellStyleMap
  3
ObjectDBX Classes
 90
     1152
 91
        1
280
     0
281
     0
  0
ENDSEC
  0
SECTION
  2
TABLES
  0
TABLE
  2
VPORT
  5
8
330
0
100
AcDbSymbolTable
 70
     1
  0
VPORT
  5
A8
330
8
100
AcDbSymbolTableRecord
100
AcDbViewportTableRecord
  2
*Active
 70
     0
 10
0.0
 20
0.0
 11
1.0
 21
1.0
 12
0.0001078959394363
 22
-26.53607940673828
 13
0.0
 23
0.0
 14
0.5
 24
0.5
 15
0.5
 25
0.5
 16
-1.0
 26
-1.0
 36
1.0
 17
0.0
 27
0.0
 37
0.0
 40
1124.999969454946
 41
1.631976758248618
 42
50.0
 43
0.0
 44
0.0
 50
0.0
 51
0.0
 71
     0
 72
   100
 73
     1
 74
     3
 75
     0
 76
     0
 77
     0
 78
     0
281
     0
 65
     1
110
0.0
120
0.0
130
0.0
111
1.0
121
0.0
131
0.0
112
0.0
122
1.0
132
0.0
 79
     0
146
0.0
348
C9
 60
     3
 61
     5
292
     1
282
     1
141
0.0
142
0.0
 63
   250
421
  3355443
  0
ENDTAB
  0
TABLE
  2
LTYPE
  5
5
330
0
100
AcDbSymbolTable
 70
     1
  0
LTYPE
  5
14
330
5
100
AcDbSymbolTableRecord
100
AcDbLinetypeTableRecord
  2
ByBlock
 70
     0
  3

 72
    65
 73
     0
 40
0.0
  0
LTYPE
  5
15
330
5
100
AcDbSymbolTableRecord
100
AcDbLinetypeTableRecord
  2
ByLayer
 70
     0
  3

 72
    65
 73
     0
 40
0.0
  0
LTYPE
  5
16
330
5
100
AcDbSymbolTableRecord
100
AcDbLinetypeTableRecord
  2
Continuous
 70
     0
  3
Solid line
 72
    65
 73
     0
 40
0.0
  0
ENDTAB
  0
TABLE
  2
LAYER
  5
2
330
0
100
AcDbSymbolTable
 70
     3
  0
LAYER
  5
10
330
2
100
AcDbSymbolTableRecord
100
AcDbLayerTableRecord
  2
0
 70
     0
 62
     7
  6
Continuous
370
    -3
390
F
347
BB
  0
LAYER
  5
2B
330
2
100
AcDbSymbolTableRecord
100
AcDbLayerTableRecord
  2
ASHADE
 70
     4
 62
     7
  6
Continuous
370
    -3
390
2D
347
BB
  0
LAYER
  5
F8
330
2
100
AcDbSymbolTableRecord
100
AcDbLayerTableRecord
  2
OracDecor_cornice_mouldings
 70
     0
 62
    41
420
 14997145
  6
Continuous
370
    -3
390
F
347
BB
  0
ENDTAB
  0
TABLE
  2
STYLE
  5
3
330
0
100
AcDbSymbolTable
 70
     2
  0
STYLE
  5
11
330
3
100
AcDbSymbolTableRecord
100
AcDbTextStyleTableRecord
  2
Standard
 70
     0
 40
0.0
 41
1.0
 50
0.0
 71
     0
 42
0.2
  3
txt
  4

  0
STYLE
  5
2C
330
3
100
AcDbSymbolTableRecord
100
AcDbTextStyleTableRecord
  2
ASHADE
 70
     0
 40
0.2
 41
1.0
 50
0.0
 71
     0
 42
0.2
  3
simplex
  4

  0
ENDTAB
  0
TABLE
  2
VIEW
  5
6
330
0
100
AcDbSymbolTable
 70
     0
  0
ENDTAB
  0
TABLE
  2
UCS
  5
7
330
0
100
AcDbSymbolTable
 70
     0
  0
ENDTAB
  0
TABLE
  2
APPID
  5
9
330
0
100
AcDbSymbolTable
 70
     6
  0
APPID
  5
12
330
9
100
AcDbSymbolTableRecord
100
AcDbRegAppTableRecord
  2
ACAD
 70
     0
  0
APPID
  5
8F
330
9
100
AcDbSymbolTableRecord
100
AcDbRegAppTableRecord
  2
AVE_RENDER
 70
     0
  0
APPID
  5
90
330
9
100
AcDbSymbolTableRecord
100
AcDbRegAppTableRecord
  2
AVE_ENTITY_MATERIAL
 70
     0
  0
APPID
  5
9C
330
9
100
AcDbSymbolTableRecord
100
AcDbRegAppTableRecord
  2
AVE_FINISH
 70
     0
  0
APPID
  5
9D
330
9
100
AcDbSymbolTableRecord
100
AcDbRegAppTableRecord
  2
AVE_MATERIAL
 70
     0
  0
APPID
  5
9E
330
9
100
AcDbSymbolTableRecord
100
AcDbRegAppTableRecord
  2
AVE_GLOBAL
 70
     0
  0
ENDTAB
  0
TABLE
  2
DIMSTYLE
  5
A
330
0
100
AcDbSymbolTable
 70
     1
100
AcDbDimStyleTable
 71
     0
  0
DIMSTYLE
105
27
330
A
100
AcDbSymbolTableRecord
100
AcDbDimStyleTableRecord
  2
Standard
 70
     0
340
11
  0
ENDTAB
  0
TABLE
  2
BLOCK_RECORD
  5
1
330
0
100
AcDbSymbolTable
 70
     6
  0
BLOCK_RECORD
  5
1F
330
1
100
AcDbSymbolTableRecord
100
AcDbBlockTableRecord
  2
*Model_Space
340
22
 70
     0
280
     1
281
     0
  0
BLOCK_RECORD
  5
1B
330
1
100
AcDbSymbolTableRecord
100
AcDbBlockTableRecord
  2
*Paper_Space
340
1E
 70
     0
280
     1
281
     0
  0
BLOCK_RECORD
  5
23
330
1
100
AcDbSymbolTableRecord
100
AcDbBlockTableRecord
  2
*Paper_Space0
340
26
 70
     0
280
     1
281
     0
  0
BLOCK_RECORD
  5
2E
330
1
100
AcDbSymbolTableRecord
100
AcDbBlockTableRecord
  2
direct
340
0
 70
     0
280
     1
281
     0
  0
BLOCK_RECORD
  5
42
330
1
100
AcDbSymbolTableRecord
100
AcDbBlockTableRecord
  2
overhead
340
0
 70
     0
280
     1
281
     0
  0
BLOCK_RECORD
  5
5F
330
1
100
AcDbSymbolTableRecord
100
AcDbBlockTableRecord
  2
sh_spot
340
0
 70
     0
280
     1
281
     0
  0
BLOCK_RECORD
  5
91
330
1
100
AcDbSymbolTableRecord
100
AcDbBlockTableRecord
  2
AVE_RENDER
340
0
102
{BLKREFS
331
94
331
95
331
96
331
97
331
98
331
99
331
9A
331
9B
102
}
 70
     0
280
     1
281
     0
  0
BLOCK_RECORD
  5
9F
330
1
100
AcDbSymbolTableRecord
100
AcDbBlockTableRecord
  2
AVE_GLOBAL
340
0
102
{BLKREFS
331
A2
102
}
 70
     0
280
     1
281
     0
  0
ENDTAB
  0
ENDSEC
  0
SECTION
  2
BLOCKS
  0
BLOCK
  5
20
330
1F
100
AcDbEntity
  8
0
100
AcDbBlockBegin
  2
*Model_Space
 70
     0
 10
0.0
 20
0.0
 30
0.0
  3
*Model_Space
  1

  0
ENDBLK
  5
21
330
1F
100
AcDbEntity
  8
0
100
AcDbBlockEnd
  0
BLOCK
  5
1C
330
1B
100
AcDbEntity
 67
     1
  8
0
100
AcDbBlockBegin
  2
*Paper_Space
 70
     0
 10
0.0
 20
0.0
 30
0.0
  3
*Paper_Space
  1

  0
ENDBLK
  5
1D
330
1B
100
AcDbEntity
 67
     1
  8
0
100
AcDbBlockEnd
  0
BLOCK
  5
24
330
23
100
AcDbEntity
 67
     1
  8
0
100
AcDbBlockBegin
  2
*Paper_Space0
 70
     0
 10
0.0
 20
0.0
 30
0.0
  3
*Paper_Space0
  1

  0
ENDBLK
  5
25
330
23
100
AcDbEntity
 67
     1
  8
0
100
AcDbBlockEnd
  0
BLOCK
  5
40
330
2E
100
AcDbEntity
  8
0
100
AcDbBlockBegin
  2
direct
 70
     2
 10
0.0
 20
0.0
 30
0.0
  3
direct
  1

  0
ATTDEF
  5
2F
330
2E
100
AcDbEntity
  8
ASHADE
  6
Continuous
 62
     1
100
AcDbText
 10
0.0
 20
-0.1
 30
0.0
 40
0.2
  1

  7
ASHADE
 72
     1
 11
0.0
 21
-0.1
 31
0.0
100
AcDbAttributeDefinition
280
     0
  3
Light Name
  2
SNAME
 70
     0
280
     0
  0
ARC
  5
30
330
2E
100
AcDbEntity
  8
ASHADE
  6
Continuous
 62
     7
100
AcDbCircle
 10
0.0
 20
0.0
 30
0.0
 40
0.3
100
AcDbArc
 50
205.6792886194569
 51
334.3207113805431
  0
ARC
  5
31
330
2E
100
AcDbEntity
  8
ASHADE
  6
Continuous
 62
     7
100
AcDbCircle
 10
0.0
 20
0.0
 30
0.0
 40
0.3
100
AcDbArc
 50
25.67928861945685
 51
154.3207113805431
  0
LINE
  5
32
330
2E
100
AcDbEntity
  8
ASHADE
  6
Continuous
 62
     7
100
AcDbLine
 10
-0.21
 20
0.2142428528562855
 30
0.0
 11
-0.21
 21
0.5
 31
0.0
  0
LINE
  5
33
330
2E
100
AcDbEntity
  8
ASHADE
  6
Continuous
 62
     7
100
AcDbLine
 10
-0.11
 20
0.2791057147390572
 30
0.0
 11
-0.11
 21
0.5
 31
0.0
  0
LINE
  5
34
330
2E
100
AcDbEntity
  8
ASHADE
  6
Continuous
 62
     7
100
AcDbLine
 10
0.21
 20
0.2142428528562855
 30
0.0
 11
0.21
 21
0.5
 31
0.0
  0
ATTDEF
  5
35
330
2E
100
AcDbEntity
  8
ASHADE
  6
Continuous
 62
     7
100
AcDbText
 10
0.0
 20
0.25
 30
0.0
 40
0.01
  1

100
AcDbAttributeDefinition
280
     0
  3
Look-at Y
  2
LAY
 70
     1
280
     0
  0
ATTDEF
  5
36
330
2E
100
AcDbEntity
  8
ASHADE
  6
Continuous
 62
     7
100
AcDbText
 10
0.0
 20
0.22
 30
0.0
 40
0.01
  1
1
100
AcDbAttributeDefinition
280
     0
  3
Light Intensity
  2
INTENSITY
 70
     1
280
     0
  0
ATTDEF
  5
37
330
2E
100
AcDbEntity
  8
ASHADE
  6
Continuous
 62
     7
100
AcDbText
 10
0.0
 20
0.16
 30
0.0
 40
0.01
  1
-1
100
AcDbAttributeDefinition
280
     0
  3
*not used*
  2
BEAMD
 70
     1
280
     0
  0
ATTDEF
  5
38
330
2E
100
AcDbEntity
  8
ASHADE
  6
Continuous
 62
     7
100
AcDbText
 10
0.0
 20
0.175
 30
0.0
 40
0.01
  1
-1
100
AcDbAttributeDefinition
280
     0
  3
*not used*
  2
CONED
 70
     1
280
     0
  0
ATTDEF
  5
39
330
2E
100
AcDbEntity
  8
ASHADE
  6
Continuous
 62
     7
100
AcDbText
 10
0.0
 20
0.19
 30
0.0
 40
0.01
  1
0
100
AcDbAttributeDefinition
280
     0
  3
Depth Map Size
  2
CONEA
 70
     1
280
     0
  0
ATTDEF
  5
3A
330
2E
100
AcDbEntity
  8
ASHADE
  6
Continuous
 62
     7
100
AcDbText
 10
0.0
 20
0.2050000000000001
 30
0.0
 40
0.01
  1
1,1,1
100
AcDbAttributeDefinition
280
     0
  3
Light Color (RGB)
  2
COLOR
 70
     1
280
     0
  0
ATTDEF
  5
3B
330
2E
100
AcDbEntity
  8
ASHADE
  6
Continuous
 62
     7
100
AcDbText
 10
0.0
 20
0.235
 30
0.0
 40
0.01
  1

100
AcDbAttributeDefinition
280
     0
  3
Look-at Z
  2
LAZ
 70
     1
280
     0
  0
LINE
  5
3C
330
2E
100
AcDbEntity
  8
ASHADE
  6
Continuous
 62
     7
100
AcDbLine
 10
0.0
 20
0.3
 30
0.0
 11
0.0
 21
0.5
 31
0.0
  0
LINE
  5
3D
330
2E
100
AcDbEntity
  8
ASHADE
  6
Continuous
 62
     7
100
AcDbLine
 10
0.11
 20
0.2791057147390572
 30
0.0
 11
0.11
 21
0.5
 31
0.0
  0
ATTDEF
  5
3E
330
2E
100
AcDbEntity
  8
ASHADE
  6
Continuous
 62
     7
100
AcDbText
 10
0.0
 20
0.265
 30
0.0
 40
0.01
  1

100
AcDbAttributeDefinition
280
     0
  3
Look-at X
  2
LAX
 70
     1
280
     0
  0
ATTDEF
  5
3F
330
2E
100
AcDbEntity
  8
ASHADE
  6
Continuous
 62
     7
100
AcDbText
 10
0.0
 20
0.28
 30
0.0
 40
0.01
  1

100
AcDbAttributeDefinition
280
     0
  3

  2
GNAME
 70
     1
280
     0
  0
ENDBLK
  5
41
330
2E
100
AcDbEntity
  8
0
100
AcDbBlockEnd
  0
BLOCK
  5
5D
330
42
100
AcDbEntity
  8
0
100
AcDbBlockBegin
  2
overhead
 70
     2
 10
0.0
 20
0.0
 30
0.0
  3
overhead
  1

  0
ATTDEF
  5
43
330
42
100
AcDbEntity
  8
ASHADE
  6
Continuous
 62
     1
100
AcDbText
 10
0.0
 20
-0.1
 30
0.0
 40
0.2
  1

  7
ASHADE
 72
     1
 11
0.0
 21
-0.1
 31
0.0
100
AcDbAttributeDefinition
280
     0
  3
Light Name
  2
SNAME
 70
     0
280
     0
  0
ARC
  5
44
330
42
100
AcDbEntity
  8
ASHADE
  6
Continuous
 62
     7
100
AcDbCircle
 10
0.0
 20
0.0
 30
0.0
 40
0.3
100
AcDbArc
 50
205.6792886194569
 51
334.3207113805431
  0
LINE
  5
45
330
42
100
AcDbEntity
  8
ASHADE
  6
Continuous
 62
     7
100
AcDbLine
 10
-0.2041413561583015
 20
-0.2198324514393848
 30
0.0
 11
-0.2721884748777353
 21
-0.2931099352525131
 31
0.0
  0
LINE
  5
46
330
42
100
AcDbEntity
  8
ASHADE
  6
Continuous
 62
     7
100
AcDbLine
 10
-0.1096591641591904
 20
-0.2792398032442862
 30
0.0
 11
-0.1279356915190555
 21
-0.3257797704516673
 31
0.0
  0
LINE
  5
47
330
42
100
AcDbEntity
  8
ASHADE
  6
Continuous
 62
     7
100
AcDbLine
 10
0.0
 20
-0.2999999999999999
 30
0.0
 11
0.0
 21
-0.4
 31
0.0
  0
LINE
  5
48
330
42
100
AcDbEntity
  8
ASHADE
  6
Continuous
 62
     7
100
AcDbLine
 10
0.1096591641591904
 20
-0.2792398032442862
 30
0.0
 11
0.1279356915190555
 21
-0.3257797704516673
 31
0.0
  0
LINE
  5
49
330
42
100
AcDbEntity
  8
ASHADE
  6
Continuous
 62
     7
100
AcDbLine
 10
0.2041413561583015
 20
-0.2198324514393848
 30
0.0
 11
0.2721884748777353
 21
-0.2931099352525131
 31
0.0
  0
ARC
  5
4A
330
42
100
AcDbEntity
  8
ASHADE
  6
Continuous
 62
     7
100
AcDbCircle
 10
0.0
 20
0.0
 30
0.0
 40
0.3
100
AcDbArc
 50
25.67928861945685
 51
154.3207113805431
  0
LINE
  5
4B
330
42
100
AcDbEntity
  8
ASHADE
  6
Continuous
 62
     7
100
AcDbLine
 10
-0.2703701166919155
 20
0.13
 30
0.0
 11
-0.3154318028072347
 21
0.1516666666666666
 31
0.0
  0
LINE
  5
4C
330
42
100
AcDbEntity
  8
ASHADE
  6
Continuous
 62
     7
100
AcDbLine
 10
-0.2703701166919155
 20
-0.13
 30
0.0
 11
-0.3154318028072347
 21
-0.1516666666666666
 31
0.0
  0
LINE
  5
4D
330
42
100
AcDbEntity
  8
ASHADE
  6
Continuous
 62
     7
100
AcDbLine
 10
-0.2041413561583015
 20
0.2198324514393849
 30
0.0
 11
-0.2721884748777353
 21
0.2931099352525131
 31
0.0
  0
LINE
  5
4E
330
42
100
AcDbEntity
  8
ASHADE
  6
Continuous
 62
     7
100
AcDbLine
 10
-0.1096591641591904
 20
0.2792398032442862
 30
0.0
 11
-0.1279356915190555
 21
0.3257797704516674
 31
0.0
  0
LINE
  5
4F
330
42
100
AcDbEntity
  8
ASHADE
  6
Continuous
 62
     7
100
AcDbLine
 10
0.2703701166919155
 20
-0.13
 30
0.0
 11
0.3154318028072347
 21
-0.1516666666666666
 31
0.0
  0
LINE
  5
50
330
42
100
AcDbEntity
  8
ASHADE
  6
Continuous
 62
     7
100
AcDbLine
 10
0.2703701166919155
 20
0.13
 30
0.0
 11
0.3154318028072347
 21
0.1516666666666666
 31
0.0
  0
LINE
  5
51
330
42
100
AcDbEntity
  8
ASHADE
  6
Continuous
 62
     7
100
AcDbLine
 10
0.0
 20
0.3
 30
0.0
 11
0.0
 21
0.4
 31
0.0
  0
ATTDEF
  5
52
330
42
100
AcDbEntity
  8
ASHADE
  6
Continuous
 62
     7
100
AcDbText
 10
0.0
 20
0.22
 30
0.0
 40
0.01
  1
1
100
AcDbAttributeDefinition
280
     0
  3
Light Intensity
  2
INTENSITY
 70
     1
280
     0
  0
ATTDEF
  5
53
330
42
100
AcDbEntity
  8
ASHADE
  6
Continuous
 62
     7
100
AcDbText
 10
0.0
 20
0.16
 30
0.0
 40
0.01
  1
-1
100
AcDbAttributeDefinition
280
     0
  3
*not used*
  2
BEAMD
 70
     1
280
     0
  0
ATTDEF
  5
54
330
42
100
AcDbEntity
  8
ASHADE
  6
Continuous
 62
     7
100
AcDbText
 10
0.0
 20
0.175
 30
0.0
 40
0.01
  1
-1
100
AcDbAttributeDefinition
280
     0
  3
*not used*
  2
CONED
 70
     1
280
     0
  0
ATTDEF
  5
55
330
42
100
AcDbEntity
  8
ASHADE
  6
Continuous
 62
     7
100
AcDbText
 10
0.0
 20
0.19
 30
0.0
 40
0.01
  1
0
100
AcDbAttributeDefinition
280
     0
  3
Depth Map Size
  2
CONEA
 70
     1
280
     0
  0
ATTDEF
  5
56
330
42
100
AcDbEntity
  8
ASHADE
  6
Continuous
 62
     7
100
AcDbText
 10
0.0
 20
0.2050000000000001
 30
0.0
 40
0.01
  1
1,1,1
100
AcDbAttributeDefinition
280
     0
  3
Light Color (RGB)
  2
COLOR
 70
     1
280
     0
  0
ATTDEF
  5
57
330
42
100
AcDbEntity
  8
ASHADE
  6
Continuous
 62
     7
100
AcDbText
 10
0.0
 20
0.235
 30
0.0
 40
0.01
  1

100
AcDbAttributeDefinition
280
     0
  3
Look-at Z
  2
LAZ
 70
     1
280
     0
  0
ATTDEF
  5
58
330
42
100
AcDbEntity
  8
ASHADE
  6
Continuous
 62
     7
100
AcDbText
 10
0.0
 20
0.25
 30
0.0
 40
0.01
  1

100
AcDbAttributeDefinition
280
     0
  3
Look-at Y
  2
LAY
 70
     1
280
     0
  0
ATTDEF
  5
59
330
42
100
AcDbEntity
  8
ASHADE
  6
Continuous
 62
     7
100
AcDbText
 10
0.0
 20
0.265
 30
0.0
 40
0.01
  1

100
AcDbAttributeDefinition
280
     0
  3
Look-at X
  2
LAX
 70
     1
280
     0
  0
ATTDEF
  5
5A
330
42
100
AcDbEntity
  8
ASHADE
  6
Continuous
 62
     7
100
AcDbText
 10
0.0
 20
0.28
 30
0.0
 40
0.01
  1

100
AcDbAttributeDefinition
280
     0
  3

  2
GNAME
 70
     1
280
     0
  0
LINE
  5
5B
330
42
100
AcDbEntity
  8
ASHADE
  6
Continuous
 62
     7
100
AcDbLine
 10
0.1096591641591904
 20
0.2792398032442862
 30
0.0
 11
0.1279356915190555
 21
0.3257797704516674
 31
0.0
  0
LINE
  5
5C
330
42
100
AcDbEntity
  8
ASHADE
  6
Continuous
 62
     7
100
AcDbLine
 10
0.2041413561583015
 20
0.2198324514393849
 30
0.0
 11
0.2721884748777353
 21
0.2931099352525131
 31
0.0
  0
ENDBLK
  5
5E
330
42
100
AcDbEntity
  8
0
100
AcDbBlockEnd
  0
BLOCK
  5
85
330
5F
100
AcDbEntity
  8
0
100
AcDbBlockBegin
  2
sh_spot
 70
     2
 10
0.0
 20
0.0
 30
0.0
  3
sh_spot
  1

  0
LINE
  5
60
330
5F
100
AcDbEntity
  8
ASHADE
  6
Continuous
 62
     7
100
AcDbLine
 10
0.25
 20
0.26
 30
0.0
 11
-0.25
 21
0.26
 31
0.0
  0
LINE
  5
61
330
5F
100
AcDbEntity
  8
ASHADE
  6
Continuous
 62
     7
100
AcDbLine
 10
-0.25
 20
-0.3399999999999999
 30
0.0
 11
0.25
 21
-0.3399999999999999
 31
0.0
  0
ATTDEF
  5
62
330
5F
100
AcDbEntity
  8
ASHADE
  6
Continuous
 62
     1
100
AcDbText
 10
0.0
 20
-0.1
 30
0.0
 40
0.2
  1

  7
ASHADE
 72
     1
 11
0.0
 21
-0.1
 31
0.0
100
AcDbAttributeDefinition
280
     0
  3
Light Name
  2
SNAME
 70
     0
280
     0
  0
LINE
  5
63
330
5F
100
AcDbEntity
  8
ASHADE
  6
Continuous
 62
     7
100
AcDbLine
 10
-0.25
 20
-0.13
 30
0.0
 11
-0.25
 21
-0.3399999999999999
 31
0.0
  0
LINE
  5
64
330
5F
100
AcDbEntity
  8
ASHADE
  6
Continuous
 62
     7
100
AcDbLine
 10
-0.25
 20
-0.18
 30
0.0
 11
-0.29
 21
-0.18
 31
0.0
  0
LINE
  5
65
330
5F
100
AcDbEntity
  8
ASHADE
  6
Continuous
 62
     7
100
AcDbLine
 10
-0.29
 20
-0.22
 30
0.0
 11
-0.25
 21
-0.22
 31
0.0
  0
LINE
  5
66
330
5F
100
AcDbEntity
  8
ASHADE
  6
Continuous
 62
     7
100
AcDbLine
 10
-0.29
 20
-0.18
 30
0.0
 11
-0.29
 21
-0.22
 31
0.0
  0
LINE
  5
67
330
5F
100
AcDbEntity
  8
ASHADE
  6
Continuous
 62
     7
100
AcDbLine
 10
-0.1045454545454545
 20
0.26
 30
0.0
 11
-0.15
 21
0.46
 31
0.0
  0
LINE
  5
68
330
5F
100
AcDbEntity
  8
ASHADE
  6
Continuous
 62
     7
100
AcDbLine
 10
-0.21
 20
0.26
 30
0.0
 11
-0.301304347826087
 21
0.46
 31
0.0
  0
LINE
  5
69
330
5F
100
AcDbEntity
  8
ASHADE
  6
Continuous
 62
     7
100
AcDbLine
 10
-0.25
 20
0.26
 30
0.0
 11
-0.25
 21
0.13
 31
0.0
  0
LINE
  5
6A
330
5F
100
AcDbEntity
  8
ASHADE
  6
Continuous
 62
     7
100
AcDbLine
 10
-0.25
 20
0.22
 30
0.0
 11
-0.29
 21
0.22
 31
0.0
  0
LINE
  5
6B
330
5F
100
AcDbEntity
  8
ASHADE
  6
Continuous
 62
     7
100
AcDbLine
 10
-0.29
 20
0.1799999999999999
 30
0.0
 11
-0.25
 21
0.1799999999999999
 31
0.0
  0
LINE
  5
6C
330
5F
100
AcDbEntity
  8
ASHADE
  6
Continuous
 62
     7
100
AcDbLine
 10
-0.29
 20
0.22
 30
0.0
 11
-0.29
 21
0.1799999999999999
 31
0.0
  0
ATTDEF
  5
6D
330
5F
100
AcDbEntity
  8
ASHADE
  6
Continuous
 62
     7
100
AcDbText
 10
0.0
 20
-0.24
 30
0.0
 40
0.01
  1
0
100
AcDbAttributeDefinition
280
     0
  3
Depth Map Size
  2
ZSIZE
 70
     1
280
     0
  0
ATTDEF
  5
6E
330
5F
100
AcDbEntity
  8
ASHADE
  6
Continuous
 62
     7
100
AcDbText
 10
0.0
 20
-0.3300000000000001
 30
0.0
 40
0.01
  1
0,0,0
100
AcDbAttributeDefinition
280
     0
  3
Look-from XYZ
  2
LFXYZ
 70
     1
280
     0
  0
ATTDEF
  5
6F
330
5F
100
AcDbEntity
  8
ASHADE
  6
Continuous
 62
     7
100
AcDbText
 10
0.0
 20
-0.315
 30
0.0
 40
0.01
  1
0.0
100
AcDbAttributeDefinition
280
     0
  3
Beam Distribution
  2
BEAMDI
 70
     1
280
     0
  0
ATTDEF
  5
70
330
5F
100
AcDbEntity
  8
ASHADE
  6
Continuous
 62
     7
100
AcDbText
 10
0.0
 20
-0.3
 30
0.0
 40
0.01
  1
0.0
100
AcDbAttributeDefinition
280
     0
  3
Cone Delta
  2
CONEDE
 70
     1
280
     0
  0
ATTDEF
  5
71
330
5F
100
AcDbEntity
  8
ASHADE
  6
Continuous
 62
     7
100
AcDbText
 10
0.0
 20
-0.2850000000000001
 30
0.0
 40
0.01
  1
10.0
100
AcDbAttributeDefinition
280
     0
  3
Cone Angle
  2
CONEAN
 70
     1
280
     0
  0
ATTDEF
  5
72
330
5F
100
AcDbEntity
  8
ASHADE
  6
Continuous
 62
     7
100
AcDbText
 10
0.0
 20
-0.27
 30
0.0
 40
0.01
  1
-1
100
AcDbAttributeDefinition
280
     0
  3
*not used*
  2
BIASMAX
 70
     1
280
     0
  0
ATTDEF
  5
73
330
5F
100
AcDbEntity
  8
ASHADE
  6
Continuous
 62
     7
100
AcDbText
 10
0.0
 20
-0.255
 30
0.0
 40
0.01
  1
-1
100
AcDbAttributeDefinition
280
     0
  3
*not used*
  2
BIASMIN
 70
     1
280
     0
  0
ATTDEF
  5
74
330
5F
100
AcDbEntity
  8
ASHADE
  6
Continuous
 62
     7
100
AcDbText
 10
0.0
 20
-0.225
 30
0.0
 40
0.01
  1
1,1,1
100
AcDbAttributeDefinition
280
     0
  3
Light Color (RGB)
  2
COLOR
 70
     1
280
     0
  0
ATTDEF
  5
75
330
5F
100
AcDbEntity
  8
ASHADE
  6
Continuous
 62
     7
100
AcDbText
 10
0.0
 20
-0.21
 30
0.0
 40
0.01
  1
1
100
AcDbAttributeDefinition
280
     0
  3
Light Intensity
  2
INTENSITY
 70
     1
280
     0
  0
ATTDEF
  5
76
330
5F
100
AcDbEntity
  8
ASHADE
  6
Continuous
 62
     7
100
AcDbText
 10
0.0
 20
-0.15
 30
0.0
 40
0.01
  1

100
AcDbAttributeDefinition
280
     0
  3

  2
GNAME
 70
     1
280
     0
  0
ATTDEF
  5
77
330
5F
100
AcDbEntity
  8
ASHADE
  6
Continuous
 62
     7
100
AcDbText
 10
0.0
 20
-0.195
 30
0.0
 40
0.01
  1

100
AcDbAttributeDefinition
280
     0
  3
Look-at Z
  2
LAZ
 70
     1
280
     0
  0
ATTDEF
  5
78
330
5F
100
AcDbEntity
  8
ASHADE
  6
Continuous
 62
     7
100
AcDbText
 10
0.0
 20
-0.18
 30
0.0
 40
0.01
  1

100
AcDbAttributeDefinition
280
     0
  3
Look-at Y
  2
LAY
 70
     1
280
     0
  0
ATTDEF
  5
79
330
5F
100
AcDbEntity
  8
ASHADE
  6
Continuous
 62
     7
100
AcDbText
 10
0.0
 20
-0.165
 30
0.0
 40
0.01
  1

100
AcDbAttributeDefinition
280
     0
  3
Look-at X
  2
LAX
 70
     1
280
     0
  0
LINE
  5
7A
330
5F
100
AcDbEntity
  8
ASHADE
  6
Continuous
 62
     7
100
AcDbLine
 10
0.25
 20
-0.3399999999999999
 30
0.0
 11
0.25
 21
-0.13
 31
0.0
  0
LINE
  5
7B
330
5F
100
AcDbEntity
  8
ASHADE
  6
Continuous
 62
     7
100
AcDbLine
 10
0.25
 20
-0.18
 30
0.0
 11
0.29
 21
-0.18
 31
0.0
  0
LINE
  5
7C
330
5F
100
AcDbEntity
  8
ASHADE
  6
Continuous
 62
     7
100
AcDbLine
 10
0.29
 20
-0.22
 30
0.0
 11
0.25
 21
-0.22
 31
0.0
  0
LINE
  5
7D
330
5F
100
AcDbEntity
  8
ASHADE
  6
Continuous
 62
     7
100
AcDbLine
 10
0.29
 20
-0.18
 30
0.0
 11
0.29
 21
-0.22
 31
0.0
  0
LINE
  5
7E
330
5F
100
AcDbEntity
  8
ASHADE
  6
Continuous
 62
     7
100
AcDbLine
 10
0.21
 20
0.26
 30
0.0
 11
0.301304347826087
 21
0.46
 31
0.0
  0
LINE
  5
7F
330
5F
100
AcDbEntity
  8
ASHADE
  6
Continuous
 62
     7
100
AcDbLine
 10
0.1045454545454545
 20
0.26
 30
0.0
 11
0.15
 21
0.46
 31
0.0
  0
LINE
  5
80
330
5F
100
AcDbEntity
  8
ASHADE
  6
Continuous
 62
     7
100
AcDbLine
 10
0.0
 20
0.26
 30
0.0
 11
0.0
 21
0.46
 31
0.0
  0
LINE
  5
81
330
5F
100
AcDbEntity
  8
ASHADE
  6
Continuous
 62
     7
100
AcDbLine
 10
0.25
 20
0.13
 30
0.0
 11
0.25
 21
0.26
 31
0.0
  0
LINE
  5
82
330
5F
100
AcDbEntity
  8
ASHADE
  6
Continuous
 62
     7
100
AcDbLine
 10
0.25
 20
0.22
 30
0.0
 11
0.29
 21
0.22
 31
0.0
  0
LINE
  5
83
330
5F
100
AcDbEntity
  8
ASHADE
  6
Continuous
 62
     7
100
AcDbLine
 10
0.29
 20
0.1799999999999999
 30
0.0
 11
0.25
 21
0.1799999999999999
 31
0.0
  0
LINE
  5
84
330
5F
100
AcDbEntity
  8
ASHADE
  6
Continuous
 62
     7
100
AcDbLine
 10
0.29
 20
0.22
 30
0.0
 11
0.29
 21
0.1799999999999999
 31
0.0
  0
ENDBLK
  5
86
330
5F
100
AcDbEntity
  8
0
100
AcDbBlockEnd
  0
BLOCK
  5
92
330
91
100
AcDbEntity
  8
ASHADE
100
AcDbBlockBegin
  2
AVE_RENDER
 70
     0
 10
0.0
 20
0.0
 30
0.0
  3
AVE_RENDER
  1
AVE_RENDER
  0
ENDBLK
  5
93
330
91
100
AcDbEntity
  8
0
100
AcDbBlockEnd
  0
BLOCK
  5
A0
330
9F
100
AcDbEntity
  8
ASHADE
100
AcDbBlockBegin
  2
AVE_GLOBAL
 70
     0
 10
0.0
 20
0.0
 30
0.0
  3
AVE_GLOBAL
  1
AVE_GLOBAL
  0
ENDBLK
  5
A1
330
9F
100
AcDbEntity
  8
0
100
AcDbBlockEnd
  0
ENDSEC
  0
SECTION
  2
ENTITIES
  0
INSERT
  5
94
330
1F
100
AcDbEntity
  8
ASHADE
 62
     1
100
AcDbBlockReference
  2
AVE_RENDER
 10
0.0
 20
0.0
 30
0.0
1001
AVE_RENDER
1002
{
1070
     7
1000
Pref
1070
    30
1070
    20
1070
     1
1070
     0
1000

1070
    10
1070
     1
1070
    10
1040
1.0
1070
     1
1040
0.3
1040
0.7
1040
0.0
1040
10.0
1010
-1.0
1020
-1.0
1030
-1.0
1040
0.3
1070
    49
1070
     0
1070
     0
1010
1.0
1020
1.0
1030
1.0
1040
45.0
1070
     1
1070
     0
1000
WCS
1040
0.0
1070
     0
1040
10.0
1002
}
  0
INSERT
  5
95
330
1F
100
AcDbEntity
  8
ASHADE
 62
     3
100
AcDbBlockReference
  2
AVE_RENDER
 10
0.0
 20
0.0
 30
0.0
1001
AVE_RENDER
1002
{
1070
     0
1000
Full Opt
1070
     0
1070
     1
1070
     1
1070
     1
1070
     0
1070
     0
1070
     0
1070
     1
1070
     1
1040
0.0001
1040
0.0001
1002
}
  0
INSERT
  5
96
330
1F
100
AcDbEntity
  8
ASHADE
 62
     4
100
AcDbBlockReference
  2
AVE_RENDER
 10
0.0
 20
0.0
 30
0.0
1001
AVE_RENDER
1002
{
1070
     0
1000
Quick Opt
1070
     0
1070
     1
1070
     1
1070
     1
1070
     0
1070
     0
1070
     1
1002
}
  0
INSERT
  5
97
330
1F
100
AcDbEntity
  8
ASHADE
 62
     5
100
AcDbBlockReference
  2
AVE_RENDER
 10
0.0
 20
0.0
 30
0.0
1001
AVE_RENDER
1002
{
1070
     1
1000
Scanl Opt
1070
     2
1070
     0
1070
     2
1040
2.0
1040
4.0
1070
     0
1070
     1
1070
     0
1040
0.03
1002
}
  0
INSERT
  5
98
330
1F
100
AcDbEntity
  8
ASHADE
 62
     6
100
AcDbBlockReference
  2
AVE_RENDER
 10
0.0
 20
0.0
 30
0.0
1001
AVE_RENDER
1002
{
1070
     2
1000
Raytr Opt
1070
     2
1070
     0
1070
     2
1040
2.0
1040
4.0
1070
     0
1070
     1
1070
     1
1040
0.03
1070
     3
1040
0.03
1002
}
  0
INSERT
  5
99
330
1F
100
AcDbEntity
  8
ASHADE
 62
     7
100
AcDbBlockReference
  2
AVE_RENDER
 10
0.0
 20
0.0
 30
0.0
1001
AVE_RENDER
1002
{
1070
     0
1000
RFile Opt
1070
     1
1070
   640
1070
   480
1070
 10000
1070
     1
1070
     8
1070
     8
1070
     0
1070
     0
1070
     0
1070
     0
1070
     0
1070
     0
1070
     0
1002
}
  0
INSERT
  5
9A
330
1F
100
AcDbEntity
  8
ASHADE
 62
     8
100
AcDbBlockReference
  2
AVE_RENDER
 10
0.0
 20
0.0
 30
0.0
1001
AVE_RENDER
1002
{
1070
     0
1000
Fog Opt
1070
     0
1070
     0
1040
0.0
1040
1.0
1040
0.0
1040
1.0
1010
0.5
1020
0.5
1030
0.5
1002
}
  0
INSERT
  5
9B
330
1F
100
AcDbEntity
  8
ASHADE
 62
     9
100
AcDbBlockReference
  2
AVE_RENDER
 10
0.0
 20
0.0
 30
0.0
1001
AVE_RENDER
1002
{
1070
     0
1000
BG Opt
1070
     0
1070
     1
1010
0.0
1020
0.0
1030
0.0
1010
1.0
1020
0.0
1030
0.0
1010
0.0
1020
1.0
1030
0.0
1010
0.0
1020
0.0
1030
1.0
1040
0.5
1040
0.33
1040
0.0
1000

1070
     1
1000

1070
     1
1070
     1
1040
1.0
1040
1.0
1040
0.0
1040
0.0
1070
     0
1002
}
  0
INSERT
  5
A2
330
1F
100
AcDbEntity
  8
ASHADE
 62
     1
100
AcDbBlockReference
  2
AVE_GLOBAL
 10
0.0
 20
0.0
 30
0.0
1001
AVE_MATERIAL
1002
{
1000
*GLOBAL*
1000
2
1000
Global finish.
1002
{
1002
}
1002
{
1070
    63
1002
{
1002
{
1010
-1.0
1020
-1.0
1030
-1.0
1002
}
1040
0.1000000014901161
1000

1040
0.0
1002
{
1002
}
1040
0.0
1002
{
1002
}
1040
0.0
1002
}
1002
{
1002
{
1010
-1.0
1020
-1.0
1030
-1.0
1002
}
1040
0.6999999880790711
1000

1040
0.0
1002
{
1002
}
1040
0.0
1002
{
1002
}
1040
0.0
1002
}
1002
{
1002
{
1010
-1.0
1020
-1.0
1030
-1.0
1002
}
1040
0.2000000029802322
1000

1040
0.0
1002
{
1002
}
1040
0.0
1002
{
1002
}
1040
0.0
1002
}
1002
{
1070
     0
1002
{
1070
     1
1002
{
1040
1.0
1040
1.0
1000

1040
0.0
1002
{
1002
}
1040
0.0
1002
{
1002
}
1040
0.0
1002
}
1002
}
1040
1.0
1040
0.0
1040
0.0
1002
}
1002
{
1040
1.0
1040
1.0
1000

1040
0.0
1002
{
1002
}
1040
0.0
1002
{
1002
}
1040
0.0
1002
}
1002
{
1040
0.5
1040
1.0
1000

1040
0.0
1002
{
1002
}
1040
0.0
1002
{
1002
}
1040
0.0
1002
}
1002
{
1070
     0
1040
0.0
1002
{
1002
}
1040
1.0
1002
{
1002
}
1040
0.0
1002
}
1002
{
1040
0.0
1002
{
1002
{
1010
0.0
1020
0.0
1030
0.0
1002
}
1040
1.0
1000

1040
0.0
1002
{
1002
}
1040
0.0
1002
{
1002
}
1040
0.0
1002
}
1002
}
1002
{
1002
{
1070
     1
1002
{
1040
0.0
1040
1.0
1000

1040
0.0
1002
{
1002
}
1040
0.0
1002
{
1002
}
1040
0.0
1002
}
1002
}
1040
0.0
1002
{
1002
}
1010
1.0
1020
0.0
1030
0.0
1010
0.0
1020
1.0
1030
0.0
1010
0.0
1020
0.0
1030
1.0
1070
     0
1002
}
1002
{
1002
{
1040
1.0
1040
1.0
1002
{
1070
     1
1002
{
1040
1.0
1040
1.0
1000

1040
0.0
1002
{
1002
}
1040
0.0
1002
{
1002
}
1040
0.0
1002
}
1002
}
1002
}
1070
     0
1040
0.0
1002
{
1002
}
1002
}
1002
{
1002
}
1002
}
1002
{
1071
        3
1070
     3
1070
     0
1002
{
1070
     2
1070
     0
1070
     0
1040
0.0
1002
}
1070
     0
1070
     2
1002
{
1002
}
1002
}
1002
{
1040
8030.0
1040
190.3000030517578
1040
0.3050000071525574
1040
228.0
1040
545.0
1040
14.0
1040
17.39999961853027
1040
0.4560000002384186
1002
}
1002
}
  0
MESH
  5
F9
330
1F
100
AcDbEntity
  8
OracDecor_cornice_mouldings
 62
   153
420
  5804257
160
             35000
310
B8880000CC0300000C00000013000000020000003C0000000600000002000000000000A0FF3F8FC00000000000001CC000000000004050C0000000A0FF3F8FC0000000000000000000000000004050C00C000000130000000A0000003C0000000600000002000000000000A0FF3F8FC0000000000000000000000000004050
310
C00000004000408F40000000000000000000000000004050C00C00000013000000120000003C00000006000000020000000000004000408F40000000000000000000000000004050C00000004000408F400000000000001CC000000000004050C00C000000130000001A0000003C0000000600000002000000000000A0FF3F
310
8FC00000000000001CC000000000004050C00000004000408F400000000000001CC000000000004050C00C00000013000000220000003C0000000600000002000000000000A0FF3F8FC0000000000000000000000000004050C0000000A0FF3F8FC00000000000000000000000C0CC794BC00C000000130000002A0000003C
310
0000000600000002000000000000A0FF3F8FC00000000000000000000000C0CC794BC00000004000408F400000000000000000000000C0CC794BC00C00000013000000320000003C00000006000000020000000000004000408F400000000000000000000000C0CC794BC00000004000408F40000000000000000000000000
310
004050C00C000000130000003A0000003C0000000600000002000000000000A0FF3F8FC00000000000000000000000C0CC794BC0000000A0FF3F8FC00000000080139DBF00000040D24E4BC00C00000013000000420000003C0000000600000002000000000000A0FF3F8FC00000000080139DBF00000040D24E4BC0000000
310
4000408F400000000080139DBF00000040D24E4BC00C000000130000004A0000003C00000006000000020000000000004000408F400000000080139DBF00000040D24E4BC00000004000408F400000000000000000000000C0CC794BC00C00000013000000520000003C0000000600000002000000000000A0FF3F8FC00000
310
000080139DBF00000040D24E4BC0000000A0FF3F8FC000000000C0DCBCBF000000E00F254BC00C000000130000005A0000003C0000000600000002000000000000A0FF3F8FC000000000C0DCBCBF000000E00F254BC00000004000408F4000000000C0DCBCBF000000E00F254BC00C00000013000000620000003C00000006
310
000000020000000000004000408F4000000000C0DCBCBF000000E00F254BC00000004000408F400000000080139DBF00000040D24E4BC00C000000130000006A0000003C0000000600000002000000000000A0FF3F8FC000000000C0DCBCBF000000E00F254BC0000000A0FF3F8FC000000000280BD0BF000000A0B5FD4AC0
310
0C00000013000000720000003C0000000600000002000000000000A0FF3F8FC000000000280BD0BF000000A0B5FD4AC00000004000408F4000000000280BD0BF000000A0B5FD4AC00C000000130000007A0000003C00000006000000020000000000004000408F4000000000280BD0BF000000A0B5FD4AC00000004000408F
310
4000000000C0DCBCBF000000E00F254BC00C00000013000000820000003C0000000600000002000000000000A0FF3F8FC000000000280BD0BF000000A0B5FD4AC0000000A0FF3F8FC000000000800CDCBF000000C0E0D94AC00C000000130000008A0000003C0000000600000002000000000000A0FF3F8FC000000000800C
310
DCBF000000C0E0D94AC00000004000408F4000000000780CDCBF000000C0E0D94AC00C00000013000000920000003C00000006000000020000000000004000408F4000000000780CDCBF000000C0E0D94AC00000004000408F4000000000280BD0BF000000A0B5FD4AC00C000000130000009A0000003C0000000600000002
310
000000000000A0FF3F8FC000000000800CDCBF000000C0E0D94AC0000000A0FF3F8FC0000000000001F8BF00000000F62F4AC00C00000013000000A20000003C0000000600000002000000000000A0FF3F8FC0000000000001F8BF00000000F62F4AC00000004000408F40000000000001F8BF00000000F62F4AC00C000000
310
13000000AA0000003C00000006000000020000000000004000408F40000000000001F8BF00000000F62F4AC00000004000408F4000000000780CDCBF000000C0E0D94AC00C00000013000000B20000003C0000000600000002000000000000A0FF3F8FC0000000000001F8BF00000000F62F4AC0000000A0FF3F8FC0000000
310
008637FABF000000E068124AC00C00000013000000BA0000003C0000000600000002000000000000A0FF3F8FC0000000008637FABF000000E068124AC00000004000408F40000000008637FABF000000E068124AC00C00000013000000C20000003C00000006000000020000000000004000408F40000000008637FABF0000
310
00E068124AC00000004000408F40000000000001F8BF00000000F62F4AC00C00000013000000CA0000003C0000000600000002000000000000A0FF3F8FC0000000008637FABF000000E068124AC0000000A0FF3F8FC0000000004A5DFBBF0000000000E049C00C00000013000000D20000003C000000060000000200000000
310
0000A0FF3F8FC0000000004A5DFBBF0000000000E049C00000004000408F40000000004A5DFBBF0000000000E049C00C00000013000000DA0000003C00000006000000020000000000004000408F40000000004A5DFBBF0000000000E049C00000004000408F40000000008637FABF000000E068124AC00C00000013000000
310
E20000003C0000000600000002000000000000A0FF3F8FC0000000004A5DFBBF0000000000E049C0000000A0FF3F8FC0000000008637FABF0000002097AD49C00C00000013000000EA0000003C0000000600000002000000000000A0FF3F8FC0000000008637FABF0000002097AD49C00000004000408F40000000008637FA
310
BF0000002097AD49C00C00000013000000F20000003C00000006000000020000000000004000408F40000000008637FABF0000002097AD49C00000004000408F40000000004A5DFBBF0000000000E049C00C00000013000000FA0000003C0000000600000002000000000000A0FF3F8FC0000000008637FABF0000002097AD
310
49C0000000A0FF3F8FC0000000000001F8BF000000000A9049C00C00000013000000020100003C0000000600000002000000000000A0FF3F8FC0000000000001F8BF000000000A9049C00000004000408F40000000000001F8BF000000000A9049C00C000000130000000A0100003C00000006000000020000000000004000
310
408F40000000000001F8BF000000000A9049C00000004000408F40000000008637FABF0000002097AD49C00C00000013000000120100003C0000000600000002000000000000A0FF3F8FC0000000000001F8BF000000000A9049C0000000A0FF3F8FC000000000800CDCBF000000401FE648C00C000000130000001A010000
310
3C0000000600000002000000000000A0FF3F8FC000000000800CDCBF000000401FE648C00000004000408F4000000000780CDCBF000000401FE648C00C00000013000000220100003C00000006000000020000000000004000408F4000000000780CDCBF000000401FE648C00000004000408F40000000000001F8BF000000
310
000A9049C00C000000130000002A0100003C0000000600000002000000000000A0FF3F8FC000000000800CDCBF000000401FE648C0000000A0FF3F8FC000000000280BD0BF000000604AC248C00C00000013000000320100003C0000000600000002000000000000A0FF3F8FC000000000280BD0BF000000604AC248C00000
310
004000408F4000000000280BD0BF000000604AC248C00C000000130000003A0100003C00000006000000020000000000004000408F4000000000280BD0BF000000604AC248C00000004000408F4000000000780CDCBF000000401FE648C00C00000013000000420100003C0000000600000002000000000000A0FF3F8FC000
310
000000280BD0BF000000604AC248C0000000A0FF3F8FC000000000C0DCBCBF00000020F09A48C00C000000130000004A0100003C0000000600000002000000000000A0FF3F8FC000000000C0DCBCBF00000020F09A48C00000004000408F4000000000C0DCBCBF00000020F09A48C00C00000013000000520100003C000000
310
06000000020000000000004000408F4000000000C0DCBCBF00000020F09A48C00000004000408F4000000000280BD0BF000000604AC248C00C000000130000005A0100003C0000000600000002000000000000A0FF3F8FC000000000C0DCBCBF00000020F09A48C0000000A0FF3F8FC00000000080139DBF000000C02D7148
310
C00C00000013000000620100003C0000000600000002000000000000A0FF3F8FC00000000080139DBF000000C02D7148C00000004000408F400000000080139DBF000000C02D7148C00C000000130000006A0100003C00000006000000020000000000004000408F400000000080139DBF000000C02D7148C0000000400040
310
8F4000000000C0DCBCBF00000020F09A48C00C00000013000000720100003C0000000600000002000000000000A0FF3F8FC00000000080139DBF000000C02D7148C0000000A0FF3F8FC0000000000000000000000040334648C00C000000130000007A0100003C0000000600000002000000000000A0FF3F8FC00000000000
310
00000000000040334648C00000004000408F40000000000000000000000040334648C00C00000013000000820100003C00000006000000020000000000004000408F40000000000000000000000040334648C00000004000408F400000000080139DBF000000C02D7148C00C000000130000008A0100003C00000006000000
310
02000000000000A0FF3F8FC0000000000000000000000040334648C0000000A0FF3F8FC000000000000000000000000000C044C00C00000013000000920100003C0000000600000002000000000000A0FF3F8FC000000000000000000000000000C044C00000004000408F4000000000000000000000000000C044C00C0000
310
00130000009A0100003C00000006000000020000000000004000408F4000000000000000000000000000C044C00000004000408F40000000000000000000000040334648C00C00000013000000A20100003C0000000600000002000000000000A0FF3F8FC000000000000000000000000000C044C0000000A0FF3F8FC00000
310
0000A086B7BF000000C0A16644C00C00000013000000AA0100003C0000000600000002000000000000A0FF3F8FC000000000A086B7BF000000C0A16644C00000004000408F4000000000A086B7BF000000C0A16644C00C00000013000000B20100003C00000006000000020000000000004000408F4000000000A086B7BF00
310
0000C0A16644C00000004000408F4000000000000000000000000000C044C00C00000013000000BA0100003C0000000600000002000000000000A0FF3F8FC000000000A086B7BF000000C0A16644C0000000A0FF3F8FC00000000040CCDCBF00000040FBF743C00C00000013000000C20100003C0000000600000002000000
310
000000A0FF3F8FC00000000040CCDCBF00000040FBF743C00000004000408F400000000040CCDCBF00000040FBF743C00C00000013000000CA0100003C00000006000000020000000000004000408F400000000040CCDCBF00000040FBF743C00000004000408F4000000000A086B7BF000000C0A16644C00C000000130000
310
00D20100003C0000000600000002000000000000A0FF3F8FC00000000040CCDCBF00000040FBF743C0000000A0FF3F8FC00000000024ECF0BF00000000E89C43C00C00000013000000DA0100003C0000000600000002000000000000A0FF3F8FC00000000024ECF0BF00000000E89C43C00000004000408F400000000024EC
310
F0BF00000000E89C43C00C00000013000000E20100003C00000006000000020000000000004000408F400000000024ECF0BF00000000E89C43C00000004000408F400000000040CCDCBF00000040FBF743C00C00000013000000EA0100003C0000000600000002000000000000A0FF3F8FC00000000024ECF0BF00000000E8
310
9C43C0000000A0FF3F8FC00000000014B0FDBF000000E0525E43C00C00000013000000F20100003C0000000600000002000000000000A0FF3F8FC00000000014B0FDBF000000E0525E43C00000004000408F400000000014B0FDBF000000E0525E43C00C00000013000000FA0100003C000000060000000200000000000040
310
00408F400000000014B0FDBF000000E0525E43C00000004000408F400000000024ECF0BF00000000E89C43C00C00000013000000020200003C0000000600000002000000000000A0FF3F8FC00000000014B0FDBF000000E0525E43C0000000A0FF3F8FC000000000781F06C0000000405D4243C00C000000130000000A0200
310
003C0000000600000002000000000000A0FF3F8FC000000000781F06C0000000405D4243C00000004000408F4000000000781F06C0000000405D4243C00C00000013000000120200003C00000006000000020000000000004000408F4000000000781F06C0000000405D4243C00000004000408F400000000014B0FDBF0000
310
00E0525E43C00C000000130000001A0200003C0000000600000002000000000000A0FF3F8FC000000000781F06C0000000405D4243C0000000A0FF3F8FC000000000025F0AC000000000004043C00C00000013000000220200003C0000000600000002000000000000A0FF3F8FC000000000025F0AC000000000004043C000
310
00004000408F4000000000025F0AC000000000004043C00C000000130000002A0200003C00000006000000020000000000004000408F4000000000025F0AC000000000004043C00000004000408F4000000000781F06C0000000405D4243C00C00000013000000320200003C0000000600000002000000000000A0FF3F8FC0
310
00000000025F0AC000000000004043C0000000A0FF3F8FC00000000055450EC0000000E0152D43C00C000000130000003A0200003C0000000600000002000000000000A0FF3F8FC00000000055450EC0000000E0152D43C00000004000408F400000000055450EC0000000E0152D43C00C00000013000000420200003C0000
310
0006000000020000000000004000408F400000000055450EC0000000E0152D43C00000004000408F4000000000025F0AC000000000004043C00C000000130000004A0200003C0000000600000002000000000000A0FF3F8FC00000000055450EC0000000E0152D43C0000000A0FF3F8FC000000000AF9B10C0000000A09600
310
43C00C00000013000000520200003C0000000600000002000000000000A0FF3F8FC000000000AF9B10C0000000A0960043C00000004000408F4000000000AF9B10C0000000A0960043C00C000000130000005A0200003C00000006000000020000000000004000408F4000000000AF9B10C0000000A0960043C00000004000
310
408F400000000055450EC0000000E0152D43C00C00000013000000620200003C0000000600000002000000000000A0FF3F8FC000000000AF9B10C0000000A0960043C0000000A0FF3F8FC000000000AF1D11C0000000E0C6D742C00C000000130000006A0200003C0000000600000002000000000000A0FF3F8FC000000000
310
AF1D11C0000000E0C6D742C00000004000408F4000000080AE1D11C0000000E0C6D742C00C00000013000000720200003C00000006000000020000000000004000408F4000000080AE1D11C0000000E0C6D742C00000004000408F4000000000AF9B10C0000000A0960043C00C000000130000007A0200003C000000060000
310
0002000000000000A0FF3F8FC000000000AF1D11C0000000E0C6D742C0000000A0FF3F8FC000000000E18E13C0000000E0867C41C00C00000013000000820200003C0000000600000002000000000000A0FF3F8FC000000000E18E13C0000000E0867C41C00000004000408F4000000080E18E13C0000000E0867C41C00C00
310
0000130000008A0200003C00000006000000020000000000004000408F4000000080E18E13C0000000E0867C41C00000004000408F4000000080AE1D11C0000000E0C6D742C00C00000013000000920200003C0000000600000002000000000000A0FF3F8FC000000000E18E13C0000000E0867C41C0000000A0FF3F8FC000
310
000000F3CD17C0000000C0BC6B3FC00C000000130000009A0200003C0000000600000002000000000000A0FF3F8FC000000000F3CD17C0000000C0BC6B3FC00000004000408F4000000000F3CD17C0000000C0BC6B3FC00C00000013000000A20200003C00000006000000020000000000004000408F4000000000F3CD17C0
310
000000C0BC6B3FC00000004000408F4000000080E18E13C0000000E0867C41C00C00000013000000AA0200003C0000000600000002000000000000A0FF3F8FC000000000F3CD17C0000000C0BC6B3FC0000000A0FF3F8FC00000008067361DC0000000C001F83BC00C00000013000000B20200003C00000006000000020000
310
00000000A0FF3F8FC00000008067361DC0000000C001F83BC00000004000408F400000008067361DC0000000C001F83BC00C00000013000000BA0200003C00000006000000020000000000004000408F400000008067361DC0000000C001F83BC00000004000408F4000000000F3CD17C0000000C0BC6B3FC00C0000001300
310
0000C20200003C0000000600000002000000000000A0FF3F8FC00000008067361DC0000000C001F83BC0000000A0FF3F8FC0000000006BDF21C000000080E7A338C00C00000013000000CA0200003C0000000600000002000000000000A0FF3F8FC0000000006BDF21C000000080E7A338C00000004000408F40000000006B
310
DF21C000000080E7A338C00C00000013000000D20200003C00000006000000020000000000004000408F40000000006BDF21C000000080E7A338C00000004000408F400000008067361DC0000000C001F83BC00C00000013000000DA0200003C0000000600000002000000000000A0FF3F8FC0000000006BDF21C000000080
310
E7A338C0000000A0FF3F8FC000000040C0AD25C000000000687535C00C00000013000000E20200003C0000000600000002000000000000A0FF3F8FC000000040C0AD25C000000000687535C00000004000408F4000000040C0AD25C000000000687535C00C00000013000000EA0200003C0000000600000002000000000000
310
4000408F4000000040C0AD25C000000000687535C00000004000408F40000000006BDF21C000000080E7A338C00C00000013000000F20200003C0000000600000002000000000000A0FF3F8FC000000040C0AD25C000000000687535C0000000A0FF3F8FC000000020AEFF29C000000020F77132C00C00000013000000FA02
310
00003C0000000600000002000000000000A0FF3F8FC000000020AEFF29C000000020F77132C00000004000408F4000000020AEFF29C000000020F77132C00C00000013000000020300003C00000006000000020000000000004000408F4000000020AEFF29C000000020F77132C00000004000408F4000000040C0AD25C000
310
000000687535C00C000000130000000A0300003C0000000600000002000000000000A0FF3F8FC000000020AEFF29C000000020F77132C0000000A0FF3F8FC0000000C079CD2EC000000080F53D2FC00C00000013000000120300003C0000000600000002000000000000A0FF3F8FC0000000C079CD2EC000000080F53D2FC0
310
0000004000408F40000000C079CD2EC000000080F53D2FC00C000000130000001A0300003C00000006000000020000000000004000408F40000000C079CD2EC000000080F53D2FC00000004000408F4000000020AEFF29C000000020F77132C00C00000013000000220300003C0000000600000002000000000000A0FF3F8F
310
C0000000C079CD2EC000000080F53D2FC0000000A0FF3F8FC000000020600732C000000040BF022AC00C000000130000002A0300003C0000000600000002000000000000A0FF3F8FC000000020600732C000000040BF022AC00000004000408F4000000020600732C000000040BF022AC00C00000013000000320300003C00
310
000006000000020000000000004000408F4000000020600732C000000040BF022AC00000004000408F40000000C079CD2EC000000080F53D2FC00C000000130000003A0300003C0000000600000002000000000000A0FF3F8FC000000020600732C000000040BF022AC0000000A0FF3F8FC0000000E02BDD34C0000000006E
310
3B25C00C00000013000000420300003C0000000600000002000000000000A0FF3F8FC0000000E02BDD34C0000000006E3B25C00000004000408F40000000E02BDD34C0000000006E3B25C00C000000130000004A0300003C00000006000000020000000000004000408F40000000E02BDD34C0000000006E3B25C000000040
310
00408F4000000020600732C000000040BF022AC00C00000013000000520300003C0000000600000002000000000000A0FF3F8FC0000000E02BDD34C0000000006E3B25C0000000A0FF3F8FC0000000400BE337C0000000C090F020C00C000000130000005A0300003C0000000600000002000000000000A0FF3F8FC0000000
310
400BE337C0000000C090F020C00000004000408F40000000400BE337C0000000C090F020C00C00000013000000620300003C00000006000000020000000000004000408F40000000400BE337C0000000C090F020C00000004000408F40000000E02BDD34C0000000006E3B25C00C000000130000006A0300003C0000000600
310
000002000000000000A0FF3F8FC0000000400BE337C0000000C090F020C0000000A0FF3F8FC000000000D0133BC00000000006531AC00C00000013000000720300003C0000000600000002000000000000A0FF3F8FC000000000D0133BC00000000006531AC00000004000408F4000000000D0133BC00000008005531AC00C
310
000000130000007A0300003C00000006000000020000000000004000408F4000000000D0133BC00000008005531AC00000004000408F40000000400BE337C0000000C090F020C00C00000013000000820300003C0000000600000002000000000000A0FF3F8FC000000000D0133BC00000000006531AC0000000A0FF3F8FC0
310
00000000BF693EC0000000801BDA13C00C000000130000008A0300003C0000000600000002000000000000A0FF3F8FC000000000BF693EC0000000801BDA13C00000004000408F4000000000BF693EC0000000801BDA13C00C00000013000000920300003C00000006000000020000000000004000408F4000000000BF693E
310
C0000000801BDA13C00000004000408F4000000000D0133BC00000008005531AC00C000000130000009A0300003C0000000600000002000000000000A0FF3F8FC000000000BF693EC0000000801BDA13C0000000A0FF3F8FC00000000081EF40C00000000054030DC00C00000013000000A20300003C000000060000000200
310
0000000000A0FF3F8FC00000000081EF40C00000000054030DC00000004000408F400000000081EF40C00000000053030DC00C00000013000000AA0300003C00000006000000020000000000004000408F400000000081EF40C00000000053030DC00000004000408F4000000000BF693EC0000000801BDA13C00C00000013
310
000000B20300003C0000000600000002000000000000A0FF3F8FC00000000081EF40C00000000054030DC0000000A0FF3F8FC000000000964342C000000000D07106C00C00000013000000BA0300003C0000000600000002000000000000A0FF3F8FC000000000964342C000000000D07106C00000004000408F4000000000
310
964342C000000000D07106C00C00000013000000C20300003C00000006000000020000000000004000408F4000000000964342C000000000D07106C00000004000408F400000000081EF40C00000000053030DC00C00000013000000CA0300003C0000000600000002000000000000A0FF3F8FC000000000964342C0000000
310
00D07106C0000000A0FF3F8FC0000000E0E45F42C00000000062BA05C00C00000013000000D20300003C0000000600000002000000000000A0FF3F8FC0000000E0E45F42C00000000062BA05C00000004000408F40000000E0E45F42C00000000062BA05C00C00000013000000DA0300003C00000006000000020000000000
310
004000408F40000000E0E45F42C00000000062BA05C00000004000408F4000000000964342C000000000D07106C00C00000013000000E20300003C0000000600000002000000000000A0FF3F8FC0000000E0E45F42C00000000062BA05C0000000A0FF3F8FC000000040AC7842C000000000FE9C04C00C00000013000000EA
310
0300003C0000000600000002000000000000A0FF3F8FC000000040AC7842C000000000FE9C04C00000004000408F4000000040AC7842C000000000FE9C04C00C00000013000000F20300003C00000006000000020000000000004000408F4000000040AC7842C000000000FE9C04C00000004000408F40000000E0E45F42C0
310
0000000062BA05C00C00000013000000FA0300003C0000000600000002000000000000A0FF3F8FC000000040AC7842C000000000FE9C04C0000000A0FF3F8FC000000000868C42C000000000D62903C00C00000013000000020400003C0000000600000002000000000000A0FF3F8FC000000000868C42C000000000D62903
310
C00000004000408F4000000000868C42C000000000D62903C00C000000130000000A0400003C00000006000000020000000000004000408F4000000000868C42C000000000D62903C00000004000408F4000000040AC7842C000000000FE9C04C00C00000013000000120400003C0000000600000002000000000000A0FF3F
310
8FC000000000868C42C000000000D62903C0000000A0FF3F8FC0000000A0519A42C000000000DD7501C00C000000130000001A0400003C0000000600000002000000000000A0FF3F8FC0000000A0519A42C000000000DD7501C00000004000408F40000000A0519A42C000000000DD7501C00C00000013000000220400003C
310
00000006000000020000000000004000408F40000000A0519A42C000000000DD7501C00000004000408F4000000000868C42C000000000D62903C00C000000130000002A0400003C0000000600000002000000000000A0FF3F8FC0000000A0519A42C000000000DD7501C0000000A0FF3F8FC00000008058E142C000000000
310
2C0EE5BF0C00000013000000320400003C0000000600000002000000000000A0FF3F8FC00000008058E142C0000000002C0EE5BF0000004000408F400000008058E142C0000000002C0EE5BF0C000000130000003A0400003C00000006000000020000000000004000408F400000008058E142C0000000002C0EE5BF000000
310
4000408F40000000A0519A42C000000000DD7501C00C00000013000000420400003C0000000600000002000000000000A0FF3F8FC00000008058E142C0000000002C0EE5BF000000A0FF3F8FC00000006083EF42C000000000E835DCBF0C000000130000004A0400003C0000000600000002000000000000A0FF3F8FC00000
310
006083EF42C000000000E835DCBF0000004000408F400000006083EF42C000000000E835DCBF0C00000013000000520400003C00000006000000020000000000004000408F400000006083EF42C000000000E835DCBF0000004000408F400000008058E142C0000000002C0EE5BF0C000000130000005A0400003C00000006
310
00000002000000000000A0FF3F8FC00000006083EF42C000000000E835DCBF000000A0FF3F8FC0000000C0C11043C00000000060EEC7BF0C00000013000000620400003C0000000600000002000000000000A0FF3F8FC0000000C0C11043C00000000060EEC7BF0000004000408F40000000C0C11043C00000000070EEC7BF
310
0C000000130000006A0400003C00000006000000020000000000004000408F40000000C0C11043C00000000070EEC7BF0000004000408F400000006083EF42C000000000E835DCBF0C00000013000000720400003C0000000600000002000000000000A0FF3F8FC0000000C0C11043C00000000060EEC7BF000000A0FF3F8F
310
C000000040A83A43C000000000806F9EBF0C000000130000007A0400003C0000000600000002000000000000A0FF3F8FC000000040A83A43C000000000806F9EBF0000004000408F4000000040A83A43C000000000806F9EBF0C00000013000000820400003C00000006000000020000000000004000408F4000000040A83A
310
43C000000000806F9EBF0000004000408F40000000C0C11043C00000000070EEC7BF0C000000130000008A0400003C0000000600000002000000000000A0FF3F8FC000000040A83A43C000000000806F9EBF000000A0FF3F8FC000000060A05943C000000000000000000C00000013000000920400003C0000000600000002
310
000000000000A0FF3F8FC000000060A05943C000000000000000000000004000408F4000000060A05943C000000000000000000C000000130000009A0400003C00000006000000020000000000004000408F4000000060A05943C000000000000000000000004000408F4000000040A83A43C000000000806F9EBF0C000000
310
13000000A20400003C0000000600000002000000000000A0FF3F8FC000000060A05943C00000000000000000000000A0FF3F8FC0000000407DB246C000000000000000000C00000013000000AA0400003C0000000600000002000000000000A0FF3F8FC0000000407DB246C000000000000000000000004000408F40000000
310
407DB246C000000000000000000C00000013000000B20400003C00000006000000020000000000004000408F40000000407DB246C000000000000000000000004000408F4000000060A05943C000000000000000000C00000013000000BA0400003C0000000600000002000000000000A0FF3F8FC0000000407DB246C00000
310
000000000000000000A0FF3F8FC0000000C0FAD746C000000000001696BF0C00000013000000C20400003C0000000600000002000000000000A0FF3F8FC0000000C0FAD746C000000000001696BF0000004000408F40000000C0FAD746C000000000001696BF0C00000013000000CA0400003C000000060000000200000000
310
00004000408F40000000C0FAD746C000000000001696BF0000004000408F40000000407DB246C000000000000000000C00000013000000D20400003C0000000600000002000000000000A0FF3F8FC0000000C0FAD746C000000000001696BF000000A0FF3F8FC000000080ACFC46C000000000A0F8B5BF0C00000013000000
310
DA0400003C0000000600000002000000000000A0FF3F8FC000000080ACFC46C000000000A0F8B5BF0000004000408F4000000080ACFC46C000000000A0F8B5BF0C00000013000000E20400003C00000006000000020000000000004000408F4000000080ACFC46C000000000A0F8B5BF0000004000408F40000000C0FAD746
310
C000000000001696BF0C00000013000000EA0400003C0000000600000002000000000000A0FF3F8FC000000080ACFC46C000000000A0F8B5BF000000A0FF3F8FC000000080C41F47C000000000107FC8BF0C00000013000000F20400003C0000000600000002000000000000A0FF3F8FC000000080C41F47C000000000107F
310
C8BF0000004000408F4000000080C41F47C000000000107FC8BF0C00000013000000FA0400003C00000006000000020000000000004000408F4000000080C41F47C000000000107FC8BF0000004000408F4000000080ACFC46C000000000A0F8B5BF0C00000013000000020500003C0000000600000002000000000000A0FF
310
3F8FC000000080C41F47C000000000107FC8BF000000A0FF3F8FC0000000207E4047C000000000607FD5BF0C000000130000000A0500003C0000000600000002000000000000A0FF3F8FC0000000207E4047C000000000607FD5BF0000004000408F40000000207E4047C000000000607FD5BF0C0000001300000012050000
310
3C00000006000000020000000000004000408F40000000207E4047C000000000607FD5BF0000004000408F4000000080C41F47C000000000107FC8BF0C000000130000001A0500003C0000000600000002000000000000A0FF3F8FC0000000207E4047C000000000607FD5BF000000A0FF3F8FC0000000A0FF3848C0000000
310
004C15FABF0C00000013000000220500003C0000000600000002000000000000A0FF3F8FC0000000A0FF3848C0000000004C15FABF0000004000408F40000000A0FF3848C0000000004C15FABF0C000000130000002A0500003C00000006000000020000000000004000408F40000000A0FF3848C0000000004C15FABF0000
310
004000408F40000000207E4047C000000000607FD5BF0C00000013000000320500003C0000000600000002000000000000A0FF3F8FC0000000A0FF3848C0000000004C15FABF000000A0FF3F8FC0000000A0C65348C000000000F0C8FBBF0C000000130000003A0500003C0000000600000002000000000000A0FF3F8FC000
310
0000A0C65348C000000000F0C8FBBF0000004000408F40000000A0C65348C000000000F0C8FBBF0C00000013000000420500003C00000006000000020000000000004000408F40000000A0C65348C000000000F0C8FBBF0000004000408F40000000A0FF3848C0000000004C15FABF0C000000130000004A0500003C000000
310
0600000002000000000000A0FF3F8FC0000000A0C65348C000000000F0C8FBBF000000A0FF3F8FC000000000008048C000000000E2A8FCBF0C00000013000000520500003C0000000600000002000000000000A0FF3F8FC000000000008048C000000000E2A8FCBF0000004000408F4000000000008048C000000000E2A8FC
310
BF0C000000130000005A0500003C00000006000000020000000000004000408F4000000000008048C000000000E2A8FCBF0000004000408F40000000A0C65348C000000000F0C8FBBF0C00000013000000620500003C0000000600000002000000000000A0FF3F8FC000000000008048C000000000E2A8FCBF000000A0FF3F
310
8FC00000006039AC48C000000000F0C8FBBF0C000000130000006A0500003C0000000600000002000000000000A0FF3F8FC00000006039AC48C000000000F0C8FBBF0000004000408F400000006039AC48C000000000F0C8FBBF0C00000013000000720500003C00000006000000020000000000004000408F400000006039
310
AC48C000000000F0C8FBBF0000004000408F4000000000008048C000000000E2A8FCBF0C000000130000007A0500003C0000000600000002000000000000A0FF3F8FC00000006039AC48C000000000F0C8FBBF000000A0FF3F8FC00000006000C748C0000000004C15FABF0C00000013000000820500003C00000006000000
310
02000000000000A0FF3F8FC00000006000C748C0000000004C15FABF0000004000408F400000006000C748C0000000004C15FABF0C000000130000008A0500003C00000006000000020000000000004000408F400000006000C748C0000000004C15FABF0000004000408F400000006039AC48C000000000F0C8FBBF0C0000
310
0013000000920500003C0000000600000002000000000000A0FF3F8FC00000006000C748C0000000004C15FABF000000A0FF3F8FC0000000E081BF49C000000000607FD5BF0C000000130000009A0500003C0000000600000002000000000000A0FF3F8FC0000000E081BF49C000000000607FD5BF0000004000408F400000
310
00E081BF49C000000000607FD5BF0C00000013000000A20500003C00000006000000020000000000004000408F40000000E081BF49C000000000607FD5BF0000004000408F400000006000C748C0000000004C15FABF0C00000013000000AA0500003C0000000600000002000000000000A0FF3F8FC0000000E081BF49C000
310
000000607FD5BF000000A0FF3F8FC0000000803BE049C000000000107FC8BF0C00000013000000B20500003C0000000600000002000000000000A0FF3F8FC0000000803BE049C000000000107FC8BF0000004000408F40000000803BE049C000000000107FC8BF0C00000013000000BA0500003C0000000600000002000000
310
0000004000408F40000000803BE049C000000000107FC8BF0000004000408F40000000E081BF49C000000000607FD5BF0C00000013000000C20500003C0000000600000002000000000000A0FF3F8FC0000000803BE049C000000000107FC8BF000000A0FF3F8FC00000008053034AC000000000A0F8B5BF0C000000130000
310
00CA0500003C0000000600000002000000000000A0FF3F8FC00000008053034AC000000000A0F8B5BF0000004000408F400000008053034AC000000000A0F8B5BF0C00000013000000D20500003C00000006000000020000000000004000408F400000008053034AC000000000A0F8B5BF0000004000408F40000000803BE0
310
49C000000000107FC8BF0C00000013000000DA0500003C0000000600000002000000000000A0FF3F8FC00000008053034AC000000000A0F8B5BF000000A0FF3F8FC00000004005284AC000000000001696BF0C00000013000000E20500003C0000000600000002000000000000A0FF3F8FC00000004005284AC00000000000
310
1696BF0000004000408F400000004005284AC000000000001696BF0C00000013000000EA0500003C00000006000000020000000000004000408F400000004005284AC000000000001696BF0000004000408F400000008053034AC000000000A0F8B5BF0C00000013000000F20500003C0000000600000002000000000000A0
310
FF3F8FC00000004005284AC000000000001696BF000000A0FF3F8FC0000000C0824D4AC000000000000000000C00000013000000FA0500003C0000000600000002000000000000A0FF3F8FC0000000C0824D4AC000000000000000000000004000408F40000000C0824D4AC000000000000000000C00000013000000020600
310
003C00000006000000020000000000004000408F40000000C0824D4AC000000000000000000000004000408F400000004005284AC000000000001696BF0C000000130000000A0600003C0000000600000002000000000000A0FF3F8FC0000000C0824D4AC00000000000000000000000A0FF3F8FC00000000000004EC00000
310
0000000000000C00000013000000120600003C0000000600000002000000000000A0FF3F8FC00000000000004EC000000000000000000000004000408F400000000000004EC000000000000000000C000000130000001A0600003C00000006000000020000000000004000408F400000000000004EC0000000000000000000
310
00004000408F40000000C0824D4AC000000000000000000C00000013000000220600003C0000000600000002000000000000A0FF3F8FC00000000000004EC00000000000000000000000A0FF3F8FC00000000000004EC00000000000001AC00C000000130000002A0600003C0000000600000002000000000000A0FF3F8FC0
310
0000000000004EC00000000000001AC00000004000408F400000000000004EC00000000000001AC00C00000013000000320600003C00000006000000020000000000004000408F400000000000004EC00000000000001AC00000004000408F400000000000004EC000000000000000000C000000130000003A0600003C0000
310
000600000002000000000000A0FF3F8FC00000000000004EC00000000000001AC0000000A0FF3F8FC0000000E0E3E14CC00000000093281AC00C00000013000000420600003C0000000600000002000000000000A0FF3F8FC0000000E0E3E14CC00000000093281AC00000004000408F40000000C0E3E14CC0000000009328
310
1AC00C000000130000004A0600003C00000006000000020000000000004000408F40000000C0E3E14CC00000000093281AC00000004000408F400000000000004EC00000000000001AC00C00000013000000520600003C0000000600000002000000000000A0FF3F8FC0000000E0E3E14CC00000000093281AC0000000A0FF
310
3F8FC000000000B4C44BC0000000006BA11AC00C000000130000005A0600003C0000000600000002000000000000A0FF3F8FC000000000B4C44BC0000000006BA11AC00000004000408F4000000000B4C44BC0000000006BA11AC00C00000013000000620600003C00000006000000020000000000004000408F4000000000
310
B4C44BC0000000006BA11AC00000004000408F40000000C0E3E14CC00000000093281AC00C000000130000006A0600003C0000000600000002000000000000A0FF3F8FC000000000B4C44BC0000000006BA11AC0000000A0FF3F8FC0000000A060A84AC000000000996A1BC00C00000013000000720600003C000000060000
310
0002000000000000A0FF3F8FC0000000A060A84AC000000000996A1BC00000004000408F400000008060A84AC000000000996A1BC00C000000130000007A0600003C00000006000000020000000000004000408F400000008060A84AC000000000996A1BC00000004000408F4000000000B4C44BC0000000006BA11AC00C00
310
000013000000820600003C0000000600000002000000000000A0FF3F8FC0000000A060A84AC000000000996A1BC0000000A0FF3F8FC000000060AF8C49C0000000005E841CC00C000000130000008A0600003C0000000600000002000000000000A0FF3F8FC000000060AF8C49C0000000005E841CC00000004000408F4000
310
000060AF8C49C0000000005E841CC00C00000013000000920600003C00000006000000020000000000004000408F4000000060AF8C49C0000000005E841CC00000004000408F400000008060A84AC000000000996A1BC00C000000130000009A0600003C0000000600000002000000000000A0FF3F8FC000000060AF8C49C0
310
000000005E841CC0000000A0FF3F8FC0000000807A7248C000000080C8ED1DC00C00000013000000A20600003C0000000600000002000000000000A0FF3F8FC0000000807A7248C000000080C8ED1DC00000004000408F40000000807A7248C000000080C8ED1DC00C00000013000000AA0600003C00000006000000020000
310
000000004000408F40000000807A7248C000000080C8ED1DC00000004000408F4000000060AF8C49C0000000005E841CC00C00000013000000B20600003C0000000600000002000000000000A0FF3F8FC0000000807A7248C000000080C8ED1DC0000000A0FF3F8FC0000000603B5A47C00000000078A61FC00C0000001300
310
0000BA0600003C0000000600000002000000000000A0FF3F8FC0000000603B5A47C00000000078A61FC00000004000408F40000000603B5A47C00000000078A61FC00C00000013000000C20600003C00000006000000020000000000004000408F40000000603B5A47C00000000078A61FC00000004000408F40000000807A
310
7248C000000080C8ED1DC00C00000013000000CA0600003C0000000600000002000000000000A0FF3F8FC0000000603B5A47C00000000078A61FC0000000A0FF3F8FC000000080CA4346C0000000003ED720C00C00000013000000D20600003C0000000600000002000000000000A0FF3F8FC000000080CA4346C000000000
310
3ED720C00000004000408F4000000080CA4346C0000000003ED720C00C00000013000000DA0600003C00000006000000020000000000004000408F4000000080CA4346C0000000003ED720C00000004000408F40000000603B5A47C00000000078A61FC00C00000013000000E20600003C0000000600000002000000000000
310
A0FF3F8FC000000080CA4346C0000000003ED720C0000000A0FF3F8FC0000000201F3045C0000000E0020222C00C00000013000000EA0600003C0000000600000002000000000000A0FF3F8FC0000000201F3045C0000000E0020222C00000004000408F40000000201F3045C0000000E0020222C00C00000013000000F206
310
00003C00000006000000020000000000004000408F40000000201F3045C0000000E0020222C00000004000408F4000000080CA4346C0000000003ED720C00C00000013000000FA0600003C0000000600000002000000000000A0FF3F8FC0000000201F3045C0000000E0020222C0000000A0FF3F8FC000000000151F44C000
310
000060CA5323C00C00000013000000020700003C0000000600000002000000000000A0FF3F8FC000000000151F44C000000060CA5323C00000004000408F4000000000151F44C000000060CA5323C00C000000130000000A0700003C00000006000000020000000000004000408F4000000000151F44C000000060CA5323C0
310
0000004000408F40000000201F3045C0000000E0020222C00C00000013000000120700003C0000000600000002000000000000A0FF3F8FC000000000151F44C000000060CA5323C0000000A0FF3F8FC0000000401E1143C000000080E8CB24C00C000000130000001A0700003C0000000600000002000000000000A0FF3F8F
310
C0000000401E1143C000000080E8CB24C00000004000408F40000000401E1143C000000080E8CB24C00C00000013000000220700003C00000006000000020000000000004000408F40000000401E1143C000000080E8CB24C00000004000408F4000000000151F44C000000060CA5323C00C000000130000002A0700003C00
310
00000600000002000000000000A0FF3F8FC0000000401E1143C000000080E8CB24C0000000A0FF3F8FC0000000000C0742C0000000E0466926C00C00000013000000320700003C0000000600000002000000000000A0FF3F8FC0000000000C0742C0000000E0466926C00000004000408F40000000000C0742C0000000E046
310
6926C00C000000130000003A0700003C00000006000000020000000000004000408F40000000000C0742C0000000E0466926C00000004000408F40000000401E1143C000000080E8CB24C00C00000013000000420700003C0000000600000002000000000000A0FF3F8FC0000000000C0742C0000000E0466926C0000000A0
310
FF3F8FC000000060A60041C0000000E02F2C28C00C000000130000004A0700003C0000000600000002000000000000A0FF3F8FC000000060A60041C0000000E02F2C28C00000004000408F4000000060A60041C0000000E02F2C28C00C00000013000000520700003C00000006000000020000000000004000408F40000000
310
60A60041C0000000E02F2C28C00000004000408F40000000000C0742C0000000E0466926C00C000000130000005A0700003C0000000600000002000000000000A0FF3F8FC000000060A60041C0000000E02F2C28C0000000A0FF3F8FC000000040BCFB3FC0000000C0B7142AC00C00000013000000620700003C0000000600
310
000002000000000000A0FF3F8FC000000040BCFB3FC0000000C0B7142AC00000004000408F4000000040BCFB3FC0000000C0B7142AC00C000000130000006A0700003C00000006000000020000000000004000408F4000000040BCFB3FC0000000C0B7142AC00000004000408F4000000060A60041C0000000E02F2C28C00C
310
00000013000000720700003C0000000600000002000000000000A0FF3F8FC000000040BCFB3FC0000000C0B7142AC0000000A0FF3F8FC00000002044D83EC000000040FE422BC00C000000130000007A0700003C0000000600000002000000000000A0FF3F8FC00000002044D83EC000000040FE422BC00000004000408F40
310
0000002044D83EC000000040FE422BC00C00000013000000820700003C00000006000000020000000000004000408F400000002044D83EC000000040FE422BC00000004000408F4000000040BCFB3FC0000000C0B7142AC00C000000130000008A0700003C0000000600000002000000000000A0FF3F8FC00000002044D83E
310
C000000040FE422BC0000000A0FF3F8FC0000000C0195D3DC000000040D2F12CC00C00000013000000920700003C0000000600000002000000000000A0FF3F8FC0000000C0195D3DC000000040D2F12CC00000004000408F40000000C0195D3DC000000040D2F12CC00C000000130000009A0700003C000000060000000200
310
00000000004000408F40000000C0195D3DC000000040D2F12CC00000004000408F400000002044D83EC000000040FE422BC00C00000013000000A20700003C0000000600000002000000000000A0FF3F8FC0000000C0195D3DC000000040D2F12CC0000000A0FF3F8FC0000000A049ED3BC00000004000C22EC00C00000013
310
000000AA0700003C0000000600000002000000000000A0FF3F8FC0000000A049ED3BC00000004000C22EC00000004000408F40000000A049ED3BC00000004000C22EC00C00000013000000B20700003C00000006000000020000000000004000408F40000000A049ED3BC00000004000C22EC00000004000408F40000000C0
310
195D3DC000000040D2F12CC00C00000013000000BA0700003C0000000600000002000000000000A0FF3F8FC0000000A049ED3BC00000004000C22EC0000000A0FF3F8FC00000008058883AC000000060255A30C00C00000013000000C20700003C0000000600000002000000000000A0FF3F8FC00000008058883AC0000000
310
60255A30C00000004000408F400000008058883AC000000060255A30C00C00000013000000CA0700003C00000006000000020000000000004000408F400000008058883AC000000060255A30C00000004000408F40000000A049ED3BC00000004000C22EC00C00000013000000D20700003C00000006000000020000000000
310
00A0FF3F8FC00000008058883AC000000060255A30C0000000A0FF3F8FC0000000C05D2E39C000000040466431C00C00000013000000DA0700003C0000000600000002000000000000A0FF3F8FC0000000C05D2E39C000000040466431C00000004000408F40000000C05D2E39C000000040466431C00C00000013000000E2
310
0700003C00000006000000020000000000004000408F40000000C05D2E39C000000040466431C00000004000408F400000008058883AC000000060255A30C00C00000013000000EA0700003C0000000600000002000000000000A0FF3F8FC0000000C05D2E39C000000040466431C0000000A0FF3F8FC0000000C063E137C0
310
00000040C77D32C00C00000013000000F20700003C0000000600000002000000000000A0FF3F8FC0000000C063E137C000000040C77D32C00000004000408F40000000C063E137C000000040C77D32C00C00000013000000FA0700003C00000006000000020000000000004000408F40000000C063E137C000000040C77D32
310
C00000004000408F40000000C05D2E39C000000040466431C00C00000013000000020800003C0000000600000002000000000000A0FF3F8FC0000000C063E137C000000040C77D32C0000000A0FF3F8FC0000000C04CA236C00000000012A633C00C000000130000000A0800003C0000000600000002000000000000A0FF3F
310
8FC0000000C04CA236C00000000012A633C00000004000408F40000000C04CA236C00000000012A633C00C00000013000000120800003C00000006000000020000000000004000408F40000000C04CA236C00000000012A633C00000004000408F40000000C063E137C000000040C77D32C00C000000130000001A0800003C
310
0000000600000002000000000000A0FF3F8FC0000000C04CA236C00000000012A633C0000000A0FF3F8FC0000000C0887035C0000000C092DD34C00C00000013000000220800003C0000000600000002000000000000A0FF3F8FC0000000C0887035C0000000C092DD34C00000004000408F40000000C0887035C0000000C0
310
92DD34C00C000000130000002A0800003C00000006000000020000000000004000408F40000000C0887035C0000000C092DD34C00000004000408F40000000C04CA236C00000000012A633C00C00000013000000320800003C0000000600000002000000000000A0FF3F8FC0000000C0887035C0000000C092DD34C0000000
310
A0FF3F8FC000000000C74D34C000000040802236C00C000000130000003A0800003C0000000600000002000000000000A0FF3F8FC000000000C74D34C000000040802236C00000004000408F4000000000C74D34C000000040802236C00C00000013000000420800003C00000006000000020000000000004000408F400000
310
0000C74D34C000000040802236C00000004000408F40000000C0887035C0000000C092DD34C00C000000130000004A0800003C0000000600000002000000000000A0FF3F8FC000000000C74D34C000000040802236C0000000A0FF3F8FC000000060D23A33C000000080267437C00C00000013000000520800003C00000006
310
00000002000000000000A0FF3F8FC000000060D23A33C000000080267437C00000004000408F4000000060D23A33C000000080267437C00C000000130000005A0800003C00000006000000020000000000004000408F4000000060D23A33C000000080267437C00000004000408F4000000000C74D34C000000040802236C0
310
0C00000013000000620800003C0000000600000002000000000000A0FF3F8FC000000060D23A33C000000080267437C0000000A0FF3F8FC0000000802B3732C00000002004D338C00C000000130000006A0800003C0000000600000002000000000000A0FF3F8FC0000000802B3732C00000002004D338C00000004000408F
310
40000000802B3732C00000002004D338C00C00000013000000720800003C00000006000000020000000000004000408F40000000802B3732C00000002004D338C00000004000408F4000000060D23A33C000000080267437C00C000000130000007A0800003C0000000600000002000000000000A0FF3F8FC0000000802B37
310
32C00000002004D338C0000000A0FF3F8FC0000000003E4431C000000040193D3AC00C00000013000000820800003C0000000600000002000000000000A0FF3F8FC0000000003E4431C000000040193D3AC00000004000408F40000000003E4431C000000040193D3AC00C000000130000008A0800003C0000000600000002
310
0000000000004000408F40000000003E4431C000000040193D3AC00000004000408F40000000802B3732C00000002004D338C00C00000013000000920800003C0000000600000002000000000000A0FF3F8FC0000000003E4431C000000040193D3AC0000000A0FF3F8FC0000000E0B96230C00000004097B13BC00C000000
310
130000009A0800003C0000000600000002000000000000A0FF3F8FC0000000E0B96230C00000004097B13BC00000004000408F40000000E0B96230C00000004097B13BC00C00000013000000A20800003C00000006000000020000000000004000408F40000000E0B96230C00000004097B13BC00000004000408F40000000
310
003E4431C000000040193D3AC00C00000013000000AA0800003C0000000600000002000000000000A0FF3F8FC0000000E0B96230C00000004097B13BC0000000A0FF3F8FC00000004065242FC0000000200D313DC00C00000013000000B20800003C0000000600000002000000000000A0FF3F8FC00000004065242FC00000
310
00200D313DC00000004000408F400000004065242FC0000000200D313DC00C00000013000000BA0800003C00000006000000020000000000004000408F400000004065242FC0000000200D313DC00000004000408F40000000E0B96230C00000004097B13BC00C00000013000000C20800003C000000060000000200000000
310
0000A0FF3F8FC00000004065242FC0000000200D313DC0000000A0FF3F8FC00000008092A72DC0000000804DB93EC00C00000013000000CA0800003C0000000600000002000000000000A0FF3F8FC00000008092A72DC0000000804DB93EC00000004000408F400000008092A72DC0000000804DB93EC00C00000013000000
310
D20800003C00000006000000020000000000004000408F400000008092A72DC0000000804DB93EC00000004000408F400000004065242FC0000000200D313DC00C00000013000000DA0800003C0000000600000002000000000000A0FF3F8FC00000008092A72DC0000000804DB93EC0000000A0FF3F8FC0000000001F502C
310
C0000000A0B92440C00C00000013000000E20800003C0000000600000002000000000000A0FF3F8FC0000000001F502CC0000000A0B92440C00000004000408F40000000001F502CC0000000A0B92440C00C00000013000000EA0800003C00000006000000020000000000004000408F40000000001F502CC0000000A0B924
310
40C00000004000408F400000008092A72DC0000000804DB93EC00C00000013000000F20800003C0000000600000002000000000000A0FF3F8FC0000000001F502CC0000000A0B92440C0000000A0FF3F8FC0000000605B1D2BC0000000C00DF140C00C00000013000000FA0800003C0000000600000002000000000000A0FF
310
3F8FC0000000605B1D2BC0000000C00DF140C00000004000408F40000000605B1D2BC0000000C00DF140C00C00000013000000020900003C00000006000000020000000000004000408F40000000605B1D2BC0000000C00DF140C00000004000408F40000000001F502CC0000000A0B92440C00C000000130000000A090000
310
3C0000000600000002000000000000A0FF3F8FC0000000605B1D2BC0000000C00DF140C0000000A0FF3F8FC0000000C0E9102AC0000000C07AC041C00C00000013000000120900003C0000000600000002000000000000A0FF3F8FC0000000C0E9102AC0000000C07AC041C00000004000408F40000000C0E9102AC0000000
310
C07AC041C00C000000130000001A0900003C00000006000000020000000000004000408F40000000C0E9102AC0000000C07AC041C00000004000408F40000000605B1D2BC0000000C00DF140C00C00000013000000220900003C0000000600000002000000000000A0FF3F8FC0000000C0E9102AC0000000C07AC041C00000
310
00A0FF3F8FC000000080AB2B29C000000040859242C00C000000130000002A0900003C0000000600000002000000000000A0FF3F8FC000000080AB2B29C000000040859242C00000004000408F4000000080AB2B29C000000040859242C00C00000013000000320900003C00000006000000020000000000004000408F4000
310
000080AB2B29C000000040859242C00000004000408F40000000C0E9102AC0000000C07AC041C00C000000130000003A0900003C0000000600000002000000000000A0FF3F8FC000000080AB2B29C000000040859242C0000000A0FF3F8FC0000000201E6D28C000000040816743C00C00000013000000420900003C000000
310
0600000002000000000000A0FF3F8FC0000000201E6D28C000000040816743C00000004000408F40000000201E6D28C000000040816743C00C000000130000004A0900003C00000006000000020000000000004000408F40000000201E6D28C000000040816743C00000004000408F4000000080AB2B29C000000040859242
310
C00C00000013000000520900003C0000000600000002000000000000A0FF3F8FC0000000201E6D28C000000040816743C0000000A0FF3F8FC0000000C03BD627C0000000A03A3E44C00C000000130000005A0900003C0000000600000002000000000000A0FF3F8FC0000000C03BD627C0000000A03A3E44C0000000400040
310
8F40000000C03BD627C0000000A03A3E44C00C00000013000000620900003C00000006000000020000000000004000408F40000000C03BD627C0000000A03A3E44C00000004000408F40000000201E6D28C000000040816743C00C000000130000006A0900003C0000000600000002000000000000A0FF3F8FC0000000C03B
310
D627C0000000A03A3E44C0000000A0FF3F8FC000000080B46727C000000040E11545C00C00000013000000720900003C0000000600000002000000000000A0FF3F8FC000000080B46727C000000040E11545C00000004000408F4000000080B46727C000000040E11545C00C000000130000007A0900003C00000006000000
310
020000000000004000408F4000000080B46727C000000040E11545C00000004000408F40000000C03BD627C0000000A03A3E44C00C00000013000000820900003C0000000600000002000000000000A0FF3F8FC000000080B46727C000000040E11545C0000000A0FF3F8FC000000000322127C000000060DBEE45C00C0000
310
00130000008A0900003C0000000600000002000000000000A0FF3F8FC000000000322127C000000060DBEE45C00000004000408F4000000000322127C000000060DBEE45C00C00000013000000920900003C00000006000000020000000000004000408F4000000000322127C000000060DBEE45C00000004000408F400000
310
0080B46727C000000040E11545C00C000000130000009A0900003C0000000600000002000000000000A0FF3F8FC000000000322127C000000060DBEE45C0000000A0FF3F8FC000000060490527C0000000A0769246C00C00000013000000A20900003C0000000600000002000000000000A0FF3F8FC000000060490527C000
310
0000A0769246C00000004000408F4000000060490527C0000000A0769246C00C00000013000000AA0900003C00000006000000020000000000004000408F4000000060490527C0000000A0769246C00000004000408F4000000000322127C000000060DBEE45C00C00000013000000B20900003C0000000600000002000000
310
000000A0FF3F8FC000000000000027C000000000000047C0000000A0FF3F8FC000000060490527C0000000A0769246C00C00000013000000BA0900003C0000000600000002000000000000A0FF3F8FC000000000000027C000000000000047C00000004000408F4000000000000027C000000000000047C00C000000130000
310
00C20900003C00000006000000020000000000004000408F4000000000000027C000000000000047C00000004000408F4000000060490527C0000000A0769246C00C00000013000000CA0900003C0000000600000002000000000000A0FF3F8FC000000000000027C000000000000047C0000000A0FF3F8FC0000000809999
310
1DC000000000000047C00C00000013000000D20900003C0000000600000002000000000000A0FF3F8FC00000008099991DC000000000000047C00000004000408F400000008099991DC000000000000047C00C00000013000000DA0900003C00000006000000020000000000004000408F400000008099991DC00000000000
310
0047C00000004000408F4000000000000027C000000000000047C00C00000013000000E20900003C0000000600000002000000000000A0FF3F8FC00000008099991DC000000000000047C0000000A0FF3F8FC000000080DAFC1CC0000000C0E50347C00C00000013000000EA0900003C0000000600000002000000000000A0
310
FF3F8FC000000080DAFC1CC0000000C0E50347C00000004000408F4000000080DAFC1CC0000000C0E50347C00C00000013000000F20900003C00000006000000020000000000004000408F4000000080DAFC1CC0000000C0E50347C00000004000408F400000008099991DC000000000000047C00C00000013000000FA0900
310
003C0000000600000002000000000000A0FF3F8FC000000080DAFC1CC0000000C0E50347C0000000A0FF3F8FC000000000F8771CC000000000FF0E47C00C00000013000000020A00003C0000000600000002000000000000A0FF3F8FC000000000F8771CC000000000FF0E47C00000004000408F4000000000F8771CC00000
310
0000FF0E47C00C000000130000000A0A00003C00000006000000020000000000004000408F4000000000F8771CC000000000FF0E47C00000004000408F4000000080DAFC1CC0000000C0E50347C00C00000013000000120A00003C0000000600000002000000000000A0FF3F8FC000000000F8771CC000000000FF0E47C000
310
0000A0FF3F8FC0000000002E1F1CC0000000409B1F47C00C000000130000001A0A00003C0000000600000002000000000000A0FF3F8FC0000000002E1F1CC0000000409B1F47C00000004000408F40000000002E1F1CC0000000409B1F47C00C00000013000000220A00003C00000006000000020000000000004000408F40
310
000000002E1F1CC0000000409B1F47C00000004000408F4000000000F8771CC000000000FF0E47C00C000000130000002A0A00003C0000000600000002000000000000A0FF3F8FC0000000002E1F1CC0000000409B1F47C0000000A0FF3F8FC00000000000001CC000000040333347C00C00000013000000320A00003C0000
310
000600000002000000000000A0FF3F8FC00000000000001CC000000040333347C00000004000408F400000000000001CC000000040333347C00C000000130000003A0A00003C00000006000000020000000000004000408F400000000000001CC000000040333347C00000004000408F40000000002E1F1CC0000000409B1F
310
47C00C00000013000000420A00003C0000000600000002000000000000A0FF3F8FC00000000000001CC000000040333347C0000000A0FF3F8FC00000000000001CC000000000004050C00C000000130000004A0A00003C00000006000000020000000000004000408F400000000000001CC000000040333347C00000004000
310
408F400000000000001CC000000000004050C00C00000013000000520A00003C0000000600000002000000000000A0FF3F8FC000000000000027C000000000000047C0000000A0FF3F8FC00000000055450EC0000000E0152D43C00C000000130000005A0A00003C0000000600000002000000000000A0FF3F8FC000000080
310
99991DC000000000000047C0000000A0FF3F8FC000000000025F0AC000000000004043C00C00000013000000620A00003C0000000600000002000000000000A0FF3F8FC0000000C0824D4AC00000000000000000000000A0FF3F8FC0000000E0E3E14CC00000000093281AC00C000000130000006A0A00003C000000060000
310
0002000000000000A0FF3F8FC00000004005284AC000000000001696BF000000A0FF3F8FC000000000B4C44BC0000000006BA11AC00C00000013000000720A00003C0000000600000002000000000000A0FF3F8FC00000008053034AC000000000A0F8B5BF000000A0FF3F8FC0000000A060A84AC000000000996A1BC00C00
310
0000130000007A0A00003C0000000600000002000000000000A0FF3F8FC0000000803BE049C000000000107FC8BF000000A0FF3F8FC0000000A060A84AC000000000996A1BC00C00000013000000820A00003C0000000600000002000000000000A0FF3F8FC0000000E081BF49C000000000607FD5BF000000A0FF3F8FC000
310
0000A060A84AC000000000996A1BC00C000000130000008A0A00003C0000000600000002000000000000A0FF3F8FC00000006000C748C0000000004C15FABF000000A0FF3F8FC000000060AF8C49C0000000005E841CC00C00000013000000920A00003C0000000600000002000000000000A0FF3F8FC00000006039AC48C0
310
00000000F0C8FBBF000000A0FF3F8FC000000060AF8C49C0000000005E841CC00C000000130000009A0A00003C0000000600000002000000000000A0FF3F8FC000000000008048C000000000E2A8FCBF000000A0FF3F8FC0000000807A7248C000000080C8ED1DC00C00000013000000A20A00003C00000006000000020000
310
00000000A0FF3F8FC0000000A0C65348C000000000F0C8FBBF000000A0FF3F8FC0000000807A7248C000000080C8ED1DC00C00000013000000AA0A00003C0000000600000002000000000000A0FF3F8FC0000000A0FF3848C0000000004C15FABF000000A0FF3F8FC0000000807A7248C000000080C8ED1DC00C0000001300
310
0000B20A00003C0000000600000002000000000000A0FF3F8FC000000080ACFC46C000000000A0F8B5BF000000A0FF3F8FC0000000603B5A47C00000000078A61FC00C00000013000000BA0A00003C0000000600000002000000000000A0FF3F8FC0000000C0FAD746C000000000001696BF000000A0FF3F8FC0000000603B
310
5A47C00000000078A61FC00C00000013000000C20A00003C0000000600000002000000000000A0FF3F8FC0000000407DB246C00000000000000000000000A0FF3F8FC0000000603B5A47C00000000078A61FC00C00000013000000CA0A00003C0000000600000002000000000000A0FF3F8FC0000000207E4047C000000000
310
607FD5BF000000A0FF3F8FC0000000603B5A47C00000000078A61FC00C00000013000000D20A00003C0000000600000002000000000000A0FF3F8FC000000080C41F47C000000000107FC8BF000000A0FF3F8FC0000000603B5A47C00000000078A61FC00C00000013000000DA0A00003C0000000600000002000000000000
310
A0FF3F8FC0000000C0C11043C00000000060EEC7BF000000A0FF3F8FC0000000201F3045C0000000E0020222C00C00000013000000E20A00003C0000000600000002000000000000A0FF3F8FC00000006083EF42C000000000E835DCBF000000A0FF3F8FC0000000201F3045C0000000E0020222C00C00000013000000EA0A
310
00003C0000000600000002000000000000A0FF3F8FC00000008058E142C0000000002C0EE5BF000000A0FF3F8FC0000000201F3045C0000000E0020222C00C00000013000000F20A00003C0000000600000002000000000000A0FF3F8FC000000060A05943C00000000000000000000000A0FF3F8FC000000080CA4346C000
310
0000003ED720C00C00000013000000FA0A00003C0000000600000002000000000000A0FF3F8FC000000040A83A43C000000000806F9EBF000000A0FF3F8FC000000080CA4346C0000000003ED720C00C00000013000000020B00003C0000000600000002000000000000A0FF3F8FC0000000C0C11043C00000000060EEC7BF
310
000000A0FF3F8FC000000080CA4346C0000000003ED720C00C000000130000000A0B00003C0000000600000002000000000000A0FF3F8FC000000040AC7842C000000000FE9C04C0000000A0FF3F8FC000000000151F44C000000060CA5323C00C00000013000000120B00003C0000000600000002000000000000A0FF3F8F
310
C0000000E0E45F42C00000000062BA05C0000000A0FF3F8FC000000000151F44C000000060CA5323C00C000000130000001A0B00003C0000000600000002000000000000A0FF3F8FC000000000964342C000000000D07106C0000000A0FF3F8FC000000000151F44C000000060CA5323C00C00000013000000220B00003C00
310
00000600000002000000000000A0FF3F8FC0000000A0519A42C000000000DD7501C0000000A0FF3F8FC0000000201F3045C0000000E0020222C00C000000130000002A0B00003C0000000600000002000000000000A0FF3F8FC000000000868C42C000000000D62903C0000000A0FF3F8FC0000000201F3045C0000000E002
310
0222C00C00000013000000320B00003C0000000600000002000000000000A0FF3F8FC000000040AC7842C000000000FE9C04C0000000A0FF3F8FC0000000201F3045C0000000E0020222C00C000000130000003A0B00003C0000000600000002000000000000A0FF3F8FC00000000081EF40C00000000054030DC0000000A0
310
FF3F8FC0000000401E1143C000000080E8CB24C00C00000013000000420B00003C0000000600000002000000000000A0FF3F8FC00000000081EF40C00000000054030DC0000000A0FF3F8FC0000000000C0742C0000000E0466926C00C000000130000004A0B00003C0000000600000002000000000000A0FF3F8FC0000000
310
00BF693EC0000000801BDA13C0000000A0FF3F8FC000000060A60041C0000000E02F2C28C00C00000013000000520B00003C0000000600000002000000000000A0FF3F8FC000000000BF693EC0000000801BDA13C0000000A0FF3F8FC000000040BCFB3FC0000000C0B7142AC00C000000130000005A0B00003C0000000600
310
000002000000000000A0FF3F8FC000000000D0133BC00000000006531AC0000000A0FF3F8FC00000002044D83EC000000040FE422BC00C00000013000000620B00003C0000000600000002000000000000A0FF3F8FC000000000D0133BC00000000006531AC0000000A0FF3F8FC0000000C0195D3DC000000040D2F12CC00C
310
000000130000006A0B00003C0000000600000002000000000000A0FF3F8FC0000000400BE337C0000000C090F020C0000000A0FF3F8FC0000000A049ED3BC00000004000C22EC00C00000013000000720B00003C0000000600000002000000000000A0FF3F8FC0000000400BE337C0000000C090F020C0000000A0FF3F8FC0
310
0000008058883AC000000060255A30C00C000000130000007A0B00003C0000000600000002000000000000A0FF3F8FC0000000E02BDD34C0000000006E3B25C0000000A0FF3F8FC0000000C05D2E39C000000040466431C00C00000013000000820B00003C0000000600000002000000000000A0FF3F8FC0000000E02BDD34
310
C0000000006E3B25C0000000A0FF3F8FC0000000C063E137C000000040C77D32C00C000000130000008A0B00003C0000000600000002000000000000A0FF3F8FC000000020600732C000000040BF022AC0000000A0FF3F8FC0000000C04CA236C00000000012A633C00C00000013000000920B00003C000000060000000200
310
0000000000A0FF3F8FC000000020600732C000000040BF022AC0000000A0FF3F8FC0000000C0887035C0000000C092DD34C00C000000130000009A0B00003C0000000600000002000000000000A0FF3F8FC0000000C079CD2EC000000080F53D2FC0000000A0FF3F8FC000000000C74D34C000000040802236C00C00000013
310
000000A20B00003C0000000600000002000000000000A0FF3F8FC0000000C079CD2EC000000080F53D2FC0000000A0FF3F8FC000000060D23A33C000000080267437C00C00000013000000AA0B00003C0000000600000002000000000000A0FF3F8FC000000020AEFF29C000000020F77132C0000000A0FF3F8FC000000080
310
2B3732C00000002004D338C00C00000013000000B20B00003C0000000600000002000000000000A0FF3F8FC000000020AEFF29C000000020F77132C0000000A0FF3F8FC0000000003E4431C000000040193D3AC00C00000013000000BA0B00003C0000000600000002000000000000A0FF3F8FC000000040C0AD25C0000000
310
00687535C0000000A0FF3F8FC0000000E0B96230C00000004097B13BC00C00000013000000C20B00003C0000000600000002000000000000A0FF3F8FC000000040C0AD25C000000000687535C0000000A0FF3F8FC00000004065242FC0000000200D313DC00C00000013000000CA0B00003C00000006000000020000000000
310
00A0FF3F8FC0000000006BDF21C000000080E7A338C0000000A0FF3F8FC00000008092A72DC0000000804DB93EC00C00000013000000D20B00003C0000000600000002000000000000A0FF3F8FC0000000006BDF21C000000080E7A338C0000000A0FF3F8FC0000000001F502CC0000000A0B92440C00C00000013000000DA
310
0B00003C0000000600000002000000000000A0FF3F8FC00000008067361DC0000000C001F83BC0000000A0FF3F8FC0000000605B1D2BC0000000C00DF140C00C00000013000000E20B00003C0000000600000002000000000000A0FF3F8FC00000008067361DC0000000C001F83BC0000000A0FF3F8FC0000000C0E9102AC0
310
000000C07AC041C00C00000013000000EA0B00003C0000000600000002000000000000A0FF3F8FC000000000F3CD17C0000000C0BC6B3FC0000000A0FF3F8FC000000080AB2B29C000000040859242C00C00000013000000F20B00003C0000000600000002000000000000A0FF3F8FC000000000F3CD17C0000000C0BC6B3F
310
C0000000A0FF3F8FC0000000201E6D28C000000040816743C00C00000013000000FA0B00003C0000000600000002000000000000A0FF3F8FC000000000E18E13C0000000E0867C41C0000000A0FF3F8FC0000000C03BD627C0000000A03A3E44C00C00000013000000020C00003C0000000600000002000000000000A0FF3F
310
8FC000000000E18E13C0000000E0867C41C0000000A0FF3F8FC000000080B46727C000000040E11545C00C000000130000000A0C00003C0000000600000002000000000000A0FF3F8FC00000000000001CC000000040333347C0000000A0FF3F8FC0000000000000000000000040334648C00C00000013000000120C00003C
310
0000000600000002000000000000A0FF3F8FC00000000000001CC000000040333347C0000000A0FF3F8FC000000000000000000000000000C044C00C000000130000001A0C00003C0000000600000002000000000000A0FF3F8FC000000000AF1D11C0000000E0C6D742C0000000A0FF3F8FC000000000322127C000000060
310
DBEE45C00C00000013000000220C00003C0000000600000002000000000000A0FF3F8FC000000000AF9B10C0000000A0960043C0000000A0FF3F8FC000000060490527C0000000A0769246C00C000000130000002A0C00003C0000000600000002000000000000A0FF3F8FC0000000002E1F1CC0000000409B1F47C0000000
310
A0FF3F8FC000000000A086B7BF000000C0A16644C00C00000013000000320C00003C0000000600000002000000000000A0FF3F8FC000000000F8771CC000000000FF0E47C0000000A0FF3F8FC00000000040CCDCBF00000040FBF743C00C000000130000003A0C00003C0000000600000002000000000000A0FF3F8FC00000
310
0080DAFC1CC0000000C0E50347C0000000A0FF3F8FC00000000024ECF0BF00000000E89C43C00C00000013000000420C00003C0000000600000002000000000000A0FF3F8FC00000008099991DC000000000000047C0000000A0FF3F8FC00000000014B0FDBF000000E0525E43C00C000000130000004A0C00003C00000006
310
00000002000000000000A0FF3F8FC00000008099991DC000000000000047C0000000A0FF3F8FC000000000781F06C0000000405D4243C00C00000013000000520C00003C0000000600000002000000000000A0FF3F8FC00000000000001CC000000000004050C0000000A0FF3F8FC00000000000000000000000C0CC794BC0
310
0C000000130000005A0C00003C0000000600000002000000000000A0FF3F8FC00000000000001CC000000000004050C0000000A0FF3F8FC00000000080139DBF00000040D24E4BC00C00000013000000620C00003C0000000600000002000000000000A0FF3F8FC00000000000001CC000000000004050C0000000A0FF3F8F
310
C000000000C0DCBCBF000000E00F254BC00C000000130000006A0C00003C0000000600000002000000000000A0FF3F8FC00000000000001CC000000000004050C0000000A0FF3F8FC000000000280BD0BF000000A0B5FD4AC00C00000013000000720C00003C0000000600000002000000000000A0FF3F8FC0000000000000
310
1CC000000040333347C0000000A0FF3F8FC000000000C0DCBCBF00000020F09A48C00C000000130000007A0C00003C0000000600000002000000000000A0FF3F8FC00000000000001CC000000040333347C0000000A0FF3F8FC00000000080139DBF000000C02D7148C00C00000013000000820C00003C0000000600000002
310
000000000000A0FF3F8FC00000000000001CC000000040333347C0000000A0FF3F8FC000000000800CDCBF000000401FE648C00C000000130000008A0C00003C0000000600000002000000000000A0FF3F8FC00000000000001CC000000040333347C0000000A0FF3F8FC000000000280BD0BF000000604AC248C00C000000
310
13000000920C00003C0000000600000002000000000000A0FF3F8FC00000000000001CC000000040333347C0000000A0FF3F8FC0000000008637FABF0000002097AD49C00C000000130000009A0C00003C0000000600000002000000000000A0FF3F8FC00000000000001CC000000040333347C0000000A0FF3F8FC0000000
310
000001F8BF000000000A9049C00C00000013000000A20C00003C0000000600000002000000000000A0FF3F8FC00000000000001CC000000000004050C0000000A0FF3F8FC000000000800CDCBF000000C0E0D94AC00C00000013000000AA0C00003C0000000600000002000000000000A0FF3F8FC00000000000001CC00000
310
0000004050C0000000A0FF3F8FC0000000000001F8BF00000000F62F4AC00C00000013000000B20C00003C0000000600000002000000000000A0FF3F8FC00000000000001CC000000040333347C0000000A0FF3F8FC0000000004A5DFBBF0000000000E049C00C00000013000000BA0C00003C000000060000000200000000
310
0000A0FF3F8FC00000000000001CC000000000004050C0000000A0FF3F8FC0000000008637FABF000000E068124AC00C00000013000000C20C00003C00000006000000020000000000004000408F400000008099991DC000000000000047C00000004000408F4000000000025F0AC000000000004043C00C00000013000000
310
CA0C00003C00000006000000020000000000004000408F4000000000000027C000000000000047C00000004000408F400000000055450EC0000000E0152D43C00C00000013000000D20C00003C00000006000000020000000000004000408F40000000C0E3E14CC00000000093281AC00000004000408F40000000C0824D4A
310
C000000000000000000C00000013000000DA0C00003C00000006000000020000000000004000408F4000000000B4C44BC0000000006BA11AC00000004000408F400000004005284AC000000000001696BF0C00000013000000E20C00003C00000006000000020000000000004000408F400000008060A84AC000000000996A
310
1BC00000004000408F400000008053034AC000000000A0F8B5BF0C00000013000000EA0C00003C00000006000000020000000000004000408F400000008060A84AC000000000996A1BC00000004000408F40000000803BE049C000000000107FC8BF0C00000013000000F20C00003C00000006000000020000000000004000
310
408F400000008060A84AC000000000996A1BC00000004000408F40000000E081BF49C000000000607FD5BF0C00000013000000FA0C00003C00000006000000020000000000004000408F4000000060AF8C49C0000000005E841CC00000004000408F400000006000C748C0000000004C15FABF0C00000013000000020D0000
310
3C00000006000000020000000000004000408F4000000060AF8C49C0000000005E841CC00000004000408F400000006039AC48C000000000F0C8FBBF0C000000130000000A0D00003C00000006000000020000000000004000408F40000000807A7248C000000080C8ED1DC00000004000408F4000000000008048C0000000
310
00E2A8FCBF0C00000013000000120D00003C00000006000000020000000000004000408F40000000807A7248C000000080C8ED1DC00000004000408F40000000A0C65348C000000000F0C8FBBF0C000000130000001A0D00003C00000006000000020000000000004000408F40000000807A7248C000000080C8ED1DC00000
310
004000408F40000000A0FF3848C0000000004C15FABF0C00000013000000220D00003C00000006000000020000000000004000408F40000000603B5A47C00000000078A61FC00000004000408F40000000C0FAD746C000000000001696BF0C000000130000002A0D00003C00000006000000020000000000004000408F4000
310
0000603B5A47C00000000078A61FC00000004000408F4000000080ACFC46C000000000A0F8B5BF0C00000013000000320D00003C00000006000000020000000000004000408F40000000603B5A47C00000000078A61FC00000004000408F40000000407DB246C000000000000000000C000000130000003A0D00003C000000
310
06000000020000000000004000408F40000000603B5A47C00000000078A61FC00000004000408F4000000080C41F47C000000000107FC8BF0C00000013000000420D00003C00000006000000020000000000004000408F40000000603B5A47C00000000078A61FC00000004000408F40000000207E4047C000000000607FD5
310
BF0C000000130000004A0D00003C00000006000000020000000000004000408F40000000201F3045C0000000E0020222C00000004000408F400000006083EF42C000000000E835DCBF0C00000013000000520D00003C00000006000000020000000000004000408F40000000201F3045C0000000E0020222C0000000400040
310
8F40000000C0C11043C00000000070EEC7BF0C000000130000005A0D00003C00000006000000020000000000004000408F40000000201F3045C0000000E0020222C00000004000408F400000008058E142C0000000002C0EE5BF0C00000013000000620D00003C00000006000000020000000000004000408F4000000080CA
310
4346C0000000003ED720C00000004000408F4000000060A05943C000000000000000000C000000130000006A0D00003C00000006000000020000000000004000408F4000000080CA4346C0000000003ED720C00000004000408F4000000040A83A43C000000000806F9EBF0C00000013000000720D00003C00000006000000
310
020000000000004000408F4000000080CA4346C0000000003ED720C00000004000408F40000000C0C11043C00000000070EEC7BF0C000000130000007A0D00003C00000006000000020000000000004000408F4000000000151F44C000000060CA5323C00000004000408F40000000E0E45F42C00000000062BA05C00C0000
310
0013000000820D00003C00000006000000020000000000004000408F4000000000151F44C000000060CA5323C00000004000408F4000000040AC7842C000000000FE9C04C00C000000130000008A0D00003C00000006000000020000000000004000408F4000000000151F44C000000060CA5323C00000004000408F400000
310
0000964342C000000000D07106C00C00000013000000920D00003C00000006000000020000000000004000408F40000000201F3045C0000000E0020222C00000004000408F40000000A0519A42C000000000DD7501C00C000000130000009A0D00003C00000006000000020000000000004000408F40000000201F3045C000
310
0000E0020222C00000004000408F4000000000868C42C000000000D62903C00C00000013000000A20D00003C00000006000000020000000000004000408F40000000201F3045C0000000E0020222C00000004000408F4000000040AC7842C000000000FE9C04C00C00000013000000AA0D00003C0000000600000002000000
310
0000004000408F40000000000C0742C0000000E0466926C00000004000408F400000000081EF40C00000000053030DC00C00000013000000B20D00003C00000006000000020000000000004000408F40000000401E1143C000000080E8CB24C00000004000408F400000000081EF40C00000000053030DC00C000000130000
310
00BA0D00003C00000006000000020000000000004000408F4000000040BCFB3FC0000000C0B7142AC00000004000408F4000000000BF693EC0000000801BDA13C00C00000013000000C20D00003C00000006000000020000000000004000408F4000000060A60041C0000000E02F2C28C00000004000408F4000000000BF69
310
3EC0000000801BDA13C00C00000013000000CA0D00003C00000006000000020000000000004000408F40000000C0195D3DC000000040D2F12CC00000004000408F4000000000D0133BC00000008005531AC00C00000013000000D20D00003C00000006000000020000000000004000408F400000002044D83EC000000040FE
310
422BC00000004000408F4000000000D0133BC00000008005531AC00C00000013000000DA0D00003C00000006000000020000000000004000408F400000008058883AC000000060255A30C00000004000408F40000000400BE337C0000000C090F020C00C00000013000000E20D00003C000000060000000200000000000040
310
00408F40000000A049ED3BC00000004000C22EC00000004000408F40000000400BE337C0000000C090F020C00C00000013000000EA0D00003C00000006000000020000000000004000408F40000000C063E137C000000040C77D32C00000004000408F40000000E02BDD34C0000000006E3B25C00C00000013000000F20D00
310
003C00000006000000020000000000004000408F40000000C05D2E39C000000040466431C00000004000408F40000000E02BDD34C0000000006E3B25C00C00000013000000FA0D00003C00000006000000020000000000004000408F40000000C0887035C0000000C092DD34C00000004000408F4000000020600732C00000
310
0040BF022AC00C00000013000000020E00003C00000006000000020000000000004000408F40000000C04CA236C00000000012A633C00000004000408F4000000020600732C000000040BF022AC00C000000130000000A0E00003C00000006000000020000000000004000408F4000000060D23A33C000000080267437C000
310
00004000408F40000000C079CD2EC000000080F53D2FC00C00000013000000120E00003C00000006000000020000000000004000408F4000000000C74D34C000000040802236C00000004000408F40000000C079CD2EC000000080F53D2FC00C000000130000001A0E00003C00000006000000020000000000004000408F40
310
000000003E4431C000000040193D3AC00000004000408F4000000020AEFF29C000000020F77132C00C00000013000000220E00003C00000006000000020000000000004000408F40000000802B3732C00000002004D338C00000004000408F4000000020AEFF29C000000020F77132C00C000000130000002A0E00003C0000
310
0006000000020000000000004000408F400000004065242FC0000000200D313DC00000004000408F4000000040C0AD25C000000000687535C00C00000013000000320E00003C00000006000000020000000000004000408F40000000E0B96230C00000004097B13BC00000004000408F4000000040C0AD25C0000000006875
310
35C00C000000130000003A0E00003C00000006000000020000000000004000408F40000000001F502CC0000000A0B92440C00000004000408F40000000006BDF21C000000080E7A338C00C00000013000000420E00003C00000006000000020000000000004000408F400000008092A72DC0000000804DB93EC00000004000
310
408F40000000006BDF21C000000080E7A338C00C000000130000004A0E00003C00000006000000020000000000004000408F40000000C0E9102AC0000000C07AC041C00000004000408F400000008067361DC0000000C001F83BC00C00000013000000520E00003C00000006000000020000000000004000408F4000000060
310
5B1D2BC0000000C00DF140C00000004000408F400000008067361DC0000000C001F83BC00C000000130000005A0E00003C00000006000000020000000000004000408F40000000201E6D28C000000040816743C00000004000408F4000000000F3CD17C0000000C0BC6B3FC00C00000013000000620E00003C000000060000
310
00020000000000004000408F4000000080AB2B29C000000040859242C00000004000408F4000000000F3CD17C0000000C0BC6B3FC00C000000130000006A0E00003C00000006000000020000000000004000408F4000000080B46727C000000040E11545C00000004000408F4000000080E18E13C0000000E0867C41C00C00
310
000013000000720E00003C00000006000000020000000000004000408F40000000C03BD627C0000000A03A3E44C00000004000408F4000000080E18E13C0000000E0867C41C00C000000130000007A0E00003C00000006000000020000000000004000408F400000000000001CC000000040333347C00000004000408F4000
310
000000000000000000000000C044C00C00000013000000820E00003C00000006000000020000000000004000408F400000000000001CC000000040333347C00000004000408F40000000000000000000000040334648C00C000000130000008A0E00003C00000006000000020000000000004000408F4000000000322127C0
310
00000060DBEE45C00000004000408F4000000080AE1D11C0000000E0C6D742C00C00000013000000920E00003C00000006000000020000000000004000408F4000000060490527C0000000A0769246C00000004000408F4000000000AF9B10C0000000A0960043C00C000000130000009A0E00003C00000006000000020000
310
000000004000408F40000000002E1F1CC0000000409B1F47C00000004000408F4000000000A086B7BF000000C0A16644C00C00000013000000A20E00003C00000006000000020000000000004000408F4000000000F8771CC000000000FF0E47C00000004000408F400000000040CCDCBF00000040FBF743C00C0000001300
310
0000AA0E00003C00000006000000020000000000004000408F4000000080DAFC1CC0000000C0E50347C00000004000408F400000000024ECF0BF00000000E89C43C00C00000013000000B20E00003C00000006000000020000000000004000408F400000008099991DC000000000000047C00000004000408F400000000078
310
1F06C0000000405D4243C00C00000013000000BA0E00003C00000006000000020000000000004000408F400000008099991DC000000000000047C00000004000408F400000000014B0FDBF000000E0525E43C00C00000013000000C20E00003C00000006000000020000000000004000408F400000000080139DBF00000040
310
D24E4BC00000004000408F400000000000001CC000000000004050C00C00000013000000CA0E00003C00000006000000020000000000004000408F400000000000000000000000C0CC794BC00000004000408F400000000000001CC000000000004050C00C00000013000000D20E00003C0000000600000002000000000000
310
4000408F4000000000280BD0BF000000A0B5FD4AC00000004000408F400000000000001CC000000000004050C00C00000013000000DA0E00003C00000006000000020000000000004000408F4000000000C0DCBCBF000000E00F254BC00000004000408F400000000000001CC000000000004050C00C00000013000000E20E
310
00003C00000006000000020000000000004000408F400000000000001CC000000040333347C00000004000408F400000000080139DBF000000C02D7148C00C00000013000000EA0E00003C00000006000000020000000000004000408F400000000000001CC000000040333347C00000004000408F4000000000C0DCBCBF00
310
000020F09A48C00C00000013000000F20E00003C00000006000000020000000000004000408F400000000000001CC000000040333347C00000004000408F4000000000280BD0BF000000604AC248C00C00000013000000FA0E00003C00000006000000020000000000004000408F400000000000001CC000000040333347C0
310
0000004000408F4000000000780CDCBF000000401FE648C00C00000013000000020F00003C00000006000000020000000000004000408F400000000000001CC000000040333347C00000004000408F40000000000001F8BF000000000A9049C00C000000130000000A0F00003C00000006000000020000000000004000408F
310
400000000000001CC000000040333347C00000004000408F40000000008637FABF0000002097AD49C00C00000013000000120F00003C00000006000000020000000000004000408F40000000000001F8BF00000000F62F4AC00000004000408F400000000000001CC000000000004050C00C000000130000001A0F00003C00
310
000006000000020000000000004000408F4000000000780CDCBF000000C0E0D94AC00000004000408F400000000000001CC000000000004050C00C00000013000000220F00003C00000006000000020000000000004000408F400000000000001CC000000040333347C00000004000408F40000000004A5DFBBF0000000000
310
E049C00C000000130000002A0F00003C00000006000000020000000000004000408F40000000008637FABF000000E068124AC00000004000408F400000000000001CC000000000004050C0
100
AcDbSubDMesh
 71
     2
 72
     0
 91
        0
 92
      220
 10
-999.9998168945312
 20
-11.5
 30
-46.0
 10
-999.9998168945312
 20
-7.399999618530273
 30
-46.0
 10
-999.9998168945312
 20
-7.246927261352539
 30
-46.03044891357422
 10
-999.9998168945312
 20
-7.117156982421875
 30
-46.11715698242187
 10
-999.9998168945312
 20
-7.030448913574218
 30
-46.24692535400391
 10
-999.9998168945312
 20
-7.0
 30
-46.4000015258789
 10
-999.9998168945312
 20
-7.0
 30
-65.0
 10
-999.9998168945312
 20
0.0
 30
-65.0
 10
-999.9998168945312
 20
0.0
 30
-54.9515609741211
 10
-999.9998168945312
 20
-0.0283946990966797
 30
-54.61579132080078
 10
-999.9998168945312
 20
-0.1127433776855469
 30
-54.28954696655273
 10
-999.9998168945312
 20
-0.2506809234619141
 30
-53.98210525512695
 10
-999.9998168945312
 20
-0.438262939453125
 30
-53.7021713256836
 10
-999.9998168945312
 20
-1.500244140625
 30
-52.37469482421875
 10
-999.9998168945312
 20
-1.638555526733398
 30
-52.14382553100586
 10
-999.9998168945312
 20
-1.710275650024414
 30
-51.75
 10
-999.9998168945312
 20
-1.638555526733398
 30
-51.35617446899414
 10
-999.9998168945312
 20
-1.500244140625
 30
-51.12530517578125
 10
-999.9998168945312
 20
-0.438262939453125
 30
-49.79782867431641
 10
-999.9998168945312
 20
-0.2506809234619141
 30
-49.51789474487305
 10
-999.9998168945312
 20
-0.1127433776855469
 30
-49.21045303344726
 10
-999.9998168945312
 20
-0.0283946990966797
 30
-48.88420867919922
 10
-999.9998168945312
 20
0.0
 30
-48.54843902587891
 10
-999.9998168945312
 20
0.0
 30
-41.5
 10
-999.9998168945312
 20
-0.0918979644775391
 30
-40.80181121826171
 10
-999.9998168945312
 20
-0.4499664306640625
 30
-39.93735504150391
 10
-999.9998168945312
 20
-1.05765151977539
 30
-39.225830078125
 10
-999.9998168945312
 20
-1.855487823486328
 30
-38.73690414428711
 10
-999.9998168945312
 20
-2.765365600585937
 30
-38.51847076416016
 10
-999.9998168945312
 20
-3.296390533447265
 30
-38.5
 10
-999.9998168945312
 20
-3.783853530883789
 30
-38.35223007202149
 10
-999.9998168945312
 20
-4.152034759521484
 30
-38.00459671020508
 10
-999.9998168945312
 20
-4.278987884521484
 30
-37.68575668334961
 10
-999.9998168945312
 20
-4.889530181884765
 30
-34.97286605834961
 10
-999.9998168945312
 20
-5.951122283935546
 30
-31.42084884643555
 10
-999.9998168945312
 20
-7.303129196166992
 30
-27.96877670288086
 10
-999.9998168945312
 20
-8.936363220214843
 30
-24.64025115966797
 10
-999.9998168945312
 20
-10.83935737609863
 30
-21.4586181640625
 10
-999.9998168945312
 20
-12.99937534332275
 30
-18.44517707824707
 10
-999.9998168945312
 20
-15.40131950378418
 30
-15.62101364135742
 10
-999.9998168945312
 20
-18.02881050109863
 30
-13.0053653717041
 10
-999.9998168945312
 20
-20.86395072937012
 30
-10.61607360839843
 10
-999.9998168945312
 20
-23.88689041137695
 30
-8.469854354858398
 10
-999.9998168945312
 20
-27.077392578125
 30
-6.581077575683593
 10
-999.9998168945312
 20
-30.41307067871094
 30
-4.962995529174804
 10
-999.9998168945312
 20
-33.87112426757813
 30
-3.626625061035156
 10
-999.9998168945312
 20
-36.52801513671875
 30
-2.805572509765625
 10
-999.9998168945312
 20
-36.74917221069336
 30
-2.716007232666015
 10
-999.9998168945312
 20
-36.94275665283203
 30
-2.576656341552734
 10
-999.9998168945312
 20
-37.09783935546875
 30
-2.395427703857421
 10
-999.9998168945312
 20
-37.20561599731445
 30
-2.182550430297851
 10
-999.9998168945312
 20
-37.76051330566406
 30
-0.657979965209961
 10
-999.9998168945312
 20
-37.87119674682617
 30
-0.4407901763916016
 10
-999.9998168945312
 20
-38.13091278076172
 30
-0.1869621276855469
 10
-999.9998168945312
 20
-38.45825958251953
 30
-0.0297222137451172
 10
-999.9998168945312
 20
-38.7002067565918
 30
0.0
 10
-999.9998168945312
 20
-45.39444732666015
 30
0.0
 10
-999.9998168945312
 20
-45.68733978271484
 30
-0.0215682983398438
 10
-999.9998168945312
 20
-45.97401428222656
 30
-0.0858249664306641
 10
-999.9998168945312
 20
-46.24818420410156
 30
-0.1913776397705078
 10
-999.9998168945312
 20
-46.50384902954101
 30
-0.3358993530273437
 10
-999.9998168945312
 20
-48.4453010559082
 30
-1.630199432373046
 10
-999.9998168945312
 20
-48.65449905395507
 30
-1.736557006835937
 10
-999.9998168945312
 20
-49.0
 30
-1.791231155395507
 10
-999.9998168945312
 20
-49.34550094604492
 30
-1.736557006835937
 10
-999.9998168945312
 20
-49.5546989440918
 30
-1.630199432373046
 10
-999.9998168945312
 20
-51.49615097045899
 30
-0.3358993530273437
 10
-999.9998168945312
 20
-51.75181579589843
 30
-0.1913776397705078
 10
-999.9998168945312
 20
-52.02598571777343
 30
-0.0858249664306641
 10
-999.9998168945312
 20
-52.31266021728515
 30
-0.0215682983398438
 10
-999.9998168945312
 20
-52.60555267333984
 30
0.0
 10
-999.9998168945312
 20
-60.0
 30
0.0
 10
-999.9998168945312
 20
-60.0
 30
-6.5
 10
-999.9998168945312
 20
-57.76476669311524
 30
-6.539623260498046
 10
-999.9998168945312
 20
-55.5367431640625
 30
-6.657634735107421
 10
-999.9998168945312
 20
-53.31544876098632
 30
-6.85409927368164
 10
-999.9998168945312
 20
-51.09910202026367
 30
-7.129264831542968
 10
-999.9998168945312
 20
-48.89436340332031
 30
-7.482210159301757
 10
-999.9998168945312
 20
-46.70493698120117
 30
-7.912567138671875
 10
-999.9998168945312
 20
-44.52961730957031
 30
-8.420394897460937
 10
-999.9998168945312
 20
-42.37594985961914
 30
-9.003928184509277
 10
-999.9998168945312
 20
-40.24282836914062
 30
-9.663653373718261
 10
-999.9998168945312
 20
-38.13373565673828
 30
-10.39825820922851
 10
-999.9998168945312
 20
-36.0550537109375
 30
-11.2056188583374
 10
-999.9998168945312
 20
-34.00507736206055
 30
-12.08630275726318
 10
-999.9998168945312
 20
-31.98334121704102
 30
-13.04046440124511
 10
-999.9998168945312
 20
-30.84478950500488
 30
-13.63084602355957
 10
-999.9998168945312
 20
-29.36367416381836
 30
-14.47230720520019
 10
-999.9998168945312
 20
-27.92690467834473
 30
-15.37890815734863
 10
-999.9998168945312
 20
-26.53260040283203
 30
-16.35213279724121
 10
-999.9998168945312
 20
-25.18111801147461
 30
-17.39169692993164
 10
-999.9998168945312
 20
-23.88042831420898
 30
-18.4913215637207
 10
-999.9998168945312
 20
-22.63398361206055
 30
-19.64871215820312
 10
-999.9998168945312
 20
-21.4395866394043
 30
-20.86552047729492
 10
-999.9998168945312
 20
-20.30381774902344
 30
-22.13476943969727
 10
-999.9998168945312
 20
-19.22977256774902
 30
-23.45371246337891
 10
-999.9998168945312
 20
-18.21550750732422
 30
-24.82428169250488
 10
-999.9998168945312
 20
-17.26657104492187
 30
-26.23866653442383
 10
-999.9998168945312
 20
-16.38564872741699
 30
-27.69371414184571
 10
-999.9998168945312
 20
-15.57108497619629
 30
-29.19160652160645
 10
-999.9998168945312
 20
-14.82728958129882
 30
-30.72383880615234
 10
-999.9998168945312
 20
-14.15648651123047
 30
-32.28691482543946
 10
-999.9998168945312
 20
-13.55733776092529
 30
-33.88323211669922
 10
-999.9998168945312
 20
-13.03303337097168
 30
-35.50374603271484
 10
-999.9998168945312
 20
-12.58529281616211
 30
-37.14469146728516
 10
-999.9998168945312
 20
-12.21312046051025
 30
-38.80863189697265
 10
-999.9998168945312
 20
-11.91842460632324
 30
-40.48616409301757
 10
-999.9998168945312
 20
-11.70254898071289
 30
-42.17093658447265
 10
-999.9998168945312
 20
-11.56483459472656
 30
-43.86606979370117
 10
-999.9998168945312
 20
-11.51032543182373
 30
-45.14424514770507
 10
1000.000122070312
 20
-7.0
 30
-46.4000015258789
 10
1000.000122070312
 20
-7.030448913574218
 30
-46.24692535400391
 10
1000.000122070312
 20
-7.117156982421875
 30
-46.11715698242187
 10
1000.000122070312
 20
-7.246927261352539
 30
-46.03044891357422
 10
1000.000122070312
 20
-7.399999618530273
 30
-46.0
 10
1000.000122070312
 20
-11.5
 30
-46.0
 10
1000.000122070312
 20
-11.51032543182373
 30
-45.14424514770507
 10
1000.000122070312
 20
-11.56483459472656
 30
-43.86606979370117
 10
1000.000122070312
 20
-11.70254898071289
 30
-42.17093658447265
 10
1000.000122070312
 20
-11.91842460632324
 30
-40.48616409301757
 10
1000.000122070312
 20
-12.21312046051025
 30
-38.80863189697265
 10
1000.000122070312
 20
-12.58529281616211
 30
-37.14469146728516
 10
1000.000122070312
 20
-13.03303337097168
 30
-35.50374603271484
 10
1000.000122070312
 20
-13.55733776092529
 30
-33.88323211669922
 10
1000.000122070312
 20
-14.15648651123047
 30
-32.28691482543946
 10
1000.000122070312
 20
-14.82728958129882
 30
-30.72383880615234
 10
1000.000122070312
 20
-15.57108497619629
 30
-29.19160652160645
 10
1000.000122070312
 20
-16.38564872741699
 30
-27.69371414184571
 10
1000.000122070312
 20
-17.26657104492187
 30
-26.23866653442383
 10
1000.000122070312
 20
-18.21550750732422
 30
-24.82428169250488
 10
1000.000122070312
 20
-19.22977256774902
 30
-23.45371246337891
 10
1000.000122070312
 20
-20.30381774902344
 30
-22.13476943969727
 10
1000.000122070312
 20
-21.4395866394043
 30
-20.86552047729492
 10
1000.000122070312
 20
-22.63398361206055
 30
-19.64871215820312
 10
1000.000122070312
 20
-23.88042831420898
 30
-18.4913215637207
 10
1000.000122070312
 20
-25.18111801147461
 30
-17.39169692993164
 10
1000.000122070312
 20
-26.53260040283203
 30
-16.35213279724121
 10
1000.000122070312
 20
-27.92690467834473
 30
-15.37890815734863
 10
1000.000122070312
 20
-29.36367416381836
 30
-14.47230720520019
 10
1000.000122070312
 20
-30.84478950500488
 30
-13.63084602355957
 10
1000.000122070312
 20
-31.98334121704102
 30
-13.04046440124511
 10
1000.000122070312
 20
-34.00507736206055
 30
-12.08630275726318
 10
1000.000122070312
 20
-36.0550537109375
 30
-11.2056188583374
 10
1000.000122070312
 20
-38.13373565673828
 30
-10.39825820922851
 10
1000.000122070312
 20
-40.24282836914062
 30
-9.663653373718261
 10
1000.000122070312
 20
-42.37594985961914
 30
-9.003928184509277
 10
1000.000122070312
 20
-44.52961730957031
 30
-8.420394897460937
 10
1000.000122070312
 20
-46.70493698120117
 30
-7.912567138671875
 10
1000.000122070312
 20
-48.89436340332031
 30
-7.482210159301757
 10
1000.000122070312
 20
-51.09910202026367
 30
-7.129264831542968
 10
1000.000122070312
 20
-53.31544494628906
 30
-6.85409927368164
 10
1000.000122070312
 20
-55.5367431640625
 30
-6.657634735107421
 10
1000.000122070312
 20
-57.76476287841797
 30
-6.539623260498046
 10
1000.000122070312
 20
-60.0
 30
-6.5
 10
1000.000122070312
 20
-60.0
 30
0.0
 10
1000.000122070312
 20
-52.60555267333984
 30
0.0
 10
1000.000122070312
 20
-52.31266021728515
 30
-0.0215682983398438
 10
1000.000122070312
 20
-52.02598571777343
 30
-0.0858249664306641
 10
1000.000122070312
 20
-51.75181579589843
 30
-0.1913776397705078
 10
1000.000122070312
 20
-51.49615097045899
 30
-0.3358993530273437
 10
1000.000122070312
 20
-49.5546989440918
 30
-1.630199432373046
 10
1000.000122070312
 20
-49.34550094604492
 30
-1.736557006835937
 10
1000.000122070312
 20
-49.0
 30
-1.791231155395507
 10
1000.000122070312
 20
-48.65449905395507
 30
-1.736557006835937
 10
1000.000122070312
 20
-48.4453010559082
 30
-1.630199432373046
 10
1000.000122070312
 20
-46.50384902954101
 30
-0.3358993530273437
 10
1000.000122070312
 20
-46.24818420410156
 30
-0.1913776397705078
 10
1000.000122070312
 20
-45.97401428222656
 30
-0.0858249664306641
 10
1000.000122070312
 20
-45.68733978271484
 30
-0.0215682983398438
 10
1000.000122070312
 20
-45.39444732666015
 30
0.0
 10
1000.000122070312
 20
-38.7002067565918
 30
0.0
 10
1000.000122070312
 20
-38.45825958251953
 30
-0.0297222137451172
 10
1000.000122070312
 20
-38.13091278076172
 30
-0.1869640350341797
 10
1000.000122070312
 20
-37.87119674682617
 30
-0.4407901763916016
 10
1000.000122070312
 20
-37.76051330566406
 30
-0.657979965209961
 10
1000.000122070312
 20
-37.20561599731445
 30
-2.182550430297851
 10
1000.000122070312
 20
-37.09783935546875
 30
-2.395427703857421
 10
1000.000122070312
 20
-36.94275665283203
 30
-2.576656341552734
 10
1000.000122070312
 20
-36.74917221069336
 30
-2.716007232666015
 10
1000.000122070312
 20
-36.52801513671875
 30
-2.805572509765625
 10
1000.000122070312
 20
-33.87112426757813
 30
-3.626623153686523
 10
1000.000122070312
 20
-30.41307067871094
 30
-4.962995529174804
 10
1000.000122070312
 20
-27.077392578125
 30
-6.58107566833496
 10
1000.000122070312
 20
-23.88689041137695
 30
-8.469854354858398
 10
1000.000122070312
 20
-20.86395072937012
 30
-10.61607360839843
 10
1000.000122070312
 20
-18.02881050109863
 30
-13.0053653717041
 10
1000.000122070312
 20
-15.40131950378418
 30
-15.62101364135742
 10
1000.000122070312
 20
-12.99937534332275
 30
-18.44517707824707
 10
1000.000122070312
 20
-10.83935737609863
 30
-21.4586181640625
 10
1000.000122070312
 20
-8.936363220214843
 30
-24.64025115966797
 10
1000.000122070312
 20
-7.303129196166992
 30
-27.96877670288086
 10
1000.000122070312
 20
-5.951122283935546
 30
-31.42084884643555
 10
1000.000122070312
 20
-4.889532089233398
 30
-34.97286605834961
 10
1000.000122070312
 20
-4.278985977172851
 30
-37.68575668334961
 10
1000.000122070312
 20
-4.152034759521484
 30
-38.00459671020508
 10
1000.000122070312
 20
-3.783853530883789
 30
-38.35223007202149
 10
1000.000122070312
 20
-3.296390533447265
 30
-38.5
 10
1000.000122070312
 20
-2.765365600585937
 30
-38.51847076416016
 10
1000.000122070312
 20
-1.855487823486328
 30
-38.73690414428711
 10
1000.000122070312
 20
-1.05765151977539
 30
-39.225830078125
 10
1000.000122070312
 20
-0.4499664306640625
 30
-39.93735504150391
 10
1000.000122070312
 20
-0.0918979644775391
 30
-40.80181121826171
 10
1000.000122070312
 20
0.0
 30
-41.5
 10
1000.000122070312
 20
0.0
 30
-48.54843902587891
 10
1000.000122070312
 20
-0.0283946990966797
 30
-48.88420867919922
 10
1000.000122070312
 20
-0.1127433776855469
 30
-49.21045303344726
 10
1000.000122070312
 20
-0.2506809234619141
 30
-49.51789474487305
 10
1000.000122070312
 20
-0.4382610321044922
 30
-49.79782867431641
 10
1000.000122070312
 20
-1.500244140625
 30
-51.12530517578125
 10
1000.000122070312
 20
-1.638555526733398
 30
-51.35617446899414
 10
1000.000122070312
 20
-1.710275650024414
 30
-51.75
 10
1000.000122070312
 20
-1.638555526733398
 30
-52.14382553100586
 10
1000.000122070312
 20
-1.500244140625
 30
-52.37469482421875
 10
1000.000122070312
 20
-0.4382610321044922
 30
-53.7021713256836
 10
1000.000122070312
 20
-0.2506809234619141
 30
-53.98210525512695
 10
1000.000122070312
 20
-0.1127433776855469
 30
-54.28954696655273
 10
1000.000122070312
 20
-0.0283946990966797
 30
-54.61579132080078
 10
1000.000122070312
 20
0.0
 30
-54.9515609741211
 10
1000.000122070312
 20
0.0
 30
-65.0
 10
1000.000122070312
 20
-7.0
 30
-65.0
 93
     1240
 90
        4
 90
        6
 90
        7
 90
      218
 90
      219
 90
        4
 90
        7
 90
        8
 90
      217
 90
      218
 90
        4
 90
        8
 90
        9
 90
      216
 90
      217
 90
        4
 90
        9
 90
       10
 90
      215
 90
      216
 90
        4
 90
       10
 90
       11
 90
      214
 90
      215
 90
        4
 90
       11
 90
       12
 90
      213
 90
      214
 90
        4
 90
       12
 90
       13
 90
      212
 90
      213
 90
        4
 90
       13
 90
       14
 90
      211
 90
      212
 90
        4
 90
       14
 90
       15
 90
      210
 90
      211
 90
        4
 90
       15
 90
       16
 90
      209
 90
      210
 90
        4
 90
       16
 90
       17
 90
      208
 90
      209
 90
        4
 90
       17
 90
       18
 90
      207
 90
      208
 90
        4
 90
       18
 90
       19
 90
      206
 90
      207
 90
        4
 90
       19
 90
       20
 90
      205
 90
      206
 90
        4
 90
       20
 90
       21
 90
      204
 90
      205
 90
        4
 90
       21
 90
       22
 90
      203
 90
      204
 90
        4
 90
       22
 90
       23
 90
      202
 90
      203
 90
        4
 90
       23
 90
       24
 90
      201
 90
      202
 90
        4
 90
       24
 90
       25
 90
      200
 90
      201
 90
        4
 90
       25
 90
       26
 90
      199
 90
      200
 90
        4
 90
       26
 90
       27
 90
      198
 90
      199
 90
        4
 90
       27
 90
       28
 90
      197
 90
      198
 90
        4
 90
       28
 90
       29
 90
      196
 90
      197
 90
        4
 90
       29
 90
       30
 90
      195
 90
      196
 90
        4
 90
       30
 90
       31
 90
      194
 90
      195
 90
        4
 90
       31
 90
       32
 90
      193
 90
      194
 90
        4
 90
       32
 90
       33
 90
      192
 90
      193
 90
        4
 90
       33
 90
       34
 90
      191
 90
      192
 90
        4
 90
       34
 90
       35
 90
      190
 90
      191
 90
        4
 90
       35
 90
       36
 90
      189
 90
      190
 90
        4
 90
       36
 90
       37
 90
      188
 90
      189
 90
        4
 90
       37
 90
       38
 90
      187
 90
      188
 90
        4
 90
       38
 90
       39
 90
      186
 90
      187
 90
        4
 90
       39
 90
       40
 90
      185
 90
      186
 90
        4
 90
       40
 90
       41
 90
      184
 90
      185
 90
        4
 90
       41
 90
       42
 90
      183
 90
      184
 90
        4
 90
       42
 90
       43
 90
      182
 90
      183
 90
        4
 90
       43
 90
       44
 90
      181
 90
      182
 90
        4
 90
       44
 90
       45
 90
      180
 90
      181
 90
        4
 90
       45
 90
       46
 90
      179
 90
      180
 90
        4
 90
       46
 90
       47
 90
      178
 90
      179
 90
        4
 90
       47
 90
       48
 90
      177
 90
      178
 90
        4
 90
       48
 90
       49
 90
      176
 90
      177
 90
        4
 90
       49
 90
       50
 90
      175
 90
      176
 90
        4
 90
       50
 90
       51
 90
      174
 90
      175
 90
        4
 90
       51
 90
       52
 90
      173
 90
      174
 90
        4
 90
       52
 90
       53
 90
      172
 90
      173
 90
        4
 90
       53
 90
       54
 90
      171
 90
      172
 90
        4
 90
       54
 90
       55
 90
      170
 90
      171
 90
        4
 90
       55
 90
       56
 90
      169
 90
      170
 90
        4
 90
       56
 90
       57
 90
      168
 90
      169
 90
        4
 90
       57
 90
       58
 90
      167
 90
      168
 90
        4
 90
       58
 90
       59
 90
      166
 90
      167
 90
        4
 90
       59
 90
       60
 90
      165
 90
      166
 90
        4
 90
       60
 90
       61
 90
      164
 90
      165
 90
        4
 90
       61
 90
       62
 90
      163
 90
      164
 90
        4
 90
       62
 90
       63
 90
      162
 90
      163
 90
        4
 90
       63
 90
       64
 90
      161
 90
      162
 90
        4
 90
       64
 90
       65
 90
      160
 90
      161
 90
        4
 90
       65
 90
       66
 90
      159
 90
      160
 90
        4
 90
       66
 90
       67
 90
      158
 90
      159
 90
        4
 90
       67
 90
       68
 90
      157
 90
      158
 90
        4
 90
       68
 90
       69
 90
      156
 90
      157
 90
        4
 90
       69
 90
       70
 90
      155
 90
      156
 90
        4
 90
       70
 90
       71
 90
      154
 90
      155
 90
        4
 90
       71
 90
       72
 90
      153
 90
      154
 90
        4
 90
       72
 90
       73
 90
      152
 90
      153
 90
        4
 90
       73
 90
       74
 90
      151
 90
      152
 90
        4
 90
       74
 90
       75
 90
      150
 90
      151
 90
        4
 90
       75
 90
       76
 90
      149
 90
      150
 90
        4
 90
       76
 90
       77
 90
      148
 90
      149
 90
        4
 90
       77
 90
       78
 90
      147
 90
      148
 90
        4
 90
       78
 90
       79
 90
      146
 90
      147
 90
        4
 90
       79
 90
       80
 90
      145
 90
      146
 90
        4
 90
       80
 90
       81
 90
      144
 90
      145
 90
        4
 90
       81
 90
       82
 90
      143
 90
      144
 90
        4
 90
       82
 90
       83
 90
      142
 90
      143
 90
        4
 90
       83
 90
       84
 90
      141
 90
      142
 90
        4
 90
       84
 90
       85
 90
      140
 90
      141
 90
        4
 90
       85
 90
       86
 90
      139
 90
      140
 90
        4
 90
       86
 90
       87
 90
      138
 90
      139
 90
        4
 90
       87
 90
       88
 90
      137
 90
      138
 90
        4
 90
       88
 90
       89
 90
      136
 90
      137
 90
        4
 90
       89
 90
       90
 90
      135
 90
      136
 90
        4
 90
       90
 90
       91
 90
      134
 90
      135
 90
        4
 90
       91
 90
       92
 90
      133
 90
      134
 90
        4
 90
       92
 90
       93
 90
      132
 90
      133
 90
        4
 90
       93
 90
       94
 90
      131
 90
      132
 90
        4
 90
       94
 90
       95
 90
      130
 90
      131
 90
        4
 90
       95
 90
       96
 90
      129
 90
      130
 90
        4
 90
       96
 90
       97
 90
      128
 90
      129
 90
        4
 90
       97
 90
       98
 90
      127
 90
      128
 90
        4
 90
       98
 90
       99
 90
      126
 90
      127
 90
        4
 90
       99
 90
      100
 90
      125
 90
      126
 90
        4
 90
      100
 90
      101
 90
      124
 90
      125
 90
        4
 90
      101
 90
      102
 90
      123
 90
      124
 90
        4
 90
      102
 90
      103
 90
      122
 90
      123
 90
        4
 90
      103
 90
      104
 90
      121
 90
      122
 90
        4
 90
      104
 90
      105
 90
      120
 90
      121
 90
        4
 90
      105
 90
      106
 90
      119
 90
      120
 90
        4
 90
      106
 90
      107
 90
      118
 90
      119
 90
        4
 90
      107
 90
      108
 90
      117
 90
      118
 90
        4
 90
      108
 90
      109
 90
      116
 90
      117
 90
        4
 90
      109
 90
        0
 90
      115
 90
      116
 90
        4
 90
        0
 90
        1
 90
      114
 90
      115
 90
        4
 90
        1
 90
        2
 90
      113
 90
      114
 90
        4
 90
        2
 90
        3
 90
      112
 90
      113
 90
        4
 90
        3
 90
        4
 90
      111
 90
      112
 90
        4
 90
        4
 90
        5
 90
      110
 90
      111
 90
        4
 90
        5
 90
        6
 90
      219
 90
      110
 90
        4
 90
        0
 90
       30
 90
       29
 90
        1
 90
        4
 90
       73
 90
       72
 90
       71
 90
       70
 90
        4
 90
       74
 90
       73
 90
       70
 90
       69
 90
        4
 90
       75
 90
       74
 90
       69
 90
       68
 90
        3
 90
       75
 90
       68
 90
       67
 90
        3
 90
       75
 90
       67
 90
       66
 90
        4
 90
       76
 90
       75
 90
       66
 90
       65
 90
        3
 90
       76
 90
       65
 90
       64
 90
        4
 90
       77
 90
       76
 90
       64
 90
       63
 90
        3
 90
       77
 90
       63
 90
       62
 90
        3
 90
       77
 90
       62
 90
       61
 90
        3
 90
       78
 90
       58
 90
       57
 90
        3
 90
       78
 90
       57
 90
       56
 90
        3
 90
       78
 90
       60
 90
       59
 90
        3
 90
       78
 90
       59
 90
       58
 90
        4
 90
       78
 90
       77
 90
       61
 90
       60
 90
        3
 90
       80
 90
       53
 90
       52
 90
        3
 90
       80
 90
       52
 90
       51
 90
        4
 90
       79
 90
       78
 90
       56
 90
       55
 90
        3
 90
       79
 90
       55
 90
       54
 90
        3
 90
       80
 90
       79
 90
       53
 90
        3
 90
       79
 90
       54
 90
       53
 90
        3
 90
       81
 90
       48
 90
       47
 90
        3
 90
       81
 90
       47
 90
       46
 90
        3
 90
       80
 90
       51
 90
       50
 90
        3
 90
       80
 90
       50
 90
       49
 90
        3
 90
       81
 90
       80
 90
       48
 90
        3
 90
       80
 90
       49
 90
       48
 90
        3
 90
       83
 90
       82
 90
       45
 90
        4
 90
       82
 90
       81
 90
       46
 90
       45
 90
        3
 90
       85
 90
       84
 90
       44
 90
        4
 90
       84
 90
       83
 90
       45
 90
       44
 90
        3
 90
       87
 90
       86
 90
       43
 90
        4
 90
       86
 90
       85
 90
       44
 90
       43
 90
        3
 90
       89
 90
       88
 90
       42
 90
        4
 90
       88
 90
       87
 90
       43
 90
       42
 90
        3
 90
       91
 90
       90
 90
       41
 90
        4
 90
       90
 90
       89
 90
       42
 90
       41
 90
        3
 90
       93
 90
       92
 90
       40
 90
        4
 90
       92
 90
       91
 90
       41
 90
       40
 90
        3
 90
       95
 90
       94
 90
       39
 90
        4
 90
       94
 90
       93
 90
       40
 90
       39
 90
        3
 90
       97
 90
       96
 90
       38
 90
        4
 90
       96
 90
       95
 90
       39
 90
       38
 90
        3
 90
       99
 90
       98
 90
       37
 90
        4
 90
       98
 90
       97
 90
       38
 90
       37
 90
        3
 90
      101
 90
      100
 90
       36
 90
        4
 90
      100
 90
       99
 90
       37
 90
       36
 90
        3
 90
      103
 90
      102
 90
       35
 90
        4
 90
      102
 90
      101
 90
       36
 90
       35
 90
        3
 90
      105
 90
      104
 90
       34
 90
        4
 90
      104
 90
      103
 90
       35
 90
       34
 90
        3
 90
      107
 90
      106
 90
       33
 90
        4
 90
      106
 90
      105
 90
       34
 90
       33
 90
        3
 90
       23
 90
       22
 90
        5
 90
        4
 90
      108
 90
      107
 90
       33
 90
       32
 90
        4
 90
      109
 90
      108
 90
       32
 90
       31
 90
        4
 90
       24
 90
       23
 90
        5
 90
        4
 90
        4
 90
       25
 90
       24
 90
        4
 90
        3
 90
        4
 90
        0
 90
      109
 90
       31
 90
       30
 90
        4
 90
       26
 90
       25
 90
        3
 90
        2
 90
        3
 90
       28
 90
       27
 90
        1
 90
        4
 90
       27
 90
       26
 90
        2
 90
        1
 90
        3
 90
       29
 90
       28
 90
        1
 90
        3
 90
        9
 90
        8
 90
        6
 90
        3
 90
        8
 90
        7
 90
        6
 90
        3
 90
       11
 90
       10
 90
        6
 90
        3
 90
       10
 90
        9
 90
        6
 90
        3
 90
       21
 90
       20
 90
        5
 90
        3
 90
        5
 90
       22
 90
       21
 90
        3
 90
       19
 90
       18
 90
        5
 90
        3
 90
       20
 90
       19
 90
        5
 90
        3
 90
       17
 90
       16
 90
        5
 90
        3
 90
       18
 90
       17
 90
        5
 90
        3
 90
       13
 90
       12
 90
        6
 90
        3
 90
       12
 90
       11
 90
        6
 90
        3
 90
       16
 90
       15
 90
        5
 90
        4
 90
       15
 90
       14
 90
        6
 90
        5
 90
        3
 90
       14
 90
       13
 90
        6
 90
        4
 90
      115
 90
      114
 90
      196
 90
      195
 90
        4
 90
      152
 90
      155
 90
      154
 90
      153
 90
        4
 90
      151
 90
      156
 90
      155
 90
      152
 90
        4
 90
      150
 90
      157
 90
      156
 90
      151
 90
        3
 90
      150
 90
      158
 90
      157
 90
        3
 90
      150
 90
      159
 90
      158
 90
        4
 90
      149
 90
      160
 90
      159
 90
      150
 90
        3
 90
      149
 90
      161
 90
      160
 90
        4
 90
      148
 90
      162
 90
      161
 90
      149
 90
        3
 90
      148
 90
      163
 90
      162
 90
        3
 90
      148
 90
      164
 90
      163
 90
        3
 90
      147
 90
      168
 90
      167
 90
        3
 90
      147
 90
      169
 90
      168
 90
        3
 90
      147
 90
      166
 90
      165
 90
        3
 90
      147
 90
      167
 90
      166
 90
        4
 90
      147
 90
      165
 90
      164
 90
      148
 90
        3
 90
      145
 90
      173
 90
      172
 90
        3
 90
      145
 90
      174
 90
      173
 90
        4
 90
      146
 90
      170
 90
      169
 90
      147
 90
        3
 90
      146
 90
      171
 90
      170
 90
        3
 90
      145
 90
      172
 90
      146
 90
        3
 90
      146
 90
      172
 90
      171
 90
        3
 90
      144
 90
      178
 90
      177
 90
        3
 90
      144
 90
      179
 90
      178
 90
        3
 90
      145
 90
      175
 90
      174
 90
        3
 90
      145
 90
      176
 90
      175
 90
        3
 90
      144
 90
      177
 90
      145
 90
        3
 90
      145
 90
      177
 90
      176
 90
        3
 90
      142
 90
      180
 90
      143
 90
        4
 90
      143
 90
      180
 90
      179
 90
      144
 90
        3
 90
      140
 90
      181
 90
      141
 90
        4
 90
      141
 90
      181
 90
      180
 90
      142
 90
        3
 90
      138
 90
      182
 90
      139
 90
        4
 90
      139
 90
      182
 90
      181
 90
      140
 90
        3
 90
      136
 90
      183
 90
      137
 90
        4
 90
      137
 90
      183
 90
      182
 90
      138
 90
        3
 90
      134
 90
      184
 90
      135
 90
        4
 90
      135
 90
      184
 90
      183
 90
      136
 90
        3
 90
      132
 90
      185
 90
      133
 90
        4
 90
      133
 90
      185
 90
      184
 90
      134
 90
        3
 90
      130
 90
      186
 90
      131
 90
        4
 90
      131
 90
      186
 90
      185
 90
      132
 90
        3
 90
      128
 90
      187
 90
      129
 90
        4
 90
      129
 90
      187
 90
      186
 90
      130
 90
        3
 90
      126
 90
      188
 90
      127
 90
        4
 90
      127
 90
      188
 90
      187
 90
      128
 90
        3
 90
      124
 90
      189
 90
      125
 90
        4
 90
      125
 90
      189
 90
      188
 90
      126
 90
        3
 90
      122
 90
      190
 90
      123
 90
        4
 90
      123
 90
      190
 90
      189
 90
      124
 90
        3
 90
      120
 90
      191
 90
      121
 90
        4
 90
      121
 90
      191
 90
      190
 90
      122
 90
        3
 90
      118
 90
      192
 90
      119
 90
        4
 90
      119
 90
      192
 90
      191
 90
      120
 90
        3
 90
      202
 90
      110
 90
      203
 90
        4
 90
      117
 90
      193
 90
      192
 90
      118
 90
        4
 90
      116
 90
      194
 90
      193
 90
      117
 90
        4
 90
      201
 90
      111
 90
      110
 90
      202
 90
        4
 90
      200
 90
      112
 90
      111
 90
      201
 90
        4
 90
      115
 90
      195
 90
      194
 90
      116
 90
        4
 90
      199
 90
      113
 90
      112
 90
      200
 90
        3
 90
      197
 90
      114
 90
      198
 90
        4
 90
      198
 90
      114
 90
      113
 90
      199
 90
        3
 90
      196
 90
      114
 90
      197
 90
        3
 90
      216
 90
      219
 90
      217
 90
        3
 90
      217
 90
      219
 90
      218
 90
        3
 90
      214
 90
      219
 90
      215
 90
        3
 90
      215
 90
      219
 90
      216
 90
        3
 90
      204
 90
      110
 90
      205
 90
        3
 90
      110
 90
      204
 90
      203
 90
        3
 90
      206
 90
      110
 90
      207
 90
        3
 90
      205
 90
      110
 90
      206
 90
        3
 90
      208
 90
      110
 90
      209
 90
        3
 90
      207
 90
      110
 90
      208
 90
        3
 90
      212
 90
      219
 90
      213
 90
        3
 90
      213
 90
      219
 90
      214
 90
        3
 90
      209
 90
      110
 90
      210
 90
        4
 90
      210
 90
      110
 90
      219
 90
      211
 90
        3
 90
      211
 90
      219
 90
      212
 94
      486
 90
        6
 90
        7
 90
        7
 90
      218
 90
      218
 90
      219
 90
        6
 90
      219
 90
        7
 90
        8
 90
        8
 90
      217
 90
      217
 90
      218
 90
        8
 90
        9
 90
        9
 90
      216
 90
      216
 90
      217
 90
        9
 90
       10
 90
       10
 90
      215
 90
      215
 90
      216
 90
       10
 90
       11
 90
       11
 90
      214
 90
      214
 90
      215
 90
       11
 90
       12
 90
       12
 90
      213
 90
      213
 90
      214
 90
       12
 90
       13
 90
       13
 90
      212
 90
      212
 90
      213
 90
       13
 90
       14
 90
       14
 90
      211
 90
      211
 90
      212
 90
       14
 90
       15
 90
       15
 90
      210
 90
      210
 90
      211
 90
       15
 90
       16
 90
       16
 90
      209
 90
      209
 90
      210
 90
       16
 90
       17
 90
       17
 90
      208
 90
      208
 90
      209
 90
       17
 90
       18
 90
       18
 90
      207
 90
      207
 90
      208
 90
       18
 90
       19
 90
       19
 90
      206
 90
      206
 90
      207
 90
       19
 90
       20
 90
       20
 90
      205
 90
      205
 90
      206
 90
       20
 90
       21
 90
       21
 90
      204
 90
      204
 90
      205
 90
       21
 90
       22
 90
       22
 90
      203
 90
      203
 90
      204
 90
       22
 90
       23
 90
       23
 90
      202
 90
      202
 90
      203
 90
       23
 90
       24
 90
       24
 90
      201
 90
      201
 90
      202
 90
       24
 90
       25
 90
       25
 90
      200
 90
      200
 90
      201
 90
       25
 90
       26
 90
       26
 90
      199
 90
      199
 90
      200
 90
       26
 90
       27
 90
       27
 90
      198
 90
      198
 90
      199
 90
       27
 90
       28
 90
       28
 90
      197
 90
      197
 90
      198
 90
       28
 90
       29
 90
       29
 90
      196
 90
      196
 90
      197
 90
       29
 90
       30
 90
       30
 90
      195
 90
      195
 90
      196
 90
       30
 90
       31
 90
       31
 90
      194
 90
      194
 90
      195
 90
       31
 90
       32
 90
       32
 90
      193
 90
      193
 90
      194
 90
       32
 90
       33
 90
       33
 90
      192
 90
      192
 90
      193
 90
       33
 90
       34
 90
       34
 90
      191
 90
      191
 90
      192
 90
       34
 90
       35
 90
       35
 90
      190
 90
      190
 90
      191
 90
       35
 90
       36
 90
       36
 90
      189
 90
      189
 90
      190
 90
       36
 90
       37
 90
       37
 90
      188
 90
      188
 90
      189
 90
       37
 90
       38
 90
       38
 90
      187
 90
      187
 90
      188
 90
       38
 90
       39
 90
       39
 90
      186
 90
      186
 90
      187
 90
       39
 90
       40
 90
       40
 90
      185
 90
      185
 90
      186
 90
       40
 90
       41
 90
       41
 90
      184
 90
      184
 90
      185
 90
       41
 90
       42
 90
       42
 90
      183
 90
      183
 90
      184
 90
       42
 90
       43
 90
       43
 90
      182
 90
      182
 90
      183
 90
       43
 90
       44
 90
       44
 90
      181
 90
      181
 90
      182
 90
       44
 90
       45
 90
       45
 90
      180
 90
      180
 90
      181
 90
       45
 90
       46
 90
       46
 90
      179
 90
      179
 90
      180
 90
       46
 90
       47
 90
       47
 90
      178
 90
      178
 90
      179
 90
       47
 90
       48
 90
       48
 90
      177
 90
      177
 90
      178
 90
       48
 90
       49
 90
       49
 90
      176
 90
      176
 90
      177
 90
       49
 90
       50
 90
       50
 90
      175
 90
      175
 90
      176
 90
       50
 90
       51
 90
       51
 90
      174
 90
      174
 90
      175
 90
       51
 90
       52
 90
       52
 90
      173
 90
      173
 90
      174
 90
       52
 90
       53
 90
       53
 90
      172
 90
      172
 90
      173
 90
       53
 90
       54
 90
       54
 90
      171
 90
      171
 90
      172
 90
       54
 90
       55
 90
       55
 90
      170
 90
      170
 90
      171
 90
       55
 90
       56
 90
       56
 90
      169
 90
      169
 90
      170
 90
       56
 90
       57
 90
       57
 90
      168
 90
      168
 90
      169
 90
       57
 90
       58
 90
       58
 90
      167
 90
      167
 90
      168
 90
       58
 90
       59
 90
       59
 90
      166
 90
      166
 90
      167
 90
       59
 90
       60
 90
       60
 90
      165
 90
      165
 90
      166
 90
       60
 90
       61
 90
       61
 90
      164
 90
      164
 90
      165
 90
       61
 90
       62
 90
       62
 90
      163
 90
      163
 90
      164
 90
       62
 90
       63
 90
       63
 90
      162
 90
      162
 90
      163
 90
       63
 90
       64
 90
       64
 90
      161
 90
      161
 90
      162
 90
       64
 90
       65
 90
       65
 90
      160
 90
      160
 90
      161
 90
       65
 90
       66
 90
       66
 90
      159
 90
      159
 90
      160
 90
       66
 90
       67
 90
       67
 90
      158
 90
      158
 90
      159
 90
       67
 90
       68
 90
       68
 90
      157
 90
      157
 90
      158
 90
       68
 90
       69
 90
       69
 90
      156
 90
      156
 90
      157
 90
       69
 90
       70
 90
       70
 90
      155
 90
      155
 90
      156
 90
       70
 90
       71
 90
       71
 90
      154
 90
      154
 90
      155
 90
       71
 90
       72
 90
       72
 90
      153
 90
      153
 90
      154
 90
       72
 90
       73
 90
       73
 90
      152
 90
      152
 90
      153
 90
       73
 90
       74
 90
       74
 90
      151
 90
      151
 90
      152
 90
       74
 90
       75
 90
       75
 90
      150
 90
      150
 90
      151
 90
       75
 90
       76
 90
       76
 90
      149
 90
      149
 90
      150
 90
       76
 90
       77
 90
       77
 90
      148
 90
      148
 90
      149
 90
       77
 90
       78
 90
       78
 90
      147
 90
      147
 90
      148
 90
       78
 90
       79
 90
       79
 90
      146
 90
      146
 90
      147
 90
       79
 90
       80
 90
       80
 90
      145
 90
      145
 90
      146
 90
       80
 90
       81
 90
       81
 90
      144
 90
      144
 90
      145
 90
       81
 90
       82
 90
       82
 90
      143
 90
      143
 90
      144
 90
       82
 90
       83
 90
       83
 90
      142
 90
      142
 90
      143
 90
       83
 90
       84
 90
       84
 90
      141
 90
      141
 90
      142
 90
       84
 90
       85
 90
       85
 90
      140
 90
      140
 90
      141
 90
       85
 90
       86
 90
       86
 90
      139
 90
      139
 90
      140
 90
       86
 90
       87
 90
       87
 90
      138
 90
      138
 90
      139
 90
       87
 90
       88
 90
       88
 90
      137
 90
      137
 90
      138
 90
       88
 90
       89
 90
       89
 90
      136
 90
      136
 90
      137
 90
       89
 90
       90
 90
       90
 90
      135
 90
      135
 90
      136
 90
       90
 90
       91
 90
       91
 90
      134
 90
      134
 90
      135
 90
       91
 90
       92
 90
       92
 90
      133
 90
      133
 90
      134
 90
       92
 90
       93
 90
       93
 90
      132
 90
      132
 90
      133
 90
       93
 90
       94
 90
       94
 90
      131
 90
      131
 90
      132
 90
       94
 90
       95
 90
       95
 90
      130
 90
      130
 90
      131
 90
       95
 90
       96
 90
       96
 90
      129
 90
      129
 90
      130
 90
       96
 90
       97
 90
       97
 90
      128
 90
      128
 90
      129
 90
       97
 90
       98
 90
       98
 90
      127
 90
      127
 90
      128
 90
       98
 90
       99
 90
       99
 90
      126
 90
      126
 90
      127
 90
       99
 90
      100
 90
      100
 90
      125
 90
      125
 90
      126
 90
      100
 90
      101
 90
      101
 90
      124
 90
      124
 90
      125
 90
      101
 90
      102
 90
      102
 90
      123
 90
      123
 90
      124
 90
      102
 90
      103
 90
      103
 90
      122
 90
      122
 90
      123
 90
      103
 90
      104
 90
      104
 90
      121
 90
      121
 90
      122
 90
      104
 90
      105
 90
      105
 90
      120
 90
      120
 90
      121
 90
      105
 90
      106
 90
      106
 90
      119
 90
      119
 90
      120
 90
      106
 90
      107
 90
      107
 90
      118
 90
      118
 90
      119
 90
      107
 90
      108
 90
      108
 90
      117
 90
      117
 90
      118
 90
      108
 90
      109
 90
      109
 90
      116
 90
      116
 90
      117
 90
        0
 90
      109
 90
        0
 90
      115
 90
      115
 90
      116
 90
        0
 90
        1
 90
        1
 90
      114
 90
      114
 90
      115
 90
        1
 90
        2
 90
        2
 90
      113
 90
      113
 90
      114
 90
        2
 90
        3
 90
        3
 90
      112
 90
      112
 90
      113
 90
        3
 90
        4
 90
        4
 90
      111
 90
      111
 90
      112
 90
        4
 90
        5
 90
        5
 90
      110
 90
      110
 90
      111
 90
        5
 90
        6
 90
      110
 90
      219
 90
        0
 90
       30
 90
        1
 90
       29
 90
       70
 90
       73
 90
       69
 90
       74
 90
       68
 90
       75
 90
       67
 90
       75
 90
       66
 90
       75
 90
       65
 90
       76
 90
       64
 90
       76
 90
       63
 90
       77
 90
       62
 90
       77
 90
       61
 90
       77
 90
       58
 90
       78
 90
       57
 90
       78
 90
       56
 90
       78
 90
       60
 90
       78
 90
       59
 90
       78
 90
       53
 90
       80
 90
       52
 90
       80
 90
       51
 90
       80
 90
       55
 90
       79
 90
       54
 90
       79
 90
       53
 90
       79
 90
       48
 90
       81
 90
       47
 90
       81
 90
       46
 90
       81
 90
       50
 90
       80
 90
       49
 90
       80
 90
       48
 90
       80
 90
       45
 90
       82
 90
       45
 90
       83
 90
       44
 90
       84
 90
       44
 90
       85
 90
       43
 90
       86
 90
       43
 90
       87
 90
       42
 90
       88
 90
       42
 90
       89
 90
       41
 90
       90
 90
       41
 90
       91
 90
       40
 90
       92
 90
       40
 90
       93
 90
       39
 90
       94
 90
       39
 90
       95
 90
       38
 90
       96
 90
       38
 90
       97
 90
       37
 90
       98
 90
       37
 90
       99
 90
       36
 90
      100
 90
       36
 90
      101
 90
       35
 90
      102
 90
       35
 90
      103
 90
       34
 90
      104
 90
       34
 90
      105
 90
       33
 90
      106
 90
       33
 90
      107
 90
        5
 90
       22
 90
        5
 90
       23
 90
       32
 90
      108
 90
       31
 90
      109
 90
        4
 90
       24
 90
        3
 90
       25
 90
        2
 90
       26
 90
        1
 90
       27
 90
        1
 90
       28
 90
        6
 90
        8
 90
        6
 90
        9
 90
        6
 90
       10
 90
        6
 90
       11
 90
        5
 90
       20
 90
        5
 90
       21
 90
        5
 90
       18
 90
        5
 90
       19
 90
        5
 90
       16
 90
        5
 90
       17
 90
        6
 90
       12
 90
        6
 90
       13
 90
        5
 90
       15
 90
        6
 90
       14
 90
      114
 90
      196
 90
      115
 90
      195
 90
      152
 90
      155
 90
      151
 90
      156
 90
      150
 90
      157
 90
      150
 90
      158
 90
      150
 90
      159
 90
      149
 90
      160
 90
      149
 90
      161
 90
      148
 90
      162
 90
      148
 90
      163
 90
      148
 90
      164
 90
      147
 90
      168
 90
      147
 90
      167
 90
      147
 90
      169
 90
      147
 90
      166
 90
      147
 90
      165
 90
      145
 90
      173
 90
      145
 90
      172
 90
      145
 90
      174
 90
      146
 90
      170
 90
      146
 90
      171
 90
      146
 90
      172
 90
      144
 90
      178
 90
      144
 90
      177
 90
      144
 90
      179
 90
      145
 90
      175
 90
      145
 90
      176
 90
      145
 90
      177
 90
      142
 90
      180
 90
      143
 90
      180
 90
      140
 90
      181
 90
      141
 90
      181
 90
      138
 90
      182
 90
      139
 90
      182
 90
      136
 90
      183
 90
      137
 90
      183
 90
      134
 90
      184
 90
      135
 90
      184
 90
      132
 90
      185
 90
      133
 90
      185
 90
      130
 90
      186
 90
      131
 90
      186
 90
      128
 90
      187
 90
      129
 90
      187
 90
      126
 90
      188
 90
      127
 90
      188
 90
      124
 90
      189
 90
      125
 90
      189
 90
      122
 90
      190
 90
      123
 90
      190
 90
      120
 90
      191
 90
      121
 90
      191
 90
      118
 90
      192
 90
      119
 90
      192
 90
      110
 90
      202
 90
      110
 90
      203
 90
      117
 90
      193
 90
      116
 90
      194
 90
      111
 90
      201
 90
      112
 90
      200
 90
      113
 90
      199
 90
      114
 90
      197
 90
      114
 90
      198
 90
      216
 90
      219
 90
      217
 90
      219
 90
      214
 90
      219
 90
      215
 90
      219
 90
      110
 90
      204
 90
      110
 90
      205
 90
      110
 90
      206
 90
      110
 90
      207
 90
      110
 90
      208
 90
      110
 90
      209
 90
      212
 90
      219
 90
      213
 90
      219
 90
      110
 90
      210
 90
      211
 90
      219
 95
      486
140
0.0
140
0.0
140
0.0
140
0.0
140
0.0
140
0.0
140
0.0
140
0.0
140
0.0
140
0.0
140
0.0
140
0.0
140
0.0
140
0.0
140
0.0
140
0.0
140
0.0
140
0.0
140
0.0
140
0.0
140
0.0
140
0.0
140
0.0
140
0.0
140
0.0
140
0.0
140
0.0
140
0.0
140
0.0
140
0.0
140
0.0
140
0.0
140
0.0
140
0.0
140
0.0
140
0.0
140
0.0
140
0.0
140
0.0
140
0.0
140
0.0
140
0.0
140
0.0
140
0.0
140
0.0
140
0.0
140
0.0
140
0.0
140
0.0
140
0.0
140
0.0
140
0.0
140
0.0
140
0.0
140
0.0
140
0.0
140
0.0
140
0.0
140
0.0
140
0.0
140
0.0
140
0.0
140
0.0
140
0.0
140
0.0
140
0.0
140
0.0
140
0.0
140
0.0
140
0.0
140
0.0
140
0.0
140
0.0
140
0.0
140
0.0
140
0.0
140
0.0
140
0.0
140
0.0
140
0.0
140
0.0
140
0.0
140
0.0
140
0.0
140
0.0
140
0.0
140
0.0
140
0.0
140
0.0
140
0.0
140
0.0
140
0.0
140
0.0
140
0.0
140
0.0
140
0.0
140
0.0
140
0.0
140
0.0
140
0.0
140
0.0
140
0.0
140
0.0
140
0.0
140
0.0
140
0.0
140
0.0
140
0.0
140
0.0
140
0.0
140
0.0
140
0.0
140
0.0
140
0.0
140
0.0
140
0.0
140
0.0
140
0.0
140
0.0
140
0.0
140
0.0
140
0.0
140
0.0
140
0.0
140
0.0
140
0.0
140
0.0
140
0.0
140
0.0
140
0.0
140
0.0
140
0.0
140
0.0
140
0.0
140
0.0
140
0.0
140
0.0
140
0.0
140
0.0
140
0.0
140
0.0
140
0.0
140
0.0
140
0.0
140
0.0
140
0.0
140
0.0
140
0.0
140
0.0
140
0.0
140
0.0
140
0.0
140
0.0
140
0.0
140
0.0
140
0.0
140
0.0
140
0.0
140
0.0
140
0.0
140
0.0
140
0.0
140
0.0
140
0.0
140
0.0
140
0.0
140
0.0
140
0.0
140
0.0
140
0.0
140
0.0
140
0.0
140
0.0
140
0.0
140
0.0
140
0.0
140
0.0
140
0.0
140
0.0
140
0.0
140
0.0
140
0.0
140
0.0
140
0.0
140
0.0
140
0.0
140
0.0
140
0.0
140
0.0
140
0.0
140
0.0
140
0.0
140
0.0
140
0.0
140
0.0
140
0.0
140
0.0
140
0.0
140
0.0
140
0.0
140
0.0
140
0.0
140
0.0
140
0.0
140
0.0
140
0.0
140
0.0
140
0.0
140
0.0
140
0.0
140
0.0
140
0.0
140
0.0
140
0.0
140
0.0
140
0.0
140
0.0
140
0.0
140
0.0
140
0.0
140
0.0
140
0.0
140
0.0
140
0.0
140
0.0
140
0.0
140
0.0
140
0.0
140
0.0
140
0.0
140
0.0
140
0.0
140
0.0
140
0.0
140
0.0
140
0.0
140
0.0
140
0.0
140
0.0
140
0.0
140
0.0
140
0.0
140
0.0
140
0.0
140
0.0
140
0.0
140
0.0
140
0.0
140
0.0
140
0.0
140
0.0
140
0.0
140
0.0
140
0.0
140
0.0
140
0.0
140
0.0
140
0.0
140
0.0
140
0.0
140
0.0
140
0.0
140
0.0
140
0.0
140
0.0
140
0.0
140
0.0
140
0.0
140
0.0
140
0.0
140
0.0
140
0.0
140
0.0
140
0.0
140
0.0
140
0.0
140
0.0
140
0.0
140
0.0
140
0.0
140
0.0
140
0.0
140
0.0
140
0.0
140
0.0
140
0.0
140
0.0
140
0.0
140
0.0
140
0.0
140
0.0
140
0.0
140
0.0
140
0.0
140
0.0
140
0.0
140
0.0
140
0.0
140
0.0
140
0.0
140
0.0
140
0.0
140
0.0
140
0.0
140
0.0
140
0.0
140
0.0
140
0.0
140
0.0
140
0.0
140
0.0
140
0.0
140
0.0
140
0.0
140
0.0
140
0.0
140
0.0
140
0.0
140
0.0
140
0.0
140
0.0
140
0.0
140
0.0
140
0.0
140
0.0
140
0.0
140
0.0
140
0.0
140
0.0
140
0.0
140
0.0
140
0.0
140
0.0
140
0.0
140
0.0
140
0.0
140
0.0
140
0.0
140
0.0
140
0.0
140
0.0
140
0.0
140
0.0
140
0.0
140
0.0
140
0.0
140
0.0
140
0.0
140
0.0
140
0.0
140
0.0
140
0.0
140
0.0
140
0.0
140
0.0
140
0.0
140
0.0
140
0.0
140
0.0
140
0.0
140
0.0
140
0.0
140
0.0
140
0.0
140
0.0
140
0.0
140
0.0
140
0.0
140
0.0
140
0.0
140
0.0
140
0.0
140
0.0
140
0.0
140
0.0
140
0.0
140
0.0
140
0.0
140
0.0
140
0.0
140
0.0
140
0.0
140
0.0
140
0.0
140
0.0
140
0.0
140
0.0
140
0.0
140
0.0
140
0.0
140
0.0
140
0.0
140
0.0
140
0.0
140
0.0
140
0.0
140
0.0
140
0.0
140
0.0
140
0.0
140
0.0
140
0.0
140
0.0
140
0.0
140
0.0
140
0.0
140
0.0
140
0.0
140
0.0
140
0.0
140
0.0
140
0.0
140
0.0
140
0.0
140
0.0
140
0.0
140
0.0
140
0.0
140
0.0
140
0.0
140
0.0
140
0.0
140
0.0
140
0.0
140
0.0
140
0.0
140
0.0
140
0.0
140
0.0
140
0.0
140
0.0
140
0.0
140
0.0
140
0.0
140
0.0
140
0.0
140
0.0
140
0.0
140
0.0
140
0.0
140
0.0
140
0.0
140
0.0
140
0.0
140
0.0
140
0.0
140
0.0
140
0.0
140
0.0
140
0.0
140
0.0
140
0.0
140
0.0
140
0.0
140
0.0
140
0.0
140
0.0
140
0.0
140
0.0
140
0.0
140
0.0
140
0.0
140
0.0
140
0.0
140
0.0
140
0.0
140
0.0
140
0.0
140
0.0
140
0.0
140
0.0
140
0.0
140
0.0
140
0.0
140
0.0
140
0.0
140
0.0
140
0.0
140
0.0
140
0.0
140
0.0
140
0.0
140
0.0
140
0.0
140
0.0
140
0.0
 90
        0
  0
POLYLINE
  5
FA
330
1F
100
AcDbEntity
  8
OracDecor_cornice_mouldings
 62
    61
420
 14083494
100
AcDb3dPolyline
 66
     1
 10
0.0
 20
0.0
 30
0.0
 70
     9
  0
VERTEX
  5
FB
330
FA
100
AcDbEntity
  8
OracDecor_cornice_mouldings
 62
    61
420
 14083494
100
AcDbVertex
100
AcDb3dPolylineVertex
 10
0.0000038437096919
 20
11.5
 30
-46.0
 70
    32
  0
VERTEX
  5
FC
330
FA
100
AcDbEntity
  8
OracDecor_cornice_mouldings
 62
    61
420
 14083494
100
AcDbVertex
100
AcDb3dPolylineVertex
 10
0.0000031757344914
 20
7.399999618530273
 30
-46.0
 70
    32
  0
VERTEX
  5
FD
330
FA
100
AcDbEntity
  8
OracDecor_cornice_mouldings
 62
    61
420
 14083494
100
AcDbVertex
100
AcDb3dPolylineVertex
 10
0.0000031521269648
 20
7.246927261352539
 30
-46.03044891357422
 70
    32
  0
VERTEX
  5
FE
330
FA
100
AcDbEntity
  8
OracDecor_cornice_mouldings
 62
    61
420
 14083494
100
AcDbVertex
100
AcDb3dPolylineVertex
 10
0.0000031347747154
 20
7.117156982421875
 30
-46.11715698242187
 70
    32
  0
VERTEX
  5
FF
330
FA
100
AcDbEntity
  8
OracDecor_cornice_mouldings
 62
    61
420
 14083494
100
AcDbVertex
100
AcDb3dPolylineVertex
 10
0.00000312632028
 20
7.030447959899902
 30
-46.24692535400391
 70
    32
  0
VERTEX
  5
100
330
FA
100
AcDbEntity
  8
OracDecor_cornice_mouldings
 62
    61
420
 14083494
100
AcDbVertex
100
AcDb3dPolylineVertex
 10
0.000003128050821
 20
7.0
 30
-46.4000015258789
 70
    32
  0
VERTEX
  5
101
330
FA
100
AcDbEntity
  8
OracDecor_cornice_mouldings
 62
    61
420
 14083494
100
AcDbVertex
100
AcDb3dPolylineVertex
 10
0.0000039410829231
 20
7.0
 30
-65.0
 70
    32
  0
VERTEX
  5
102
330
FA
100
AcDbEntity
  8
OracDecor_cornice_mouldings
 62
    61
420
 14083494
100
AcDbVertex
100
AcDb3dPolylineVertex
 10
0.000002800637958
 20
-0.0000000000004629
 30
-65.0
 70
    32
  0
VERTEX
  5
103
330
FA
100
AcDbEntity
  8
OracDecor_cornice_mouldings
 62
    61
420
 14083494
100
AcDbVertex
100
AcDb3dPolylineVertex
 10
0.0000023614065867
 20
-0.0000000000003913
 30
-54.9515609741211
 70
    32
  0
VERTEX
  5
104
330
FA
100
AcDbEntity
  8
OracDecor_cornice_mouldings
 62
    61
420
 14083494
100
AcDbVertex
100
AcDb3dPolylineVertex
 10
0.0000023513557608
 20
0.0283946990966797
 30
-54.61579132080078
 70
    32
  0
VERTEX
  5
105
330
FA
100
AcDbEntity
  8
OracDecor_cornice_mouldings
 62
    61
420
 14083494
100
AcDbVertex
100
AcDb3dPolylineVertex
 10
0.0000023508373488
 20
0.1127433776855469
 30
-54.28954696655273
 70
    32
  0
VERTEX
  5
106
330
FA
100
AcDbEntity
  8
OracDecor_cornice_mouldings
 62
    61
420
 14083494
100
AcDbVertex
100
AcDb3dPolylineVertex
 10
0.000002359871587
 20
0.2506809234619141
 30
-53.98210525512695
 70
    32
  0
VERTEX
  5
107
330
FA
100
AcDbEntity
  8
OracDecor_cornice_mouldings
 62
    61
420
 14083494
100
AcDbVertex
100
AcDb3dPolylineVertex
 10
0.0000023781963137
 20
0.438262939453125
 30
-53.7021713256836
 70
    32
  0
VERTEX
  5
108
330
FA
100
AcDbEntity
  8
OracDecor_cornice_mouldings
 62
    61
420
 14083494
100
AcDbVertex
100
AcDb3dPolylineVertex
 10
0.0000024931889584
 20
1.500244140625
 30
-52.37469482421875
 70
    32
  0
VERTEX
  5
109
330
FA
100
AcDbEntity
  8
OracDecor_cornice_mouldings
 62
    61
420
 14083494
100
AcDbVertex
100
AcDb3dPolylineVertex
 10
0.0000025056313007
 20
1.638555526733398
 30
-52.14382553100586
 70
    32
  0
VERTEX
  5
10A
330
FA
100
AcDbEntity
  8
OracDecor_cornice_mouldings
 62
    61
420
 14083494
100
AcDbVertex
100
AcDb3dPolylineVertex
 10
0.0000025001011181
 20
1.710275650024414
 30
-51.75
 70
    32
  0
VERTEX
  5
10B
330
FA
100
AcDbEntity
  8
OracDecor_cornice_mouldings
 62
    61
420
 14083494
100
AcDbVertex
100
AcDb3dPolylineVertex
 10
0.000002471201924
 20
1.638555526733398
 30
-51.35617446899414
 70
    32
  0
VERTEX
  5
10C
330
FA
100
AcDbEntity
  8
OracDecor_cornice_mouldings
 62
    61
420
 14083494
100
AcDbVertex
100
AcDb3dPolylineVertex
 10
0.00000243857653
 20
1.500244140625
 30
-51.12530517578125
 70
    32
  0
VERTEX
  5
10D
330
FA
100
AcDbEntity
  8
OracDecor_cornice_mouldings
 62
    61
420
 14083494
100
AcDbVertex
100
AcDb3dPolylineVertex
 10
0.000002207532134
 20
0.438262939453125
 30
-49.79782867431641
 70
    32
  0
VERTEX
  5
10E
330
FA
100
AcDbEntity
  8
OracDecor_cornice_mouldings
 62
    61
420
 14083494
100
AcDbVertex
100
AcDb3dPolylineVertex
 10
0.0000021647347239
 20
0.2506809234619141
 30
-49.51789474487305
 70
    32
  0
VERTEX
  5
10F
330
FA
100
AcDbEntity
  8
OracDecor_cornice_mouldings
 62
    61
420
 14083494
100
AcDbVertex
100
AcDb3dPolylineVertex
 10
0.0000021288230982
 20
0.1127433776855469
 30
-49.21045303344726
 70
    32
  0
VERTEX
  5
110
330
FA
100
AcDbEntity
  8
OracDecor_cornice_mouldings
 62
    61
420
 14083494
100
AcDbVertex
100
AcDb3dPolylineVertex
 10
0.0000021008204385
 20
0.0283946990966797
 30
-48.88420867919922
 70
    32
  0
VERTEX
  5
111
330
FA
100
AcDbEntity
  8
OracDecor_cornice_mouldings
 62
    61
420
 14083494
100
AcDbVertex
100
AcDb3dPolylineVertex
 10
0.0000020815173229
 20
-0.0000000000003457
 30
-48.54843902587891
 70
    32
  0
VERTEX
  5
112
330
FA
100
AcDbEntity
  8
OracDecor_cornice_mouldings
 62
    61
420
 14083494
100
AcDbVertex
100
AcDb3dPolylineVertex
 10
0.0000017734203084
 20
-0.0000000000002955
 30
-41.5
 70
    32
  0
VERTEX
  5
113
330
FA
100
AcDbEntity
  8
OracDecor_cornice_mouldings
 62
    61
420
 14083494
100
AcDbVertex
100
AcDb3dPolylineVertex
 10
0.0000017578736333
 20
0.0918979644775391
 30
-40.80181121826171
 70
    32
  0
VERTEX
  5
114
330
FA
100
AcDbEntity
  8
OracDecor_cornice_mouldings
 62
    61
420
 14083494
100
AcDbVertex
100
AcDb3dPolylineVertex
 10
0.0000017784236661
 20
0.4499654769897461
 30
-39.93735504150391
 70
    32
  0
VERTEX
  5
115
330
FA
100
AcDbEntity
  8
OracDecor_cornice_mouldings
 62
    61
420
 14083494
100
AcDbVertex
100
AcDb3dPolylineVertex
 10
0.0000018463265405
 20
1.05765151977539
 30
-39.225830078125
 70
    32
  0
VERTEX
  5
116
330
FA
100
AcDbEntity
  8
OracDecor_cornice_mouldings
 62
    61
420
 14083494
100
AcDbVertex
100
AcDb3dPolylineVertex
 10
0.0000019549388526
 20
1.855487823486328
 30
-38.73690414428711
 70
    32
  0
VERTEX
  5
117
330
FA
100
AcDbEntity
  8
OracDecor_cornice_mouldings
 62
    61
420
 14083494
100
AcDbVertex
100
AcDb3dPolylineVertex
 10
0.0000020936288365
 20
2.765365600585937
 30
-38.51847076416016
 70
    32
  0
VERTEX
  5
118
330
FA
100
AcDbEntity
  8
OracDecor_cornice_mouldings
 62
    61
420
 14083494
100
AcDbVertex
100
AcDb3dPolylineVertex
 10
0.0000021793362066
 20
3.296390533447265
 30
-38.5
 70
    32
  0
VERTEX
  5
119
330
FA
100
AcDbEntity
  8
OracDecor_cornice_mouldings
 62
    61
420
 14083494
100
AcDbVertex
100
AcDb3dPolylineVertex
 10
0.0000022313561203
 20
3.63326358795166
 30
-38.43448638916015
 70
    32
  0
VERTEX
  5
11A
330
FA
100
AcDbEntity
  8
OracDecor_cornice_mouldings
 62
    61
420
 14083494
100
AcDbVertex
100
AcDb3dPolylineVertex
 10
0.0000022732338039
 20
3.934444427490234
 30
-38.26997375488281
 70
    32
  0
VERTEX
  5
11B
330
FA
100
AcDbEntity
  8
OracDecor_cornice_mouldings
 62
    61
420
 14083494
100
AcDbVertex
100
AcDb3dPolylineVertex
 10
0.0000022970837108
 20
4.152034759521484
 30
-38.00459671020508
 70
    32
  0
VERTEX
  5
11C
330
FA
100
AcDbEntity
  8
OracDecor_cornice_mouldings
 62
    61
420
 14083494
100
AcDbVertex
100
AcDb3dPolylineVertex
 10
0.0000023038298878
 20
4.278987884521484
 30
-37.68575668334961
 70
    32
  0
VERTEX
  5
11D
330
FA
100
AcDbEntity
  8
OracDecor_cornice_mouldings
 62
    61
420
 14083494
100
AcDbVertex
100
AcDb3dPolylineVertex
 10
0.0000022847159471
 20
4.889531135559082
 30
-34.97286605834961
 70
    32
  0
VERTEX
  5
11E
330
FA
100
AcDbEntity
  8
OracDecor_cornice_mouldings
 62
    61
420
 14083494
100
AcDbVertex
100
AcDb3dPolylineVertex
 10
0.000002302407438
 20
5.951121807098388
 30
-31.42084884643555
 70
    32
  0
VERTEX
  5
11F
330
FA
100
AcDbEntity
  8
OracDecor_cornice_mouldings
 62
    61
420
 14083494
100
AcDbVertex
100
AcDb3dPolylineVertex
 10
0.0000023717823296
 20
7.303129196166992
 30
-27.96877670288086
 70
    32
  0
VERTEX
  5
120
330
FA
100
AcDbEntity
  8
OracDecor_cornice_mouldings
 62
    61
420
 14083494
100
AcDbVertex
100
AcDb3dPolylineVertex
 10
0.0000024923756428
 20
8.936363220214843
 30
-24.64025115966797
 70
    32
  0
VERTEX
  5
121
330
FA
100
AcDbEntity
  8
OracDecor_cornice_mouldings
 62
    61
420
 14083494
100
AcDbVertex
100
AcDb3dPolylineVertex
 10
0.0000026633390462
 20
10.83935737609863
 30
-21.4586181640625
 70
    32
  0
VERTEX
  5
122
330
FA
100
AcDbEntity
  8
OracDecor_cornice_mouldings
 62
    61
420
 14083494
100
AcDbVertex
100
AcDb3dPolylineVertex
 10
0.0000028835290777
 20
12.99937534332275
 30
-18.44517707824707
 70
    32
  0
VERTEX
  5
123
330
FA
100
AcDbEntity
  8
OracDecor_cornice_mouldings
 62
    61
420
 14083494
100
AcDbVertex
100
AcDb3dPolylineVertex
 10
0.0000031514073271
 20
15.40131950378418
 30
-15.62101364135742
 70
    32
  0
VERTEX
  5
124
330
FA
100
AcDbEntity
  8
OracDecor_cornice_mouldings
 62
    61
420
 14083494
100
AcDbVertex
100
AcDb3dPolylineVertex
 10
0.000003465146392
 20
18.02881050109863
 30
-13.0053653717041
 70
    32
  0
VERTEX
  5
125
330
FA
100
AcDbEntity
  8
OracDecor_cornice_mouldings
 62
    61
420
 14083494
100
AcDbVertex
100
AcDb3dPolylineVertex
 10
0.0000038226103243
 20
20.86395072937012
 30
-10.61607360839843
 70
    32
  0
VERTEX
  5
126
330
FA
100
AcDbEntity
  8
OracDecor_cornice_mouldings
 62
    61
420
 14083494
100
AcDbVertex
100
AcDb3dPolylineVertex
 10
-0.0000034080992464
 20
23.88689041137695
 30
-8.469854354858398
 70
    32
  0
VERTEX
  5
127
330
FA
100
AcDbEntity
  8
OracDecor_cornice_mouldings
 62
    61
420
 14083494
100
AcDbVertex
100
AcDb3dPolylineVertex
 10
-0.0000029708614875
 20
27.077392578125
 30
-6.581076622009277
 70
    32
  0
VERTEX
  5
128
330
FA
100
AcDbEntity
  8
OracDecor_cornice_mouldings
 62
    61
420
 14083494
100
AcDbVertex
100
AcDb3dPolylineVertex
 10
-0.0000024981388833
 20
30.41307067871094
 30
-4.962995529174804
 70
    32
  0
VERTEX
  5
129
330
FA
100
AcDbEntity
  8
OracDecor_cornice_mouldings
 62
    61
420
 14083494
100
AcDbVertex
100
AcDb3dPolylineVertex
 10
-0.0000019931651423
 20
33.87112426757813
 30
-3.626624107360839
 70
    32
  0
VERTEX
  5
12A
330
FA
100
AcDbEntity
  8
OracDecor_cornice_mouldings
 62
    61
420
 14083494
100
AcDbVertex
100
AcDb3dPolylineVertex
 10
-0.0000015961920781
 20
36.52801513671875
 30
-2.805572509765625
 70
    32
  0
VERTEX
  5
12B
330
FA
100
AcDbEntity
  8
OracDecor_cornice_mouldings
 62
    61
420
 14083494
100
AcDbVertex
100
AcDb3dPolylineVertex
 10
-0.0000015640760012
 20
36.74917221069336
 30
-2.716007232666015
 70
    32
  0
VERTEX
  5
12C
330
FA
100
AcDbEntity
  8
OracDecor_cornice_mouldings
 62
    61
420
 14083494
100
AcDbVertex
100
AcDb3dPolylineVertex
 10
-0.0000015386283394
 20
36.94275665283203
 30
-2.576656341552734
 70
    32
  0
VERTEX
  5
12D
330
FA
100
AcDbEntity
  8
OracDecor_cornice_mouldings
 62
    61
420
 14083494
100
AcDbVertex
100
AcDb3dPolylineVertex
 10
-0.0000015212842754
 20
37.09783935546875
 30
-2.395427703857421
 70
    32
  0
VERTEX
  5
12E
330
FA
100
AcDbEntity
  8
OracDecor_cornice_mouldings
 62
    61
420
 14083494
100
AcDbVertex
100
AcDb3dPolylineVertex
 10
-0.0000015130301563
 20
37.20561599731445
 30
-2.182550430297851
 70
    32
  0
VERTEX
  5
12F
330
FA
100
AcDbEntity
  8
OracDecor_cornice_mouldings
 62
    61
420
 14083494
100
AcDbVertex
100
AcDb3dPolylineVertex
 10
-0.0000014892668787
 20
37.76051330566406
 30
-0.657979965209961
 70
    32
  0
VERTEX
  5
130
330
FA
100
AcDbEntity
  8
OracDecor_cornice_mouldings
 62
    61
420
 14083494
100
AcDbVertex
100
AcDb3dPolylineVertex
 10
-0.0000014807280877
 20
37.87119674682617
 30
-0.4407901763916016
 70
    32
  0
VERTEX
  5
131
330
FA
100
AcDbEntity
  8
OracDecor_cornice_mouldings
 62
    61
420
 14083494
100
AcDbVertex
100
AcDb3dPolylineVertex
 10
-0.0000014627246401
 20
38.03103637695313
 30
-0.25689697265625
 70
    32
  0
VERTEX
  5
132
330
FA
100
AcDbEntity
  8
OracDecor_cornice_mouldings
 62
    61
420
 14083494
100
AcDbVertex
100
AcDb3dPolylineVertex
 10
-0.0000014362951788
 20
38.23078918457031
 30
-0.1170291900634766
 70
    32
  0
VERTEX
  5
133
330
FA
100
AcDbEntity
  8
OracDecor_cornice_mouldings
 62
    61
420
 14083494
100
AcDbVertex
100
AcDb3dPolylineVertex
 10
-0.0000014030517832
 20
38.45825958251953
 30
-0.0297222137451172
 70
    32
  0
VERTEX
  5
134
330
FA
100
AcDbEntity
  8
OracDecor_cornice_mouldings
 62
    61
420
 14083494
100
AcDbVertex
100
AcDb3dPolylineVertex
 10
-0.0000013649325865
 20
38.7002067565918
 30
0.0000000000001213
 70
    32
  0
VERTEX
  5
135
330
FA
100
AcDbEntity
  8
OracDecor_cornice_mouldings
 62
    61
420
 14083494
100
AcDbVertex
100
AcDb3dPolylineVertex
 10
-0.0000002743024083
 20
45.39444732666015
 30
0.0000000000001213
 70
    32
  0
VERTEX
  5
136
330
FA
100
AcDbEntity
  8
OracDecor_cornice_mouldings
 62
    61
420
 14083494
100
AcDbVertex
100
AcDb3dPolylineVertex
 10
-0.0000002256412586
 20
45.68733978271484
 30
-0.0215682983398438
 70
    32
  0
VERTEX
  5
137
330
FA
100
AcDbEntity
  8
OracDecor_cornice_mouldings
 62
    61
420
 14083494
100
AcDbVertex
100
AcDb3dPolylineVertex
 10
-0.0000001761274575
 20
45.97401428222656
 30
-0.0858249664306641
 70
    32
  0
VERTEX
  5
138
330
FA
100
AcDbEntity
  8
OracDecor_cornice_mouldings
 62
    61
420
 14083494
100
AcDbVertex
100
AcDb3dPolylineVertex
 10
-0.0000001268455776
 20
46.24818420410156
 30
-0.1913776397705078
 70
    32
  0
VERTEX
  5
139
330
FA
100
AcDbEntity
  8
OracDecor_cornice_mouldings
 62
    61
420
 14083494
100
AcDbVertex
100
AcDb3dPolylineVertex
 10
-0.0000000788756438
 20
46.50384902954101
 30
-0.3358993530273437
 70
    32
  0
VERTEX
  5
13A
330
FA
100
AcDbEntity
  8
OracDecor_cornice_mouldings
 62
    61
420
 14083494
100
AcDbVertex
100
AcDb3dPolylineVertex
 10
0.000000294002632
 20
48.4453010559082
 30
-1.630199432373046
 70
    32
  0
VERTEX
  5
13B
330
FA
100
AcDbEntity
  8
OracDecor_cornice_mouldings
 62
    61
420
 14083494
100
AcDbVertex
100
AcDb3dPolylineVertex
 10
0.0000003327352829
 20
48.65449905395507
 30
-1.736557006835937
 70
    32
  0
VERTEX
  5
13C
330
FA
100
AcDbEntity
  8
OracDecor_cornice_mouldings
 62
    61
420
 14083494
100
AcDbVertex
100
AcDb3dPolylineVertex
 10
0.0000003914140621
 20
49.0
 30
-1.791231155395507
 70
    32
  0
VERTEX
  5
13D
330
FA
100
AcDbEntity
  8
OracDecor_cornice_mouldings
 62
    61
420
 14083494
100
AcDbVertex
100
AcDb3dPolylineVertex
 10
0.0000004453134466
 20
49.34550094604492
 30
-1.736557006835937
 70
    32
  0
VERTEX
  5
13E
330
FA
100
AcDbEntity
  8
OracDecor_cornice_mouldings
 62
    61
420
 14083494
100
AcDbVertex
100
AcDb3dPolylineVertex
 10
0.0000004747465141
 20
49.5546989440918
 30
-1.630199432373046
 70
    32
  0
VERTEX
  5
13F
330
FA
100
AcDbEntity
  8
OracDecor_cornice_mouldings
 62
    61
420
 14083494
100
AcDbVertex
100
AcDb3dPolylineVertex
 10
0.0000007344745541
 20
51.49615097045899
 30
-0.3358993530273437
 70
    32
  0
VERTEX
  5
140
330
FA
100
AcDbEntity
  8
OracDecor_cornice_mouldings
 62
    61
420
 14083494
100
AcDbVertex
100
AcDb3dPolylineVertex
 10
0.0000007698102422
 20
51.75181579589843
 30
-0.1913776397705078
 70
    32
  0
VERTEX
  5
141
330
FA
100
AcDbEntity
  8
OracDecor_cornice_mouldings
 62
    61
420
 14083494
100
AcDbVertex
100
AcDb3dPolylineVertex
 10
0.0000008098643889
 20
52.02598571777343
 30
-0.0858249664306641
 70
    32
  0
VERTEX
  5
142
330
FA
100
AcDbEntity
  8
OracDecor_cornice_mouldings
 62
    61
420
 14083494
100
AcDbVertex
100
AcDb3dPolylineVertex
 10
0.0000008537611507
 20
52.31266021728515
 30
-0.0215682983398438
 70
    32
  0
VERTEX
  5
143
330
FA
100
AcDbEntity
  8
OracDecor_cornice_mouldings
 62
    61
420
 14083494
100
AcDbVertex
100
AcDb3dPolylineVertex
 10
0.0000009005355537
 20
52.60555267333984
 30
0.0000000000001213
 70
    32
  0
VERTEX
  5
144
330
FA
100
AcDbEntity
  8
OracDecor_cornice_mouldings
 62
    61
420
 14083494
100
AcDbVertex
100
AcDb3dPolylineVertex
 10
0.0000021052439934
 20
60.0
 30
0.0000000000001213
 70
    32
  0
VERTEX
  5
145
330
FA
100
AcDbEntity
  8
OracDecor_cornice_mouldings
 62
    61
420
 14083494
100
AcDbVertex
100
AcDb3dPolylineVertex
 10
0.0000023893683192
 20
60.0
 30
-6.5
 70
    32
  0
VERTEX
  5
146
330
FA
100
AcDbEntity
  8
OracDecor_cornice_mouldings
 62
    61
420
 14083494
100
AcDbVertex
100
AcDb3dPolylineVertex
 10
0.0000020269346805
 20
57.76476669311524
 30
-6.539623260498046
 70
    32
  0
VERTEX
  5
147
330
FA
100
AcDbEntity
  8
OracDecor_cornice_mouldings
 62
    61
420
 14083494
100
AcDbVertex
100
AcDb3dPolylineVertex
 10
0.0000016691021756
 20
55.5367431640625
 30
-6.657634735107421
 70
    32
  0
VERTEX
  5
148
330
FA
100
AcDbEntity
  8
OracDecor_cornice_mouldings
 62
    61
420
 14083494
100
AcDbVertex
100
AcDb3dPolylineVertex
 10
0.0000013157944068
 20
53.31544876098632
 30
-6.85409927368164
 70
    32
  0
VERTEX
  5
149
330
FA
100
AcDbEntity
  8
OracDecor_cornice_mouldings
 62
    61
420
 14083494
100
AcDbVertex
100
AcDb3dPolylineVertex
 10
0.0000009667339782
 20
51.09910202026367
 30
-7.129264831542968
 70
    32
  0
VERTEX
  5
14A
330
FA
100
AcDbEntity
  8
OracDecor_cornice_mouldings
 62
    61
420
 14083494
100
AcDbVertex
100
AcDb3dPolylineVertex
 10
0.0000006229641372
 20
48.89436340332031
 30
-7.482210159301757
 70
    32
  0
VERTEX
  5
14B
330
FA
100
AcDbEntity
  8
OracDecor_cornice_mouldings
 62
    61
420
 14083494
100
AcDbVertex
100
AcDb3dPolylineVertex
 10
0.0000002850723035
 20
46.70493698120117
 30
-7.912567138671875
 70
    32
  0
VERTEX
  5
14C
330
FA
100
AcDbEntity
  8
OracDecor_cornice_mouldings
 62
    61
420
 14083494
100
AcDbVertex
100
AcDb3dPolylineVertex
 10
-0.000000047133824
 20
44.52961730957031
 30
-8.420394897460937
 70
    32
  0
VERTEX
  5
14D
330
FA
100
AcDbEntity
  8
OracDecor_cornice_mouldings
 62
    61
420
 14083494
100
AcDbVertex
100
AcDb3dPolylineVertex
 10
-0.0000003725037345
 20
42.37594985961914
 30
-9.003928184509277
 70
    32
  0
VERTEX
  5
14E
330
FA
100
AcDbEntity
  8
OracDecor_cornice_mouldings
 62
    61
420
 14083494
100
AcDbVertex
100
AcDb3dPolylineVertex
 10
-0.000000691196135
 20
40.24282836914062
 30
-9.663653373718261
 70
    32
  0
VERTEX
  5
14F
330
FA
100
AcDbEntity
  8
OracDecor_cornice_mouldings
 62
    61
420
 14083494
100
AcDbVertex
100
AcDb3dPolylineVertex
 10
-0.0000010027004009
 20
38.13373565673828
 30
-10.39825820922851
 70
    32
  0
VERTEX
  5
150
330
FA
100
AcDbEntity
  8
OracDecor_cornice_mouldings
 62
    61
420
 14083494
100
AcDbVertex
100
AcDb3dPolylineVertex
 10
-0.0000013060696347
 20
36.0550537109375
 30
-11.2056188583374
 70
    32
  0
VERTEX
  5
151
330
FA
100
AcDbEntity
  8
OracDecor_cornice_mouldings
 62
    61
420
 14083494
100
AcDbVertex
100
AcDb3dPolylineVertex
 10
-0.0000016015571873
 20
34.00507736206055
 30
-12.08630275726318
 70
    32
  0
VERTEX
  5
152
330
FA
100
AcDbEntity
  8
OracDecor_cornice_mouldings
 62
    61
420
 14083494
100
AcDbVertex
100
AcDb3dPolylineVertex
 10
-0.0000018892321805
 20
31.98334121704102
 30
-13.04046440124511
 70
    32
  0
VERTEX
  5
153
330
FA
100
AcDbEntity
  8
OracDecor_cornice_mouldings
 62
    61
420
 14083494
100
AcDbVertex
100
AcDb3dPolylineVertex
 10
-0.0000020489194412
 20
30.84478950500488
 30
-13.63084602355957
 70
    32
  0
VERTEX
  5
154
330
FA
100
AcDbEntity
  8
OracDecor_cornice_mouldings
 62
    61
420
 14083494
100
AcDbVertex
100
AcDb3dPolylineVertex
 10
-0.000002253442517
 20
29.36367416381836
 30
-14.47230720520019
 70
    32
  0
VERTEX
  5
155
330
FA
100
AcDbEntity
  8
OracDecor_cornice_mouldings
 62
    61
420
 14083494
100
AcDbVertex
100
AcDb3dPolylineVertex
 10
-0.000002447892939
 20
27.92690467834473
 30
-15.37890815734863
 70
    32
  0
VERTEX
  5
156
330
FA
100
AcDbEntity
  8
OracDecor_cornice_mouldings
 62
    61
420
 14083494
100
AcDbVertex
100
AcDb3dPolylineVertex
 10
-0.0000026325126328
 20
26.53260040283203
 30
-16.35213279724121
 70
    32
  0
VERTEX
  5
157
330
FA
100
AcDbEntity
  8
OracDecor_cornice_mouldings
 62
    61
420
 14083494
100
AcDbVertex
100
AcDb3dPolylineVertex
 10
-0.0000028072565783
 20
25.18111801147461
 30
-17.39169692993164
 70
    32
  0
VERTEX
  5
158
330
FA
100
AcDbEntity
  8
OracDecor_cornice_mouldings
 62
    61
420
 14083494
100
AcDbVertex
100
AcDb3dPolylineVertex
 10
-0.0000029710997751
 20
23.88042831420898
 30
-18.4913215637207
 70
    32
  0
VERTEX
  5
159
330
FA
100
AcDbEntity
  8
OracDecor_cornice_mouldings
 62
    61
420
 14083494
100
AcDbVertex
100
AcDb3dPolylineVertex
 10
0.0000045058145588
 20
22.63398361206055
 30
-19.64871215820312
 70
    32
  0
VERTEX
  5
15A
330
FA
100
AcDbEntity
  8
OracDecor_cornice_mouldings
 62
    61
420
 14083494
100
AcDbVertex
100
AcDb3dPolylineVertex
 10
0.00000436441087
 20
21.4395866394043
 30
-20.86552047729492
 70
    32
  0
VERTEX
  5
15B
330
FA
100
AcDbEntity
  8
OracDecor_cornice_mouldings
 62
    61
420
 14083494
100
AcDbVertex
100
AcDb3dPolylineVertex
 10
0.000004234851076
 20
20.30381774902344
 30
-22.13476943969727
 70
    32
  0
VERTEX
  5
15C
330
FA
100
AcDbEntity
  8
OracDecor_cornice_mouldings
 62
    61
420
 14083494
100
AcDbVertex
100
AcDb3dPolylineVertex
 10
0.000004117519893
 20
19.22977256774902
 30
-23.45371246337891
 70
    32
  0
VERTEX
  5
15D
330
FA
100
AcDbEntity
  8
OracDecor_cornice_mouldings
 62
    61
420
 14083494
100
AcDbVertex
100
AcDb3dPolylineVertex
 10
0.0000040121844904
 20
18.21550750732422
 30
-24.82428169250488
 70
    32
  0
VERTEX
  5
15E
330
FA
100
AcDbEntity
  8
OracDecor_cornice_mouldings
 62
    61
420
 14083494
100
AcDbVertex
100
AcDb3dPolylineVertex
 10
0.0000039194078454
 20
17.26657104492187
 30
-26.23866653442383
 70
    32
  0
VERTEX
  5
15F
330
FA
100
AcDbEntity
  8
OracDecor_cornice_mouldings
 62
    61
420
 14083494
100
AcDbVertex
100
AcDb3dPolylineVertex
 10
0.0000038394896364
 20
16.38564872741699
 30
-27.69371414184571
 70
    32
  0
VERTEX
  5
160
330
FA
100
AcDbEntity
  8
OracDecor_cornice_mouldings
 62
    61
420
 14083494
100
AcDbVertex
100
AcDb3dPolylineVertex
 10
0.0000037722550132
 20
15.57108497619629
 30
-29.19160652160645
 70
    32
  0
VERTEX
  5
161
330
FA
100
AcDbEntity
  8
OracDecor_cornice_mouldings
 62
    61
420
 14083494
100
AcDbVertex
100
AcDb3dPolylineVertex
 10
0.0000037180516301
 20
14.82728958129882
 30
-30.72383880615234
 70
    32
  0
VERTEX
  5
162
330
FA
100
AcDbEntity
  8
OracDecor_cornice_mouldings
 62
    61
420
 14083494
100
AcDbVertex
100
AcDb3dPolylineVertex
 10
0.0000036770879888
 20
14.15648651123047
 30
-32.28691482543946
 70
    32
  0
VERTEX
  5
163
330
FA
100
AcDbEntity
  8
OracDecor_cornice_mouldings
 62
    61
420
 14083494
100
AcDbVertex
100
AcDb3dPolylineVertex
 10
0.0000036492517665
 20
13.55733776092529
 30
-33.88323211669922
 70
    32
  0
VERTEX
  5
164
330
FA
100
AcDbEntity
  8
OracDecor_cornice_mouldings
 62
    61
420
 14083494
100
AcDbVertex
100
AcDb3dPolylineVertex
 10
0.0000036346662
 20
13.03303337097168
 30
-35.50374603271484
 70
    32
  0
VERTEX
  5
165
330
FA
100
AcDbEntity
  8
OracDecor_cornice_mouldings
 62
    61
420
 14083494
100
AcDbVertex
100
AcDb3dPolylineVertex
 10
0.0000036334481592
 20
12.58529281616211
 30
-37.14469146728516
 70
    32
  0
VERTEX
  5
166
330
FA
100
AcDbEntity
  8
OracDecor_cornice_mouldings
 62
    61
420
 14083494
100
AcDbVertex
100
AcDb3dPolylineVertex
 10
0.0000036455469399
 20
12.21312046051025
 30
-38.80863189697265
 70
    32
  0
VERTEX
  5
167
330
FA
100
AcDbEntity
  8
OracDecor_cornice_mouldings
 62
    61
420
 14083494
100
AcDbVertex
100
AcDb3dPolylineVertex
 10
0.0000036708620428
 20
11.91842460632324
 30
-40.48616409301757
 70
    32
  0
VERTEX
  5
168
330
FA
100
AcDbEntity
  8
OracDecor_cornice_mouldings
 62
    61
420
 14083494
100
AcDbVertex
100
AcDb3dPolylineVertex
 10
0.0000037093352603
 20
11.70254898071289
 30
-42.17093658447265
 70
    32
  0
VERTEX
  5
169
330
FA
100
AcDbEntity
  8
OracDecor_cornice_mouldings
 62
    61
420
 14083494
100
AcDbVertex
100
AcDb3dPolylineVertex
 10
0.0000037609950141
 20
11.56483459472656
 30
-43.86606979370117
 70
    32
  0
VERTEX
  5
16A
330
FA
100
AcDbEntity
  8
OracDecor_cornice_mouldings
 62
    61
420
 14083494
100
AcDbVertex
100
AcDb3dPolylineVertex
 10
0.0000038079854221
 20
11.51032543182373
 30
-45.14424514770507
 70
    32
  0
SEQEND
  5
16B
330
FA
100
AcDbEntity
  8
OracDecor_cornice_mouldings
 62
    61
420
 14083494
  0
ENDSEC
  0
SECTION
  2
OBJECTS
  0
DICTIONARY
  5
C
330
0
100
AcDbDictionary
281
     1
  3
ACAD_COLOR
350
DC
  3
ACAD_DETAILVIEWSTYLE
350
F5
  3
ACAD_GROUP
350
D
  3
ACAD_LAYOUT
350
1A
  3
ACAD_MATERIAL
350
AA
  3
ACAD_MLEADERSTYLE
350
F1
  3
ACAD_MLINESTYLE
350
17
  3
ACAD_PLOTSETTINGS
350
19
  3
ACAD_PLOTSTYLENAME
350
E
  3
ACAD_SCALELIST
350
DF
  3
ACAD_SECTIONVIEWSTYLE
350
F3
  3
ACAD_TABLESTYLE
350
DD
  3
ACAD_VISUALSTYLE
350
C3
  3
ACDB_RECOMPOSE_DATA
350
178
  3
AcDbVariableDictionary
350
16C
  0
DICTIONARY
  5
DC
102
{ACAD_REACTORS
330
C
102
}
330
C
100
AcDbDictionary
281
     1
  0
DICTIONARY
  5
F5
102
{ACAD_REACTORS
330
C
102
}
330
C
100
AcDbDictionary
281
     1
  3
Imperial24
350
F6
  0
DICTIONARY
  5
D
102
{ACAD_REACTORS
330
C
102
}
330
C
100
AcDbDictionary
281
     1
  0
DICTIONARY
  5
1A
102
{ACAD_REACTORS
330
C
102
}
330
C
100
AcDbDictionary
281
     1
  3
Layout1
350
1E
  3
Layout2
350
26
  3
Model
350
22
  0
DICTIONARY
  5
AA
102
{ACAD_REACTORS
330
C
102
}
330
C
100
AcDbDictionary
281
     1
  3
ByBlock
350
B3
  3
ByLayer
350
AB
  3
Global
350
BB
  0
DICTIONARY
  5
F1
102
{ACAD_REACTORS
330
C
102
}
330
C
100
AcDbDictionary
281
     1
  3
Standard
350
F2
  0
DICTIONARY
  5
17
102
{ACAD_REACTORS
330
C
102
}
330
C
100
AcDbDictionary
281
     1
  3
Standard
350
18
  0
DICTIONARY
  5
19
102
{ACAD_REACTORS
330
C
102
}
330
C
100
AcDbDictionary
281
     1
  0
ACDBDICTIONARYWDFLT
  5
E
102
{ACAD_REACTORS
330
C
102
}
330
C
100
AcDbDictionary
281
     1
  3
ByLayer
350
2D
  3
Normal
350
F
100
AcDbDictionaryWithDefault
340
F
  0
DICTIONARY
  5
DF
102
{ACAD_REACTORS
330
C
102
}
330
C
100
AcDbDictionary
281
     1
  3
A0
350
E0
  3
A1
350
E1
  3
A2
350
E2
  3
A3
350
E3
  3
A4
350
E4
  3
A5
350
E5
  3
A6
350
E6
  3
A7
350
E7
  3
A8
350
E8
  3
A9
350
E9
  3
B0
350
EA
  3
B1
350
EB
  3
B2
350
EC
  3
B3
350
ED
  3
B4
350
EE
  3
B5
350
EF
  3
B6
350
F0
  0
DICTIONARY
  5
F3
102
{ACAD_REACTORS
330
C
102
}
330
C
100
AcDbDictionary
281
     1
  3
Imperial24
350
F4
  0
DICTIONARY
  5
DD
102
{ACAD_REACTORS
330
C
102
}
330
C
100
AcDbDictionary
281
     1
  3
Standard
350
DE
  0
DICTIONARY
  5
C3
102
{ACAD_REACTORS
330
C
102
}
330
C
100
AcDbDictionary
281
     1
  3
2dWireframe
350
C9
  3
Basic
350
C8
  3
Brighten
350
CF
  3
ColorChange
350
D3
  3
Conceptual
350
CC
  3
Dim
350
CE
  3
EdgeColorOff
350
DB
  3
Facepattern
350
D2
  3
Flat
350
C4
  3
FlatWithEdges
350
C5
  3
Gouraud
350
C6
  3
GouraudWithEdges
350
C7
  3
Hidden
350
CB
  3
JitterOff
350
D9
  3
Linepattern
350
D1
  3
OverhangOff
350
DA
  3
Realistic
350
CD
  3
Shaded
350
D8
  3
Shaded with edges
350
D7
  3
Shades of Gray
350
D4
  3
Sketchy
350
D5
  3
Thicken
350
D0
  3
Wireframe
350
CA
  3
X-Ray
350
D6
  0
XRECORD
  5
178
102
{ACAD_REACTORS
330
C
102
}
330
C
100
AcDbXrecord
280
     1
 90
        1
330
DE
  0
DICTIONARY
  5
16C
102
{ACAD_REACTORS
330
C
102
}
330
C
100
AcDbDictionary
281
     1
  3
CANNOSCALE
350
172
  3
CMLEADERSTYLE
350
16E
  3
CTABLESTYLE
350
16D
  3
CVIEWDETAILSTYLE
350
16F
  3
CVIEWSECTIONSTYLE
350
170
  3
LAYEREVAL
350
174
  3
LAYERNOTIFY
350
175
  3
LIGHTINGUNITS
350
173
  3
MSLTSCALE
350
171
  0
ACDBDETAILVIEWSTYLE
  5
F6
102
{ACAD_XDICTIONARY
360
1AD
102
}
102
{ACAD_REACTORS
330
F5
102
}
330
F5
100
AcDbModelDocViewStyle
 70
     0
  3
Imperial24
290
     0
100
AcDbDetailViewStyle
 70
     0
 71
     0
 90
        3
 71
     1
340
11
 62
   256
 40
0.24
340
0
 62
   256
 40
0.24
300

 40
0.36
280
     3
 71
     2
340
16
 90
       25
 62
   256
 71
     3
340
11
 62
   256
 40
0.24
 90
        1
 40
0.75
 90
        1
300
%<\AcVar ViewType \f "%tc1">% %<\AcVar ViewDetailId>%\PSCALE %<\AcVar ViewScale \f "%sn">%
 71
     4
340
16
 90
       25
 62
   256
340
16
 90
       25
 62
   256
280
     0
  0
LAYOUT
  5
1E
102
{ACAD_REACTORS
330
1A
102
}
330
1A
100
AcDbPlotSettings
  1

  2
\\KTXNTBDC\CASF2PN1
  4

  6

 40
0.0
 41
0.0
 42
0.0
 43
0.0
 44
0.0
 45
0.0
 46
0.0
 47
0.0
 48
0.0
 49
0.0
140
0.0
141
0.0
142
1.0
143
1.0
 70
   688
 72
     0
 73
     0
 74
     5
  7

 75
    16
147
1.0
 76
     0
 77
     2
 78
   300
148
0.0
149
0.0
100
AcDbLayout
  1
Layout1
 70
     1
 71
     1
 10
0.0
 20
0.0
 11
12.0
 21
9.0
 12
0.0
 22
0.0
 32
0.0
 14
1.000000000000000E+20
 24
1.000000000000000E+20
 34
1.000000000000000E+20
 15
-1.000000000000000E+20
 25
-1.000000000000000E+20
 35
-1.000000000000000E+20
146
0.0
 13
0.0
 23
0.0
 33
0.0
 16
1.0
 26
0.0
 36
0.0
 17
0.0
 27
1.0
 37
0.0
 76
     0
330
1B
  0
LAYOUT
  5
26
102
{ACAD_REACTORS
330
1A
102
}
330
1A
100
AcDbPlotSettings
  1

  2
\\KTXNTBDC\CASF2PN1
  4

  6

 40
0.0
 41
0.0
 42
0.0
 43
0.0
 44
0.0
 45
0.0
 46
0.0
 47
0.0
 48
0.0
 49
0.0
140
0.0
141
0.0
142
1.0
143
1.0
 70
   688
 72
     0
 73
     0
 74
     5
  7

 75
    16
147
1.0
 76
     0
 77
     2
 78
   300
148
0.0
149
0.0
100
AcDbLayout
  1
Layout2
 70
     1
 71
     2
 10
0.0
 20
0.0
 11
12.0
 21
9.0
 12
0.0
 22
0.0
 32
0.0
 14
0.0
 24
0.0
 34
0.0
 15
0.0
 25
0.0
 35
0.0
146
0.0
 13
0.0
 23
0.0
 33
0.0
 16
1.0
 26
0.0
 36
0.0
 17
0.0
 27
1.0
 37
0.0
 76
     0
330
23
  0
LAYOUT
  5
22
102
{ACAD_REACTORS
330
1A
102
}
330
1A
100
AcDbPlotSettings
  1

  2
\\KTXNTBDC\CASF2PN1
  4

  6

 40
0.0
 41
0.0
 42
0.0
 43
0.0
 44
0.0
 45
0.0
 46
0.0
 47
0.0
 48
0.0
 49
0.0
140
0.0
141
0.0
142
1.0
143
1.0
 70
  1712
 72
     0
 73
     0
 74
     0
  7

 75
     0
147
1.0
 76
     0
 77
     2
 78
   300
148
0.0
149
0.0
100
AcDbLayout
  1
Model
 70
     1
 71
     0
 10
0.0
 20
0.0
 11
12.0
 21
9.0
 12
0.0
 22
0.0
 32
0.0
 14
0.0
 24
0.0
 34
0.0
 15
0.0
 25
0.0
 35
0.0
146
0.0
 13
0.0
 23
0.0
 33
0.0
 16
1.0
 26
0.0
 36
0.0
 17
0.0
 27
1.0
 37
0.0
 76
     0
330
1F
  0
MATERIAL
  5
B3
102
{ACAD_XDICTIONARY
360
B4
102
}
102
{ACAD_REACTORS
330
AA
102
}
330
AA
100
AcDbMaterial
  1
ByBlock
 72
     0
 43
0.0208333333333333
 43
0.0
 43
0.0
 43
0.0
 43
0.0
 43
0.0208333333333333
 43
0.0
 43
0.0
 43
0.0
 43
0.0
 43
1.0
 43
0.0
 43
0.0
 43
0.0
 43
0.0
 43
1.0
 77
     0
 47
0.0208333333333333
 47
0.0
 47
0.0
 47
0.0
 47
0.0
 47
0.0208333333333333
 47
0.0
 47
0.0
 47
0.0
 47
0.0
 47
1.0
 47
0.0
 47
0.0
 47
0.0
 47
0.0
 47
1.0
171
     0
 49
0.0208333333333333
 49
0.0
 49
0.0
 49
0.0
 49
0.0
 49
0.0208333333333333
 49
0.0
 49
0.0
 49
0.0
 49
0.0
 49
1.0
 49
0.0
 49
0.0
 49
0.0
 49
0.0
 49
1.0
175
     0
142
0.0208333333333333
142
0.0
142
0.0
142
0.0
142
0.0
142
0.0208333333333333
142
0.0
142
0.0
142
0.0
142
0.0
142
1.0
142
0.0
142
0.0
142
0.0
142
0.0
142
1.0
179
     0
144
0.0208333333333333
144
0.0
144
0.0
144
0.0
144
0.0
144
0.0208333333333333
144
0.0
144
0.0
144
0.0
144
0.0
144
1.0
144
0.0
144
0.0
144
0.0
144
0.0
144
1.0
147
0.0208333333333333
147
0.0
147
0.0
147
0.0
147
0.0
147
0.0208333333333333
147
0.0
147
0.0
147
0.0
147
0.0
147
1.0
147
0.0
147
0.0
147
0.0
147
0.0
147
1.0
  0
MATERIAL
  5
AB
102
{ACAD_XDICTIONARY
360
AC
102
}
102
{ACAD_REACTORS
330
AA
102
}
330
AA
100
AcDbMaterial
  1
ByLayer
 72
     0
 43
0.0208333333333333
 43
0.0
 43
0.0
 43
0.0
 43
0.0
 43
0.0208333333333333
 43
0.0
 43
0.0
 43
0.0
 43
0.0
 43
1.0
 43
0.0
 43
0.0
 43
0.0
 43
0.0
 43
1.0
 77
     0
 47
0.0208333333333333
 47
0.0
 47
0.0
 47
0.0
 47
0.0
 47
0.0208333333333333
 47
0.0
 47
0.0
 47
0.0
 47
0.0
 47
1.0
 47
0.0
 47
0.0
 47
0.0
 47
0.0
 47
1.0
171
     0
 49
0.0208333333333333
 49
0.0
 49
0.0
 49
0.0
 49
0.0
 49
0.0208333333333333
 49
0.0
 49
0.0
 49
0.0
 49
0.0
 49
1.0
 49
0.0
 49
0.0
 49
0.0
 49
0.0
 49
1.0
175
     0
142
0.0208333333333333
142
0.0
142
0.0
142
0.0
142
0.0
142
0.0208333333333333
142
0.0
142
0.0
142
0.0
142
0.0
142
1.0
142
0.0
142
0.0
142
0.0
142
0.0
142
1.0
179
     0
144
0.0208333333333333
144
0.0
144
0.0
144
0.0
144
0.0
144
0.0208333333333333
144
0.0
144
0.0
144
0.0
144
0.0
144
1.0
144
0.0
144
0.0
144
0.0
144
0.0
144
1.0
147
0.0208333333333333
147
0.0
147
0.0
147
0.0
147
0.0
147
0.0208333333333333
147
0.0
147
0.0
147
0.0
147
0.0
147
1.0
147
0.0
147
0.0
147
0.0
147
0.0
147
1.0
  0
MATERIAL
  5
BB
102
{ACAD_XDICTIONARY
360
BC
102
}
102
{ACAD_REACTORS
330
AA
102
}
330
AA
100
AcDbMaterial
  1
Global
 72
     0
 43
0.0208333333333333
 43
0.0
 43
0.0
 43
0.0
 43
0.0
 43
0.0208333333333333
 43
0.0
 43
0.0
 43
0.0
 43
0.0
 43
1.0
 43
0.0
 43
0.0
 43
0.0
 43
0.0
 43
1.0
 77
     0
 47
0.0208333333333333
 47
0.0
 47
0.0
 47
0.0
 47
0.0
 47
0.0208333333333333
 47
0.0
 47
0.0
 47
0.0
 47
0.0
 47
1.0
 47
0.0
 47
0.0
 47
0.0
 47
0.0
 47
1.0
171
     0
 49
0.0208333333333333
 49
0.0
 49
0.0
 49
0.0
 49
0.0
 49
0.0208333333333333
 49
0.0
 49
0.0
 49
0.0
 49
0.0
 49
1.0
 49
0.0
 49
0.0
 49
0.0
 49
0.0
 49
1.0
175
     0
142
0.0208333333333333
142
0.0
142
0.0
142
0.0
142
0.0
142
0.0208333333333333
142
0.0
142
0.0
142
0.0
142
0.0
142
1.0
142
0.0
142
0.0
142
0.0
142
0.0
142
1.0
179
     0
144
0.0208333333333333
144
0.0
144
0.0
144
0.0
144
0.0
144
0.0208333333333333
144
0.0
144
0.0
144
0.0
144
0.0
144
1.0
144
0.0
144
0.0
144
0.0
144
0.0
144
1.0
147
0.0208333333333333
147
0.0
147
0.0
147
0.0
147
0.0
147
0.0208333333333333
147
0.0
147
0.0
147
0.0
147
0.0
147
1.0
147
0.0
147
0.0
147
0.0
147
0.0
147
1.0
  0
MLEADERSTYLE
  5
F2
102
{ACAD_XDICTIONARY
360
1A9
102
}
102
{ACAD_REACTORS
330
F1
102
}
330
F1
100
AcDbMLeaderStyle
179
     2
170
     2
171
     1
172
     0
 90
        2
 40
0.0
 41
0.0
173
     1
 91
-1056964608
340
14
 92
       -2
290
     1
 42
0.09
291
     1
 43
0.36
  3
Standard
 44
0.18
300

342
11
174
     1
178
     6
175
     1
176
     0
 93
-1056964608
 45
0.18
292
     0
297
     0
 46
0.18
 94
-1056964608
 47
1.0
 49
1.0
140
1.0
293
     1
141
0.0
294
     1
177
     0
142
1.0
295
     0
296
     0
143
0.125
271
     0
272
     9
273
     9
  0
MLINESTYLE
  5
18
102
{ACAD_REACTORS
330
17
102
}
330
17
100
AcDbMlineStyle
  2
STANDARD
 70
     0
  3

 62
   256
 51
90.0
 52
90.0
 71
     2
 49
0.5
 62
   256
  6
BYLAYER
 49
-0.5
 62
   256
  6
BYLAYER
  0
ACDBPLACEHOLDER
  5
2D
102
{ACAD_REACTORS
330
E
102
}
330
E
  0
ACDBPLACEHOLDER
  5
F
102
{ACAD_REACTORS
330
E
102
}
330
E
  0
SCALE
  5
E0
102
{ACAD_REACTORS
330
DF
102
}
330
DF
100
AcDbScale
 70
     0
300
1:1
140
1.0
141
1.0
290
     1
  0
SCALE
  5
E1
102
{ACAD_REACTORS
330
DF
102
}
330
DF
100
AcDbScale
 70
     0
300
1/128" = 1'-0"
140
0.0078125
141
12.0
290
     0
  0
SCALE
  5
E2
102
{ACAD_REACTORS
330
DF
102
}
330
DF
100
AcDbScale
 70
     0
300
1/64" = 1'-0"
140
0.015625
141
12.0
290
     0
  0
SCALE
  5
E3
102
{ACAD_REACTORS
330
DF
102
}
330
DF
100
AcDbScale
 70
     0
300
1/32" = 1'-0"
140
0.03125
141
12.0
290
     0
  0
SCALE
  5
E4
102
{ACAD_REACTORS
330
DF
102
}
330
DF
100
AcDbScale
 70
     0
300
1/16" = 1'-0"
140
0.0625
141
12.0
290
     0
  0
SCALE
  5
E5
102
{ACAD_REACTORS
330
DF
102
}
330
DF
100
AcDbScale
 70
     0
300
3/32" = 1'-0"
140
0.09375
141
12.0
290
     0
  0
SCALE
  5
E6
102
{ACAD_REACTORS
330
DF
102
}
330
DF
100
AcDbScale
 70
     0
300
1/8" = 1'-0"
140
0.125
141
12.0
290
     0
  0
SCALE
  5
E7
102
{ACAD_REACTORS
330
DF
102
}
330
DF
100
AcDbScale
 70
     0
300
3/16" = 1'-0"
140
0.1875
141
12.0
290
     0
  0
SCALE
  5
E8
102
{ACAD_REACTORS
330
DF
102
}
330
DF
100
AcDbScale
 70
     0
300
1/4" = 1'-0"
140
0.25
141
12.0
290
     0
  0
SCALE
  5
E9
102
{ACAD_REACTORS
330
DF
102
}
330
DF
100
AcDbScale
 70
     0
300
3/8" = 1'-0"
140
0.375
141
12.0
290
     0
  0
SCALE
  5
EA
102
{ACAD_REACTORS
330
DF
102
}
330
DF
100
AcDbScale
 70
     0
300
1/2" = 1'-0"
140
0.5
141
12.0
290
     0
  0
SCALE
  5
EB
102
{ACAD_REACTORS
330
DF
102
}
330
DF
100
AcDbScale
 70
     0
300
3/4" = 1'-0"
140
0.75
141
12.0
290
     0
  0
SCALE
  5
EC
102
{ACAD_REACTORS
330
DF
102
}
330
DF
100
AcDbScale
 70
     0
300
1" = 1'-0"
140
1.0
141
12.0
290
     0
  0
SCALE
  5
ED
102
{ACAD_REACTORS
330
DF
102
}
330
DF
100
AcDbScale
 70
     0
300
1-1/2" = 1'-0"
140
1.5
141
12.0
290
     0
  0
SCALE
  5
EE
102
{ACAD_REACTORS
330
DF
102
}
330
DF
100
AcDbScale
 70
     0
300
3" = 1'-0"
140
3.0
141
12.0
290
     0
  0
SCALE
  5
EF
102
{ACAD_REACTORS
330
DF
102
}
330
DF
100
AcDbScale
 70
     0
300
6" = 1'-0"
140
6.0
141
12.0
290
     0
  0
SCALE
  5
F0
102
{ACAD_REACTORS
330
DF
102
}
330
DF
100
AcDbScale
 70
     0
300
1'-0" = 1'-0"
140
12.0
141
12.0
290
     0
  0
ACDBSECTIONVIEWSTYLE
  5
F4
102
{ACAD_XDICTIONARY
360
1AB
102
}
102
{ACAD_REACTORS
330
F3
102
}
330
F3
100
AcDbModelDocViewStyle
 70
     0
  3
Imperial24
290
     0
100
AcDbSectionViewStyle
 70
     0
 71
     0
 90
       78
 71
     1
340
11
 62
   256
 40
0.24
340
0
340
0
 62
   256
 40
0.24
300
I, O, Q, S, X, Z
 40
0.48
 90
        3
 40
0.18
 90
        1
 71
     2
340
16
 90
       25
 62
   256
340
16
 90
       50
 62
   256
 40
0.24
 40
0.0
 40
0.24
 71
     3
340
11
 62
   256
 40
0.24
 90
        1
 40
0.75
 90
        1
300
%<\AcVar ViewType \f "%tc1">% %<\AcVar ViewSectionStartId>%-%<\AcVar ViewSectionEndId>%\PSCALE %<\AcVar ViewScale \f "%sn">%
 71
     4
 62
   256
 62
   257
300
ANSI31
 40
1.0
 90
        0
290
     0
290
     0
 90
        6
 40
0.0
 40
1.570796326794896
 40
0.2617993877991494
 40
1.308996938995747
 40
-0.2617993877991494
 40
1.832595714594046
  0
TABLESTYLE
  5
DE
102
{ACAD_XDICTIONARY
360
176
102
}
102
{ACAD_REACTORS
330
DD
102
}
330
DD
100
AcDbTableStyle
280
     0
  3
Standard
 70
     0
 71
     0
 40
0.06
 41
0.06
280
     0
281
     0
  7
Standard
140
0.18
170
     2
 62
     0
 63
     7
283
     0
 90
      512
 91
        0
  1

274
    -2
284
     1
 64
     0
275
    -2
285
     1
 65
     0
276
    -2
286
     1
 66
     0
277
    -2
287
     1
 67
     0
278
    -2
288
     1
 68
     0
279
    -2
289
     1
 69
     0
  7
Standard
140
0.25
170
     5
 62
     0
 63
     7
283
     0
 90
      512
 91
        0
  1

274
    -2
284
     1
 64
     0
275
    -2
285
     1
 65
     0
276
    -2
286
     1
 66
     0
277
    -2
287
     1
 67
     0
278
    -2
288
     1
 68
     0
279
    -2
289
     1
 69
     0
  7
Standard
140
0.18
170
     5
 62
     0
 63
     7
283
     0
 90
      512
 91
        0
  1

274
    -2
284
     1
 64
     0
275
    -2
285
     1
 65
     0
276
    -2
286
     1
 66
     0
277
    -2
287
     1
 67
     0
278
    -2
288
     1
 68
     0
279
    -2
289
     1
 69
     0
  0
VISUALSTYLE
  5
C9
102
{ACAD_XDICTIONARY
360
183
102
}
102
{ACAD_REACTORS
330
C3
102
}
330
C3
100
AcDbVisualStyle
  2
2dWireframe
 70
     4
177
     2
291
     0
 71
     0
176
     1
 72
     2
176
     1
 73
     0
176
     1
 90
        0
176
     1
 40
0.6
176
     1
 41
30.0
176
     1
 63
     7
421
 16777215
176
     1
 74
     1
176
     1
 91
        4
176
     1
 64
     7
176
     1
 65
   257
176
     1
 75
     1
176
     1
175
     1
176
     1
 42
1.0
176
     1
 92
        0
176
     1
 66
   257
176
     1
 43
1.0
176
     1
 76
     1
176
     1
 77
     6
176
     1
 78
     2
176
     1
 67
     7
176
     1
 79
     5
176
     1
170
     0
176
     1
171
     0
176
     1
290
     0
176
     1
 93
        1
176
     1
 44
0.0
176
     1
173
     0
176
     1
1001
ACAD
1000
AcDbSavedByObjectVersion
1070
     0
  0
VISUALSTYLE
  5
C8
102
{ACAD_XDICTIONARY
360
181
102
}
102
{ACAD_REACTORS
330
C3
102
}
330
C3
100
AcDbVisualStyle
  2
Basic
 70
     7
177
     2
291
     1
 71
     1
176
     1
 72
     0
176
     1
 73
     1
176
     1
 90
        0
176
     1
 40
0.6
176
     1
 41
30.0
176
     1
 63
     7
421
 16777215
176
     1
 74
     0
176
     1
 91
        4
176
     1
 64
     7
176
     1
 65
   257
176
     1
 75
     1
176
     1
175
     1
176
     1
 42
1.0
176
     1
 92
        8
176
     1
 66
     7
176
     1
 43
1.0
176
     1
 76
     1
176
     1
 77
     6
176
     1
 78
     2
176
     1
 67
     7
176
     1
 79
     5
176
     1
170
     0
176
     1
171
     0
176
     1
290
     0
176
     1
 93
        1
176
     1
 44
0.0
176
     1
173
     0
176
     1
1001
ACAD
1000
AcDbSavedByObjectVersion
1070
     0
  0
VISUALSTYLE
  5
CF
102
{ACAD_XDICTIONARY
360
18F
102
}
102
{ACAD_REACTORS
330
C3
102
}
330
C3
100
AcDbVisualStyle
  2
Brighten
 70
    12
177
     2
291
     1
 71
     2
176
     1
 72
     2
176
     1
 73
     0
176
     1
 90
        0
176
     1
 40
0.6
176
     1
 41
30.0
176
     1
 63
     7
421
 16777215
176
     1
 74
     1
176
     1
 91
        4
176
     1
 64
     7
176
     1
 65
   257
176
     1
 75
     1
176
     1
175
     1
176
     1
 42
1.0
176
     1
 92
        8
176
     1
 66
     7
176
     1
 43
1.0
176
     1
 76
     1
176
     1
 77
     6
176
     1
 78
     2
176
     1
 67
     7
176
     1
 79
     5
176
     1
170
     0
176
     1
171
     0
176
     1
290
     0
176
     1
 93
        1
176
     1
 44
50.0
176
     1
173
     0
176
     1
1001
ACAD
1000
AcDbSavedByObjectVersion
1070
     0
  0
VISUALSTYLE
  5
D3
102
{ACAD_XDICTIONARY
360
197
102
}
102
{ACAD_REACTORS
330
C3
102
}
330
C3
100
AcDbVisualStyle
  2
ColorChange
 70
    16
177
     2
291
     1
 71
     2
176
     1
 72
     2
176
     1
 73
     3
176
     1
 90
        0
176
     1
 40
0.6
176
     1
 41
30.0
176
     1
 63
     8
421
  8421504
176
     1
 74
     1
176
     1
 91
        4
176
     1
 64
     7
176
     1
 65
   257
176
     1
 75
     1
176
     1
175
     1
176
     1
 42
1.0
176
     1
 92
        8
176
     1
 66
     8
424
  8421504
176
     1
 43
1.0
176
     1
 76
     1
176
     1
 77
     6
176
     1
 78
     2
176
     1
 67
     7
176
     1
 79
     5
176
     1
170
     0
176
     1
171
     0
176
     1
290
     0
176
     1
 93
        1
176
     1
 44
0.0
176
     1
173
     0
176
     1
1001
ACAD
1000
AcDbSavedByObjectVersion
1070
     0
  0
VISUALSTYLE
  5
CC
102
{ACAD_XDICTIONARY
360
189
102
}
102
{ACAD_REACTORS
330
C3
102
}
330
C3
100
AcDbVisualStyle
  2
Conceptual
 70
     9
177
     2
291
     0
 71
     3
176
     1
 72
     2
176
     1
 73
     0
176
     1
 90
        0
176
     1
 40
0.6
176
     1
 41
30.0
176
     1
 63
     7
421
 16777215
176
     1
 74
     2
176
     1
 91
        2
176
     1
 64
     7
176
     1
 65
   257
176
     1
 75
     1
176
     1
175
     1
176
     1
 42
179.0
176
     1
 92
        8
176
     1
 66
     7
176
     1
 43
1.0
176
     1
 76
     1
176
     1
 77
     6
176
     1
 78
     2
176
     1
 67
     7
176
     1
 79
     3
176
     1
170
     0
176
     1
171
     0
176
     1
290
     0
176
     1
 93
        1
176
     1
 44
0.0
176
     1
173
     0
176
     1
1001
ACAD
1000
AcDbSavedByObjectVersion
1070
     0
  0
VISUALSTYLE
  5
CE
102
{ACAD_XDICTIONARY
360
18D
102
}
102
{ACAD_REACTORS
330
C3
102
}
330
C3
100
AcDbVisualStyle
  2
Dim
 70
    11
177
     2
291
     1
 71
     2
176
     1
 72
     2
176
     1
 73
     0
176
     1
 90
        0
176
     1
 40
0.6
176
     1
 41
30.0
176
     1
 63
     7
421
 16777215
176
     1
 74
     1
176
     1
 91
        4
176
     1
 64
     7
176
     1
 65
   257
176
     1
 75
     1
176
     1
175
     1
176
     1
 42
1.0
176
     1
 92
        8
176
     1
 66
     7
176
     1
 43
1.0
176
     1
 76
     1
176
     1
 77
     6
176
     1
 78
     2
176
     1
 67
     7
176
     1
 79
     5
176
     1
170
     0
176
     1
171
     0
176
     1
290
     0
176
     1
 93
        1
176
     1
 44
-50.0
176
     1
173
     0
176
     1
1001
ACAD
1000
AcDbSavedByObjectVersion
1070
     0
  0
VISUALSTYLE
  5
DB
102
{ACAD_XDICTIONARY
360
1A7
102
}
102
{ACAD_REACTORS
330
C3
102
}
330
C3
100
AcDbVisualStyle
  2
EdgeColorOff
 70
    22
177
     2
291
     1
 71
     2
176
     0
 72
     2
176
     0
 73
     0
176
     0
 90
        0
176
     0
 40
0.6
176
     0
 41
30.0
176
     0
 63
     7
421
 16777215
176
     0
 74
     1
176
     0
 91
        4
176
     0
 64
     7
176
     0
 65
   257
176
     0
 75
     1
176
     0
175
     1
176
     0
 42
1.0
176
     0
 92
        8
176
     2
 66
     7
176
     0
 43
1.0
176
     0
 76
     1
176
     0
 77
     6
176
     0
 78
     2
176
     0
 67
     7
176
     0
 79
     5
176
     0
170
     0
176
     0
171
     0
176
     0
290
     0
176
     0
 93
        1
176
     0
 44
0.0
176
     0
173
     0
176
     0
1001
ACAD
1000
AcDbSavedByObjectVersion
1070
     0
  0
VISUALSTYLE
  5
D2
102
{ACAD_XDICTIONARY
360
195
102
}
102
{ACAD_REACTORS
330
C3
102
}
330
C3
100
AcDbVisualStyle
  2
Facepattern
 70
    15
177
     2
291
     1
 71
     2
176
     1
 72
     2
176
     1
 73
     0
176
     1
 90
        0
176
     1
 40
0.6
176
     1
 41
30.0
176
     1
 63
     7
421
 16777215
176
     1
 74
     1
176
     1
 91
        4
176
     1
 64
     7
176
     1
 65
   257
176
     1
 75
     1
176
     1
175
     1
176
     1
 42
1.0
176
     1
 92
        8
176
     1
 66
     7
176
     1
 43
1.0
176
     1
 76
     1
176
     1
 77
     6
176
     1
 78
     2
176
     1
 67
     7
176
     1
 79
     5
176
     1
170
     0
176
     1
171
     0
176
     1
290
     0
176
     1
 93
        1
176
     1
 44
0.0
176
     1
173
     0
176
     1
1001
ACAD
1000
AcDbSavedByObjectVersion
1070
     0
  0
VISUALSTYLE
  5
C4
102
{ACAD_XDICTIONARY
360
179
102
}
102
{ACAD_REACTORS
330
C3
102
}
330
C3
100
AcDbVisualStyle
  2
Flat
 70
     0
177
     2
291
     1
 71
     2
176
     1
 72
     1
176
     1
 73
     1
176
     1
 90
        2
176
     1
 40
0.6
176
     1
 41
30.0
176
     1
 63
     7
421
 16777215
176
     1
 74
     0
176
     1
 91
        0
176
     1
 64
     7
176
     1
 65
   257
176
     1
 75
     1
176
     1
175
     1
176
     1
 42
1.0
176
     1
 92
        8
176
     1
 66
     7
176
     1
 43
1.0
176
     1
 76
     1
176
     1
 77
     6
176
     1
 78
     2
176
     1
 67
     7
176
     1
 79
     5
176
     1
170
     0
176
     1
171
     0
176
     1
290
     0
176
     1
 93
       13
176
     1
 44
0.0
176
     1
173
     0
176
     1
1001
ACAD
1000
AcDbSavedByObjectVersion
1070
     0
  0
VISUALSTYLE
  5
C5
102
{ACAD_XDICTIONARY
360
17B
102
}
102
{ACAD_REACTORS
330
C3
102
}
330
C3
100
AcDbVisualStyle
  2
FlatWithEdges
 70
     1
177
     2
291
     1
 71
     2
176
     1
 72
     1
176
     1
 73
     1
176
     1
 90
        2
176
     1
 40
0.6
176
     1
 41
30.0
176
     1
 63
     7
421
 16777215
176
     1
 74
     1
176
     1
 91
        0
176
     1
 64
     7
176
     1
 65
   257
176
     1
 75
     1
176
     1
175
     1
176
     1
 42
1.0
176
     1
 92
        0
176
     1
 66
   257
176
     1
 43
1.0
176
     1
 76
     1
176
     1
 77
     6
176
     1
 78
     2
176
     1
 67
     7
176
     1
 79
     5
176
     1
170
     0
176
     1
171
     0
176
     1
290
     0
176
     1
 93
       13
176
     1
 44
0.0
176
     1
173
     0
176
     1
1001
ACAD
1000
AcDbSavedByObjectVersion
1070
     0
  0
VISUALSTYLE
  5
C6
102
{ACAD_XDICTIONARY
360
17D
102
}
102
{ACAD_REACTORS
330
C3
102
}
330
C3
100
AcDbVisualStyle
  2
Gouraud
 70
     2
177
     2
291
     1
 71
     2
176
     1
 72
     2
176
     1
 73
     1
176
     1
 90
        2
176
     1
 40
0.6
176
     1
 41
30.0
176
     1
 63
     7
421
 16777215
176
     1
 74
     0
176
     1
 91
        0
176
     1
 64
     7
176
     1
 65
   257
176
     1
 75
     1
176
     1
175
     1
176
     1
 42
1.0
176
     1
 92
        0
176
     1
 66
     7
176
     1
 43
1.0
176
     1
 76
     1
176
     1
 77
     6
176
     1
 78
     2
176
     1
 67
     7
176
     1
 79
     5
176
     1
170
     0
176
     1
171
     0
176
     1
290
     0
176
     1
 93
       13
176
     1
 44
0.0
176
     1
173
     0
176
     1
1001
ACAD
1000
AcDbSavedByObjectVersion
1070
     0
  0
VISUALSTYLE
  5
C7
102
{ACAD_XDICTIONARY
360
17F
102
}
102
{ACAD_REACTORS
330
C3
102
}
330
C3
100
AcDbVisualStyle
  2
GouraudWithEdges
 70
     3
177
     2
291
     1
 71
     2
176
     1
 72
     2
176
     1
 73
     1
176
     1
 90
        2
176
     1
 40
0.6
176
     1
 41
30.0
176
     1
 63
     7
421
 16777215
176
     1
 74
     1
176
     1
 91
        0
176
     1
 64
     7
176
     1
 65
   257
176
     1
 75
     1
176
     1
175
     1
176
     1
 42
1.0
176
     1
 92
        0
176
     1
 66
   257
176
     1
 43
1.0
176
     1
 76
     1
176
     1
 77
     6
176
     1
 78
     2
176
     1
 67
     7
176
     1
 79
     5
176
     1
170
     0
176
     1
171
     0
176
     1
290
     0
176
     1
 93
       13
176
     1
 44
0.0
176
     1
173
     0
176
     1
1001
ACAD
1000
AcDbSavedByObjectVersion
1070
     0
  0
VISUALSTYLE
  5
CB
102
{ACAD_XDICTIONARY
360
187
102
}
102
{ACAD_REACTORS
330
C3
102
}
330
C3
100
AcDbVisualStyle
  2
Hidden
 70
     6
177
     2
291
     0
 71
     1
176
     1
 72
     2
176
     1
 73
     2
176
     1
 90
        0
176
     1
 40
0.6
176
     1
 41
30.0
176
     1
 63
     7
421
 16777215
176
     1
 74
     2
176
     1
 91
        2
176
     1
 64
     7
176
     1
 65
   257
176
     1
 75
     2
176
     1
175
     1
176
     1
 42
40.0
176
     1
 92
        0
176
     1
 66
   257
176
     1
 43
1.0
176
     1
 76
     1
176
     1
 77
     6
176
     1
 78
     2
176
     1
 67
     7
176
     1
 79
     3
176
     1
170
     0
176
     1
171
     0
176
     1
290
     0
176
     1
 93
        1
176
     1
 44
0.0
176
     1
173
     0
176
     1
1001
ACAD
1000
AcDbSavedByObjectVersion
1070
     0
  0
VISUALSTYLE
  5
D9
102
{ACAD_XDICTIONARY
360
1A3
102
}
102
{ACAD_REACTORS
330
C3
102
}
330
C3
100
AcDbVisualStyle
  2
JitterOff
 70
    20
177
     2
291
     1
 71
     2
176
     0
 72
     2
176
     0
 73
     0
176
     0
 90
        0
176
     0
 40
0.6
176
     0
 41
30.0
176
     0
 63
     7
421
 16777215
176
     0
 74
     1
176
     0
 91
        4
176
     0
 64
     7
176
     0
 65
   257
176
     0
 75
     1
176
     0
175
     1
176
     0
 42
1.0
176
     0
 92
       10
176
     2
 66
     7
176
     0
 43
1.0
176
     0
 76
     1
176
     0
 77
     6
176
     0
 78
     2
176
     0
 67
     7
176
     0
 79
     5
176
     0
170
     0
176
     0
171
     0
176
     0
290
     0
176
     0
 93
        1
176
     0
 44
0.0
176
     0
173
     0
176
     0
1001
ACAD
1000
AcDbSavedByObjectVersion
1070
     0
  0
VISUALSTYLE
  5
D1
102
{ACAD_XDICTIONARY
360
193
102
}
102
{ACAD_REACTORS
330
C3
102
}
330
C3
100
AcDbVisualStyle
  2
Linepattern
 70
    14
177
     2
291
     1
 71
     2
176
     1
 72
     2
176
     1
 73
     0
176
     1
 90
        0
176
     1
 40
0.6
176
     1
 41
30.0
176
     1
 63
     7
421
 16777215
176
     1
 74
     1
176
     1
 91
        4
176
     1
 64
     7
176
     1
 65
   257
176
     1
 75
     7
176
     1
175
     7
176
     1
 42
1.0
176
     1
 92
        8
176
     1
 66
     7
176
     1
 43
1.0
176
     1
 76
     1
176
     1
 77
     6
176
     1
 78
     2
176
     1
 67
     7
176
     1
 79
     5
176
     1
170
     0
176
     1
171
     0
176
     1
290
     0
176
     1
 93
        1
176
     1
 44
0.0
176
     1
173
     0
176
     1
1001
ACAD
1000
AcDbSavedByObjectVersion
1070
     0
  0
VISUALSTYLE
  5
DA
102
{ACAD_XDICTIONARY
360
1A5
102
}
102
{ACAD_REACTORS
330
C3
102
}
330
C3
100
AcDbVisualStyle
  2
OverhangOff
 70
    21
177
     2
291
     1
 71
     2
176
     0
 72
     2
176
     0
 73
     0
176
     0
 90
        0
176
     0
 40
0.6
176
     0
 41
30.0
176
     0
 63
     7
421
 16777215
176
     0
 74
     1
176
     0
 91
        4
176
     0
 64
     7
176
     0
 65
   257
176
     0
 75
     1
176
     0
175
     1
176
     0
 42
1.0
176
     0
 92
        9
176
     2
 66
     7
176
     0
 43
1.0
176
     0
 76
     1
176
     0
 77
     6
176
     0
 78
     2
176
     0
 67
     7
176
     0
 79
     5
176
     0
170
     0
176
     0
171
     0
176
     0
290
     0
176
     0
 93
        1
176
     0
 44
0.0
176
     0
173
     0
176
     0
1001
ACAD
1000
AcDbSavedByObjectVersion
1070
     0
  0
VISUALSTYLE
  5
CD
102
{ACAD_XDICTIONARY
360
18B
102
}
102
{ACAD_REACTORS
330
C3
102
}
330
C3
100
AcDbVisualStyle
  2
Realistic
 70
     8
177
     2
291
     0
 71
     2
176
     1
 72
     3
176
     1
 73
     0
176
     1
 90
        2
176
     1
 40
0.6
176
     1
 41
30.0
176
     1
 63
     7
421
 16777215
176
     1
 74
     0
176
     1
 91
        0
176
     1
 64
     7
176
     1
 65
   257
176
     1
 75
     1
176
     1
175
     1
176
     1
 42
1.0
176
     1
 92
        8
176
     1
 66
   257
176
     1
 43
1.0
176
     1
 76
     1
176
     1
 77
     6
176
     1
 78
     2
176
     1
 67
     7
176
     1
 79
     3
176
     1
170
     0
176
     1
171
     0
176
     1
290
     0
176
     1
 93
       13
176
     1
 44
0.0
176
     1
173
     0
176
     1
1001
ACAD
1000
AcDbSavedByObjectVersion
1070
     0
  0
VISUALSTYLE
  5
D8
102
{ACAD_XDICTIONARY
360
1A1
102
}
102
{ACAD_REACTORS
330
C3
102
}
330
C3
100
AcDbVisualStyle
  2
Shaded
 70
    27
177
     2
291
     0
 71
     2
176
     1
 72
     2
176
     1
 73
     1
176
     1
 90
        2
176
     1
 40
0.6
176
     1
 41
30.0
176
     1
 63
     7
421
 16777215
176
     1
 74
     0
176
     1
 91
        4
176
     1
 64
     7
176
     1
 65
   257
176
     1
 75
     1
176
     1
175
     1
176
     1
 42
1.0
176
     1
 92
        8
176
     1
 66
   257
176
     1
 43
1.0
176
     1
 76
     1
176
     1
 77
     6
176
     1
 78
     2
176
     1
 67
     8
425
  7895160
176
     1
 79
     3
176
     1
170
     0
176
     1
171
     0
176
     1
290
     0
176
     1
 93
        5
176
     1
 44
0.0
176
     1
173
     0
176
     1
1001
ACAD
1000
AcDbSavedByObjectVersion
1070
     0
  0
VISUALSTYLE
  5
D7
102
{ACAD_XDICTIONARY
360
19F
102
}
102
{ACAD_REACTORS
330
C3
102
}
330
C3
100
AcDbVisualStyle
  2
Shaded with edges
 70
    26
177
     2
291
     0
 71
     2
176
     1
 72
     2
176
     1
 73
     1
176
     1
 90
        2
176
     1
 40
0.6
176
     1
 41
30.0
176
     1
 63
     7
421
 16777215
176
     1
 74
     1
176
     1
 91
       10
176
     1
 64
     7
176
     1
 65
   257
176
     1
 75
     2
176
     1
175
     1
176
     1
 42
1.0
176
     1
 92
        8
176
     1
 66
   257
176
     1
 43
1.0
176
     1
 76
     1
176
     1
 77
     6
176
     1
 78
     2
176
     1
 67
     7
176
     1
 79
     3
176
     1
170
     0
176
     1
171
     0
176
     1
290
     0
176
     1
 93
        5
176
     1
 44
0.0
176
     1
173
     0
176
     1
1001
ACAD
1000
AcDbSavedByObjectVersion
1070
     0
  0
VISUALSTYLE
  5
D4
102
{ACAD_XDICTIONARY
360
199
102
}
102
{ACAD_REACTORS
330
C3
102
}
330
C3
100
AcDbVisualStyle
  2
Shades of Gray
 70
    23
177
     2
291
     0
 71
     2
176
     1
 72
     2
176
     1
 73
     3
176
     1
 90
        0
176
     1
 40
0.6
176
     1
 41
30.0
176
     1
 63
     7
421
 16777215
176
     1
 74
     2
176
     1
 91
        2
176
     1
 64
     7
176
     1
 65
     7
176
     1
 75
     1
176
     1
175
     1
176
     1
 42
40.0
176
     1
 92
        8
176
     1
 66
     7
176
     1
 43
1.0
176
     1
 76
     1
176
     1
 77
     6
176
     1
 78
     2
176
     1
 67
     7
176
     1
 79
     3
176
     1
170
     0
176
     1
171
     0
176
     1
290
     0
176
     1
 93
        1
176
     1
 44
0.0
176
     1
173
     0
176
     1
1001
ACAD
1000
AcDbSavedByObjectVersion
1070
     0
  0
VISUALSTYLE
  5
D5
102
{ACAD_XDICTIONARY
360
19B
102
}
102
{ACAD_REACTORS
330
C3
102
}
330
C3
100
AcDbVisualStyle
  2
Sketchy
 70
    24
177
     2
291
     0
 71
     1
176
     1
 72
     2
176
     1
 73
     2
176
     1
 90
        0
176
     1
 40
0.6
176
     1
 41
30.0
176
     1
 63
     7
421
 16777215
176
     1
 74
     2
176
     1
 91
        2
176
     1
 64
     7
176
     1
 65
     7
176
     1
 75
     1
176
     1
175
     1
176
     1
 42
40.0
176
     1
 92
       11
176
     1
 66
     7
176
     1
 43
1.0
176
     1
 76
     1
176
     1
 77
     6
176
     1
 78
     2
176
     1
 67
     7
176
     1
 79
     6
176
     1
170
     0
176
     1
171
     0
176
     1
290
     0
176
     1
 93
        1
176
     1
 44
0.0
176
     1
173
     0
176
     1
1001
ACAD
1000
AcDbSavedByObjectVersion
1070
     0
  0
VISUALSTYLE
  5
D0
102
{ACAD_XDICTIONARY
360
191
102
}
102
{ACAD_REACTORS
330
C3
102
}
330
C3
100
AcDbVisualStyle
  2
Thicken
 70
    13
177
     2
291
     1
 71
     2
176
     1
 72
     2
176
     1
 73
     0
176
     1
 90
        0
176
     1
 40
0.6
176
     1
 41
30.0
176
     1
 63
     7
421
 16777215
176
     1
 74
     1
176
     1
 91
        4
176
     1
 64
     7
176
     1
 65
   257
176
     1
 75
     1
176
     1
175
     1
176
     1
 42
1.0
176
     1
 92
       12
176
     1
 66
     7
176
     1
 43
1.0
176
     1
 76
     1
176
     1
 77
     6
176
     1
 78
     2
176
     1
 67
     7
176
     1
 79
     5
176
     1
170
     0
176
     1
171
     0
176
     1
290
     0
176
     1
 93
        1
176
     1
 44
0.0
176
     1
173
     0
176
     1
1001
ACAD
1000
AcDbSavedByObjectVersion
1070
     0
  0
VISUALSTYLE
  5
CA
102
{ACAD_XDICTIONARY
360
185
102
}
102
{ACAD_REACTORS
330
C3
102
}
330
C3
100
AcDbVisualStyle
  2
Wireframe
 70
     5
177
     2
291
     0
 71
     0
176
     1
 72
     2
176
     1
 73
     0
176
     1
 90
        0
176
     1
 40
0.6
176
     1
 41
30.0
176
     1
 63
     7
421
 16777215
176
     1
 74
     1
176
     1
 91
        4
176
     1
 64
     7
176
     1
 65
   257
176
     1
 75
     1
176
     1
175
     1
176
     1
 42
1.0
176
     1
 92
        0
176
     1
 66
   257
176
     1
 43
1.0
176
     1
 76
     1
176
     1
 77
     6
176
     1
 78
     2
176
     1
 67
     7
176
     1
 79
     3
176
     1
170
     0
176
     1
171
     0
176
     1
290
     0
176
     1
 93
        1
176
     1
 44
0.0
176
     1
173
     0
176
     1
1001
ACAD
1000
AcDbSavedByObjectVersion
1070
     0
  0
VISUALSTYLE
  5
D6
102
{ACAD_XDICTIONARY
360
19D
102
}
102
{ACAD_REACTORS
330
C3
102
}
330
C3
100
AcDbVisualStyle
  2
X-Ray
 70
    25
177
     2
291
     0
 71
     2
176
     1
 72
     2
176
     1
 73
     1
176
     1
 90
        1
176
     1
 40
0.5
176
     1
 41
30.0
176
     1
 63
     7
421
 16777215
176
     1
 74
     1
176
     1
 91
        0
176
     1
 64
     7
176
     1
 65
   257
176
     1
 75
     1
176
     1
175
     1
176
     1
 42
1.0
176
     1
 92
        8
176
     1
 66
     7
176
     1
 43
1.0
176
     1
 76
     1
176
     1
 77
     6
176
     1
 78
     2
176
     1
 67
     7
176
     1
 79
     3
176
     1
170
     0
176
     1
171
     0
176
     1
290
     0
176
     1
 93
       13
176
     1
 44
0.0
176
     1
173
     0
176
     1
1001
ACAD
1000
AcDbSavedByObjectVersion
1070
     0
  0
DICTIONARYVAR
  5
172
102
{ACAD_REACTORS
330
16C
102
}
330
16C
100
DictionaryVariables
280
     0
  1
1:1
  0
DICTIONARYVAR
  5
16E
102
{ACAD_REACTORS
330
16C
102
}
330
16C
100
DictionaryVariables
280
     0
  1
STANDARD
  0
DICTIONARYVAR
  5
16D
102
{ACAD_REACTORS
330
16C
102
}
330
16C
100
DictionaryVariables
280
     0
  1
STANDARD
  0
DICTIONARYVAR
  5
16F
102
{ACAD_REACTORS
330
16C
102
}
330
16C
100
DictionaryVariables
280
     0
  1
Imperial24
  0
DICTIONARYVAR
  5
170
102
{ACAD_REACTORS
330
16C
102
}
330
16C
100
DictionaryVariables
280
     0
  1
Imperial24
  0
DICTIONARYVAR
  5
174
102
{ACAD_REACTORS
330
16C
102
}
330
16C
100
DictionaryVariables
280
     0
  1
1
  0
DICTIONARYVAR
  5
175
102
{ACAD_REACTORS
330
16C
102
}
330
16C
100
DictionaryVariables
280
     0
  1
15
  0
DICTIONARYVAR
  5
173
102
{ACAD_REACTORS
330
16C
102
}
330
16C
100
DictionaryVariables
280
     0
  1
0
  0
DICTIONARYVAR
  5
171
102
{ACAD_REACTORS
330
16C
102
}
330
16C
100
DictionaryVariables
280
     0
  1
0
  0
DICTIONARY
  5
1AD
330
F6
100
AcDbDictionary
280
     1
281
     1
  3
ACAD_XREC_ROUNDTRIP
360
1AE
  0
DICTIONARY
  5
B4
330
B3
100
AcDbDictionary
280
     1
281
     1
  3
BUMPTILE
360
B6
  3
DIFFUSETILE
360
B5
  3
OPACITYTILE
360
B9
  3
REFLECTIONTILE
360
B8
  3
REFRACTIONTILE
360
BA
  3
SPECULARTILE
360
B7
  0
DICTIONARY
  5
AC
330
AB
100
AcDbDictionary
280
     1
281
     1
  3
BUMPTILE
360
AE
  3
DIFFUSETILE
360
AD
  3
OPACITYTILE
360
B1
  3
REFLECTIONTILE
360
B0
  3
REFRACTIONTILE
360
B2
  3
SPECULARTILE
360
AF
  0
DICTIONARY
  5
BC
330
BB
100
AcDbDictionary
280
     1
281
     1
  3
BUMPTILE
360
BE
  3
DIFFUSETILE
360
BD
  3
OPACITYTILE
360
C1
  3
REFLECTIONTILE
360
C0
  3
REFRACTIONTILE
360
C2
  3
SPECULARTILE
360
BF
  0
DICTIONARY
  5
1A9
330
F2
100
AcDbDictionary
280
     1
281
     1
  3
ACAD_XREC_ROUNDTRIP
360
1AA
  0
DICTIONARY
  5
1AB
330
F4
100
AcDbDictionary
280
     1
281
     1
  3
ACAD_XREC_ROUNDTRIP
360
1AC
  0
DICTIONARY
  5
176
330
DE
100
AcDbDictionary
280
     1
281
     1
  3
ACAD_ROUNDTRIP_2008_TABLESTYLE_CELLSTYLEMAP
360
177
  0
DICTIONARY
  5
183
330
C9
100
AcDbDictionary
280
     1
281
     1
  3
ACAD_XREC_ROUNDTRIP
360
184
  0
DICTIONARY
  5
181
330
C8
100
AcDbDictionary
280
     1
281
     1
  3
ACAD_XREC_ROUNDTRIP
360
182
  0
DICTIONARY
  5
18F
330
CF
100
AcDbDictionary
280
     1
281
     1
  3
ACAD_XREC_ROUNDTRIP
360
190
  0
DICTIONARY
  5
197
330
D3
100
AcDbDictionary
280
     1
281
     1
  3
ACAD_XREC_ROUNDTRIP
360
198
  0
DICTIONARY
  5
189
330
CC
100
AcDbDictionary
280
     1
281
     1
  3
ACAD_XREC_ROUNDTRIP
360
18A
  0
DICTIONARY
  5
18D
330
CE
100
AcDbDictionary
280
     1
281
     1
  3
ACAD_XREC_ROUNDTRIP
360
18E
  0
DICTIONARY
  5
1A7
330
DB
100
AcDbDictionary
280
     1
281
     1
  3
ACAD_XREC_ROUNDTRIP
360
1A8
  0
DICTIONARY
  5
195
330
D2
100
AcDbDictionary
280
     1
281
     1
  3
ACAD_XREC_ROUNDTRIP
360
196
  0
DICTIONARY
  5
179
330
C4
100
AcDbDictionary
280
     1
281
     1
  3
ACAD_XREC_ROUNDTRIP
360
17A
  0
DICTIONARY
  5
17B
330
C5
100
AcDbDictionary
280
     1
281
     1
  3
ACAD_XREC_ROUNDTRIP
360
17C
  0
DICTIONARY
  5
17D
330
C6
100
AcDbDictionary
280
     1
281
     1
  3
ACAD_XREC_ROUNDTRIP
360
17E
  0
DICTIONARY
  5
17F
330
C7
100
AcDbDictionary
280
     1
281
     1
  3
ACAD_XREC_ROUNDTRIP
360
180
  0
DICTIONARY
  5
187
330
CB
100
AcDbDictionary
280
     1
281
     1
  3
ACAD_XREC_ROUNDTRIP
360
188
  0
DICTIONARY
  5
1A3
330
D9
100
AcDbDictionary
280
     1
281
     1
  3
ACAD_XREC_ROUNDTRIP
360
1A4
  0
DICTIONARY
  5
193
330
D1
100
AcDbDictionary
280
     1
281
     1
  3
ACAD_XREC_ROUNDTRIP
360
194
  0
DICTIONARY
  5
1A5
330
DA
100
AcDbDictionary
280
     1
281
     1
  3
ACAD_XREC_ROUNDTRIP
360
1A6
  0
DICTIONARY
  5
18B
330
CD
100
AcDbDictionary
280
     1
281
     1
  3
ACAD_XREC_ROUNDTRIP
360
18C
  0
DICTIONARY
  5
1A1
330
D8
100
AcDbDictionary
280
     1
281
     1
  3
ACAD_XREC_ROUNDTRIP
360
1A2
  0
DICTIONARY
  5
19F
330
D7
100
AcDbDictionary
280
     1
281
     1
  3
ACAD_XREC_ROUNDTRIP
360
1A0
  0
DICTIONARY
  5
199
330
D4
100
AcDbDictionary
280
     1
281
     1
  3
ACAD_XREC_ROUNDTRIP
360
19A
  0
DICTIONARY
  5
19B
330
D5
100
AcDbDictionary
280
     1
281
     1
  3
ACAD_XREC_ROUNDTRIP
360
19C
  0
DICTIONARY
  5
191
330
D0
100
AcDbDictionary
280
     1
281
     1
  3
ACAD_XREC_ROUNDTRIP
360
192
  0
DICTIONARY
  5
185
330
CA
100
AcDbDictionary
280
     1
281
     1
  3
ACAD_XREC_ROUNDTRIP
360
186
  0
DICTIONARY
  5
19D
330
D6
100
AcDbDictionary
280
     1
281
     1
  3
ACAD_XREC_ROUNDTRIP
360
19E
  0
XRECORD
  5
1AE
102
{ACAD_REACTORS
330
1AD
102
}
330
1AD
100
AcDbXrecord
280
     1
102
DISPLAYNAME
  1
Imperial24
102
FLAGS
 90
        0
  0
XRECORD
  5
B6
102
{ACAD_REACTORS
330
B4
102
}
330
B4
100
AcDbXrecord
280
     1
270
     1
271
     1
  0
XRECORD
  5
B5
102
{ACAD_REACTORS
330
B4
102
}
330
B4
100
AcDbXrecord
280
     1
270
     1
271
     1
  0
XRECORD
  5
B9
102
{ACAD_REACTORS
330
B4
102
}
330
B4
100
AcDbXrecord
280
     1
270
     1
271
     1
  0
XRECORD
  5
B8
102
{ACAD_REACTORS
330
B4
102
}
330
B4
100
AcDbXrecord
280
     1
270
     1
271
     1
  0
XRECORD
  5
BA
102
{ACAD_REACTORS
330
B4
102
}
330
B4
100
AcDbXrecord
280
     1
270
     1
271
     1
  0
XRECORD
  5
B7
102
{ACAD_REACTORS
330
B4
102
}
330
B4
100
AcDbXrecord
280
     1
270
     1
271
     1
  0
XRECORD
  5
AE
102
{ACAD_REACTORS
330
AC
102
}
330
AC
100
AcDbXrecord
280
     1
270
     1
271
     1
  0
XRECORD
  5
AD
102
{ACAD_REACTORS
330
AC
102
}
330
AC
100
AcDbXrecord
280
     1
270
     1
271
     1
  0
XRECORD
  5
B1
102
{ACAD_REACTORS
330
AC
102
}
330
AC
100
AcDbXrecord
280
     1
270
     1
271
     1
  0
XRECORD
  5
B0
102
{ACAD_REACTORS
330
AC
102
}
330
AC
100
AcDbXrecord
280
     1
270
     1
271
     1
  0
XRECORD
  5
B2
102
{ACAD_REACTORS
330
AC
102
}
330
AC
100
AcDbXrecord
280
     1
270
     1
271
     1
  0
XRECORD
  5
AF
102
{ACAD_REACTORS
330
AC
102
}
330
AC
100
AcDbXrecord
280
     1
270
     1
271
     1
  0
XRECORD
  5
BE
102
{ACAD_REACTORS
330
BC
102
}
330
BC
100
AcDbXrecord
280
     1
270
     1
271
     1
  0
XRECORD
  5
BD
102
{ACAD_REACTORS
330
BC
102
}
330
BC
100
AcDbXrecord
280
     1
270
     1
271
     1
  0
XRECORD
  5
C1
102
{ACAD_REACTORS
330
BC
102
}
330
BC
100
AcDbXrecord
280
     1
270
     1
271
     1
  0
XRECORD
  5
C0
102
{ACAD_REACTORS
330
BC
102
}
330
BC
100
AcDbXrecord
280
     1
270
     1
271
     1
  0
XRECORD
  5
C2
102
{ACAD_REACTORS
330
BC
102
}
330
BC
100
AcDbXrecord
280
     1
270
     1
271
     1
  0
XRECORD
  5
BF
102
{ACAD_REACTORS
330
BC
102
}
330
BC
100
AcDbXrecord
280
     1
270
     1
271
     1
  0
XRECORD
  5
1AA
102
{ACAD_REACTORS
330
1A9
102
}
330
1A9
100
AcDbXrecord
280
     1
102
ACAD_ROUNDTRIP_2012_MLEADER_STYLE
298
     1
  0
XRECORD
  5
1AC
102
{ACAD_REACTORS
330
1AB
102
}
330
1AB
100
AcDbXrecord
280
     1
102
DISPLAYNAME
  1
Imperial24
102
FLAGS
 90
        0
  0
CELLSTYLEMAP
  5
177
102
{ACAD_REACTORS
330
176
102
}
330
176
100
AcDbCellStyleMap
 90
        3
300
CELLSTYLE
  1
TABLEFORMAT_BEGIN
 90
        5
170
     1
 91
        0
 92
    32768
 62
   257
 93
        1
300
CONTENTFORMAT
  1
CONTENTFORMAT_BEGIN
 90
        0
 91
        0
 92
      512
 93
        0
300

 40
0.0
140
1.0
 94
        5
 62
     0
340
11
144
0.25
309
CONTENTFORMAT_END
171
     0
 94
        0
309
TABLEFORMAT_END
  1
CELLSTYLE_BEGIN
 90
        1
 91
        1
300
_TITLE
309
CELLSTYLE_END
300
CELLSTYLE
  1
TABLEFORMAT_BEGIN
 90
        5
170
     1
 91
        0
 92
        0
 62
   257
 93
        1
300
CONTENTFORMAT
  1
CONTENTFORMAT_BEGIN
 90
        0
 91
        0
 92
      512
 93
        0
300

 40
0.0
140
1.0
 94
        5
 62
     0
340
11
144
0.18
309
CONTENTFORMAT_END
171
     0
 94
        0
309
TABLEFORMAT_END
  1
CELLSTYLE_BEGIN
 90
        2
 91
        1
300
_HEADER
309
CELLSTYLE_END
300
CELLSTYLE
  1
TABLEFORMAT_BEGIN
 90
        5
170
     1
 91
        0
 92
        0
 62
   257
 93
        1
300
CONTENTFORMAT
  1
CONTENTFORMAT_BEGIN
 90
        0
 91
        0
 92
      512
 93
        0
300

 40
0.0
140
1.0
 94
        2
 62
     0
340
11
144
0.18
309
CONTENTFORMAT_END
171
     0
 94
        0
309
TABLEFORMAT_END
  1
CELLSTYLE_BEGIN
 90
        3
 91
        2
300
_DATA
309
CELLSTYLE_END
  0
XRECORD
  5
184
102
{ACAD_REACTORS
330
183
102
}
330
183
100
AcDbXrecord
280
     1
102
RTVSPost2010Prop28
280
     1
102
RTVSPost2010PropOp28
 70
     1
102
RTVSPost2010Prop29
280
     1
102
RTVSPost2010PropOp29
 70
     1
102
RTVSPost2010Prop30
280
     0
102
RTVSPost2010PropOp30
 70
     1
102
RTVSPost2010Prop31
280
     0
102
RTVSPost2010PropOp31
 70
     1
102
RTVSPost2010Prop32
280
     0
102
RTVSPost2010PropOp32
 70
     1
102
RTVSPost2010Prop33
280
     0
102
RTVSPost2010PropOp33
 70
     1
102
RTVSPost2010Prop34
280
     0
102
RTVSPost2010PropOp34
 70
     1
102
RTVSPost2010Prop35
280
     0
102
RTVSPost2010PropOp35
 70
     1
102
RTVSPost2010Prop36
280
     0
102
RTVSPost2010PropOp36
 70
     1
102
RTVSPost2010Prop37
 90
       50
102
RTVSPost2010PropOp37
 70
     1
102
RTVSPost2010Prop38
140
0.0
102
RTVSPost2010PropOp38
 70
     1
102
RTVSPost2010Prop39
140
1.0
102
RTVSPost2010PropOp39
 70
     1
102
RTVSPost2010Prop40
 90
        0
102
RTVSPost2010PropOp40
 70
     1
102
RTVSPost2010Prop41ColorIndex
 90
       18
102
RTVSPost2010Prop41ColorRGB
 90
        0
102
RTVSPost2010PropOp41
 70
     1
102
RTVSPost2010Prop42
 90
       50
102
RTVSPost2010PropOp42
 70
     1
102
RTVSPost2010Prop43
 90
        3
102
RTVSPost2010PropOp43
 70
     1
102
RTVSPost2010Prop44ColorIndex
 90
        5
102
RTVSPost2010Prop44ColorRGB
 90
      255
102
RTVSPost2010PropOp44
 70
     1
102
RTVSPost2010Prop45
280
     0
102
RTVSPost2010PropOp45
 70
     1
102
RTVSPost2010Prop46
 90
       50
102
RTVSPost2010PropOp46
 70
     1
102
RTVSPost2010Prop47
 90
       50
102
RTVSPost2010PropOp47
 70
     1
102
RTVSPost2010Prop48
 90
       50
102
RTVSPost2010PropOp48
 70
     1
102
RTVSPost2010Prop49
280
     0
102
RTVSPost2010PropOp49
 70
     1
102
RTVSPost2010Prop50
 90
       50
102
RTVSPost2010PropOp50
 70
     1
102
RTVSPost2010Prop51ColorIndex
 90
      256
102
RTVSPost2010Prop51ColorRGB
 90
-16777216
102
RTVSPost2010PropOp51
 70
     0
102
RTVSPost2010Prop52
140
1.0
102
RTVSPost2010PropOp52
 70
     0
102
RTVSPost2010Prop53
 90
        2
102
RTVSPost2010PropOp53
 70
     1
102
RTVSPost2010Prop54
  1
strokes_ogs.tif
102
RTVSPost2010PropOp54
 70
     1
102
RTVSPost2010Prop55
280
     0
102
RTVSPost2010PropOp55
 70
     1
102
RTVSPost2010Prop56
140
1.0
102
RTVSPost2010PropOp56
 70
     1
102
RTVSPost2010Prop57
140
1.0
102
RTVSPost2010PropOp57
 70
     1
  0
XRECORD
  5
182
102
{ACAD_REACTORS
330
181
102
}
330
181
100
AcDbXrecord
280
     1
102
RTVSPost2010Prop28
280
     0
102
RTVSPost2010PropOp28
 70
     1
102
RTVSPost2010Prop29
280
     1
102
RTVSPost2010PropOp29
 70
     1
102
RTVSPost2010Prop30
280
     1
102
RTVSPost2010PropOp30
 70
     1
102
RTVSPost2010Prop31
280
     0
102
RTVSPost2010PropOp31
 70
     1
102
RTVSPost2010Prop32
280
     0
102
RTVSPost2010PropOp32
 70
     1
102
RTVSPost2010Prop33
280
     0
102
RTVSPost2010PropOp33
 70
     1
102
RTVSPost2010Prop34
280
     0
102
RTVSPost2010PropOp34
 70
     1
102
RTVSPost2010Prop35
280
     0
102
RTVSPost2010PropOp35
 70
     1
102
RTVSPost2010Prop36
280
     0
102
RTVSPost2010PropOp36
 70
     1
102
RTVSPost2010Prop37
 90
       50
102
RTVSPost2010PropOp37
 70
     1
102
RTVSPost2010Prop38
140
0.0
102
RTVSPost2010PropOp38
 70
     1
102
RTVSPost2010Prop39
140
1.0
102
RTVSPost2010PropOp39
 70
     1
102
RTVSPost2010Prop40
 90
        0
102
RTVSPost2010PropOp40
 70
     1
102
RTVSPost2010Prop41ColorIndex
 90
       18
102
RTVSPost2010Prop41ColorRGB
 90
        0
102
RTVSPost2010PropOp41
 70
     1
102
RTVSPost2010Prop42
 90
       50
102
RTVSPost2010PropOp42
 70
     1
102
RTVSPost2010Prop43
 90
        3
102
RTVSPost2010PropOp43
 70
     1
102
RTVSPost2010Prop44ColorIndex
 90
        5
102
RTVSPost2010Prop44ColorRGB
 90
      255
102
RTVSPost2010PropOp44
 70
     1
102
RTVSPost2010Prop45
280
     0
102
RTVSPost2010PropOp45
 70
     1
102
RTVSPost2010Prop46
 90
       50
102
RTVSPost2010PropOp46
 70
     1
102
RTVSPost2010Prop47
 90
       50
102
RTVSPost2010PropOp47
 70
     1
102
RTVSPost2010Prop48
 90
       50
102
RTVSPost2010PropOp48
 70
     1
102
RTVSPost2010Prop49
280
     0
102
RTVSPost2010PropOp49
 70
     1
102
RTVSPost2010Prop50
 90
       50
102
RTVSPost2010PropOp50
 70
     1
102
RTVSPost2010Prop51ColorIndex
 90
      256
102
RTVSPost2010Prop51ColorRGB
 90
-16777216
102
RTVSPost2010PropOp51
 70
     0
102
RTVSPost2010Prop52
140
1.0
102
RTVSPost2010PropOp52
 70
     0
102
RTVSPost2010Prop53
 90
        2
102
RTVSPost2010PropOp53
 70
     1
102
RTVSPost2010Prop54
  1
strokes_ogs.tif
102
RTVSPost2010PropOp54
 70
     1
102
RTVSPost2010Prop55
280
     0
102
RTVSPost2010PropOp55
 70
     1
102
RTVSPost2010Prop56
140
1.0
102
RTVSPost2010PropOp56
 70
     1
102
RTVSPost2010Prop57
140
1.0
102
RTVSPost2010PropOp57
 70
     1
  0
XRECORD
  5
190
102
{ACAD_REACTORS
330
18F
102
}
330
18F
100
AcDbXrecord
280
     1
102
RTVSPost2010Prop28
280
     0
102
RTVSPost2010PropOp28
 70
     1
102
RTVSPost2010Prop29
280
     1
102
RTVSPost2010PropOp29
 70
     1
102
RTVSPost2010Prop30
280
     1
102
RTVSPost2010PropOp30
 70
     1
102
RTVSPost2010Prop31
280
     0
102
RTVSPost2010PropOp31
 70
     1
102
RTVSPost2010Prop32
280
     0
102
RTVSPost2010PropOp32
 70
     1
102
RTVSPost2010Prop33
280
     0
102
RTVSPost2010PropOp33
 70
     1
102
RTVSPost2010Prop34
280
     0
102
RTVSPost2010PropOp34
 70
     1
102
RTVSPost2010Prop35
280
     0
102
RTVSPost2010PropOp35
 70
     1
102
RTVSPost2010Prop36
280
     0
102
RTVSPost2010PropOp36
 70
     1
102
RTVSPost2010Prop37
 90
       50
102
RTVSPost2010PropOp37
 70
     1
102
RTVSPost2010Prop38
140
0.0
102
RTVSPost2010PropOp38
 70
     1
102
RTVSPost2010Prop39
140
1.0
102
RTVSPost2010PropOp39
 70
     1
102
RTVSPost2010Prop40
 90
        0
102
RTVSPost2010PropOp40
 70
     1
102
RTVSPost2010Prop41ColorIndex
 90
       18
102
RTVSPost2010Prop41ColorRGB
 90
        0
102
RTVSPost2010PropOp41
 70
     1
102
RTVSPost2010Prop42
 90
       50
102
RTVSPost2010PropOp42
 70
     1
102
RTVSPost2010Prop43
 90
        3
102
RTVSPost2010PropOp43
 70
     1
102
RTVSPost2010Prop44ColorIndex
 90
        5
102
RTVSPost2010Prop44ColorRGB
 90
      255
102
RTVSPost2010PropOp44
 70
     1
102
RTVSPost2010Prop45
280
     0
102
RTVSPost2010PropOp45
 70
     1
102
RTVSPost2010Prop46
 90
       50
102
RTVSPost2010PropOp46
 70
     1
102
RTVSPost2010Prop47
 90
       50
102
RTVSPost2010PropOp47
 70
     1
102
RTVSPost2010Prop48
 90
       50
102
RTVSPost2010PropOp48
 70
     1
102
RTVSPost2010Prop49
280
     0
102
RTVSPost2010PropOp49
 70
     1
102
RTVSPost2010Prop50
 90
       50
102
RTVSPost2010PropOp50
 70
     1
102
RTVSPost2010Prop51ColorIndex
 90
      256
102
RTVSPost2010Prop51ColorRGB
 90
-16777216
102
RTVSPost2010PropOp51
 70
     0
102
RTVSPost2010Prop52
140
1.0
102
RTVSPost2010PropOp52
 70
     0
102
RTVSPost2010Prop53
 90
        2
102
RTVSPost2010PropOp53
 70
     1
102
RTVSPost2010Prop54
  1
strokes_ogs.tif
102
RTVSPost2010PropOp54
 70
     1
102
RTVSPost2010Prop55
280
     0
102
RTVSPost2010PropOp55
 70
     1
102
RTVSPost2010Prop56
140
1.0
102
RTVSPost2010PropOp56
 70
     1
102
RTVSPost2010Prop57
140
1.0
102
RTVSPost2010PropOp57
 70
     1
  0
XRECORD
  5
198
102
{ACAD_REACTORS
330
197
102
}
330
197
100
AcDbXrecord
280
     1
102
RTVSPost2010Prop28
280
     0
102
RTVSPost2010PropOp28
 70
     1
102
RTVSPost2010Prop29
280
     1
102
RTVSPost2010PropOp29
 70
     1
102
RTVSPost2010Prop30
280
     1
102
RTVSPost2010PropOp30
 70
     1
102
RTVSPost2010Prop31
280
     0
102
RTVSPost2010PropOp31
 70
     1
102
RTVSPost2010Prop32
280
     0
102
RTVSPost2010PropOp32
 70
     1
102
RTVSPost2010Prop33
280
     0
102
RTVSPost2010PropOp33
 70
     1
102
RTVSPost2010Prop34
280
     0
102
RTVSPost2010PropOp34
 70
     1
102
RTVSPost2010Prop35
280
     0
102
RTVSPost2010PropOp35
 70
     1
102
RTVSPost2010Prop36
280
     0
102
RTVSPost2010PropOp36
 70
     1
102
RTVSPost2010Prop37
 90
       50
102
RTVSPost2010PropOp37
 70
     1
102
RTVSPost2010Prop38
140
0.0
102
RTVSPost2010PropOp38
 70
     1
102
RTVSPost2010Prop39
140
1.0
102
RTVSPost2010PropOp39
 70
     1
102
RTVSPost2010Prop40
 90
        0
102
RTVSPost2010PropOp40
 70
     1
102
RTVSPost2010Prop41ColorIndex
 90
       18
102
RTVSPost2010Prop41ColorRGB
 90
        0
102
RTVSPost2010PropOp41
 70
     1
102
RTVSPost2010Prop42
 90
       50
102
RTVSPost2010PropOp42
 70
     1
102
RTVSPost2010Prop43
 90
        3
102
RTVSPost2010PropOp43
 70
     1
102
RTVSPost2010Prop44ColorIndex
 90
        5
102
RTVSPost2010Prop44ColorRGB
 90
      255
102
RTVSPost2010PropOp44
 70
     1
102
RTVSPost2010Prop45
280
     0
102
RTVSPost2010PropOp45
 70
     1
102
RTVSPost2010Prop46
 90
       50
102
RTVSPost2010PropOp46
 70
     1
102
RTVSPost2010Prop47
 90
       50
102
RTVSPost2010PropOp47
 70
     1
102
RTVSPost2010Prop48
 90
       50
102
RTVSPost2010PropOp48
 70
     1
102
RTVSPost2010Prop49
280
     0
102
RTVSPost2010PropOp49
 70
     1
102
RTVSPost2010Prop50
 90
       50
102
RTVSPost2010PropOp50
 70
     1
102
RTVSPost2010Prop51ColorIndex
 90
      256
102
RTVSPost2010Prop51ColorRGB
 90
-16777216
102
RTVSPost2010PropOp51
 70
     0
102
RTVSPost2010Prop52
140
1.0
102
RTVSPost2010PropOp52
 70
     0
102
RTVSPost2010Prop53
 90
        2
102
RTVSPost2010PropOp53
 70
     1
102
RTVSPost2010Prop54
  1
strokes_ogs.tif
102
RTVSPost2010PropOp54
 70
     1
102
RTVSPost2010Prop55
280
     0
102
RTVSPost2010PropOp55
 70
     1
102
RTVSPost2010Prop56
140
1.0
102
RTVSPost2010PropOp56
 70
     1
102
RTVSPost2010Prop57
140
1.0
102
RTVSPost2010PropOp57
 70
     1
  0
XRECORD
  5
18A
102
{ACAD_REACTORS
330
189
102
}
330
189
100
AcDbXrecord
280
     1
102
RTVSPost2010Prop28
280
     0
102
RTVSPost2010PropOp28
 70
     1
102
RTVSPost2010Prop29
280
     1
102
RTVSPost2010PropOp29
 70
     1
102
RTVSPost2010Prop30
280
     1
102
RTVSPost2010PropOp30
 70
     1
102
RTVSPost2010Prop31
280
     0
102
RTVSPost2010PropOp31
 70
     1
102
RTVSPost2010Prop32
280
     0
102
RTVSPost2010PropOp32
 70
     1
102
RTVSPost2010Prop33
280
     0
102
RTVSPost2010PropOp33
 70
     1
102
RTVSPost2010Prop34
280
     0
102
RTVSPost2010PropOp34
 70
     1
102
RTVSPost2010Prop35
280
     0
102
RTVSPost2010PropOp35
 70
     1
102
RTVSPost2010Prop36
280
     0
102
RTVSPost2010PropOp36
 70
     1
102
RTVSPost2010Prop37
 90
       50
102
RTVSPost2010PropOp37
 70
     1
102
RTVSPost2010Prop38
140
0.0
102
RTVSPost2010PropOp38
 70
     1
102
RTVSPost2010Prop39
140
1.0
102
RTVSPost2010PropOp39
 70
     1
102
RTVSPost2010Prop40
 90
        0
102
RTVSPost2010PropOp40
 70
     1
102
RTVSPost2010Prop41ColorIndex
 90
       18
102
RTVSPost2010Prop41ColorRGB
 90
        0
102
RTVSPost2010PropOp41
 70
     1
102
RTVSPost2010Prop42
 90
       50
102
RTVSPost2010PropOp42
 70
     1
102
RTVSPost2010Prop43
 90
        3
102
RTVSPost2010PropOp43
 70
     1
102
RTVSPost2010Prop44ColorIndex
 90
        5
102
RTVSPost2010Prop44ColorRGB
 90
      255
102
RTVSPost2010PropOp44
 70
     1
102
RTVSPost2010Prop45
280
     0
102
RTVSPost2010PropOp45
 70
     1
102
RTVSPost2010Prop46
 90
       50
102
RTVSPost2010PropOp46
 70
     1
102
RTVSPost2010Prop47
 90
       50
102
RTVSPost2010PropOp47
 70
     1
102
RTVSPost2010Prop48
 90
       50
102
RTVSPost2010PropOp48
 70
     1
102
RTVSPost2010Prop49
280
     0
102
RTVSPost2010PropOp49
 70
     1
102
RTVSPost2010Prop50
 90
       50
102
RTVSPost2010PropOp50
 70
     1
102
RTVSPost2010Prop51ColorIndex
 90
      256
102
RTVSPost2010Prop51ColorRGB
 90
-16777216
102
RTVSPost2010PropOp51
 70
     0
102
RTVSPost2010Prop52
140
1.0
102
RTVSPost2010PropOp52
 70
     0
102
RTVSPost2010Prop53
 90
        2
102
RTVSPost2010PropOp53
 70
     1
102
RTVSPost2010Prop54
  1
strokes_ogs.tif
102
RTVSPost2010PropOp54
 70
     1
102
RTVSPost2010Prop55
280
     0
102
RTVSPost2010PropOp55
 70
     1
102
RTVSPost2010Prop56
140
1.0
102
RTVSPost2010PropOp56
 70
     1
102
RTVSPost2010Prop57
140
1.0
102
RTVSPost2010PropOp57
 70
     1
  0
XRECORD
  5
18E
102
{ACAD_REACTORS
330
18D
102
}
330
18D
100
AcDbXrecord
280
     1
102
RTVSPost2010Prop28
280
     0
102
RTVSPost2010PropOp28
 70
     1
102
RTVSPost2010Prop29
280
     1
102
RTVSPost2010PropOp29
 70
     1
102
RTVSPost2010Prop30
280
     1
102
RTVSPost2010PropOp30
 70
     1
102
RTVSPost2010Prop31
280
     0
102
RTVSPost2010PropOp31
 70
     1
102
RTVSPost2010Prop32
280
     0
102
RTVSPost2010PropOp32
 70
     1
102
RTVSPost2010Prop33
280
     0
102
RTVSPost2010PropOp33
 70
     1
102
RTVSPost2010Prop34
280
     0
102
RTVSPost2010PropOp34
 70
     1
102
RTVSPost2010Prop35
280
     0
102
RTVSPost2010PropOp35
 70
     1
102
RTVSPost2010Prop36
280
     0
102
RTVSPost2010PropOp36
 70
     1
102
RTVSPost2010Prop37
 90
       50
102
RTVSPost2010PropOp37
 70
     1
102
RTVSPost2010Prop38
140
0.0
102
RTVSPost2010PropOp38
 70
     1
102
RTVSPost2010Prop39
140
1.0
102
RTVSPost2010PropOp39
 70
     1
102
RTVSPost2010Prop40
 90
        0
102
RTVSPost2010PropOp40
 70
     1
102
RTVSPost2010Prop41ColorIndex
 90
       18
102
RTVSPost2010Prop41ColorRGB
 90
        0
102
RTVSPost2010PropOp41
 70
     1
102
RTVSPost2010Prop42
 90
       50
102
RTVSPost2010PropOp42
 70
     1
102
RTVSPost2010Prop43
 90
        3
102
RTVSPost2010PropOp43
 70
     1
102
RTVSPost2010Prop44ColorIndex
 90
        5
102
RTVSPost2010Prop44ColorRGB
 90
      255
102
RTVSPost2010PropOp44
 70
     1
102
RTVSPost2010Prop45
280
     0
102
RTVSPost2010PropOp45
 70
     1
102
RTVSPost2010Prop46
 90
       50
102
RTVSPost2010PropOp46
 70
     1
102
RTVSPost2010Prop47
 90
       50
102
RTVSPost2010PropOp47
 70
     1
102
RTVSPost2010Prop48
 90
       50
102
RTVSPost2010PropOp48
 70
     1
102
RTVSPost2010Prop49
280
     0
102
RTVSPost2010PropOp49
 70
     1
102
RTVSPost2010Prop50
 90
       50
102
RTVSPost2010PropOp50
 70
     1
102
RTVSPost2010Prop51ColorIndex
 90
      256
102
RTVSPost2010Prop51ColorRGB
 90
-16777216
102
RTVSPost2010PropOp51
 70
     0
102
RTVSPost2010Prop52
140
1.0
102
RTVSPost2010PropOp52
 70
     0
102
RTVSPost2010Prop53
 90
        2
102
RTVSPost2010PropOp53
 70
     1
102
RTVSPost2010Prop54
  1
strokes_ogs.tif
102
RTVSPost2010PropOp54
 70
     1
102
RTVSPost2010Prop55
280
     0
102
RTVSPost2010PropOp55
 70
     1
102
RTVSPost2010Prop56
140
1.0
102
RTVSPost2010PropOp56
 70
     1
102
RTVSPost2010Prop57
140
1.0
102
RTVSPost2010PropOp57
 70
     1
  0
XRECORD
  5
1A8
102
{ACAD_REACTORS
330
1A7
102
}
330
1A7
100
AcDbXrecord
280
     1
102
RTVSPost2010Prop28
280
     0
102
RTVSPost2010PropOp28
 70
     0
102
RTVSPost2010Prop29
280
     1
102
RTVSPost2010PropOp29
 70
     0
102
RTVSPost2010Prop30
280
     1
102
RTVSPost2010PropOp30
 70
     0
102
RTVSPost2010Prop31
280
     0
102
RTVSPost2010PropOp31
 70
     0
102
RTVSPost2010Prop32
280
     0
102
RTVSPost2010PropOp32
 70
     0
102
RTVSPost2010Prop33
280
     0
102
RTVSPost2010PropOp33
 70
     0
102
RTVSPost2010Prop34
280
     0
102
RTVSPost2010PropOp34
 70
     0
102
RTVSPost2010Prop35
280
     0
102
RTVSPost2010PropOp35
 70
     0
102
RTVSPost2010Prop36
280
     0
102
RTVSPost2010PropOp36
 70
     0
102
RTVSPost2010Prop37
 90
       50
102
RTVSPost2010PropOp37
 70
     0
102
RTVSPost2010Prop38
140
0.0
102
RTVSPost2010PropOp38
 70
     0
102
RTVSPost2010Prop39
140
1.0
102
RTVSPost2010PropOp39
 70
     0
102
RTVSPost2010Prop40
 90
        0
102
RTVSPost2010PropOp40
 70
     0
102
RTVSPost2010Prop41ColorIndex
 90
       18
102
RTVSPost2010Prop41ColorRGB
 90
        0
102
RTVSPost2010PropOp41
 70
     0
102
RTVSPost2010Prop42
 90
       50
102
RTVSPost2010PropOp42
 70
     0
102
RTVSPost2010Prop43
 90
        3
102
RTVSPost2010PropOp43
 70
     0
102
RTVSPost2010Prop44ColorIndex
 90
        5
102
RTVSPost2010Prop44ColorRGB
 90
      255
102
RTVSPost2010PropOp44
 70
     0
102
RTVSPost2010Prop45
280
     0
102
RTVSPost2010PropOp45
 70
     0
102
RTVSPost2010Prop46
 90
       50
102
RTVSPost2010PropOp46
 70
     0
102
RTVSPost2010Prop47
 90
       50
102
RTVSPost2010PropOp47
 70
     0
102
RTVSPost2010Prop48
 90
       50
102
RTVSPost2010PropOp48
 70
     0
102
RTVSPost2010Prop49
280
     0
102
RTVSPost2010PropOp49
 70
     0
102
RTVSPost2010Prop50
 90
       50
102
RTVSPost2010PropOp50
 70
     0
102
RTVSPost2010Prop51ColorIndex
 90
      256
102
RTVSPost2010Prop51ColorRGB
 90
-16777216
102
RTVSPost2010PropOp51
 70
     0
102
RTVSPost2010Prop52
140
1.0
102
RTVSPost2010PropOp52
 70
     0
102
RTVSPost2010Prop53
 90
        2
102
RTVSPost2010PropOp53
 70
     0
102
RTVSPost2010Prop54
  1
strokes_ogs.tif
102
RTVSPost2010PropOp54
 70
     0
102
RTVSPost2010Prop55
280
     0
102
RTVSPost2010PropOp55
 70
     0
102
RTVSPost2010Prop56
140
1.0
102
RTVSPost2010PropOp56
 70
     0
102
RTVSPost2010Prop57
140
1.0
102
RTVSPost2010PropOp57
 70
     0
  0
XRECORD
  5
196
102
{ACAD_REACTORS
330
195
102
}
330
195
100
AcDbXrecord
280
     1
102
RTVSPost2010Prop28
280
     0
102
RTVSPost2010PropOp28
 70
     1
102
RTVSPost2010Prop29
280
     1
102
RTVSPost2010PropOp29
 70
     1
102
RTVSPost2010Prop30
280
     1
102
RTVSPost2010PropOp30
 70
     1
102
RTVSPost2010Prop31
280
     0
102
RTVSPost2010PropOp31
 70
     1
102
RTVSPost2010Prop32
280
     0
102
RTVSPost2010PropOp32
 70
     1
102
RTVSPost2010Prop33
280
     0
102
RTVSPost2010PropOp33
 70
     1
102
RTVSPost2010Prop34
280
     0
102
RTVSPost2010PropOp34
 70
     1
102
RTVSPost2010Prop35
280
     0
102
RTVSPost2010PropOp35
 70
     1
102
RTVSPost2010Prop36
280
     0
102
RTVSPost2010PropOp36
 70
     1
102
RTVSPost2010Prop37
 90
       50
102
RTVSPost2010PropOp37
 70
     1
102
RTVSPost2010Prop38
140
0.0
102
RTVSPost2010PropOp38
 70
     1
102
RTVSPost2010Prop39
140
1.0
102
RTVSPost2010PropOp39
 70
     1
102
RTVSPost2010Prop40
 90
        0
102
RTVSPost2010PropOp40
 70
     1
102
RTVSPost2010Prop41ColorIndex
 90
       18
102
RTVSPost2010Prop41ColorRGB
 90
        0
102
RTVSPost2010PropOp41
 70
     1
102
RTVSPost2010Prop42
 90
       50
102
RTVSPost2010PropOp42
 70
     1
102
RTVSPost2010Prop43
 90
        3
102
RTVSPost2010PropOp43
 70
     1
102
RTVSPost2010Prop44ColorIndex
 90
        5
102
RTVSPost2010Prop44ColorRGB
 90
      255
102
RTVSPost2010PropOp44
 70
     1
102
RTVSPost2010Prop45
280
     0
102
RTVSPost2010PropOp45
 70
     1
102
RTVSPost2010Prop46
 90
       50
102
RTVSPost2010PropOp46
 70
     1
102
RTVSPost2010Prop47
 90
       50
102
RTVSPost2010PropOp47
 70
     1
102
RTVSPost2010Prop48
 90
       50
102
RTVSPost2010PropOp48
 70
     1
102
RTVSPost2010Prop49
280
     0
102
RTVSPost2010PropOp49
 70
     1
102
RTVSPost2010Prop50
 90
       50
102
RTVSPost2010PropOp50
 70
     1
102
RTVSPost2010Prop51ColorIndex
 90
      256
102
RTVSPost2010Prop51ColorRGB
 90
-16777216
102
RTVSPost2010PropOp51
 70
     0
102
RTVSPost2010Prop52
140
1.0
102
RTVSPost2010PropOp52
 70
     0
102
RTVSPost2010Prop53
 90
        2
102
RTVSPost2010PropOp53
 70
     1
102
RTVSPost2010Prop54
  1
strokes_ogs.tif
102
RTVSPost2010PropOp54
 70
     1
102
RTVSPost2010Prop55
280
     0
102
RTVSPost2010PropOp55
 70
     1
102
RTVSPost2010Prop56
140
1.0
102
RTVSPost2010PropOp56
 70
     1
102
RTVSPost2010Prop57
140
1.0
102
RTVSPost2010PropOp57
 70
     1
  0
XRECORD
  5
17A
102
{ACAD_REACTORS
330
179
102
}
330
179
100
AcDbXrecord
280
     1
102
RTVSPost2010Prop28
280
     0
102
RTVSPost2010PropOp28
 70
     1
102
RTVSPost2010Prop29
280
     1
102
RTVSPost2010PropOp29
 70
     1
102
RTVSPost2010Prop30
280
     1
102
RTVSPost2010PropOp30
 70
     1
102
RTVSPost2010Prop31
280
     0
102
RTVSPost2010PropOp31
 70
     1
102
RTVSPost2010Prop32
280
     0
102
RTVSPost2010PropOp32
 70
     1
102
RTVSPost2010Prop33
280
     0
102
RTVSPost2010PropOp33
 70
     1
102
RTVSPost2010Prop34
280
     0
102
RTVSPost2010PropOp34
 70
     1
102
RTVSPost2010Prop35
280
     0
102
RTVSPost2010PropOp35
 70
     1
102
RTVSPost2010Prop36
280
     0
102
RTVSPost2010PropOp36
 70
     1
102
RTVSPost2010Prop37
 90
       50
102
RTVSPost2010PropOp37
 70
     1
102
RTVSPost2010Prop38
140
0.0
102
RTVSPost2010PropOp38
 70
     1
102
RTVSPost2010Prop39
140
1.0
102
RTVSPost2010PropOp39
 70
     1
102
RTVSPost2010Prop40
 90
        0
102
RTVSPost2010PropOp40
 70
     1
102
RTVSPost2010Prop41ColorIndex
 90
       18
102
RTVSPost2010Prop41ColorRGB
 90
        0
102
RTVSPost2010PropOp41
 70
     1
102
RTVSPost2010Prop42
 90
       50
102
RTVSPost2010PropOp42
 70
     1
102
RTVSPost2010Prop43
 90
        3
102
RTVSPost2010PropOp43
 70
     1
102
RTVSPost2010Prop44ColorIndex
 90
        5
102
RTVSPost2010Prop44ColorRGB
 90
      255
102
RTVSPost2010PropOp44
 70
     1
102
RTVSPost2010Prop45
280
     0
102
RTVSPost2010PropOp45
 70
     1
102
RTVSPost2010Prop46
 90
       50
102
RTVSPost2010PropOp46
 70
     1
102
RTVSPost2010Prop47
 90
       50
102
RTVSPost2010PropOp47
 70
     1
102
RTVSPost2010Prop48
 90
       50
102
RTVSPost2010PropOp48
 70
     1
102
RTVSPost2010Prop49
280
     0
102
RTVSPost2010PropOp49
 70
     1
102
RTVSPost2010Prop50
 90
       50
102
RTVSPost2010PropOp50
 70
     1
102
RTVSPost2010Prop51ColorIndex
 90
      256
102
RTVSPost2010Prop51ColorRGB
 90
-16777216
102
RTVSPost2010PropOp51
 70
     0
102
RTVSPost2010Prop52
140
1.0
102
RTVSPost2010PropOp52
 70
     0
102
RTVSPost2010Prop53
 90
        2
102
RTVSPost2010PropOp53
 70
     1
102
RTVSPost2010Prop54
  1
strokes_ogs.tif
102
RTVSPost2010PropOp54
 70
     1
102
RTVSPost2010Prop55
280
     0
102
RTVSPost2010PropOp55
 70
     1
102
RTVSPost2010Prop56
140
1.0
102
RTVSPost2010PropOp56
 70
     1
102
RTVSPost2010Prop57
140
1.0
102
RTVSPost2010PropOp57
 70
     1
  0
XRECORD
  5
17C
102
{ACAD_REACTORS
330
17B
102
}
330
17B
100
AcDbXrecord
280
     1
102
RTVSPost2010Prop28
280
     0
102
RTVSPost2010PropOp28
 70
     1
102
RTVSPost2010Prop29
280
     1
102
RTVSPost2010PropOp29
 70
     1
102
RTVSPost2010Prop30
280
     1
102
RTVSPost2010PropOp30
 70
     1
102
RTVSPost2010Prop31
280
     0
102
RTVSPost2010PropOp31
 70
     1
102
RTVSPost2010Prop32
280
     0
102
RTVSPost2010PropOp32
 70
     1
102
RTVSPost2010Prop33
280
     0
102
RTVSPost2010PropOp33
 70
     1
102
RTVSPost2010Prop34
280
     0
102
RTVSPost2010PropOp34
 70
     1
102
RTVSPost2010Prop35
280
     0
102
RTVSPost2010PropOp35
 70
     1
102
RTVSPost2010Prop36
280
     0
102
RTVSPost2010PropOp36
 70
     1
102
RTVSPost2010Prop37
 90
       50
102
RTVSPost2010PropOp37
 70
     1
102
RTVSPost2010Prop38
140
0.0
102
RTVSPost2010PropOp38
 70
     1
102
RTVSPost2010Prop39
140
1.0
102
RTVSPost2010PropOp39
 70
     1
102
RTVSPost2010Prop40
 90
        0
102
RTVSPost2010PropOp40
 70
     1
102
RTVSPost2010Prop41ColorIndex
 90
       18
102
RTVSPost2010Prop41ColorRGB
 90
        0
102
RTVSPost2010PropOp41
 70
     1
102
RTVSPost2010Prop42
 90
       50
102
RTVSPost2010PropOp42
 70
     1
102
RTVSPost2010Prop43
 90
        3
102
RTVSPost2010PropOp43
 70
     1
102
RTVSPost2010Prop44ColorIndex
 90
        5
102
RTVSPost2010Prop44ColorRGB
 90
      255
102
RTVSPost2010PropOp44
 70
     1
102
RTVSPost2010Prop45
280
     0
102
RTVSPost2010PropOp45
 70
     1
102
RTVSPost2010Prop46
 90
       50
102
RTVSPost2010PropOp46
 70
     1
102
RTVSPost2010Prop47
 90
       50
102
RTVSPost2010PropOp47
 70
     1
102
RTVSPost2010Prop48
 90
       50
102
RTVSPost2010PropOp48
 70
     1
102
RTVSPost2010Prop49
280
     0
102
RTVSPost2010PropOp49
 70
     1
102
RTVSPost2010Prop50
 90
       50
102
RTVSPost2010PropOp50
 70
     1
102
RTVSPost2010Prop51ColorIndex
 90
      256
102
RTVSPost2010Prop51ColorRGB
 90
-16777216
102
RTVSPost2010PropOp51
 70
     0
102
RTVSPost2010Prop52
140
1.0
102
RTVSPost2010PropOp52
 70
     0
102
RTVSPost2010Prop53
 90
        2
102
RTVSPost2010PropOp53
 70
     1
102
RTVSPost2010Prop54
  1
strokes_ogs.tif
102
RTVSPost2010PropOp54
 70
     1
102
RTVSPost2010Prop55
280
     0
102
RTVSPost2010PropOp55
 70
     1
102
RTVSPost2010Prop56
140
1.0
102
RTVSPost2010PropOp56
 70
     1
102
RTVSPost2010Prop57
140
1.0
102
RTVSPost2010PropOp57
 70
     1
  0
XRECORD
  5
17E
102
{ACAD_REACTORS
330
17D
102
}
330
17D
100
AcDbXrecord
280
     1
102
RTVSPost2010Prop28
280
     0
102
RTVSPost2010PropOp28
 70
     1
102
RTVSPost2010Prop29
280
     1
102
RTVSPost2010PropOp29
 70
     1
102
RTVSPost2010Prop30
280
     1
102
RTVSPost2010PropOp30
 70
     1
102
RTVSPost2010Prop31
280
     0
102
RTVSPost2010PropOp31
 70
     1
102
RTVSPost2010Prop32
280
     0
102
RTVSPost2010PropOp32
 70
     1
102
RTVSPost2010Prop33
280
     0
102
RTVSPost2010PropOp33
 70
     1
102
RTVSPost2010Prop34
280
     0
102
RTVSPost2010PropOp34
 70
     1
102
RTVSPost2010Prop35
280
     0
102
RTVSPost2010PropOp35
 70
     1
102
RTVSPost2010Prop36
280
     0
102
RTVSPost2010PropOp36
 70
     1
102
RTVSPost2010Prop37
 90
       50
102
RTVSPost2010PropOp37
 70
     1
102
RTVSPost2010Prop38
140
0.0
102
RTVSPost2010PropOp38
 70
     1
102
RTVSPost2010Prop39
140
1.0
102
RTVSPost2010PropOp39
 70
     1
102
RTVSPost2010Prop40
 90
        0
102
RTVSPost2010PropOp40
 70
     1
102
RTVSPost2010Prop41ColorIndex
 90
       18
102
RTVSPost2010Prop41ColorRGB
 90
        0
102
RTVSPost2010PropOp41
 70
     1
102
RTVSPost2010Prop42
 90
       50
102
RTVSPost2010PropOp42
 70
     1
102
RTVSPost2010Prop43
 90
        3
102
RTVSPost2010PropOp43
 70
     1
102
RTVSPost2010Prop44ColorIndex
 90
        5
102
RTVSPost2010Prop44ColorRGB
 90
      255
102
RTVSPost2010PropOp44
 70
     1
102
RTVSPost2010Prop45
280
     0
102
RTVSPost2010PropOp45
 70
     1
102
RTVSPost2010Prop46
 90
       50
102
RTVSPost2010PropOp46
 70
     1
102
RTVSPost2010Prop47
 90
       50
102
RTVSPost2010PropOp47
 70
     1
102
RTVSPost2010Prop48
 90
       50
102
RTVSPost2010PropOp48
 70
     1
102
RTVSPost2010Prop49
280
     0
102
RTVSPost2010PropOp49
 70
     1
102
RTVSPost2010Prop50
 90
       50
102
RTVSPost2010PropOp50
 70
     1
102
RTVSPost2010Prop51ColorIndex
 90
      256
102
RTVSPost2010Prop51ColorRGB
 90
-16777216
102
RTVSPost2010PropOp51
 70
     0
102
RTVSPost2010Prop52
140
1.0
102
RTVSPost2010PropOp52
 70
     0
102
RTVSPost2010Prop53
 90
        2
102
RTVSPost2010PropOp53
 70
     1
102
RTVSPost2010Prop54
  1
strokes_ogs.tif
102
RTVSPost2010PropOp54
 70
     1
102
RTVSPost2010Prop55
280
     0
102
RTVSPost2010PropOp55
 70
     1
102
RTVSPost2010Prop56
140
1.0
102
RTVSPost2010PropOp56
 70
     1
102
RTVSPost2010Prop57
140
1.0
102
RTVSPost2010PropOp57
 70
     1
  0
XRECORD
  5
180
102
{ACAD_REACTORS
330
17F
102
}
330
17F
100
AcDbXrecord
280
     1
102
RTVSPost2010Prop28
280
     0
102
RTVSPost2010PropOp28
 70
     1
102
RTVSPost2010Prop29
280
     1
102
RTVSPost2010PropOp29
 70
     1
102
RTVSPost2010Prop30
280
     1
102
RTVSPost2010PropOp30
 70
     1
102
RTVSPost2010Prop31
280
     0
102
RTVSPost2010PropOp31
 70
     1
102
RTVSPost2010Prop32
280
     0
102
RTVSPost2010PropOp32
 70
     1
102
RTVSPost2010Prop33
280
     0
102
RTVSPost2010PropOp33
 70
     1
102
RTVSPost2010Prop34
280
     0
102
RTVSPost2010PropOp34
 70
     1
102
RTVSPost2010Prop35
280
     0
102
RTVSPost2010PropOp35
 70
     1
102
RTVSPost2010Prop36
280
     0
102
RTVSPost2010PropOp36
 70
     1
102
RTVSPost2010Prop37
 90
       50
102
RTVSPost2010PropOp37
 70
     1
102
RTVSPost2010Prop38
140
0.0
102
RTVSPost2010PropOp38
 70
     1
102
RTVSPost2010Prop39
140
1.0
102
RTVSPost2010PropOp39
 70
     1
102
RTVSPost2010Prop40
 90
        0
102
RTVSPost2010PropOp40
 70
     1
102
RTVSPost2010Prop41ColorIndex
 90
       18
102
RTVSPost2010Prop41ColorRGB
 90
        0
102
RTVSPost2010PropOp41
 70
     1
102
RTVSPost2010Prop42
 90
       50
102
RTVSPost2010PropOp42
 70
     1
102
RTVSPost2010Prop43
 90
        3
102
RTVSPost2010PropOp43
 70
     1
102
RTVSPost2010Prop44ColorIndex
 90
        5
102
RTVSPost2010Prop44ColorRGB
 90
      255
102
RTVSPost2010PropOp44
 70
     1
102
RTVSPost2010Prop45
280
     0
102
RTVSPost2010PropOp45
 70
     1
102
RTVSPost2010Prop46
 90
       50
102
RTVSPost2010PropOp46
 70
     1
102
RTVSPost2010Prop47
 90
       50
102
RTVSPost2010PropOp47
 70
     1
102
RTVSPost2010Prop48
 90
       50
102
RTVSPost2010PropOp48
 70
     1
102
RTVSPost2010Prop49
280
     0
102
RTVSPost2010PropOp49
 70
     1
102
RTVSPost2010Prop50
 90
       50
102
RTVSPost2010PropOp50
 70
     1
102
RTVSPost2010Prop51ColorIndex
 90
      256
102
RTVSPost2010Prop51ColorRGB
 90
-16777216
102
RTVSPost2010PropOp51
 70
     0
102
RTVSPost2010Prop52
140
1.0
102
RTVSPost2010PropOp52
 70
     0
102
RTVSPost2010Prop53
 90
        2
102
RTVSPost2010PropOp53
 70
     1
102
RTVSPost2010Prop54
  1
strokes_ogs.tif
102
RTVSPost2010PropOp54
 70
     1
102
RTVSPost2010Prop55
280
     0
102
RTVSPost2010PropOp55
 70
     1
102
RTVSPost2010Prop56
140
1.0
102
RTVSPost2010PropOp56
 70
     1
102
RTVSPost2010Prop57
140
1.0
102
RTVSPost2010PropOp57
 70
     1
  0
XRECORD
  5
188
102
{ACAD_REACTORS
330
187
102
}
330
187
100
AcDbXrecord
280
     1
102
RTVSPost2010Prop28
280
     0
102
RTVSPost2010PropOp28
 70
     1
102
RTVSPost2010Prop29
280
     1
102
RTVSPost2010PropOp29
 70
     1
102
RTVSPost2010Prop30
280
     1
102
RTVSPost2010PropOp30
 70
     1
102
RTVSPost2010Prop31
280
     0
102
RTVSPost2010PropOp31
 70
     1
102
RTVSPost2010Prop32
280
     0
102
RTVSPost2010PropOp32
 70
     1
102
RTVSPost2010Prop33
280
     0
102
RTVSPost2010PropOp33
 70
     1
102
RTVSPost2010Prop34
280
     0
102
RTVSPost2010PropOp34
 70
     1
102
RTVSPost2010Prop35
280
     0
102
RTVSPost2010PropOp35
 70
     1
102
RTVSPost2010Prop36
280
     0
102
RTVSPost2010PropOp36
 70
     1
102
RTVSPost2010Prop37
 90
       50
102
RTVSPost2010PropOp37
 70
     1
102
RTVSPost2010Prop38
140
0.0
102
RTVSPost2010PropOp38
 70
     1
102
RTVSPost2010Prop39
140
1.0
102
RTVSPost2010PropOp39
 70
     1
102
RTVSPost2010Prop40
 90
        0
102
RTVSPost2010PropOp40
 70
     1
102
RTVSPost2010Prop41ColorIndex
 90
       18
102
RTVSPost2010Prop41ColorRGB
 90
        0
102
RTVSPost2010PropOp41
 70
     1
102
RTVSPost2010Prop42
 90
       50
102
RTVSPost2010PropOp42
 70
     1
102
RTVSPost2010Prop43
 90
        3
102
RTVSPost2010PropOp43
 70
     1
102
RTVSPost2010Prop44ColorIndex
 90
        5
102
RTVSPost2010Prop44ColorRGB
 90
      255
102
RTVSPost2010PropOp44
 70
     1
102
RTVSPost2010Prop45
280
     0
102
RTVSPost2010PropOp45
 70
     1
102
RTVSPost2010Prop46
 90
       50
102
RTVSPost2010PropOp46
 70
     1
102
RTVSPost2010Prop47
 90
       50
102
RTVSPost2010PropOp47
 70
     1
102
RTVSPost2010Prop48
 90
       50
102
RTVSPost2010PropOp48
 70
     1
102
RTVSPost2010Prop49
280
     0
102
RTVSPost2010PropOp49
 70
     1
102
RTVSPost2010Prop50
 90
       50
102
RTVSPost2010PropOp50
 70
     1
102
RTVSPost2010Prop51ColorIndex
 90
      256
102
RTVSPost2010Prop51ColorRGB
 90
-16777216
102
RTVSPost2010PropOp51
 70
     0
102
RTVSPost2010Prop52
140
1.0
102
RTVSPost2010PropOp52
 70
     0
102
RTVSPost2010Prop53
 90
        2
102
RTVSPost2010PropOp53
 70
     1
102
RTVSPost2010Prop54
  1
strokes_ogs.tif
102
RTVSPost2010PropOp54
 70
     1
102
RTVSPost2010Prop55
280
     0
102
RTVSPost2010PropOp55
 70
     1
102
RTVSPost2010Prop56
140
1.0
102
RTVSPost2010PropOp56
 70
     1
102
RTVSPost2010Prop57
140
1.0
102
RTVSPost2010PropOp57
 70
     1
  0
XRECORD
  5
1A4
102
{ACAD_REACTORS
330
1A3
102
}
330
1A3
100
AcDbXrecord
280
     1
102
RTVSPost2010Prop28
280
     0
102
RTVSPost2010PropOp28
 70
     0
102
RTVSPost2010Prop29
280
     1
102
RTVSPost2010PropOp29
 70
     0
102
RTVSPost2010Prop30
280
     1
102
RTVSPost2010PropOp30
 70
     0
102
RTVSPost2010Prop31
280
     0
102
RTVSPost2010PropOp31
 70
     0
102
RTVSPost2010Prop32
280
     0
102
RTVSPost2010PropOp32
 70
     0
102
RTVSPost2010Prop33
280
     0
102
RTVSPost2010PropOp33
 70
     0
102
RTVSPost2010Prop34
280
     0
102
RTVSPost2010PropOp34
 70
     0
102
RTVSPost2010Prop35
280
     0
102
RTVSPost2010PropOp35
 70
     0
102
RTVSPost2010Prop36
280
     0
102
RTVSPost2010PropOp36
 70
     0
102
RTVSPost2010Prop37
 90
       50
102
RTVSPost2010PropOp37
 70
     0
102
RTVSPost2010Prop38
140
0.0
102
RTVSPost2010PropOp38
 70
     0
102
RTVSPost2010Prop39
140
1.0
102
RTVSPost2010PropOp39
 70
     0
102
RTVSPost2010Prop40
 90
        0
102
RTVSPost2010PropOp40
 70
     0
102
RTVSPost2010Prop41ColorIndex
 90
       18
102
RTVSPost2010Prop41ColorRGB
 90
        0
102
RTVSPost2010PropOp41
 70
     0
102
RTVSPost2010Prop42
 90
       50
102
RTVSPost2010PropOp42
 70
     0
102
RTVSPost2010Prop43
 90
        3
102
RTVSPost2010PropOp43
 70
     0
102
RTVSPost2010Prop44ColorIndex
 90
        5
102
RTVSPost2010Prop44ColorRGB
 90
      255
102
RTVSPost2010PropOp44
 70
     0
102
RTVSPost2010Prop45
280
     0
102
RTVSPost2010PropOp45
 70
     0
102
RTVSPost2010Prop46
 90
       50
102
RTVSPost2010PropOp46
 70
     0
102
RTVSPost2010Prop47
 90
       50
102
RTVSPost2010PropOp47
 70
     0
102
RTVSPost2010Prop48
 90
       50
102
RTVSPost2010PropOp48
 70
     0
102
RTVSPost2010Prop49
280
     0
102
RTVSPost2010PropOp49
 70
     0
102
RTVSPost2010Prop50
 90
       50
102
RTVSPost2010PropOp50
 70
     0
102
RTVSPost2010Prop51ColorIndex
 90
      256
102
RTVSPost2010Prop51ColorRGB
 90
-16777216
102
RTVSPost2010PropOp51
 70
     0
102
RTVSPost2010Prop52
140
1.0
102
RTVSPost2010PropOp52
 70
     0
102
RTVSPost2010Prop53
 90
        2
102
RTVSPost2010PropOp53
 70
     0
102
RTVSPost2010Prop54
  1
strokes_ogs.tif
102
RTVSPost2010PropOp54
 70
     0
102
RTVSPost2010Prop55
280
     0
102
RTVSPost2010PropOp55
 70
     0
102
RTVSPost2010Prop56
140
1.0
102
RTVSPost2010PropOp56
 70
     0
102
RTVSPost2010Prop57
140
1.0
102
RTVSPost2010PropOp57
 70
     0
  0
XRECORD
  5
194
102
{ACAD_REACTORS
330
193
102
}
330
193
100
AcDbXrecord
280
     1
102
RTVSPost2010Prop28
280
     0
102
RTVSPost2010PropOp28
 70
     1
102
RTVSPost2010Prop29
280
     1
102
RTVSPost2010PropOp29
 70
     1
102
RTVSPost2010Prop30
280
     1
102
RTVSPost2010PropOp30
 70
     1
102
RTVSPost2010Prop31
280
     0
102
RTVSPost2010PropOp31
 70
     1
102
RTVSPost2010Prop32
280
     0
102
RTVSPost2010PropOp32
 70
     1
102
RTVSPost2010Prop33
280
     0
102
RTVSPost2010PropOp33
 70
     1
102
RTVSPost2010Prop34
280
     0
102
RTVSPost2010PropOp34
 70
     1
102
RTVSPost2010Prop35
280
     0
102
RTVSPost2010PropOp35
 70
     1
102
RTVSPost2010Prop36
280
     0
102
RTVSPost2010PropOp36
 70
     1
102
RTVSPost2010Prop37
 90
       50
102
RTVSPost2010PropOp37
 70
     1
102
RTVSPost2010Prop38
140
0.0
102
RTVSPost2010PropOp38
 70
     1
102
RTVSPost2010Prop39
140
1.0
102
RTVSPost2010PropOp39
 70
     1
102
RTVSPost2010Prop40
 90
        0
102
RTVSPost2010PropOp40
 70
     1
102
RTVSPost2010Prop41ColorIndex
 90
       18
102
RTVSPost2010Prop41ColorRGB
 90
        0
102
RTVSPost2010PropOp41
 70
     1
102
RTVSPost2010Prop42
 90
       50
102
RTVSPost2010PropOp42
 70
     1
102
RTVSPost2010Prop43
 90
        3
102
RTVSPost2010PropOp43
 70
     1
102
RTVSPost2010Prop44ColorIndex
 90
        5
102
RTVSPost2010Prop44ColorRGB
 90
      255
102
RTVSPost2010PropOp44
 70
     1
102
RTVSPost2010Prop45
280
     0
102
RTVSPost2010PropOp45
 70
     1
102
RTVSPost2010Prop46
 90
       50
102
RTVSPost2010PropOp46
 70
     1
102
RTVSPost2010Prop47
 90
       50
102
RTVSPost2010PropOp47
 70
     1
102
RTVSPost2010Prop48
 90
       50
102
RTVSPost2010PropOp48
 70
     1
102
RTVSPost2010Prop49
280
     0
102
RTVSPost2010PropOp49
 70
     1
102
RTVSPost2010Prop50
 90
       50
102
RTVSPost2010PropOp50
 70
     1
102
RTVSPost2010Prop51ColorIndex
 90
      256
102
RTVSPost2010Prop51ColorRGB
 90
-16777216
102
RTVSPost2010PropOp51
 70
     0
102
RTVSPost2010Prop52
140
1.0
102
RTVSPost2010PropOp52
 70
     0
102
RTVSPost2010Prop53
 90
        2
102
RTVSPost2010PropOp53
 70
     1
102
RTVSPost2010Prop54
  1
strokes_ogs.tif
102
RTVSPost2010PropOp54
 70
     1
102
RTVSPost2010Prop55
280
     0
102
RTVSPost2010PropOp55
 70
     1
102
RTVSPost2010Prop56
140
1.0
102
RTVSPost2010PropOp56
 70
     1
102
RTVSPost2010Prop57
140
1.0
102
RTVSPost2010PropOp57
 70
     1
  0
XRECORD
  5
1A6
102
{ACAD_REACTORS
330
1A5
102
}
330
1A5
100
AcDbXrecord
280
     1
102
RTVSPost2010Prop28
280
     0
102
RTVSPost2010PropOp28
 70
     0
102
RTVSPost2010Prop29
280
     1
102
RTVSPost2010PropOp29
 70
     0
102
RTVSPost2010Prop30
280
     1
102
RTVSPost2010PropOp30
 70
     0
102
RTVSPost2010Prop31
280
     0
102
RTVSPost2010PropOp31
 70
     0
102
RTVSPost2010Prop32
280
     0
102
RTVSPost2010PropOp32
 70
     0
102
RTVSPost2010Prop33
280
     0
102
RTVSPost2010PropOp33
 70
     0
102
RTVSPost2010Prop34
280
     0
102
RTVSPost2010PropOp34
 70
     0
102
RTVSPost2010Prop35
280
     0
102
RTVSPost2010PropOp35
 70
     0
102
RTVSPost2010Prop36
280
     0
102
RTVSPost2010PropOp36
 70
     0
102
RTVSPost2010Prop37
 90
       50
102
RTVSPost2010PropOp37
 70
     0
102
RTVSPost2010Prop38
140
0.0
102
RTVSPost2010PropOp38
 70
     0
102
RTVSPost2010Prop39
140
1.0
102
RTVSPost2010PropOp39
 70
     0
102
RTVSPost2010Prop40
 90
        0
102
RTVSPost2010PropOp40
 70
     0
102
RTVSPost2010Prop41ColorIndex
 90
       18
102
RTVSPost2010Prop41ColorRGB
 90
        0
102
RTVSPost2010PropOp41
 70
     0
102
RTVSPost2010Prop42
 90
       50
102
RTVSPost2010PropOp42
 70
     0
102
RTVSPost2010Prop43
 90
        3
102
RTVSPost2010PropOp43
 70
     0
102
RTVSPost2010Prop44ColorIndex
 90
        5
102
RTVSPost2010Prop44ColorRGB
 90
      255
102
RTVSPost2010PropOp44
 70
     0
102
RTVSPost2010Prop45
280
     0
102
RTVSPost2010PropOp45
 70
     0
102
RTVSPost2010Prop46
 90
       50
102
RTVSPost2010PropOp46
 70
     0
102
RTVSPost2010Prop47
 90
       50
102
RTVSPost2010PropOp47
 70
     0
102
RTVSPost2010Prop48
 90
       50
102
RTVSPost2010PropOp48
 70
     0
102
RTVSPost2010Prop49
280
     0
102
RTVSPost2010PropOp49
 70
     0
102
RTVSPost2010Prop50
 90
       50
102
RTVSPost2010PropOp50
 70
     0
102
RTVSPost2010Prop51ColorIndex
 90
      256
102
RTVSPost2010Prop51ColorRGB
 90
-16777216
102
RTVSPost2010PropOp51
 70
     0
102
RTVSPost2010Prop52
140
1.0
102
RTVSPost2010PropOp52
 70
     0
102
RTVSPost2010Prop53
 90
        2
102
RTVSPost2010PropOp53
 70
     0
102
RTVSPost2010Prop54
  1
strokes_ogs.tif
102
RTVSPost2010PropOp54
 70
     0
102
RTVSPost2010Prop55
280
     0
102
RTVSPost2010PropOp55
 70
     0
102
RTVSPost2010Prop56
140
1.0
102
RTVSPost2010PropOp56
 70
     0
102
RTVSPost2010Prop57
140
1.0
102
RTVSPost2010PropOp57
 70
     0
  0
XRECORD
  5
18C
102
{ACAD_REACTORS
330
18B
102
}
330
18B
100
AcDbXrecord
280
     1
102
RTVSPost2010Prop28
280
     0
102
RTVSPost2010PropOp28
 70
     1
102
RTVSPost2010Prop29
280
     1
102
RTVSPost2010PropOp29
 70
     1
102
RTVSPost2010Prop30
280
     1
102
RTVSPost2010PropOp30
 70
     1
102
RTVSPost2010Prop31
280
     0
102
RTVSPost2010PropOp31
 70
     1
102
RTVSPost2010Prop32
280
     0
102
RTVSPost2010PropOp32
 70
     1
102
RTVSPost2010Prop33
280
     0
102
RTVSPost2010PropOp33
 70
     1
102
RTVSPost2010Prop34
280
     0
102
RTVSPost2010PropOp34
 70
     1
102
RTVSPost2010Prop35
280
     0
102
RTVSPost2010PropOp35
 70
     1
102
RTVSPost2010Prop36
280
     0
102
RTVSPost2010PropOp36
 70
     1
102
RTVSPost2010Prop37
 90
       50
102
RTVSPost2010PropOp37
 70
     1
102
RTVSPost2010Prop38
140
0.0
102
RTVSPost2010PropOp38
 70
     1
102
RTVSPost2010Prop39
140
1.0
102
RTVSPost2010PropOp39
 70
     1
102
RTVSPost2010Prop40
 90
        0
102
RTVSPost2010PropOp40
 70
     1
102
RTVSPost2010Prop41ColorIndex
 90
       18
102
RTVSPost2010Prop41ColorRGB
 90
        0
102
RTVSPost2010PropOp41
 70
     1
102
RTVSPost2010Prop42
 90
       50
102
RTVSPost2010PropOp42
 70
     1
102
RTVSPost2010Prop43
 90
        3
102
RTVSPost2010PropOp43
 70
     1
102
RTVSPost2010Prop44ColorIndex
 90
        5
102
RTVSPost2010Prop44ColorRGB
 90
      255
102
RTVSPost2010PropOp44
 70
     1
102
RTVSPost2010Prop45
280
     0
102
RTVSPost2010PropOp45
 70
     1
102
RTVSPost2010Prop46
 90
       50
102
RTVSPost2010PropOp46
 70
     1
102
RTVSPost2010Prop47
 90
       50
102
RTVSPost2010PropOp47
 70
     1
102
RTVSPost2010Prop48
 90
       50
102
RTVSPost2010PropOp48
 70
     1
102
RTVSPost2010Prop49
280
     0
102
RTVSPost2010PropOp49
 70
     1
102
RTVSPost2010Prop50
 90
       50
102
RTVSPost2010PropOp50
 70
     1
102
RTVSPost2010Prop51ColorIndex
 90
      256
102
RTVSPost2010Prop51ColorRGB
 90
-16777216
102
RTVSPost2010PropOp51
 70
     0
102
RTVSPost2010Prop52
140
1.0
102
RTVSPost2010PropOp52
 70
     0
102
RTVSPost2010Prop53
 90
        2
102
RTVSPost2010PropOp53
 70
     1
102
RTVSPost2010Prop54
  1
strokes_ogs.tif
102
RTVSPost2010PropOp54
 70
     1
102
RTVSPost2010Prop55
280
     0
102
RTVSPost2010PropOp55
 70
     1
102
RTVSPost2010Prop56
140
1.0
102
RTVSPost2010PropOp56
 70
     1
102
RTVSPost2010Prop57
140
1.0
102
RTVSPost2010PropOp57
 70
     1
  0
XRECORD
  5
1A2
102
{ACAD_REACTORS
330
1A1
102
}
330
1A1
100
AcDbXrecord
280
     1
102
RTVSPost2010Prop28
280
     0
102
RTVSPost2010PropOp28
 70
     1
102
RTVSPost2010Prop29
280
     1
102
RTVSPost2010PropOp29
 70
     1
102
RTVSPost2010Prop30
280
     1
102
RTVSPost2010PropOp30
 70
     1
102
RTVSPost2010Prop31
280
     0
102
RTVSPost2010PropOp31
 70
     1
102
RTVSPost2010Prop32
280
     0
102
RTVSPost2010PropOp32
 70
     1
102
RTVSPost2010Prop33
280
     0
102
RTVSPost2010PropOp33
 70
     1
102
RTVSPost2010Prop34
280
     0
102
RTVSPost2010PropOp34
 70
     1
102
RTVSPost2010Prop35
280
     0
102
RTVSPost2010PropOp35
 70
     1
102
RTVSPost2010Prop36
280
     0
102
RTVSPost2010PropOp36
 70
     1
102
RTVSPost2010Prop37
 90
       50
102
RTVSPost2010PropOp37
 70
     1
102
RTVSPost2010Prop38
140
0.0
102
RTVSPost2010PropOp38
 70
     1
102
RTVSPost2010Prop39
140
1.0
102
RTVSPost2010PropOp39
 70
     1
102
RTVSPost2010Prop40
 90
        0
102
RTVSPost2010PropOp40
 70
     1
102
RTVSPost2010Prop41ColorIndex
 90
       18
102
RTVSPost2010Prop41ColorRGB
 90
        0
102
RTVSPost2010PropOp41
 70
     1
102
RTVSPost2010Prop42
 90
       50
102
RTVSPost2010PropOp42
 70
     1
102
RTVSPost2010Prop43
 90
        3
102
RTVSPost2010PropOp43
 70
     1
102
RTVSPost2010Prop44ColorIndex
 90
        5
102
RTVSPost2010Prop44ColorRGB
 90
      255
102
RTVSPost2010PropOp44
 70
     1
102
RTVSPost2010Prop45
280
     0
102
RTVSPost2010PropOp45
 70
     1
102
RTVSPost2010Prop46
 90
       50
102
RTVSPost2010PropOp46
 70
     1
102
RTVSPost2010Prop47
 90
       50
102
RTVSPost2010PropOp47
 70
     1
102
RTVSPost2010Prop48
 90
       50
102
RTVSPost2010PropOp48
 70
     1
102
RTVSPost2010Prop49
280
     0
102
RTVSPost2010PropOp49
 70
     1
102
RTVSPost2010Prop50
 90
       50
102
RTVSPost2010PropOp50
 70
     1
102
RTVSPost2010Prop51ColorIndex
 90
      256
102
RTVSPost2010Prop51ColorRGB
 90
-16777216
102
RTVSPost2010PropOp51
 70
     0
102
RTVSPost2010Prop52
140
1.0
102
RTVSPost2010PropOp52
 70
     0
102
RTVSPost2010Prop53
 90
        2
102
RTVSPost2010PropOp53
 70
     1
102
RTVSPost2010Prop54
  1
strokes_ogs.tif
102
RTVSPost2010PropOp54
 70
     1
102
RTVSPost2010Prop55
280
     0
102
RTVSPost2010PropOp55
 70
     1
102
RTVSPost2010Prop56
140
1.0
102
RTVSPost2010PropOp56
 70
     1
102
RTVSPost2010Prop57
140
1.0
102
RTVSPost2010PropOp57
 70
     1
  0
XRECORD
  5
1A0
102
{ACAD_REACTORS
330
19F
102
}
330
19F
100
AcDbXrecord
280
     1
102
RTVSPost2010Prop28
280
     0
102
RTVSPost2010PropOp28
 70
     1
102
RTVSPost2010Prop29
280
     1
102
RTVSPost2010PropOp29
 70
     1
102
RTVSPost2010Prop30
280
     1
102
RTVSPost2010PropOp30
 70
     1
102
RTVSPost2010Prop31
280
     0
102
RTVSPost2010PropOp31
 70
     1
102
RTVSPost2010Prop32
280
     0
102
RTVSPost2010PropOp32
 70
     1
102
RTVSPost2010Prop33
280
     0
102
RTVSPost2010PropOp33
 70
     1
102
RTVSPost2010Prop34
280
     0
102
RTVSPost2010PropOp34
 70
     1
102
RTVSPost2010Prop35
280
     0
102
RTVSPost2010PropOp35
 70
     1
102
RTVSPost2010Prop36
280
     0
102
RTVSPost2010PropOp36
 70
     1
102
RTVSPost2010Prop37
 90
       50
102
RTVSPost2010PropOp37
 70
     1
102
RTVSPost2010Prop38
140
0.0
102
RTVSPost2010PropOp38
 70
     1
102
RTVSPost2010Prop39
140
1.0
102
RTVSPost2010PropOp39
 70
     1
102
RTVSPost2010Prop40
 90
        0
102
RTVSPost2010PropOp40
 70
     1
102
RTVSPost2010Prop41ColorIndex
 90
       18
102
RTVSPost2010Prop41ColorRGB
 90
        0
102
RTVSPost2010PropOp41
 70
     1
102
RTVSPost2010Prop42
 90
       50
102
RTVSPost2010PropOp42
 70
     1
102
RTVSPost2010Prop43
 90
        3
102
RTVSPost2010PropOp43
 70
     1
102
RTVSPost2010Prop44ColorIndex
 90
        5
102
RTVSPost2010Prop44ColorRGB
 90
      255
102
RTVSPost2010PropOp44
 70
     1
102
RTVSPost2010Prop45
280
     0
102
RTVSPost2010PropOp45
 70
     1
102
RTVSPost2010Prop46
 90
       50
102
RTVSPost2010PropOp46
 70
     1
102
RTVSPost2010Prop47
 90
       50
102
RTVSPost2010PropOp47
 70
     1
102
RTVSPost2010Prop48
 90
       50
102
RTVSPost2010PropOp48
 70
     1
102
RTVSPost2010Prop49
280
     0
102
RTVSPost2010PropOp49
 70
     1
102
RTVSPost2010Prop50
 90
       50
102
RTVSPost2010PropOp50
 70
     1
102
RTVSPost2010Prop51ColorIndex
 90
      256
102
RTVSPost2010Prop51ColorRGB
 90
-16777216
102
RTVSPost2010PropOp51
 70
     0
102
RTVSPost2010Prop52
140
1.0
102
RTVSPost2010PropOp52
 70
     0
102
RTVSPost2010Prop53
 90
        2
102
RTVSPost2010PropOp53
 70
     1
102
RTVSPost2010Prop54
  1
strokes_ogs.tif
102
RTVSPost2010PropOp54
 70
     1
102
RTVSPost2010Prop55
280
     0
102
RTVSPost2010PropOp55
 70
     1
102
RTVSPost2010Prop56
140
1.0
102
RTVSPost2010PropOp56
 70
     1
102
RTVSPost2010Prop57
140
1.0
102
RTVSPost2010PropOp57
 70
     1
  0
XRECORD
  5
19A
102
{ACAD_REACTORS
330
199
102
}
330
199
100
AcDbXrecord
280
     1
102
RTVSPost2010Prop28
280
     0
102
RTVSPost2010PropOp28
 70
     1
102
RTVSPost2010Prop29
280
     1
102
RTVSPost2010PropOp29
 70
     1
102
RTVSPost2010Prop30
280
     1
102
RTVSPost2010PropOp30
 70
     1
102
RTVSPost2010Prop31
280
     0
102
RTVSPost2010PropOp31
 70
     1
102
RTVSPost2010Prop32
280
     0
102
RTVSPost2010PropOp32
 70
     1
102
RTVSPost2010Prop33
280
     0
102
RTVSPost2010PropOp33
 70
     1
102
RTVSPost2010Prop34
280
     0
102
RTVSPost2010PropOp34
 70
     1
102
RTVSPost2010Prop35
280
     0
102
RTVSPost2010PropOp35
 70
     1
102
RTVSPost2010Prop36
280
     0
102
RTVSPost2010PropOp36
 70
     1
102
RTVSPost2010Prop37
 90
       50
102
RTVSPost2010PropOp37
 70
     1
102
RTVSPost2010Prop38
140
0.0
102
RTVSPost2010PropOp38
 70
     1
102
RTVSPost2010Prop39
140
1.0
102
RTVSPost2010PropOp39
 70
     1
102
RTVSPost2010Prop40
 90
        0
102
RTVSPost2010PropOp40
 70
     1
102
RTVSPost2010Prop41ColorIndex
 90
       18
102
RTVSPost2010Prop41ColorRGB
 90
        0
102
RTVSPost2010PropOp41
 70
     1
102
RTVSPost2010Prop42
 90
       50
102
RTVSPost2010PropOp42
 70
     1
102
RTVSPost2010Prop43
 90
        3
102
RTVSPost2010PropOp43
 70
     1
102
RTVSPost2010Prop44ColorIndex
 90
        5
102
RTVSPost2010Prop44ColorRGB
 90
      255
102
RTVSPost2010PropOp44
 70
     1
102
RTVSPost2010Prop45
280
     0
102
RTVSPost2010PropOp45
 70
     1
102
RTVSPost2010Prop46
 90
       50
102
RTVSPost2010PropOp46
 70
     1
102
RTVSPost2010Prop47
 90
       50
102
RTVSPost2010PropOp47
 70
     1
102
RTVSPost2010Prop48
 90
       50
102
RTVSPost2010PropOp48
 70
     1
102
RTVSPost2010Prop49
280
     0
102
RTVSPost2010PropOp49
 70
     1
102
RTVSPost2010Prop50
 90
       50
102
RTVSPost2010PropOp50
 70
     1
102
RTVSPost2010Prop51ColorIndex
 90
      256
102
RTVSPost2010Prop51ColorRGB
 90
-16777216
102
RTVSPost2010PropOp51
 70
     0
102
RTVSPost2010Prop52
140
1.0
102
RTVSPost2010PropOp52
 70
     0
102
RTVSPost2010Prop53
 90
        2
102
RTVSPost2010PropOp53
 70
     1
102
RTVSPost2010Prop54
  1
strokes_ogs.tif
102
RTVSPost2010PropOp54
 70
     1
102
RTVSPost2010Prop55
280
     0
102
RTVSPost2010PropOp55
 70
     1
102
RTVSPost2010Prop56
140
1.0
102
RTVSPost2010PropOp56
 70
     1
102
RTVSPost2010Prop57
140
1.0
102
RTVSPost2010PropOp57
 70
     1
  0
XRECORD
  5
19C
102
{ACAD_REACTORS
330
19B
102
}
330
19B
100
AcDbXrecord
280
     1
102
RTVSPost2010Prop28
280
     0
102
RTVSPost2010PropOp28
 70
     1
102
RTVSPost2010Prop29
280
     1
102
RTVSPost2010PropOp29
 70
     1
102
RTVSPost2010Prop30
280
     1
102
RTVSPost2010PropOp30
 70
     1
102
RTVSPost2010Prop31
280
     0
102
RTVSPost2010PropOp31
 70
     1
102
RTVSPost2010Prop32
280
     0
102
RTVSPost2010PropOp32
 70
     1
102
RTVSPost2010Prop33
280
     0
102
RTVSPost2010PropOp33
 70
     1
102
RTVSPost2010Prop34
280
     0
102
RTVSPost2010PropOp34
 70
     1
102
RTVSPost2010Prop35
280
     0
102
RTVSPost2010PropOp35
 70
     1
102
RTVSPost2010Prop36
280
     0
102
RTVSPost2010PropOp36
 70
     1
102
RTVSPost2010Prop37
 90
       50
102
RTVSPost2010PropOp37
 70
     1
102
RTVSPost2010Prop38
140
0.0
102
RTVSPost2010PropOp38
 70
     1
102
RTVSPost2010Prop39
140
1.0
102
RTVSPost2010PropOp39
 70
     1
102
RTVSPost2010Prop40
 90
        0
102
RTVSPost2010PropOp40
 70
     1
102
RTVSPost2010Prop41ColorIndex
 90
       18
102
RTVSPost2010Prop41ColorRGB
 90
        0
102
RTVSPost2010PropOp41
 70
     1
102
RTVSPost2010Prop42
 90
       50
102
RTVSPost2010PropOp42
 70
     1
102
RTVSPost2010Prop43
 90
        3
102
RTVSPost2010PropOp43
 70
     1
102
RTVSPost2010Prop44ColorIndex
 90
        5
102
RTVSPost2010Prop44ColorRGB
 90
      255
102
RTVSPost2010PropOp44
 70
     1
102
RTVSPost2010Prop45
280
     0
102
RTVSPost2010PropOp45
 70
     1
102
RTVSPost2010Prop46
 90
       50
102
RTVSPost2010PropOp46
 70
     1
102
RTVSPost2010Prop47
 90
       50
102
RTVSPost2010PropOp47
 70
     1
102
RTVSPost2010Prop48
 90
       50
102
RTVSPost2010PropOp48
 70
     1
102
RTVSPost2010Prop49
280
     0
102
RTVSPost2010PropOp49
 70
     1
102
RTVSPost2010Prop50
 90
       50
102
RTVSPost2010PropOp50
 70
     1
102
RTVSPost2010Prop51ColorIndex
 90
      256
102
RTVSPost2010Prop51ColorRGB
 90
-16777216
102
RTVSPost2010PropOp51
 70
     0
102
RTVSPost2010Prop52
140
1.0
102
RTVSPost2010PropOp52
 70
     0
102
RTVSPost2010Prop53
 90
        2
102
RTVSPost2010PropOp53
 70
     1
102
RTVSPost2010Prop54
  1
strokes_ogs.tif
102
RTVSPost2010PropOp54
 70
     1
102
RTVSPost2010Prop55
280
     0
102
RTVSPost2010PropOp55
 70
     1
102
RTVSPost2010Prop56
140
1.0
102
RTVSPost2010PropOp56
 70
     1
102
RTVSPost2010Prop57
140
1.0
102
RTVSPost2010PropOp57
 70
     1
  0
XRECORD
  5
192
102
{ACAD_REACTORS
330
191
102
}
330
191
100
AcDbXrecord
280
     1
102
RTVSPost2010Prop28
280
     0
102
RTVSPost2010PropOp28
 70
     1
102
RTVSPost2010Prop29
280
     1
102
RTVSPost2010PropOp29
 70
     1
102
RTVSPost2010Prop30
280
     1
102
RTVSPost2010PropOp30
 70
     1
102
RTVSPost2010Prop31
280
     0
102
RTVSPost2010PropOp31
 70
     1
102
RTVSPost2010Prop32
280
     0
102
RTVSPost2010PropOp32
 70
     1
102
RTVSPost2010Prop33
280
     0
102
RTVSPost2010PropOp33
 70
     1
102
RTVSPost2010Prop34
280
     0
102
RTVSPost2010PropOp34
 70
     1
102
RTVSPost2010Prop35
280
     0
102
RTVSPost2010PropOp35
 70
     1
102
RTVSPost2010Prop36
280
     0
102
RTVSPost2010PropOp36
 70
     1
102
RTVSPost2010Prop37
 90
       50
102
RTVSPost2010PropOp37
 70
     1
102
RTVSPost2010Prop38
140
0.0
102
RTVSPost2010PropOp38
 70
     1
102
RTVSPost2010Prop39
140
1.0
102
RTVSPost2010PropOp39
 70
     1
102
RTVSPost2010Prop40
 90
        0
102
RTVSPost2010PropOp40
 70
     1
102
RTVSPost2010Prop41ColorIndex
 90
       18
102
RTVSPost2010Prop41ColorRGB
 90
        0
102
RTVSPost2010PropOp41
 70
     1
102
RTVSPost2010Prop42
 90
       50
102
RTVSPost2010PropOp42
 70
     1
102
RTVSPost2010Prop43
 90
        3
102
RTVSPost2010PropOp43
 70
     1
102
RTVSPost2010Prop44ColorIndex
 90
        5
102
RTVSPost2010Prop44ColorRGB
 90
      255
102
RTVSPost2010PropOp44
 70
     1
102
RTVSPost2010Prop45
280
     0
102
RTVSPost2010PropOp45
 70
     1
102
RTVSPost2010Prop46
 90
       50
102
RTVSPost2010PropOp46
 70
     1
102
RTVSPost2010Prop47
 90
       50
102
RTVSPost2010PropOp47
 70
     1
102
RTVSPost2010Prop48
 90
       50
102
RTVSPost2010PropOp48
 70
     1
102
RTVSPost2010Prop49
280
     0
102
RTVSPost2010PropOp49
 70
     1
102
RTVSPost2010Prop50
 90
       50
102
RTVSPost2010PropOp50
 70
     1
102
RTVSPost2010Prop51ColorIndex
 90
      256
102
RTVSPost2010Prop51ColorRGB
 90
-16777216
102
RTVSPost2010PropOp51
 70
     0
102
RTVSPost2010Prop52
140
1.0
102
RTVSPost2010PropOp52
 70
     0
102
RTVSPost2010Prop53
 90
        2
102
RTVSPost2010PropOp53
 70
     1
102
RTVSPost2010Prop54
  1
strokes_ogs.tif
102
RTVSPost2010PropOp54
 70
     1
102
RTVSPost2010Prop55
280
     0
102
RTVSPost2010PropOp55
 70
     1
102
RTVSPost2010Prop56
140
1.0
102
RTVSPost2010PropOp56
 70
     1
102
RTVSPost2010Prop57
140
1.0
102
RTVSPost2010PropOp57
 70
     1
  0
XRECORD
  5
186
102
{ACAD_REACTORS
330
185
102
}
330
185
100
AcDbXrecord
280
     1
102
RTVSPost2010Prop28
280
     0
102
RTVSPost2010PropOp28
 70
     1
102
RTVSPost2010Prop29
280
     1
102
RTVSPost2010PropOp29
 70
     1
102
RTVSPost2010Prop30
280
     1
102
RTVSPost2010PropOp30
 70
     1
102
RTVSPost2010Prop31
280
     0
102
RTVSPost2010PropOp31
 70
     1
102
RTVSPost2010Prop32
280
     0
102
RTVSPost2010PropOp32
 70
     1
102
RTVSPost2010Prop33
280
     0
102
RTVSPost2010PropOp33
 70
     1
102
RTVSPost2010Prop34
280
     0
102
RTVSPost2010PropOp34
 70
     1
102
RTVSPost2010Prop35
280
     0
102
RTVSPost2010PropOp35
 70
     1
102
RTVSPost2010Prop36
280
     0
102
RTVSPost2010PropOp36
 70
     1
102
RTVSPost2010Prop37
 90
       50
102
RTVSPost2010PropOp37
 70
     1
102
RTVSPost2010Prop38
140
0.0
102
RTVSPost2010PropOp38
 70
     1
102
RTVSPost2010Prop39
140
1.0
102
RTVSPost2010PropOp39
 70
     1
102
RTVSPost2010Prop40
 90
        0
102
RTVSPost2010PropOp40
 70
     1
102
RTVSPost2010Prop41ColorIndex
 90
       18
102
RTVSPost2010Prop41ColorRGB
 90
        0
102
RTVSPost2010PropOp41
 70
     1
102
RTVSPost2010Prop42
 90
       50
102
RTVSPost2010PropOp42
 70
     1
102
RTVSPost2010Prop43
 90
        3
102
RTVSPost2010PropOp43
 70
     1
102
RTVSPost2010Prop44ColorIndex
 90
        5
102
RTVSPost2010Prop44ColorRGB
 90
      255
102
RTVSPost2010PropOp44
 70
     1
102
RTVSPost2010Prop45
280
     0
102
RTVSPost2010PropOp45
 70
     1
102
RTVSPost2010Prop46
 90
       50
102
RTVSPost2010PropOp46
 70
     1
102
RTVSPost2010Prop47
 90
       50
102
RTVSPost2010PropOp47
 70
     1
102
RTVSPost2010Prop48
 90
       50
102
RTVSPost2010PropOp48
 70
     1
102
RTVSPost2010Prop49
280
     0
102
RTVSPost2010PropOp49
 70
     1
102
RTVSPost2010Prop50
 90
       50
102
RTVSPost2010PropOp50
 70
     1
102
RTVSPost2010Prop51ColorIndex
 90
      256
102
RTVSPost2010Prop51ColorRGB
 90
-16777216
102
RTVSPost2010PropOp51
 70
     0
102
RTVSPost2010Prop52
140
1.0
102
RTVSPost2010PropOp52
 70
     0
102
RTVSPost2010Prop53
 90
        2
102
RTVSPost2010PropOp53
 70
     1
102
RTVSPost2010Prop54
  1
strokes_ogs.tif
102
RTVSPost2010PropOp54
 70
     1
102
RTVSPost2010Prop55
280
     0
102
RTVSPost2010PropOp55
 70
     1
102
RTVSPost2010Prop56
140
1.0
102
RTVSPost2010PropOp56
 70
     1
102
RTVSPost2010Prop57
140
1.0
102
RTVSPost2010PropOp57
 70
     1
  0
XRECORD
  5
19E
102
{ACAD_REACTORS
330
19D
102
}
330
19D
100
AcDbXrecord
280
     1
102
RTVSPost2010Prop28
280
     0
102
RTVSPost2010PropOp28
 70
     1
102
RTVSPost2010Prop29
280
     1
102
RTVSPost2010PropOp29
 70
     1
102
RTVSPost2010Prop30
280
     1
102
RTVSPost2010PropOp30
 70
     1
102
RTVSPost2010Prop31
280
     0
102
RTVSPost2010PropOp31
 70
     1
102
RTVSPost2010Prop32
280
     0
102
RTVSPost2010PropOp32
 70
     1
102
RTVSPost2010Prop33
280
     0
102
RTVSPost2010PropOp33
 70
     1
102
RTVSPost2010Prop34
280
     0
102
RTVSPost2010PropOp34
 70
     1
102
RTVSPost2010Prop35
280
     0
102
RTVSPost2010PropOp35
 70
     1
102
RTVSPost2010Prop36
280
     0
102
RTVSPost2010PropOp36
 70
     1
102
RTVSPost2010Prop37
 90
       50
102
RTVSPost2010PropOp37
 70
     1
102
RTVSPost2010Prop38
140
0.0
102
RTVSPost2010PropOp38
 70
     1
102
RTVSPost2010Prop39
140
1.0
102
RTVSPost2010PropOp39
 70
     1
102
RTVSPost2010Prop40
 90
        0
102
RTVSPost2010PropOp40
 70
     1
102
RTVSPost2010Prop41ColorIndex
 90
       18
102
RTVSPost2010Prop41ColorRGB
 90
        0
102
RTVSPost2010PropOp41
 70
     1
102
RTVSPost2010Prop42
 90
       50
102
RTVSPost2010PropOp42
 70
     1
102
RTVSPost2010Prop43
 90
        3
102
RTVSPost2010PropOp43
 70
     1
102
RTVSPost2010Prop44ColorIndex
 90
        5
102
RTVSPost2010Prop44ColorRGB
 90
      255
102
RTVSPost2010PropOp44
 70
     1
102
RTVSPost2010Prop45
280
     0
102
RTVSPost2010PropOp45
 70
     1
102
RTVSPost2010Prop46
 90
       50
102
RTVSPost2010PropOp46
 70
     1
102
RTVSPost2010Prop47
 90
       50
102
RTVSPost2010PropOp47
 70
     1
102
RTVSPost2010Prop48
 90
       50
102
RTVSPost2010PropOp48
 70
     1
102
RTVSPost2010Prop49
280
     0
102
RTVSPost2010PropOp49
 70
     1
102
RTVSPost2010Prop50
 90
       50
102
RTVSPost2010PropOp50
 70
     1
102
RTVSPost2010Prop51ColorIndex
 90
      256
102
RTVSPost2010Prop51ColorRGB
 90
-16777216
102
RTVSPost2010PropOp51
 70
     0
102
RTVSPost2010Prop52
140
1.0
102
RTVSPost2010PropOp52
 70
     0
102
RTVSPost2010Prop53
 90
        2
102
RTVSPost2010PropOp53
 70
     1
102
RTVSPost2010Prop54
  1
strokes_ogs.tif
102
RTVSPost2010PropOp54
 70
     1
102
RTVSPost2010Prop55
280
     0
102
RTVSPost2010PropOp55
 70
     1
102
RTVSPost2010Prop56
140
1.0
102
RTVSPost2010PropOp56
 70
     1
102
RTVSPost2010Prop57
140
1.0
102
RTVSPost2010PropOp57
 70
     1
  0
ENDSEC
  0
EOF
