  0
SECTION
  2
HEADER
  9
$ACADVER
  1
AC1024
  9
$ACADMAINTVER
 70
   205
  9
$DWGCODEPAGE
  3
ANSI_1251
  9
$INSBASE
 10
0.0
 20
0.0
 30
0.0
  9
$EXTMIN
 10
1.000000000000000E+20
 20
1.000000000000000E+20
 30
1.000000000000000E+20
  9
$EXTMAX
 10
-1.000000000000000E+20
 20
-1.000000000000000E+20
 30
-1.000000000000000E+20
  9
$LIMMIN
 10
0.0
 20
0.0
  9
$LIMMAX
 10
12.0
 20
9.0
  9
$ORTHOMODE
 70
     0
  9
$REGENMODE
 70
     1
  9
$FILLMODE
 70
     1
  9
$QTEXTMODE
 70
     0
  9
$MIRRTEXT
 70
     1
  9
$LTSCALE
 40
1.0
  9
$ATTMODE
 70
     1
  9
$TEXTSIZE
 40
0.2
  9
$TRACEWID
 40
0.05
  9
$TEXTSTYLE
  7
Standard
  9
$CLAYER
  8
OracDecor_cornice_mouldings
  9
$CELTYPE
  6
ByLayer
  9
$CECOLOR
 62
   256
  9
$CELTSCALE
 40
1.0
  9
$DISPSILH
 70
     0
  9
$DIMSCALE
 40
1.0
  9
$DIMASZ
 40
0.18
  9
$DIMEXO
 40
0.0625
  9
$DIMDLI
 40
0.38
  9
$DIMRND
 40
0.0
  9
$DIMDLE
 40
0.0
  9
$DIMEXE
 40
0.18
  9
$DIMTP
 40
0.0
  9
$DIMTM
 40
0.0
  9
$DIMTXT
 40
0.18
  9
$DIMCEN
 40
0.09
  9
$DIMTSZ
 40
0.0
  9
$DIMTOL
 70
     0
  9
$DIMLIM
 70
     0
  9
$DIMTIH
 70
     1
  9
$DIMTOH
 70
     1
  9
$DIMSE1
 70
     0
  9
$DIMSE2
 70
     0
  9
$DIMTAD
 70
     0
  9
$DIMZIN
 70
     0
  9
$DIMBLK
  1

  9
$DIMASO
 70
     1
  9
$DIMSHO
 70
     1
  9
$DIMPOST
  1

  9
$DIMAPOST
  1

  9
$DIMALT
 70
     0
  9
$DIMALTD
 70
     2
  9
$DIMALTF
 40
25.4
  9
$DIMLFAC
 40
1.0
  9
$DIMTOFL
 70
     0
  9
$DIMTVP
 40
0.0
  9
$DIMTIX
 70
     0
  9
$DIMSOXD
 70
     0
  9
$DIMSAH
 70
     0
  9
$DIMBLK1
  1

  9
$DIMBLK2
  1

  9
$DIMSTYLE
  2
Standard
  9
$DIMCLRD
 70
     0
  9
$DIMCLRE
 70
     0
  9
$DIMCLRT
 70
     0
  9
$DIMTFAC
 40
1.0
  9
$DIMGAP
 40
0.09
  9
$DIMJUST
 70
     0
  9
$DIMSD1
 70
     0
  9
$DIMSD2
 70
     0
  9
$DIMTOLJ
 70
     1
  9
$DIMTZIN
 70
     0
  9
$DIMALTZ
 70
     0
  9
$DIMALTTZ
 70
     0
  9
$DIMUPT
 70
     0
  9
$DIMDEC
 70
     4
  9
$DIMTDEC
 70
     4
  9
$DIMALTU
 70
     2
  9
$DIMALTTD
 70
     2
  9
$DIMTXSTY
  7
Standard
  9
$DIMAUNIT
 70
     0
  9
$DIMADEC
 70
     0
  9
$DIMALTRND
 40
0.0
  9
$DIMAZIN
 70
     0
  9
$DIMDSEP
 70
    46
  9
$DIMATFIT
 70
     3
  9
$DIMFRAC
 70
     0
  9
$DIMLDRBLK
  1

  9
$DIMLUNIT
 70
     2
  9
$DIMLWD
 70
    -2
  9
$DIMLWE
 70
    -2
  9
$DIMTMOVE
 70
     0
  9
$DIMFXL
 40
1.0
  9
$DIMFXLON
 70
     0
  9
$DIMJOGANG
 40
0.7853981633974483
  9
$DIMTFILL
 70
     0
  9
$DIMTFILLCLR
 70
     0
  9
$DIMARCSYM
 70
     0
  9
$DIMLTYPE
  6

  9
$DIMLTEX1
  6

  9
$DIMLTEX2
  6

  9
$DIMTXTDIRECTION
 70
     0
  9
$LUNITS
 70
     2
  9
$LUPREC
 70
     4
  9
$SKETCHINC
 40
0.1
  9
$FILLETRAD
 40
0.5
  9
$AUNITS
 70
     0
  9
$AUPREC
 70
     0
  9
$MENU
  1
.
  9
$ELEVATION
 40
0.0
  9
$PELEVATION
 40
0.0
  9
$THICKNESS
 40
0.0
  9
$LIMCHECK
 70
     0
  9
$CHAMFERA
 40
0.5
  9
$CHAMFERB
 40
0.5
  9
$CHAMFERC
 40
1.0
  9
$CHAMFERD
 40
0.0
  9
$SKPOLY
 70
     0
  9
$TDCREATE
 40
2451380.930432396
  9
$TDUCREATE
 40
2451380.805432396
  9
$TDUPDATE
 40
2451380.966180555
  9
$TDUUPDATE
 40
2451380.841180556
  9
$TDINDWG
 40
0.0075615625
  9
$TDUSRTIMER
 40
0.0075525231
  9
$USRTIMER
 70
     1
  9
$ANGBASE
 50
0.0
  9
$ANGDIR
 70
     0
  9
$PDMODE
 70
     0
  9
$PDSIZE
 40
0.0
  9
$PLINEWID
 40
0.0
  9
$SPLFRAME
 70
     0
  9
$SPLINETYPE
 70
     6
  9
$SPLINESEGS
 70
     8
  9
$HANDSEED
  5
194
  9
$SURFTAB1
 70
     6
  9
$SURFTAB2
 70
     6
  9
$SURFTYPE
 70
     6
  9
$SURFU
 70
     6
  9
$SURFV
 70
     6
  9
$UCSBASE
  2

  9
$UCSNAME
  2

  9
$UCSORG
 10
0.0
 20
0.0
 30
0.0
  9
$UCSXDIR
 10
1.0
 20
0.0
 30
0.0
  9
$UCSYDIR
 10
0.0
 20
1.0
 30
0.0
  9
$UCSORTHOREF
  2

  9
$UCSORTHOVIEW
 70
     0
  9
$UCSORGTOP
 10
0.0
 20
0.0
 30
0.0
  9
$UCSORGBOTTOM
 10
0.0
 20
0.0
 30
0.0
  9
$UCSORGLEFT
 10
0.0
 20
0.0
 30
0.0
  9
$UCSORGRIGHT
 10
0.0
 20
0.0
 30
0.0
  9
$UCSORGFRONT
 10
0.0
 20
0.0
 30
0.0
  9
$UCSORGBACK
 10
0.0
 20
0.0
 30
0.0
  9
$PUCSBASE
  2

  9
$PUCSNAME
  2

  9
$PUCSORG
 10
0.0
 20
0.0
 30
0.0
  9
$PUCSXDIR
 10
1.0
 20
0.0
 30
0.0
  9
$PUCSYDIR
 10
0.0
 20
1.0
 30
0.0
  9
$PUCSORTHOREF
  2

  9
$PUCSORTHOVIEW
 70
     0
  9
$PUCSORGTOP
 10
0.0
 20
0.0
 30
0.0
  9
$PUCSORGBOTTOM
 10
0.0
 20
0.0
 30
0.0
  9
$PUCSORGLEFT
 10
0.0
 20
0.0
 30
0.0
  9
$PUCSORGRIGHT
 10
0.0
 20
0.0
 30
0.0
  9
$PUCSORGFRONT
 10
0.0
 20
0.0
 30
0.0
  9
$PUCSORGBACK
 10
0.0
 20
0.0
 30
0.0
  9
$USERI1
 70
     0
  9
$USERI2
 70
     0
  9
$USERI3
 70
     0
  9
$USERI4
 70
     0
  9
$USERI5
 70
     0
  9
$USERR1
 40
0.0
  9
$USERR2
 40
0.0
  9
$USERR3
 40
0.0
  9
$USERR4
 40
0.0
  9
$USERR5
 40
0.0
  9
$WORLDVIEW
 70
     1
  9
$SHADEDGE
 70
     3
  9
$SHADEDIF
 70
    70
  9
$TILEMODE
 70
     1
  9
$MAXACTVP
 70
    64
  9
$PINSBASE
 10
0.0
 20
0.0
 30
0.0
  9
$PLIMCHECK
 70
     0
  9
$PEXTMIN
 10
1.000000000000000E+20
 20
1.000000000000000E+20
 30
1.000000000000000E+20
  9
$PEXTMAX
 10
-1.000000000000000E+20
 20
-1.000000000000000E+20
 30
-1.000000000000000E+20
  9
$PLIMMIN
 10
0.0
 20
0.0
  9
$PLIMMAX
 10
12.0
 20
9.0
  9
$UNITMODE
 70
     0
  9
$VISRETAIN
 70
     1
  9
$PLINEGEN
 70
     0
  9
$PSLTSCALE
 70
     1
  9
$TREEDEPTH
 70
  3020
  9
$CMLSTYLE
  2
Standard
  9
$CMLJUST
 70
     0
  9
$CMLSCALE
 40
1.0
  9
$PROXYGRAPHICS
 70
     1
  9
$MEASUREMENT
 70
     1
  9
$CELWEIGHT
370
    -1
  9
$ENDCAPS
280
     0
  9
$JOINSTYLE
280
     0
  9
$LWDISPLAY
290
     0
  9
$INSUNITS
 70
     4
  9
$HYPERLINKBASE
  1

  9
$STYLESHEET
  1

  9
$XEDIT
290
     1
  9
$CEPSNTYPE
380
     0
  9
$PSTYLEMODE
290
     1
  9
$FINGERPRINTGUID
  2
{12F50282-3ED8-11D3-A8B7-0060B0F84BC6}
  9
$VERSIONGUID
  2
{12F50293-3ED8-11D3-A8B7-0060B0F84BC6}
  9
$EXTNAMES
290
     1
  9
$PSVPSCALE
 40
0.0
  9
$OLESTARTUP
290
     0
  9
$SORTENTS
280
   127
  9
$INDEXCTL
280
     0
  9
$HIDETEXT
280
     0
  9
$XCLIPFRAME
280
     2
  9
$HALOGAP
280
     0
  9
$OBSCOLOR
 70
   257
  9
$OBSLTYPE
280
     0
  9
$INTERSECTIONDISPLAY
280
     0
  9
$INTERSECTIONCOLOR
 70
   257
  9
$DIMASSOC
280
     1
  9
$PROJECTNAME
  1

  9
$CAMERADISPLAY
290
     0
  9
$LENSLENGTH
 40
50.0
  9
$CAMERAHEIGHT
 40
0.0
  9
$STEPSPERSEC
 40
2.0
  9
$STEPSIZE
 40
6.0
  9
$3DDWFPREC
 40
2.0
  9
$PSOLWIDTH
 40
0.25
  9
$PSOLHEIGHT
 40
4.0
  9
$LOFTANG1
 40
1.570796326794896
  9
$LOFTANG2
 40
1.570796326794896
  9
$LOFTMAG1
 40
0.0
  9
$LOFTMAG2
 40
0.0
  9
$LOFTPARAM
 70
     7
  9
$LOFTNORMALS
280
     1
  9
$LATITUDE
 40
37.795
  9
$LONGITUDE
 40
-122.394
  9
$NORTHDIRECTION
 40
0.0
  9
$TIMEZONE
 70
 -8000
  9
$LIGHTGLYPHDISPLAY
280
     1
  9
$TILEMODELIGHTSYNCH
280
     1
  9
$CMATERIAL
347
AB
  9
$SOLIDHIST
280
     0
  9
$SHOWHIST
280
     1
  9
$DWFFRAME
280
     2
  9
$DGNFRAME
280
     0
  9
$REALWORLDSCALE
290
     1
  9
$INTERFERECOLOR
 62
     1
  9
$INTERFEREOBJVS
345
CD
  9
$INTERFEREVPVS
346
CA
  9
$CSHADOW
280
     0
  9
$SHADOWPLANELOCATION
 40
0.0
  0
ENDSEC
  0
SECTION
  2
CLASSES
  0
CLASS
  1
ACDBDICTIONARYWDFLT
  2
AcDbDictionaryWithDefault
  3
ObjectDBX Classes
 90
        0
 91
        1
280
     0
281
     0
  0
CLASS
  1
ACDBPLACEHOLDER
  2
AcDbPlaceHolder
  3
ObjectDBX Classes
 90
        0
 91
        2
280
     0
281
     0
  0
CLASS
  1
LAYOUT
  2
AcDbLayout
  3
ObjectDBX Classes
 90
        0
 91
        3
280
     0
281
     0
  0
CLASS
  1
MATERIAL
  2
AcDbMaterial
  3
ObjectDBX Classes
 90
     1153
 91
        3
280
     0
281
     0
  0
CLASS
  1
VISUALSTYLE
  2
AcDbVisualStyle
  3
ObjectDBX Classes
 90
     4095
 91
       24
280
     0
281
     0
  0
CLASS
  1
TABLESTYLE
  2
AcDbTableStyle
  3
ObjectDBX Classes
 90
     4095
 91
        1
280
     0
281
     0
  0
CLASS
  1
SCALE
  2
AcDbScale
  3
ObjectDBX Classes
 90
     1153
 91
       17
280
     0
281
     0
  0
CLASS
  1
MLEADERSTYLE
  2
AcDbMLeaderStyle
  3
ACDB_MLEADERSTYLE_CLASS
 90
     4095
 91
        1
280
     0
281
     0
  0
CLASS
  1
ACDBSECTIONVIEWSTYLE
  2
AcDbSectionViewStyle
  3
ObjectDBX Classes
 90
     1025
 91
        1
280
     0
281
     0
  0
CLASS
  1
ACDBDETAILVIEWSTYLE
  2
AcDbDetailViewStyle
  3
ObjectDBX Classes
 90
     1025
 91
        1
280
     0
281
     0
  0
CLASS
  1
MESH
  2
AcDbSubDMesh
  3
ObjectDBX Classes
 90
        0
 91
        1
280
     0
281
     1
  0
CLASS
  1
DICTIONARYVAR
  2
AcDbDictionaryVar
  3
ObjectDBX Classes
 90
        0
 91
        9
280
     0
281
     0
  0
CLASS
  1
CELLSTYLEMAP
  2
AcDbCellStyleMap
  3
ObjectDBX Classes
 90
     1152
 91
        1
280
     0
281
     0
  0
ENDSEC
  0
SECTION
  2
TABLES
  0
TABLE
  2
VPORT
  5
8
330
0
100
AcDbSymbolTable
 70
     1
  0
VPORT
  5
A8
330
8
100
AcDbSymbolTableRecord
100
AcDbViewportTableRecord
  2
*Active
 70
     0
 10
0.0
 20
0.0
 11
1.0
 21
1.0
 12
0.0000404609781981
 22
-24.08668327331543
 13
0.0
 23
0.0
 14
0.5
 24
0.5
 15
0.5
 25
0.5
 16
-1.0
 26
-1.0
 36
1.0
 17
0.0
 27
0.0
 37
0.0
 40
1103.000083896278
 41
1.639402428965341
 42
50.0
 43
0.0
 44
0.0
 50
0.0
 51
0.0
 71
     0
 72
   100
 73
     1
 74
     3
 75
     0
 76
     0
 77
     0
 78
     0
281
     0
 65
     1
110
0.0
120
0.0
130
0.0
111
1.0
121
0.0
131
0.0
112
0.0
122
1.0
132
0.0
 79
     0
146
0.0
348
C9
 60
     3
 61
     5
292
     1
282
     1
141
0.0
142
0.0
 63
   250
421
  3355443
  0
ENDTAB
  0
TABLE
  2
LTYPE
  5
5
330
0
100
AcDbSymbolTable
 70
     1
  0
LTYPE
  5
14
330
5
100
AcDbSymbolTableRecord
100
AcDbLinetypeTableRecord
  2
ByBlock
 70
     0
  3

 72
    65
 73
     0
 40
0.0
  0
LTYPE
  5
15
330
5
100
AcDbSymbolTableRecord
100
AcDbLinetypeTableRecord
  2
ByLayer
 70
     0
  3

 72
    65
 73
     0
 40
0.0
  0
LTYPE
  5
16
330
5
100
AcDbSymbolTableRecord
100
AcDbLinetypeTableRecord
  2
Continuous
 70
     0
  3
Solid line
 72
    65
 73
     0
 40
0.0
  0
ENDTAB
  0
TABLE
  2
LAYER
  5
2
330
0
100
AcDbSymbolTable
 70
     3
  0
LAYER
  5
10
330
2
100
AcDbSymbolTableRecord
100
AcDbLayerTableRecord
  2
0
 70
     0
 62
     7
  6
Continuous
370
    -3
390
F
347
BB
  0
LAYER
  5
2B
330
2
100
AcDbSymbolTableRecord
100
AcDbLayerTableRecord
  2
ASHADE
 70
     4
 62
     7
  6
Continuous
370
    -3
390
2D
347
BB
  0
LAYER
  5
F8
330
2
100
AcDbSymbolTableRecord
100
AcDbLayerTableRecord
  2
OracDecor_cornice_mouldings
 70
     0
 62
    46
420
  8875528
  6
Continuous
370
    -3
390
F
347
BB
  0
ENDTAB
  0
TABLE
  2
STYLE
  5
3
330
0
100
AcDbSymbolTable
 70
     2
  0
STYLE
  5
11
330
3
100
AcDbSymbolTableRecord
100
AcDbTextStyleTableRecord
  2
Standard
 70
     0
 40
0.0
 41
1.0
 50
0.0
 71
     0
 42
0.2
  3
txt
  4

  0
STYLE
  5
2C
330
3
100
AcDbSymbolTableRecord
100
AcDbTextStyleTableRecord
  2
ASHADE
 70
     0
 40
0.2
 41
1.0
 50
0.0
 71
     0
 42
0.2
  3
simplex
  4

  0
ENDTAB
  0
TABLE
  2
VIEW
  5
6
330
0
100
AcDbSymbolTable
 70
     0
  0
ENDTAB
  0
TABLE
  2
UCS
  5
7
330
0
100
AcDbSymbolTable
 70
     0
  0
ENDTAB
  0
TABLE
  2
APPID
  5
9
330
0
100
AcDbSymbolTable
 70
     6
  0
APPID
  5
12
330
9
100
AcDbSymbolTableRecord
100
AcDbRegAppTableRecord
  2
ACAD
 70
     0
  0
APPID
  5
8F
330
9
100
AcDbSymbolTableRecord
100
AcDbRegAppTableRecord
  2
AVE_RENDER
 70
     0
  0
APPID
  5
90
330
9
100
AcDbSymbolTableRecord
100
AcDbRegAppTableRecord
  2
AVE_ENTITY_MATERIAL
 70
     0
  0
APPID
  5
9C
330
9
100
AcDbSymbolTableRecord
100
AcDbRegAppTableRecord
  2
AVE_FINISH
 70
     0
  0
APPID
  5
9D
330
9
100
AcDbSymbolTableRecord
100
AcDbRegAppTableRecord
  2
AVE_MATERIAL
 70
     0
  0
APPID
  5
9E
330
9
100
AcDbSymbolTableRecord
100
AcDbRegAppTableRecord
  2
AVE_GLOBAL
 70
     0
  0
ENDTAB
  0
TABLE
  2
DIMSTYLE
  5
A
330
0
100
AcDbSymbolTable
 70
     1
100
AcDbDimStyleTable
 71
     0
  0
DIMSTYLE
105
27
330
A
100
AcDbSymbolTableRecord
100
AcDbDimStyleTableRecord
  2
Standard
 70
     0
340
11
  0
ENDTAB
  0
TABLE
  2
BLOCK_RECORD
  5
1
330
0
100
AcDbSymbolTable
 70
     6
  0
BLOCK_RECORD
  5
1F
330
1
100
AcDbSymbolTableRecord
100
AcDbBlockTableRecord
  2
*Model_Space
340
22
 70
     0
280
     1
281
     0
  0
BLOCK_RECORD
  5
1B
330
1
100
AcDbSymbolTableRecord
100
AcDbBlockTableRecord
  2
*Paper_Space
340
1E
 70
     0
280
     1
281
     0
  0
BLOCK_RECORD
  5
23
330
1
100
AcDbSymbolTableRecord
100
AcDbBlockTableRecord
  2
*Paper_Space0
340
26
 70
     0
280
     1
281
     0
  0
BLOCK_RECORD
  5
2E
330
1
100
AcDbSymbolTableRecord
100
AcDbBlockTableRecord
  2
direct
340
0
 70
     0
280
     1
281
     0
  0
BLOCK_RECORD
  5
42
330
1
100
AcDbSymbolTableRecord
100
AcDbBlockTableRecord
  2
overhead
340
0
 70
     0
280
     1
281
     0
  0
BLOCK_RECORD
  5
5F
330
1
100
AcDbSymbolTableRecord
100
AcDbBlockTableRecord
  2
sh_spot
340
0
 70
     0
280
     1
281
     0
  0
BLOCK_RECORD
  5
91
330
1
100
AcDbSymbolTableRecord
100
AcDbBlockTableRecord
  2
AVE_RENDER
340
0
102
{BLKREFS
331
94
331
95
331
96
331
97
331
98
331
99
331
9A
331
9B
102
}
 70
     0
280
     1
281
     0
  0
BLOCK_RECORD
  5
9F
330
1
100
AcDbSymbolTableRecord
100
AcDbBlockTableRecord
  2
AVE_GLOBAL
340
0
102
{BLKREFS
331
A2
102
}
 70
     0
280
     1
281
     0
  0
ENDTAB
  0
ENDSEC
  0
SECTION
  2
BLOCKS
  0
BLOCK
  5
20
330
1F
100
AcDbEntity
  8
0
100
AcDbBlockBegin
  2
*Model_Space
 70
     0
 10
0.0
 20
0.0
 30
0.0
  3
*Model_Space
  1

  0
ENDBLK
  5
21
330
1F
100
AcDbEntity
  8
0
100
AcDbBlockEnd
  0
BLOCK
  5
1C
330
1B
100
AcDbEntity
 67
     1
  8
0
100
AcDbBlockBegin
  2
*Paper_Space
 70
     0
 10
0.0
 20
0.0
 30
0.0
  3
*Paper_Space
  1

  0
ENDBLK
  5
1D
330
1B
100
AcDbEntity
 67
     1
  8
0
100
AcDbBlockEnd
  0
BLOCK
  5
24
330
23
100
AcDbEntity
 67
     1
  8
0
100
AcDbBlockBegin
  2
*Paper_Space0
 70
     0
 10
0.0
 20
0.0
 30
0.0
  3
*Paper_Space0
  1

  0
ENDBLK
  5
25
330
23
100
AcDbEntity
 67
     1
  8
0
100
AcDbBlockEnd
  0
BLOCK
  5
40
330
2E
100
AcDbEntity
  8
0
100
AcDbBlockBegin
  2
direct
 70
     2
 10
0.0
 20
0.0
 30
0.0
  3
direct
  1

  0
ATTDEF
  5
2F
330
2E
100
AcDbEntity
  8
ASHADE
  6
Continuous
 62
     1
100
AcDbText
 10
0.0
 20
-0.1
 30
0.0
 40
0.2
  1

  7
ASHADE
 72
     1
 11
0.0
 21
-0.1
 31
0.0
100
AcDbAttributeDefinition
280
     0
  3
Light Name
  2
SNAME
 70
     0
280
     0
  0
ARC
  5
30
330
2E
100
AcDbEntity
  8
ASHADE
  6
Continuous
 62
     7
100
AcDbCircle
 10
0.0
 20
0.0
 30
0.0
 40
0.3
100
AcDbArc
 50
205.6792886194569
 51
334.3207113805431
  0
ARC
  5
31
330
2E
100
AcDbEntity
  8
ASHADE
  6
Continuous
 62
     7
100
AcDbCircle
 10
0.0
 20
0.0
 30
0.0
 40
0.3
100
AcDbArc
 50
25.67928861945685
 51
154.3207113805431
  0
LINE
  5
32
330
2E
100
AcDbEntity
  8
ASHADE
  6
Continuous
 62
     7
100
AcDbLine
 10
-0.21
 20
0.2142428528562855
 30
0.0
 11
-0.21
 21
0.5
 31
0.0
  0
LINE
  5
33
330
2E
100
AcDbEntity
  8
ASHADE
  6
Continuous
 62
     7
100
AcDbLine
 10
-0.11
 20
0.2791057147390572
 30
0.0
 11
-0.11
 21
0.5
 31
0.0
  0
LINE
  5
34
330
2E
100
AcDbEntity
  8
ASHADE
  6
Continuous
 62
     7
100
AcDbLine
 10
0.21
 20
0.2142428528562855
 30
0.0
 11
0.21
 21
0.5
 31
0.0
  0
ATTDEF
  5
35
330
2E
100
AcDbEntity
  8
ASHADE
  6
Continuous
 62
     7
100
AcDbText
 10
0.0
 20
0.25
 30
0.0
 40
0.01
  1

100
AcDbAttributeDefinition
280
     0
  3
Look-at Y
  2
LAY
 70
     1
280
     0
  0
ATTDEF
  5
36
330
2E
100
AcDbEntity
  8
ASHADE
  6
Continuous
 62
     7
100
AcDbText
 10
0.0
 20
0.22
 30
0.0
 40
0.01
  1
1
100
AcDbAttributeDefinition
280
     0
  3
Light Intensity
  2
INTENSITY
 70
     1
280
     0
  0
ATTDEF
  5
37
330
2E
100
AcDbEntity
  8
ASHADE
  6
Continuous
 62
     7
100
AcDbText
 10
0.0
 20
0.16
 30
0.0
 40
0.01
  1
-1
100
AcDbAttributeDefinition
280
     0
  3
*not used*
  2
BEAMD
 70
     1
280
     0
  0
ATTDEF
  5
38
330
2E
100
AcDbEntity
  8
ASHADE
  6
Continuous
 62
     7
100
AcDbText
 10
0.0
 20
0.175
 30
0.0
 40
0.01
  1
-1
100
AcDbAttributeDefinition
280
     0
  3
*not used*
  2
CONED
 70
     1
280
     0
  0
ATTDEF
  5
39
330
2E
100
AcDbEntity
  8
ASHADE
  6
Continuous
 62
     7
100
AcDbText
 10
0.0
 20
0.19
 30
0.0
 40
0.01
  1
0
100
AcDbAttributeDefinition
280
     0
  3
Depth Map Size
  2
CONEA
 70
     1
280
     0
  0
ATTDEF
  5
3A
330
2E
100
AcDbEntity
  8
ASHADE
  6
Continuous
 62
     7
100
AcDbText
 10
0.0
 20
0.2050000000000001
 30
0.0
 40
0.01
  1
1,1,1
100
AcDbAttributeDefinition
280
     0
  3
Light Color (RGB)
  2
COLOR
 70
     1
280
     0
  0
ATTDEF
  5
3B
330
2E
100
AcDbEntity
  8
ASHADE
  6
Continuous
 62
     7
100
AcDbText
 10
0.0
 20
0.235
 30
0.0
 40
0.01
  1

100
AcDbAttributeDefinition
280
     0
  3
Look-at Z
  2
LAZ
 70
     1
280
     0
  0
LINE
  5
3C
330
2E
100
AcDbEntity
  8
ASHADE
  6
Continuous
 62
     7
100
AcDbLine
 10
0.0
 20
0.3
 30
0.0
 11
0.0
 21
0.5
 31
0.0
  0
LINE
  5
3D
330
2E
100
AcDbEntity
  8
ASHADE
  6
Continuous
 62
     7
100
AcDbLine
 10
0.11
 20
0.2791057147390572
 30
0.0
 11
0.11
 21
0.5
 31
0.0
  0
ATTDEF
  5
3E
330
2E
100
AcDbEntity
  8
ASHADE
  6
Continuous
 62
     7
100
AcDbText
 10
0.0
 20
0.265
 30
0.0
 40
0.01
  1

100
AcDbAttributeDefinition
280
     0
  3
Look-at X
  2
LAX
 70
     1
280
     0
  0
ATTDEF
  5
3F
330
2E
100
AcDbEntity
  8
ASHADE
  6
Continuous
 62
     7
100
AcDbText
 10
0.0
 20
0.28
 30
0.0
 40
0.01
  1

100
AcDbAttributeDefinition
280
     0
  3

  2
GNAME
 70
     1
280
     0
  0
ENDBLK
  5
41
330
2E
100
AcDbEntity
  8
0
100
AcDbBlockEnd
  0
BLOCK
  5
5D
330
42
100
AcDbEntity
  8
0
100
AcDbBlockBegin
  2
overhead
 70
     2
 10
0.0
 20
0.0
 30
0.0
  3
overhead
  1

  0
ATTDEF
  5
43
330
42
100
AcDbEntity
  8
ASHADE
  6
Continuous
 62
     1
100
AcDbText
 10
0.0
 20
-0.1
 30
0.0
 40
0.2
  1

  7
ASHADE
 72
     1
 11
0.0
 21
-0.1
 31
0.0
100
AcDbAttributeDefinition
280
     0
  3
Light Name
  2
SNAME
 70
     0
280
     0
  0
ARC
  5
44
330
42
100
AcDbEntity
  8
ASHADE
  6
Continuous
 62
     7
100
AcDbCircle
 10
0.0
 20
0.0
 30
0.0
 40
0.3
100
AcDbArc
 50
205.6792886194569
 51
334.3207113805431
  0
LINE
  5
45
330
42
100
AcDbEntity
  8
ASHADE
  6
Continuous
 62
     7
100
AcDbLine
 10
-0.2041413561583015
 20
-0.2198324514393848
 30
0.0
 11
-0.2721884748777353
 21
-0.2931099352525131
 31
0.0
  0
LINE
  5
46
330
42
100
AcDbEntity
  8
ASHADE
  6
Continuous
 62
     7
100
AcDbLine
 10
-0.1096591641591904
 20
-0.2792398032442862
 30
0.0
 11
-0.1279356915190555
 21
-0.3257797704516673
 31
0.0
  0
LINE
  5
47
330
42
100
AcDbEntity
  8
ASHADE
  6
Continuous
 62
     7
100
AcDbLine
 10
0.0
 20
-0.2999999999999999
 30
0.0
 11
0.0
 21
-0.4
 31
0.0
  0
LINE
  5
48
330
42
100
AcDbEntity
  8
ASHADE
  6
Continuous
 62
     7
100
AcDbLine
 10
0.1096591641591904
 20
-0.2792398032442862
 30
0.0
 11
0.1279356915190555
 21
-0.3257797704516673
 31
0.0
  0
LINE
  5
49
330
42
100
AcDbEntity
  8
ASHADE
  6
Continuous
 62
     7
100
AcDbLine
 10
0.2041413561583015
 20
-0.2198324514393848
 30
0.0
 11
0.2721884748777353
 21
-0.2931099352525131
 31
0.0
  0
ARC
  5
4A
330
42
100
AcDbEntity
  8
ASHADE
  6
Continuous
 62
     7
100
AcDbCircle
 10
0.0
 20
0.0
 30
0.0
 40
0.3
100
AcDbArc
 50
25.67928861945685
 51
154.3207113805431
  0
LINE
  5
4B
330
42
100
AcDbEntity
  8
ASHADE
  6
Continuous
 62
     7
100
AcDbLine
 10
-0.2703701166919155
 20
0.13
 30
0.0
 11
-0.3154318028072347
 21
0.1516666666666666
 31
0.0
  0
LINE
  5
4C
330
42
100
AcDbEntity
  8
ASHADE
  6
Continuous
 62
     7
100
AcDbLine
 10
-0.2703701166919155
 20
-0.13
 30
0.0
 11
-0.3154318028072347
 21
-0.1516666666666666
 31
0.0
  0
LINE
  5
4D
330
42
100
AcDbEntity
  8
ASHADE
  6
Continuous
 62
     7
100
AcDbLine
 10
-0.2041413561583015
 20
0.2198324514393849
 30
0.0
 11
-0.2721884748777353
 21
0.2931099352525131
 31
0.0
  0
LINE
  5
4E
330
42
100
AcDbEntity
  8
ASHADE
  6
Continuous
 62
     7
100
AcDbLine
 10
-0.1096591641591904
 20
0.2792398032442862
 30
0.0
 11
-0.1279356915190555
 21
0.3257797704516674
 31
0.0
  0
LINE
  5
4F
330
42
100
AcDbEntity
  8
ASHADE
  6
Continuous
 62
     7
100
AcDbLine
 10
0.2703701166919155
 20
-0.13
 30
0.0
 11
0.3154318028072347
 21
-0.1516666666666666
 31
0.0
  0
LINE
  5
50
330
42
100
AcDbEntity
  8
ASHADE
  6
Continuous
 62
     7
100
AcDbLine
 10
0.2703701166919155
 20
0.13
 30
0.0
 11
0.3154318028072347
 21
0.1516666666666666
 31
0.0
  0
LINE
  5
51
330
42
100
AcDbEntity
  8
ASHADE
  6
Continuous
 62
     7
100
AcDbLine
 10
0.0
 20
0.3
 30
0.0
 11
0.0
 21
0.4
 31
0.0
  0
ATTDEF
  5
52
330
42
100
AcDbEntity
  8
ASHADE
  6
Continuous
 62
     7
100
AcDbText
 10
0.0
 20
0.22
 30
0.0
 40
0.01
  1
1
100
AcDbAttributeDefinition
280
     0
  3
Light Intensity
  2
INTENSITY
 70
     1
280
     0
  0
ATTDEF
  5
53
330
42
100
AcDbEntity
  8
ASHADE
  6
Continuous
 62
     7
100
AcDbText
 10
0.0
 20
0.16
 30
0.0
 40
0.01
  1
-1
100
AcDbAttributeDefinition
280
     0
  3
*not used*
  2
BEAMD
 70
     1
280
     0
  0
ATTDEF
  5
54
330
42
100
AcDbEntity
  8
ASHADE
  6
Continuous
 62
     7
100
AcDbText
 10
0.0
 20
0.175
 30
0.0
 40
0.01
  1
-1
100
AcDbAttributeDefinition
280
     0
  3
*not used*
  2
CONED
 70
     1
280
     0
  0
ATTDEF
  5
55
330
42
100
AcDbEntity
  8
ASHADE
  6
Continuous
 62
     7
100
AcDbText
 10
0.0
 20
0.19
 30
0.0
 40
0.01
  1
0
100
AcDbAttributeDefinition
280
     0
  3
Depth Map Size
  2
CONEA
 70
     1
280
     0
  0
ATTDEF
  5
56
330
42
100
AcDbEntity
  8
ASHADE
  6
Continuous
 62
     7
100
AcDbText
 10
0.0
 20
0.2050000000000001
 30
0.0
 40
0.01
  1
1,1,1
100
AcDbAttributeDefinition
280
     0
  3
Light Color (RGB)
  2
COLOR
 70
     1
280
     0
  0
ATTDEF
  5
57
330
42
100
AcDbEntity
  8
ASHADE
  6
Continuous
 62
     7
100
AcDbText
 10
0.0
 20
0.235
 30
0.0
 40
0.01
  1

100
AcDbAttributeDefinition
280
     0
  3
Look-at Z
  2
LAZ
 70
     1
280
     0
  0
ATTDEF
  5
58
330
42
100
AcDbEntity
  8
ASHADE
  6
Continuous
 62
     7
100
AcDbText
 10
0.0
 20
0.25
 30
0.0
 40
0.01
  1

100
AcDbAttributeDefinition
280
     0
  3
Look-at Y
  2
LAY
 70
     1
280
     0
  0
ATTDEF
  5
59
330
42
100
AcDbEntity
  8
ASHADE
  6
Continuous
 62
     7
100
AcDbText
 10
0.0
 20
0.265
 30
0.0
 40
0.01
  1

100
AcDbAttributeDefinition
280
     0
  3
Look-at X
  2
LAX
 70
     1
280
     0
  0
ATTDEF
  5
5A
330
42
100
AcDbEntity
  8
ASHADE
  6
Continuous
 62
     7
100
AcDbText
 10
0.0
 20
0.28
 30
0.0
 40
0.01
  1

100
AcDbAttributeDefinition
280
     0
  3

  2
GNAME
 70
     1
280
     0
  0
LINE
  5
5B
330
42
100
AcDbEntity
  8
ASHADE
  6
Continuous
 62
     7
100
AcDbLine
 10
0.1096591641591904
 20
0.2792398032442862
 30
0.0
 11
0.1279356915190555
 21
0.3257797704516674
 31
0.0
  0
LINE
  5
5C
330
42
100
AcDbEntity
  8
ASHADE
  6
Continuous
 62
     7
100
AcDbLine
 10
0.2041413561583015
 20
0.2198324514393849
 30
0.0
 11
0.2721884748777353
 21
0.2931099352525131
 31
0.0
  0
ENDBLK
  5
5E
330
42
100
AcDbEntity
  8
0
100
AcDbBlockEnd
  0
BLOCK
  5
85
330
5F
100
AcDbEntity
  8
0
100
AcDbBlockBegin
  2
sh_spot
 70
     2
 10
0.0
 20
0.0
 30
0.0
  3
sh_spot
  1

  0
LINE
  5
60
330
5F
100
AcDbEntity
  8
ASHADE
  6
Continuous
 62
     7
100
AcDbLine
 10
0.25
 20
0.26
 30
0.0
 11
-0.25
 21
0.26
 31
0.0
  0
LINE
  5
61
330
5F
100
AcDbEntity
  8
ASHADE
  6
Continuous
 62
     7
100
AcDbLine
 10
-0.25
 20
-0.3399999999999999
 30
0.0
 11
0.25
 21
-0.3399999999999999
 31
0.0
  0
ATTDEF
  5
62
330
5F
100
AcDbEntity
  8
ASHADE
  6
Continuous
 62
     1
100
AcDbText
 10
0.0
 20
-0.1
 30
0.0
 40
0.2
  1

  7
ASHADE
 72
     1
 11
0.0
 21
-0.1
 31
0.0
100
AcDbAttributeDefinition
280
     0
  3
Light Name
  2
SNAME
 70
     0
280
     0
  0
LINE
  5
63
330
5F
100
AcDbEntity
  8
ASHADE
  6
Continuous
 62
     7
100
AcDbLine
 10
-0.25
 20
-0.13
 30
0.0
 11
-0.25
 21
-0.3399999999999999
 31
0.0
  0
LINE
  5
64
330
5F
100
AcDbEntity
  8
ASHADE
  6
Continuous
 62
     7
100
AcDbLine
 10
-0.25
 20
-0.18
 30
0.0
 11
-0.29
 21
-0.18
 31
0.0
  0
LINE
  5
65
330
5F
100
AcDbEntity
  8
ASHADE
  6
Continuous
 62
     7
100
AcDbLine
 10
-0.29
 20
-0.22
 30
0.0
 11
-0.25
 21
-0.22
 31
0.0
  0
LINE
  5
66
330
5F
100
AcDbEntity
  8
ASHADE
  6
Continuous
 62
     7
100
AcDbLine
 10
-0.29
 20
-0.18
 30
0.0
 11
-0.29
 21
-0.22
 31
0.0
  0
LINE
  5
67
330
5F
100
AcDbEntity
  8
ASHADE
  6
Continuous
 62
     7
100
AcDbLine
 10
-0.1045454545454545
 20
0.26
 30
0.0
 11
-0.15
 21
0.46
 31
0.0
  0
LINE
  5
68
330
5F
100
AcDbEntity
  8
ASHADE
  6
Continuous
 62
     7
100
AcDbLine
 10
-0.21
 20
0.26
 30
0.0
 11
-0.301304347826087
 21
0.46
 31
0.0
  0
LINE
  5
69
330
5F
100
AcDbEntity
  8
ASHADE
  6
Continuous
 62
     7
100
AcDbLine
 10
-0.25
 20
0.26
 30
0.0
 11
-0.25
 21
0.13
 31
0.0
  0
LINE
  5
6A
330
5F
100
AcDbEntity
  8
ASHADE
  6
Continuous
 62
     7
100
AcDbLine
 10
-0.25
 20
0.22
 30
0.0
 11
-0.29
 21
0.22
 31
0.0
  0
LINE
  5
6B
330
5F
100
AcDbEntity
  8
ASHADE
  6
Continuous
 62
     7
100
AcDbLine
 10
-0.29
 20
0.1799999999999999
 30
0.0
 11
-0.25
 21
0.1799999999999999
 31
0.0
  0
LINE
  5
6C
330
5F
100
AcDbEntity
  8
ASHADE
  6
Continuous
 62
     7
100
AcDbLine
 10
-0.29
 20
0.22
 30
0.0
 11
-0.29
 21
0.1799999999999999
 31
0.0
  0
ATTDEF
  5
6D
330
5F
100
AcDbEntity
  8
ASHADE
  6
Continuous
 62
     7
100
AcDbText
 10
0.0
 20
-0.24
 30
0.0
 40
0.01
  1
0
100
AcDbAttributeDefinition
280
     0
  3
Depth Map Size
  2
ZSIZE
 70
     1
280
     0
  0
ATTDEF
  5
6E
330
5F
100
AcDbEntity
  8
ASHADE
  6
Continuous
 62
     7
100
AcDbText
 10
0.0
 20
-0.3300000000000001
 30
0.0
 40
0.01
  1
0,0,0
100
AcDbAttributeDefinition
280
     0
  3
Look-from XYZ
  2
LFXYZ
 70
     1
280
     0
  0
ATTDEF
  5
6F
330
5F
100
AcDbEntity
  8
ASHADE
  6
Continuous
 62
     7
100
AcDbText
 10
0.0
 20
-0.315
 30
0.0
 40
0.01
  1
0.0
100
AcDbAttributeDefinition
280
     0
  3
Beam Distribution
  2
BEAMDI
 70
     1
280
     0
  0
ATTDEF
  5
70
330
5F
100
AcDbEntity
  8
ASHADE
  6
Continuous
 62
     7
100
AcDbText
 10
0.0
 20
-0.3
 30
0.0
 40
0.01
  1
0.0
100
AcDbAttributeDefinition
280
     0
  3
Cone Delta
  2
CONEDE
 70
     1
280
     0
  0
ATTDEF
  5
71
330
5F
100
AcDbEntity
  8
ASHADE
  6
Continuous
 62
     7
100
AcDbText
 10
0.0
 20
-0.2850000000000001
 30
0.0
 40
0.01
  1
10.0
100
AcDbAttributeDefinition
280
     0
  3
Cone Angle
  2
CONEAN
 70
     1
280
     0
  0
ATTDEF
  5
72
330
5F
100
AcDbEntity
  8
ASHADE
  6
Continuous
 62
     7
100
AcDbText
 10
0.0
 20
-0.27
 30
0.0
 40
0.01
  1
-1
100
AcDbAttributeDefinition
280
     0
  3
*not used*
  2
BIASMAX
 70
     1
280
     0
  0
ATTDEF
  5
73
330
5F
100
AcDbEntity
  8
ASHADE
  6
Continuous
 62
     7
100
AcDbText
 10
0.0
 20
-0.255
 30
0.0
 40
0.01
  1
-1
100
AcDbAttributeDefinition
280
     0
  3
*not used*
  2
BIASMIN
 70
     1
280
     0
  0
ATTDEF
  5
74
330
5F
100
AcDbEntity
  8
ASHADE
  6
Continuous
 62
     7
100
AcDbText
 10
0.0
 20
-0.225
 30
0.0
 40
0.01
  1
1,1,1
100
AcDbAttributeDefinition
280
     0
  3
Light Color (RGB)
  2
COLOR
 70
     1
280
     0
  0
ATTDEF
  5
75
330
5F
100
AcDbEntity
  8
ASHADE
  6
Continuous
 62
     7
100
AcDbText
 10
0.0
 20
-0.21
 30
0.0
 40
0.01
  1
1
100
AcDbAttributeDefinition
280
     0
  3
Light Intensity
  2
INTENSITY
 70
     1
280
     0
  0
ATTDEF
  5
76
330
5F
100
AcDbEntity
  8
ASHADE
  6
Continuous
 62
     7
100
AcDbText
 10
0.0
 20
-0.15
 30
0.0
 40
0.01
  1

100
AcDbAttributeDefinition
280
     0
  3

  2
GNAME
 70
     1
280
     0
  0
ATTDEF
  5
77
330
5F
100
AcDbEntity
  8
ASHADE
  6
Continuous
 62
     7
100
AcDbText
 10
0.0
 20
-0.195
 30
0.0
 40
0.01
  1

100
AcDbAttributeDefinition
280
     0
  3
Look-at Z
  2
LAZ
 70
     1
280
     0
  0
ATTDEF
  5
78
330
5F
100
AcDbEntity
  8
ASHADE
  6
Continuous
 62
     7
100
AcDbText
 10
0.0
 20
-0.18
 30
0.0
 40
0.01
  1

100
AcDbAttributeDefinition
280
     0
  3
Look-at Y
  2
LAY
 70
     1
280
     0
  0
ATTDEF
  5
79
330
5F
100
AcDbEntity
  8
ASHADE
  6
Continuous
 62
     7
100
AcDbText
 10
0.0
 20
-0.165
 30
0.0
 40
0.01
  1

100
AcDbAttributeDefinition
280
     0
  3
Look-at X
  2
LAX
 70
     1
280
     0
  0
LINE
  5
7A
330
5F
100
AcDbEntity
  8
ASHADE
  6
Continuous
 62
     7
100
AcDbLine
 10
0.25
 20
-0.3399999999999999
 30
0.0
 11
0.25
 21
-0.13
 31
0.0
  0
LINE
  5
7B
330
5F
100
AcDbEntity
  8
ASHADE
  6
Continuous
 62
     7
100
AcDbLine
 10
0.25
 20
-0.18
 30
0.0
 11
0.29
 21
-0.18
 31
0.0
  0
LINE
  5
7C
330
5F
100
AcDbEntity
  8
ASHADE
  6
Continuous
 62
     7
100
AcDbLine
 10
0.29
 20
-0.22
 30
0.0
 11
0.25
 21
-0.22
 31
0.0
  0
LINE
  5
7D
330
5F
100
AcDbEntity
  8
ASHADE
  6
Continuous
 62
     7
100
AcDbLine
 10
0.29
 20
-0.18
 30
0.0
 11
0.29
 21
-0.22
 31
0.0
  0
LINE
  5
7E
330
5F
100
AcDbEntity
  8
ASHADE
  6
Continuous
 62
     7
100
AcDbLine
 10
0.21
 20
0.26
 30
0.0
 11
0.301304347826087
 21
0.46
 31
0.0
  0
LINE
  5
7F
330
5F
100
AcDbEntity
  8
ASHADE
  6
Continuous
 62
     7
100
AcDbLine
 10
0.1045454545454545
 20
0.26
 30
0.0
 11
0.15
 21
0.46
 31
0.0
  0
LINE
  5
80
330
5F
100
AcDbEntity
  8
ASHADE
  6
Continuous
 62
     7
100
AcDbLine
 10
0.0
 20
0.26
 30
0.0
 11
0.0
 21
0.46
 31
0.0
  0
LINE
  5
81
330
5F
100
AcDbEntity
  8
ASHADE
  6
Continuous
 62
     7
100
AcDbLine
 10
0.25
 20
0.13
 30
0.0
 11
0.25
 21
0.26
 31
0.0
  0
LINE
  5
82
330
5F
100
AcDbEntity
  8
ASHADE
  6
Continuous
 62
     7
100
AcDbLine
 10
0.25
 20
0.22
 30
0.0
 11
0.29
 21
0.22
 31
0.0
  0
LINE
  5
83
330
5F
100
AcDbEntity
  8
ASHADE
  6
Continuous
 62
     7
100
AcDbLine
 10
0.29
 20
0.1799999999999999
 30
0.0
 11
0.25
 21
0.1799999999999999
 31
0.0
  0
LINE
  5
84
330
5F
100
AcDbEntity
  8
ASHADE
  6
Continuous
 62
     7
100
AcDbLine
 10
0.29
 20
0.22
 30
0.0
 11
0.29
 21
0.1799999999999999
 31
0.0
  0
ENDBLK
  5
86
330
5F
100
AcDbEntity
  8
0
100
AcDbBlockEnd
  0
BLOCK
  5
92
330
91
100
AcDbEntity
  8
ASHADE
100
AcDbBlockBegin
  2
AVE_RENDER
 70
     0
 10
0.0
 20
0.0
 30
0.0
  3
AVE_RENDER
  1
AVE_RENDER
  0
ENDBLK
  5
93
330
91
100
AcDbEntity
  8
0
100
AcDbBlockEnd
  0
BLOCK
  5
A0
330
9F
100
AcDbEntity
  8
ASHADE
100
AcDbBlockBegin
  2
AVE_GLOBAL
 70
     0
 10
0.0
 20
0.0
 30
0.0
  3
AVE_GLOBAL
  1
AVE_GLOBAL
  0
ENDBLK
  5
A1
330
9F
100
AcDbEntity
  8
0
100
AcDbBlockEnd
  0
ENDSEC
  0
SECTION
  2
ENTITIES
  0
INSERT
  5
94
330
1F
100
AcDbEntity
  8
ASHADE
 62
     1
100
AcDbBlockReference
  2
AVE_RENDER
 10
0.0
 20
0.0
 30
0.0
1001
AVE_RENDER
1002
{
1070
     7
1000
Pref
1070
    30
1070
    20
1070
     1
1070
     0
1000

1070
    10
1070
     1
1070
    10
1040
1.0
1070
     1
1040
0.3
1040
0.7
1040
0.0
1040
10.0
1010
-1.0
1020
-1.0
1030
-1.0
1040
0.3
1070
    49
1070
     0
1070
     0
1010
1.0
1020
1.0
1030
1.0
1040
45.0
1070
     1
1070
     0
1000
WCS
1040
0.0
1070
     0
1040
10.0
1002
}
  0
INSERT
  5
95
330
1F
100
AcDbEntity
  8
ASHADE
 62
     3
100
AcDbBlockReference
  2
AVE_RENDER
 10
0.0
 20
0.0
 30
0.0
1001
AVE_RENDER
1002
{
1070
     0
1000
Full Opt
1070
     0
1070
     1
1070
     1
1070
     1
1070
     0
1070
     0
1070
     0
1070
     1
1070
     1
1040
0.0001
1040
0.0001
1002
}
  0
INSERT
  5
96
330
1F
100
AcDbEntity
  8
ASHADE
 62
     4
100
AcDbBlockReference
  2
AVE_RENDER
 10
0.0
 20
0.0
 30
0.0
1001
AVE_RENDER
1002
{
1070
     0
1000
Quick Opt
1070
     0
1070
     1
1070
     1
1070
     1
1070
     0
1070
     0
1070
     1
1002
}
  0
INSERT
  5
97
330
1F
100
AcDbEntity
  8
ASHADE
 62
     5
100
AcDbBlockReference
  2
AVE_RENDER
 10
0.0
 20
0.0
 30
0.0
1001
AVE_RENDER
1002
{
1070
     1
1000
Scanl Opt
1070
     2
1070
     0
1070
     2
1040
2.0
1040
4.0
1070
     0
1070
     1
1070
     0
1040
0.03
1002
}
  0
INSERT
  5
98
330
1F
100
AcDbEntity
  8
ASHADE
 62
     6
100
AcDbBlockReference
  2
AVE_RENDER
 10
0.0
 20
0.0
 30
0.0
1001
AVE_RENDER
1002
{
1070
     2
1000
Raytr Opt
1070
     2
1070
     0
1070
     2
1040
2.0
1040
4.0
1070
     0
1070
     1
1070
     1
1040
0.03
1070
     3
1040
0.03
1002
}
  0
INSERT
  5
99
330
1F
100
AcDbEntity
  8
ASHADE
 62
     7
100
AcDbBlockReference
  2
AVE_RENDER
 10
0.0
 20
0.0
 30
0.0
1001
AVE_RENDER
1002
{
1070
     0
1000
RFile Opt
1070
     1
1070
   640
1070
   480
1070
 10000
1070
     1
1070
     8
1070
     8
1070
     0
1070
     0
1070
     0
1070
     0
1070
     0
1070
     0
1070
     0
1002
}
  0
INSERT
  5
9A
330
1F
100
AcDbEntity
  8
ASHADE
 62
     8
100
AcDbBlockReference
  2
AVE_RENDER
 10
0.0
 20
0.0
 30
0.0
1001
AVE_RENDER
1002
{
1070
     0
1000
Fog Opt
1070
     0
1070
     0
1040
0.0
1040
1.0
1040
0.0
1040
1.0
1010
0.5
1020
0.5
1030
0.5
1002
}
  0
INSERT
  5
9B
330
1F
100
AcDbEntity
  8
ASHADE
 62
     9
100
AcDbBlockReference
  2
AVE_RENDER
 10
0.0
 20
0.0
 30
0.0
1001
AVE_RENDER
1002
{
1070
     0
1000
BG Opt
1070
     0
1070
     1
1010
0.0
1020
0.0
1030
0.0
1010
1.0
1020
0.0
1030
0.0
1010
0.0
1020
1.0
1030
0.0
1010
0.0
1020
0.0
1030
1.0
1040
0.5
1040
0.33
1040
0.0
1000

1070
     1
1000

1070
     1
1070
     1
1040
1.0
1040
1.0
1040
0.0
1040
0.0
1070
     0
1002
}
  0
INSERT
  5
A2
330
1F
100
AcDbEntity
  8
ASHADE
 62
     1
100
AcDbBlockReference
  2
AVE_GLOBAL
 10
0.0
 20
0.0
 30
0.0
1001
AVE_MATERIAL
1002
{
1000
*GLOBAL*
1000
2
1000
Global finish.
1002
{
1002
}
1002
{
1070
    63
1002
{
1002
{
1010
-1.0
1020
-1.0
1030
-1.0
1002
}
1040
0.1000000014901161
1000

1040
0.0
1002
{
1002
}
1040
0.0
1002
{
1002
}
1040
0.0
1002
}
1002
{
1002
{
1010
-1.0
1020
-1.0
1030
-1.0
1002
}
1040
0.6999999880790711
1000

1040
0.0
1002
{
1002
}
1040
0.0
1002
{
1002
}
1040
0.0
1002
}
1002
{
1002
{
1010
-1.0
1020
-1.0
1030
-1.0
1002
}
1040
0.2000000029802322
1000

1040
0.0
1002
{
1002
}
1040
0.0
1002
{
1002
}
1040
0.0
1002
}
1002
{
1070
     0
1002
{
1070
     1
1002
{
1040
1.0
1040
1.0
1000

1040
0.0
1002
{
1002
}
1040
0.0
1002
{
1002
}
1040
0.0
1002
}
1002
}
1040
1.0
1040
0.0
1040
0.0
1002
}
1002
{
1040
1.0
1040
1.0
1000

1040
0.0
1002
{
1002
}
1040
0.0
1002
{
1002
}
1040
0.0
1002
}
1002
{
1040
0.5
1040
1.0
1000

1040
0.0
1002
{
1002
}
1040
0.0
1002
{
1002
}
1040
0.0
1002
}
1002
{
1070
     0
1040
0.0
1002
{
1002
}
1040
1.0
1002
{
1002
}
1040
0.0
1002
}
1002
{
1040
0.0
1002
{
1002
{
1010
0.0
1020
0.0
1030
0.0
1002
}
1040
1.0
1000

1040
0.0
1002
{
1002
}
1040
0.0
1002
{
1002
}
1040
0.0
1002
}
1002
}
1002
{
1002
{
1070
     1
1002
{
1040
0.0
1040
1.0
1000

1040
0.0
1002
{
1002
}
1040
0.0
1002
{
1002
}
1040
0.0
1002
}
1002
}
1040
0.0
1002
{
1002
}
1010
1.0
1020
0.0
1030
0.0
1010
0.0
1020
1.0
1030
0.0
1010
0.0
1020
0.0
1030
1.0
1070
     0
1002
}
1002
{
1002
{
1040
1.0
1040
1.0
1002
{
1070
     1
1002
{
1040
1.0
1040
1.0
1000

1040
0.0
1002
{
1002
}
1040
0.0
1002
{
1002
}
1040
0.0
1002
}
1002
}
1002
}
1070
     0
1040
0.0
1002
{
1002
}
1002
}
1002
{
1002
}
1002
}
1002
{
1071
        3
1070
     3
1070
     0
1002
{
1070
     2
1070
     0
1070
     0
1040
0.0
1002
}
1070
     0
1070
     2
1002
{
1002
}
1002
}
1002
{
1040
8030.0
1040
190.3000030517578
1040
0.3050000071525574
1040
228.0
1040
545.0
1040
14.0
1040
17.39999961853027
1040
0.4560000002384186
1002
}
1002
}
  0
MESH
  5
F9
330
1F
100
AcDbEntity
  8
OracDecor_cornice_mouldings
 62
   121
420
 10085590
160
             25496
310
98630000C40200000C00000013000000020000003C00000006000000020000000000000000408FC000000000AD3716C00000000001804DC00000000000408F4000000000C43716C00000000001804DC00C000000130000000A0000003C00000006000000020000000000000000408FC0000000000000153F0000000001804D
310
C00000000000408FC000000000AD3716C00000000001804DC00C00000013000000120000003C00000006000000020000000000000000408FC0000000000000153F0000000001804DC00000000000408F40000000000000D8BE0000000001804DC00C000000130000001A0000003C0000000600000002000000000000000040
310
8F40000000000000D8BE0000000001804DC00000000000408F4000000000C43716C00000000001804DC00C00000013000000220000003C00000006000000020000000000000000408FC0000000000000153F00000080E0114AC00000000000408FC0000000000000153F0000000001804DC00C000000130000002A0000003C
310
00000006000000020000000000000000408FC0000000000000153F00000080E0114AC00000000000408F40000000000000E0BE00000080E0114AC00C00000013000000320000003C00000006000000020000000000000000408F40000000000000E0BE00000080E0114AC00000000000408F40000000000000D8BE00000000
310
01804DC00C000000130000003A0000003C00000006000000020000000000000000408FC00000000000428EBF000000C0F9044AC00000000000408FC0000000000000153F00000080E0114AC00C00000013000000420000003C00000006000000020000000000000000408FC00000000000428EBF000000C0F9044AC0000000
310
0000408F400000000000708EBF000000C0F9044AC00C000000130000004A0000003C00000006000000020000000000000000408F40000000000000E0BE00000080E0114AC00000000000408F400000000000708EBF000000C0F9044AC00C00000013000000520000003C00000006000000020000000000000000408FC00000
310
0000C0D7ADBF00000000F4F849C00000000000408FC00000000000428EBF000000C0F9044AC00C000000130000005A0000003C00000006000000020000000000000000408FC000000000C0D7ADBF00000000F4F849C00000000000408F400000000040E3ADBF00000000F4F849C00C00000013000000620000003C00000006
310
000000020000000000000000408F400000000000708EBF000000C0F9044AC00000000000408F400000000040E3ADBF00000000F4F849C00C000000130000006A0000003C00000006000000020000000000000000408FC0000000002813EFBF000000800B4449C00000000000408FC000000000C0D7ADBF00000000F4F849C0
310
0C00000013000000720000003C00000006000000020000000000000000408FC0000000002813EFBF000000800B4449C00000000000408F4000000000E013EFBF000000800B4449C00C000000130000007A0000003C00000006000000020000000000000000408F400000000040E3ADBF00000000F4F849C00000000000408F
310
4000000000E013EFBF000000800B4449C00C00000013000000820000003C00000006000000020000000000000000408FC000000000A678F0BF000000001F2B49C00000000000408FC0000000002813EFBF000000800B4449C00C000000130000008A0000003C00000006000000020000000000000000408FC000000000A678
310
F0BF000000001F2B49C00000000000408F40000000000079F0BF000000001F2B49C00C00000013000000920000003C00000006000000020000000000000000408F4000000000E013EFBF000000800B4449C00000000000408F40000000000079F0BF000000001F2B49C00C000000130000009A0000003C0000000600000002
310
0000000000000000408FC0000000002813EFBF00000080321249C00000000000408FC000000000A678F0BF000000001F2B49C00C00000013000000A20000003C00000006000000020000000000000000408FC0000000002813EFBF00000080321249C00000000000408F4000000000E013EFBF00000080321249C00C000000
310
13000000AA0000003C00000006000000020000000000000000408F40000000000079F0BF000000001F2B49C00000000000408F4000000000E013EFBF00000080321249C00C00000013000000B20000003C00000006000000020000000000000000408FC000000000C0D7ADBF000000404A5D48C00000000000408FC0000000
310
002813EFBF00000080321249C00C00000013000000BA0000003C00000006000000020000000000000000408FC000000000C0D7ADBF000000404A5D48C00000000000408F400000000040E3ADBF000000404A5D48C00C00000013000000C20000003C00000006000000020000000000000000408F4000000000E013EFBF0000
310
0080321249C00000000000408F400000000040E3ADBF000000404A5D48C00C00000013000000CA0000003C00000006000000020000000000000000408FC00000000000428EBF00000040445148C00000000000408FC000000000C0D7ADBF000000404A5D48C00C00000013000000D20000003C000000060000000200000000
310
00000000408FC00000000000428EBF00000040445148C00000000000408F400000000000708EBF00000040445148C00C00000013000000DA0000003C00000006000000020000000000000000408F400000000000708EBF00000040445148C00000000000408F400000000040E3ADBF000000404A5D48C00C00000013000000
310
E20000003C00000006000000020000000000000000408FC0000000000080143F000000805D4448C00000000000408FC00000000000428EBF00000040445148C00C00000013000000EA0000003C00000006000000020000000000000000408FC0000000000080143F000000805D4448C00000000000408F40000000000000E0
310
BE000000805D4448C00C00000013000000F20000003C00000006000000020000000000000000408F400000000000708EBF00000040445148C00000000000408F40000000000000E0BE000000805D4448C00C00000013000000FA0000003C00000006000000020000000000000000408FC0000000000000053F000000C0A514
310
46C00000000000408FC0000000000080143F000000805D4448C00C00000013000000020100003C00000006000000020000000000000000408FC0000000000000053F000000C0A51446C00000000000408F4000000000000008BF000000C0A51446C00C000000130000000A0100003C00000006000000020000000000000000
310
408F40000000000000E0BE000000805D4448C00000000000408F4000000000000008BF000000C0A51446C00C00000013000000120100003C00000006000000020000000000000000408FC000000000C078B1BF00000040DAF945C00000000000408FC0000000000000053F000000C0A51446C00C000000130000001A010000
310
3C00000006000000020000000000000000408FC000000000C078B1BF00000040DAF945C00000000000408F4000000000607EB1BF00000040DAF945C00C00000013000000220100003C00000006000000020000000000000000408F4000000000607EB1BF00000040DAF945C00000000000408F4000000000000008BF000000
310
C0A51446C00C000000130000002A0100003C00000006000000020000000000000000408FC000000000F01BD0BF0000004075E745C00000000000408FC000000000C078B1BF00000040DAF945C00C00000013000000320100003C00000006000000020000000000000000408FC000000000F01BD0BF0000004075E745C00000
310
000000408F4000000000581DD0BF0000004075E745C00C000000130000003A0100003C00000006000000020000000000000000408F4000000000607EB1BF00000040DAF945C00000000000408F4000000000581DD0BF0000004075E745C00C00000013000000420100003C00000006000000020000000000000000408FC000
310
000000F01BD0BF0000004075E745C00000000000408FC0000000004E39F0BF0000004033AA45C00C000000130000004A0100003C00000006000000020000000000000000408FC0000000004E39F0BF0000004033AA45C00000000000408F4000000000A839F0BF0000004033AA45C00C00000013000000520100003C000000
310
06000000020000000000000000408F4000000000A839F0BF0000004033AA45C00000000000408F4000000000581DD0BF0000004075E745C00C000000130000005A0100003C00000006000000020000000000000000408FC0000000004E39F0BF0000004033AA45C00000000000408FC0000000002AB5F8BF00000040915245
310
C00C00000013000000620100003C00000006000000020000000000000000408FC0000000002AB5F8BF00000040915245C00000000000408F400000000084B5F8BF00000040915245C00C000000130000006A0100003C00000006000000020000000000000000408F400000000084B5F8BF00000040915245C0000000000040
310
8F4000000000A839F0BF0000004033AA45C00C00000013000000720100003C00000006000000020000000000000000408FC000000000CC6EFCBF000000405DEB44C00000000000408FC0000000002AB5F8BF00000040915245C00C000000130000007A0100003C00000006000000020000000000000000408FC000000000CC
310
6EFCBF000000405DEB44C00000000000408F4000000000266FFCBF000000405DEB44C00C00000013000000820100003C00000006000000020000000000000000408F4000000000266FFCBF000000405DEB44C00000000000408F400000000084B5F8BF00000040915245C00C000000130000008A0100003C00000006000000
310
020000000000000000408FC000000000CC6EFCBF000000405DEB44C00000000000408FC0000000007DC401C0000000E059D542C00C00000013000000920100003C00000006000000020000000000000000408FC0000000007DC401C0000000E059D542C00000000000408F4000000000AAC401C0000000E059D542C00C0000
310
00130000009A0100003C00000006000000020000000000000000408F4000000000AAC401C0000000E059D542C00000000000408F4000000000266FFCBF000000405DEB44C00C00000013000000A20100003C00000006000000020000000000000000408FC0000000007DC401C0000000E059D542C00000000000408FC00000
310
0080713006C00000008038F840C00C00000013000000AA0100003C00000006000000020000000000000000408FC000000080713006C00000008038F840C00000000000408F4000000000A93006C00000008038F840C00C00000013000000B20100003C00000006000000020000000000000000408F4000000000A93006C000
310
00008038F840C00000000000408F4000000000AAC401C0000000E059D542C00C00000013000000BA0100003C00000006000000020000000000000000408FC000000080713006C00000008038F840C00000000000408FC00000008019640BC0000000E049A03EC00C00000013000000C20100003C0000000600000002000000
310
0000000000408FC00000008019640BC0000000E049A03EC00000000000408F400000000051640BC0000000E049A03EC00C00000013000000CA0100003C00000006000000020000000000000000408F400000000051640BC0000000E049A03EC00000000000408F4000000000A93006C00000008038F840C00C000000130000
310
00D20100003C00000006000000020000000000000000408FC00000008019640BC0000000E049A03EC00000000000408FC0000000404F2912C0000000E00B533AC00C00000013000000DA0100003C00000006000000020000000000000000408FC0000000404F2912C0000000E00B533AC00000000000408F40000000006629
310
12C0000000E00B533AC00C00000013000000E20100003C00000006000000020000000000000000408F4000000000662912C0000000E00B533AC00000000000408F400000000051640BC0000000E049A03EC00C00000013000000EA0100003C00000006000000020000000000000000408FC0000000404F2912C0000000E00B
310
533AC00000000000408FC0000000C0F12717C0000000005FAF36C00C00000013000000F20100003C00000006000000020000000000000000408FC0000000C0F12717C0000000005FAF36C00000000000408F40000000C0082817C0000000005FAF36C00C00000013000000FA0100003C000000060000000200000000000000
310
00408F40000000C0082817C0000000005FAF36C00000000000408F4000000000662912C0000000E00B533AC00C00000013000000020200003C00000006000000020000000000000000408FC0000000C0F12717C0000000005FAF36C00000000000408FC0000000C0E69F1CC0000000C0C18A33C00C000000130000000A0200
310
003C00000006000000020000000000000000408FC0000000C0E69F1CC0000000C0C18A33C00000000000408F40000000C0FD9F1CC0000000C0C18A33C00C00000013000000120200003C00000006000000020000000000000000408F40000000C0FD9F1CC0000000C0C18A33C00000000000408F40000000C0082817C00000
310
00005FAF36C00C000000130000001A0200003C00000006000000020000000000000000408FC0000000C0E69F1CC0000000C0C18A33C00000000000408FC0000000C0183921C0000000406DD330C00C00000013000000220200003C00000006000000020000000000000000408FC0000000C0183921C0000000406DD330C000
310
00000000408F4000000040243921C0000000406DD330C00C000000130000002A0200003C00000006000000020000000000000000408F4000000040243921C0000000406DD330C00000000000408F40000000C0FD9F1CC0000000C0C18A33C00C00000013000000320200003C00000006000000020000000000000000408FC0
310
000000C0183921C0000000406DD330C00000000000408FC0000000402C9927C0000000E019AA28C00C000000130000003A0200003C00000006000000020000000000000000408FC0000000402C9927C0000000E019AA28C00000000000408F40000000C0379927C0000000E019AA28C00C00000013000000420200003C0000
310
0006000000020000000000000000408F40000000C0379927C0000000E019AA28C00000000000408F4000000040243921C0000000406DD330C00C000000130000004A0200003C00000006000000020000000000000000408FC0000000402C9927C0000000E019AA28C00000000000408FC00000006067BB2EC000000000878A
310
21C00C00000013000000520200003C00000006000000020000000000000000408FC00000006067BB2EC000000000878A21C00000000000408F400000008070BB2EC000000080878A21C00C000000130000005A0200003C00000006000000020000000000000000408F400000008070BB2EC000000080878A21C00000000000
310
408F40000000C0379927C0000000E019AA28C00C00000013000000620200003C00000006000000020000000000000000408FC00000006067BB2EC000000000878A21C00000000000408FC000000080934C33C00000000052EF17C00C000000130000006A0200003C00000006000000020000000000000000408FC000000080
310
934C33C00000000052EF17C00000000000408F40000000E0964C33C00000000052EF17C00C00000013000000720200003C00000006000000020000000000000000408F40000000E0964C33C00000000052EF17C00000000000408F400000008070BB2EC000000080878A21C00C000000130000007A0200003C000000060000
310
00020000000000000000408FC00000008021CD37C00000000062560EC00000000000408FC000000080934C33C00000000052EF17C00C00000013000000820200003C00000006000000020000000000000000408FC00000008021CD37C00000000062560EC00000000000408F400000004027CD37C00000000062560EC00C00
310
0000130000008A0200003C00000006000000020000000000000000408F400000004027CD37C00000000062560EC00000000000408F40000000E0964C33C00000000052EF17C00C00000013000000920200003C00000006000000020000000000000000408FC00000008021CD37C00000000062560EC00000000000408FC000
310
000040273E39C00000000050A707C00C000000130000009A0200003C00000006000000020000000000000000408FC000000040273E39C00000000050A707C00000000000408F40000000002D3E39C00000000050A707C00C00000013000000A20200003C00000006000000020000000000000000408F40000000002D3E39C0
310
0000000050A707C00000000000408F400000004027CD37C00000000062560EC00C00000013000000AA0200003C00000006000000020000000000000000408FC000000040273E39C00000000050A707C00000000000408FC000000000BD503AC000000000861AFCBF0C00000013000000B20200003C00000006000000020000
310
000000000000408FC000000000BD503AC000000000861AFCBF0000000000408F40000000C0C2503AC000000000861AFCBF0C00000013000000BA0200003C00000006000000020000000000000000408F40000000C0C2503AC000000000861AFCBF0000000000408F40000000002D3E39C00000000050A707C00C0000001300
310
0000C20200003C00000006000000020000000000000000408FC000000000BD503AC000000000861AFCBF0000000000408FC00000004096E83AC000000000E82BD4BF0C00000013000000CA0200003C00000006000000020000000000000000408FC00000004096E83AC000000000E82BD4BF0000000000408F40000000009C
310
E83AC000000000E82BD4BF0C00000013000000D20200003C00000006000000020000000000000000408F40000000009CE83AC000000000E82BD4BF0000000000408F40000000C0C2503AC000000000861AFCBF0C00000013000000DA0200003C00000006000000020000000000000000408FC00000004096E83AC000000000
310
E82BD4BF0000000000408FC00000008068FD3AC000000000A09CC3BF0C00000013000000E20200003C00000006000000020000000000000000408FC00000008068FD3AC000000000A09CC3BF0000000000408F40000000406EFD3AC000000000A09CC3BF0C00000013000000EA0200003C0000000600000002000000000000
310
0000408F40000000009CE83AC000000000E82BD4BF0000000000408F40000000406EFD3AC000000000A09CC3BF0C00000013000000F20200003C00000006000000020000000000000000408FC00000008068FD3AC000000000A09CC3BF0000000000408FC00000004091243BC000000000C0B8A4BF0C00000013000000FA02
310
00003C00000006000000020000000000000000408FC00000004091243BC000000000C0B8A4BF0000000000408F400000000097243BC000000000C0B8A4BF0C00000013000000020300003C00000006000000020000000000000000408F400000000097243BC000000000C0B8A4BF0000000000408F40000000406EFD3AC000
310
000000A09CC3BF0C000000130000000A0300003C00000006000000020000000000000000408FC00000004011563BC0000000000000033F0000000000408FC00000004091243BC000000000C0B8A4BF0C00000013000000120300003C00000006000000020000000000000000408FC00000004011563BC0000000000000033F
310
0000000000408F400000000017563BC0000000000000033F0C000000130000001A0300003C00000006000000020000000000000000408F400000000017563BC0000000000000033F0000000000408F400000000097243BC000000000C0B8A4BF0C00000013000000220300003C00000006000000020000000000000000408F
310
C00000004011563BC0000000000000033F0000000000408FC000000080341B40C0000000000000043F0C000000130000002A0300003C00000006000000020000000000000000408FC000000080341B40C0000000000000043F0000000000408F4000000000391B40C0000000000000043F0C00000013000000320300003C00
310
000006000000020000000000000000408F4000000000391B40C0000000000000043F0000000000408F400000000017563BC0000000000000033F0C000000130000003A0300003C00000006000000020000000000000000408FC000000080341B40C0000000000000043F0000000000408FC000000060A22940C00000000000
310
1D8BBF0C00000013000000420300003C00000006000000020000000000000000408FC000000060A22940C000000000001D8BBF0000000000408F40000000A0A72940C000000000001D8BBF0C000000130000004A0300003C00000006000000020000000000000000408F40000000A0A72940C000000000001D8BBF00000000
310
00408F4000000000391B40C0000000000000043F0C00000013000000520300003C00000006000000020000000000000000408FC000000060153740C000000000C0B1AABF0000000000408FC000000060A22940C000000000001D8BBF0C000000130000005A0300003C00000006000000020000000000000000408FC0000000
310
60153740C000000000C0B1AABF0000000000408F40000000A01A3740C000000000C0B1AABF0C00000013000000620300003C00000006000000020000000000000000408F40000000A01A3740C000000000C0B1AABF0000000000408F40000000A0A72940C000000000001D8BBF0C000000130000006A0300003C0000000600
310
0000020000000000000000408FC0000000A0991941C0000000004CE5EEBF0000000000408FC000000060153740C000000000C0B1AABF0C00000013000000720300003C00000006000000020000000000000000408FC0000000A0991941C0000000004CE5EEBF0000000000408F40000000009F1941C0000000004CE5EEBF0C
310
000000130000007A0300003C00000006000000020000000000000000408F40000000009F1941C0000000004CE5EEBF0000000000408F40000000A01A3740C000000000C0B1AABF0C00000013000000820300003C00000006000000020000000000000000408FC0000000A0991941C0000000004CE5EEBF0000000000408FC0
310
000000C07B3541C0000000005A48F0BF0C000000130000008A0300003C00000006000000020000000000000000408FC0000000C07B3541C0000000005A48F0BF0000000000408F40000000A0803541C0000000005A48F0BF0C00000013000000920300003C00000006000000020000000000000000408F40000000A0803541
310
C0000000005A48F0BF0000000000408F40000000009F1941C0000000004CE5EEBF0C000000130000009A0300003C00000006000000020000000000000000408FC0000000805D5141C0000000004CE5EEBF0000000000408FC0000000C07B3541C0000000005A48F0BF0C00000013000000A20300003C000000060000000200
310
00000000000000408FC0000000805D5141C0000000004CE5EEBF0000000000408F4000000020625141C0000000004CE5EEBF0C00000013000000AA0300003C00000006000000020000000000000000408F4000000020625141C0000000004CE5EEBF0000000000408F40000000A0803541C0000000005A48F0BF0C00000013
310
000000B20300003C00000006000000020000000000000000408FC0000000C0E13342C00000000000B2AABF0000000000408FC0000000805D5141C0000000004CE5EEBF0C00000013000000BA0300003C00000006000000020000000000000000408FC0000000C0E13342C00000000000B2AABF0000000000408F4000000060
310
E63342C00000000000B2AABF0C00000013000000C20300003C00000006000000020000000000000000408F4000000060E63342C00000000000B2AABF0000000000408F4000000020625141C0000000004CE5EEBF0C00000013000000CA0300003C00000006000000020000000000000000408FC0000000C0E13342C0000000
310
0000B2AABF0000000000408FC0000000C0544142C000000000001F8BBF0C00000013000000D20300003C00000006000000020000000000000000408FC0000000C0544142C000000000001F8BBF0000000000408F4000000060594142C000000000001F8BBF0C00000013000000DA0300003C00000006000000020000000000
310
000000408F4000000060594142C000000000001F8BBF0000000000408F4000000060E63342C00000000000B2AABF0C00000013000000E20300003C00000006000000020000000000000000408FC000000080C34F42C0000000000000033F0000000000408FC0000000C0544142C000000000001F8BBF0C00000013000000EA
310
0300003C00000006000000020000000000000000408FC000000080C34F42C0000000000000033F0000000000408F4000000020C84F42C0000000000000033F0C00000013000000F20300003C00000006000000020000000000000000408F4000000020C84F42C0000000000000033F0000000000408F4000000060594142C0
310
00000000001F8BBF0C00000013000000FA0300003C00000006000000020000000000000000408FC000000080C34F42C0000000000000033F0000000000408FC0000000C0FCFF45C000000000000000000C00000013000000020400003C00000006000000020000000000000000408FC0000000C0FCFF45C000000000000000
310
000000000000408F4000000060010046C000000000000000000C000000130000000A0400003C00000006000000020000000000000000408F4000000060010046C000000000000000000000000000408F4000000020C84F42C0000000000000033F0C00000013000000120400003C0000000600000002000000000000000040
310
8FC0000000C0FCFF45C000000000000000000000000000408FC000000080FBFF45C00000000085DC13C00C000000130000001A0400003C00000006000000020000000000000000408FC000000080FBFF45C00000000085DC13C00000000000408F4000000000000046C00000008084DC13C00C00000013000000220400003C
310
00000006000000020000000000000000408F4000000000000046C00000008084DC13C00000000000408F4000000060010046C000000000000000000C000000130000002A0400003C00000006000000020000000000000000408FC00000000083F845C000000080E9A314C00000000000408FC000000080FBFF45C000000000
310
85DC13C00C00000013000000320400003C00000006000000020000000000000000408FC00000000083F845C000000080E9A314C00000000000408F400000008087F845C000000080E9A314C00C000000130000003A0400003C00000006000000020000000000000000408F4000000000000046C00000008084DC13C0000000
310
0000408F400000008087F845C000000080E9A314C00C00000013000000420400003C00000006000000020000000000000000408FC0000000001AE445C000000080E03515C00000000000408FC00000000083F845C000000080E9A314C00C000000130000004A0400003C00000006000000020000000000000000408FC00000
310
00001AE445C000000080E03515C00000000000408F40000000801EE445C000000080E03515C00C00000013000000520400003C00000006000000020000000000000000408F40000000801EE445C000000080E03515C00000000000408F400000008087F845C000000080E9A314C00C000000130000005A0400003C00000006
310
000000020000000000000000408FC00000004038C845C0000000004E6B15C00000000000408FC0000000001AE445C000000080E03515C00C00000013000000620400003C00000006000000020000000000000000408FC00000004038C845C0000000004E6B15C00000000000408F40000000C03CC845C0000000004E6B15C0
310
0C000000130000006A0400003C00000006000000020000000000000000408F40000000801EE445C000000080E03515C00000000000408F40000000C03CC845C0000000004E6B15C00C00000013000000720400003C00000006000000020000000000000000408FC0000000005CD243C000000080446B15C00000000000408F
310
C00000004038C845C0000000004E6B15C00C000000130000007A0400003C00000006000000020000000000000000408FC0000000005CD243C000000080446B15C00000000000408F400000008060D243C000000080446B15C00C00000013000000820400003C00000006000000020000000000000000408F40000000C03CC8
310
45C0000000004E6B15C00000000000408F400000008060D243C000000080446B15C00C000000130000008A0400003C00000006000000020000000000000000408FC0000000005CD243C000000080446B15C00000000000408FC0000000C0029D43C00000000028B715C00C00000013000000920400003C0000000600000002
310
0000000000000000408FC0000000C0029D43C00000000028B715C00000000000408F4000000040079D43C00000000028B715C00C000000130000009A0400003C00000006000000020000000000000000408F400000008060D243C000000080446B15C00000000000408F4000000040079D43C00000000028B715C00C000000
310
13000000A20400003C00000006000000020000000000000000408FC0000000C0029D43C00000000028B715C00000000000408FC0000000C0C86F43C000000080458F16C00C00000013000000AA0400003C00000006000000020000000000000000408FC0000000C0C86F43C000000080458F16C00000000000408F40000000
310
40CD6F43C000000080458F16C00C00000013000000B20400003C00000006000000020000000000000000408F4000000040CD6F43C000000080458F16C00000000000408F4000000040079D43C00000000028B715C00C00000013000000BA0400003C00000006000000020000000000000000408FC0000000C0C86F43C00000
310
0080458F16C00000000000408FC0000000C0905143C000000080B5D217C00C00000013000000C20400003C00000006000000020000000000000000408FC0000000C0905143C000000080B5D217C00000000000408F4000000040955143C000000000B6D217C00C00000013000000CA0400003C000000060000000200000000
310
00000000408F4000000040CD6F43C000000080458F16C00000000000408F4000000040955143C000000000B6D217C00C00000013000000D20400003C00000006000000020000000000000000408FC000000000F44643C0000000803B5019C00000000000408FC0000000C0905143C000000080B5D217C00C00000013000000
310
DA0400003C00000006000000020000000000000000408FC000000000F44643C0000000803B5019C00000000000408F4000000080F84643C0000000003B5019C00C00000013000000E20400003C00000006000000020000000000000000408F4000000040955143C000000000B6D217C00000000000408F4000000080F84643
310
C0000000003B5019C00C00000013000000EA0400003C00000006000000020000000000000000408FC000000000F44643C0000000C0944623C00000000000408FC000000000F44643C0000000803B5019C00C00000013000000F20400003C00000006000000020000000000000000408FC000000000F44643C0000000C09446
310
23C00000000000408F4000000080F84643C000000000954623C00C00000013000000FA0400003C00000006000000020000000000000000408F4000000080F84643C0000000003B5019C00000000000408F4000000080F84643C000000000954623C00C00000013000000020500003C00000006000000020000000000000000
310
408FC000000000F44643C0000000C0944623C00000000000408FC0000000809E3F43C0000000406DA923C00C000000130000000A0500003C00000006000000020000000000000000408FC0000000809E3F43C0000000406DA923C00000000000408F4000000000A33F43C0000000406DA923C00C0000001300000012050000
310
3C00000006000000020000000000000000408F4000000080F84643C000000000954623C00000000000408F4000000000A33F43C0000000406DA923C00C000000130000001A0500003C00000006000000020000000000000000408FC0000000809E3F43C0000000406DA923C00000000000408FC0000000008C2B43C0000000
310
C044F223C00C00000013000000220500003C00000006000000020000000000000000408FC0000000008C2B43C0000000C044F223C00000000000408F4000000080902B43C00000004045F223C00C000000130000002A0500003C00000006000000020000000000000000408F4000000000A33F43C0000000406DA923C00000
310
000000408F4000000080902B43C00000004045F223C00C00000013000000320500003C00000006000000020000000000000000408FC000000000041043C000000000F60D24C00000000000408FC0000000008C2B43C0000000C044F223C00C000000130000003A0500003C00000006000000020000000000000000408FC000
310
000000041043C000000000F60D24C00000000000408F4000000080081043C0000000E0F50D24C00C00000013000000420500003C00000006000000020000000000000000408F4000000080902B43C00000004045F223C00000000000408F4000000080081043C0000000E0F50D24C00C000000130000004A0500003C000000
310
06000000020000000000000000408FC0000000805CE642C000000080291024C00000000000408FC000000000041043C000000000F60D24C00C00000013000000520500003C00000006000000020000000000000000408FC0000000805CE642C000000080291024C00000000000408F400000004065E642C000000060291024
310
C00C000000130000005A0500003C00000006000000020000000000000000408F400000004065E642C000000060291024C00000000000408F4000000080081043C0000000E0F50D24C00C00000013000000620500003C00000006000000020000000000000000408FC0000000805CE642C000000080291024C0000000000040
310
8FC0000000405C8340C0000000802CD524C00C000000130000006A0500003C00000006000000020000000000000000408FC0000000405C8340C0000000802CD524C00000000000408F4000000060618340C0000000602CD524C00C00000013000000720500003C00000006000000020000000000000000408F400000004065
310
E642C000000060291024C00000000000408F4000000060618340C0000000602CD524C00C000000130000007A0500003C00000006000000020000000000000000408FC0000000405C8340C0000000802CD524C00000000000408FC000000000C8B03CC000000000A5ED26C00C00000013000000820500003C00000006000000
310
020000000000000000408FC000000000C8B03CC000000000A5ED26C00000000000408F40000000C0CDB03CC000000000A5ED26C00C000000130000008A0500003C00000006000000020000000000000000408F4000000060618340C0000000602CD524C00000000000408F40000000C0CDB03CC000000000A5ED26C00C0000
310
0013000000920500003C00000006000000020000000000000000408FC000000000C8B03CC000000000A5ED26C00000000000408FC0000000009B0839C0000000401C322AC00C000000130000009A0500003C00000006000000020000000000000000408FC0000000009B0839C0000000401C322AC00000000000408F400000
310
00C0A00839C0000000401C322AC00C00000013000000A20500003C00000006000000020000000000000000408F40000000C0CDB03CC000000000A5ED26C00000000000408F40000000C0A00839C0000000401C322AC00C00000013000000AA0500003C00000006000000020000000000000000408FC0000000009B0839C000
310
0000401C322AC00000000000408FC0000000802DDD35C0000000C0ECAC2EC00C00000013000000B20500003C00000006000000020000000000000000408FC0000000802DDD35C0000000C0ECAC2EC00000000000408F400000004033DD35C0000000C0ECAC2EC00C00000013000000BA0500003C0000000600000002000000
310
0000000000408F40000000C0A00839C0000000401C322AC00000000000408F400000004033DD35C0000000C0ECAC2EC00C00000013000000C20500003C00000006000000020000000000000000408FC0000000802DDD35C0000000C0ECAC2EC00000000000408FC0000000A09DFD32C0000000E02A6432C00C000000130000
310
00CA0500003C00000006000000020000000000000000408FC0000000A09DFD32C0000000E02A6432C00000000000408F4000000060A3FD32C0000000E02A6432C00C00000013000000D20500003C00000006000000020000000000000000408F400000004033DD35C0000000C0ECAC2EC00000000000408F4000000060A3FD
310
32C0000000E02A6432C00C00000013000000DA0500003C00000006000000020000000000000000408FC0000000A09DFD32C0000000E02A6432C00000000000408FC00000000020A431C0000000A0025334C00C00000013000000E20500003C00000006000000020000000000000000408FC00000000020A431C0000000A002
310
5334C00000000000408F40000000C025A431C0000000A0025334C00C00000013000000EA0500003C00000006000000020000000000000000408F4000000060A3FD32C0000000E02A6432C00000000000408F40000000C025A431C0000000A0025334C00C00000013000000F20500003C000000060000000200000000000000
310
00408FC00000000020A431C0000000A0025334C00000000000408FC0000000A0615C30C000000000CE9A36C00C00000013000000FA0500003C00000006000000020000000000000000408FC0000000A0615C30C000000000CE9A36C00000000000408F4000000060675C30C000000000CE9A36C00C00000013000000020600
310
003C00000006000000020000000000000000408F40000000C025A431C0000000A0025334C00000000000408F4000000060675C30C000000000CE9A36C00C000000130000000A0600003C00000006000000020000000000000000408FC0000000A0615C30C000000000CE9A36C00000000000408FC000000040F9552EC00000
310
00A0814339C00C00000013000000120600003C00000006000000020000000000000000408FC000000040F9552EC0000000A0814339C00000000000408F40000000C004562EC0000000A0814339C00C000000130000001A0600003C00000006000000020000000000000000408F4000000060675C30C000000000CE9A36C000
310
00000000408F40000000C004562EC0000000A0814339C00C00000013000000220600003C00000006000000020000000000000000408FC000000040F9552EC0000000A0814339C00000000000408FC0000000E0432D2CC0000000201E563CC00C000000130000002A0600003C00000006000000020000000000000000408FC0
310
000000E0432D2CC0000000201E563CC00000000000408F40000000604F2D2CC0000000201E563CC00C00000013000000320600003C00000006000000020000000000000000408F40000000C004562EC0000000A0814339C00000000000408F40000000604F2D2CC0000000201E563CC00C000000130000003A0600003C0000
310
0006000000020000000000000000408FC0000000E0432D2CC0000000201E563CC00000000000408FC0000000C033562AC0000000A0E0C53FC00C00000013000000420600003C00000006000000020000000000000000408FC0000000C033562AC0000000A0E0C53FC00000000000408F40000000003F562AC0000000A0E0C5
310
3FC00C000000130000004A0600003C00000006000000020000000000000000408F40000000604F2D2CC0000000201E563CC00000000000408F40000000003F562AC0000000A0E0C53FC00C00000013000000520600003C00000006000000020000000000000000408FC0000000C033562AC0000000A0E0C53FC00000000000
310
408FC0000000C092D728C0000000C003C141C00C000000130000005A0600003C00000006000000020000000000000000408FC0000000C092D728C0000000C003C141C00000000000408F40000000409ED728C0000000C003C141C00C00000013000000620600003C00000006000000020000000000000000408F4000000000
310
3F562AC0000000A0E0C53FC00000000000408F40000000409ED728C0000000C003C141C00C000000130000006A0600003C00000006000000020000000000000000408FC0000000C092D728C0000000C003C141C00000000000408FC00000000070B627C0000000808DBD43C00C00000013000000720600003C000000060000
310
00020000000000000000408FC00000000070B627C0000000808DBD43C00000000000408F40000000807BB627C0000000808DBD43C00C000000130000007A0600003C00000006000000020000000000000000408F40000000409ED728C0000000C003C141C00000000000408F40000000807BB627C0000000808DBD43C00C00
310
000013000000820600003C00000006000000020000000000000000408FC00000000070B627C0000000808DBD43C00000000000408FC0000000C0D8E626C0000000C02CE145C00C000000130000008A0600003C00000006000000020000000000000000408FC0000000C0D8E626C0000000C02CE145C00000000000408F4000
310
000020E4E626C0000000C02CE145C00C00000013000000920600003C00000006000000020000000000000000408F40000000807BB627C0000000808DBD43C00000000000408F4000000020E4E626C0000000C02CE145C00C000000130000009A0600003C00000006000000020000000000000000408FC0000000C0D8E626C0
310
000000C02CE145C00000000000408FC000000000B56726C000000000613048C00C00000013000000A20600003C00000006000000020000000000000000408FC000000000B56726C000000000613048C00000000000408F4000000080C06726C000000000613048C00C00000013000000AA0600003C00000006000000020000
310
000000000000408F4000000020E4E626C0000000C02CE145C00000000000408F4000000080C06726C000000000613048C00C00000013000000B20600003C00000006000000020000000000000000408FC000000000B56726C000000000613048C00000000000408FC0000000C0803726C0000000002EDF4AC00C0000001300
310
0000BA0600003C00000006000000020000000000000000408FC0000000C0803726C0000000002EDF4AC00000000000408F40000000408C3726C0000000002EDF4AC00C00000013000000C20600003C00000006000000020000000000000000408F4000000080C06726C000000000613048C00000000000408F40000000408C
310
3726C0000000002EDF4AC00C00000013000000CA0600003C00000006000000020000000000000000408FC0000000C0803726C0000000002EDF4AC00000000000408FC0000000C06E1926C0000000000DF84AC00C00000013000000D20600003C00000006000000020000000000000000408FC0000000C06E1926C000000000
310
0DF84AC00000000000408F40000000007A1926C0000000000DF84AC00C00000013000000DA0600003C00000006000000020000000000000000408F40000000007A1926C0000000000DF84AC00000000000408F40000000408C3726C0000000002EDF4AC00C00000013000000E20600003C0000000600000002000000000000
310
0000408FC0000000C06E1926C0000000000DF84AC00000000000408FC0000000C0D0C725C0000000803E0A4BC00C00000013000000EA0600003C00000006000000020000000000000000408FC0000000C0D0C725C0000000803E0A4BC00000000000408F4000000040DCC725C0000000803E0A4BC00C00000013000000F206
310
00003C00000006000000020000000000000000408F4000000040DCC725C0000000803E0A4BC00000000000408F40000000007A1926C0000000000DF84AC00C00000013000000FA0600003C00000006000000020000000000000000408FC000000080745825C0000000C0E6104BC00000000000408FC0000000C0D0C725C000
310
0000803E0A4BC00C00000013000000020700003C00000006000000020000000000000000408FC000000080745825C0000000C0E6104BC00000000000408F40000000C07F5825C0000000C0E6104BC00C000000130000000A0700003C00000006000000020000000000000000408F40000000C07F5825C0000000C0E6104BC0
310
0000000000408F4000000040DCC725C0000000803E0A4BC00C00000013000000120700003C00000006000000020000000000000000408FC0000000C00E511CC0000000C0E6104BC00000000000408FC000000080745825C0000000C0E6104BC00C000000130000001A0700003C00000006000000020000000000000000408F
310
C0000000C00E511CC0000000C0E6104BC00000000000408F40000000C025511CC0000000C0E6104BC00C00000013000000220700003C00000006000000020000000000000000408F40000000C025511CC0000000C0E6104BC00000000000408F40000000C07F5825C0000000C0E6104BC00C000000130000002A0700003C00
310
000006000000020000000000000000408FC0000000C00E511CC0000000C0E6104BC00000000000408FC0000000C045A61AC000000040631A4BC00C00000013000000320700003C00000006000000020000000000000000408FC0000000C045A61AC000000040631A4BC00000000000408F40000000405CA61AC00000004063
310
1A4BC00C000000130000003A0700003C00000006000000020000000000000000408F40000000405CA61AC000000040631A4BC00000000000408F40000000C025511CC0000000C0E6104BC00C00000013000000420700003C00000006000000020000000000000000408FC0000000C045A61AC000000040631A4BC000000000
310
00408FC0000000C0753C19C00000000067354BC00C000000130000004A0700003C00000006000000020000000000000000408FC0000000C0753C19C00000000067354BC00000000000408F40000000C08C3C19C00000000067354BC00C00000013000000520700003C00000006000000020000000000000000408F40000000
310
C08C3C19C00000000067354BC00000000000408F40000000405CA61AC000000040631A4BC00C000000130000005A0700003C00000006000000020000000000000000408FC0000000C0753C19C00000000067354BC00000000000408FC000000040B44A18C000000000D55D4BC00C00000013000000620700003C0000000600
310
0000020000000000000000408FC000000040B44A18C000000000D55D4BC00000000000408F4000000040CB4A18C000000000D55D4BC00C000000130000006A0700003C00000006000000020000000000000000408F4000000040CB4A18C000000000D55D4BC00000000000408F40000000C08C3C19C00000000067354BC00C
310
00000013000000720700003C00000006000000020000000000000000408FC0000000C0CFF517C0000000C0858D4BC00000000000408FC000000040B44A18C000000000D55D4BC00C000000130000007A0700003C00000006000000020000000000000000408FC0000000C0CFF517C0000000C0858D4BC00000000000408F40
310
000000C0E6F517C0000000C0858D4BC00C00000013000000820700003C00000006000000020000000000000000408F40000000C0E6F517C0000000C0858D4BC00000000000408F4000000040CB4A18C000000000D55D4BC00C000000130000008A0700003C00000006000000020000000000000000408FC0000000C0CFF517
310
C0000000C0858D4BC00000000000408FC0000000C0CEF517C000000000284E4DC00C00000013000000920700003C00000006000000020000000000000000408FC0000000C0CEF517C000000000284E4DC00000000000408F40000000C0E5F517C000000000284E4DC00C000000130000009A0700003C000000060000000200
310
00000000000000408F40000000C0E5F517C000000000284E4DC00000000000408F40000000C0E6F517C0000000C0858D4BC00C00000013000000A20700003C00000006000000020000000000000000408FC0000000C0CEF517C000000000284E4DC00000000000408FC00000000002BA17C00000008014674DC00C00000013
310
000000AA0700003C00000006000000020000000000000000408FC00000000002BA17C00000008014674DC00000000000408F400000000019BA17C00000008014674DC00C00000013000000B20700003C00000006000000020000000000000000408F400000000019BA17C00000008014674DC00000000000408F40000000C0
310
E5F517C000000000284E4DC00C00000013000000BA0700003C00000006000000020000000000000000408FC000000080B91617C00000008053794DC00000000000408FC00000000002BA17C00000008014674DC00C00000013000000C20700003C00000006000000020000000000000000408FC000000080B91617C0000000
310
8053794DC00000000000408F4000000080D01617C00000008053794DC00C00000013000000CA0700003C00000006000000020000000000000000408F4000000080D01617C00000008053794DC00000000000408F400000000019BA17C00000008014674DC00C00000013000000D20700003C00000006000000020000000000
310
000000408FC000000000AD3716C00000000001804DC00000000000408FC000000080B91617C00000008053794DC00C00000013000000DA0700003C00000006000000020000000000000000408F4000000000C43716C00000000001804DC00000000000408F4000000080D01617C00000008053794DC00C00000013000000E2
310
0700003C00000006000000020000000000000000408FC0000000805CE642C000000080291024C00000000000408FC00000004096E83AC000000000E82BD4BF0C00000013000000EA0700003C00000006000000020000000000000000408FC0000000405C8340C0000000802CD524C00000000000408FC000000000BD503AC0
310
00000000861AFCBF0C00000013000000F20700003C00000006000000020000000000000000408FC000000080C34F42C0000000000000033F0000000000408FC000000080FBFF45C00000000085DC13C00C00000013000000FA0700003C00000006000000020000000000000000408FC000000080C34F42C000000000000003
310
3F0000000000408FC00000000083F845C000000080E9A314C00C00000013000000020800003C00000006000000020000000000000000408FC000000080C34F42C0000000000000033F0000000000408FC0000000001AE445C000000080E03515C00C000000130000000A0800003C0000000600000002000000000000000040
310
8FC00000004038C845C0000000004E6B15C00000000000408FC000000080C34F42C0000000000000033F0C00000013000000120800003C00000006000000020000000000000000408FC0000000005CD243C000000080446B15C00000000000408FC0000000C0544142C000000000001F8BBF0C000000130000001A0800003C
310
00000006000000020000000000000000408FC0000000C0029D43C00000000028B715C00000000000408FC0000000C0E13342C00000000000B2AABF0C00000013000000220800003C00000006000000020000000000000000408FC0000000C0C86F43C000000080458F16C00000000000408FC0000000805D5141C000000000
310
4CE5EEBF0C000000130000002A0800003C00000006000000020000000000000000408FC0000000C0905143C000000080B5D217C00000000000408FC0000000C07B3541C0000000005A48F0BF0C00000013000000320800003C00000006000000020000000000000000408FC000000000F44643C0000000803B5019C0000000
310
0000408FC0000000A0991941C0000000004CE5EEBF0C000000130000003A0800003C00000006000000020000000000000000408FC000000000F44643C0000000C0944623C00000000000408FC000000060153740C000000000C0B1AABF0C00000013000000420800003C00000006000000020000000000000000408FC00000
310
00809E3F43C0000000406DA923C00000000000408FC000000060A22940C000000000001D8BBF0C000000130000004A0800003C00000006000000020000000000000000408FC000000080341B40C0000000000000043F0000000000408FC0000000008C2B43C0000000C044F223C00C00000013000000520800003C00000006
310
000000020000000000000000408FC000000000041043C000000000F60D24C00000000000408FC00000004011563BC0000000000000033F0C000000130000005A0800003C00000006000000020000000000000000408FC0000000805CE642C000000080291024C00000000000408FC00000004091243BC000000000C0B8A4BF
310
0C00000013000000620800003C00000006000000020000000000000000408FC0000000805CE642C000000080291024C00000000000408FC00000008068FD3AC000000000A09CC3BF0C000000130000006A0800003C00000006000000020000000000000000408FC000000000C8B03CC000000000A5ED26C00000000000408F
310
C000000040273E39C00000000050A707C00C00000013000000720800003C00000006000000020000000000000000408FC0000000009B0839C0000000401C322AC00000000000408FC00000008021CD37C00000000062560EC00C000000130000007A0800003C00000006000000020000000000000000408FC0000000802DDD
310
35C0000000C0ECAC2EC00000000000408FC000000080934C33C00000000052EF17C00C00000013000000820800003C00000006000000020000000000000000408FC0000000A09DFD32C0000000E02A6432C00000000000408FC00000006067BB2EC000000000878A21C00C000000130000008A0800003C0000000600000002
310
0000000000000000408FC00000000020A431C0000000A0025334C00000000000408FC0000000402C9927C0000000E019AA28C00C00000013000000920800003C00000006000000020000000000000000408FC0000000A0615C30C000000000CE9A36C00000000000408FC0000000C0183921C0000000406DD330C00C000000
310
130000009A0800003C00000006000000020000000000000000408FC000000040F9552EC0000000A0814339C00000000000408FC0000000C0E69F1CC0000000C0C18A33C00C00000013000000A20800003C00000006000000020000000000000000408FC0000000E0432D2CC0000000201E563CC00000000000408FC0000000
310
C0F12717C0000000005FAF36C00C00000013000000AA0800003C00000006000000020000000000000000408FC0000000C033562AC0000000A0E0C53FC00000000000408FC0000000404F2912C0000000E00B533AC00C00000013000000B20800003C00000006000000020000000000000000408FC0000000C092D728C00000
310
00C003C141C00000000000408FC00000008019640BC0000000E049A03EC00C00000013000000BA0800003C00000006000000020000000000000000408FC00000000070B627C0000000808DBD43C00000000000408FC000000080713006C00000008038F840C00C00000013000000C20800003C000000060000000200000000
310
00000000408FC0000000C0D8E626C0000000C02CE145C00000000000408FC0000000007DC401C0000000E059D542C00C00000013000000CA0800003C00000006000000020000000000000000408FC0000000C0D8E626C0000000C02CE145C00000000000408FC000000000CC6EFCBF000000405DEB44C00C00000013000000
310
D20800003C00000006000000020000000000000000408FC000000000B56726C000000000613048C00000000000408FC0000000002AB5F8BF00000040915245C00C00000013000000DA0800003C00000006000000020000000000000000408FC000000000B56726C000000000613048C00000000000408FC0000000004E39F0
310
BF0000004033AA45C00C00000013000000E20800003C00000006000000020000000000000000408FC0000000000000153F00000080E0114AC00000000000408FC000000000AD3716C00000000001804DC00C00000013000000EA0800003C00000006000000020000000000000000408FC0000000000000153F00000080E011
310
4AC00000000000408FC000000080B91617C00000008053794DC00C00000013000000F20800003C00000006000000020000000000000000408FC00000000000428EBF000000C0F9044AC00000000000408FC00000000002BA17C00000008014674DC00C00000013000000FA0800003C00000006000000020000000000000000
310
408FC0000000C0CEF517C000000000284E4DC00000000000408FC00000000000428EBF000000C0F9044AC00C00000013000000020900003C00000006000000020000000000000000408FC0000000C0CFF517C0000000C0858D4BC00000000000408FC000000000C0D7ADBF00000000F4F849C00C000000130000000A090000
310
3C00000006000000020000000000000000408FC000000040B44A18C000000000D55D4BC00000000000408FC000000000C0D7ADBF00000000F4F849C00C00000013000000120900003C00000006000000020000000000000000408FC0000000C0753C19C00000000067354BC00000000000408FC0000000002813EFBF000000
310
800B4449C00C000000130000001A0900003C00000006000000020000000000000000408FC0000000C045A61AC000000040631A4BC00000000000408FC000000000A678F0BF000000001F2B49C00C00000013000000220900003C00000006000000020000000000000000408FC0000000C00E511CC0000000C0E6104BC00000
310
000000408FC0000000002813EFBF00000080321249C00C000000130000002A0900003C00000006000000020000000000000000408FC000000080745825C0000000C0E6104BC00000000000408FC0000000002813EFBF00000080321249C00C00000013000000320900003C00000006000000020000000000000000408FC000
310
0000C0D0C725C0000000803E0A4BC00000000000408FC0000000002813EFBF00000080321249C00C000000130000003A0900003C00000006000000020000000000000000408FC0000000C06E1926C0000000000DF84AC00000000000408FC0000000002813EFBF00000080321249C00C00000013000000420900003C000000
310
06000000020000000000000000408FC0000000C0803726C0000000002EDF4AC00000000000408FC0000000002813EFBF00000080321249C00C000000130000004A0900003C00000006000000020000000000000000408FC000000000B56726C000000000613048C00000000000408FC000000000C0D7ADBF000000404A5D48
310
C00C00000013000000520900003C00000006000000020000000000000000408FC000000000B56726C000000000613048C00000000000408FC00000000000428EBF00000040445148C00C000000130000005A0900003C00000006000000020000000000000000408FC000000000B56726C000000000613048C0000000000040
310
8FC0000000000080143F000000805D4448C00C00000013000000620900003C00000006000000020000000000000000408FC000000000B56726C000000000613048C00000000000408FC0000000000000053F000000C0A51446C00C000000130000006A0900003C00000006000000020000000000000000408FC000000000B5
310
6726C000000000613048C00000000000408FC000000000C078B1BF00000040DAF945C00C00000013000000720900003C00000006000000020000000000000000408FC000000000B56726C000000000613048C00000000000408FC000000000F01BD0BF0000004075E745C00C000000130000007A0900003C00000006000000
310
020000000000000000408F40000000C0C2503AC000000000861AFCBF0000000000408F4000000060618340C0000000602CD524C00C00000013000000820900003C00000006000000020000000000000000408F400000004065E642C000000060291024C00000000000408F40000000009CE83AC000000000E82BD4BF0C0000
310
00130000008A0900003C00000006000000020000000000000000408F4000000000000046C00000008084DC13C00000000000408F4000000020C84F42C0000000000000033F0C00000013000000920900003C00000006000000020000000000000000408F4000000020C84F42C0000000000000033F0000000000408F400000
310
00801EE445C000000080E03515C00C000000130000009A0900003C00000006000000020000000000000000408F4000000020C84F42C0000000000000033F0000000000408F400000008087F845C000000080E9A314C00C00000013000000A20900003C00000006000000020000000000000000408F4000000020C84F42C000
310
0000000000033F0000000000408F40000000C03CC845C0000000004E6B15C00C00000013000000AA0900003C00000006000000020000000000000000408F400000008060D243C000000080446B15C00000000000408F4000000060594142C000000000001F8BBF0C00000013000000B20900003C0000000600000002000000
310
0000000000408F4000000040CD6F43C000000080458F16C00000000000408F4000000020625141C0000000004CE5EEBF0C00000013000000BA0900003C00000006000000020000000000000000408F4000000040079D43C00000000028B715C00000000000408F4000000060E63342C00000000000B2AABF0C000000130000
310
00C20900003C00000006000000020000000000000000408F4000000040955143C000000000B6D217C00000000000408F40000000A0803541C0000000005A48F0BF0C00000013000000CA0900003C00000006000000020000000000000000408F4000000080F84643C0000000003B5019C00000000000408F40000000009F19
310
41C0000000004CE5EEBF0C00000013000000D20900003C00000006000000020000000000000000408F4000000080F84643C000000000954623C00000000000408F40000000A01A3740C000000000C0B1AABF0C00000013000000DA0900003C00000006000000020000000000000000408F4000000000A33F43C0000000406D
310
A923C00000000000408F40000000A0A72940C000000000001D8BBF0C00000013000000E20900003C00000006000000020000000000000000408F4000000080902B43C00000004045F223C00000000000408F4000000000391B40C0000000000000043F0C00000013000000EA0900003C000000060000000200000000000000
310
00408F4000000080081043C0000000E0F50D24C00000000000408F400000000017563BC0000000000000033F0C00000013000000F20900003C00000006000000020000000000000000408F400000004065E642C000000060291024C00000000000408F400000000097243BC000000000C0B8A4BF0C00000013000000FA0900
310
003C00000006000000020000000000000000408F400000004065E642C000000060291024C00000000000408F40000000406EFD3AC000000000A09CC3BF0C00000013000000020A00003C00000006000000020000000000000000408F40000000002D3E39C00000000050A707C00000000000408F40000000C0CDB03CC00000
310
0000A5ED26C00C000000130000000A0A00003C00000006000000020000000000000000408F400000004027CD37C00000000062560EC00000000000408F40000000C0A00839C0000000401C322AC00C00000013000000120A00003C00000006000000020000000000000000408F40000000E0964C33C00000000052EF17C000
310
00000000408F400000004033DD35C0000000C0ECAC2EC00C000000130000001A0A00003C00000006000000020000000000000000408F400000008070BB2EC000000080878A21C00000000000408F4000000060A3FD32C0000000E02A6432C00C00000013000000220A00003C00000006000000020000000000000000408F40
310
000000C0379927C0000000E019AA28C00000000000408F40000000C025A431C0000000A0025334C00C000000130000002A0A00003C00000006000000020000000000000000408F4000000040243921C0000000406DD330C00000000000408F4000000060675C30C000000000CE9A36C00C00000013000000320A00003C0000
310
0006000000020000000000000000408F40000000C0FD9F1CC0000000C0C18A33C00000000000408F40000000C004562EC0000000A0814339C00C000000130000003A0A00003C00000006000000020000000000000000408F40000000C0082817C0000000005FAF36C00000000000408F40000000604F2D2CC0000000201E56
310
3CC00C00000013000000420A00003C00000006000000020000000000000000408F4000000000662912C0000000E00B533AC00000000000408F40000000003F562AC0000000A0E0C53FC00C000000130000004A0A00003C00000006000000020000000000000000408F400000000051640BC0000000E049A03EC00000000000
310
408F40000000409ED728C0000000C003C141C00C00000013000000520A00003C00000006000000020000000000000000408F4000000000A93006C00000008038F840C00000000000408F40000000807BB627C0000000808DBD43C00C000000130000005A0A00003C00000006000000020000000000000000408F4000000000
310
AAC401C0000000E059D542C00000000000408F4000000020E4E626C0000000C02CE145C00C00000013000000620A00003C00000006000000020000000000000000408F4000000020E4E626C0000000C02CE145C00000000000408F4000000000266FFCBF000000405DEB44C00C000000130000006A0A00003C000000060000
310
00020000000000000000408F400000000084B5F8BF00000040915245C00000000000408F4000000080C06726C000000000613048C00C00000013000000720A00003C00000006000000020000000000000000408F4000000080C06726C000000000613048C00000000000408F4000000000A839F0BF0000004033AA45C00C00
310
0000130000007A0A00003C00000006000000020000000000000000408F40000000000000E0BE00000080E0114AC00000000000408F4000000000C43716C00000000001804DC00C00000013000000820A00003C00000006000000020000000000000000408F40000000000000E0BE00000080E0114AC00000000000408F4000
310
000080D01617C00000008053794DC00C000000130000008A0A00003C00000006000000020000000000000000408F400000000000708EBF000000C0F9044AC00000000000408F400000000019BA17C00000008014674DC00C00000013000000920A00003C00000006000000020000000000000000408F400000000000708EBF
310
000000C0F9044AC00000000000408F40000000C0E5F517C000000000284E4DC00C000000130000009A0A00003C00000006000000020000000000000000408F400000000040E3ADBF00000000F4F849C00000000000408F40000000C0E6F517C0000000C0858D4BC00C00000013000000A20A00003C00000006000000020000
310
000000000000408F400000000040E3ADBF00000000F4F849C00000000000408F4000000040CB4A18C000000000D55D4BC00C00000013000000AA0A00003C00000006000000020000000000000000408F4000000000E013EFBF000000800B4449C00000000000408F40000000C08C3C19C00000000067354BC00C0000001300
310
0000B20A00003C00000006000000020000000000000000408F40000000000079F0BF000000001F2B49C00000000000408F40000000405CA61AC000000040631A4BC00C00000013000000BA0A00003C00000006000000020000000000000000408F4000000000E013EFBF00000080321249C00000000000408F40000000C025
310
511CC0000000C0E6104BC00C00000013000000C20A00003C00000006000000020000000000000000408F4000000000E013EFBF00000080321249C00000000000408F40000000C07F5825C0000000C0E6104BC00C00000013000000CA0A00003C00000006000000020000000000000000408F4000000000E013EFBF00000080
310
321249C00000000000408F4000000040DCC725C0000000803E0A4BC00C00000013000000D20A00003C00000006000000020000000000000000408F4000000000E013EFBF00000080321249C00000000000408F40000000007A1926C0000000000DF84AC00C00000013000000DA0A00003C0000000600000002000000000000
310
0000408F4000000000E013EFBF00000080321249C00000000000408F40000000408C3726C0000000002EDF4AC00C00000013000000E20A00003C00000006000000020000000000000000408F4000000080C06726C000000000613048C00000000000408F400000000000708EBF00000040445148C00C00000013000000EA0A
310
00003C00000006000000020000000000000000408F4000000080C06726C000000000613048C00000000000408F400000000040E3ADBF000000404A5D48C00C00000013000000F20A00003C00000006000000020000000000000000408F4000000080C06726C000000000613048C00000000000408F40000000000000E0BE00
310
0000805D4448C00C00000013000000FA0A00003C00000006000000020000000000000000408F4000000080C06726C000000000613048C00000000000408F4000000000607EB1BF00000040DAF945C00C00000013000000020B00003C00000006000000020000000000000000408F4000000080C06726C000000000613048C0
310
0000000000408F4000000000000008BF000000C0A51446C00C000000130000000A0B00003C00000006000000020000000000000000408F4000000080C06726C000000000613048C00000000000408F4000000000581DD0BF0000004075E745C0
100
AcDbSubDMesh
 71
     2
 72
     0
 91
        0
 92
      168
 10
-1000.0
 20
-37.79969787597656
 30
-10.03156661987304
 10
-1000.0
 20
-33.02625274658203
 30
-10.41635513305664
 10
-1000.0
 20
-28.6905517578125
 30
-11.46414947509765
 10
-1000.0
 20
-25.03361511230469
 30
-13.09787178039551
 10
-1000.0
 20
-21.86397552490234
 30
-15.33774375915527
 10
-1000.0
 20
-18.99068641662598
 30
-18.39127922058105
 10
-1000.0
 20
-17.64111328125
 30
-20.32425880432129
 10
-1000.0
 20
-16.36086463928222
 30
-22.60470581054688
 10
-1000.0
 20
-15.16791725158691
 30
-25.26369667053223
 10
-1000.0
 20
-14.08840847015381
 30
-28.33639717102051
 10
-1000.0
 20
-13.16836357116699
 30
-31.77295875549317
 10
-1000.0
 20
-12.42104148864746
 30
-35.50792694091797
 10
-1000.0
 20
-11.8563232421875
 30
-39.48088073730469
 10
-1000.0
 20
-11.45087242126465
 30
-43.75917816162109
 10
-1000.0
 20
-11.20255279541015
 30
-48.37796020507813
 10
-1000.0
 20
-23.80129241943359
 30
-3.792179107666015
 10
-1000.0
 20
-25.2427864074707
 30
-2.956695556640625
 10
-1000.0
 20
-26.31538391113281
 30
-1.756475448608398
 10
-1000.0
 20
-26.90854263305664
 30
-0.3151798248291016
 10
-1000.0
 20
-1.777050018310546
 30
-41.83878326416015
 10
-1000.0
 20
-2.220941543579101
 30
-37.66680526733399
 10
-1000.0
 20
-2.773653984069824
 30
-33.93922424316406
 10
-1000.0
 20
-3.423876762390136
 30
-30.62612724304199
 10
-1000.0
 20
-4.5403413772583
 30
-26.32439994812012
 10
-1000.0
 20
-5.789008140563964
 30
-22.68504333496094
 10
-1000.0
 20
-7.156153678894042
 30
-19.54201889038086
 10
-1000.0
 20
-8.611516952514648
 30
-16.82588577270507
 10
-1000.0
 20
-11.799165725708
 30
-12.33222866058349
 10
-1000.0
 20
-15.36602306365967
 30
-8.770561218261718
 10
-1000.0
 20
-19.29912567138672
 30
-5.983711242675781
 10
-1000.0
 20
-38.1251220703125
 30
-10.02726745605468
 10
-1000.0
 20
-27.33620071411133
 30
0.0000362396240234
 10
-1000.0
 20
-32.21253967285156
 30
0.0000381469726563
 10
-1000.0
 20
-38.5543212890625
 30
-9.637853622436523
 10
-1000.0
 20
-38.49702453613281
 30
-9.830911636352539
 10
-1000.0
 20
-38.3402099609375
 30
-9.973180770874023
 10
-1000.0
 20
-38.5543212890625
 30
-6.328351974487304
 10
-1000.0
 20
-39.6434326171875
 30
-5.354753494262695
 10
-1000.0
 20
-39.22664642333984
 30
-5.428863525390625
 10
-1000.0
 20
-38.8733139038086
 30
-5.63991355895996
 10
-1000.0
 20
-38.6372299194336
 30
-5.95577049255371
 10
-1000.0
 20
-43.56421661376953
 30
-5.354789733886718
 10
-1000.0
 20
-36.62315368652344
 30
0.0000362396240234
 10
-1000.0
 20
-43.99990081787109
 30
0.0
 10
-1000.0
 20
-36.40532684326172
 30
-0.0521392822265625
 10
-1000.0
 20
-36.5103988647461
 30
-0.0132427215576172
 10
-1000.0
 20
-34.63566589355469
 30
-0.9654903411865234
 10
-1000.0
 20
-34.20000076293945
 30
-0.9654903411865234
 10
-1000.0
 20
-34.41783905029297
 30
-1.017663955688476
 10
-1000.0
 20
-32.43033981323242
 30
-0.0521373748779297
 10
-1000.0
 20
-32.32526779174805
 30
-0.0132389068603516
 10
-1000.0
 20
-26.98987579345703
 30
-0.1532173156738281
 10
-1000.0
 20
-27.14284133911133
 30
-0.0404720306396484
 10
-1000.0
 20
-0.2517051696777344
 30
-43.80826568603516
 10
-1000.0
 20
-1.013990402221679
 30
-43.3296890258789
 10
-1000.0
 20
-1.544229507446289
 30
-42.64505767822265
 10
-1000.0
 20
-5.990050315856933
 30
-55.10564422607422
 10
-1000.0
 20
-5.990046501159667
 30
-58.610595703125
 10
-1000.0
 20
-7.079157829284667
 30
-54.13204193115234
 10
-1000.0
 20
-6.662375450134277
 30
-54.2061538696289
 10
-1000.0
 20
-6.309042930603027
 30
-54.41720581054688
 10
-1000.0
 20
-6.072953224182128
 30
-54.73306274414063
 10
-1000.0
 20
-10.67276382446289
 30
-54.13204193115234
 10
-1000.0
 20
-11.1084041595459
 30
-53.74359130859375
 10
-1000.0
 20
-11.04967308044433
 30
-53.93789672851562
 10
-1000.0
 20
-10.8902645111084
 30
-54.08003234863281
 10
-1000.0
 20
-43.78204345703125
 30
-5.302614212036132
 10
-1000.0
 20
-43.94149780273437
 30
-5.160070419311523
 10
-1000.0
 20
-43.99986267089843
 30
-4.965351104736328
 10
-1000.0
 20
-0.0682487487792969
 30
-43.95197296142578
 10
-1000.0
 20
0.0000400543212891
 30
-44.16130828857421
 10
-1000.0
 20
0.0000782012939453
 30
-48.53410339355469
 10
-1000.0
 20
-0.0147743225097656
 30
-48.63489532470703
 10
-1000.0
 20
-0.0582866668701172
 30
-48.72882843017578
 10
-1000.0
 20
-0.9710884094238281
 30
-50.14216613769531
 10
-1000.0
 20
-1.029455184936523
 30
-50.33688354492188
 10
-1000.0
 20
-0.9710884094238281
 30
-50.53160095214844
 10
-1000.0
 20
-0.0582866668701172
 30
-51.9449462890625
 10
-1000.0
 20
-0.0147743225097656
 30
-52.03887176513672
 10
-1000.0
 20
0.0000801086425781
 30
-52.13966369628906
 10
-1000.0
 20
0.0000801086425781
 30
-59.00003051757813
 10
-1000.0
 20
-5.554370880126953
 30
-59.00003051757813
 10
-1000.0
 20
-5.772192001342773
 30
-58.94786071777343
 10
-1000.0
 20
-5.931648254394531
 30
-58.80531311035156
 10
1000.0
 20
-37.79996490478516
 30
-10.03156566619873
 10
1000.0
 20
-26.90863037109375
 30
-0.3151798248291016
 10
1000.0
 20
-26.31547164916992
 30
-1.756475448608398
 10
1000.0
 20
-33.02640914916992
 30
-10.41635417938232
 10
1000.0
 20
-44.0
 30
-4.965349197387695
 10
1000.0
 20
-44.00004196166992
 30
0.0
 10
1000.0
 20
-36.62329483032227
 30
0.0000362396240234
 10
1000.0
 20
-43.78218078613281
 30
-5.302614212036132
 10
1000.0
 20
-43.94163513183594
 30
-5.160070419311523
 10
1000.0
 20
-43.56435394287109
 30
-5.354789733886718
 10
1000.0
 20
-39.64356994628906
 30
-5.354753494262695
 10
1000.0
 20
-36.51054000854492
 30
-0.0132427215576172
 10
1000.0
 20
-38.87345123291016
 30
-5.63991355895996
 10
1000.0
 20
-39.22678375244141
 30
-5.428863525390625
 10
1000.0
 20
-36.40546798706055
 30
-0.0521392822265625
 10
1000.0
 20
-34.63580703735352
 30
-0.9654903411865234
 10
1000.0
 20
-38.63736724853516
 30
-5.955772399902343
 10
1000.0
 20
-34.41798782348633
 30
-1.017663955688476
 10
1000.0
 20
-38.55445861816406
 30
-6.328350067138671
 10
1000.0
 20
-34.20016479492188
 30
-0.9654903411865234
 10
1000.0
 20
-38.55445861816406
 30
-9.637855529785156
 10
1000.0
 20
-32.43050003051758
 30
-0.0521373748779297
 10
1000.0
 20
-38.49716186523437
 30
-9.830911636352539
 10
1000.0
 20
-32.32542800903321
 30
-0.0132389068603516
 10
1000.0
 20
-38.34034729003906
 30
-9.973184585571289
 10
1000.0
 20
-32.21267700195312
 30
0.0000381469726563
 10
1000.0
 20
-38.12525939941406
 30
-10.02726650238037
 10
1000.0
 20
-27.33628845214844
 30
0.0000362396240234
 10
1000.0
 20
-27.14292907714844
 30
-0.0404720306396484
 10
1000.0
 20
-26.98996353149414
 30
-0.1532173156738281
 10
1000.0
 20
-25.24287414550781
 30
-2.956695556640625
 10
1000.0
 20
-28.69063949584961
 30
-11.46414947509765
 10
1000.0
 20
-23.8013801574707
 30
-3.792179107666015
 10
1000.0
 20
-25.0337028503418
 30
-13.09787178039551
 10
1000.0
 20
-19.2991771697998
 30
-5.983711242675781
 10
1000.0
 20
-21.86406326293945
 30
-15.33774375915527
 10
1000.0
 20
-15.36609268188476
 30
-8.770565032958984
 10
1000.0
 20
-18.99077415466308
 30
-18.39127922058105
 10
1000.0
 20
-11.79925346374512
 30
-12.33222866058349
 10
1000.0
 20
-17.64120101928711
 30
-20.32425880432129
 10
1000.0
 20
-8.611604690551757
 30
-16.82588577270507
 10
1000.0
 20
-16.36095237731933
 30
-22.60470581054688
 10
1000.0
 20
-7.156241416931152
 30
-19.54201889038086
 10
1000.0
 20
-15.16800498962402
 30
-25.26369667053223
 10
1000.0
 20
-5.789095878601074
 30
-22.68504333496094
 10
1000.0
 20
-14.08849620819092
 30
-28.33639717102051
 10
1000.0
 20
-4.540428161621093
 30
-26.32439994812012
 10
1000.0
 20
-13.16844940185547
 30
-31.77295875549317
 10
1000.0
 20
-3.423982620239257
 30
-30.62612724304199
 10
1000.0
 20
-12.42112922668457
 30
-35.50792694091797
 10
1000.0
 20
-2.773759841918945
 30
-33.93922424316406
 10
1000.0
 20
-11.85641098022461
 30
-39.48088073730469
 10
1000.0
 20
-2.221027374267578
 30
-37.66680526733399
 10
1000.0
 20
-11.45095920562744
 30
-43.75917816162109
 10
1000.0
 20
-1.777135848999023
 30
-41.83878326416015
 10
1000.0
 20
-1.544315338134765
 30
-42.64505767822265
 10
1000.0
 20
-11.20264053344726
 30
-48.37796020507813
 10
1000.0
 20
-1.014076232910156
 30
-43.3296890258789
 10
1000.0
 20
-0.0000076293945313
 30
-52.13966369628906
 10
1000.0
 20
-0.0000057220458984
 30
-59.00003051757813
 10
1000.0
 20
-5.554458618164062
 30
-59.00003051757813
 10
1000.0
 20
-5.772279739379882
 30
-58.94786071777343
 10
1000.0
 20
-0.014862060546875
 30
-52.03887176513672
 10
1000.0
 20
-5.93173599243164
 30
-58.80531311035156
 10
1000.0
 20
-5.990134239196777
 30
-58.610595703125
 10
1000.0
 20
-0.0583744049072266
 30
-51.9449462890625
 10
1000.0
 20
-5.990138053894042
 30
-55.10564422607422
 10
1000.0
 20
-6.073040962219238
 30
-54.73306274414063
 10
1000.0
 20
-0.9711761474609375
 30
-50.53160095214844
 10
1000.0
 20
-6.309130668640136
 30
-54.41720581054688
 10
1000.0
 20
-1.029541015625
 30
-50.33688354492188
 10
1000.0
 20
-6.662461280822753
 30
-54.2061538696289
 10
1000.0
 20
-0.9711761474609375
 30
-50.14216613769531
 10
1000.0
 20
-7.079245567321777
 30
-54.13204193115234
 10
1000.0
 20
-10.67284965515137
 30
-54.13204193115234
 10
1000.0
 20
-10.8903522491455
 30
-54.08003234863281
 10
1000.0
 20
-11.04975891113281
 30
-53.93789672851562
 10
1000.0
 20
-11.10849189758301
 30
-53.74359130859375
 10
1000.0
 20
-0.014862060546875
 30
-48.63489532470703
 10
1000.0
 20
-0.0583744049072266
 30
-48.72882843017578
 10
1000.0
 20
-0.0000076293945313
 30
-48.53410339355469
 10
1000.0
 20
-0.0683345794677734
 30
-43.95197296142578
 10
1000.0
 20
-0.0000457763671875
 30
-44.16130828857421
 10
1000.0
 20
-0.2517910003662109
 30
-43.80826568603516
 93
      896
 90
        4
 90
      144
 90
       81
 90
       80
 90
      143
 90
        4
 90
      143
 90
       80
 90
       79
 90
      142
 90
        4
 90
      142
 90
       79
 90
       78
 90
      146
 90
        4
 90
      146
 90
       78
 90
       77
 90
      149
 90
        4
 90
      149
 90
       77
 90
       76
 90
      152
 90
        4
 90
      152
 90
       76
 90
       75
 90
      154
 90
        4
 90
      154
 90
       75
 90
       74
 90
      156
 90
        4
 90
      156
 90
       74
 90
       73
 90
      163
 90
        4
 90
      163
 90
       73
 90
       72
 90
      162
 90
        4
 90
      162
 90
       72
 90
       71
 90
      164
 90
        4
 90
      164
 90
       71
 90
       70
 90
      166
 90
        4
 90
      166
 90
       70
 90
       69
 90
      165
 90
        4
 90
      165
 90
       69
 90
       53
 90
      167
 90
        4
 90
      167
 90
       53
 90
       54
 90
      141
 90
        4
 90
      141
 90
       54
 90
       55
 90
      139
 90
        4
 90
      139
 90
       55
 90
       19
 90
      138
 90
        4
 90
      138
 90
       19
 90
       20
 90
      136
 90
        4
 90
      136
 90
       20
 90
       21
 90
      134
 90
        4
 90
      134
 90
       21
 90
       22
 90
      132
 90
        4
 90
      132
 90
       22
 90
       23
 90
      130
 90
        4
 90
      130
 90
       23
 90
       24
 90
      128
 90
        4
 90
      128
 90
       24
 90
       25
 90
      126
 90
        4
 90
      126
 90
       25
 90
       26
 90
      124
 90
        4
 90
      124
 90
       26
 90
       27
 90
      122
 90
        4
 90
      122
 90
       27
 90
       28
 90
      120
 90
        4
 90
      120
 90
       28
 90
       29
 90
      118
 90
        4
 90
      118
 90
       29
 90
       15
 90
      116
 90
        4
 90
      116
 90
       15
 90
       16
 90
      114
 90
        4
 90
      114
 90
       16
 90
       17
 90
       86
 90
        4
 90
       86
 90
       17
 90
       18
 90
       85
 90
        4
 90
       85
 90
       18
 90
       51
 90
      113
 90
        4
 90
      113
 90
       51
 90
       52
 90
      112
 90
        4
 90
      112
 90
       52
 90
       31
 90
      111
 90
        4
 90
      111
 90
       31
 90
       32
 90
      109
 90
        4
 90
      109
 90
       32
 90
       50
 90
      107
 90
        4
 90
      107
 90
       50
 90
       49
 90
      105
 90
        4
 90
      105
 90
       49
 90
       47
 90
      103
 90
        4
 90
      103
 90
       47
 90
       48
 90
      101
 90
        4
 90
      101
 90
       48
 90
       46
 90
       99
 90
        4
 90
       99
 90
       46
 90
       44
 90
       98
 90
        4
 90
       98
 90
       44
 90
       45
 90
       95
 90
        4
 90
       95
 90
       45
 90
       42
 90
       90
 90
        4
 90
       90
 90
       42
 90
       43
 90
       89
 90
        4
 90
       89
 90
       43
 90
       68
 90
       88
 90
        4
 90
       88
 90
       68
 90
       67
 90
       92
 90
        4
 90
       92
 90
       67
 90
       66
 90
       91
 90
        4
 90
       91
 90
       66
 90
       41
 90
       93
 90
        4
 90
       93
 90
       41
 90
       37
 90
       94
 90
        4
 90
       94
 90
       37
 90
       38
 90
       97
 90
        4
 90
       97
 90
       38
 90
       39
 90
       96
 90
        4
 90
       96
 90
       39
 90
       40
 90
      100
 90
        4
 90
      100
 90
       40
 90
       36
 90
      102
 90
        4
 90
      102
 90
       36
 90
       33
 90
      104
 90
        4
 90
      104
 90
       33
 90
       34
 90
      106
 90
        4
 90
      106
 90
       34
 90
       35
 90
      108
 90
        4
 90
      108
 90
       35
 90
       30
 90
      110
 90
        4
 90
      110
 90
       30
 90
        0
 90
       84
 90
        4
 90
       84
 90
        0
 90
        1
 90
       87
 90
        4
 90
       87
 90
        1
 90
        2
 90
      115
 90
        4
 90
      115
 90
        2
 90
        3
 90
      117
 90
        4
 90
      117
 90
        3
 90
        4
 90
      119
 90
        4
 90
      119
 90
        4
 90
        5
 90
      121
 90
        4
 90
      121
 90
        5
 90
        6
 90
      123
 90
        4
 90
      123
 90
        6
 90
        7
 90
      125
 90
        4
 90
      125
 90
        7
 90
        8
 90
      127
 90
        4
 90
      127
 90
        8
 90
        9
 90
      129
 90
        4
 90
      129
 90
        9
 90
       10
 90
      131
 90
        4
 90
      131
 90
       10
 90
       11
 90
      133
 90
        4
 90
      133
 90
       11
 90
       12
 90
      135
 90
        4
 90
      135
 90
       12
 90
       13
 90
      137
 90
        4
 90
      137
 90
       13
 90
       14
 90
      140
 90
        4
 90
      140
 90
       14
 90
       63
 90
      161
 90
        4
 90
      161
 90
       63
 90
       64
 90
      160
 90
        4
 90
      160
 90
       64
 90
       65
 90
      159
 90
        4
 90
      159
 90
       65
 90
       62
 90
      158
 90
        4
 90
      158
 90
       62
 90
       58
 90
      157
 90
        4
 90
      157
 90
       58
 90
       59
 90
      155
 90
        4
 90
      155
 90
       59
 90
       60
 90
      153
 90
        4
 90
      153
 90
       60
 90
       61
 90
      151
 90
        4
 90
      151
 90
       61
 90
       56
 90
      150
 90
        4
 90
      150
 90
       56
 90
       57
 90
      148
 90
        4
 90
      148
 90
       57
 90
       83
 90
      147
 90
        4
 90
      147
 90
       83
 90
       82
 90
      145
 90
        4
 90
      145
 90
       82
 90
       81
 90
      144
 90
        4
 90
        0
 90
       18
 90
       17
 90
        1
 90
        3
 90
       68
 90
       43
 90
       42
 90
        3
 90
       66
 90
       67
 90
       42
 90
        3
 90
       67
 90
       68
 90
       42
 90
        3
 90
       41
 90
       66
 90
       42
 90
        4
 90
       37
 90
       41
 90
       42
 90
       45
 90
        4
 90
       39
 90
       38
 90
       44
 90
       46
 90
        4
 90
       38
 90
       37
 90
       45
 90
       44
 90
        4
 90
       40
 90
       39
 90
       46
 90
       48
 90
        4
 90
       36
 90
       40
 90
       48
 90
       47
 90
        4
 90
       33
 90
       36
 90
       47
 90
       49
 90
        4
 90
       34
 90
       33
 90
       49
 90
       50
 90
        4
 90
       35
 90
       34
 90
       50
 90
       32
 90
        4
 90
       30
 90
       35
 90
       32
 90
       31
 90
        4
 90
        0
 90
       30
 90
       31
 90
       52
 90
        3
 90
        0
 90
       52
 90
       51
 90
        3
 90
        0
 90
       51
 90
       18
 90
        4
 90
       17
 90
       16
 90
        2
 90
        1
 90
        4
 90
       16
 90
       15
 90
        3
 90
        2
 90
        4
 90
       15
 90
       29
 90
        4
 90
        3
 90
        4
 90
       29
 90
       28
 90
        5
 90
        4
 90
        4
 90
       28
 90
       27
 90
        6
 90
        5
 90
        4
 90
       27
 90
       26
 90
        7
 90
        6
 90
        4
 90
       26
 90
       25
 90
        8
 90
        7
 90
        4
 90
       25
 90
       24
 90
        9
 90
        8
 90
        4
 90
       24
 90
       23
 90
       10
 90
        9
 90
        4
 90
       23
 90
       22
 90
       11
 90
       10
 90
        4
 90
       22
 90
       21
 90
       12
 90
       11
 90
        4
 90
       21
 90
       20
 90
       13
 90
       12
 90
        3
 90
       20
 90
       19
 90
       13
 90
        4
 90
       19
 90
       55
 90
       14
 90
       13
 90
        3
 90
       55
 90
       54
 90
       14
 90
        3
 90
       79
 90
       80
 90
       81
 90
        3
 90
       79
 90
       81
 90
       82
 90
        4
 90
       78
 90
       79
 90
       82
 90
       83
 90
        3
 90
       78
 90
       83
 90
       57
 90
        4
 90
       77
 90
       78
 90
       57
 90
       56
 90
        3
 90
       77
 90
       56
 90
       61
 90
        4
 90
       76
 90
       77
 90
       61
 90
       60
 90
        4
 90
       75
 90
       76
 90
       60
 90
       59
 90
        4
 90
       74
 90
       75
 90
       59
 90
       58
 90
        3
 90
       74
 90
       58
 90
       62
 90
        3
 90
       74
 90
       62
 90
       65
 90
        3
 90
       74
 90
       65
 90
       64
 90
        3
 90
       74
 90
       64
 90
       63
 90
        3
 90
       72
 90
       73
 90
       14
 90
        4
 90
       73
 90
       74
 90
       63
 90
       14
 90
        3
 90
       71
 90
       72
 90
       14
 90
        3
 90
       69
 90
       70
 90
       14
 90
        3
 90
       70
 90
       71
 90
       14
 90
        3
 90
       54
 90
       53
 90
       14
 90
        3
 90
       53
 90
       69
 90
       14
 90
        4
 90
       84
 90
       87
 90
       86
 90
       85
 90
        3
 90
       88
 90
       90
 90
       89
 90
        3
 90
       91
 90
       90
 90
       92
 90
        3
 90
       92
 90
       90
 90
       88
 90
        3
 90
       93
 90
       90
 90
       91
 90
        4
 90
       94
 90
       95
 90
       90
 90
       93
 90
        4
 90
       96
 90
       99
 90
       98
 90
       97
 90
        4
 90
       97
 90
       98
 90
       95
 90
       94
 90
        4
 90
      100
 90
      101
 90
       99
 90
       96
 90
        4
 90
      102
 90
      103
 90
      101
 90
      100
 90
        4
 90
      104
 90
      105
 90
      103
 90
      102
 90
        4
 90
      106
 90
      107
 90
      105
 90
      104
 90
        4
 90
      108
 90
      109
 90
      107
 90
      106
 90
        4
 90
      110
 90
      111
 90
      109
 90
      108
 90
        4
 90
       84
 90
      112
 90
      111
 90
      110
 90
        3
 90
       84
 90
      113
 90
      112
 90
        3
 90
       84
 90
       85
 90
      113
 90
        4
 90
       86
 90
       87
 90
      115
 90
      114
 90
        4
 90
      114
 90
      115
 90
      117
 90
      116
 90
        4
 90
      116
 90
      117
 90
      119
 90
      118
 90
        4
 90
      118
 90
      119
 90
      121
 90
      120
 90
        4
 90
      120
 90
      121
 90
      123
 90
      122
 90
        4
 90
      122
 90
      123
 90
      125
 90
      124
 90
        4
 90
      124
 90
      125
 90
      127
 90
      126
 90
        4
 90
      126
 90
      127
 90
      129
 90
      128
 90
        4
 90
      128
 90
      129
 90
      131
 90
      130
 90
        4
 90
      130
 90
      131
 90
      133
 90
      132
 90
        4
 90
      132
 90
      133
 90
      135
 90
      134
 90
        4
 90
      134
 90
      135
 90
      137
 90
      136
 90
        3
 90
      136
 90
      137
 90
      138
 90
        4
 90
      138
 90
      137
 90
      140
 90
      139
 90
        3
 90
      139
 90
      140
 90
      141
 90
        3
 90
      142
 90
      144
 90
      143
 90
        3
 90
      142
 90
      145
 90
      144
 90
        4
 90
      146
 90
      147
 90
      145
 90
      142
 90
        3
 90
      146
 90
      148
 90
      147
 90
        4
 90
      149
 90
      150
 90
      148
 90
      146
 90
        3
 90
      149
 90
      151
 90
      150
 90
        4
 90
      152
 90
      153
 90
      151
 90
      149
 90
        4
 90
      154
 90
      155
 90
      153
 90
      152
 90
        4
 90
      156
 90
      157
 90
      155
 90
      154
 90
        3
 90
      156
 90
      158
 90
      157
 90
        3
 90
      156
 90
      159
 90
      158
 90
        3
 90
      156
 90
      160
 90
      159
 90
        3
 90
      156
 90
      161
 90
      160
 90
        3
 90
      162
 90
      140
 90
      163
 90
        4
 90
      163
 90
      140
 90
      161
 90
      156
 90
        3
 90
      164
 90
      140
 90
      162
 90
        3
 90
      165
 90
      140
 90
      166
 90
        3
 90
      166
 90
      140
 90
      164
 90
        3
 90
      141
 90
      140
 90
      167
 90
        3
 90
      167
 90
      140
 90
      165
 94
      354
 90
       81
 90
      144
 90
       80
 90
       81
 90
       80
 90
      143
 90
      143
 90
      144
 90
       79
 90
       80
 90
       79
 90
      142
 90
      142
 90
      143
 90
       78
 90
       79
 90
       78
 90
      146
 90
      142
 90
      146
 90
       77
 90
       78
 90
       77
 90
      149
 90
      146
 90
      149
 90
       76
 90
       77
 90
       76
 90
      152
 90
      149
 90
      152
 90
       75
 90
       76
 90
       75
 90
      154
 90
      152
 90
      154
 90
       74
 90
       75
 90
       74
 90
      156
 90
      154
 90
      156
 90
       73
 90
       74
 90
       73
 90
      163
 90
      156
 90
      163
 90
       72
 90
       73
 90
       72
 90
      162
 90
      162
 90
      163
 90
       71
 90
       72
 90
       71
 90
      164
 90
      162
 90
      164
 90
       70
 90
       71
 90
       70
 90
      166
 90
      164
 90
      166
 90
       69
 90
       70
 90
       69
 90
      165
 90
      165
 90
      166
 90
       53
 90
       69
 90
       53
 90
      167
 90
      165
 90
      167
 90
       53
 90
       54
 90
       54
 90
      141
 90
      141
 90
      167
 90
       54
 90
       55
 90
       55
 90
      139
 90
      139
 90
      141
 90
       19
 90
       55
 90
       19
 90
      138
 90
      138
 90
      139
 90
       19
 90
       20
 90
       20
 90
      136
 90
      136
 90
      138
 90
       20
 90
       21
 90
       21
 90
      134
 90
      134
 90
      136
 90
       21
 90
       22
 90
       22
 90
      132
 90
      132
 90
      134
 90
       22
 90
       23
 90
       23
 90
      130
 90
      130
 90
      132
 90
       23
 90
       24
 90
       24
 90
      128
 90
      128
 90
      130
 90
       24
 90
       25
 90
       25
 90
      126
 90
      126
 90
      128
 90
       25
 90
       26
 90
       26
 90
      124
 90
      124
 90
      126
 90
       26
 90
       27
 90
       27
 90
      122
 90
      122
 90
      124
 90
       27
 90
       28
 90
       28
 90
      120
 90
      120
 90
      122
 90
       28
 90
       29
 90
       29
 90
      118
 90
      118
 90
      120
 90
       15
 90
       29
 90
       15
 90
      116
 90
      116
 90
      118
 90
       15
 90
       16
 90
       16
 90
      114
 90
      114
 90
      116
 90
       16
 90
       17
 90
       17
 90
       86
 90
       86
 90
      114
 90
       17
 90
       18
 90
       18
 90
       85
 90
       85
 90
       86
 90
       18
 90
       51
 90
       51
 90
      113
 90
       85
 90
      113
 90
       51
 90
       52
 90
       52
 90
      112
 90
      112
 90
      113
 90
       31
 90
       52
 90
       31
 90
      111
 90
      111
 90
      112
 90
       31
 90
       32
 90
       32
 90
      109
 90
      109
 90
      111
 90
       32
 90
       50
 90
       50
 90
      107
 90
      107
 90
      109
 90
       49
 90
       50
 90
       49
 90
      105
 90
      105
 90
      107
 90
       47
 90
       49
 90
       47
 90
      103
 90
      103
 90
      105
 90
       47
 90
       48
 90
       48
 90
      101
 90
      101
 90
      103
 90
       46
 90
       48
 90
       46
 90
       99
 90
       99
 90
      101
 90
       44
 90
       46
 90
       44
 90
       98
 90
       98
 90
       99
 90
       44
 90
       45
 90
       45
 90
       95
 90
       95
 90
       98
 90
       42
 90
       45
 90
       42
 90
       90
 90
       90
 90
       95
 90
       42
 90
       43
 90
       43
 90
       89
 90
       89
 90
       90
 90
       43
 90
       68
 90
       68
 90
       88
 90
       88
 90
       89
 90
       67
 90
       68
 90
       67
 90
       92
 90
       88
 90
       92
 90
       66
 90
       67
 90
       66
 90
       91
 90
       91
 90
       92
 90
       41
 90
       66
 90
       41
 90
       93
 90
       91
 90
       93
 90
       37
 90
       41
 90
       37
 90
       94
 90
       93
 90
       94
 90
       37
 90
       38
 90
       38
 90
       97
 90
       94
 90
       97
 90
       38
 90
       39
 90
       39
 90
       96
 90
       96
 90
       97
 90
       39
 90
       40
 90
       40
 90
      100
 90
       96
 90
      100
 90
       36
 90
       40
 90
       36
 90
      102
 90
      100
 90
      102
 90
       33
 90
       36
 90
       33
 90
      104
 90
      102
 90
      104
 90
       33
 90
       34
 90
       34
 90
      106
 90
      104
 90
      106
 90
       34
 90
       35
 90
       35
 90
      108
 90
      106
 90
      108
 90
       30
 90
       35
 90
       30
 90
      110
 90
      108
 90
      110
 90
        0
 90
       30
 90
        0
 90
       84
 90
       84
 90
      110
 90
        0
 90
        1
 90
        1
 90
       87
 90
       84
 90
       87
 90
        1
 90
        2
 90
        2
 90
      115
 90
       87
 90
      115
 90
        2
 90
        3
 90
        3
 90
      117
 90
      115
 90
      117
 90
        3
 90
        4
 90
        4
 90
      119
 90
      117
 90
      119
 90
        4
 90
        5
 90
        5
 90
      121
 90
      119
 90
      121
 90
        5
 90
        6
 90
        6
 90
      123
 90
      121
 90
      123
 90
        6
 90
        7
 90
        7
 90
      125
 90
      123
 90
      125
 90
        7
 90
        8
 90
        8
 90
      127
 90
      125
 90
      127
 90
        8
 90
        9
 90
        9
 90
      129
 90
      127
 90
      129
 90
        9
 90
       10
 90
       10
 90
      131
 90
      129
 90
      131
 90
       10
 90
       11
 90
       11
 90
      133
 90
      131
 90
      133
 90
       11
 90
       12
 90
       12
 90
      135
 90
      133
 90
      135
 90
       12
 90
       13
 90
       13
 90
      137
 90
      135
 90
      137
 90
       13
 90
       14
 90
       14
 90
      140
 90
      137
 90
      140
 90
       14
 90
       63
 90
       63
 90
      161
 90
      140
 90
      161
 90
       63
 90
       64
 90
       64
 90
      160
 90
      160
 90
      161
 90
       64
 90
       65
 90
       65
 90
      159
 90
      159
 90
      160
 90
       62
 90
       65
 90
       62
 90
      158
 90
      158
 90
      159
 90
       58
 90
       62
 90
       58
 90
      157
 90
      157
 90
      158
 90
       58
 90
       59
 90
       59
 90
      155
 90
      155
 90
      157
 90
       59
 90
       60
 90
       60
 90
      153
 90
      153
 90
      155
 90
       60
 90
       61
 90
       61
 90
      151
 90
      151
 90
      153
 90
       56
 90
       61
 90
       56
 90
      150
 90
      150
 90
      151
 90
       56
 90
       57
 90
       57
 90
      148
 90
      148
 90
      150
 90
       57
 90
       83
 90
       83
 90
      147
 90
      147
 90
      148
 90
       82
 90
       83
 90
       82
 90
      145
 90
      145
 90
      147
 90
       81
 90
       82
 90
      144
 90
      145
 90
        0
 90
       18
 90
        1
 90
       17
 90
       42
 90
       68
 90
       42
 90
       67
 90
       42
 90
       66
 90
       41
 90
       42
 90
       37
 90
       45
 90
       38
 90
       44
 90
       39
 90
       46
 90
       40
 90
       48
 90
       36
 90
       47
 90
       33
 90
       49
 90
       34
 90
       50
 90
       32
 90
       35
 90
       30
 90
       31
 90
        0
 90
       52
 90
        0
 90
       51
 90
        2
 90
       16
 90
        3
 90
       15
 90
        4
 90
       29
 90
        5
 90
       28
 90
        6
 90
       27
 90
        7
 90
       26
 90
        8
 90
       25
 90
        9
 90
       24
 90
       10
 90
       23
 90
       11
 90
       22
 90
       12
 90
       21
 90
       13
 90
       20
 90
       13
 90
       19
 90
       14
 90
       55
 90
       14
 90
       54
 90
       79
 90
       81
 90
       79
 90
       82
 90
       78
 90
       83
 90
       57
 90
       78
 90
       56
 90
       77
 90
       61
 90
       77
 90
       60
 90
       76
 90
       59
 90
       75
 90
       58
 90
       74
 90
       62
 90
       74
 90
       65
 90
       74
 90
       64
 90
       74
 90
       63
 90
       74
 90
       14
 90
       73
 90
       14
 90
       72
 90
       14
 90
       71
 90
       14
 90
       70
 90
       14
 90
       69
 90
       14
 90
       53
 90
       86
 90
       87
 90
       84
 90
       85
 90
       88
 90
       90
 90
       90
 90
       91
 90
       90
 90
       92
 90
       90
 90
       93
 90
       94
 90
       95
 90
       96
 90
       99
 90
       97
 90
       98
 90
      100
 90
      101
 90
      102
 90
      103
 90
      104
 90
      105
 90
      106
 90
      107
 90
      108
 90
      109
 90
      110
 90
      111
 90
       84
 90
      112
 90
       84
 90
      113
 90
      114
 90
      115
 90
      116
 90
      117
 90
      118
 90
      119
 90
      120
 90
      121
 90
      122
 90
      123
 90
      124
 90
      125
 90
      126
 90
      127
 90
      128
 90
      129
 90
      130
 90
      131
 90
      132
 90
      133
 90
      134
 90
      135
 90
      136
 90
      137
 90
      137
 90
      138
 90
      139
 90
      140
 90
      140
 90
      141
 90
      142
 90
      144
 90
      142
 90
      145
 90
      146
 90
      147
 90
      146
 90
      148
 90
      149
 90
      150
 90
      149
 90
      151
 90
      152
 90
      153
 90
      154
 90
      155
 90
      156
 90
      157
 90
      156
 90
      158
 90
      156
 90
      159
 90
      156
 90
      160
 90
      156
 90
      161
 90
      140
 90
      162
 90
      140
 90
      163
 90
      140
 90
      164
 90
      140
 90
      165
 90
      140
 90
      166
 90
      140
 90
      167
 95
      354
140
0.0
140
0.0
140
0.0
140
0.0
140
0.0
140
0.0
140
0.0
140
0.0
140
0.0
140
0.0
140
0.0
140
0.0
140
0.0
140
0.0
140
0.0
140
0.0
140
0.0
140
0.0
140
0.0
140
0.0
140
0.0
140
0.0
140
0.0
140
0.0
140
0.0
140
0.0
140
0.0
140
0.0
140
0.0
140
0.0
140
0.0
140
0.0
140
0.0
140
0.0
140
0.0
140
0.0
140
0.0
140
0.0
140
0.0
140
0.0
140
0.0
140
0.0
140
0.0
140
0.0
140
0.0
140
0.0
140
0.0
140
0.0
140
0.0
140
0.0
140
0.0
140
0.0
140
0.0
140
0.0
140
0.0
140
0.0
140
0.0
140
0.0
140
0.0
140
0.0
140
0.0
140
0.0
140
0.0
140
0.0
140
0.0
140
0.0
140
0.0
140
0.0
140
0.0
140
0.0
140
0.0
140
0.0
140
0.0
140
0.0
140
0.0
140
0.0
140
0.0
140
0.0
140
0.0
140
0.0
140
0.0
140
0.0
140
0.0
140
0.0
140
0.0
140
0.0
140
0.0
140
0.0
140
0.0
140
0.0
140
0.0
140
0.0
140
0.0
140
0.0
140
0.0
140
0.0
140
0.0
140
0.0
140
0.0
140
0.0
140
0.0
140
0.0
140
0.0
140
0.0
140
0.0
140
0.0
140
0.0
140
0.0
140
0.0
140
0.0
140
0.0
140
0.0
140
0.0
140
0.0
140
0.0
140
0.0
140
0.0
140
0.0
140
0.0
140
0.0
140
0.0
140
0.0
140
0.0
140
0.0
140
0.0
140
0.0
140
0.0
140
0.0
140
0.0
140
0.0
140
0.0
140
0.0
140
0.0
140
0.0
140
0.0
140
0.0
140
0.0
140
0.0
140
0.0
140
0.0
140
0.0
140
0.0
140
0.0
140
0.0
140
0.0
140
0.0
140
0.0
140
0.0
140
0.0
140
0.0
140
0.0
140
0.0
140
0.0
140
0.0
140
0.0
140
0.0
140
0.0
140
0.0
140
0.0
140
0.0
140
0.0
140
0.0
140
0.0
140
0.0
140
0.0
140
0.0
140
0.0
140
0.0
140
0.0
140
0.0
140
0.0
140
0.0
140
0.0
140
0.0
140
0.0
140
0.0
140
0.0
140
0.0
140
0.0
140
0.0
140
0.0
140
0.0
140
0.0
140
0.0
140
0.0
140
0.0
140
0.0
140
0.0
140
0.0
140
0.0
140
0.0
140
0.0
140
0.0
140
0.0
140
0.0
140
0.0
140
0.0
140
0.0
140
0.0
140
0.0
140
0.0
140
0.0
140
0.0
140
0.0
140
0.0
140
0.0
140
0.0
140
0.0
140
0.0
140
0.0
140
0.0
140
0.0
140
0.0
140
0.0
140
0.0
140
0.0
140
0.0
140
0.0
140
0.0
140
0.0
140
0.0
140
0.0
140
0.0
140
0.0
140
0.0
140
0.0
140
0.0
140
0.0
140
0.0
140
0.0
140
0.0
140
0.0
140
0.0
140
0.0
140
0.0
140
0.0
140
0.0
140
0.0
140
0.0
140
0.0
140
0.0
140
0.0
140
0.0
140
0.0
140
0.0
140
0.0
140
0.0
140
0.0
140
0.0
140
0.0
140
0.0
140
0.0
140
0.0
140
0.0
140
0.0
140
0.0
140
0.0
140
0.0
140
0.0
140
0.0
140
0.0
140
0.0
140
0.0
140
0.0
140
0.0
140
0.0
140
0.0
140
0.0
140
0.0
140
0.0
140
0.0
140
0.0
140
0.0
140
0.0
140
0.0
140
0.0
140
0.0
140
0.0
140
0.0
140
0.0
140
0.0
140
0.0
140
0.0
140
0.0
140
0.0
140
0.0
140
0.0
140
0.0
140
0.0
140
0.0
140
0.0
140
0.0
140
0.0
140
0.0
140
0.0
140
0.0
140
0.0
140
0.0
140
0.0
140
0.0
140
0.0
140
0.0
140
0.0
140
0.0
140
0.0
140
0.0
140
0.0
140
0.0
140
0.0
140
0.0
140
0.0
140
0.0
140
0.0
140
0.0
140
0.0
140
0.0
140
0.0
140
0.0
140
0.0
140
0.0
140
0.0
140
0.0
140
0.0
140
0.0
140
0.0
140
0.0
140
0.0
140
0.0
140
0.0
140
0.0
140
0.0
140
0.0
140
0.0
140
0.0
140
0.0
140
0.0
140
0.0
140
0.0
140
0.0
140
0.0
140
0.0
140
0.0
140
0.0
140
0.0
140
0.0
140
0.0
140
0.0
140
0.0
140
0.0
140
0.0
140
0.0
140
0.0
140
0.0
140
0.0
 90
        0
  0
POLYLINE
  5
FA
330
1F
100
AcDbEntity
  8
OracDecor_cornice_mouldings
 62
    93
420
  5759319
100
AcDb3dPolyline
 66
     1
 10
0.0
 20
0.0
 30
0.0
 70
     9
  0
VERTEX
  5
FB
330
FA
100
AcDbEntity
  8
OracDecor_cornice_mouldings
 62
    93
420
  5759319
100
AcDbVertex
100
AcDb3dPolylineVertex
 10
-0.0000000000002545
 20
37.79976272583008
 30
-10.03161525726318
 70
    32
  0
VERTEX
  5
FC
330
FA
100
AcDbEntity
  8
OracDecor_cornice_mouldings
 62
    93
420
  5759319
100
AcDbVertex
100
AcDb3dPolylineVertex
 10
0.000000000000655
 20
33.02630233764649
 30
-10.41640377044678
 70
    32
  0
VERTEX
  5
FD
330
FA
100
AcDbEntity
  8
OracDecor_cornice_mouldings
 62
    93
420
  5759319
100
AcDbVertex
100
AcDb3dPolylineVertex
 10
0.000000000000655
 20
28.69057655334473
 30
-11.46419811248779
 70
    32
  0
VERTEX
  5
FE
330
FA
100
AcDbEntity
  8
OracDecor_cornice_mouldings
 62
    93
420
  5759319
100
AcDbVertex
100
AcDb3dPolylineVertex
 10
0.000000000000655
 20
25.03365135192871
 30
-13.09792041778564
 70
    32
  0
VERTEX
  5
FF
330
FA
100
AcDbEntity
  8
OracDecor_cornice_mouldings
 62
    93
420
  5759319
100
AcDbVertex
100
AcDb3dPolylineVertex
 10
0.0000000000002003
 20
21.86401176452637
 30
-15.33779239654541
 70
    32
  0
VERTEX
  5
100
330
FA
100
AcDbEntity
  8
OracDecor_cornice_mouldings
 62
    93
420
  5759319
100
AcDbVertex
100
AcDb3dPolylineVertex
 10
0.000000000000655
 20
18.99072265625
 30
-18.39130973815918
 70
    32
  0
VERTEX
  5
101
330
FA
100
AcDbEntity
  8
OracDecor_cornice_mouldings
 62
    93
420
  5759319
100
AcDbVertex
100
AcDb3dPolylineVertex
 10
0.0000000000002003
 20
17.64114952087402
 30
-20.32428932189942
 70
    32
  0
VERTEX
  5
102
330
FA
100
AcDbEntity
  8
OracDecor_cornice_mouldings
 62
    93
420
  5759319
100
AcDbVertex
100
AcDb3dPolylineVertex
 10
0.0000000000002003
 20
16.36086463928222
 30
-22.604736328125
 70
    32
  0
VERTEX
  5
103
330
FA
100
AcDbEntity
  8
OracDecor_cornice_mouldings
 62
    93
420
  5759319
100
AcDbVertex
100
AcDb3dPolylineVertex
 10
-0.0000000000000271
 20
15.16793537139892
 30
-25.26372718811035
 70
    32
  0
VERTEX
  5
104
330
FA
100
AcDbEntity
  8
OracDecor_cornice_mouldings
 62
    93
420
  5759319
100
AcDbVertex
100
AcDb3dPolylineVertex
 10
0.0000000000004277
 20
14.08842658996582
 30
-28.33642768859863
 70
    32
  0
VERTEX
  5
105
330
FA
100
AcDbEntity
  8
OracDecor_cornice_mouldings
 62
    93
420
  5759319
100
AcDbVertex
100
AcDb3dPolylineVertex
 10
-0.0000000000000271
 20
13.1683988571167
 30
-31.77298927307129
 70
    32
  0
VERTEX
  5
106
330
FA
100
AcDbEntity
  8
OracDecor_cornice_mouldings
 62
    93
420
  5759319
100
AcDbVertex
100
AcDb3dPolylineVertex
 10
-0.0000000000000271
 20
12.42104148864746
 30
-35.50795745849609
 70
    32
  0
VERTEX
  5
107
330
FA
100
AcDbEntity
  8
OracDecor_cornice_mouldings
 62
    93
420
  5759319
100
AcDbVertex
100
AcDb3dPolylineVertex
 10
0.0000000000002003
 20
11.85632419586181
 30
-39.48091125488281
 70
    32
  0
VERTEX
  5
108
330
FA
100
AcDbEntity
  8
OracDecor_cornice_mouldings
 62
    93
420
  5759319
100
AcDbVertex
100
AcDb3dPolylineVertex
 10
0.0000000000002003
 20
11.45089054107666
 30
-43.75920867919922
 70
    32
  0
VERTEX
  5
109
330
FA
100
AcDbEntity
  8
OracDecor_cornice_mouldings
 62
    93
420
  5759319
100
AcDbVertex
100
AcDb3dPolylineVertex
 10
0.0000000000002003
 20
11.20257091522216
 30
-48.37799072265625
 70
    32
  0
VERTEX
  5
10A
330
FA
100
AcDbEntity
  8
OracDecor_cornice_mouldings
 62
    93
420
  5759319
100
AcDbVertex
100
AcDb3dPolylineVertex
 10
0.000000000000655
 20
11.10953903198242
 30
-53.35636138916015
 70
    32
  0
VERTEX
  5
10B
330
FA
100
AcDbEntity
  8
OracDecor_cornice_mouldings
 62
    93
420
  5759319
100
AcDbVertex
100
AcDb3dPolylineVertex
 10
0.0000000000002003
 20
11.10844039916992
 30
-53.74362182617187
 70
    32
  0
VERTEX
  5
10C
330
FA
100
AcDbEntity
  8
OracDecor_cornice_mouldings
 62
    93
420
  5759319
100
AcDbVertex
100
AcDb3dPolylineVertex
 10
0.000000000000655
 20
11.04970836639404
 30
-53.93792724609375
 70
    32
  0
VERTEX
  5
10D
330
FA
100
AcDbEntity
  8
OracDecor_cornice_mouldings
 62
    93
420
  5759319
100
AcDbVertex
100
AcDb3dPolylineVertex
 10
0.000000000000655
 20
10.89030075073242
 30
-54.08006286621094
 70
    32
  0
VERTEX
  5
10E
330
FA
100
AcDbEntity
  8
OracDecor_cornice_mouldings
 62
    93
420
  5759319
100
AcDbVertex
100
AcDb3dPolylineVertex
 10
0.000000000000655
 20
10.6727991104126
 30
-54.13207244873047
 70
    32
  0
VERTEX
  5
10F
330
FA
100
AcDbEntity
  8
OracDecor_cornice_mouldings
 62
    93
420
  5759319
100
AcDbVertex
100
AcDb3dPolylineVertex
 10
-0.0000000000000271
 20
7.079158782958984
 30
-54.13207244873047
 70
    32
  0
VERTEX
  5
110
330
FA
100
AcDbEntity
  8
OracDecor_cornice_mouldings
 62
    93
420
  5759319
100
AcDbVertex
100
AcDb3dPolylineVertex
 10
0.0000000000002003
 20
6.662375450134277
 30
-54.20618438720703
 70
    32
  0
VERTEX
  5
111
330
FA
100
AcDbEntity
  8
OracDecor_cornice_mouldings
 62
    93
420
  5759319
100
AcDbVertex
100
AcDb3dPolylineVertex
 10
-0.0000000000000271
 20
6.309043884277343
 30
-54.417236328125
 70
    32
  0
VERTEX
  5
112
330
FA
100
AcDbEntity
  8
OracDecor_cornice_mouldings
 62
    93
420
  5759319
100
AcDbVertex
100
AcDb3dPolylineVertex
 10
-0.0000000000000271
 20
6.072954177856445
 30
-54.73309326171875
 70
    32
  0
VERTEX
  5
113
330
FA
100
AcDbEntity
  8
OracDecor_cornice_mouldings
 62
    93
420
  5759319
100
AcDbVertex
100
AcDb3dPolylineVertex
 10
0.0000000000002003
 20
5.99005126953125
 30
-55.10567474365235
 70
    32
  0
VERTEX
  5
114
330
FA
100
AcDbEntity
  8
OracDecor_cornice_mouldings
 62
    93
420
  5759319
100
AcDbVertex
100
AcDb3dPolylineVertex
 10
0.0000000000002003
 20
5.990049839019775
 30
-58.61062622070313
 70
    32
  0
VERTEX
  5
115
330
FA
100
AcDbEntity
  8
OracDecor_cornice_mouldings
 62
    93
420
  5759319
100
AcDbVertex
100
AcDb3dPolylineVertex
 10
0.0000000000002003
 20
5.931684017181396
 30
-58.80534362792968
 70
    32
  0
VERTEX
  5
116
330
FA
100
AcDbEntity
  8
OracDecor_cornice_mouldings
 62
    93
420
  5759319
100
AcDbVertex
100
AcDb3dPolylineVertex
 10
0.0000000000002003
 20
5.772228717803955
 30
-58.94789123535156
 70
    32
  0
VERTEX
  5
117
330
FA
100
AcDbEntity
  8
OracDecor_cornice_mouldings
 62
    93
420
  5759319
100
AcDbVertex
100
AcDb3dPolylineVertex
 10
0.0000000000002003
 20
5.554406642913818
 30
-59.00006103515625
 70
    32
  0
VERTEX
  5
118
330
FA
100
AcDbEntity
  8
OracDecor_cornice_mouldings
 62
    93
420
  5759319
100
AcDbVertex
100
AcDb3dPolylineVertex
 10
-0.0000000000000271
 20
-0.0000439903633378
 30
-59.00006103515625
 70
    32
  0
VERTEX
  5
119
330
FA
100
AcDbEntity
  8
OracDecor_cornice_mouldings
 62
    93
420
  5759319
100
AcDbVertex
100
AcDb3dPolylineVertex
 10
0.0000000000002003
 20
-0.00004339431689
 30
-52.13969421386718
 70
    32
  0
VERTEX
  5
11A
330
FA
100
AcDbEntity
  8
OracDecor_cornice_mouldings
 62
    93
420
  5759319
100
AcDbVertex
100
AcDb3dPolylineVertex
 10
0.0000000000002003
 20
0.0148110371083021
 30
-52.03890228271484
 70
    32
  0
VERTEX
  5
11B
330
FA
100
AcDbEntity
  8
OracDecor_cornice_mouldings
 62
    93
420
  5759319
100
AcDbVertex
100
AcDb3dPolylineVertex
 10
-0.0000000000000271
 20
0.0583233945071697
 30
-51.94497680664063
 70
    32
  0
VERTEX
  5
11C
330
FA
100
AcDbEntity
  8
OracDecor_cornice_mouldings
 62
    93
420
  5759319
100
AcDbVertex
100
AcDb3dPolylineVertex
 10
-0.0000000000000271
 20
0.9711252450942993
 30
-50.53163146972656
 70
    32
  0
VERTEX
  5
11D
330
FA
100
AcDbEntity
  8
OracDecor_cornice_mouldings
 62
    93
420
  5759319
100
AcDbVertex
100
AcDb3dPolylineVertex
 10
-0.0000000000000271
 20
1.029492139816284
 30
-50.3369140625
 70
    32
  0
VERTEX
  5
11E
330
FA
100
AcDbEntity
  8
OracDecor_cornice_mouldings
 62
    93
420
  5759319
100
AcDbVertex
100
AcDb3dPolylineVertex
 10
-0.0000000000000271
 20
0.971125304698944
 30
-50.14219665527344
 70
    32
  0
VERTEX
  5
11F
330
FA
100
AcDbEntity
  8
OracDecor_cornice_mouldings
 62
    93
420
  5759319
100
AcDbVertex
100
AcDb3dPolylineVertex
 10
0.0000000000002003
 20
0.0583236776292324
 30
-48.7288589477539
 70
    32
  0
VERTEX
  5
120
330
FA
100
AcDbEntity
  8
OracDecor_cornice_mouldings
 62
    93
420
  5759319
100
AcDbVertex
100
AcDb3dPolylineVertex
 10
0.0000000000002003
 20
0.014811335131526
 30
-48.63492584228516
 70
    32
  0
VERTEX
  5
121
330
FA
100
AcDbEntity
  8
OracDecor_cornice_mouldings
 62
    93
420
  5759319
100
AcDbVertex
100
AcDb3dPolylineVertex
 10
-0.0000000000002545
 20
-0.0000411740438722
 30
-48.53413391113281
 70
    32
  0
VERTEX
  5
122
330
FA
100
AcDbEntity
  8
OracDecor_cornice_mouldings
 62
    93
420
  5759319
100
AcDbVertex
100
AcDb3dPolylineVertex
 10
0.0000000000002003
 20
-0.0000407866136811
 30
-44.16133880615234
 70
    32
  0
VERTEX
  5
123
330
FA
100
AcDbEntity
  8
OracDecor_cornice_mouldings
 62
    93
420
  5759319
100
AcDbVertex
100
AcDb3dPolylineVertex
 10
0.0000000000002003
 20
0.0682480335235596
 30
-43.95200347900391
 70
    32
  0
VERTEX
  5
124
330
FA
100
AcDbEntity
  8
OracDecor_cornice_mouldings
 62
    93
420
  5759319
100
AcDbVertex
100
AcDb3dPolylineVertex
 10
0.0000000000002003
 20
0.2517044544219971
 30
-43.80829620361327
 70
    32
  0
VERTEX
  5
125
330
FA
100
AcDbEntity
  8
OracDecor_cornice_mouldings
 62
    93
420
  5759319
100
AcDbVertex
100
AcDb3dPolylineVertex
 10
-0.0000000000000271
 20
1.013989686965942
 30
-43.32971954345703
 70
    32
  0
VERTEX
  5
126
330
FA
100
AcDbEntity
  8
OracDecor_cornice_mouldings
 62
    93
420
  5759319
100
AcDbVertex
100
AcDb3dPolylineVertex
 10
-0.0000000000000271
 20
1.544228911399841
 30
-42.64508819580078
 70
    32
  0
VERTEX
  5
127
330
FA
100
AcDbEntity
  8
OracDecor_cornice_mouldings
 62
    93
420
  5759319
100
AcDbVertex
100
AcDb3dPolylineVertex
 10
-0.0000000000000271
 20
1.777049541473388
 30
-41.83881378173828
 70
    32
  0
VERTEX
  5
128
330
FA
100
AcDbEntity
  8
OracDecor_cornice_mouldings
 62
    93
420
  5759319
100
AcDbVertex
100
AcDb3dPolylineVertex
 10
0.0000000000002003
 20
2.220943212509155
 30
-37.66683959960938
 70
    32
  0
VERTEX
  5
129
330
FA
100
AcDbEntity
  8
OracDecor_cornice_mouldings
 62
    93
420
  5759319
100
AcDbVertex
100
AcDb3dPolylineVertex
 10
-0.0000000000000271
 20
2.773672342300415
 30
-33.93925476074219
 70
    32
  0
VERTEX
  5
12A
330
FA
100
AcDbEntity
  8
OracDecor_cornice_mouldings
 62
    93
420
  5759319
100
AcDbVertex
100
AcDb3dPolylineVertex
 10
0.0000000000002003
 20
3.423895359039306
 30
-30.62615776062012
 70
    32
  0
VERTEX
  5
12B
330
FA
100
AcDbEntity
  8
OracDecor_cornice_mouldings
 62
    93
420
  5759319
100
AcDbVertex
100
AcDb3dPolylineVertex
 10
0.0000000000000866
 20
4.540359020233154
 30
-26.32443046569824
 70
    32
  0
VERTEX
  5
12C
330
FA
100
AcDbEntity
  8
OracDecor_cornice_mouldings
 62
    93
420
  5759319
100
AcDbVertex
100
AcDb3dPolylineVertex
 10
-0.0000000000000271
 20
5.789026260375976
 30
-22.68507385253906
 70
    32
  0
VERTEX
  5
12D
330
FA
100
AcDbEntity
  8
OracDecor_cornice_mouldings
 62
    93
420
  5759319
100
AcDbVertex
100
AcDb3dPolylineVertex
 10
0.0000000000002003
 20
7.156171798706054
 30
-19.54204940795898
 70
    32
  0
VERTEX
  5
12E
330
FA
100
AcDbEntity
  8
OracDecor_cornice_mouldings
 62
    93
420
  5759319
100
AcDbVertex
100
AcDb3dPolylineVertex
 10
-0.0000000000000271
 20
8.61153507232666
 30
-16.8259162902832
 70
    32
  0
VERTEX
  5
12F
330
FA
100
AcDbEntity
  8
OracDecor_cornice_mouldings
 62
    93
420
  5759319
100
AcDbVertex
100
AcDb3dPolylineVertex
 10
-0.0000000000000271
 20
11.79916667938232
 30
-12.33227729797363
 70
    32
  0
VERTEX
  5
130
330
FA
100
AcDbEntity
  8
OracDecor_cornice_mouldings
 62
    93
420
  5759319
100
AcDbVertex
100
AcDb3dPolylineVertex
 10
0.0000000000002003
 20
15.36604118347168
 30
-8.770600318908691
 70
    32
  0
VERTEX
  5
131
330
FA
100
AcDbEntity
  8
OracDecor_cornice_mouldings
 62
    93
420
  5759319
100
AcDbVertex
100
AcDb3dPolylineVertex
 10
0.0000000000002003
 20
19.29912567138672
 30
-5.983747005462646
 70
    32
  0
VERTEX
  5
132
330
FA
100
AcDbEntity
  8
OracDecor_cornice_mouldings
 62
    93
420
  5759319
100
AcDbVertex
100
AcDb3dPolylineVertex
 10
0.000000000000655
 20
23.80131721496582
 30
-3.792215585708618
 70
    32
  0
VERTEX
  5
133
330
FA
100
AcDbEntity
  8
OracDecor_cornice_mouldings
 62
    93
420
  5759319
100
AcDbVertex
100
AcDb3dPolylineVertex
 10
0.0000000000002003
 20
25.24281120300293
 30
-2.956762552261352
 70
    32
  0
VERTEX
  5
134
330
FA
100
AcDbEntity
  8
OracDecor_cornice_mouldings
 62
    93
420
  5759319
100
AcDbVertex
100
AcDb3dPolylineVertex
 10
0.0000000000002003
 20
26.31540679931641
 30
-1.756542563438415
 70
    32
  0
VERTEX
  5
135
330
FA
100
AcDbEntity
  8
OracDecor_cornice_mouldings
 62
    93
420
  5759319
100
AcDbVertex
100
AcDb3dPolylineVertex
 10
0.0000000000002003
 20
26.90856552124023
 30
-0.3152469992637634
 70
    32
  0
VERTEX
  5
136
330
FA
100
AcDbEntity
  8
OracDecor_cornice_mouldings
 62
    93
420
  5759319
100
AcDbVertex
100
AcDb3dPolylineVertex
 10
0.0000000000002003
 20
26.98989868164062
 30
-0.15328449010849
 70
    32
  0
VERTEX
  5
137
330
FA
100
AcDbEntity
  8
OracDecor_cornice_mouldings
 62
    93
420
  5759319
100
AcDbVertex
100
AcDb3dPolylineVertex
 10
0.000000000000655
 20
27.14286422729492
 30
-0.0405392348766327
 70
    32
  0
VERTEX
  5
138
330
FA
100
AcDbEntity
  8
OracDecor_cornice_mouldings
 62
    93
420
  5759319
100
AcDbVertex
100
AcDb3dPolylineVertex
 10
0.000000000000655
 20
27.33622360229492
 30
-0.0000309944152832
 70
    32
  0
VERTEX
  5
139
330
FA
100
AcDbEntity
  8
OracDecor_cornice_mouldings
 62
    93
420
  5759319
100
AcDbVertex
100
AcDb3dPolylineVertex
 10
0.0000000000002003
 20
32.21256637573242
 30
-0.0000295042991638
 70
    32
  0
VERTEX
  5
13A
330
FA
100
AcDbEntity
  8
OracDecor_cornice_mouldings
 62
    93
420
  5759319
100
AcDbVertex
100
AcDb3dPolylineVertex
 10
0.0000000000002003
 20
32.3253173828125
 30
-0.0133065581321716
 70
    32
  0
VERTEX
  5
13B
330
FA
100
AcDbEntity
  8
OracDecor_cornice_mouldings
 62
    93
420
  5759319
100
AcDbVertex
100
AcDb3dPolylineVertex
 10
0.0000000000002003
 20
32.43038940429688
 30
-0.0522050261497498
 70
    32
  0
VERTEX
  5
13C
330
FA
100
AcDbEntity
  8
OracDecor_cornice_mouldings
 62
    93
420
  5759319
100
AcDbVertex
100
AcDb3dPolylineVertex
 10
0.0000000000002003
 20
34.20005035400391
 30
-0.965556263923645
 70
    32
  0
VERTEX
  5
13D
330
FA
100
AcDbEntity
  8
OracDecor_cornice_mouldings
 62
    93
420
  5759319
100
AcDbVertex
100
AcDb3dPolylineVertex
 10
0.0000000000002003
 20
34.41786956787109
 30
-1.017729878425598
 70
    32
  0
VERTEX
  5
13E
330
FA
100
AcDbEntity
  8
OracDecor_cornice_mouldings
 62
    93
420
  5759319
100
AcDbVertex
100
AcDb3dPolylineVertex
 10
0.0000000000002003
 20
34.63569259643555
 30
-0.965556263923645
 70
    32
  0
VERTEX
  5
13F
330
FA
100
AcDbEntity
  8
OracDecor_cornice_mouldings
 62
    93
420
  5759319
100
AcDbVertex
100
AcDb3dPolylineVertex
 10
0.0000000000002003
 20
36.40535354614258
 30
-0.0522053688764572
 70
    32
  0
VERTEX
  5
140
330
FA
100
AcDbEntity
  8
OracDecor_cornice_mouldings
 62
    93
420
  5759319
100
AcDbVertex
100
AcDb3dPolylineVertex
 10
0.000000000000655
 20
36.51042556762695
 30
-0.0133088231086731
 70
    32
  0
VERTEX
  5
141
330
FA
100
AcDbEntity
  8
OracDecor_cornice_mouldings
 62
    93
420
  5759319
100
AcDbVertex
100
AcDb3dPolylineVertex
 10
0.0000000000002003
 20
36.6231803894043
 30
-0.0000298917293549
 70
    32
  0
VERTEX
  5
142
330
FA
100
AcDbEntity
  8
OracDecor_cornice_mouldings
 62
    93
420
  5759319
100
AcDbVertex
100
AcDb3dPolylineVertex
 10
-0.0000076293945313
 20
43.99992752075195
 30
-0.000030517578125
 70
    32
  0
VERTEX
  5
143
330
FA
100
AcDbEntity
  8
OracDecor_cornice_mouldings
 62
    93
420
  5759319
100
AcDbVertex
100
AcDb3dPolylineVertex
 10
-0.0000076293945313
 20
43.99992752075195
 30
-4.965381622314453
 70
    32
  0
VERTEX
  5
144
330
FA
100
AcDbEntity
  8
OracDecor_cornice_mouldings
 62
    93
420
  5759319
100
AcDbVertex
100
AcDb3dPolylineVertex
 10
-0.0000076293945313
 20
43.94156265258788
 30
-5.160100936889648
 70
    32
  0
VERTEX
  5
145
330
FA
100
AcDbEntity
  8
OracDecor_cornice_mouldings
 62
    93
420
  5759319
100
AcDbVertex
100
AcDb3dPolylineVertex
 10
0.0000000000002003
 20
43.78210830688476
 30
-5.302644729614257
 70
    32
  0
VERTEX
  5
146
330
FA
100
AcDbEntity
  8
OracDecor_cornice_mouldings
 62
    93
420
  5759319
100
AcDbVertex
100
AcDb3dPolylineVertex
 10
0.0000000000002003
 20
43.56428146362304
 30
-5.354820251464843
 70
    32
  0
VERTEX
  5
147
330
FA
100
AcDbEntity
  8
OracDecor_cornice_mouldings
 62
    93
420
  5759319
100
AcDbVertex
100
AcDb3dPolylineVertex
 10
0.0000000000002003
 20
39.64349746704101
 30
-5.354819774627685
 70
    32
  0
VERTEX
  5
148
330
FA
100
AcDbEntity
  8
OracDecor_cornice_mouldings
 62
    93
420
  5759319
100
AcDbVertex
100
AcDb3dPolylineVertex
 10
0.000000000000655
 20
39.22671127319336
 30
-5.428929805755615
 70
    32
  0
VERTEX
  5
149
330
FA
100
AcDbEntity
  8
OracDecor_cornice_mouldings
 62
    93
420
  5759319
100
AcDbVertex
100
AcDb3dPolylineVertex
 10
0.0000000000002003
 20
38.87337875366211
 30
-5.639979839324951
 70
    32
  0
VERTEX
  5
14A
330
FA
100
AcDbEntity
  8
OracDecor_cornice_mouldings
 62
    93
420
  5759319
100
AcDbVertex
100
AcDb3dPolylineVertex
 10
0.000000000000655
 20
38.63729476928711
 30
-5.955836772918701
 70
    32
  0
VERTEX
  5
14B
330
FA
100
AcDbEntity
  8
OracDecor_cornice_mouldings
 62
    93
420
  5759319
100
AcDbVertex
100
AcDb3dPolylineVertex
 10
-0.0000000000002545
 20
38.55438613891602
 30
-6.328418254852294
 70
    32
  0
VERTEX
  5
14C
330
FA
100
AcDbEntity
  8
OracDecor_cornice_mouldings
 62
    93
420
  5759319
100
AcDbVertex
100
AcDb3dPolylineVertex
 10
0.0000000000002003
 20
38.55438613891602
 30
-9.637920379638671
 70
    32
  0
VERTEX
  5
14D
330
FA
100
AcDbEntity
  8
OracDecor_cornice_mouldings
 62
    93
420
  5759319
100
AcDbVertex
100
AcDb3dPolylineVertex
 10
0.000000000000655
 20
38.49708938598633
 30
-9.830978393554687
 70
    32
  0
VERTEX
  5
14E
330
FA
100
AcDbEntity
  8
OracDecor_cornice_mouldings
 62
    93
420
  5759319
100
AcDbVertex
100
AcDb3dPolylineVertex
 10
0.0000000000002003
 20
38.34027481079102
 30
-9.973248481750488
 70
    32
  0
VERTEX
  5
14F
330
FA
100
AcDbEntity
  8
OracDecor_cornice_mouldings
 62
    93
420
  5759319
100
AcDbVertex
100
AcDb3dPolylineVertex
 10
0.000000000000655
 20
38.12518692016602
 30
-10.02731609344482
 70
    32
  0
SEQEND
  5
150
330
FA
100
AcDbEntity
  8
OracDecor_cornice_mouldings
 62
    93
420
  5759319
  0
ENDSEC
  0
SECTION
  2
OBJECTS
  0
DICTIONARY
  5
C
330
0
100
AcDbDictionary
281
     1
  3
ACAD_COLOR
350
DC
  3
ACAD_DETAILVIEWSTYLE
350
F5
  3
ACAD_GROUP
350
D
  3
ACAD_LAYOUT
350
1A
  3
ACAD_MATERIAL
350
AA
  3
ACAD_MLEADERSTYLE
350
F1
  3
ACAD_MLINESTYLE
350
17
  3
ACAD_PLOTSETTINGS
350
19
  3
ACAD_PLOTSTYLENAME
350
E
  3
ACAD_SCALELIST
350
DF
  3
ACAD_SECTIONVIEWSTYLE
350
F3
  3
ACAD_TABLESTYLE
350
DD
  3
ACAD_VISUALSTYLE
350
C3
  3
ACDB_RECOMPOSE_DATA
350
15D
  3
AcDbVariableDictionary
350
151
  0
DICTIONARY
  5
DC
102
{ACAD_REACTORS
330
C
102
}
330
C
100
AcDbDictionary
281
     1
  0
DICTIONARY
  5
F5
102
{ACAD_REACTORS
330
C
102
}
330
C
100
AcDbDictionary
281
     1
  3
Imperial24
350
F6
  0
DICTIONARY
  5
D
102
{ACAD_REACTORS
330
C
102
}
330
C
100
AcDbDictionary
281
     1
  0
DICTIONARY
  5
1A
102
{ACAD_REACTORS
330
C
102
}
330
C
100
AcDbDictionary
281
     1
  3
Layout1
350
1E
  3
Layout2
350
26
  3
Model
350
22
  0
DICTIONARY
  5
AA
102
{ACAD_REACTORS
330
C
102
}
330
C
100
AcDbDictionary
281
     1
  3
ByBlock
350
B3
  3
ByLayer
350
AB
  3
Global
350
BB
  0
DICTIONARY
  5
F1
102
{ACAD_REACTORS
330
C
102
}
330
C
100
AcDbDictionary
281
     1
  3
Standard
350
F2
  0
DICTIONARY
  5
17
102
{ACAD_REACTORS
330
C
102
}
330
C
100
AcDbDictionary
281
     1
  3
Standard
350
18
  0
DICTIONARY
  5
19
102
{ACAD_REACTORS
330
C
102
}
330
C
100
AcDbDictionary
281
     1
  0
ACDBDICTIONARYWDFLT
  5
E
102
{ACAD_REACTORS
330
C
102
}
330
C
100
AcDbDictionary
281
     1
  3
ByLayer
350
2D
  3
Normal
350
F
100
AcDbDictionaryWithDefault
340
F
  0
DICTIONARY
  5
DF
102
{ACAD_REACTORS
330
C
102
}
330
C
100
AcDbDictionary
281
     1
  3
A0
350
E0
  3
A1
350
E1
  3
A2
350
E2
  3
A3
350
E3
  3
A4
350
E4
  3
A5
350
E5
  3
A6
350
E6
  3
A7
350
E7
  3
A8
350
E8
  3
A9
350
E9
  3
B0
350
EA
  3
B1
350
EB
  3
B2
350
EC
  3
B3
350
ED
  3
B4
350
EE
  3
B5
350
EF
  3
B6
350
F0
  0
DICTIONARY
  5
F3
102
{ACAD_REACTORS
330
C
102
}
330
C
100
AcDbDictionary
281
     1
  3
Imperial24
350
F4
  0
DICTIONARY
  5
DD
102
{ACAD_REACTORS
330
C
102
}
330
C
100
AcDbDictionary
281
     1
  3
Standard
350
DE
  0
DICTIONARY
  5
C3
102
{ACAD_REACTORS
330
C
102
}
330
C
100
AcDbDictionary
281
     1
  3
2dWireframe
350
C9
  3
Basic
350
C8
  3
Brighten
350
CF
  3
ColorChange
350
D3
  3
Conceptual
350
CC
  3
Dim
350
CE
  3
EdgeColorOff
350
DB
  3
Facepattern
350
D2
  3
Flat
350
C4
  3
FlatWithEdges
350
C5
  3
Gouraud
350
C6
  3
GouraudWithEdges
350
C7
  3
Hidden
350
CB
  3
JitterOff
350
D9
  3
Linepattern
350
D1
  3
OverhangOff
350
DA
  3
Realistic
350
CD
  3
Shaded
350
D8
  3
Shaded with edges
350
D7
  3
Shades of Gray
350
D4
  3
Sketchy
350
D5
  3
Thicken
350
D0
  3
Wireframe
350
CA
  3
X-Ray
350
D6
  0
XRECORD
  5
15D
102
{ACAD_REACTORS
330
C
102
}
330
C
100
AcDbXrecord
280
     1
 90
        1
330
DE
  0
DICTIONARY
  5
151
102
{ACAD_REACTORS
330
C
102
}
330
C
100
AcDbDictionary
281
     1
  3
CANNOSCALE
350
157
  3
CMLEADERSTYLE
350
153
  3
CTABLESTYLE
350
152
  3
CVIEWDETAILSTYLE
350
154
  3
CVIEWSECTIONSTYLE
350
155
  3
LAYEREVAL
350
159
  3
LAYERNOTIFY
350
15A
  3
LIGHTINGUNITS
350
158
  3
MSLTSCALE
350
156
  0
ACDBDETAILVIEWSTYLE
  5
F6
102
{ACAD_XDICTIONARY
360
192
102
}
102
{ACAD_REACTORS
330
F5
102
}
330
F5
100
AcDbModelDocViewStyle
 70
     0
  3
Imperial24
290
     0
100
AcDbDetailViewStyle
 70
     0
 71
     0
 90
        3
 71
     1
340
11
 62
   256
 40
0.24
340
0
 62
   256
 40
0.24
300

 40
0.36
280
     3
 71
     2
340
16
 90
       25
 62
   256
 71
     3
340
11
 62
   256
 40
0.24
 90
        1
 40
0.75
 90
        1
300
%<\AcVar ViewType \f "%tc1">% %<\AcVar ViewDetailId>%\PSCALE %<\AcVar ViewScale \f "%sn">%
 71
     4
340
16
 90
       25
 62
   256
340
16
 90
       25
 62
   256
280
     0
  0
LAYOUT
  5
1E
102
{ACAD_REACTORS
330
1A
102
}
330
1A
100
AcDbPlotSettings
  1

  2
\\KTXNTBDC\CASF2PN1
  4

  6

 40
0.0
 41
0.0
 42
0.0
 43
0.0
 44
0.0
 45
0.0
 46
0.0
 47
0.0
 48
0.0
 49
0.0
140
0.0
141
0.0
142
1.0
143
1.0
 70
   688
 72
     0
 73
     0
 74
     5
  7

 75
    16
147
1.0
 76
     0
 77
     2
 78
   300
148
0.0
149
0.0
100
AcDbLayout
  1
Layout1
 70
     1
 71
     1
 10
0.0
 20
0.0
 11
12.0
 21
9.0
 12
0.0
 22
0.0
 32
0.0
 14
1.000000000000000E+20
 24
1.000000000000000E+20
 34
1.000000000000000E+20
 15
-1.000000000000000E+20
 25
-1.000000000000000E+20
 35
-1.000000000000000E+20
146
0.0
 13
0.0
 23
0.0
 33
0.0
 16
1.0
 26
0.0
 36
0.0
 17
0.0
 27
1.0
 37
0.0
 76
     0
330
1B
  0
LAYOUT
  5
26
102
{ACAD_REACTORS
330
1A
102
}
330
1A
100
AcDbPlotSettings
  1

  2
\\KTXNTBDC\CASF2PN1
  4

  6

 40
0.0
 41
0.0
 42
0.0
 43
0.0
 44
0.0
 45
0.0
 46
0.0
 47
0.0
 48
0.0
 49
0.0
140
0.0
141
0.0
142
1.0
143
1.0
 70
   688
 72
     0
 73
     0
 74
     5
  7

 75
    16
147
1.0
 76
     0
 77
     2
 78
   300
148
0.0
149
0.0
100
AcDbLayout
  1
Layout2
 70
     1
 71
     2
 10
0.0
 20
0.0
 11
12.0
 21
9.0
 12
0.0
 22
0.0
 32
0.0
 14
0.0
 24
0.0
 34
0.0
 15
0.0
 25
0.0
 35
0.0
146
0.0
 13
0.0
 23
0.0
 33
0.0
 16
1.0
 26
0.0
 36
0.0
 17
0.0
 27
1.0
 37
0.0
 76
     0
330
23
  0
LAYOUT
  5
22
102
{ACAD_REACTORS
330
1A
102
}
330
1A
100
AcDbPlotSettings
  1

  2
\\KTXNTBDC\CASF2PN1
  4

  6

 40
0.0
 41
0.0
 42
0.0
 43
0.0
 44
0.0
 45
0.0
 46
0.0
 47
0.0
 48
0.0
 49
0.0
140
0.0
141
0.0
142
1.0
143
1.0
 70
  1712
 72
     0
 73
     0
 74
     0
  7

 75
     0
147
1.0
 76
     0
 77
     2
 78
   300
148
0.0
149
0.0
100
AcDbLayout
  1
Model
 70
     1
 71
     0
 10
0.0
 20
0.0
 11
12.0
 21
9.0
 12
0.0
 22
0.0
 32
0.0
 14
0.0
 24
0.0
 34
0.0
 15
0.0
 25
0.0
 35
0.0
146
0.0
 13
0.0
 23
0.0
 33
0.0
 16
1.0
 26
0.0
 36
0.0
 17
0.0
 27
1.0
 37
0.0
 76
     0
330
1F
  0
MATERIAL
  5
B3
102
{ACAD_XDICTIONARY
360
B4
102
}
102
{ACAD_REACTORS
330
AA
102
}
330
AA
100
AcDbMaterial
  1
ByBlock
 72
     0
 43
0.0208333333333333
 43
0.0
 43
0.0
 43
0.0
 43
0.0
 43
0.0208333333333333
 43
0.0
 43
0.0
 43
0.0
 43
0.0
 43
1.0
 43
0.0
 43
0.0
 43
0.0
 43
0.0
 43
1.0
 77
     0
 47
0.0208333333333333
 47
0.0
 47
0.0
 47
0.0
 47
0.0
 47
0.0208333333333333
 47
0.0
 47
0.0
 47
0.0
 47
0.0
 47
1.0
 47
0.0
 47
0.0
 47
0.0
 47
0.0
 47
1.0
171
     0
 49
0.0208333333333333
 49
0.0
 49
0.0
 49
0.0
 49
0.0
 49
0.0208333333333333
 49
0.0
 49
0.0
 49
0.0
 49
0.0
 49
1.0
 49
0.0
 49
0.0
 49
0.0
 49
0.0
 49
1.0
175
     0
142
0.0208333333333333
142
0.0
142
0.0
142
0.0
142
0.0
142
0.0208333333333333
142
0.0
142
0.0
142
0.0
142
0.0
142
1.0
142
0.0
142
0.0
142
0.0
142
0.0
142
1.0
179
     0
144
0.0208333333333333
144
0.0
144
0.0
144
0.0
144
0.0
144
0.0208333333333333
144
0.0
144
0.0
144
0.0
144
0.0
144
1.0
144
0.0
144
0.0
144
0.0
144
0.0
144
1.0
147
0.0208333333333333
147
0.0
147
0.0
147
0.0
147
0.0
147
0.0208333333333333
147
0.0
147
0.0
147
0.0
147
0.0
147
1.0
147
0.0
147
0.0
147
0.0
147
0.0
147
1.0
  0
MATERIAL
  5
AB
102
{ACAD_XDICTIONARY
360
AC
102
}
102
{ACAD_REACTORS
330
AA
102
}
330
AA
100
AcDbMaterial
  1
ByLayer
 72
     0
 43
0.0208333333333333
 43
0.0
 43
0.0
 43
0.0
 43
0.0
 43
0.0208333333333333
 43
0.0
 43
0.0
 43
0.0
 43
0.0
 43
1.0
 43
0.0
 43
0.0
 43
0.0
 43
0.0
 43
1.0
 77
     0
 47
0.0208333333333333
 47
0.0
 47
0.0
 47
0.0
 47
0.0
 47
0.0208333333333333
 47
0.0
 47
0.0
 47
0.0
 47
0.0
 47
1.0
 47
0.0
 47
0.0
 47
0.0
 47
0.0
 47
1.0
171
     0
 49
0.0208333333333333
 49
0.0
 49
0.0
 49
0.0
 49
0.0
 49
0.0208333333333333
 49
0.0
 49
0.0
 49
0.0
 49
0.0
 49
1.0
 49
0.0
 49
0.0
 49
0.0
 49
0.0
 49
1.0
175
     0
142
0.0208333333333333
142
0.0
142
0.0
142
0.0
142
0.0
142
0.0208333333333333
142
0.0
142
0.0
142
0.0
142
0.0
142
1.0
142
0.0
142
0.0
142
0.0
142
0.0
142
1.0
179
     0
144
0.0208333333333333
144
0.0
144
0.0
144
0.0
144
0.0
144
0.0208333333333333
144
0.0
144
0.0
144
0.0
144
0.0
144
1.0
144
0.0
144
0.0
144
0.0
144
0.0
144
1.0
147
0.0208333333333333
147
0.0
147
0.0
147
0.0
147
0.0
147
0.0208333333333333
147
0.0
147
0.0
147
0.0
147
0.0
147
1.0
147
0.0
147
0.0
147
0.0
147
0.0
147
1.0
  0
MATERIAL
  5
BB
102
{ACAD_XDICTIONARY
360
BC
102
}
102
{ACAD_REACTORS
330
AA
102
}
330
AA
100
AcDbMaterial
  1
Global
 72
     0
 43
0.0208333333333333
 43
0.0
 43
0.0
 43
0.0
 43
0.0
 43
0.0208333333333333
 43
0.0
 43
0.0
 43
0.0
 43
0.0
 43
1.0
 43
0.0
 43
0.0
 43
0.0
 43
0.0
 43
1.0
 77
     0
 47
0.0208333333333333
 47
0.0
 47
0.0
 47
0.0
 47
0.0
 47
0.0208333333333333
 47
0.0
 47
0.0
 47
0.0
 47
0.0
 47
1.0
 47
0.0
 47
0.0
 47
0.0
 47
0.0
 47
1.0
171
     0
 49
0.0208333333333333
 49
0.0
 49
0.0
 49
0.0
 49
0.0
 49
0.0208333333333333
 49
0.0
 49
0.0
 49
0.0
 49
0.0
 49
1.0
 49
0.0
 49
0.0
 49
0.0
 49
0.0
 49
1.0
175
     0
142
0.0208333333333333
142
0.0
142
0.0
142
0.0
142
0.0
142
0.0208333333333333
142
0.0
142
0.0
142
0.0
142
0.0
142
1.0
142
0.0
142
0.0
142
0.0
142
0.0
142
1.0
179
     0
144
0.0208333333333333
144
0.0
144
0.0
144
0.0
144
0.0
144
0.0208333333333333
144
0.0
144
0.0
144
0.0
144
0.0
144
1.0
144
0.0
144
0.0
144
0.0
144
0.0
144
1.0
147
0.0208333333333333
147
0.0
147
0.0
147
0.0
147
0.0
147
0.0208333333333333
147
0.0
147
0.0
147
0.0
147
0.0
147
1.0
147
0.0
147
0.0
147
0.0
147
0.0
147
1.0
  0
MLEADERSTYLE
  5
F2
102
{ACAD_XDICTIONARY
360
18E
102
}
102
{ACAD_REACTORS
330
F1
102
}
330
F1
100
AcDbMLeaderStyle
179
     2
170
     2
171
     1
172
     0
 90
        2
 40
0.0
 41
0.0
173
     1
 91
-1056964608
340
14
 92
       -2
290
     1
 42
0.09
291
     1
 43
0.36
  3
Standard
 44
0.18
300

342
11
174
     1
178
     6
175
     1
176
     0
 93
-1056964608
 45
0.18
292
     0
297
     0
 46
0.18
 94
-1056964608
 47
1.0
 49
1.0
140
1.0
293
     1
141
0.0
294
     1
177
     0
142
1.0
295
     0
296
     0
143
0.125
271
     0
272
     9
273
     9
  0
MLINESTYLE
  5
18
102
{ACAD_REACTORS
330
17
102
}
330
17
100
AcDbMlineStyle
  2
STANDARD
 70
     0
  3

 62
   256
 51
90.0
 52
90.0
 71
     2
 49
0.5
 62
   256
  6
BYLAYER
 49
-0.5
 62
   256
  6
BYLAYER
  0
ACDBPLACEHOLDER
  5
2D
102
{ACAD_REACTORS
330
E
102
}
330
E
  0
ACDBPLACEHOLDER
  5
F
102
{ACAD_REACTORS
330
E
102
}
330
E
  0
SCALE
  5
E0
102
{ACAD_REACTORS
330
DF
102
}
330
DF
100
AcDbScale
 70
     0
300
1:1
140
1.0
141
1.0
290
     1
  0
SCALE
  5
E1
102
{ACAD_REACTORS
330
DF
102
}
330
DF
100
AcDbScale
 70
     0
300
1/128" = 1'-0"
140
0.0078125
141
12.0
290
     0
  0
SCALE
  5
E2
102
{ACAD_REACTORS
330
DF
102
}
330
DF
100
AcDbScale
 70
     0
300
1/64" = 1'-0"
140
0.015625
141
12.0
290
     0
  0
SCALE
  5
E3
102
{ACAD_REACTORS
330
DF
102
}
330
DF
100
AcDbScale
 70
     0
300
1/32" = 1'-0"
140
0.03125
141
12.0
290
     0
  0
SCALE
  5
E4
102
{ACAD_REACTORS
330
DF
102
}
330
DF
100
AcDbScale
 70
     0
300
1/16" = 1'-0"
140
0.0625
141
12.0
290
     0
  0
SCALE
  5
E5
102
{ACAD_REACTORS
330
DF
102
}
330
DF
100
AcDbScale
 70
     0
300
3/32" = 1'-0"
140
0.09375
141
12.0
290
     0
  0
SCALE
  5
E6
102
{ACAD_REACTORS
330
DF
102
}
330
DF
100
AcDbScale
 70
     0
300
1/8" = 1'-0"
140
0.125
141
12.0
290
     0
  0
SCALE
  5
E7
102
{ACAD_REACTORS
330
DF
102
}
330
DF
100
AcDbScale
 70
     0
300
3/16" = 1'-0"
140
0.1875
141
12.0
290
     0
  0
SCALE
  5
E8
102
{ACAD_REACTORS
330
DF
102
}
330
DF
100
AcDbScale
 70
     0
300
1/4" = 1'-0"
140
0.25
141
12.0
290
     0
  0
SCALE
  5
E9
102
{ACAD_REACTORS
330
DF
102
}
330
DF
100
AcDbScale
 70
     0
300
3/8" = 1'-0"
140
0.375
141
12.0
290
     0
  0
SCALE
  5
EA
102
{ACAD_REACTORS
330
DF
102
}
330
DF
100
AcDbScale
 70
     0
300
1/2" = 1'-0"
140
0.5
141
12.0
290
     0
  0
SCALE
  5
EB
102
{ACAD_REACTORS
330
DF
102
}
330
DF
100
AcDbScale
 70
     0
300
3/4" = 1'-0"
140
0.75
141
12.0
290
     0
  0
SCALE
  5
EC
102
{ACAD_REACTORS
330
DF
102
}
330
DF
100
AcDbScale
 70
     0
300
1" = 1'-0"
140
1.0
141
12.0
290
     0
  0
SCALE
  5
ED
102
{ACAD_REACTORS
330
DF
102
}
330
DF
100
AcDbScale
 70
     0
300
1-1/2" = 1'-0"
140
1.5
141
12.0
290
     0
  0
SCALE
  5
EE
102
{ACAD_REACTORS
330
DF
102
}
330
DF
100
AcDbScale
 70
     0
300
3" = 1'-0"
140
3.0
141
12.0
290
     0
  0
SCALE
  5
EF
102
{ACAD_REACTORS
330
DF
102
}
330
DF
100
AcDbScale
 70
     0
300
6" = 1'-0"
140
6.0
141
12.0
290
     0
  0
SCALE
  5
F0
102
{ACAD_REACTORS
330
DF
102
}
330
DF
100
AcDbScale
 70
     0
300
1'-0" = 1'-0"
140
12.0
141
12.0
290
     0
  0
ACDBSECTIONVIEWSTYLE
  5
F4
102
{ACAD_XDICTIONARY
360
190
102
}
102
{ACAD_REACTORS
330
F3
102
}
330
F3
100
AcDbModelDocViewStyle
 70
     0
  3
Imperial24
290
     0
100
AcDbSectionViewStyle
 70
     0
 71
     0
 90
       78
 71
     1
340
11
 62
   256
 40
0.24
340
0
340
0
 62
   256
 40
0.24
300
I, O, Q, S, X, Z
 40
0.48
 90
        3
 40
0.18
 90
        1
 71
     2
340
16
 90
       25
 62
   256
340
16
 90
       50
 62
   256
 40
0.24
 40
0.0
 40
0.24
 71
     3
340
11
 62
   256
 40
0.24
 90
        1
 40
0.75
 90
        1
300
%<\AcVar ViewType \f "%tc1">% %<\AcVar ViewSectionStartId>%-%<\AcVar ViewSectionEndId>%\PSCALE %<\AcVar ViewScale \f "%sn">%
 71
     4
 62
   256
 62
   257
300
ANSI31
 40
1.0
 90
        0
290
     0
290
     0
 90
        6
 40
0.0
 40
1.570796326794896
 40
0.2617993877991494
 40
1.308996938995747
 40
-0.2617993877991494
 40
1.832595714594046
  0
TABLESTYLE
  5
DE
102
{ACAD_XDICTIONARY
360
15B
102
}
102
{ACAD_REACTORS
330
DD
102
}
330
DD
100
AcDbTableStyle
280
     0
  3
Standard
 70
     0
 71
     0
 40
0.06
 41
0.06
280
     0
281
     0
  7
Standard
140
0.18
170
     2
 62
     0
 63
     7
283
     0
 90
      512
 91
        0
  1

274
    -2
284
     1
 64
     0
275
    -2
285
     1
 65
     0
276
    -2
286
     1
 66
     0
277
    -2
287
     1
 67
     0
278
    -2
288
     1
 68
     0
279
    -2
289
     1
 69
     0
  7
Standard
140
0.25
170
     5
 62
     0
 63
     7
283
     0
 90
      512
 91
        0
  1

274
    -2
284
     1
 64
     0
275
    -2
285
     1
 65
     0
276
    -2
286
     1
 66
     0
277
    -2
287
     1
 67
     0
278
    -2
288
     1
 68
     0
279
    -2
289
     1
 69
     0
  7
Standard
140
0.18
170
     5
 62
     0
 63
     7
283
     0
 90
      512
 91
        0
  1

274
    -2
284
     1
 64
     0
275
    -2
285
     1
 65
     0
276
    -2
286
     1
 66
     0
277
    -2
287
     1
 67
     0
278
    -2
288
     1
 68
     0
279
    -2
289
     1
 69
     0
  0
VISUALSTYLE
  5
C9
102
{ACAD_XDICTIONARY
360
168
102
}
102
{ACAD_REACTORS
330
C3
102
}
330
C3
100
AcDbVisualStyle
  2
2dWireframe
 70
     4
177
     2
291
     0
 71
     0
176
     1
 72
     2
176
     1
 73
     0
176
     1
 90
        0
176
     1
 40
0.6
176
     1
 41
30.0
176
     1
 63
     7
421
 16777215
176
     1
 74
     1
176
     1
 91
        4
176
     1
 64
     7
176
     1
 65
   257
176
     1
 75
     1
176
     1
175
     1
176
     1
 42
1.0
176
     1
 92
        0
176
     1
 66
   257
176
     1
 43
1.0
176
     1
 76
     1
176
     1
 77
     6
176
     1
 78
     2
176
     1
 67
     7
176
     1
 79
     5
176
     1
170
     0
176
     1
171
     0
176
     1
290
     0
176
     1
 93
        1
176
     1
 44
0.0
176
     1
173
     0
176
     1
1001
ACAD
1000
AcDbSavedByObjectVersion
1070
     0
  0
VISUALSTYLE
  5
C8
102
{ACAD_XDICTIONARY
360
166
102
}
102
{ACAD_REACTORS
330
C3
102
}
330
C3
100
AcDbVisualStyle
  2
Basic
 70
     7
177
     2
291
     1
 71
     1
176
     1
 72
     0
176
     1
 73
     1
176
     1
 90
        0
176
     1
 40
0.6
176
     1
 41
30.0
176
     1
 63
     7
421
 16777215
176
     1
 74
     0
176
     1
 91
        4
176
     1
 64
     7
176
     1
 65
   257
176
     1
 75
     1
176
     1
175
     1
176
     1
 42
1.0
176
     1
 92
        8
176
     1
 66
     7
176
     1
 43
1.0
176
     1
 76
     1
176
     1
 77
     6
176
     1
 78
     2
176
     1
 67
     7
176
     1
 79
     5
176
     1
170
     0
176
     1
171
     0
176
     1
290
     0
176
     1
 93
        1
176
     1
 44
0.0
176
     1
173
     0
176
     1
1001
ACAD
1000
AcDbSavedByObjectVersion
1070
     0
  0
VISUALSTYLE
  5
CF
102
{ACAD_XDICTIONARY
360
174
102
}
102
{ACAD_REACTORS
330
C3
102
}
330
C3
100
AcDbVisualStyle
  2
Brighten
 70
    12
177
     2
291
     1
 71
     2
176
     1
 72
     2
176
     1
 73
     0
176
     1
 90
        0
176
     1
 40
0.6
176
     1
 41
30.0
176
     1
 63
     7
421
 16777215
176
     1
 74
     1
176
     1
 91
        4
176
     1
 64
     7
176
     1
 65
   257
176
     1
 75
     1
176
     1
175
     1
176
     1
 42
1.0
176
     1
 92
        8
176
     1
 66
     7
176
     1
 43
1.0
176
     1
 76
     1
176
     1
 77
     6
176
     1
 78
     2
176
     1
 67
     7
176
     1
 79
     5
176
     1
170
     0
176
     1
171
     0
176
     1
290
     0
176
     1
 93
        1
176
     1
 44
50.0
176
     1
173
     0
176
     1
1001
ACAD
1000
AcDbSavedByObjectVersion
1070
     0
  0
VISUALSTYLE
  5
D3
102
{ACAD_XDICTIONARY
360
17C
102
}
102
{ACAD_REACTORS
330
C3
102
}
330
C3
100
AcDbVisualStyle
  2
ColorChange
 70
    16
177
     2
291
     1
 71
     2
176
     1
 72
     2
176
     1
 73
     3
176
     1
 90
        0
176
     1
 40
0.6
176
     1
 41
30.0
176
     1
 63
     8
421
  8421504
176
     1
 74
     1
176
     1
 91
        4
176
     1
 64
     7
176
     1
 65
   257
176
     1
 75
     1
176
     1
175
     1
176
     1
 42
1.0
176
     1
 92
        8
176
     1
 66
     8
424
  8421504
176
     1
 43
1.0
176
     1
 76
     1
176
     1
 77
     6
176
     1
 78
     2
176
     1
 67
     7
176
     1
 79
     5
176
     1
170
     0
176
     1
171
     0
176
     1
290
     0
176
     1
 93
        1
176
     1
 44
0.0
176
     1
173
     0
176
     1
1001
ACAD
1000
AcDbSavedByObjectVersion
1070
     0
  0
VISUALSTYLE
  5
CC
102
{ACAD_XDICTIONARY
360
16E
102
}
102
{ACAD_REACTORS
330
C3
102
}
330
C3
100
AcDbVisualStyle
  2
Conceptual
 70
     9
177
     2
291
     0
 71
     3
176
     1
 72
     2
176
     1
 73
     0
176
     1
 90
        0
176
     1
 40
0.6
176
     1
 41
30.0
176
     1
 63
     7
421
 16777215
176
     1
 74
     2
176
     1
 91
        2
176
     1
 64
     7
176
     1
 65
   257
176
     1
 75
     1
176
     1
175
     1
176
     1
 42
179.0
176
     1
 92
        8
176
     1
 66
     7
176
     1
 43
1.0
176
     1
 76
     1
176
     1
 77
     6
176
     1
 78
     2
176
     1
 67
     7
176
     1
 79
     3
176
     1
170
     0
176
     1
171
     0
176
     1
290
     0
176
     1
 93
        1
176
     1
 44
0.0
176
     1
173
     0
176
     1
1001
ACAD
1000
AcDbSavedByObjectVersion
1070
     0
  0
VISUALSTYLE
  5
CE
102
{ACAD_XDICTIONARY
360
172
102
}
102
{ACAD_REACTORS
330
C3
102
}
330
C3
100
AcDbVisualStyle
  2
Dim
 70
    11
177
     2
291
     1
 71
     2
176
     1
 72
     2
176
     1
 73
     0
176
     1
 90
        0
176
     1
 40
0.6
176
     1
 41
30.0
176
     1
 63
     7
421
 16777215
176
     1
 74
     1
176
     1
 91
        4
176
     1
 64
     7
176
     1
 65
   257
176
     1
 75
     1
176
     1
175
     1
176
     1
 42
1.0
176
     1
 92
        8
176
     1
 66
     7
176
     1
 43
1.0
176
     1
 76
     1
176
     1
 77
     6
176
     1
 78
     2
176
     1
 67
     7
176
     1
 79
     5
176
     1
170
     0
176
     1
171
     0
176
     1
290
     0
176
     1
 93
        1
176
     1
 44
-50.0
176
     1
173
     0
176
     1
1001
ACAD
1000
AcDbSavedByObjectVersion
1070
     0
  0
VISUALSTYLE
  5
DB
102
{ACAD_XDICTIONARY
360
18C
102
}
102
{ACAD_REACTORS
330
C3
102
}
330
C3
100
AcDbVisualStyle
  2
EdgeColorOff
 70
    22
177
     2
291
     1
 71
     2
176
     0
 72
     2
176
     0
 73
     0
176
     0
 90
        0
176
     0
 40
0.6
176
     0
 41
30.0
176
     0
 63
     7
421
 16777215
176
     0
 74
     1
176
     0
 91
        4
176
     0
 64
     7
176
     0
 65
   257
176
     0
 75
     1
176
     0
175
     1
176
     0
 42
1.0
176
     0
 92
        8
176
     2
 66
     7
176
     0
 43
1.0
176
     0
 76
     1
176
     0
 77
     6
176
     0
 78
     2
176
     0
 67
     7
176
     0
 79
     5
176
     0
170
     0
176
     0
171
     0
176
     0
290
     0
176
     0
 93
        1
176
     0
 44
0.0
176
     0
173
     0
176
     0
1001
ACAD
1000
AcDbSavedByObjectVersion
1070
     0
  0
VISUALSTYLE
  5
D2
102
{ACAD_XDICTIONARY
360
17A
102
}
102
{ACAD_REACTORS
330
C3
102
}
330
C3
100
AcDbVisualStyle
  2
Facepattern
 70
    15
177
     2
291
     1
 71
     2
176
     1
 72
     2
176
     1
 73
     0
176
     1
 90
        0
176
     1
 40
0.6
176
     1
 41
30.0
176
     1
 63
     7
421
 16777215
176
     1
 74
     1
176
     1
 91
        4
176
     1
 64
     7
176
     1
 65
   257
176
     1
 75
     1
176
     1
175
     1
176
     1
 42
1.0
176
     1
 92
        8
176
     1
 66
     7
176
     1
 43
1.0
176
     1
 76
     1
176
     1
 77
     6
176
     1
 78
     2
176
     1
 67
     7
176
     1
 79
     5
176
     1
170
     0
176
     1
171
     0
176
     1
290
     0
176
     1
 93
        1
176
     1
 44
0.0
176
     1
173
     0
176
     1
1001
ACAD
1000
AcDbSavedByObjectVersion
1070
     0
  0
VISUALSTYLE
  5
C4
102
{ACAD_XDICTIONARY
360
15E
102
}
102
{ACAD_REACTORS
330
C3
102
}
330
C3
100
AcDbVisualStyle
  2
Flat
 70
     0
177
     2
291
     1
 71
     2
176
     1
 72
     1
176
     1
 73
     1
176
     1
 90
        2
176
     1
 40
0.6
176
     1
 41
30.0
176
     1
 63
     7
421
 16777215
176
     1
 74
     0
176
     1
 91
        0
176
     1
 64
     7
176
     1
 65
   257
176
     1
 75
     1
176
     1
175
     1
176
     1
 42
1.0
176
     1
 92
        8
176
     1
 66
     7
176
     1
 43
1.0
176
     1
 76
     1
176
     1
 77
     6
176
     1
 78
     2
176
     1
 67
     7
176
     1
 79
     5
176
     1
170
     0
176
     1
171
     0
176
     1
290
     0
176
     1
 93
       13
176
     1
 44
0.0
176
     1
173
     0
176
     1
1001
ACAD
1000
AcDbSavedByObjectVersion
1070
     0
  0
VISUALSTYLE
  5
C5
102
{ACAD_XDICTIONARY
360
160
102
}
102
{ACAD_REACTORS
330
C3
102
}
330
C3
100
AcDbVisualStyle
  2
FlatWithEdges
 70
     1
177
     2
291
     1
 71
     2
176
     1
 72
     1
176
     1
 73
     1
176
     1
 90
        2
176
     1
 40
0.6
176
     1
 41
30.0
176
     1
 63
     7
421
 16777215
176
     1
 74
     1
176
     1
 91
        0
176
     1
 64
     7
176
     1
 65
   257
176
     1
 75
     1
176
     1
175
     1
176
     1
 42
1.0
176
     1
 92
        0
176
     1
 66
   257
176
     1
 43
1.0
176
     1
 76
     1
176
     1
 77
     6
176
     1
 78
     2
176
     1
 67
     7
176
     1
 79
     5
176
     1
170
     0
176
     1
171
     0
176
     1
290
     0
176
     1
 93
       13
176
     1
 44
0.0
176
     1
173
     0
176
     1
1001
ACAD
1000
AcDbSavedByObjectVersion
1070
     0
  0
VISUALSTYLE
  5
C6
102
{ACAD_XDICTIONARY
360
162
102
}
102
{ACAD_REACTORS
330
C3
102
}
330
C3
100
AcDbVisualStyle
  2
Gouraud
 70
     2
177
     2
291
     1
 71
     2
176
     1
 72
     2
176
     1
 73
     1
176
     1
 90
        2
176
     1
 40
0.6
176
     1
 41
30.0
176
     1
 63
     7
421
 16777215
176
     1
 74
     0
176
     1
 91
        0
176
     1
 64
     7
176
     1
 65
   257
176
     1
 75
     1
176
     1
175
     1
176
     1
 42
1.0
176
     1
 92
        0
176
     1
 66
     7
176
     1
 43
1.0
176
     1
 76
     1
176
     1
 77
     6
176
     1
 78
     2
176
     1
 67
     7
176
     1
 79
     5
176
     1
170
     0
176
     1
171
     0
176
     1
290
     0
176
     1
 93
       13
176
     1
 44
0.0
176
     1
173
     0
176
     1
1001
ACAD
1000
AcDbSavedByObjectVersion
1070
     0
  0
VISUALSTYLE
  5
C7
102
{ACAD_XDICTIONARY
360
164
102
}
102
{ACAD_REACTORS
330
C3
102
}
330
C3
100
AcDbVisualStyle
  2
GouraudWithEdges
 70
     3
177
     2
291
     1
 71
     2
176
     1
 72
     2
176
     1
 73
     1
176
     1
 90
        2
176
     1
 40
0.6
176
     1
 41
30.0
176
     1
 63
     7
421
 16777215
176
     1
 74
     1
176
     1
 91
        0
176
     1
 64
     7
176
     1
 65
   257
176
     1
 75
     1
176
     1
175
     1
176
     1
 42
1.0
176
     1
 92
        0
176
     1
 66
   257
176
     1
 43
1.0
176
     1
 76
     1
176
     1
 77
     6
176
     1
 78
     2
176
     1
 67
     7
176
     1
 79
     5
176
     1
170
     0
176
     1
171
     0
176
     1
290
     0
176
     1
 93
       13
176
     1
 44
0.0
176
     1
173
     0
176
     1
1001
ACAD
1000
AcDbSavedByObjectVersion
1070
     0
  0
VISUALSTYLE
  5
CB
102
{ACAD_XDICTIONARY
360
16C
102
}
102
{ACAD_REACTORS
330
C3
102
}
330
C3
100
AcDbVisualStyle
  2
Hidden
 70
     6
177
     2
291
     0
 71
     1
176
     1
 72
     2
176
     1
 73
     2
176
     1
 90
        0
176
     1
 40
0.6
176
     1
 41
30.0
176
     1
 63
     7
421
 16777215
176
     1
 74
     2
176
     1
 91
        2
176
     1
 64
     7
176
     1
 65
   257
176
     1
 75
     2
176
     1
175
     1
176
     1
 42
40.0
176
     1
 92
        0
176
     1
 66
   257
176
     1
 43
1.0
176
     1
 76
     1
176
     1
 77
     6
176
     1
 78
     2
176
     1
 67
     7
176
     1
 79
     3
176
     1
170
     0
176
     1
171
     0
176
     1
290
     0
176
     1
 93
        1
176
     1
 44
0.0
176
     1
173
     0
176
     1
1001
ACAD
1000
AcDbSavedByObjectVersion
1070
     0
  0
VISUALSTYLE
  5
D9
102
{ACAD_XDICTIONARY
360
188
102
}
102
{ACAD_REACTORS
330
C3
102
}
330
C3
100
AcDbVisualStyle
  2
JitterOff
 70
    20
177
     2
291
     1
 71
     2
176
     0
 72
     2
176
     0
 73
     0
176
     0
 90
        0
176
     0
 40
0.6
176
     0
 41
30.0
176
     0
 63
     7
421
 16777215
176
     0
 74
     1
176
     0
 91
        4
176
     0
 64
     7
176
     0
 65
   257
176
     0
 75
     1
176
     0
175
     1
176
     0
 42
1.0
176
     0
 92
       10
176
     2
 66
     7
176
     0
 43
1.0
176
     0
 76
     1
176
     0
 77
     6
176
     0
 78
     2
176
     0
 67
     7
176
     0
 79
     5
176
     0
170
     0
176
     0
171
     0
176
     0
290
     0
176
     0
 93
        1
176
     0
 44
0.0
176
     0
173
     0
176
     0
1001
ACAD
1000
AcDbSavedByObjectVersion
1070
     0
  0
VISUALSTYLE
  5
D1
102
{ACAD_XDICTIONARY
360
178
102
}
102
{ACAD_REACTORS
330
C3
102
}
330
C3
100
AcDbVisualStyle
  2
Linepattern
 70
    14
177
     2
291
     1
 71
     2
176
     1
 72
     2
176
     1
 73
     0
176
     1
 90
        0
176
     1
 40
0.6
176
     1
 41
30.0
176
     1
 63
     7
421
 16777215
176
     1
 74
     1
176
     1
 91
        4
176
     1
 64
     7
176
     1
 65
   257
176
     1
 75
     7
176
     1
175
     7
176
     1
 42
1.0
176
     1
 92
        8
176
     1
 66
     7
176
     1
 43
1.0
176
     1
 76
     1
176
     1
 77
     6
176
     1
 78
     2
176
     1
 67
     7
176
     1
 79
     5
176
     1
170
     0
176
     1
171
     0
176
     1
290
     0
176
     1
 93
        1
176
     1
 44
0.0
176
     1
173
     0
176
     1
1001
ACAD
1000
AcDbSavedByObjectVersion
1070
     0
  0
VISUALSTYLE
  5
DA
102
{ACAD_XDICTIONARY
360
18A
102
}
102
{ACAD_REACTORS
330
C3
102
}
330
C3
100
AcDbVisualStyle
  2
OverhangOff
 70
    21
177
     2
291
     1
 71
     2
176
     0
 72
     2
176
     0
 73
     0
176
     0
 90
        0
176
     0
 40
0.6
176
     0
 41
30.0
176
     0
 63
     7
421
 16777215
176
     0
 74
     1
176
     0
 91
        4
176
     0
 64
     7
176
     0
 65
   257
176
     0
 75
     1
176
     0
175
     1
176
     0
 42
1.0
176
     0
 92
        9
176
     2
 66
     7
176
     0
 43
1.0
176
     0
 76
     1
176
     0
 77
     6
176
     0
 78
     2
176
     0
 67
     7
176
     0
 79
     5
176
     0
170
     0
176
     0
171
     0
176
     0
290
     0
176
     0
 93
        1
176
     0
 44
0.0
176
     0
173
     0
176
     0
1001
ACAD
1000
AcDbSavedByObjectVersion
1070
     0
  0
VISUALSTYLE
  5
CD
102
{ACAD_XDICTIONARY
360
170
102
}
102
{ACAD_REACTORS
330
C3
102
}
330
C3
100
AcDbVisualStyle
  2
Realistic
 70
     8
177
     2
291
     0
 71
     2
176
     1
 72
     3
176
     1
 73
     0
176
     1
 90
        2
176
     1
 40
0.6
176
     1
 41
30.0
176
     1
 63
     7
421
 16777215
176
     1
 74
     0
176
     1
 91
        0
176
     1
 64
     7
176
     1
 65
   257
176
     1
 75
     1
176
     1
175
     1
176
     1
 42
1.0
176
     1
 92
        8
176
     1
 66
   257
176
     1
 43
1.0
176
     1
 76
     1
176
     1
 77
     6
176
     1
 78
     2
176
     1
 67
     7
176
     1
 79
     3
176
     1
170
     0
176
     1
171
     0
176
     1
290
     0
176
     1
 93
       13
176
     1
 44
0.0
176
     1
173
     0
176
     1
1001
ACAD
1000
AcDbSavedByObjectVersion
1070
     0
  0
VISUALSTYLE
  5
D8
102
{ACAD_XDICTIONARY
360
186
102
}
102
{ACAD_REACTORS
330
C3
102
}
330
C3
100
AcDbVisualStyle
  2
Shaded
 70
    27
177
     2
291
     0
 71
     2
176
     1
 72
     2
176
     1
 73
     1
176
     1
 90
        2
176
     1
 40
0.6
176
     1
 41
30.0
176
     1
 63
     7
421
 16777215
176
     1
 74
     0
176
     1
 91
        4
176
     1
 64
     7
176
     1
 65
   257
176
     1
 75
     1
176
     1
175
     1
176
     1
 42
1.0
176
     1
 92
        8
176
     1
 66
   257
176
     1
 43
1.0
176
     1
 76
     1
176
     1
 77
     6
176
     1
 78
     2
176
     1
 67
     8
425
  7895160
176
     1
 79
     3
176
     1
170
     0
176
     1
171
     0
176
     1
290
     0
176
     1
 93
        5
176
     1
 44
0.0
176
     1
173
     0
176
     1
1001
ACAD
1000
AcDbSavedByObjectVersion
1070
     0
  0
VISUALSTYLE
  5
D7
102
{ACAD_XDICTIONARY
360
184
102
}
102
{ACAD_REACTORS
330
C3
102
}
330
C3
100
AcDbVisualStyle
  2
Shaded with edges
 70
    26
177
     2
291
     0
 71
     2
176
     1
 72
     2
176
     1
 73
     1
176
     1
 90
        2
176
     1
 40
0.6
176
     1
 41
30.0
176
     1
 63
     7
421
 16777215
176
     1
 74
     1
176
     1
 91
       10
176
     1
 64
     7
176
     1
 65
   257
176
     1
 75
     2
176
     1
175
     1
176
     1
 42
1.0
176
     1
 92
        8
176
     1
 66
   257
176
     1
 43
1.0
176
     1
 76
     1
176
     1
 77
     6
176
     1
 78
     2
176
     1
 67
     7
176
     1
 79
     3
176
     1
170
     0
176
     1
171
     0
176
     1
290
     0
176
     1
 93
        5
176
     1
 44
0.0
176
     1
173
     0
176
     1
1001
ACAD
1000
AcDbSavedByObjectVersion
1070
     0
  0
VISUALSTYLE
  5
D4
102
{ACAD_XDICTIONARY
360
17E
102
}
102
{ACAD_REACTORS
330
C3
102
}
330
C3
100
AcDbVisualStyle
  2
Shades of Gray
 70
    23
177
     2
291
     0
 71
     2
176
     1
 72
     2
176
     1
 73
     3
176
     1
 90
        0
176
     1
 40
0.6
176
     1
 41
30.0
176
     1
 63
     7
421
 16777215
176
     1
 74
     2
176
     1
 91
        2
176
     1
 64
     7
176
     1
 65
     7
176
     1
 75
     1
176
     1
175
     1
176
     1
 42
40.0
176
     1
 92
        8
176
     1
 66
     7
176
     1
 43
1.0
176
     1
 76
     1
176
     1
 77
     6
176
     1
 78
     2
176
     1
 67
     7
176
     1
 79
     3
176
     1
170
     0
176
     1
171
     0
176
     1
290
     0
176
     1
 93
        1
176
     1
 44
0.0
176
     1
173
     0
176
     1
1001
ACAD
1000
AcDbSavedByObjectVersion
1070
     0
  0
VISUALSTYLE
  5
D5
102
{ACAD_XDICTIONARY
360
180
102
}
102
{ACAD_REACTORS
330
C3
102
}
330
C3
100
AcDbVisualStyle
  2
Sketchy
 70
    24
177
     2
291
     0
 71
     1
176
     1
 72
     2
176
     1
 73
     2
176
     1
 90
        0
176
     1
 40
0.6
176
     1
 41
30.0
176
     1
 63
     7
421
 16777215
176
     1
 74
     2
176
     1
 91
        2
176
     1
 64
     7
176
     1
 65
     7
176
     1
 75
     1
176
     1
175
     1
176
     1
 42
40.0
176
     1
 92
       11
176
     1
 66
     7
176
     1
 43
1.0
176
     1
 76
     1
176
     1
 77
     6
176
     1
 78
     2
176
     1
 67
     7
176
     1
 79
     6
176
     1
170
     0
176
     1
171
     0
176
     1
290
     0
176
     1
 93
        1
176
     1
 44
0.0
176
     1
173
     0
176
     1
1001
ACAD
1000
AcDbSavedByObjectVersion
1070
     0
  0
VISUALSTYLE
  5
D0
102
{ACAD_XDICTIONARY
360
176
102
}
102
{ACAD_REACTORS
330
C3
102
}
330
C3
100
AcDbVisualStyle
  2
Thicken
 70
    13
177
     2
291
     1
 71
     2
176
     1
 72
     2
176
     1
 73
     0
176
     1
 90
        0
176
     1
 40
0.6
176
     1
 41
30.0
176
     1
 63
     7
421
 16777215
176
     1
 74
     1
176
     1
 91
        4
176
     1
 64
     7
176
     1
 65
   257
176
     1
 75
     1
176
     1
175
     1
176
     1
 42
1.0
176
     1
 92
       12
176
     1
 66
     7
176
     1
 43
1.0
176
     1
 76
     1
176
     1
 77
     6
176
     1
 78
     2
176
     1
 67
     7
176
     1
 79
     5
176
     1
170
     0
176
     1
171
     0
176
     1
290
     0
176
     1
 93
        1
176
     1
 44
0.0
176
     1
173
     0
176
     1
1001
ACAD
1000
AcDbSavedByObjectVersion
1070
     0
  0
VISUALSTYLE
  5
CA
102
{ACAD_XDICTIONARY
360
16A
102
}
102
{ACAD_REACTORS
330
C3
102
}
330
C3
100
AcDbVisualStyle
  2
Wireframe
 70
     5
177
     2
291
     0
 71
     0
176
     1
 72
     2
176
     1
 73
     0
176
     1
 90
        0
176
     1
 40
0.6
176
     1
 41
30.0
176
     1
 63
     7
421
 16777215
176
     1
 74
     1
176
     1
 91
        4
176
     1
 64
     7
176
     1
 65
   257
176
     1
 75
     1
176
     1
175
     1
176
     1
 42
1.0
176
     1
 92
        0
176
     1
 66
   257
176
     1
 43
1.0
176
     1
 76
     1
176
     1
 77
     6
176
     1
 78
     2
176
     1
 67
     7
176
     1
 79
     3
176
     1
170
     0
176
     1
171
     0
176
     1
290
     0
176
     1
 93
        1
176
     1
 44
0.0
176
     1
173
     0
176
     1
1001
ACAD
1000
AcDbSavedByObjectVersion
1070
     0
  0
VISUALSTYLE
  5
D6
102
{ACAD_XDICTIONARY
360
182
102
}
102
{ACAD_REACTORS
330
C3
102
}
330
C3
100
AcDbVisualStyle
  2
X-Ray
 70
    25
177
     2
291
     0
 71
     2
176
     1
 72
     2
176
     1
 73
     1
176
     1
 90
        1
176
     1
 40
0.5
176
     1
 41
30.0
176
     1
 63
     7
421
 16777215
176
     1
 74
     1
176
     1
 91
        0
176
     1
 64
     7
176
     1
 65
   257
176
     1
 75
     1
176
     1
175
     1
176
     1
 42
1.0
176
     1
 92
        8
176
     1
 66
     7
176
     1
 43
1.0
176
     1
 76
     1
176
     1
 77
     6
176
     1
 78
     2
176
     1
 67
     7
176
     1
 79
     3
176
     1
170
     0
176
     1
171
     0
176
     1
290
     0
176
     1
 93
       13
176
     1
 44
0.0
176
     1
173
     0
176
     1
1001
ACAD
1000
AcDbSavedByObjectVersion
1070
     0
  0
DICTIONARYVAR
  5
157
102
{ACAD_REACTORS
330
151
102
}
330
151
100
DictionaryVariables
280
     0
  1
1:1
  0
DICTIONARYVAR
  5
153
102
{ACAD_REACTORS
330
151
102
}
330
151
100
DictionaryVariables
280
     0
  1
STANDARD
  0
DICTIONARYVAR
  5
152
102
{ACAD_REACTORS
330
151
102
}
330
151
100
DictionaryVariables
280
     0
  1
STANDARD
  0
DICTIONARYVAR
  5
154
102
{ACAD_REACTORS
330
151
102
}
330
151
100
DictionaryVariables
280
     0
  1
Imperial24
  0
DICTIONARYVAR
  5
155
102
{ACAD_REACTORS
330
151
102
}
330
151
100
DictionaryVariables
280
     0
  1
Imperial24
  0
DICTIONARYVAR
  5
159
102
{ACAD_REACTORS
330
151
102
}
330
151
100
DictionaryVariables
280
     0
  1
1
  0
DICTIONARYVAR
  5
15A
102
{ACAD_REACTORS
330
151
102
}
330
151
100
DictionaryVariables
280
     0
  1
15
  0
DICTIONARYVAR
  5
158
102
{ACAD_REACTORS
330
151
102
}
330
151
100
DictionaryVariables
280
     0
  1
0
  0
DICTIONARYVAR
  5
156
102
{ACAD_REACTORS
330
151
102
}
330
151
100
DictionaryVariables
280
     0
  1
0
  0
DICTIONARY
  5
192
330
F6
100
AcDbDictionary
280
     1
281
     1
  3
ACAD_XREC_ROUNDTRIP
360
193
  0
DICTIONARY
  5
B4
330
B3
100
AcDbDictionary
280
     1
281
     1
  3
BUMPTILE
360
B6
  3
DIFFUSETILE
360
B5
  3
OPACITYTILE
360
B9
  3
REFLECTIONTILE
360
B8
  3
REFRACTIONTILE
360
BA
  3
SPECULARTILE
360
B7
  0
DICTIONARY
  5
AC
330
AB
100
AcDbDictionary
280
     1
281
     1
  3
BUMPTILE
360
AE
  3
DIFFUSETILE
360
AD
  3
OPACITYTILE
360
B1
  3
REFLECTIONTILE
360
B0
  3
REFRACTIONTILE
360
B2
  3
SPECULARTILE
360
AF
  0
DICTIONARY
  5
BC
330
BB
100
AcDbDictionary
280
     1
281
     1
  3
BUMPTILE
360
BE
  3
DIFFUSETILE
360
BD
  3
OPACITYTILE
360
C1
  3
REFLECTIONTILE
360
C0
  3
REFRACTIONTILE
360
C2
  3
SPECULARTILE
360
BF
  0
DICTIONARY
  5
18E
330
F2
100
AcDbDictionary
280
     1
281
     1
  3
ACAD_XREC_ROUNDTRIP
360
18F
  0
DICTIONARY
  5
190
330
F4
100
AcDbDictionary
280
     1
281
     1
  3
ACAD_XREC_ROUNDTRIP
360
191
  0
DICTIONARY
  5
15B
330
DE
100
AcDbDictionary
280
     1
281
     1
  3
ACAD_ROUNDTRIP_2008_TABLESTYLE_CELLSTYLEMAP
360
15C
  0
DICTIONARY
  5
168
330
C9
100
AcDbDictionary
280
     1
281
     1
  3
ACAD_XREC_ROUNDTRIP
360
169
  0
DICTIONARY
  5
166
330
C8
100
AcDbDictionary
280
     1
281
     1
  3
ACAD_XREC_ROUNDTRIP
360
167
  0
DICTIONARY
  5
174
330
CF
100
AcDbDictionary
280
     1
281
     1
  3
ACAD_XREC_ROUNDTRIP
360
175
  0
DICTIONARY
  5
17C
330
D3
100
AcDbDictionary
280
     1
281
     1
  3
ACAD_XREC_ROUNDTRIP
360
17D
  0
DICTIONARY
  5
16E
330
CC
100
AcDbDictionary
280
     1
281
     1
  3
ACAD_XREC_ROUNDTRIP
360
16F
  0
DICTIONARY
  5
172
330
CE
100
AcDbDictionary
280
     1
281
     1
  3
ACAD_XREC_ROUNDTRIP
360
173
  0
DICTIONARY
  5
18C
330
DB
100
AcDbDictionary
280
     1
281
     1
  3
ACAD_XREC_ROUNDTRIP
360
18D
  0
DICTIONARY
  5
17A
330
D2
100
AcDbDictionary
280
     1
281
     1
  3
ACAD_XREC_ROUNDTRIP
360
17B
  0
DICTIONARY
  5
15E
330
C4
100
AcDbDictionary
280
     1
281
     1
  3
ACAD_XREC_ROUNDTRIP
360
15F
  0
DICTIONARY
  5
160
330
C5
100
AcDbDictionary
280
     1
281
     1
  3
ACAD_XREC_ROUNDTRIP
360
161
  0
DICTIONARY
  5
162
330
C6
100
AcDbDictionary
280
     1
281
     1
  3
ACAD_XREC_ROUNDTRIP
360
163
  0
DICTIONARY
  5
164
330
C7
100
AcDbDictionary
280
     1
281
     1
  3
ACAD_XREC_ROUNDTRIP
360
165
  0
DICTIONARY
  5
16C
330
CB
100
AcDbDictionary
280
     1
281
     1
  3
ACAD_XREC_ROUNDTRIP
360
16D
  0
DICTIONARY
  5
188
330
D9
100
AcDbDictionary
280
     1
281
     1
  3
ACAD_XREC_ROUNDTRIP
360
189
  0
DICTIONARY
  5
178
330
D1
100
AcDbDictionary
280
     1
281
     1
  3
ACAD_XREC_ROUNDTRIP
360
179
  0
DICTIONARY
  5
18A
330
DA
100
AcDbDictionary
280
     1
281
     1
  3
ACAD_XREC_ROUNDTRIP
360
18B
  0
DICTIONARY
  5
170
330
CD
100
AcDbDictionary
280
     1
281
     1
  3
ACAD_XREC_ROUNDTRIP
360
171
  0
DICTIONARY
  5
186
330
D8
100
AcDbDictionary
280
     1
281
     1
  3
ACAD_XREC_ROUNDTRIP
360
187
  0
DICTIONARY
  5
184
330
D7
100
AcDbDictionary
280
     1
281
     1
  3
ACAD_XREC_ROUNDTRIP
360
185
  0
DICTIONARY
  5
17E
330
D4
100
AcDbDictionary
280
     1
281
     1
  3
ACAD_XREC_ROUNDTRIP
360
17F
  0
DICTIONARY
  5
180
330
D5
100
AcDbDictionary
280
     1
281
     1
  3
ACAD_XREC_ROUNDTRIP
360
181
  0
DICTIONARY
  5
176
330
D0
100
AcDbDictionary
280
     1
281
     1
  3
ACAD_XREC_ROUNDTRIP
360
177
  0
DICTIONARY
  5
16A
330
CA
100
AcDbDictionary
280
     1
281
     1
  3
ACAD_XREC_ROUNDTRIP
360
16B
  0
DICTIONARY
  5
182
330
D6
100
AcDbDictionary
280
     1
281
     1
  3
ACAD_XREC_ROUNDTRIP
360
183
  0
XRECORD
  5
193
102
{ACAD_REACTORS
330
192
102
}
330
192
100
AcDbXrecord
280
     1
102
DISPLAYNAME
  1
Imperial24
102
FLAGS
 90
        0
  0
XRECORD
  5
B6
102
{ACAD_REACTORS
330
B4
102
}
330
B4
100
AcDbXrecord
280
     1
270
     1
271
     1
  0
XRECORD
  5
B5
102
{ACAD_REACTORS
330
B4
102
}
330
B4
100
AcDbXrecord
280
     1
270
     1
271
     1
  0
XRECORD
  5
B9
102
{ACAD_REACTORS
330
B4
102
}
330
B4
100
AcDbXrecord
280
     1
270
     1
271
     1
  0
XRECORD
  5
B8
102
{ACAD_REACTORS
330
B4
102
}
330
B4
100
AcDbXrecord
280
     1
270
     1
271
     1
  0
XRECORD
  5
BA
102
{ACAD_REACTORS
330
B4
102
}
330
B4
100
AcDbXrecord
280
     1
270
     1
271
     1
  0
XRECORD
  5
B7
102
{ACAD_REACTORS
330
B4
102
}
330
B4
100
AcDbXrecord
280
     1
270
     1
271
     1
  0
XRECORD
  5
AE
102
{ACAD_REACTORS
330
AC
102
}
330
AC
100
AcDbXrecord
280
     1
270
     1
271
     1
  0
XRECORD
  5
AD
102
{ACAD_REACTORS
330
AC
102
}
330
AC
100
AcDbXrecord
280
     1
270
     1
271
     1
  0
XRECORD
  5
B1
102
{ACAD_REACTORS
330
AC
102
}
330
AC
100
AcDbXrecord
280
     1
270
     1
271
     1
  0
XRECORD
  5
B0
102
{ACAD_REACTORS
330
AC
102
}
330
AC
100
AcDbXrecord
280
     1
270
     1
271
     1
  0
XRECORD
  5
B2
102
{ACAD_REACTORS
330
AC
102
}
330
AC
100
AcDbXrecord
280
     1
270
     1
271
     1
  0
XRECORD
  5
AF
102
{ACAD_REACTORS
330
AC
102
}
330
AC
100
AcDbXrecord
280
     1
270
     1
271
     1
  0
XRECORD
  5
BE
102
{ACAD_REACTORS
330
BC
102
}
330
BC
100
AcDbXrecord
280
     1
270
     1
271
     1
  0
XRECORD
  5
BD
102
{ACAD_REACTORS
330
BC
102
}
330
BC
100
AcDbXrecord
280
     1
270
     1
271
     1
  0
XRECORD
  5
C1
102
{ACAD_REACTORS
330
BC
102
}
330
BC
100
AcDbXrecord
280
     1
270
     1
271
     1
  0
XRECORD
  5
C0
102
{ACAD_REACTORS
330
BC
102
}
330
BC
100
AcDbXrecord
280
     1
270
     1
271
     1
  0
XRECORD
  5
C2
102
{ACAD_REACTORS
330
BC
102
}
330
BC
100
AcDbXrecord
280
     1
270
     1
271
     1
  0
XRECORD
  5
BF
102
{ACAD_REACTORS
330
BC
102
}
330
BC
100
AcDbXrecord
280
     1
270
     1
271
     1
  0
XRECORD
  5
18F
102
{ACAD_REACTORS
330
18E
102
}
330
18E
100
AcDbXrecord
280
     1
102
ACAD_ROUNDTRIP_2012_MLEADER_STYLE
298
     1
  0
XRECORD
  5
191
102
{ACAD_REACTORS
330
190
102
}
330
190
100
AcDbXrecord
280
     1
102
DISPLAYNAME
  1
Imperial24
102
FLAGS
 90
        0
  0
CELLSTYLEMAP
  5
15C
102
{ACAD_REACTORS
330
15B
102
}
330
15B
100
AcDbCellStyleMap
 90
        3
300
CELLSTYLE
  1
TABLEFORMAT_BEGIN
 90
        5
170
     1
 91
        0
 92
    32768
 62
   257
 93
        1
300
CONTENTFORMAT
  1
CONTENTFORMAT_BEGIN
 90
        0
 91
        0
 92
      512
 93
        0
300

 40
0.0
140
1.0
 94
        5
 62
     0
340
11
144
0.25
309
CONTENTFORMAT_END
171
     0
 94
        0
309
TABLEFORMAT_END
  1
CELLSTYLE_BEGIN
 90
        1
 91
        1
300
_TITLE
309
CELLSTYLE_END
300
CELLSTYLE
  1
TABLEFORMAT_BEGIN
 90
        5
170
     1
 91
        0
 92
        0
 62
   257
 93
        1
300
CONTENTFORMAT
  1
CONTENTFORMAT_BEGIN
 90
        0
 91
        0
 92
      512
 93
        0
300

 40
0.0
140
1.0
 94
        5
 62
     0
340
11
144
0.18
309
CONTENTFORMAT_END
171
     0
 94
        0
309
TABLEFORMAT_END
  1
CELLSTYLE_BEGIN
 90
        2
 91
        1
300
_HEADER
309
CELLSTYLE_END
300
CELLSTYLE
  1
TABLEFORMAT_BEGIN
 90
        5
170
     1
 91
        0
 92
        0
 62
   257
 93
        1
300
CONTENTFORMAT
  1
CONTENTFORMAT_BEGIN
 90
        0
 91
        0
 92
      512
 93
        0
300

 40
0.0
140
1.0
 94
        2
 62
     0
340
11
144
0.18
309
CONTENTFORMAT_END
171
     0
 94
        0
309
TABLEFORMAT_END
  1
CELLSTYLE_BEGIN
 90
        3
 91
        2
300
_DATA
309
CELLSTYLE_END
  0
XRECORD
  5
169
102
{ACAD_REACTORS
330
168
102
}
330
168
100
AcDbXrecord
280
     1
102
RTVSPost2010Prop28
280
     1
102
RTVSPost2010PropOp28
 70
     1
102
RTVSPost2010Prop29
280
     1
102
RTVSPost2010PropOp29
 70
     1
102
RTVSPost2010Prop30
280
     0
102
RTVSPost2010PropOp30
 70
     1
102
RTVSPost2010Prop31
280
     0
102
RTVSPost2010PropOp31
 70
     1
102
RTVSPost2010Prop32
280
     0
102
RTVSPost2010PropOp32
 70
     1
102
RTVSPost2010Prop33
280
     0
102
RTVSPost2010PropOp33
 70
     1
102
RTVSPost2010Prop34
280
     0
102
RTVSPost2010PropOp34
 70
     1
102
RTVSPost2010Prop35
280
     0
102
RTVSPost2010PropOp35
 70
     1
102
RTVSPost2010Prop36
280
     0
102
RTVSPost2010PropOp36
 70
     1
102
RTVSPost2010Prop37
 90
       50
102
RTVSPost2010PropOp37
 70
     1
102
RTVSPost2010Prop38
140
0.0
102
RTVSPost2010PropOp38
 70
     1
102
RTVSPost2010Prop39
140
1.0
102
RTVSPost2010PropOp39
 70
     1
102
RTVSPost2010Prop40
 90
        0
102
RTVSPost2010PropOp40
 70
     1
102
RTVSPost2010Prop41ColorIndex
 90
       18
102
RTVSPost2010Prop41ColorRGB
 90
        0
102
RTVSPost2010PropOp41
 70
     1
102
RTVSPost2010Prop42
 90
       50
102
RTVSPost2010PropOp42
 70
     1
102
RTVSPost2010Prop43
 90
        3
102
RTVSPost2010PropOp43
 70
     1
102
RTVSPost2010Prop44ColorIndex
 90
        5
102
RTVSPost2010Prop44ColorRGB
 90
      255
102
RTVSPost2010PropOp44
 70
     1
102
RTVSPost2010Prop45
280
     0
102
RTVSPost2010PropOp45
 70
     1
102
RTVSPost2010Prop46
 90
       50
102
RTVSPost2010PropOp46
 70
     1
102
RTVSPost2010Prop47
 90
       50
102
RTVSPost2010PropOp47
 70
     1
102
RTVSPost2010Prop48
 90
       50
102
RTVSPost2010PropOp48
 70
     1
102
RTVSPost2010Prop49
280
     0
102
RTVSPost2010PropOp49
 70
     1
102
RTVSPost2010Prop50
 90
       50
102
RTVSPost2010PropOp50
 70
     1
102
RTVSPost2010Prop51ColorIndex
 90
      256
102
RTVSPost2010Prop51ColorRGB
 90
-16777216
102
RTVSPost2010PropOp51
 70
     0
102
RTVSPost2010Prop52
140
1.0
102
RTVSPost2010PropOp52
 70
     0
102
RTVSPost2010Prop53
 90
        2
102
RTVSPost2010PropOp53
 70
     1
102
RTVSPost2010Prop54
  1
strokes_ogs.tif
102
RTVSPost2010PropOp54
 70
     1
102
RTVSPost2010Prop55
280
     0
102
RTVSPost2010PropOp55
 70
     1
102
RTVSPost2010Prop56
140
1.0
102
RTVSPost2010PropOp56
 70
     1
102
RTVSPost2010Prop57
140
1.0
102
RTVSPost2010PropOp57
 70
     1
  0
XRECORD
  5
167
102
{ACAD_REACTORS
330
166
102
}
330
166
100
AcDbXrecord
280
     1
102
RTVSPost2010Prop28
280
     0
102
RTVSPost2010PropOp28
 70
     1
102
RTVSPost2010Prop29
280
     1
102
RTVSPost2010PropOp29
 70
     1
102
RTVSPost2010Prop30
280
     1
102
RTVSPost2010PropOp30
 70
     1
102
RTVSPost2010Prop31
280
     0
102
RTVSPost2010PropOp31
 70
     1
102
RTVSPost2010Prop32
280
     0
102
RTVSPost2010PropOp32
 70
     1
102
RTVSPost2010Prop33
280
     0
102
RTVSPost2010PropOp33
 70
     1
102
RTVSPost2010Prop34
280
     0
102
RTVSPost2010PropOp34
 70
     1
102
RTVSPost2010Prop35
280
     0
102
RTVSPost2010PropOp35
 70
     1
102
RTVSPost2010Prop36
280
     0
102
RTVSPost2010PropOp36
 70
     1
102
RTVSPost2010Prop37
 90
       50
102
RTVSPost2010PropOp37
 70
     1
102
RTVSPost2010Prop38
140
0.0
102
RTVSPost2010PropOp38
 70
     1
102
RTVSPost2010Prop39
140
1.0
102
RTVSPost2010PropOp39
 70
     1
102
RTVSPost2010Prop40
 90
        0
102
RTVSPost2010PropOp40
 70
     1
102
RTVSPost2010Prop41ColorIndex
 90
       18
102
RTVSPost2010Prop41ColorRGB
 90
        0
102
RTVSPost2010PropOp41
 70
     1
102
RTVSPost2010Prop42
 90
       50
102
RTVSPost2010PropOp42
 70
     1
102
RTVSPost2010Prop43
 90
        3
102
RTVSPost2010PropOp43
 70
     1
102
RTVSPost2010Prop44ColorIndex
 90
        5
102
RTVSPost2010Prop44ColorRGB
 90
      255
102
RTVSPost2010PropOp44
 70
     1
102
RTVSPost2010Prop45
280
     0
102
RTVSPost2010PropOp45
 70
     1
102
RTVSPost2010Prop46
 90
       50
102
RTVSPost2010PropOp46
 70
     1
102
RTVSPost2010Prop47
 90
       50
102
RTVSPost2010PropOp47
 70
     1
102
RTVSPost2010Prop48
 90
       50
102
RTVSPost2010PropOp48
 70
     1
102
RTVSPost2010Prop49
280
     0
102
RTVSPost2010PropOp49
 70
     1
102
RTVSPost2010Prop50
 90
       50
102
RTVSPost2010PropOp50
 70
     1
102
RTVSPost2010Prop51ColorIndex
 90
      256
102
RTVSPost2010Prop51ColorRGB
 90
-16777216
102
RTVSPost2010PropOp51
 70
     0
102
RTVSPost2010Prop52
140
1.0
102
RTVSPost2010PropOp52
 70
     0
102
RTVSPost2010Prop53
 90
        2
102
RTVSPost2010PropOp53
 70
     1
102
RTVSPost2010Prop54
  1
strokes_ogs.tif
102
RTVSPost2010PropOp54
 70
     1
102
RTVSPost2010Prop55
280
     0
102
RTVSPost2010PropOp55
 70
     1
102
RTVSPost2010Prop56
140
1.0
102
RTVSPost2010PropOp56
 70
     1
102
RTVSPost2010Prop57
140
1.0
102
RTVSPost2010PropOp57
 70
     1
  0
XRECORD
  5
175
102
{ACAD_REACTORS
330
174
102
}
330
174
100
AcDbXrecord
280
     1
102
RTVSPost2010Prop28
280
     0
102
RTVSPost2010PropOp28
 70
     1
102
RTVSPost2010Prop29
280
     1
102
RTVSPost2010PropOp29
 70
     1
102
RTVSPost2010Prop30
280
     1
102
RTVSPost2010PropOp30
 70
     1
102
RTVSPost2010Prop31
280
     0
102
RTVSPost2010PropOp31
 70
     1
102
RTVSPost2010Prop32
280
     0
102
RTVSPost2010PropOp32
 70
     1
102
RTVSPost2010Prop33
280
     0
102
RTVSPost2010PropOp33
 70
     1
102
RTVSPost2010Prop34
280
     0
102
RTVSPost2010PropOp34
 70
     1
102
RTVSPost2010Prop35
280
     0
102
RTVSPost2010PropOp35
 70
     1
102
RTVSPost2010Prop36
280
     0
102
RTVSPost2010PropOp36
 70
     1
102
RTVSPost2010Prop37
 90
       50
102
RTVSPost2010PropOp37
 70
     1
102
RTVSPost2010Prop38
140
0.0
102
RTVSPost2010PropOp38
 70
     1
102
RTVSPost2010Prop39
140
1.0
102
RTVSPost2010PropOp39
 70
     1
102
RTVSPost2010Prop40
 90
        0
102
RTVSPost2010PropOp40
 70
     1
102
RTVSPost2010Prop41ColorIndex
 90
       18
102
RTVSPost2010Prop41ColorRGB
 90
        0
102
RTVSPost2010PropOp41
 70
     1
102
RTVSPost2010Prop42
 90
       50
102
RTVSPost2010PropOp42
 70
     1
102
RTVSPost2010Prop43
 90
        3
102
RTVSPost2010PropOp43
 70
     1
102
RTVSPost2010Prop44ColorIndex
 90
        5
102
RTVSPost2010Prop44ColorRGB
 90
      255
102
RTVSPost2010PropOp44
 70
     1
102
RTVSPost2010Prop45
280
     0
102
RTVSPost2010PropOp45
 70
     1
102
RTVSPost2010Prop46
 90
       50
102
RTVSPost2010PropOp46
 70
     1
102
RTVSPost2010Prop47
 90
       50
102
RTVSPost2010PropOp47
 70
     1
102
RTVSPost2010Prop48
 90
       50
102
RTVSPost2010PropOp48
 70
     1
102
RTVSPost2010Prop49
280
     0
102
RTVSPost2010PropOp49
 70
     1
102
RTVSPost2010Prop50
 90
       50
102
RTVSPost2010PropOp50
 70
     1
102
RTVSPost2010Prop51ColorIndex
 90
      256
102
RTVSPost2010Prop51ColorRGB
 90
-16777216
102
RTVSPost2010PropOp51
 70
     0
102
RTVSPost2010Prop52
140
1.0
102
RTVSPost2010PropOp52
 70
     0
102
RTVSPost2010Prop53
 90
        2
102
RTVSPost2010PropOp53
 70
     1
102
RTVSPost2010Prop54
  1
strokes_ogs.tif
102
RTVSPost2010PropOp54
 70
     1
102
RTVSPost2010Prop55
280
     0
102
RTVSPost2010PropOp55
 70
     1
102
RTVSPost2010Prop56
140
1.0
102
RTVSPost2010PropOp56
 70
     1
102
RTVSPost2010Prop57
140
1.0
102
RTVSPost2010PropOp57
 70
     1
  0
XRECORD
  5
17D
102
{ACAD_REACTORS
330
17C
102
}
330
17C
100
AcDbXrecord
280
     1
102
RTVSPost2010Prop28
280
     0
102
RTVSPost2010PropOp28
 70
     1
102
RTVSPost2010Prop29
280
     1
102
RTVSPost2010PropOp29
 70
     1
102
RTVSPost2010Prop30
280
     1
102
RTVSPost2010PropOp30
 70
     1
102
RTVSPost2010Prop31
280
     0
102
RTVSPost2010PropOp31
 70
     1
102
RTVSPost2010Prop32
280
     0
102
RTVSPost2010PropOp32
 70
     1
102
RTVSPost2010Prop33
280
     0
102
RTVSPost2010PropOp33
 70
     1
102
RTVSPost2010Prop34
280
     0
102
RTVSPost2010PropOp34
 70
     1
102
RTVSPost2010Prop35
280
     0
102
RTVSPost2010PropOp35
 70
     1
102
RTVSPost2010Prop36
280
     0
102
RTVSPost2010PropOp36
 70
     1
102
RTVSPost2010Prop37
 90
       50
102
RTVSPost2010PropOp37
 70
     1
102
RTVSPost2010Prop38
140
0.0
102
RTVSPost2010PropOp38
 70
     1
102
RTVSPost2010Prop39
140
1.0
102
RTVSPost2010PropOp39
 70
     1
102
RTVSPost2010Prop40
 90
        0
102
RTVSPost2010PropOp40
 70
     1
102
RTVSPost2010Prop41ColorIndex
 90
       18
102
RTVSPost2010Prop41ColorRGB
 90
        0
102
RTVSPost2010PropOp41
 70
     1
102
RTVSPost2010Prop42
 90
       50
102
RTVSPost2010PropOp42
 70
     1
102
RTVSPost2010Prop43
 90
        3
102
RTVSPost2010PropOp43
 70
     1
102
RTVSPost2010Prop44ColorIndex
 90
        5
102
RTVSPost2010Prop44ColorRGB
 90
      255
102
RTVSPost2010PropOp44
 70
     1
102
RTVSPost2010Prop45
280
     0
102
RTVSPost2010PropOp45
 70
     1
102
RTVSPost2010Prop46
 90
       50
102
RTVSPost2010PropOp46
 70
     1
102
RTVSPost2010Prop47
 90
       50
102
RTVSPost2010PropOp47
 70
     1
102
RTVSPost2010Prop48
 90
       50
102
RTVSPost2010PropOp48
 70
     1
102
RTVSPost2010Prop49
280
     0
102
RTVSPost2010PropOp49
 70
     1
102
RTVSPost2010Prop50
 90
       50
102
RTVSPost2010PropOp50
 70
     1
102
RTVSPost2010Prop51ColorIndex
 90
      256
102
RTVSPost2010Prop51ColorRGB
 90
-16777216
102
RTVSPost2010PropOp51
 70
     0
102
RTVSPost2010Prop52
140
1.0
102
RTVSPost2010PropOp52
 70
     0
102
RTVSPost2010Prop53
 90
        2
102
RTVSPost2010PropOp53
 70
     1
102
RTVSPost2010Prop54
  1
strokes_ogs.tif
102
RTVSPost2010PropOp54
 70
     1
102
RTVSPost2010Prop55
280
     0
102
RTVSPost2010PropOp55
 70
     1
102
RTVSPost2010Prop56
140
1.0
102
RTVSPost2010PropOp56
 70
     1
102
RTVSPost2010Prop57
140
1.0
102
RTVSPost2010PropOp57
 70
     1
  0
XRECORD
  5
16F
102
{ACAD_REACTORS
330
16E
102
}
330
16E
100
AcDbXrecord
280
     1
102
RTVSPost2010Prop28
280
     0
102
RTVSPost2010PropOp28
 70
     1
102
RTVSPost2010Prop29
280
     1
102
RTVSPost2010PropOp29
 70
     1
102
RTVSPost2010Prop30
280
     1
102
RTVSPost2010PropOp30
 70
     1
102
RTVSPost2010Prop31
280
     0
102
RTVSPost2010PropOp31
 70
     1
102
RTVSPost2010Prop32
280
     0
102
RTVSPost2010PropOp32
 70
     1
102
RTVSPost2010Prop33
280
     0
102
RTVSPost2010PropOp33
 70
     1
102
RTVSPost2010Prop34
280
     0
102
RTVSPost2010PropOp34
 70
     1
102
RTVSPost2010Prop35
280
     0
102
RTVSPost2010PropOp35
 70
     1
102
RTVSPost2010Prop36
280
     0
102
RTVSPost2010PropOp36
 70
     1
102
RTVSPost2010Prop37
 90
       50
102
RTVSPost2010PropOp37
 70
     1
102
RTVSPost2010Prop38
140
0.0
102
RTVSPost2010PropOp38
 70
     1
102
RTVSPost2010Prop39
140
1.0
102
RTVSPost2010PropOp39
 70
     1
102
RTVSPost2010Prop40
 90
        0
102
RTVSPost2010PropOp40
 70
     1
102
RTVSPost2010Prop41ColorIndex
 90
       18
102
RTVSPost2010Prop41ColorRGB
 90
        0
102
RTVSPost2010PropOp41
 70
     1
102
RTVSPost2010Prop42
 90
       50
102
RTVSPost2010PropOp42
 70
     1
102
RTVSPost2010Prop43
 90
        3
102
RTVSPost2010PropOp43
 70
     1
102
RTVSPost2010Prop44ColorIndex
 90
        5
102
RTVSPost2010Prop44ColorRGB
 90
      255
102
RTVSPost2010PropOp44
 70
     1
102
RTVSPost2010Prop45
280
     0
102
RTVSPost2010PropOp45
 70
     1
102
RTVSPost2010Prop46
 90
       50
102
RTVSPost2010PropOp46
 70
     1
102
RTVSPost2010Prop47
 90
       50
102
RTVSPost2010PropOp47
 70
     1
102
RTVSPost2010Prop48
 90
       50
102
RTVSPost2010PropOp48
 70
     1
102
RTVSPost2010Prop49
280
     0
102
RTVSPost2010PropOp49
 70
     1
102
RTVSPost2010Prop50
 90
       50
102
RTVSPost2010PropOp50
 70
     1
102
RTVSPost2010Prop51ColorIndex
 90
      256
102
RTVSPost2010Prop51ColorRGB
 90
-16777216
102
RTVSPost2010PropOp51
 70
     0
102
RTVSPost2010Prop52
140
1.0
102
RTVSPost2010PropOp52
 70
     0
102
RTVSPost2010Prop53
 90
        2
102
RTVSPost2010PropOp53
 70
     1
102
RTVSPost2010Prop54
  1
strokes_ogs.tif
102
RTVSPost2010PropOp54
 70
     1
102
RTVSPost2010Prop55
280
     0
102
RTVSPost2010PropOp55
 70
     1
102
RTVSPost2010Prop56
140
1.0
102
RTVSPost2010PropOp56
 70
     1
102
RTVSPost2010Prop57
140
1.0
102
RTVSPost2010PropOp57
 70
     1
  0
XRECORD
  5
173
102
{ACAD_REACTORS
330
172
102
}
330
172
100
AcDbXrecord
280
     1
102
RTVSPost2010Prop28
280
     0
102
RTVSPost2010PropOp28
 70
     1
102
RTVSPost2010Prop29
280
     1
102
RTVSPost2010PropOp29
 70
     1
102
RTVSPost2010Prop30
280
     1
102
RTVSPost2010PropOp30
 70
     1
102
RTVSPost2010Prop31
280
     0
102
RTVSPost2010PropOp31
 70
     1
102
RTVSPost2010Prop32
280
     0
102
RTVSPost2010PropOp32
 70
     1
102
RTVSPost2010Prop33
280
     0
102
RTVSPost2010PropOp33
 70
     1
102
RTVSPost2010Prop34
280
     0
102
RTVSPost2010PropOp34
 70
     1
102
RTVSPost2010Prop35
280
     0
102
RTVSPost2010PropOp35
 70
     1
102
RTVSPost2010Prop36
280
     0
102
RTVSPost2010PropOp36
 70
     1
102
RTVSPost2010Prop37
 90
       50
102
RTVSPost2010PropOp37
 70
     1
102
RTVSPost2010Prop38
140
0.0
102
RTVSPost2010PropOp38
 70
     1
102
RTVSPost2010Prop39
140
1.0
102
RTVSPost2010PropOp39
 70
     1
102
RTVSPost2010Prop40
 90
        0
102
RTVSPost2010PropOp40
 70
     1
102
RTVSPost2010Prop41ColorIndex
 90
       18
102
RTVSPost2010Prop41ColorRGB
 90
        0
102
RTVSPost2010PropOp41
 70
     1
102
RTVSPost2010Prop42
 90
       50
102
RTVSPost2010PropOp42
 70
     1
102
RTVSPost2010Prop43
 90
        3
102
RTVSPost2010PropOp43
 70
     1
102
RTVSPost2010Prop44ColorIndex
 90
        5
102
RTVSPost2010Prop44ColorRGB
 90
      255
102
RTVSPost2010PropOp44
 70
     1
102
RTVSPost2010Prop45
280
     0
102
RTVSPost2010PropOp45
 70
     1
102
RTVSPost2010Prop46
 90
       50
102
RTVSPost2010PropOp46
 70
     1
102
RTVSPost2010Prop47
 90
       50
102
RTVSPost2010PropOp47
 70
     1
102
RTVSPost2010Prop48
 90
       50
102
RTVSPost2010PropOp48
 70
     1
102
RTVSPost2010Prop49
280
     0
102
RTVSPost2010PropOp49
 70
     1
102
RTVSPost2010Prop50
 90
       50
102
RTVSPost2010PropOp50
 70
     1
102
RTVSPost2010Prop51ColorIndex
 90
      256
102
RTVSPost2010Prop51ColorRGB
 90
-16777216
102
RTVSPost2010PropOp51
 70
     0
102
RTVSPost2010Prop52
140
1.0
102
RTVSPost2010PropOp52
 70
     0
102
RTVSPost2010Prop53
 90
        2
102
RTVSPost2010PropOp53
 70
     1
102
RTVSPost2010Prop54
  1
strokes_ogs.tif
102
RTVSPost2010PropOp54
 70
     1
102
RTVSPost2010Prop55
280
     0
102
RTVSPost2010PropOp55
 70
     1
102
RTVSPost2010Prop56
140
1.0
102
RTVSPost2010PropOp56
 70
     1
102
RTVSPost2010Prop57
140
1.0
102
RTVSPost2010PropOp57
 70
     1
  0
XRECORD
  5
18D
102
{ACAD_REACTORS
330
18C
102
}
330
18C
100
AcDbXrecord
280
     1
102
RTVSPost2010Prop28
280
     0
102
RTVSPost2010PropOp28
 70
     0
102
RTVSPost2010Prop29
280
     1
102
RTVSPost2010PropOp29
 70
     0
102
RTVSPost2010Prop30
280
     1
102
RTVSPost2010PropOp30
 70
     0
102
RTVSPost2010Prop31
280
     0
102
RTVSPost2010PropOp31
 70
     0
102
RTVSPost2010Prop32
280
     0
102
RTVSPost2010PropOp32
 70
     0
102
RTVSPost2010Prop33
280
     0
102
RTVSPost2010PropOp33
 70
     0
102
RTVSPost2010Prop34
280
     0
102
RTVSPost2010PropOp34
 70
     0
102
RTVSPost2010Prop35
280
     0
102
RTVSPost2010PropOp35
 70
     0
102
RTVSPost2010Prop36
280
     0
102
RTVSPost2010PropOp36
 70
     0
102
RTVSPost2010Prop37
 90
       50
102
RTVSPost2010PropOp37
 70
     0
102
RTVSPost2010Prop38
140
0.0
102
RTVSPost2010PropOp38
 70
     0
102
RTVSPost2010Prop39
140
1.0
102
RTVSPost2010PropOp39
 70
     0
102
RTVSPost2010Prop40
 90
        0
102
RTVSPost2010PropOp40
 70
     0
102
RTVSPost2010Prop41ColorIndex
 90
       18
102
RTVSPost2010Prop41ColorRGB
 90
        0
102
RTVSPost2010PropOp41
 70
     0
102
RTVSPost2010Prop42
 90
       50
102
RTVSPost2010PropOp42
 70
     0
102
RTVSPost2010Prop43
 90
        3
102
RTVSPost2010PropOp43
 70
     0
102
RTVSPost2010Prop44ColorIndex
 90
        5
102
RTVSPost2010Prop44ColorRGB
 90
      255
102
RTVSPost2010PropOp44
 70
     0
102
RTVSPost2010Prop45
280
     0
102
RTVSPost2010PropOp45
 70
     0
102
RTVSPost2010Prop46
 90
       50
102
RTVSPost2010PropOp46
 70
     0
102
RTVSPost2010Prop47
 90
       50
102
RTVSPost2010PropOp47
 70
     0
102
RTVSPost2010Prop48
 90
       50
102
RTVSPost2010PropOp48
 70
     0
102
RTVSPost2010Prop49
280
     0
102
RTVSPost2010PropOp49
 70
     0
102
RTVSPost2010Prop50
 90
       50
102
RTVSPost2010PropOp50
 70
     0
102
RTVSPost2010Prop51ColorIndex
 90
      256
102
RTVSPost2010Prop51ColorRGB
 90
-16777216
102
RTVSPost2010PropOp51
 70
     0
102
RTVSPost2010Prop52
140
1.0
102
RTVSPost2010PropOp52
 70
     0
102
RTVSPost2010Prop53
 90
        2
102
RTVSPost2010PropOp53
 70
     0
102
RTVSPost2010Prop54
  1
strokes_ogs.tif
102
RTVSPost2010PropOp54
 70
     0
102
RTVSPost2010Prop55
280
     0
102
RTVSPost2010PropOp55
 70
     0
102
RTVSPost2010Prop56
140
1.0
102
RTVSPost2010PropOp56
 70
     0
102
RTVSPost2010Prop57
140
1.0
102
RTVSPost2010PropOp57
 70
     0
  0
XRECORD
  5
17B
102
{ACAD_REACTORS
330
17A
102
}
330
17A
100
AcDbXrecord
280
     1
102
RTVSPost2010Prop28
280
     0
102
RTVSPost2010PropOp28
 70
     1
102
RTVSPost2010Prop29
280
     1
102
RTVSPost2010PropOp29
 70
     1
102
RTVSPost2010Prop30
280
     1
102
RTVSPost2010PropOp30
 70
     1
102
RTVSPost2010Prop31
280
     0
102
RTVSPost2010PropOp31
 70
     1
102
RTVSPost2010Prop32
280
     0
102
RTVSPost2010PropOp32
 70
     1
102
RTVSPost2010Prop33
280
     0
102
RTVSPost2010PropOp33
 70
     1
102
RTVSPost2010Prop34
280
     0
102
RTVSPost2010PropOp34
 70
     1
102
RTVSPost2010Prop35
280
     0
102
RTVSPost2010PropOp35
 70
     1
102
RTVSPost2010Prop36
280
     0
102
RTVSPost2010PropOp36
 70
     1
102
RTVSPost2010Prop37
 90
       50
102
RTVSPost2010PropOp37
 70
     1
102
RTVSPost2010Prop38
140
0.0
102
RTVSPost2010PropOp38
 70
     1
102
RTVSPost2010Prop39
140
1.0
102
RTVSPost2010PropOp39
 70
     1
102
RTVSPost2010Prop40
 90
        0
102
RTVSPost2010PropOp40
 70
     1
102
RTVSPost2010Prop41ColorIndex
 90
       18
102
RTVSPost2010Prop41ColorRGB
 90
        0
102
RTVSPost2010PropOp41
 70
     1
102
RTVSPost2010Prop42
 90
       50
102
RTVSPost2010PropOp42
 70
     1
102
RTVSPost2010Prop43
 90
        3
102
RTVSPost2010PropOp43
 70
     1
102
RTVSPost2010Prop44ColorIndex
 90
        5
102
RTVSPost2010Prop44ColorRGB
 90
      255
102
RTVSPost2010PropOp44
 70
     1
102
RTVSPost2010Prop45
280
     0
102
RTVSPost2010PropOp45
 70
     1
102
RTVSPost2010Prop46
 90
       50
102
RTVSPost2010PropOp46
 70
     1
102
RTVSPost2010Prop47
 90
       50
102
RTVSPost2010PropOp47
 70
     1
102
RTVSPost2010Prop48
 90
       50
102
RTVSPost2010PropOp48
 70
     1
102
RTVSPost2010Prop49
280
     0
102
RTVSPost2010PropOp49
 70
     1
102
RTVSPost2010Prop50
 90
       50
102
RTVSPost2010PropOp50
 70
     1
102
RTVSPost2010Prop51ColorIndex
 90
      256
102
RTVSPost2010Prop51ColorRGB
 90
-16777216
102
RTVSPost2010PropOp51
 70
     0
102
RTVSPost2010Prop52
140
1.0
102
RTVSPost2010PropOp52
 70
     0
102
RTVSPost2010Prop53
 90
        2
102
RTVSPost2010PropOp53
 70
     1
102
RTVSPost2010Prop54
  1
strokes_ogs.tif
102
RTVSPost2010PropOp54
 70
     1
102
RTVSPost2010Prop55
280
     0
102
RTVSPost2010PropOp55
 70
     1
102
RTVSPost2010Prop56
140
1.0
102
RTVSPost2010PropOp56
 70
     1
102
RTVSPost2010Prop57
140
1.0
102
RTVSPost2010PropOp57
 70
     1
  0
XRECORD
  5
15F
102
{ACAD_REACTORS
330
15E
102
}
330
15E
100
AcDbXrecord
280
     1
102
RTVSPost2010Prop28
280
     0
102
RTVSPost2010PropOp28
 70
     1
102
RTVSPost2010Prop29
280
     1
102
RTVSPost2010PropOp29
 70
     1
102
RTVSPost2010Prop30
280
     1
102
RTVSPost2010PropOp30
 70
     1
102
RTVSPost2010Prop31
280
     0
102
RTVSPost2010PropOp31
 70
     1
102
RTVSPost2010Prop32
280
     0
102
RTVSPost2010PropOp32
 70
     1
102
RTVSPost2010Prop33
280
     0
102
RTVSPost2010PropOp33
 70
     1
102
RTVSPost2010Prop34
280
     0
102
RTVSPost2010PropOp34
 70
     1
102
RTVSPost2010Prop35
280
     0
102
RTVSPost2010PropOp35
 70
     1
102
RTVSPost2010Prop36
280
     0
102
RTVSPost2010PropOp36
 70
     1
102
RTVSPost2010Prop37
 90
       50
102
RTVSPost2010PropOp37
 70
     1
102
RTVSPost2010Prop38
140
0.0
102
RTVSPost2010PropOp38
 70
     1
102
RTVSPost2010Prop39
140
1.0
102
RTVSPost2010PropOp39
 70
     1
102
RTVSPost2010Prop40
 90
        0
102
RTVSPost2010PropOp40
 70
     1
102
RTVSPost2010Prop41ColorIndex
 90
       18
102
RTVSPost2010Prop41ColorRGB
 90
        0
102
RTVSPost2010PropOp41
 70
     1
102
RTVSPost2010Prop42
 90
       50
102
RTVSPost2010PropOp42
 70
     1
102
RTVSPost2010Prop43
 90
        3
102
RTVSPost2010PropOp43
 70
     1
102
RTVSPost2010Prop44ColorIndex
 90
        5
102
RTVSPost2010Prop44ColorRGB
 90
      255
102
RTVSPost2010PropOp44
 70
     1
102
RTVSPost2010Prop45
280
     0
102
RTVSPost2010PropOp45
 70
     1
102
RTVSPost2010Prop46
 90
       50
102
RTVSPost2010PropOp46
 70
     1
102
RTVSPost2010Prop47
 90
       50
102
RTVSPost2010PropOp47
 70
     1
102
RTVSPost2010Prop48
 90
       50
102
RTVSPost2010PropOp48
 70
     1
102
RTVSPost2010Prop49
280
     0
102
RTVSPost2010PropOp49
 70
     1
102
RTVSPost2010Prop50
 90
       50
102
RTVSPost2010PropOp50
 70
     1
102
RTVSPost2010Prop51ColorIndex
 90
      256
102
RTVSPost2010Prop51ColorRGB
 90
-16777216
102
RTVSPost2010PropOp51
 70
     0
102
RTVSPost2010Prop52
140
1.0
102
RTVSPost2010PropOp52
 70
     0
102
RTVSPost2010Prop53
 90
        2
102
RTVSPost2010PropOp53
 70
     1
102
RTVSPost2010Prop54
  1
strokes_ogs.tif
102
RTVSPost2010PropOp54
 70
     1
102
RTVSPost2010Prop55
280
     0
102
RTVSPost2010PropOp55
 70
     1
102
RTVSPost2010Prop56
140
1.0
102
RTVSPost2010PropOp56
 70
     1
102
RTVSPost2010Prop57
140
1.0
102
RTVSPost2010PropOp57
 70
     1
  0
XRECORD
  5
161
102
{ACAD_REACTORS
330
160
102
}
330
160
100
AcDbXrecord
280
     1
102
RTVSPost2010Prop28
280
     0
102
RTVSPost2010PropOp28
 70
     1
102
RTVSPost2010Prop29
280
     1
102
RTVSPost2010PropOp29
 70
     1
102
RTVSPost2010Prop30
280
     1
102
RTVSPost2010PropOp30
 70
     1
102
RTVSPost2010Prop31
280
     0
102
RTVSPost2010PropOp31
 70
     1
102
RTVSPost2010Prop32
280
     0
102
RTVSPost2010PropOp32
 70
     1
102
RTVSPost2010Prop33
280
     0
102
RTVSPost2010PropOp33
 70
     1
102
RTVSPost2010Prop34
280
     0
102
RTVSPost2010PropOp34
 70
     1
102
RTVSPost2010Prop35
280
     0
102
RTVSPost2010PropOp35
 70
     1
102
RTVSPost2010Prop36
280
     0
102
RTVSPost2010PropOp36
 70
     1
102
RTVSPost2010Prop37
 90
       50
102
RTVSPost2010PropOp37
 70
     1
102
RTVSPost2010Prop38
140
0.0
102
RTVSPost2010PropOp38
 70
     1
102
RTVSPost2010Prop39
140
1.0
102
RTVSPost2010PropOp39
 70
     1
102
RTVSPost2010Prop40
 90
        0
102
RTVSPost2010PropOp40
 70
     1
102
RTVSPost2010Prop41ColorIndex
 90
       18
102
RTVSPost2010Prop41ColorRGB
 90
        0
102
RTVSPost2010PropOp41
 70
     1
102
RTVSPost2010Prop42
 90
       50
102
RTVSPost2010PropOp42
 70
     1
102
RTVSPost2010Prop43
 90
        3
102
RTVSPost2010PropOp43
 70
     1
102
RTVSPost2010Prop44ColorIndex
 90
        5
102
RTVSPost2010Prop44ColorRGB
 90
      255
102
RTVSPost2010PropOp44
 70
     1
102
RTVSPost2010Prop45
280
     0
102
RTVSPost2010PropOp45
 70
     1
102
RTVSPost2010Prop46
 90
       50
102
RTVSPost2010PropOp46
 70
     1
102
RTVSPost2010Prop47
 90
       50
102
RTVSPost2010PropOp47
 70
     1
102
RTVSPost2010Prop48
 90
       50
102
RTVSPost2010PropOp48
 70
     1
102
RTVSPost2010Prop49
280
     0
102
RTVSPost2010PropOp49
 70
     1
102
RTVSPost2010Prop50
 90
       50
102
RTVSPost2010PropOp50
 70
     1
102
RTVSPost2010Prop51ColorIndex
 90
      256
102
RTVSPost2010Prop51ColorRGB
 90
-16777216
102
RTVSPost2010PropOp51
 70
     0
102
RTVSPost2010Prop52
140
1.0
102
RTVSPost2010PropOp52
 70
     0
102
RTVSPost2010Prop53
 90
        2
102
RTVSPost2010PropOp53
 70
     1
102
RTVSPost2010Prop54
  1
strokes_ogs.tif
102
RTVSPost2010PropOp54
 70
     1
102
RTVSPost2010Prop55
280
     0
102
RTVSPost2010PropOp55
 70
     1
102
RTVSPost2010Prop56
140
1.0
102
RTVSPost2010PropOp56
 70
     1
102
RTVSPost2010Prop57
140
1.0
102
RTVSPost2010PropOp57
 70
     1
  0
XRECORD
  5
163
102
{ACAD_REACTORS
330
162
102
}
330
162
100
AcDbXrecord
280
     1
102
RTVSPost2010Prop28
280
     0
102
RTVSPost2010PropOp28
 70
     1
102
RTVSPost2010Prop29
280
     1
102
RTVSPost2010PropOp29
 70
     1
102
RTVSPost2010Prop30
280
     1
102
RTVSPost2010PropOp30
 70
     1
102
RTVSPost2010Prop31
280
     0
102
RTVSPost2010PropOp31
 70
     1
102
RTVSPost2010Prop32
280
     0
102
RTVSPost2010PropOp32
 70
     1
102
RTVSPost2010Prop33
280
     0
102
RTVSPost2010PropOp33
 70
     1
102
RTVSPost2010Prop34
280
     0
102
RTVSPost2010PropOp34
 70
     1
102
RTVSPost2010Prop35
280
     0
102
RTVSPost2010PropOp35
 70
     1
102
RTVSPost2010Prop36
280
     0
102
RTVSPost2010PropOp36
 70
     1
102
RTVSPost2010Prop37
 90
       50
102
RTVSPost2010PropOp37
 70
     1
102
RTVSPost2010Prop38
140
0.0
102
RTVSPost2010PropOp38
 70
     1
102
RTVSPost2010Prop39
140
1.0
102
RTVSPost2010PropOp39
 70
     1
102
RTVSPost2010Prop40
 90
        0
102
RTVSPost2010PropOp40
 70
     1
102
RTVSPost2010Prop41ColorIndex
 90
       18
102
RTVSPost2010Prop41ColorRGB
 90
        0
102
RTVSPost2010PropOp41
 70
     1
102
RTVSPost2010Prop42
 90
       50
102
RTVSPost2010PropOp42
 70
     1
102
RTVSPost2010Prop43
 90
        3
102
RTVSPost2010PropOp43
 70
     1
102
RTVSPost2010Prop44ColorIndex
 90
        5
102
RTVSPost2010Prop44ColorRGB
 90
      255
102
RTVSPost2010PropOp44
 70
     1
102
RTVSPost2010Prop45
280
     0
102
RTVSPost2010PropOp45
 70
     1
102
RTVSPost2010Prop46
 90
       50
102
RTVSPost2010PropOp46
 70
     1
102
RTVSPost2010Prop47
 90
       50
102
RTVSPost2010PropOp47
 70
     1
102
RTVSPost2010Prop48
 90
       50
102
RTVSPost2010PropOp48
 70
     1
102
RTVSPost2010Prop49
280
     0
102
RTVSPost2010PropOp49
 70
     1
102
RTVSPost2010Prop50
 90
       50
102
RTVSPost2010PropOp50
 70
     1
102
RTVSPost2010Prop51ColorIndex
 90
      256
102
RTVSPost2010Prop51ColorRGB
 90
-16777216
102
RTVSPost2010PropOp51
 70
     0
102
RTVSPost2010Prop52
140
1.0
102
RTVSPost2010PropOp52
 70
     0
102
RTVSPost2010Prop53
 90
        2
102
RTVSPost2010PropOp53
 70
     1
102
RTVSPost2010Prop54
  1
strokes_ogs.tif
102
RTVSPost2010PropOp54
 70
     1
102
RTVSPost2010Prop55
280
     0
102
RTVSPost2010PropOp55
 70
     1
102
RTVSPost2010Prop56
140
1.0
102
RTVSPost2010PropOp56
 70
     1
102
RTVSPost2010Prop57
140
1.0
102
RTVSPost2010PropOp57
 70
     1
  0
XRECORD
  5
165
102
{ACAD_REACTORS
330
164
102
}
330
164
100
AcDbXrecord
280
     1
102
RTVSPost2010Prop28
280
     0
102
RTVSPost2010PropOp28
 70
     1
102
RTVSPost2010Prop29
280
     1
102
RTVSPost2010PropOp29
 70
     1
102
RTVSPost2010Prop30
280
     1
102
RTVSPost2010PropOp30
 70
     1
102
RTVSPost2010Prop31
280
     0
102
RTVSPost2010PropOp31
 70
     1
102
RTVSPost2010Prop32
280
     0
102
RTVSPost2010PropOp32
 70
     1
102
RTVSPost2010Prop33
280
     0
102
RTVSPost2010PropOp33
 70
     1
102
RTVSPost2010Prop34
280
     0
102
RTVSPost2010PropOp34
 70
     1
102
RTVSPost2010Prop35
280
     0
102
RTVSPost2010PropOp35
 70
     1
102
RTVSPost2010Prop36
280
     0
102
RTVSPost2010PropOp36
 70
     1
102
RTVSPost2010Prop37
 90
       50
102
RTVSPost2010PropOp37
 70
     1
102
RTVSPost2010Prop38
140
0.0
102
RTVSPost2010PropOp38
 70
     1
102
RTVSPost2010Prop39
140
1.0
102
RTVSPost2010PropOp39
 70
     1
102
RTVSPost2010Prop40
 90
        0
102
RTVSPost2010PropOp40
 70
     1
102
RTVSPost2010Prop41ColorIndex
 90
       18
102
RTVSPost2010Prop41ColorRGB
 90
        0
102
RTVSPost2010PropOp41
 70
     1
102
RTVSPost2010Prop42
 90
       50
102
RTVSPost2010PropOp42
 70
     1
102
RTVSPost2010Prop43
 90
        3
102
RTVSPost2010PropOp43
 70
     1
102
RTVSPost2010Prop44ColorIndex
 90
        5
102
RTVSPost2010Prop44ColorRGB
 90
      255
102
RTVSPost2010PropOp44
 70
     1
102
RTVSPost2010Prop45
280
     0
102
RTVSPost2010PropOp45
 70
     1
102
RTVSPost2010Prop46
 90
       50
102
RTVSPost2010PropOp46
 70
     1
102
RTVSPost2010Prop47
 90
       50
102
RTVSPost2010PropOp47
 70
     1
102
RTVSPost2010Prop48
 90
       50
102
RTVSPost2010PropOp48
 70
     1
102
RTVSPost2010Prop49
280
     0
102
RTVSPost2010PropOp49
 70
     1
102
RTVSPost2010Prop50
 90
       50
102
RTVSPost2010PropOp50
 70
     1
102
RTVSPost2010Prop51ColorIndex
 90
      256
102
RTVSPost2010Prop51ColorRGB
 90
-16777216
102
RTVSPost2010PropOp51
 70
     0
102
RTVSPost2010Prop52
140
1.0
102
RTVSPost2010PropOp52
 70
     0
102
RTVSPost2010Prop53
 90
        2
102
RTVSPost2010PropOp53
 70
     1
102
RTVSPost2010Prop54
  1
strokes_ogs.tif
102
RTVSPost2010PropOp54
 70
     1
102
RTVSPost2010Prop55
280
     0
102
RTVSPost2010PropOp55
 70
     1
102
RTVSPost2010Prop56
140
1.0
102
RTVSPost2010PropOp56
 70
     1
102
RTVSPost2010Prop57
140
1.0
102
RTVSPost2010PropOp57
 70
     1
  0
XRECORD
  5
16D
102
{ACAD_REACTORS
330
16C
102
}
330
16C
100
AcDbXrecord
280
     1
102
RTVSPost2010Prop28
280
     0
102
RTVSPost2010PropOp28
 70
     1
102
RTVSPost2010Prop29
280
     1
102
RTVSPost2010PropOp29
 70
     1
102
RTVSPost2010Prop30
280
     1
102
RTVSPost2010PropOp30
 70
     1
102
RTVSPost2010Prop31
280
     0
102
RTVSPost2010PropOp31
 70
     1
102
RTVSPost2010Prop32
280
     0
102
RTVSPost2010PropOp32
 70
     1
102
RTVSPost2010Prop33
280
     0
102
RTVSPost2010PropOp33
 70
     1
102
RTVSPost2010Prop34
280
     0
102
RTVSPost2010PropOp34
 70
     1
102
RTVSPost2010Prop35
280
     0
102
RTVSPost2010PropOp35
 70
     1
102
RTVSPost2010Prop36
280
     0
102
RTVSPost2010PropOp36
 70
     1
102
RTVSPost2010Prop37
 90
       50
102
RTVSPost2010PropOp37
 70
     1
102
RTVSPost2010Prop38
140
0.0
102
RTVSPost2010PropOp38
 70
     1
102
RTVSPost2010Prop39
140
1.0
102
RTVSPost2010PropOp39
 70
     1
102
RTVSPost2010Prop40
 90
        0
102
RTVSPost2010PropOp40
 70
     1
102
RTVSPost2010Prop41ColorIndex
 90
       18
102
RTVSPost2010Prop41ColorRGB
 90
        0
102
RTVSPost2010PropOp41
 70
     1
102
RTVSPost2010Prop42
 90
       50
102
RTVSPost2010PropOp42
 70
     1
102
RTVSPost2010Prop43
 90
        3
102
RTVSPost2010PropOp43
 70
     1
102
RTVSPost2010Prop44ColorIndex
 90
        5
102
RTVSPost2010Prop44ColorRGB
 90
      255
102
RTVSPost2010PropOp44
 70
     1
102
RTVSPost2010Prop45
280
     0
102
RTVSPost2010PropOp45
 70
     1
102
RTVSPost2010Prop46
 90
       50
102
RTVSPost2010PropOp46
 70
     1
102
RTVSPost2010Prop47
 90
       50
102
RTVSPost2010PropOp47
 70
     1
102
RTVSPost2010Prop48
 90
       50
102
RTVSPost2010PropOp48
 70
     1
102
RTVSPost2010Prop49
280
     0
102
RTVSPost2010PropOp49
 70
     1
102
RTVSPost2010Prop50
 90
       50
102
RTVSPost2010PropOp50
 70
     1
102
RTVSPost2010Prop51ColorIndex
 90
      256
102
RTVSPost2010Prop51ColorRGB
 90
-16777216
102
RTVSPost2010PropOp51
 70
     0
102
RTVSPost2010Prop52
140
1.0
102
RTVSPost2010PropOp52
 70
     0
102
RTVSPost2010Prop53
 90
        2
102
RTVSPost2010PropOp53
 70
     1
102
RTVSPost2010Prop54
  1
strokes_ogs.tif
102
RTVSPost2010PropOp54
 70
     1
102
RTVSPost2010Prop55
280
     0
102
RTVSPost2010PropOp55
 70
     1
102
RTVSPost2010Prop56
140
1.0
102
RTVSPost2010PropOp56
 70
     1
102
RTVSPost2010Prop57
140
1.0
102
RTVSPost2010PropOp57
 70
     1
  0
XRECORD
  5
189
102
{ACAD_REACTORS
330
188
102
}
330
188
100
AcDbXrecord
280
     1
102
RTVSPost2010Prop28
280
     0
102
RTVSPost2010PropOp28
 70
     0
102
RTVSPost2010Prop29
280
     1
102
RTVSPost2010PropOp29
 70
     0
102
RTVSPost2010Prop30
280
     1
102
RTVSPost2010PropOp30
 70
     0
102
RTVSPost2010Prop31
280
     0
102
RTVSPost2010PropOp31
 70
     0
102
RTVSPost2010Prop32
280
     0
102
RTVSPost2010PropOp32
 70
     0
102
RTVSPost2010Prop33
280
     0
102
RTVSPost2010PropOp33
 70
     0
102
RTVSPost2010Prop34
280
     0
102
RTVSPost2010PropOp34
 70
     0
102
RTVSPost2010Prop35
280
     0
102
RTVSPost2010PropOp35
 70
     0
102
RTVSPost2010Prop36
280
     0
102
RTVSPost2010PropOp36
 70
     0
102
RTVSPost2010Prop37
 90
       50
102
RTVSPost2010PropOp37
 70
     0
102
RTVSPost2010Prop38
140
0.0
102
RTVSPost2010PropOp38
 70
     0
102
RTVSPost2010Prop39
140
1.0
102
RTVSPost2010PropOp39
 70
     0
102
RTVSPost2010Prop40
 90
        0
102
RTVSPost2010PropOp40
 70
     0
102
RTVSPost2010Prop41ColorIndex
 90
       18
102
RTVSPost2010Prop41ColorRGB
 90
        0
102
RTVSPost2010PropOp41
 70
     0
102
RTVSPost2010Prop42
 90
       50
102
RTVSPost2010PropOp42
 70
     0
102
RTVSPost2010Prop43
 90
        3
102
RTVSPost2010PropOp43
 70
     0
102
RTVSPost2010Prop44ColorIndex
 90
        5
102
RTVSPost2010Prop44ColorRGB
 90
      255
102
RTVSPost2010PropOp44
 70
     0
102
RTVSPost2010Prop45
280
     0
102
RTVSPost2010PropOp45
 70
     0
102
RTVSPost2010Prop46
 90
       50
102
RTVSPost2010PropOp46
 70
     0
102
RTVSPost2010Prop47
 90
       50
102
RTVSPost2010PropOp47
 70
     0
102
RTVSPost2010Prop48
 90
       50
102
RTVSPost2010PropOp48
 70
     0
102
RTVSPost2010Prop49
280
     0
102
RTVSPost2010PropOp49
 70
     0
102
RTVSPost2010Prop50
 90
       50
102
RTVSPost2010PropOp50
 70
     0
102
RTVSPost2010Prop51ColorIndex
 90
      256
102
RTVSPost2010Prop51ColorRGB
 90
-16777216
102
RTVSPost2010PropOp51
 70
     0
102
RTVSPost2010Prop52
140
1.0
102
RTVSPost2010PropOp52
 70
     0
102
RTVSPost2010Prop53
 90
        2
102
RTVSPost2010PropOp53
 70
     0
102
RTVSPost2010Prop54
  1
strokes_ogs.tif
102
RTVSPost2010PropOp54
 70
     0
102
RTVSPost2010Prop55
280
     0
102
RTVSPost2010PropOp55
 70
     0
102
RTVSPost2010Prop56
140
1.0
102
RTVSPost2010PropOp56
 70
     0
102
RTVSPost2010Prop57
140
1.0
102
RTVSPost2010PropOp57
 70
     0
  0
XRECORD
  5
179
102
{ACAD_REACTORS
330
178
102
}
330
178
100
AcDbXrecord
280
     1
102
RTVSPost2010Prop28
280
     0
102
RTVSPost2010PropOp28
 70
     1
102
RTVSPost2010Prop29
280
     1
102
RTVSPost2010PropOp29
 70
     1
102
RTVSPost2010Prop30
280
     1
102
RTVSPost2010PropOp30
 70
     1
102
RTVSPost2010Prop31
280
     0
102
RTVSPost2010PropOp31
 70
     1
102
RTVSPost2010Prop32
280
     0
102
RTVSPost2010PropOp32
 70
     1
102
RTVSPost2010Prop33
280
     0
102
RTVSPost2010PropOp33
 70
     1
102
RTVSPost2010Prop34
280
     0
102
RTVSPost2010PropOp34
 70
     1
102
RTVSPost2010Prop35
280
     0
102
RTVSPost2010PropOp35
 70
     1
102
RTVSPost2010Prop36
280
     0
102
RTVSPost2010PropOp36
 70
     1
102
RTVSPost2010Prop37
 90
       50
102
RTVSPost2010PropOp37
 70
     1
102
RTVSPost2010Prop38
140
0.0
102
RTVSPost2010PropOp38
 70
     1
102
RTVSPost2010Prop39
140
1.0
102
RTVSPost2010PropOp39
 70
     1
102
RTVSPost2010Prop40
 90
        0
102
RTVSPost2010PropOp40
 70
     1
102
RTVSPost2010Prop41ColorIndex
 90
       18
102
RTVSPost2010Prop41ColorRGB
 90
        0
102
RTVSPost2010PropOp41
 70
     1
102
RTVSPost2010Prop42
 90
       50
102
RTVSPost2010PropOp42
 70
     1
102
RTVSPost2010Prop43
 90
        3
102
RTVSPost2010PropOp43
 70
     1
102
RTVSPost2010Prop44ColorIndex
 90
        5
102
RTVSPost2010Prop44ColorRGB
 90
      255
102
RTVSPost2010PropOp44
 70
     1
102
RTVSPost2010Prop45
280
     0
102
RTVSPost2010PropOp45
 70
     1
102
RTVSPost2010Prop46
 90
       50
102
RTVSPost2010PropOp46
 70
     1
102
RTVSPost2010Prop47
 90
       50
102
RTVSPost2010PropOp47
 70
     1
102
RTVSPost2010Prop48
 90
       50
102
RTVSPost2010PropOp48
 70
     1
102
RTVSPost2010Prop49
280
     0
102
RTVSPost2010PropOp49
 70
     1
102
RTVSPost2010Prop50
 90
       50
102
RTVSPost2010PropOp50
 70
     1
102
RTVSPost2010Prop51ColorIndex
 90
      256
102
RTVSPost2010Prop51ColorRGB
 90
-16777216
102
RTVSPost2010PropOp51
 70
     0
102
RTVSPost2010Prop52
140
1.0
102
RTVSPost2010PropOp52
 70
     0
102
RTVSPost2010Prop53
 90
        2
102
RTVSPost2010PropOp53
 70
     1
102
RTVSPost2010Prop54
  1
strokes_ogs.tif
102
RTVSPost2010PropOp54
 70
     1
102
RTVSPost2010Prop55
280
     0
102
RTVSPost2010PropOp55
 70
     1
102
RTVSPost2010Prop56
140
1.0
102
RTVSPost2010PropOp56
 70
     1
102
RTVSPost2010Prop57
140
1.0
102
RTVSPost2010PropOp57
 70
     1
  0
XRECORD
  5
18B
102
{ACAD_REACTORS
330
18A
102
}
330
18A
100
AcDbXrecord
280
     1
102
RTVSPost2010Prop28
280
     0
102
RTVSPost2010PropOp28
 70
     0
102
RTVSPost2010Prop29
280
     1
102
RTVSPost2010PropOp29
 70
     0
102
RTVSPost2010Prop30
280
     1
102
RTVSPost2010PropOp30
 70
     0
102
RTVSPost2010Prop31
280
     0
102
RTVSPost2010PropOp31
 70
     0
102
RTVSPost2010Prop32
280
     0
102
RTVSPost2010PropOp32
 70
     0
102
RTVSPost2010Prop33
280
     0
102
RTVSPost2010PropOp33
 70
     0
102
RTVSPost2010Prop34
280
     0
102
RTVSPost2010PropOp34
 70
     0
102
RTVSPost2010Prop35
280
     0
102
RTVSPost2010PropOp35
 70
     0
102
RTVSPost2010Prop36
280
     0
102
RTVSPost2010PropOp36
 70
     0
102
RTVSPost2010Prop37
 90
       50
102
RTVSPost2010PropOp37
 70
     0
102
RTVSPost2010Prop38
140
0.0
102
RTVSPost2010PropOp38
 70
     0
102
RTVSPost2010Prop39
140
1.0
102
RTVSPost2010PropOp39
 70
     0
102
RTVSPost2010Prop40
 90
        0
102
RTVSPost2010PropOp40
 70
     0
102
RTVSPost2010Prop41ColorIndex
 90
       18
102
RTVSPost2010Prop41ColorRGB
 90
        0
102
RTVSPost2010PropOp41
 70
     0
102
RTVSPost2010Prop42
 90
       50
102
RTVSPost2010PropOp42
 70
     0
102
RTVSPost2010Prop43
 90
        3
102
RTVSPost2010PropOp43
 70
     0
102
RTVSPost2010Prop44ColorIndex
 90
        5
102
RTVSPost2010Prop44ColorRGB
 90
      255
102
RTVSPost2010PropOp44
 70
     0
102
RTVSPost2010Prop45
280
     0
102
RTVSPost2010PropOp45
 70
     0
102
RTVSPost2010Prop46
 90
       50
102
RTVSPost2010PropOp46
 70
     0
102
RTVSPost2010Prop47
 90
       50
102
RTVSPost2010PropOp47
 70
     0
102
RTVSPost2010Prop48
 90
       50
102
RTVSPost2010PropOp48
 70
     0
102
RTVSPost2010Prop49
280
     0
102
RTVSPost2010PropOp49
 70
     0
102
RTVSPost2010Prop50
 90
       50
102
RTVSPost2010PropOp50
 70
     0
102
RTVSPost2010Prop51ColorIndex
 90
      256
102
RTVSPost2010Prop51ColorRGB
 90
-16777216
102
RTVSPost2010PropOp51
 70
     0
102
RTVSPost2010Prop52
140
1.0
102
RTVSPost2010PropOp52
 70
     0
102
RTVSPost2010Prop53
 90
        2
102
RTVSPost2010PropOp53
 70
     0
102
RTVSPost2010Prop54
  1
strokes_ogs.tif
102
RTVSPost2010PropOp54
 70
     0
102
RTVSPost2010Prop55
280
     0
102
RTVSPost2010PropOp55
 70
     0
102
RTVSPost2010Prop56
140
1.0
102
RTVSPost2010PropOp56
 70
     0
102
RTVSPost2010Prop57
140
1.0
102
RTVSPost2010PropOp57
 70
     0
  0
XRECORD
  5
171
102
{ACAD_REACTORS
330
170
102
}
330
170
100
AcDbXrecord
280
     1
102
RTVSPost2010Prop28
280
     0
102
RTVSPost2010PropOp28
 70
     1
102
RTVSPost2010Prop29
280
     1
102
RTVSPost2010PropOp29
 70
     1
102
RTVSPost2010Prop30
280
     1
102
RTVSPost2010PropOp30
 70
     1
102
RTVSPost2010Prop31
280
     0
102
RTVSPost2010PropOp31
 70
     1
102
RTVSPost2010Prop32
280
     0
102
RTVSPost2010PropOp32
 70
     1
102
RTVSPost2010Prop33
280
     0
102
RTVSPost2010PropOp33
 70
     1
102
RTVSPost2010Prop34
280
     0
102
RTVSPost2010PropOp34
 70
     1
102
RTVSPost2010Prop35
280
     0
102
RTVSPost2010PropOp35
 70
     1
102
RTVSPost2010Prop36
280
     0
102
RTVSPost2010PropOp36
 70
     1
102
RTVSPost2010Prop37
 90
       50
102
RTVSPost2010PropOp37
 70
     1
102
RTVSPost2010Prop38
140
0.0
102
RTVSPost2010PropOp38
 70
     1
102
RTVSPost2010Prop39
140
1.0
102
RTVSPost2010PropOp39
 70
     1
102
RTVSPost2010Prop40
 90
        0
102
RTVSPost2010PropOp40
 70
     1
102
RTVSPost2010Prop41ColorIndex
 90
       18
102
RTVSPost2010Prop41ColorRGB
 90
        0
102
RTVSPost2010PropOp41
 70
     1
102
RTVSPost2010Prop42
 90
       50
102
RTVSPost2010PropOp42
 70
     1
102
RTVSPost2010Prop43
 90
        3
102
RTVSPost2010PropOp43
 70
     1
102
RTVSPost2010Prop44ColorIndex
 90
        5
102
RTVSPost2010Prop44ColorRGB
 90
      255
102
RTVSPost2010PropOp44
 70
     1
102
RTVSPost2010Prop45
280
     0
102
RTVSPost2010PropOp45
 70
     1
102
RTVSPost2010Prop46
 90
       50
102
RTVSPost2010PropOp46
 70
     1
102
RTVSPost2010Prop47
 90
       50
102
RTVSPost2010PropOp47
 70
     1
102
RTVSPost2010Prop48
 90
       50
102
RTVSPost2010PropOp48
 70
     1
102
RTVSPost2010Prop49
280
     0
102
RTVSPost2010PropOp49
 70
     1
102
RTVSPost2010Prop50
 90
       50
102
RTVSPost2010PropOp50
 70
     1
102
RTVSPost2010Prop51ColorIndex
 90
      256
102
RTVSPost2010Prop51ColorRGB
 90
-16777216
102
RTVSPost2010PropOp51
 70
     0
102
RTVSPost2010Prop52
140
1.0
102
RTVSPost2010PropOp52
 70
     0
102
RTVSPost2010Prop53
 90
        2
102
RTVSPost2010PropOp53
 70
     1
102
RTVSPost2010Prop54
  1
strokes_ogs.tif
102
RTVSPost2010PropOp54
 70
     1
102
RTVSPost2010Prop55
280
     0
102
RTVSPost2010PropOp55
 70
     1
102
RTVSPost2010Prop56
140
1.0
102
RTVSPost2010PropOp56
 70
     1
102
RTVSPost2010Prop57
140
1.0
102
RTVSPost2010PropOp57
 70
     1
  0
XRECORD
  5
187
102
{ACAD_REACTORS
330
186
102
}
330
186
100
AcDbXrecord
280
     1
102
RTVSPost2010Prop28
280
     0
102
RTVSPost2010PropOp28
 70
     1
102
RTVSPost2010Prop29
280
     1
102
RTVSPost2010PropOp29
 70
     1
102
RTVSPost2010Prop30
280
     1
102
RTVSPost2010PropOp30
 70
     1
102
RTVSPost2010Prop31
280
     0
102
RTVSPost2010PropOp31
 70
     1
102
RTVSPost2010Prop32
280
     0
102
RTVSPost2010PropOp32
 70
     1
102
RTVSPost2010Prop33
280
     0
102
RTVSPost2010PropOp33
 70
     1
102
RTVSPost2010Prop34
280
     0
102
RTVSPost2010PropOp34
 70
     1
102
RTVSPost2010Prop35
280
     0
102
RTVSPost2010PropOp35
 70
     1
102
RTVSPost2010Prop36
280
     0
102
RTVSPost2010PropOp36
 70
     1
102
RTVSPost2010Prop37
 90
       50
102
RTVSPost2010PropOp37
 70
     1
102
RTVSPost2010Prop38
140
0.0
102
RTVSPost2010PropOp38
 70
     1
102
RTVSPost2010Prop39
140
1.0
102
RTVSPost2010PropOp39
 70
     1
102
RTVSPost2010Prop40
 90
        0
102
RTVSPost2010PropOp40
 70
     1
102
RTVSPost2010Prop41ColorIndex
 90
       18
102
RTVSPost2010Prop41ColorRGB
 90
        0
102
RTVSPost2010PropOp41
 70
     1
102
RTVSPost2010Prop42
 90
       50
102
RTVSPost2010PropOp42
 70
     1
102
RTVSPost2010Prop43
 90
        3
102
RTVSPost2010PropOp43
 70
     1
102
RTVSPost2010Prop44ColorIndex
 90
        5
102
RTVSPost2010Prop44ColorRGB
 90
      255
102
RTVSPost2010PropOp44
 70
     1
102
RTVSPost2010Prop45
280
     0
102
RTVSPost2010PropOp45
 70
     1
102
RTVSPost2010Prop46
 90
       50
102
RTVSPost2010PropOp46
 70
     1
102
RTVSPost2010Prop47
 90
       50
102
RTVSPost2010PropOp47
 70
     1
102
RTVSPost2010Prop48
 90
       50
102
RTVSPost2010PropOp48
 70
     1
102
RTVSPost2010Prop49
280
     0
102
RTVSPost2010PropOp49
 70
     1
102
RTVSPost2010Prop50
 90
       50
102
RTVSPost2010PropOp50
 70
     1
102
RTVSPost2010Prop51ColorIndex
 90
      256
102
RTVSPost2010Prop51ColorRGB
 90
-16777216
102
RTVSPost2010PropOp51
 70
     0
102
RTVSPost2010Prop52
140
1.0
102
RTVSPost2010PropOp52
 70
     0
102
RTVSPost2010Prop53
 90
        2
102
RTVSPost2010PropOp53
 70
     1
102
RTVSPost2010Prop54
  1
strokes_ogs.tif
102
RTVSPost2010PropOp54
 70
     1
102
RTVSPost2010Prop55
280
     0
102
RTVSPost2010PropOp55
 70
     1
102
RTVSPost2010Prop56
140
1.0
102
RTVSPost2010PropOp56
 70
     1
102
RTVSPost2010Prop57
140
1.0
102
RTVSPost2010PropOp57
 70
     1
  0
XRECORD
  5
185
102
{ACAD_REACTORS
330
184
102
}
330
184
100
AcDbXrecord
280
     1
102
RTVSPost2010Prop28
280
     0
102
RTVSPost2010PropOp28
 70
     1
102
RTVSPost2010Prop29
280
     1
102
RTVSPost2010PropOp29
 70
     1
102
RTVSPost2010Prop30
280
     1
102
RTVSPost2010PropOp30
 70
     1
102
RTVSPost2010Prop31
280
     0
102
RTVSPost2010PropOp31
 70
     1
102
RTVSPost2010Prop32
280
     0
102
RTVSPost2010PropOp32
 70
     1
102
RTVSPost2010Prop33
280
     0
102
RTVSPost2010PropOp33
 70
     1
102
RTVSPost2010Prop34
280
     0
102
RTVSPost2010PropOp34
 70
     1
102
RTVSPost2010Prop35
280
     0
102
RTVSPost2010PropOp35
 70
     1
102
RTVSPost2010Prop36
280
     0
102
RTVSPost2010PropOp36
 70
     1
102
RTVSPost2010Prop37
 90
       50
102
RTVSPost2010PropOp37
 70
     1
102
RTVSPost2010Prop38
140
0.0
102
RTVSPost2010PropOp38
 70
     1
102
RTVSPost2010Prop39
140
1.0
102
RTVSPost2010PropOp39
 70
     1
102
RTVSPost2010Prop40
 90
        0
102
RTVSPost2010PropOp40
 70
     1
102
RTVSPost2010Prop41ColorIndex
 90
       18
102
RTVSPost2010Prop41ColorRGB
 90
        0
102
RTVSPost2010PropOp41
 70
     1
102
RTVSPost2010Prop42
 90
       50
102
RTVSPost2010PropOp42
 70
     1
102
RTVSPost2010Prop43
 90
        3
102
RTVSPost2010PropOp43
 70
     1
102
RTVSPost2010Prop44ColorIndex
 90
        5
102
RTVSPost2010Prop44ColorRGB
 90
      255
102
RTVSPost2010PropOp44
 70
     1
102
RTVSPost2010Prop45
280
     0
102
RTVSPost2010PropOp45
 70
     1
102
RTVSPost2010Prop46
 90
       50
102
RTVSPost2010PropOp46
 70
     1
102
RTVSPost2010Prop47
 90
       50
102
RTVSPost2010PropOp47
 70
     1
102
RTVSPost2010Prop48
 90
       50
102
RTVSPost2010PropOp48
 70
     1
102
RTVSPost2010Prop49
280
     0
102
RTVSPost2010PropOp49
 70
     1
102
RTVSPost2010Prop50
 90
       50
102
RTVSPost2010PropOp50
 70
     1
102
RTVSPost2010Prop51ColorIndex
 90
      256
102
RTVSPost2010Prop51ColorRGB
 90
-16777216
102
RTVSPost2010PropOp51
 70
     0
102
RTVSPost2010Prop52
140
1.0
102
RTVSPost2010PropOp52
 70
     0
102
RTVSPost2010Prop53
 90
        2
102
RTVSPost2010PropOp53
 70
     1
102
RTVSPost2010Prop54
  1
strokes_ogs.tif
102
RTVSPost2010PropOp54
 70
     1
102
RTVSPost2010Prop55
280
     0
102
RTVSPost2010PropOp55
 70
     1
102
RTVSPost2010Prop56
140
1.0
102
RTVSPost2010PropOp56
 70
     1
102
RTVSPost2010Prop57
140
1.0
102
RTVSPost2010PropOp57
 70
     1
  0
XRECORD
  5
17F
102
{ACAD_REACTORS
330
17E
102
}
330
17E
100
AcDbXrecord
280
     1
102
RTVSPost2010Prop28
280
     0
102
RTVSPost2010PropOp28
 70
     1
102
RTVSPost2010Prop29
280
     1
102
RTVSPost2010PropOp29
 70
     1
102
RTVSPost2010Prop30
280
     1
102
RTVSPost2010PropOp30
 70
     1
102
RTVSPost2010Prop31
280
     0
102
RTVSPost2010PropOp31
 70
     1
102
RTVSPost2010Prop32
280
     0
102
RTVSPost2010PropOp32
 70
     1
102
RTVSPost2010Prop33
280
     0
102
RTVSPost2010PropOp33
 70
     1
102
RTVSPost2010Prop34
280
     0
102
RTVSPost2010PropOp34
 70
     1
102
RTVSPost2010Prop35
280
     0
102
RTVSPost2010PropOp35
 70
     1
102
RTVSPost2010Prop36
280
     0
102
RTVSPost2010PropOp36
 70
     1
102
RTVSPost2010Prop37
 90
       50
102
RTVSPost2010PropOp37
 70
     1
102
RTVSPost2010Prop38
140
0.0
102
RTVSPost2010PropOp38
 70
     1
102
RTVSPost2010Prop39
140
1.0
102
RTVSPost2010PropOp39
 70
     1
102
RTVSPost2010Prop40
 90
        0
102
RTVSPost2010PropOp40
 70
     1
102
RTVSPost2010Prop41ColorIndex
 90
       18
102
RTVSPost2010Prop41ColorRGB
 90
        0
102
RTVSPost2010PropOp41
 70
     1
102
RTVSPost2010Prop42
 90
       50
102
RTVSPost2010PropOp42
 70
     1
102
RTVSPost2010Prop43
 90
        3
102
RTVSPost2010PropOp43
 70
     1
102
RTVSPost2010Prop44ColorIndex
 90
        5
102
RTVSPost2010Prop44ColorRGB
 90
      255
102
RTVSPost2010PropOp44
 70
     1
102
RTVSPost2010Prop45
280
     0
102
RTVSPost2010PropOp45
 70
     1
102
RTVSPost2010Prop46
 90
       50
102
RTVSPost2010PropOp46
 70
     1
102
RTVSPost2010Prop47
 90
       50
102
RTVSPost2010PropOp47
 70
     1
102
RTVSPost2010Prop48
 90
       50
102
RTVSPost2010PropOp48
 70
     1
102
RTVSPost2010Prop49
280
     0
102
RTVSPost2010PropOp49
 70
     1
102
RTVSPost2010Prop50
 90
       50
102
RTVSPost2010PropOp50
 70
     1
102
RTVSPost2010Prop51ColorIndex
 90
      256
102
RTVSPost2010Prop51ColorRGB
 90
-16777216
102
RTVSPost2010PropOp51
 70
     0
102
RTVSPost2010Prop52
140
1.0
102
RTVSPost2010PropOp52
 70
     0
102
RTVSPost2010Prop53
 90
        2
102
RTVSPost2010PropOp53
 70
     1
102
RTVSPost2010Prop54
  1
strokes_ogs.tif
102
RTVSPost2010PropOp54
 70
     1
102
RTVSPost2010Prop55
280
     0
102
RTVSPost2010PropOp55
 70
     1
102
RTVSPost2010Prop56
140
1.0
102
RTVSPost2010PropOp56
 70
     1
102
RTVSPost2010Prop57
140
1.0
102
RTVSPost2010PropOp57
 70
     1
  0
XRECORD
  5
181
102
{ACAD_REACTORS
330
180
102
}
330
180
100
AcDbXrecord
280
     1
102
RTVSPost2010Prop28
280
     0
102
RTVSPost2010PropOp28
 70
     1
102
RTVSPost2010Prop29
280
     1
102
RTVSPost2010PropOp29
 70
     1
102
RTVSPost2010Prop30
280
     1
102
RTVSPost2010PropOp30
 70
     1
102
RTVSPost2010Prop31
280
     0
102
RTVSPost2010PropOp31
 70
     1
102
RTVSPost2010Prop32
280
     0
102
RTVSPost2010PropOp32
 70
     1
102
RTVSPost2010Prop33
280
     0
102
RTVSPost2010PropOp33
 70
     1
102
RTVSPost2010Prop34
280
     0
102
RTVSPost2010PropOp34
 70
     1
102
RTVSPost2010Prop35
280
     0
102
RTVSPost2010PropOp35
 70
     1
102
RTVSPost2010Prop36
280
     0
102
RTVSPost2010PropOp36
 70
     1
102
RTVSPost2010Prop37
 90
       50
102
RTVSPost2010PropOp37
 70
     1
102
RTVSPost2010Prop38
140
0.0
102
RTVSPost2010PropOp38
 70
     1
102
RTVSPost2010Prop39
140
1.0
102
RTVSPost2010PropOp39
 70
     1
102
RTVSPost2010Prop40
 90
        0
102
RTVSPost2010PropOp40
 70
     1
102
RTVSPost2010Prop41ColorIndex
 90
       18
102
RTVSPost2010Prop41ColorRGB
 90
        0
102
RTVSPost2010PropOp41
 70
     1
102
RTVSPost2010Prop42
 90
       50
102
RTVSPost2010PropOp42
 70
     1
102
RTVSPost2010Prop43
 90
        3
102
RTVSPost2010PropOp43
 70
     1
102
RTVSPost2010Prop44ColorIndex
 90
        5
102
RTVSPost2010Prop44ColorRGB
 90
      255
102
RTVSPost2010PropOp44
 70
     1
102
RTVSPost2010Prop45
280
     0
102
RTVSPost2010PropOp45
 70
     1
102
RTVSPost2010Prop46
 90
       50
102
RTVSPost2010PropOp46
 70
     1
102
RTVSPost2010Prop47
 90
       50
102
RTVSPost2010PropOp47
 70
     1
102
RTVSPost2010Prop48
 90
       50
102
RTVSPost2010PropOp48
 70
     1
102
RTVSPost2010Prop49
280
     0
102
RTVSPost2010PropOp49
 70
     1
102
RTVSPost2010Prop50
 90
       50
102
RTVSPost2010PropOp50
 70
     1
102
RTVSPost2010Prop51ColorIndex
 90
      256
102
RTVSPost2010Prop51ColorRGB
 90
-16777216
102
RTVSPost2010PropOp51
 70
     0
102
RTVSPost2010Prop52
140
1.0
102
RTVSPost2010PropOp52
 70
     0
102
RTVSPost2010Prop53
 90
        2
102
RTVSPost2010PropOp53
 70
     1
102
RTVSPost2010Prop54
  1
strokes_ogs.tif
102
RTVSPost2010PropOp54
 70
     1
102
RTVSPost2010Prop55
280
     0
102
RTVSPost2010PropOp55
 70
     1
102
RTVSPost2010Prop56
140
1.0
102
RTVSPost2010PropOp56
 70
     1
102
RTVSPost2010Prop57
140
1.0
102
RTVSPost2010PropOp57
 70
     1
  0
XRECORD
  5
177
102
{ACAD_REACTORS
330
176
102
}
330
176
100
AcDbXrecord
280
     1
102
RTVSPost2010Prop28
280
     0
102
RTVSPost2010PropOp28
 70
     1
102
RTVSPost2010Prop29
280
     1
102
RTVSPost2010PropOp29
 70
     1
102
RTVSPost2010Prop30
280
     1
102
RTVSPost2010PropOp30
 70
     1
102
RTVSPost2010Prop31
280
     0
102
RTVSPost2010PropOp31
 70
     1
102
RTVSPost2010Prop32
280
     0
102
RTVSPost2010PropOp32
 70
     1
102
RTVSPost2010Prop33
280
     0
102
RTVSPost2010PropOp33
 70
     1
102
RTVSPost2010Prop34
280
     0
102
RTVSPost2010PropOp34
 70
     1
102
RTVSPost2010Prop35
280
     0
102
RTVSPost2010PropOp35
 70
     1
102
RTVSPost2010Prop36
280
     0
102
RTVSPost2010PropOp36
 70
     1
102
RTVSPost2010Prop37
 90
       50
102
RTVSPost2010PropOp37
 70
     1
102
RTVSPost2010Prop38
140
0.0
102
RTVSPost2010PropOp38
 70
     1
102
RTVSPost2010Prop39
140
1.0
102
RTVSPost2010PropOp39
 70
     1
102
RTVSPost2010Prop40
 90
        0
102
RTVSPost2010PropOp40
 70
     1
102
RTVSPost2010Prop41ColorIndex
 90
       18
102
RTVSPost2010Prop41ColorRGB
 90
        0
102
RTVSPost2010PropOp41
 70
     1
102
RTVSPost2010Prop42
 90
       50
102
RTVSPost2010PropOp42
 70
     1
102
RTVSPost2010Prop43
 90
        3
102
RTVSPost2010PropOp43
 70
     1
102
RTVSPost2010Prop44ColorIndex
 90
        5
102
RTVSPost2010Prop44ColorRGB
 90
      255
102
RTVSPost2010PropOp44
 70
     1
102
RTVSPost2010Prop45
280
     0
102
RTVSPost2010PropOp45
 70
     1
102
RTVSPost2010Prop46
 90
       50
102
RTVSPost2010PropOp46
 70
     1
102
RTVSPost2010Prop47
 90
       50
102
RTVSPost2010PropOp47
 70
     1
102
RTVSPost2010Prop48
 90
       50
102
RTVSPost2010PropOp48
 70
     1
102
RTVSPost2010Prop49
280
     0
102
RTVSPost2010PropOp49
 70
     1
102
RTVSPost2010Prop50
 90
       50
102
RTVSPost2010PropOp50
 70
     1
102
RTVSPost2010Prop51ColorIndex
 90
      256
102
RTVSPost2010Prop51ColorRGB
 90
-16777216
102
RTVSPost2010PropOp51
 70
     0
102
RTVSPost2010Prop52
140
1.0
102
RTVSPost2010PropOp52
 70
     0
102
RTVSPost2010Prop53
 90
        2
102
RTVSPost2010PropOp53
 70
     1
102
RTVSPost2010Prop54
  1
strokes_ogs.tif
102
RTVSPost2010PropOp54
 70
     1
102
RTVSPost2010Prop55
280
     0
102
RTVSPost2010PropOp55
 70
     1
102
RTVSPost2010Prop56
140
1.0
102
RTVSPost2010PropOp56
 70
     1
102
RTVSPost2010Prop57
140
1.0
102
RTVSPost2010PropOp57
 70
     1
  0
XRECORD
  5
16B
102
{ACAD_REACTORS
330
16A
102
}
330
16A
100
AcDbXrecord
280
     1
102
RTVSPost2010Prop28
280
     0
102
RTVSPost2010PropOp28
 70
     1
102
RTVSPost2010Prop29
280
     1
102
RTVSPost2010PropOp29
 70
     1
102
RTVSPost2010Prop30
280
     1
102
RTVSPost2010PropOp30
 70
     1
102
RTVSPost2010Prop31
280
     0
102
RTVSPost2010PropOp31
 70
     1
102
RTVSPost2010Prop32
280
     0
102
RTVSPost2010PropOp32
 70
     1
102
RTVSPost2010Prop33
280
     0
102
RTVSPost2010PropOp33
 70
     1
102
RTVSPost2010Prop34
280
     0
102
RTVSPost2010PropOp34
 70
     1
102
RTVSPost2010Prop35
280
     0
102
RTVSPost2010PropOp35
 70
     1
102
RTVSPost2010Prop36
280
     0
102
RTVSPost2010PropOp36
 70
     1
102
RTVSPost2010Prop37
 90
       50
102
RTVSPost2010PropOp37
 70
     1
102
RTVSPost2010Prop38
140
0.0
102
RTVSPost2010PropOp38
 70
     1
102
RTVSPost2010Prop39
140
1.0
102
RTVSPost2010PropOp39
 70
     1
102
RTVSPost2010Prop40
 90
        0
102
RTVSPost2010PropOp40
 70
     1
102
RTVSPost2010Prop41ColorIndex
 90
       18
102
RTVSPost2010Prop41ColorRGB
 90
        0
102
RTVSPost2010PropOp41
 70
     1
102
RTVSPost2010Prop42
 90
       50
102
RTVSPost2010PropOp42
 70
     1
102
RTVSPost2010Prop43
 90
        3
102
RTVSPost2010PropOp43
 70
     1
102
RTVSPost2010Prop44ColorIndex
 90
        5
102
RTVSPost2010Prop44ColorRGB
 90
      255
102
RTVSPost2010PropOp44
 70
     1
102
RTVSPost2010Prop45
280
     0
102
RTVSPost2010PropOp45
 70
     1
102
RTVSPost2010Prop46
 90
       50
102
RTVSPost2010PropOp46
 70
     1
102
RTVSPost2010Prop47
 90
       50
102
RTVSPost2010PropOp47
 70
     1
102
RTVSPost2010Prop48
 90
       50
102
RTVSPost2010PropOp48
 70
     1
102
RTVSPost2010Prop49
280
     0
102
RTVSPost2010PropOp49
 70
     1
102
RTVSPost2010Prop50
 90
       50
102
RTVSPost2010PropOp50
 70
     1
102
RTVSPost2010Prop51ColorIndex
 90
      256
102
RTVSPost2010Prop51ColorRGB
 90
-16777216
102
RTVSPost2010PropOp51
 70
     0
102
RTVSPost2010Prop52
140
1.0
102
RTVSPost2010PropOp52
 70
     0
102
RTVSPost2010Prop53
 90
        2
102
RTVSPost2010PropOp53
 70
     1
102
RTVSPost2010Prop54
  1
strokes_ogs.tif
102
RTVSPost2010PropOp54
 70
     1
102
RTVSPost2010Prop55
280
     0
102
RTVSPost2010PropOp55
 70
     1
102
RTVSPost2010Prop56
140
1.0
102
RTVSPost2010PropOp56
 70
     1
102
RTVSPost2010Prop57
140
1.0
102
RTVSPost2010PropOp57
 70
     1
  0
XRECORD
  5
183
102
{ACAD_REACTORS
330
182
102
}
330
182
100
AcDbXrecord
280
     1
102
RTVSPost2010Prop28
280
     0
102
RTVSPost2010PropOp28
 70
     1
102
RTVSPost2010Prop29
280
     1
102
RTVSPost2010PropOp29
 70
     1
102
RTVSPost2010Prop30
280
     1
102
RTVSPost2010PropOp30
 70
     1
102
RTVSPost2010Prop31
280
     0
102
RTVSPost2010PropOp31
 70
     1
102
RTVSPost2010Prop32
280
     0
102
RTVSPost2010PropOp32
 70
     1
102
RTVSPost2010Prop33
280
     0
102
RTVSPost2010PropOp33
 70
     1
102
RTVSPost2010Prop34
280
     0
102
RTVSPost2010PropOp34
 70
     1
102
RTVSPost2010Prop35
280
     0
102
RTVSPost2010PropOp35
 70
     1
102
RTVSPost2010Prop36
280
     0
102
RTVSPost2010PropOp36
 70
     1
102
RTVSPost2010Prop37
 90
       50
102
RTVSPost2010PropOp37
 70
     1
102
RTVSPost2010Prop38
140
0.0
102
RTVSPost2010PropOp38
 70
     1
102
RTVSPost2010Prop39
140
1.0
102
RTVSPost2010PropOp39
 70
     1
102
RTVSPost2010Prop40
 90
        0
102
RTVSPost2010PropOp40
 70
     1
102
RTVSPost2010Prop41ColorIndex
 90
       18
102
RTVSPost2010Prop41ColorRGB
 90
        0
102
RTVSPost2010PropOp41
 70
     1
102
RTVSPost2010Prop42
 90
       50
102
RTVSPost2010PropOp42
 70
     1
102
RTVSPost2010Prop43
 90
        3
102
RTVSPost2010PropOp43
 70
     1
102
RTVSPost2010Prop44ColorIndex
 90
        5
102
RTVSPost2010Prop44ColorRGB
 90
      255
102
RTVSPost2010PropOp44
 70
     1
102
RTVSPost2010Prop45
280
     0
102
RTVSPost2010PropOp45
 70
     1
102
RTVSPost2010Prop46
 90
       50
102
RTVSPost2010PropOp46
 70
     1
102
RTVSPost2010Prop47
 90
       50
102
RTVSPost2010PropOp47
 70
     1
102
RTVSPost2010Prop48
 90
       50
102
RTVSPost2010PropOp48
 70
     1
102
RTVSPost2010Prop49
280
     0
102
RTVSPost2010PropOp49
 70
     1
102
RTVSPost2010Prop50
 90
       50
102
RTVSPost2010PropOp50
 70
     1
102
RTVSPost2010Prop51ColorIndex
 90
      256
102
RTVSPost2010Prop51ColorRGB
 90
-16777216
102
RTVSPost2010PropOp51
 70
     0
102
RTVSPost2010Prop52
140
1.0
102
RTVSPost2010PropOp52
 70
     0
102
RTVSPost2010Prop53
 90
        2
102
RTVSPost2010PropOp53
 70
     1
102
RTVSPost2010Prop54
  1
strokes_ogs.tif
102
RTVSPost2010PropOp54
 70
     1
102
RTVSPost2010Prop55
280
     0
102
RTVSPost2010PropOp55
 70
     1
102
RTVSPost2010Prop56
140
1.0
102
RTVSPost2010PropOp56
 70
     1
102
RTVSPost2010Prop57
140
1.0
102
RTVSPost2010PropOp57
 70
     1
  0
ENDSEC
  0
EOF
