  0
SECTION
  2
HEADER
  9
$ACADVER
  1
AC1024
  9
$ACADMAINTVER
 70
   205
  9
$DWGCODEPAGE
  3
ANSI_1251
  9
$INSBASE
 10
0.0
 20
0.0
 30
0.0
  9
$EXTMIN
 10
1.000000000000000E+20
 20
1.000000000000000E+20
 30
1.000000000000000E+20
  9
$EXTMAX
 10
-1.000000000000000E+20
 20
-1.000000000000000E+20
 30
-1.000000000000000E+20
  9
$LIMMIN
 10
0.0
 20
0.0
  9
$LIMMAX
 10
12.0
 20
9.0
  9
$ORTHOMODE
 70
     0
  9
$REGENMODE
 70
     1
  9
$FILLMODE
 70
     1
  9
$QTEXTMODE
 70
     0
  9
$MIRRTEXT
 70
     1
  9
$LTSCALE
 40
1.0
  9
$ATTMODE
 70
     1
  9
$TEXTSIZE
 40
0.2
  9
$TRACEWID
 40
0.05
  9
$TEXTSTYLE
  7
Standard
  9
$CLAYER
  8
OracDecor_cornice_mouldings
  9
$CELTYPE
  6
ByLayer
  9
$CECOLOR
 62
   256
  9
$CELTSCALE
 40
1.0
  9
$DISPSILH
 70
     0
  9
$DIMSCALE
 40
1.0
  9
$DIMASZ
 40
0.18
  9
$DIMEXO
 40
0.0625
  9
$DIMDLI
 40
0.38
  9
$DIMRND
 40
0.0
  9
$DIMDLE
 40
0.0
  9
$DIMEXE
 40
0.18
  9
$DIMTP
 40
0.0
  9
$DIMTM
 40
0.0
  9
$DIMTXT
 40
0.18
  9
$DIMCEN
 40
0.09
  9
$DIMTSZ
 40
0.0
  9
$DIMTOL
 70
     0
  9
$DIMLIM
 70
     0
  9
$DIMTIH
 70
     1
  9
$DIMTOH
 70
     1
  9
$DIMSE1
 70
     0
  9
$DIMSE2
 70
     0
  9
$DIMTAD
 70
     0
  9
$DIMZIN
 70
     0
  9
$DIMBLK
  1

  9
$DIMASO
 70
     1
  9
$DIMSHO
 70
     1
  9
$DIMPOST
  1

  9
$DIMAPOST
  1

  9
$DIMALT
 70
     0
  9
$DIMALTD
 70
     2
  9
$DIMALTF
 40
25.4
  9
$DIMLFAC
 40
1.0
  9
$DIMTOFL
 70
     0
  9
$DIMTVP
 40
0.0
  9
$DIMTIX
 70
     0
  9
$DIMSOXD
 70
     0
  9
$DIMSAH
 70
     0
  9
$DIMBLK1
  1

  9
$DIMBLK2
  1

  9
$DIMSTYLE
  2
Standard
  9
$DIMCLRD
 70
     0
  9
$DIMCLRE
 70
     0
  9
$DIMCLRT
 70
     0
  9
$DIMTFAC
 40
1.0
  9
$DIMGAP
 40
0.09
  9
$DIMJUST
 70
     0
  9
$DIMSD1
 70
     0
  9
$DIMSD2
 70
     0
  9
$DIMTOLJ
 70
     1
  9
$DIMTZIN
 70
     0
  9
$DIMALTZ
 70
     0
  9
$DIMALTTZ
 70
     0
  9
$DIMUPT
 70
     0
  9
$DIMDEC
 70
     4
  9
$DIMTDEC
 70
     4
  9
$DIMALTU
 70
     2
  9
$DIMALTTD
 70
     2
  9
$DIMTXSTY
  7
Standard
  9
$DIMAUNIT
 70
     0
  9
$DIMADEC
 70
     0
  9
$DIMALTRND
 40
0.0
  9
$DIMAZIN
 70
     0
  9
$DIMDSEP
 70
    46
  9
$DIMATFIT
 70
     3
  9
$DIMFRAC
 70
     0
  9
$DIMLDRBLK
  1

  9
$DIMLUNIT
 70
     2
  9
$DIMLWD
 70
    -2
  9
$DIMLWE
 70
    -2
  9
$DIMTMOVE
 70
     0
  9
$DIMFXL
 40
1.0
  9
$DIMFXLON
 70
     0
  9
$DIMJOGANG
 40
0.7853981633974483
  9
$DIMTFILL
 70
     0
  9
$DIMTFILLCLR
 70
     0
  9
$DIMARCSYM
 70
     0
  9
$DIMLTYPE
  6

  9
$DIMLTEX1
  6

  9
$DIMLTEX2
  6

  9
$DIMTXTDIRECTION
 70
     0
  9
$LUNITS
 70
     2
  9
$LUPREC
 70
     4
  9
$SKETCHINC
 40
0.1
  9
$FILLETRAD
 40
0.5
  9
$AUNITS
 70
     0
  9
$AUPREC
 70
     0
  9
$MENU
  1
.
  9
$ELEVATION
 40
0.0
  9
$PELEVATION
 40
0.0
  9
$THICKNESS
 40
0.0
  9
$LIMCHECK
 70
     0
  9
$CHAMFERA
 40
0.5
  9
$CHAMFERB
 40
0.5
  9
$CHAMFERC
 40
1.0
  9
$CHAMFERD
 40
0.0
  9
$SKPOLY
 70
     0
  9
$TDCREATE
 40
2451380.930432396
  9
$TDUCREATE
 40
2451380.805432396
  9
$TDUPDATE
 40
2451380.966180555
  9
$TDUUPDATE
 40
2451380.841180556
  9
$TDINDWG
 40
0.0075613542
  9
$TDUSRTIMER
 40
0.0075523148
  9
$USRTIMER
 70
     1
  9
$ANGBASE
 50
0.0
  9
$ANGDIR
 70
     0
  9
$PDMODE
 70
     0
  9
$PDSIZE
 40
0.0
  9
$PLINEWID
 40
0.0
  9
$SPLFRAME
 70
     0
  9
$SPLINETYPE
 70
     6
  9
$SPLINESEGS
 70
     8
  9
$HANDSEED
  5
1E4
  9
$SURFTAB1
 70
     6
  9
$SURFTAB2
 70
     6
  9
$SURFTYPE
 70
     6
  9
$SURFU
 70
     6
  9
$SURFV
 70
     6
  9
$UCSBASE
  2

  9
$UCSNAME
  2

  9
$UCSORG
 10
0.0
 20
0.0
 30
0.0
  9
$UCSXDIR
 10
1.0
 20
0.0
 30
0.0
  9
$UCSYDIR
 10
0.0
 20
1.0
 30
0.0
  9
$UCSORTHOREF
  2

  9
$UCSORTHOVIEW
 70
     0
  9
$UCSORGTOP
 10
0.0
 20
0.0
 30
0.0
  9
$UCSORGBOTTOM
 10
0.0
 20
0.0
 30
0.0
  9
$UCSORGLEFT
 10
0.0
 20
0.0
 30
0.0
  9
$UCSORGRIGHT
 10
0.0
 20
0.0
 30
0.0
  9
$UCSORGFRONT
 10
0.0
 20
0.0
 30
0.0
  9
$UCSORGBACK
 10
0.0
 20
0.0
 30
0.0
  9
$PUCSBASE
  2

  9
$PUCSNAME
  2

  9
$PUCSORG
 10
0.0
 20
0.0
 30
0.0
  9
$PUCSXDIR
 10
1.0
 20
0.0
 30
0.0
  9
$PUCSYDIR
 10
0.0
 20
1.0
 30
0.0
  9
$PUCSORTHOREF
  2

  9
$PUCSORTHOVIEW
 70
     0
  9
$PUCSORGTOP
 10
0.0
 20
0.0
 30
0.0
  9
$PUCSORGBOTTOM
 10
0.0
 20
0.0
 30
0.0
  9
$PUCSORGLEFT
 10
0.0
 20
0.0
 30
0.0
  9
$PUCSORGRIGHT
 10
0.0
 20
0.0
 30
0.0
  9
$PUCSORGFRONT
 10
0.0
 20
0.0
 30
0.0
  9
$PUCSORGBACK
 10
0.0
 20
0.0
 30
0.0
  9
$USERI1
 70
     0
  9
$USERI2
 70
     0
  9
$USERI3
 70
     0
  9
$USERI4
 70
     0
  9
$USERI5
 70
     0
  9
$USERR1
 40
0.0
  9
$USERR2
 40
0.0
  9
$USERR3
 40
0.0
  9
$USERR4
 40
0.0
  9
$USERR5
 40
0.0
  9
$WORLDVIEW
 70
     1
  9
$SHADEDGE
 70
     3
  9
$SHADEDIF
 70
    70
  9
$TILEMODE
 70
     1
  9
$MAXACTVP
 70
    64
  9
$PINSBASE
 10
0.0
 20
0.0
 30
0.0
  9
$PLIMCHECK
 70
     0
  9
$PEXTMIN
 10
1.000000000000000E+20
 20
1.000000000000000E+20
 30
1.000000000000000E+20
  9
$PEXTMAX
 10
-1.000000000000000E+20
 20
-1.000000000000000E+20
 30
-1.000000000000000E+20
  9
$PLIMMIN
 10
0.0
 20
0.0
  9
$PLIMMAX
 10
12.0
 20
9.0
  9
$UNITMODE
 70
     0
  9
$VISRETAIN
 70
     1
  9
$PLINEGEN
 70
     0
  9
$PSLTSCALE
 70
     1
  9
$TREEDEPTH
 70
  3020
  9
$CMLSTYLE
  2
Standard
  9
$CMLJUST
 70
     0
  9
$CMLSCALE
 40
1.0
  9
$PROXYGRAPHICS
 70
     1
  9
$MEASUREMENT
 70
     1
  9
$CELWEIGHT
370
    -1
  9
$ENDCAPS
280
     0
  9
$JOINSTYLE
280
     0
  9
$LWDISPLAY
290
     0
  9
$INSUNITS
 70
     4
  9
$HYPERLINKBASE
  1

  9
$STYLESHEET
  1

  9
$XEDIT
290
     1
  9
$CEPSNTYPE
380
     0
  9
$PSTYLEMODE
290
     1
  9
$FINGERPRINTGUID
  2
{12F50282-3ED8-11D3-A8B7-0060B0F84BC6}
  9
$VERSIONGUID
  2
{12F50293-3ED8-11D3-A8B7-0060B0F84BC6}
  9
$EXTNAMES
290
     1
  9
$PSVPSCALE
 40
0.0
  9
$OLESTARTUP
290
     0
  9
$SORTENTS
280
   127
  9
$INDEXCTL
280
     0
  9
$HIDETEXT
280
     0
  9
$XCLIPFRAME
280
     2
  9
$HALOGAP
280
     0
  9
$OBSCOLOR
 70
   257
  9
$OBSLTYPE
280
     0
  9
$INTERSECTIONDISPLAY
280
     0
  9
$INTERSECTIONCOLOR
 70
   257
  9
$DIMASSOC
280
     1
  9
$PROJECTNAME
  1

  9
$CAMERADISPLAY
290
     0
  9
$LENSLENGTH
 40
50.0
  9
$CAMERAHEIGHT
 40
0.0
  9
$STEPSPERSEC
 40
2.0
  9
$STEPSIZE
 40
6.0
  9
$3DDWFPREC
 40
2.0
  9
$PSOLWIDTH
 40
0.25
  9
$PSOLHEIGHT
 40
4.0
  9
$LOFTANG1
 40
1.570796326794896
  9
$LOFTANG2
 40
1.570796326794896
  9
$LOFTMAG1
 40
0.0
  9
$LOFTMAG2
 40
0.0
  9
$LOFTPARAM
 70
     7
  9
$LOFTNORMALS
280
     1
  9
$LATITUDE
 40
37.795
  9
$LONGITUDE
 40
-122.394
  9
$NORTHDIRECTION
 40
0.0
  9
$TIMEZONE
 70
 -8000
  9
$LIGHTGLYPHDISPLAY
280
     1
  9
$TILEMODELIGHTSYNCH
280
     1
  9
$CMATERIAL
347
AB
  9
$SOLIDHIST
280
     0
  9
$SHOWHIST
280
     1
  9
$DWFFRAME
280
     2
  9
$DGNFRAME
280
     0
  9
$REALWORLDSCALE
290
     1
  9
$INTERFERECOLOR
 62
     1
  9
$INTERFEREOBJVS
345
CD
  9
$INTERFEREVPVS
346
CA
  9
$CSHADOW
280
     0
  9
$SHADOWPLANELOCATION
 40
0.0
  0
ENDSEC
  0
SECTION
  2
CLASSES
  0
CLASS
  1
ACDBDICTIONARYWDFLT
  2
AcDbDictionaryWithDefault
  3
ObjectDBX Classes
 90
        0
 91
        1
280
     0
281
     0
  0
CLASS
  1
ACDBPLACEHOLDER
  2
AcDbPlaceHolder
  3
ObjectDBX Classes
 90
        0
 91
        2
280
     0
281
     0
  0
CLASS
  1
LAYOUT
  2
AcDbLayout
  3
ObjectDBX Classes
 90
        0
 91
        3
280
     0
281
     0
  0
CLASS
  1
MATERIAL
  2
AcDbMaterial
  3
ObjectDBX Classes
 90
     1153
 91
        3
280
     0
281
     0
  0
CLASS
  1
VISUALSTYLE
  2
AcDbVisualStyle
  3
ObjectDBX Classes
 90
     4095
 91
       24
280
     0
281
     0
  0
CLASS
  1
TABLESTYLE
  2
AcDbTableStyle
  3
ObjectDBX Classes
 90
     4095
 91
        1
280
     0
281
     0
  0
CLASS
  1
SCALE
  2
AcDbScale
  3
ObjectDBX Classes
 90
     1153
 91
       17
280
     0
281
     0
  0
CLASS
  1
MLEADERSTYLE
  2
AcDbMLeaderStyle
  3
ACDB_MLEADERSTYLE_CLASS
 90
     4095
 91
        1
280
     0
281
     0
  0
CLASS
  1
ACDBSECTIONVIEWSTYLE
  2
AcDbSectionViewStyle
  3
ObjectDBX Classes
 90
     1025
 91
        1
280
     0
281
     0
  0
CLASS
  1
ACDBDETAILVIEWSTYLE
  2
AcDbDetailViewStyle
  3
ObjectDBX Classes
 90
     1025
 91
        1
280
     0
281
     0
  0
CLASS
  1
MESH
  2
AcDbSubDMesh
  3
ObjectDBX Classes
 90
        0
 91
        1
280
     0
281
     1
  0
CLASS
  1
DICTIONARYVAR
  2
AcDbDictionaryVar
  3
ObjectDBX Classes
 90
        0
 91
        9
280
     0
281
     0
  0
CLASS
  1
CELLSTYLEMAP
  2
AcDbCellStyleMap
  3
ObjectDBX Classes
 90
     1152
 91
        1
280
     0
281
     0
  0
ENDSEC
  0
SECTION
  2
TABLES
  0
TABLE
  2
VPORT
  5
8
330
0
100
AcDbSymbolTable
 70
     1
  0
VPORT
  5
A8
330
8
100
AcDbSymbolTableRecord
100
AcDbViewportTableRecord
  2
*Active
 70
     0
 10
0.0
 20
0.0
 11
1.0
 21
1.0
 12
0.0000107895939436
 22
-38.78355407714844
 13
0.0
 23
0.0
 14
0.5
 24
0.5
 15
0.5
 25
0.5
 16
-1.0
 26
-1.0
 36
1.0
 17
0.0
 27
0.0
 37
0.0
 40
1194.999809697346
 41
1.594356380422177
 42
50.0
 43
0.0
 44
0.0
 50
0.0
 51
0.0
 71
     0
 72
   100
 73
     1
 74
     3
 75
     0
 76
     0
 77
     0
 78
     0
281
     0
 65
     1
110
0.0
120
0.0
130
0.0
111
1.0
121
0.0
131
0.0
112
0.0
122
1.0
132
0.0
 79
     0
146
0.0
348
C9
 60
     3
 61
     5
292
     1
282
     1
141
0.0
142
0.0
 63
   250
421
  3355443
  0
ENDTAB
  0
TABLE
  2
LTYPE
  5
5
330
0
100
AcDbSymbolTable
 70
     1
  0
LTYPE
  5
14
330
5
100
AcDbSymbolTableRecord
100
AcDbLinetypeTableRecord
  2
ByBlock
 70
     0
  3

 72
    65
 73
     0
 40
0.0
  0
LTYPE
  5
15
330
5
100
AcDbSymbolTableRecord
100
AcDbLinetypeTableRecord
  2
ByLayer
 70
     0
  3

 72
    65
 73
     0
 40
0.0
  0
LTYPE
  5
16
330
5
100
AcDbSymbolTableRecord
100
AcDbLinetypeTableRecord
  2
Continuous
 70
     0
  3
Solid line
 72
    65
 73
     0
 40
0.0
  0
ENDTAB
  0
TABLE
  2
LAYER
  5
2
330
0
100
AcDbSymbolTable
 70
     3
  0
LAYER
  5
10
330
2
100
AcDbSymbolTableRecord
100
AcDbLayerTableRecord
  2
0
 70
     0
 62
     7
  6
Continuous
370
    -3
390
F
347
BB
  0
LAYER
  5
2B
330
2
100
AcDbSymbolTableRecord
100
AcDbLayerTableRecord
  2
ASHADE
 70
     4
 62
     7
  6
Continuous
370
    -3
390
2D
347
BB
  0
LAYER
  5
F8
330
2
100
AcDbSymbolTableRecord
100
AcDbLayerTableRecord
  2
OracDecor_cornice_mouldings
 70
     0
 62
   134
420
  1814932
  6
Continuous
370
    -3
390
F
347
BB
  0
ENDTAB
  0
TABLE
  2
STYLE
  5
3
330
0
100
AcDbSymbolTable
 70
     2
  0
STYLE
  5
11
330
3
100
AcDbSymbolTableRecord
100
AcDbTextStyleTableRecord
  2
Standard
 70
     0
 40
0.0
 41
1.0
 50
0.0
 71
     0
 42
0.2
  3
txt
  4

  0
STYLE
  5
2C
330
3
100
AcDbSymbolTableRecord
100
AcDbTextStyleTableRecord
  2
ASHADE
 70
     0
 40
0.2
 41
1.0
 50
0.0
 71
     0
 42
0.2
  3
simplex
  4

  0
ENDTAB
  0
TABLE
  2
VIEW
  5
6
330
0
100
AcDbSymbolTable
 70
     0
  0
ENDTAB
  0
TABLE
  2
UCS
  5
7
330
0
100
AcDbSymbolTable
 70
     0
  0
ENDTAB
  0
TABLE
  2
APPID
  5
9
330
0
100
AcDbSymbolTable
 70
     6
  0
APPID
  5
12
330
9
100
AcDbSymbolTableRecord
100
AcDbRegAppTableRecord
  2
ACAD
 70
     0
  0
APPID
  5
8F
330
9
100
AcDbSymbolTableRecord
100
AcDbRegAppTableRecord
  2
AVE_RENDER
 70
     0
  0
APPID
  5
90
330
9
100
AcDbSymbolTableRecord
100
AcDbRegAppTableRecord
  2
AVE_ENTITY_MATERIAL
 70
     0
  0
APPID
  5
9C
330
9
100
AcDbSymbolTableRecord
100
AcDbRegAppTableRecord
  2
AVE_FINISH
 70
     0
  0
APPID
  5
9D
330
9
100
AcDbSymbolTableRecord
100
AcDbRegAppTableRecord
  2
AVE_MATERIAL
 70
     0
  0
APPID
  5
9E
330
9
100
AcDbSymbolTableRecord
100
AcDbRegAppTableRecord
  2
AVE_GLOBAL
 70
     0
  0
ENDTAB
  0
TABLE
  2
DIMSTYLE
  5
A
330
0
100
AcDbSymbolTable
 70
     1
100
AcDbDimStyleTable
 71
     0
  0
DIMSTYLE
105
27
330
A
100
AcDbSymbolTableRecord
100
AcDbDimStyleTableRecord
  2
Standard
 70
     0
340
11
  0
ENDTAB
  0
TABLE
  2
BLOCK_RECORD
  5
1
330
0
100
AcDbSymbolTable
 70
     6
  0
BLOCK_RECORD
  5
1F
330
1
100
AcDbSymbolTableRecord
100
AcDbBlockTableRecord
  2
*Model_Space
340
22
 70
     0
280
     1
281
     0
  0
BLOCK_RECORD
  5
1B
330
1
100
AcDbSymbolTableRecord
100
AcDbBlockTableRecord
  2
*Paper_Space
340
1E
 70
     0
280
     1
281
     0
  0
BLOCK_RECORD
  5
23
330
1
100
AcDbSymbolTableRecord
100
AcDbBlockTableRecord
  2
*Paper_Space0
340
26
 70
     0
280
     1
281
     0
  0
BLOCK_RECORD
  5
2E
330
1
100
AcDbSymbolTableRecord
100
AcDbBlockTableRecord
  2
direct
340
0
 70
     0
280
     1
281
     0
  0
BLOCK_RECORD
  5
42
330
1
100
AcDbSymbolTableRecord
100
AcDbBlockTableRecord
  2
overhead
340
0
 70
     0
280
     1
281
     0
  0
BLOCK_RECORD
  5
5F
330
1
100
AcDbSymbolTableRecord
100
AcDbBlockTableRecord
  2
sh_spot
340
0
 70
     0
280
     1
281
     0
  0
BLOCK_RECORD
  5
91
330
1
100
AcDbSymbolTableRecord
100
AcDbBlockTableRecord
  2
AVE_RENDER
340
0
102
{BLKREFS
331
94
331
95
331
96
331
97
331
98
331
99
331
9A
331
9B
102
}
 70
     0
280
     1
281
     0
  0
BLOCK_RECORD
  5
9F
330
1
100
AcDbSymbolTableRecord
100
AcDbBlockTableRecord
  2
AVE_GLOBAL
340
0
102
{BLKREFS
331
A2
102
}
 70
     0
280
     1
281
     0
  0
ENDTAB
  0
ENDSEC
  0
SECTION
  2
BLOCKS
  0
BLOCK
  5
20
330
1F
100
AcDbEntity
  8
0
100
AcDbBlockBegin
  2
*Model_Space
 70
     0
 10
0.0
 20
0.0
 30
0.0
  3
*Model_Space
  1

  0
ENDBLK
  5
21
330
1F
100
AcDbEntity
  8
0
100
AcDbBlockEnd
  0
BLOCK
  5
1C
330
1B
100
AcDbEntity
 67
     1
  8
0
100
AcDbBlockBegin
  2
*Paper_Space
 70
     0
 10
0.0
 20
0.0
 30
0.0
  3
*Paper_Space
  1

  0
ENDBLK
  5
1D
330
1B
100
AcDbEntity
 67
     1
  8
0
100
AcDbBlockEnd
  0
BLOCK
  5
24
330
23
100
AcDbEntity
 67
     1
  8
0
100
AcDbBlockBegin
  2
*Paper_Space0
 70
     0
 10
0.0
 20
0.0
 30
0.0
  3
*Paper_Space0
  1

  0
ENDBLK
  5
25
330
23
100
AcDbEntity
 67
     1
  8
0
100
AcDbBlockEnd
  0
BLOCK
  5
40
330
2E
100
AcDbEntity
  8
0
100
AcDbBlockBegin
  2
direct
 70
     2
 10
0.0
 20
0.0
 30
0.0
  3
direct
  1

  0
ATTDEF
  5
2F
330
2E
100
AcDbEntity
  8
ASHADE
  6
Continuous
 62
     1
100
AcDbText
 10
0.0
 20
-0.1
 30
0.0
 40
0.2
  1

  7
ASHADE
 72
     1
 11
0.0
 21
-0.1
 31
0.0
100
AcDbAttributeDefinition
280
     0
  3
Light Name
  2
SNAME
 70
     0
280
     0
  0
ARC
  5
30
330
2E
100
AcDbEntity
  8
ASHADE
  6
Continuous
 62
     7
100
AcDbCircle
 10
0.0
 20
0.0
 30
0.0
 40
0.3
100
AcDbArc
 50
205.6792886194569
 51
334.3207113805431
  0
ARC
  5
31
330
2E
100
AcDbEntity
  8
ASHADE
  6
Continuous
 62
     7
100
AcDbCircle
 10
0.0
 20
0.0
 30
0.0
 40
0.3
100
AcDbArc
 50
25.67928861945685
 51
154.3207113805431
  0
LINE
  5
32
330
2E
100
AcDbEntity
  8
ASHADE
  6
Continuous
 62
     7
100
AcDbLine
 10
-0.21
 20
0.2142428528562855
 30
0.0
 11
-0.21
 21
0.5
 31
0.0
  0
LINE
  5
33
330
2E
100
AcDbEntity
  8
ASHADE
  6
Continuous
 62
     7
100
AcDbLine
 10
-0.11
 20
0.2791057147390572
 30
0.0
 11
-0.11
 21
0.5
 31
0.0
  0
LINE
  5
34
330
2E
100
AcDbEntity
  8
ASHADE
  6
Continuous
 62
     7
100
AcDbLine
 10
0.21
 20
0.2142428528562855
 30
0.0
 11
0.21
 21
0.5
 31
0.0
  0
ATTDEF
  5
35
330
2E
100
AcDbEntity
  8
ASHADE
  6
Continuous
 62
     7
100
AcDbText
 10
0.0
 20
0.25
 30
0.0
 40
0.01
  1

100
AcDbAttributeDefinition
280
     0
  3
Look-at Y
  2
LAY
 70
     1
280
     0
  0
ATTDEF
  5
36
330
2E
100
AcDbEntity
  8
ASHADE
  6
Continuous
 62
     7
100
AcDbText
 10
0.0
 20
0.22
 30
0.0
 40
0.01
  1
1
100
AcDbAttributeDefinition
280
     0
  3
Light Intensity
  2
INTENSITY
 70
     1
280
     0
  0
ATTDEF
  5
37
330
2E
100
AcDbEntity
  8
ASHADE
  6
Continuous
 62
     7
100
AcDbText
 10
0.0
 20
0.16
 30
0.0
 40
0.01
  1
-1
100
AcDbAttributeDefinition
280
     0
  3
*not used*
  2
BEAMD
 70
     1
280
     0
  0
ATTDEF
  5
38
330
2E
100
AcDbEntity
  8
ASHADE
  6
Continuous
 62
     7
100
AcDbText
 10
0.0
 20
0.175
 30
0.0
 40
0.01
  1
-1
100
AcDbAttributeDefinition
280
     0
  3
*not used*
  2
CONED
 70
     1
280
     0
  0
ATTDEF
  5
39
330
2E
100
AcDbEntity
  8
ASHADE
  6
Continuous
 62
     7
100
AcDbText
 10
0.0
 20
0.19
 30
0.0
 40
0.01
  1
0
100
AcDbAttributeDefinition
280
     0
  3
Depth Map Size
  2
CONEA
 70
     1
280
     0
  0
ATTDEF
  5
3A
330
2E
100
AcDbEntity
  8
ASHADE
  6
Continuous
 62
     7
100
AcDbText
 10
0.0
 20
0.2050000000000001
 30
0.0
 40
0.01
  1
1,1,1
100
AcDbAttributeDefinition
280
     0
  3
Light Color (RGB)
  2
COLOR
 70
     1
280
     0
  0
ATTDEF
  5
3B
330
2E
100
AcDbEntity
  8
ASHADE
  6
Continuous
 62
     7
100
AcDbText
 10
0.0
 20
0.235
 30
0.0
 40
0.01
  1

100
AcDbAttributeDefinition
280
     0
  3
Look-at Z
  2
LAZ
 70
     1
280
     0
  0
LINE
  5
3C
330
2E
100
AcDbEntity
  8
ASHADE
  6
Continuous
 62
     7
100
AcDbLine
 10
0.0
 20
0.3
 30
0.0
 11
0.0
 21
0.5
 31
0.0
  0
LINE
  5
3D
330
2E
100
AcDbEntity
  8
ASHADE
  6
Continuous
 62
     7
100
AcDbLine
 10
0.11
 20
0.2791057147390572
 30
0.0
 11
0.11
 21
0.5
 31
0.0
  0
ATTDEF
  5
3E
330
2E
100
AcDbEntity
  8
ASHADE
  6
Continuous
 62
     7
100
AcDbText
 10
0.0
 20
0.265
 30
0.0
 40
0.01
  1

100
AcDbAttributeDefinition
280
     0
  3
Look-at X
  2
LAX
 70
     1
280
     0
  0
ATTDEF
  5
3F
330
2E
100
AcDbEntity
  8
ASHADE
  6
Continuous
 62
     7
100
AcDbText
 10
0.0
 20
0.28
 30
0.0
 40
0.01
  1

100
AcDbAttributeDefinition
280
     0
  3

  2
GNAME
 70
     1
280
     0
  0
ENDBLK
  5
41
330
2E
100
AcDbEntity
  8
0
100
AcDbBlockEnd
  0
BLOCK
  5
5D
330
42
100
AcDbEntity
  8
0
100
AcDbBlockBegin
  2
overhead
 70
     2
 10
0.0
 20
0.0
 30
0.0
  3
overhead
  1

  0
ATTDEF
  5
43
330
42
100
AcDbEntity
  8
ASHADE
  6
Continuous
 62
     1
100
AcDbText
 10
0.0
 20
-0.1
 30
0.0
 40
0.2
  1

  7
ASHADE
 72
     1
 11
0.0
 21
-0.1
 31
0.0
100
AcDbAttributeDefinition
280
     0
  3
Light Name
  2
SNAME
 70
     0
280
     0
  0
ARC
  5
44
330
42
100
AcDbEntity
  8
ASHADE
  6
Continuous
 62
     7
100
AcDbCircle
 10
0.0
 20
0.0
 30
0.0
 40
0.3
100
AcDbArc
 50
205.6792886194569
 51
334.3207113805431
  0
LINE
  5
45
330
42
100
AcDbEntity
  8
ASHADE
  6
Continuous
 62
     7
100
AcDbLine
 10
-0.2041413561583015
 20
-0.2198324514393848
 30
0.0
 11
-0.2721884748777353
 21
-0.2931099352525131
 31
0.0
  0
LINE
  5
46
330
42
100
AcDbEntity
  8
ASHADE
  6
Continuous
 62
     7
100
AcDbLine
 10
-0.1096591641591904
 20
-0.2792398032442862
 30
0.0
 11
-0.1279356915190555
 21
-0.3257797704516673
 31
0.0
  0
LINE
  5
47
330
42
100
AcDbEntity
  8
ASHADE
  6
Continuous
 62
     7
100
AcDbLine
 10
0.0
 20
-0.2999999999999999
 30
0.0
 11
0.0
 21
-0.4
 31
0.0
  0
LINE
  5
48
330
42
100
AcDbEntity
  8
ASHADE
  6
Continuous
 62
     7
100
AcDbLine
 10
0.1096591641591904
 20
-0.2792398032442862
 30
0.0
 11
0.1279356915190555
 21
-0.3257797704516673
 31
0.0
  0
LINE
  5
49
330
42
100
AcDbEntity
  8
ASHADE
  6
Continuous
 62
     7
100
AcDbLine
 10
0.2041413561583015
 20
-0.2198324514393848
 30
0.0
 11
0.2721884748777353
 21
-0.2931099352525131
 31
0.0
  0
ARC
  5
4A
330
42
100
AcDbEntity
  8
ASHADE
  6
Continuous
 62
     7
100
AcDbCircle
 10
0.0
 20
0.0
 30
0.0
 40
0.3
100
AcDbArc
 50
25.67928861945685
 51
154.3207113805431
  0
LINE
  5
4B
330
42
100
AcDbEntity
  8
ASHADE
  6
Continuous
 62
     7
100
AcDbLine
 10
-0.2703701166919155
 20
0.13
 30
0.0
 11
-0.3154318028072347
 21
0.1516666666666666
 31
0.0
  0
LINE
  5
4C
330
42
100
AcDbEntity
  8
ASHADE
  6
Continuous
 62
     7
100
AcDbLine
 10
-0.2703701166919155
 20
-0.13
 30
0.0
 11
-0.3154318028072347
 21
-0.1516666666666666
 31
0.0
  0
LINE
  5
4D
330
42
100
AcDbEntity
  8
ASHADE
  6
Continuous
 62
     7
100
AcDbLine
 10
-0.2041413561583015
 20
0.2198324514393849
 30
0.0
 11
-0.2721884748777353
 21
0.2931099352525131
 31
0.0
  0
LINE
  5
4E
330
42
100
AcDbEntity
  8
ASHADE
  6
Continuous
 62
     7
100
AcDbLine
 10
-0.1096591641591904
 20
0.2792398032442862
 30
0.0
 11
-0.1279356915190555
 21
0.3257797704516674
 31
0.0
  0
LINE
  5
4F
330
42
100
AcDbEntity
  8
ASHADE
  6
Continuous
 62
     7
100
AcDbLine
 10
0.2703701166919155
 20
-0.13
 30
0.0
 11
0.3154318028072347
 21
-0.1516666666666666
 31
0.0
  0
LINE
  5
50
330
42
100
AcDbEntity
  8
ASHADE
  6
Continuous
 62
     7
100
AcDbLine
 10
0.2703701166919155
 20
0.13
 30
0.0
 11
0.3154318028072347
 21
0.1516666666666666
 31
0.0
  0
LINE
  5
51
330
42
100
AcDbEntity
  8
ASHADE
  6
Continuous
 62
     7
100
AcDbLine
 10
0.0
 20
0.3
 30
0.0
 11
0.0
 21
0.4
 31
0.0
  0
ATTDEF
  5
52
330
42
100
AcDbEntity
  8
ASHADE
  6
Continuous
 62
     7
100
AcDbText
 10
0.0
 20
0.22
 30
0.0
 40
0.01
  1
1
100
AcDbAttributeDefinition
280
     0
  3
Light Intensity
  2
INTENSITY
 70
     1
280
     0
  0
ATTDEF
  5
53
330
42
100
AcDbEntity
  8
ASHADE
  6
Continuous
 62
     7
100
AcDbText
 10
0.0
 20
0.16
 30
0.0
 40
0.01
  1
-1
100
AcDbAttributeDefinition
280
     0
  3
*not used*
  2
BEAMD
 70
     1
280
     0
  0
ATTDEF
  5
54
330
42
100
AcDbEntity
  8
ASHADE
  6
Continuous
 62
     7
100
AcDbText
 10
0.0
 20
0.175
 30
0.0
 40
0.01
  1
-1
100
AcDbAttributeDefinition
280
     0
  3
*not used*
  2
CONED
 70
     1
280
     0
  0
ATTDEF
  5
55
330
42
100
AcDbEntity
  8
ASHADE
  6
Continuous
 62
     7
100
AcDbText
 10
0.0
 20
0.19
 30
0.0
 40
0.01
  1
0
100
AcDbAttributeDefinition
280
     0
  3
Depth Map Size
  2
CONEA
 70
     1
280
     0
  0
ATTDEF
  5
56
330
42
100
AcDbEntity
  8
ASHADE
  6
Continuous
 62
     7
100
AcDbText
 10
0.0
 20
0.2050000000000001
 30
0.0
 40
0.01
  1
1,1,1
100
AcDbAttributeDefinition
280
     0
  3
Light Color (RGB)
  2
COLOR
 70
     1
280
     0
  0
ATTDEF
  5
57
330
42
100
AcDbEntity
  8
ASHADE
  6
Continuous
 62
     7
100
AcDbText
 10
0.0
 20
0.235
 30
0.0
 40
0.01
  1

100
AcDbAttributeDefinition
280
     0
  3
Look-at Z
  2
LAZ
 70
     1
280
     0
  0
ATTDEF
  5
58
330
42
100
AcDbEntity
  8
ASHADE
  6
Continuous
 62
     7
100
AcDbText
 10
0.0
 20
0.25
 30
0.0
 40
0.01
  1

100
AcDbAttributeDefinition
280
     0
  3
Look-at Y
  2
LAY
 70
     1
280
     0
  0
ATTDEF
  5
59
330
42
100
AcDbEntity
  8
ASHADE
  6
Continuous
 62
     7
100
AcDbText
 10
0.0
 20
0.265
 30
0.0
 40
0.01
  1

100
AcDbAttributeDefinition
280
     0
  3
Look-at X
  2
LAX
 70
     1
280
     0
  0
ATTDEF
  5
5A
330
42
100
AcDbEntity
  8
ASHADE
  6
Continuous
 62
     7
100
AcDbText
 10
0.0
 20
0.28
 30
0.0
 40
0.01
  1

100
AcDbAttributeDefinition
280
     0
  3

  2
GNAME
 70
     1
280
     0
  0
LINE
  5
5B
330
42
100
AcDbEntity
  8
ASHADE
  6
Continuous
 62
     7
100
AcDbLine
 10
0.1096591641591904
 20
0.2792398032442862
 30
0.0
 11
0.1279356915190555
 21
0.3257797704516674
 31
0.0
  0
LINE
  5
5C
330
42
100
AcDbEntity
  8
ASHADE
  6
Continuous
 62
     7
100
AcDbLine
 10
0.2041413561583015
 20
0.2198324514393849
 30
0.0
 11
0.2721884748777353
 21
0.2931099352525131
 31
0.0
  0
ENDBLK
  5
5E
330
42
100
AcDbEntity
  8
0
100
AcDbBlockEnd
  0
BLOCK
  5
85
330
5F
100
AcDbEntity
  8
0
100
AcDbBlockBegin
  2
sh_spot
 70
     2
 10
0.0
 20
0.0
 30
0.0
  3
sh_spot
  1

  0
LINE
  5
60
330
5F
100
AcDbEntity
  8
ASHADE
  6
Continuous
 62
     7
100
AcDbLine
 10
0.25
 20
0.26
 30
0.0
 11
-0.25
 21
0.26
 31
0.0
  0
LINE
  5
61
330
5F
100
AcDbEntity
  8
ASHADE
  6
Continuous
 62
     7
100
AcDbLine
 10
-0.25
 20
-0.3399999999999999
 30
0.0
 11
0.25
 21
-0.3399999999999999
 31
0.0
  0
ATTDEF
  5
62
330
5F
100
AcDbEntity
  8
ASHADE
  6
Continuous
 62
     1
100
AcDbText
 10
0.0
 20
-0.1
 30
0.0
 40
0.2
  1

  7
ASHADE
 72
     1
 11
0.0
 21
-0.1
 31
0.0
100
AcDbAttributeDefinition
280
     0
  3
Light Name
  2
SNAME
 70
     0
280
     0
  0
LINE
  5
63
330
5F
100
AcDbEntity
  8
ASHADE
  6
Continuous
 62
     7
100
AcDbLine
 10
-0.25
 20
-0.13
 30
0.0
 11
-0.25
 21
-0.3399999999999999
 31
0.0
  0
LINE
  5
64
330
5F
100
AcDbEntity
  8
ASHADE
  6
Continuous
 62
     7
100
AcDbLine
 10
-0.25
 20
-0.18
 30
0.0
 11
-0.29
 21
-0.18
 31
0.0
  0
LINE
  5
65
330
5F
100
AcDbEntity
  8
ASHADE
  6
Continuous
 62
     7
100
AcDbLine
 10
-0.29
 20
-0.22
 30
0.0
 11
-0.25
 21
-0.22
 31
0.0
  0
LINE
  5
66
330
5F
100
AcDbEntity
  8
ASHADE
  6
Continuous
 62
     7
100
AcDbLine
 10
-0.29
 20
-0.18
 30
0.0
 11
-0.29
 21
-0.22
 31
0.0
  0
LINE
  5
67
330
5F
100
AcDbEntity
  8
ASHADE
  6
Continuous
 62
     7
100
AcDbLine
 10
-0.1045454545454545
 20
0.26
 30
0.0
 11
-0.15
 21
0.46
 31
0.0
  0
LINE
  5
68
330
5F
100
AcDbEntity
  8
ASHADE
  6
Continuous
 62
     7
100
AcDbLine
 10
-0.21
 20
0.26
 30
0.0
 11
-0.301304347826087
 21
0.46
 31
0.0
  0
LINE
  5
69
330
5F
100
AcDbEntity
  8
ASHADE
  6
Continuous
 62
     7
100
AcDbLine
 10
-0.25
 20
0.26
 30
0.0
 11
-0.25
 21
0.13
 31
0.0
  0
LINE
  5
6A
330
5F
100
AcDbEntity
  8
ASHADE
  6
Continuous
 62
     7
100
AcDbLine
 10
-0.25
 20
0.22
 30
0.0
 11
-0.29
 21
0.22
 31
0.0
  0
LINE
  5
6B
330
5F
100
AcDbEntity
  8
ASHADE
  6
Continuous
 62
     7
100
AcDbLine
 10
-0.29
 20
0.1799999999999999
 30
0.0
 11
-0.25
 21
0.1799999999999999
 31
0.0
  0
LINE
  5
6C
330
5F
100
AcDbEntity
  8
ASHADE
  6
Continuous
 62
     7
100
AcDbLine
 10
-0.29
 20
0.22
 30
0.0
 11
-0.29
 21
0.1799999999999999
 31
0.0
  0
ATTDEF
  5
6D
330
5F
100
AcDbEntity
  8
ASHADE
  6
Continuous
 62
     7
100
AcDbText
 10
0.0
 20
-0.24
 30
0.0
 40
0.01
  1
0
100
AcDbAttributeDefinition
280
     0
  3
Depth Map Size
  2
ZSIZE
 70
     1
280
     0
  0
ATTDEF
  5
6E
330
5F
100
AcDbEntity
  8
ASHADE
  6
Continuous
 62
     7
100
AcDbText
 10
0.0
 20
-0.3300000000000001
 30
0.0
 40
0.01
  1
0,0,0
100
AcDbAttributeDefinition
280
     0
  3
Look-from XYZ
  2
LFXYZ
 70
     1
280
     0
  0
ATTDEF
  5
6F
330
5F
100
AcDbEntity
  8
ASHADE
  6
Continuous
 62
     7
100
AcDbText
 10
0.0
 20
-0.315
 30
0.0
 40
0.01
  1
0.0
100
AcDbAttributeDefinition
280
     0
  3
Beam Distribution
  2
BEAMDI
 70
     1
280
     0
  0
ATTDEF
  5
70
330
5F
100
AcDbEntity
  8
ASHADE
  6
Continuous
 62
     7
100
AcDbText
 10
0.0
 20
-0.3
 30
0.0
 40
0.01
  1
0.0
100
AcDbAttributeDefinition
280
     0
  3
Cone Delta
  2
CONEDE
 70
     1
280
     0
  0
ATTDEF
  5
71
330
5F
100
AcDbEntity
  8
ASHADE
  6
Continuous
 62
     7
100
AcDbText
 10
0.0
 20
-0.2850000000000001
 30
0.0
 40
0.01
  1
10.0
100
AcDbAttributeDefinition
280
     0
  3
Cone Angle
  2
CONEAN
 70
     1
280
     0
  0
ATTDEF
  5
72
330
5F
100
AcDbEntity
  8
ASHADE
  6
Continuous
 62
     7
100
AcDbText
 10
0.0
 20
-0.27
 30
0.0
 40
0.01
  1
-1
100
AcDbAttributeDefinition
280
     0
  3
*not used*
  2
BIASMAX
 70
     1
280
     0
  0
ATTDEF
  5
73
330
5F
100
AcDbEntity
  8
ASHADE
  6
Continuous
 62
     7
100
AcDbText
 10
0.0
 20
-0.255
 30
0.0
 40
0.01
  1
-1
100
AcDbAttributeDefinition
280
     0
  3
*not used*
  2
BIASMIN
 70
     1
280
     0
  0
ATTDEF
  5
74
330
5F
100
AcDbEntity
  8
ASHADE
  6
Continuous
 62
     7
100
AcDbText
 10
0.0
 20
-0.225
 30
0.0
 40
0.01
  1
1,1,1
100
AcDbAttributeDefinition
280
     0
  3
Light Color (RGB)
  2
COLOR
 70
     1
280
     0
  0
ATTDEF
  5
75
330
5F
100
AcDbEntity
  8
ASHADE
  6
Continuous
 62
     7
100
AcDbText
 10
0.0
 20
-0.21
 30
0.0
 40
0.01
  1
1
100
AcDbAttributeDefinition
280
     0
  3
Light Intensity
  2
INTENSITY
 70
     1
280
     0
  0
ATTDEF
  5
76
330
5F
100
AcDbEntity
  8
ASHADE
  6
Continuous
 62
     7
100
AcDbText
 10
0.0
 20
-0.15
 30
0.0
 40
0.01
  1

100
AcDbAttributeDefinition
280
     0
  3

  2
GNAME
 70
     1
280
     0
  0
ATTDEF
  5
77
330
5F
100
AcDbEntity
  8
ASHADE
  6
Continuous
 62
     7
100
AcDbText
 10
0.0
 20
-0.195
 30
0.0
 40
0.01
  1

100
AcDbAttributeDefinition
280
     0
  3
Look-at Z
  2
LAZ
 70
     1
280
     0
  0
ATTDEF
  5
78
330
5F
100
AcDbEntity
  8
ASHADE
  6
Continuous
 62
     7
100
AcDbText
 10
0.0
 20
-0.18
 30
0.0
 40
0.01
  1

100
AcDbAttributeDefinition
280
     0
  3
Look-at Y
  2
LAY
 70
     1
280
     0
  0
ATTDEF
  5
79
330
5F
100
AcDbEntity
  8
ASHADE
  6
Continuous
 62
     7
100
AcDbText
 10
0.0
 20
-0.165
 30
0.0
 40
0.01
  1

100
AcDbAttributeDefinition
280
     0
  3
Look-at X
  2
LAX
 70
     1
280
     0
  0
LINE
  5
7A
330
5F
100
AcDbEntity
  8
ASHADE
  6
Continuous
 62
     7
100
AcDbLine
 10
0.25
 20
-0.3399999999999999
 30
0.0
 11
0.25
 21
-0.13
 31
0.0
  0
LINE
  5
7B
330
5F
100
AcDbEntity
  8
ASHADE
  6
Continuous
 62
     7
100
AcDbLine
 10
0.25
 20
-0.18
 30
0.0
 11
0.29
 21
-0.18
 31
0.0
  0
LINE
  5
7C
330
5F
100
AcDbEntity
  8
ASHADE
  6
Continuous
 62
     7
100
AcDbLine
 10
0.29
 20
-0.22
 30
0.0
 11
0.25
 21
-0.22
 31
0.0
  0
LINE
  5
7D
330
5F
100
AcDbEntity
  8
ASHADE
  6
Continuous
 62
     7
100
AcDbLine
 10
0.29
 20
-0.18
 30
0.0
 11
0.29
 21
-0.22
 31
0.0
  0
LINE
  5
7E
330
5F
100
AcDbEntity
  8
ASHADE
  6
Continuous
 62
     7
100
AcDbLine
 10
0.21
 20
0.26
 30
0.0
 11
0.301304347826087
 21
0.46
 31
0.0
  0
LINE
  5
7F
330
5F
100
AcDbEntity
  8
ASHADE
  6
Continuous
 62
     7
100
AcDbLine
 10
0.1045454545454545
 20
0.26
 30
0.0
 11
0.15
 21
0.46
 31
0.0
  0
LINE
  5
80
330
5F
100
AcDbEntity
  8
ASHADE
  6
Continuous
 62
     7
100
AcDbLine
 10
0.0
 20
0.26
 30
0.0
 11
0.0
 21
0.46
 31
0.0
  0
LINE
  5
81
330
5F
100
AcDbEntity
  8
ASHADE
  6
Continuous
 62
     7
100
AcDbLine
 10
0.25
 20
0.13
 30
0.0
 11
0.25
 21
0.26
 31
0.0
  0
LINE
  5
82
330
5F
100
AcDbEntity
  8
ASHADE
  6
Continuous
 62
     7
100
AcDbLine
 10
0.25
 20
0.22
 30
0.0
 11
0.29
 21
0.22
 31
0.0
  0
LINE
  5
83
330
5F
100
AcDbEntity
  8
ASHADE
  6
Continuous
 62
     7
100
AcDbLine
 10
0.29
 20
0.1799999999999999
 30
0.0
 11
0.25
 21
0.1799999999999999
 31
0.0
  0
LINE
  5
84
330
5F
100
AcDbEntity
  8
ASHADE
  6
Continuous
 62
     7
100
AcDbLine
 10
0.29
 20
0.22
 30
0.0
 11
0.29
 21
0.1799999999999999
 31
0.0
  0
ENDBLK
  5
86
330
5F
100
AcDbEntity
  8
0
100
AcDbBlockEnd
  0
BLOCK
  5
92
330
91
100
AcDbEntity
  8
ASHADE
100
AcDbBlockBegin
  2
AVE_RENDER
 70
     0
 10
0.0
 20
0.0
 30
0.0
  3
AVE_RENDER
  1
AVE_RENDER
  0
ENDBLK
  5
93
330
91
100
AcDbEntity
  8
0
100
AcDbBlockEnd
  0
BLOCK
  5
A0
330
9F
100
AcDbEntity
  8
ASHADE
100
AcDbBlockBegin
  2
AVE_GLOBAL
 70
     0
 10
0.0
 20
0.0
 30
0.0
  3
AVE_GLOBAL
  1
AVE_GLOBAL
  0
ENDBLK
  5
A1
330
9F
100
AcDbEntity
  8
0
100
AcDbBlockEnd
  0
ENDSEC
  0
SECTION
  2
ENTITIES
  0
INSERT
  5
94
330
1F
100
AcDbEntity
  8
ASHADE
 62
     1
100
AcDbBlockReference
  2
AVE_RENDER
 10
0.0
 20
0.0
 30
0.0
1001
AVE_RENDER
1002
{
1070
     7
1000
Pref
1070
    30
1070
    20
1070
     1
1070
     0
1000

1070
    10
1070
     1
1070
    10
1040
1.0
1070
     1
1040
0.3
1040
0.7
1040
0.0
1040
10.0
1010
-1.0
1020
-1.0
1030
-1.0
1040
0.3
1070
    49
1070
     0
1070
     0
1010
1.0
1020
1.0
1030
1.0
1040
45.0
1070
     1
1070
     0
1000
WCS
1040
0.0
1070
     0
1040
10.0
1002
}
  0
INSERT
  5
95
330
1F
100
AcDbEntity
  8
ASHADE
 62
     3
100
AcDbBlockReference
  2
AVE_RENDER
 10
0.0
 20
0.0
 30
0.0
1001
AVE_RENDER
1002
{
1070
     0
1000
Full Opt
1070
     0
1070
     1
1070
     1
1070
     1
1070
     0
1070
     0
1070
     0
1070
     1
1070
     1
1040
0.0001
1040
0.0001
1002
}
  0
INSERT
  5
96
330
1F
100
AcDbEntity
  8
ASHADE
 62
     4
100
AcDbBlockReference
  2
AVE_RENDER
 10
0.0
 20
0.0
 30
0.0
1001
AVE_RENDER
1002
{
1070
     0
1000
Quick Opt
1070
     0
1070
     1
1070
     1
1070
     1
1070
     0
1070
     0
1070
     1
1002
}
  0
INSERT
  5
97
330
1F
100
AcDbEntity
  8
ASHADE
 62
     5
100
AcDbBlockReference
  2
AVE_RENDER
 10
0.0
 20
0.0
 30
0.0
1001
AVE_RENDER
1002
{
1070
     1
1000
Scanl Opt
1070
     2
1070
     0
1070
     2
1040
2.0
1040
4.0
1070
     0
1070
     1
1070
     0
1040
0.03
1002
}
  0
INSERT
  5
98
330
1F
100
AcDbEntity
  8
ASHADE
 62
     6
100
AcDbBlockReference
  2
AVE_RENDER
 10
0.0
 20
0.0
 30
0.0
1001
AVE_RENDER
1002
{
1070
     2
1000
Raytr Opt
1070
     2
1070
     0
1070
     2
1040
2.0
1040
4.0
1070
     0
1070
     1
1070
     1
1040
0.03
1070
     3
1040
0.03
1002
}
  0
INSERT
  5
99
330
1F
100
AcDbEntity
  8
ASHADE
 62
     7
100
AcDbBlockReference
  2
AVE_RENDER
 10
0.0
 20
0.0
 30
0.0
1001
AVE_RENDER
1002
{
1070
     0
1000
RFile Opt
1070
     1
1070
   640
1070
   480
1070
 10000
1070
     1
1070
     8
1070
     8
1070
     0
1070
     0
1070
     0
1070
     0
1070
     0
1070
     0
1070
     0
1002
}
  0
INSERT
  5
9A
330
1F
100
AcDbEntity
  8
ASHADE
 62
     8
100
AcDbBlockReference
  2
AVE_RENDER
 10
0.0
 20
0.0
 30
0.0
1001
AVE_RENDER
1002
{
1070
     0
1000
Fog Opt
1070
     0
1070
     0
1040
0.0
1040
1.0
1040
0.0
1040
1.0
1010
0.5
1020
0.5
1030
0.5
1002
}
  0
INSERT
  5
9B
330
1F
100
AcDbEntity
  8
ASHADE
 62
     9
100
AcDbBlockReference
  2
AVE_RENDER
 10
0.0
 20
0.0
 30
0.0
1001
AVE_RENDER
1002
{
1070
     0
1000
BG Opt
1070
     0
1070
     1
1010
0.0
1020
0.0
1030
0.0
1010
1.0
1020
0.0
1030
0.0
1010
0.0
1020
1.0
1030
0.0
1010
0.0
1020
0.0
1030
1.0
1040
0.5
1040
0.33
1040
0.0
1000

1070
     1
1000

1070
     1
1070
     1
1040
1.0
1040
1.0
1040
0.0
1040
0.0
1070
     0
1002
}
  0
INSERT
  5
A2
330
1F
100
AcDbEntity
  8
ASHADE
 62
     1
100
AcDbBlockReference
  2
AVE_GLOBAL
 10
0.0
 20
0.0
 30
0.0
1001
AVE_MATERIAL
1002
{
1000
*GLOBAL*
1000
2
1000
Global finish.
1002
{
1002
}
1002
{
1070
    63
1002
{
1002
{
1010
-1.0
1020
-1.0
1030
-1.0
1002
}
1040
0.1000000014901161
1000

1040
0.0
1002
{
1002
}
1040
0.0
1002
{
1002
}
1040
0.0
1002
}
1002
{
1002
{
1010
-1.0
1020
-1.0
1030
-1.0
1002
}
1040
0.6999999880790711
1000

1040
0.0
1002
{
1002
}
1040
0.0
1002
{
1002
}
1040
0.0
1002
}
1002
{
1002
{
1010
-1.0
1020
-1.0
1030
-1.0
1002
}
1040
0.2000000029802322
1000

1040
0.0
1002
{
1002
}
1040
0.0
1002
{
1002
}
1040
0.0
1002
}
1002
{
1070
     0
1002
{
1070
     1
1002
{
1040
1.0
1040
1.0
1000

1040
0.0
1002
{
1002
}
1040
0.0
1002
{
1002
}
1040
0.0
1002
}
1002
}
1040
1.0
1040
0.0
1040
0.0
1002
}
1002
{
1040
1.0
1040
1.0
1000

1040
0.0
1002
{
1002
}
1040
0.0
1002
{
1002
}
1040
0.0
1002
}
1002
{
1040
0.5
1040
1.0
1000

1040
0.0
1002
{
1002
}
1040
0.0
1002
{
1002
}
1040
0.0
1002
}
1002
{
1070
     0
1040
0.0
1002
{
1002
}
1040
1.0
1002
{
1002
}
1040
0.0
1002
}
1002
{
1040
0.0
1002
{
1002
{
1010
0.0
1020
0.0
1030
0.0
1002
}
1040
1.0
1000

1040
0.0
1002
{
1002
}
1040
0.0
1002
{
1002
}
1040
0.0
1002
}
1002
}
1002
{
1002
{
1070
     1
1002
{
1040
0.0
1040
1.0
1000

1040
0.0
1002
{
1002
}
1040
0.0
1002
{
1002
}
1040
0.0
1002
}
1002
}
1040
0.0
1002
{
1002
}
1010
1.0
1020
0.0
1030
0.0
1010
0.0
1020
1.0
1030
0.0
1010
0.0
1020
0.0
1030
1.0
1070
     0
1002
}
1002
{
1002
{
1040
1.0
1040
1.0
1002
{
1070
     1
1002
{
1040
1.0
1040
1.0
1000

1040
0.0
1002
{
1002
}
1040
0.0
1002
{
1002
}
1040
0.0
1002
}
1002
}
1002
}
1070
     0
1040
0.0
1002
{
1002
}
1002
}
1002
{
1002
}
1002
}
1002
{
1071
        3
1070
     3
1070
     0
1002
{
1070
     2
1070
     0
1070
     0
1040
0.0
1002
}
1070
     0
1070
     2
1002
{
1002
}
1002
}
1002
{
1040
8030.0
1040
190.3000030517578
1040
0.3050000071525574
1040
228.0
1040
545.0
1040
14.0
1040
17.39999961853027
1040
0.4560000002384186
1002
}
1002
}
  0
MESH
  5
F9
330
1F
100
AcDbEntity
  8
OracDecor_cornice_mouldings
 62
    74
420
  5812507
160
             54944
310
A0D60000F60500000C00000013000000020000003C0000000600000002000000000000A0FF3F8F4000000000E4FF0BC00000000000C057C0000000A0FF3F8F400000000000000C3F0000000000C057C00C000000130000000A0000003C0000000600000002000000000000A0FF3F8F4000000000E4FF0BC00000000000C057
310
C000000080FF3F8FC000000000B4FF0BC00000000000C057C00C00000013000000120000003C000000060000000200000000000080FF3F8FC0000000000000233F0000000000C057C000000080FF3F8FC000000000B4FF0BC00000000000C057C00C000000130000001A0000003C0000000600000002000000000000A0FF3F
310
8F400000000000000C3F0000000000C057C000000080FF3F8FC0000000000000233F0000000000C057C00C00000013000000220000003C0000000600000002000000000000A0FF3F8F4000000000E4FF0BC00000000000C057C0000000A0FF3F8F4000000000683C0DC0000000E082BE57C00C000000130000002A0000003C
310
0000000600000002000000000000A0FF3F8F4000000000683C0DC0000000E082BE57C000000080FF3F8FC000000000383C0DC0000000E082BE57C00C00000013000000320000003C000000060000000200000000000080FF3F8FC000000000B4FF0BC00000000000C057C000000080FF3F8FC000000000383C0DC0000000E0
310
82BE57C00C000000130000003A0000003C0000000600000002000000000000A0FF3F8F4000000000CE590EC00000006031BA57C0000000A0FF3F8F4000000000683C0DC0000000E082BE57C00C00000013000000420000003C0000000600000002000000000000A0FF3F8F4000000000CE590EC00000006031BA57C0000000
310
80FF3F8FC000000000A0590EC00000006031BA57C00C000000130000004A0000003C000000060000000200000000000080FF3F8FC000000000383C0DC0000000E082BE57C000000080FF3F8FC000000000A0590EC00000006031BA57C00C00000013000000520000003C0000000600000002000000000000A0FF3F8F400000
310
0000483C0FC00000002078B357C0000000A0FF3F8F4000000000CE590EC00000006031BA57C00C000000130000005A0000003C0000000600000002000000000000A0FF3F8F4000000000483C0FC00000002078B357C000000080FF3F8FC0000000001A3C0FC00000002078B357C00C00000013000000620000003C00000006
310
0000000200000000000080FF3F8FC000000000A0590EC00000006031BA57C000000080FF3F8FC0000000001A3C0FC00000002078B357C00C000000130000006A0000003C0000000600000002000000000000A0FF3F8F4000000000BECD0FC000000020FFAA57C0000000A0FF3F8F4000000000483C0FC00000002078B357C0
310
0C00000013000000720000003C0000000600000002000000000000A0FF3F8F4000000000BECD0FC000000020FFAA57C000000080FF3F8FC0000000008ECD0FC000000020FFAA57C00C000000130000007A0000003C000000060000000200000000000080FF3F8FC0000000001A3C0FC00000002078B357C000000080FF3F8F
310
C0000000008ECD0FC000000020FFAA57C00C00000013000000820000003C0000000600000002000000000000A0FF3F8F4000000000E4FF0FC0000000A099A157C0000000A0FF3F8F4000000000BECD0FC000000020FFAA57C00C000000130000008A0000003C0000000600000002000000000000A0FF3F8F4000000000E4FF
310
0FC0000000A099A157C000000080FF3F8FC000000000B4FF0FC0000000A099A157C00C00000013000000920000003C000000060000000200000000000080FF3F8FC000000000B4FF0FC0000000A099A157C000000080FF3F8FC0000000008ECD0FC000000020FFAA57C00C000000130000009A0000003C0000000600000002
310
000000000000A0FF3F8F4000000000CC1210C000000020D17057C0000000A0FF3F8F4000000000E4FF0FC0000000A099A157C00C00000013000000A20000003C0000000600000002000000000000A0FF3F8F4000000000CC1210C000000020D17057C000000080FF3F8FC000000000B51210C000000020D17057C00C000000
310
13000000AA0000003C000000060000000200000000000080FF3F8FC000000000B4FF0FC0000000A099A157C000000080FF3F8FC000000000B51210C000000020D17057C00C00000013000000B20000003C0000000600000002000000000000A0FF3F8F4000000000CAF010C000000040ED2857C0000000A0FF3F8F40000000
310
00CC1210C000000020D17057C00C00000013000000BA0000003C0000000600000002000000000000A0FF3F8F4000000000CAF010C000000040ED2857C000000080FF3F8FC000000000B3F010C000000040ED2857C00C00000013000000C20000003C000000060000000200000000000080FF3F8FC000000000B3F010C00000
310
0040ED2857C000000080FF3F8FC000000000B51210C000000020D17057C00C00000013000000CA0000003C0000000600000002000000000000A0FF3F8F400000000049EA12C0000000403BE656C0000000A0FF3F8F4000000000CAF010C000000040ED2857C00C00000013000000D20000003C000000060000000200000000
310
0000A0FF3F8F400000000049EA12C0000000403BE656C000000080FF3F8FC00000000032EA12C0000000403BE656C00C00000013000000DA0000003C000000060000000200000000000080FF3F8FC00000000032EA12C0000000403BE656C000000080FF3F8FC000000000B3F010C000000040ED2857C00C00000013000000
310
E20000003C0000000600000002000000000000A0FF3F8F40000000003BE215C0000000C0A2AC56C0000000A0FF3F8F400000000049EA12C0000000403BE656C00C00000013000000EA0000003C0000000600000002000000000000A0FF3F8F40000000003BE215C0000000C0A2AC56C000000080FF3F8FC00000000024E215
310
C0000000C0A2AC56C00C00000013000000F20000003C000000060000000200000000000080FF3F8FC00000000024E215C0000000C0A2AC56C000000080FF3F8FC00000000032EA12C0000000403BE656C00C00000013000000FA0000003C0000000600000002000000000000A0FF3F8F400000000045AC19C000000080837F
310
56C0000000A0FF3F8F40000000003BE215C0000000C0A2AC56C00C00000013000000020100003C0000000600000002000000000000A0FF3F8F400000000045AC19C000000080837F56C000000080FF3F8FC0000000002DAC19C000000080837F56C00C000000130000000A0100003C000000060000000200000000000080FF
310
3F8FC0000000002DAC19C000000080837F56C000000080FF3F8FC00000000024E215C0000000C0A2AC56C00C00000013000000120100003C0000000600000002000000000000A0FF3F8F40000000008F0F1EC000000000806156C0000000A0FF3F8F400000000045AC19C000000080837F56C00C000000130000001A010000
310
3C0000000600000002000000000000A0FF3F8F40000000008F0F1EC000000000806156C000000080FF3F8FC000000000780F1EC000000000806156C00C00000013000000220100003C000000060000000200000000000080FF3F8FC000000000780F1EC000000000806156C000000080FF3F8FC0000000002DAC19C0000000
310
80837F56C00C000000130000002A0100003C0000000600000002000000000000A0FF3F8F40000000802A6521C0000000C0515456C0000000A0FF3F8F40000000008F0F1EC000000000806156C00C00000013000000320100003C0000000600000002000000000000A0FF3F8F40000000802A6521C0000000C0515456C00000
310
0080FF3F8FC0000000801E6521C0000000C0515456C00C000000130000003A0100003C000000060000000200000000000080FF3F8FC0000000801E6521C0000000C0515456C000000080FF3F8FC000000000780F1EC000000000806156C00C00000013000000420100003C0000000600000002000000000000A0FF3F8F4000
310
000000F9FF22C000000040335356C0000000A0FF3F8F40000000802A6521C0000000C0515456C00C000000130000004A0100003C0000000600000002000000000000A0FF3F8F4000000000F9FF22C000000040335356C000000080FF3F8FC000000080EDFF22C000000040335356C00C00000013000000520100003C000000
310
060000000200000000000080FF3F8FC0000000801E6521C0000000C0515456C000000080FF3F8FC000000080EDFF22C000000040335356C00C000000130000005A0100003C0000000600000002000000000000A0FF3F8F40000000001A4F23C000000000B65156C0000000A0FF3F8F4000000000F9FF22C000000040335356
310
C00C00000013000000620100003C0000000600000002000000000000A0FF3F8F40000000001A4F23C000000000B65156C000000080FF3F8FC0000000800E4F23C000000000B65156C00C000000130000006A0100003C000000060000000200000000000080FF3F8FC000000080EDFF22C000000040335356C000000080FF3F
310
8FC0000000800E4F23C000000000B65156C00C00000013000000720100003C0000000600000002000000000000A0FF3F8F4000000000749623C0000000A0644D56C0000000A0FF3F8F40000000001A4F23C000000000B65156C00C000000130000007A0100003C0000000600000002000000000000A0FF3F8F400000000074
310
9623C0000000A0644D56C000000080FF3F8FC000000080689623C0000000A0644D56C00C00000013000000820100003C000000060000000200000000000080FF3F8FC0000000800E4F23C000000000B65156C000000080FF3F8FC000000080689623C0000000A0644D56C00C000000130000008A0100003C00000006000000
310
02000000000000A0FF3F8F400000000012CF23C000000060AB4656C0000000A0FF3F8F4000000000749623C0000000A0644D56C00C00000013000000920100003C0000000600000002000000000000A0FF3F8F400000000012CF23C000000060AB4656C000000080FF3F8FC00000008006CF23C000000060AB4656C00C0000
310
00130000009A0100003C000000060000000200000000000080FF3F8FC000000080689623C0000000A0644D56C000000080FF3F8FC00000008006CF23C000000060AB4656C00C00000013000000A20100003C0000000600000002000000000000A0FF3F8F40000000806FF323C000000040323E56C0000000A0FF3F8F400000
310
000012CF23C000000060AB4656C00C00000013000000AA0100003C0000000600000002000000000000A0FF3F8F40000000806FF323C000000040323E56C000000080FF3F8FC00000008063F323C000000040323E56C00C00000013000000B20100003C000000060000000200000000000080FF3F8FC00000008006CF23C000
310
000060AB4656C000000080FF3F8FC00000008063F323C000000040323E56C00C00000013000000BA0100003C0000000600000002000000000000A0FF3F8F4000000000F9FF23C0000000C0CC3456C0000000A0FF3F8F40000000806FF323C000000040323E56C00C00000013000000C20100003C0000000600000002000000
310
000000A0FF3F8F4000000000F9FF23C0000000C0CC3456C000000080FF3F8FC000000080EDFF23C0000000C0CC3456C00C00000013000000CA0100003C000000060000000200000000000080FF3F8FC000000080EDFF23C0000000C0CC3456C000000080FF3F8FC00000008063F323C000000040323E56C00C000000130000
310
00D20100003C0000000600000002000000000000A0FF3F8F4000000000F9FF23C000000000006055C0000000A0FF3F8F4000000000F9FF23C0000000C0CC3456C00C00000013000000DA0100003C0000000600000002000000000000A0FF3F8F4000000000F9FF23C000000000006055C000000080FF3F8FC000000080EDFF
310
23C000000000006055C00C00000013000000E20100003C000000060000000200000000000080FF3F8FC000000080EDFF23C000000000006055C000000080FF3F8FC000000080EDFF23C0000000C0CC3456C00C00000013000000EA0100003C0000000600000002000000000000A0FF3F8F4000000000830C24C0000000809A
310
5655C0000000A0FF3F8F4000000000F9FF23C000000000006055C00C00000013000000F20100003C0000000600000002000000000000A0FF3F8F4000000000830C24C0000000809A5655C000000080FF3F8FC000000080770C24C0000000809A5655C00C00000013000000FA0100003C000000060000000200000000000080
310
FF3F8FC000000080EDFF23C000000000006055C000000080FF3F8FC000000080770C24C0000000809A5655C00C00000013000000020200003C0000000600000002000000000000A0FF3F8F4000000000E03024C000000080214E55C0000000A0FF3F8F4000000000830C24C0000000809A5655C00C000000130000000A0200
310
003C0000000600000002000000000000A0FF3F8F4000000000E03024C000000080214E55C000000080FF3F8FC000000080D43024C000000080214E55C00C00000013000000120200003C000000060000000200000000000080FF3F8FC000000080770C24C0000000809A5655C000000080FF3F8FC000000080D43024C00000
310
0080214E55C00C000000130000001A0200003C0000000600000002000000000000A0FF3F8F40000000807E6924C000000040684755C0000000A0FF3F8F4000000000E03024C000000080214E55C00C00000013000000220200003C0000000600000002000000000000A0FF3F8F40000000807E6924C000000040684755C000
310
000080FF3F8FC000000080726924C000000040684755C00C000000130000002A0200003C000000060000000200000000000080FF3F8FC000000080D43024C000000080214E55C000000080FF3F8FC000000080726924C000000040684755C00C00000013000000320200003C0000000600000002000000000000A0FF3F8F40
310
00000080D8B024C0000000C0164355C0000000A0FF3F8F40000000807E6924C000000040684755C00C000000130000003A0200003C0000000600000002000000000000A0FF3F8F4000000080D8B024C0000000C0164355C000000080FF3F8FC000000080CCB024C0000000C0164355C00C00000013000000420200003C0000
310
00060000000200000000000080FF3F8FC000000080726924C000000040684755C000000080FF3F8FC000000080CCB024C0000000C0164355C00C000000130000004A0200003C0000000600000002000000000000A0FF3F8F4000000000F9FF24C0000000A0994155C0000000A0FF3F8F4000000080D8B024C0000000C01643
310
55C00C00000013000000520200003C0000000600000002000000000000A0FF3F8F4000000000F9FF24C0000000A0994155C000000080FF3F8FC000000080EDFF24C0000000A0994155C00C000000130000005A0200003C000000060000000200000000000080FF3F8FC000000080EDFF24C0000000A0994155C000000080FF
310
3F8FC000000080CCB024C0000000C0164355C00C00000013000000620200003C0000000600000002000000000000A0FF3F8F4000000000F9FF2BC0000000A0994155C0000000A0FF3F8F4000000000F9FF24C0000000A0994155C00C000000130000006A0200003C0000000600000002000000000000A0FF3F8F4000000000
310
F9FF2BC0000000A0994155C000000080FF3F8FC000000040EDFF2BC0000000A0994155C00C00000013000000720200003C000000060000000200000000000080FF3F8FC000000040EDFF2BC0000000A0994155C000000080FF3F8FC000000080EDFF24C0000000A0994155C00C000000130000007A0200003C000000060000
310
0002000000000000A0FF3F8F40000000001A4F2CC0000000601C4055C0000000A0FF3F8F4000000000F9FF2BC0000000A0994155C00C00000013000000820200003C0000000600000002000000000000A0FF3F8F40000000001A4F2CC0000000601C4055C000000080FF3F8FC0000000400E4F2CC0000000601C4055C00C00
310
0000130000008A0200003C000000060000000200000000000080FF3F8FC000000040EDFF2BC0000000A0994155C000000080FF3F8FC0000000400E4F2CC0000000601C4055C00C00000013000000920200003C0000000600000002000000000000A0FF3F8F400000000074962CC000000000CB3B55C0000000A0FF3F8F4000
310
0000001A4F2CC0000000601C4055C00C000000130000009A0200003C0000000600000002000000000000A0FF3F8F400000000074962CC000000000CB3B55C000000080FF3F8FC00000004068962CC000000000CB3B55C00C00000013000000A20200003C000000060000000200000000000080FF3F8FC0000000400E4F2CC0
310
000000601C4055C000000080FF3F8FC00000004068962CC000000000CB3B55C00C00000013000000AA0200003C0000000600000002000000000000A0FF3F8F400000000012CF2CC0000000C0113555C0000000A0FF3F8F400000000074962CC000000000CB3B55C00C00000013000000B20200003C00000006000000020000
310
00000000A0FF3F8F400000000012CF2CC0000000C0113555C000000080FF3F8FC00000004006CF2CC0000000C0113555C00C00000013000000BA0200003C000000060000000200000000000080FF3F8FC00000004068962CC000000000CB3B55C000000080FF3F8FC00000004006CF2CC0000000C0113555C00C0000001300
310
0000C20200003C0000000600000002000000000000A0FF3F8F40000000806FF32CC0000000C0982C55C0000000A0FF3F8F400000000012CF2CC0000000C0113555C00C00000013000000CA0200003C0000000600000002000000000000A0FF3F8F40000000806FF32CC0000000C0982C55C000000080FF3F8FC0000000C063
310
F32CC0000000C0982C55C00C00000013000000D20200003C000000060000000200000000000080FF3F8FC00000004006CF2CC0000000C0113555C000000080FF3F8FC0000000C063F32CC0000000C0982C55C00C00000013000000DA0200003C0000000600000002000000000000A0FF3F8F4000000000F9FF2CC000000040
310
332355C0000000A0FF3F8F40000000806FF32CC0000000C0982C55C00C00000013000000E20200003C0000000600000002000000000000A0FF3F8F4000000000F9FF2CC000000040332355C000000080FF3F8FC000000040EDFF2CC000000040332355C00C00000013000000EA0200003C0000000600000002000000000000
310
80FF3F8FC000000040EDFF2CC000000040332355C000000080FF3F8FC0000000C063F32CC0000000C0982C55C00C00000013000000F20200003C0000000600000002000000000000A0FF3F8F40000000C0F9FF2CC00000000000D051C0000000A0FF3F8F4000000000F9FF2CC000000040332355C00C00000013000000FA02
310
00003C0000000600000002000000000000A0FF3F8F40000000C0F9FF2CC00000000000D051C000000080FF3F8FC000000000EEFF2CC00000000000D051C00C00000013000000020300003C000000060000000200000000000080FF3F8FC000000000EEFF2CC00000000000D051C000000080FF3F8FC000000040EDFF2CC000
310
000040332355C00C000000130000000A0300003C0000000600000002000000000000A0FF3F8F4000000040830C2DC0000000809AC651C0000000A0FF3F8F40000000C0F9FF2CC00000000000D051C00C00000013000000120300003C0000000600000002000000000000A0FF3F8F4000000040830C2DC0000000809AC651C0
310
00000080FF3F8FC000000080770C2DC0000000809AC651C00C000000130000001A0300003C000000060000000200000000000080FF3F8FC000000000EEFF2CC00000000000D051C000000080FF3F8FC000000080770C2DC0000000809AC651C00C00000013000000220300003C0000000600000002000000000000A0FF3F8F
310
40000000C0E0302DC00000008021BE51C0000000A0FF3F8F4000000040830C2DC0000000809AC651C00C000000130000002A0300003C0000000600000002000000000000A0FF3F8F40000000C0E0302DC00000008021BE51C000000080FF3F8FC000000000D5302DC00000008021BE51C00C00000013000000320300003C00
310
0000060000000200000000000080FF3F8FC000000080770C2DC0000000809AC651C000000080FF3F8FC000000000D5302DC00000008021BE51C00C000000130000003A0300003C0000000600000002000000000000A0FF3F8F40000000407F692DC00000004068B751C0000000A0FF3F8F40000000C0E0302DC00000008021
310
BE51C00C00000013000000420300003C0000000600000002000000000000A0FF3F8F40000000407F692DC00000004068B751C000000080FF3F8FC00000008073692DC00000004068B751C00C000000130000004A0300003C000000060000000200000000000080FF3F8FC000000000D5302DC00000008021BE51C000000080
310
FF3F8FC00000008073692DC00000004068B751C00C00000013000000520300003C0000000600000002000000000000A0FF3F8F40000000C0D8B02DC0000000C016B351C0000000A0FF3F8F40000000407F692DC00000004068B751C00C000000130000005A0300003C0000000600000002000000000000A0FF3F8F40000000
310
C0D8B02DC0000000C016B351C000000080FF3F8FC000000000CDB02DC0000000C016B351C00C00000013000000620300003C000000060000000200000000000080FF3F8FC00000008073692DC00000004068B751C000000080FF3F8FC000000000CDB02DC0000000C016B351C00C000000130000006A0300003C0000000600
310
000002000000000000A0FF3F8F40000000C0F9FF2DC0000000A099B151C0000000A0FF3F8F40000000C0D8B02DC0000000C016B351C00C00000013000000720300003C0000000600000002000000000000A0FF3F8F40000000C0F9FF2DC0000000A099B151C000000080FF3F8FC000000000EEFF2DC0000000A099B151C00C
310
000000130000007A0300003C000000060000000200000000000080FF3F8FC000000000EEFF2DC0000000A099B151C000000080FF3F8FC000000000CDB02DC0000000C016B351C00C00000013000000820300003C0000000600000002000000000000A0FF3F8F40000000C0FC7F32C0000000A099B151C0000000A0FF3F8F40
310
000000C0F9FF2DC0000000A099B151C00C000000130000008A0300003C0000000600000002000000000000A0FF3F8F40000000C0FC7F32C0000000A099B151C000000080FF3F8FC0000000E0F67F32C0000000A099B151C00C00000013000000920300003C000000060000000200000000000080FF3F8FC0000000E0F67F32
310
C0000000A099B151C000000080FF3F8FC000000000EEFF2DC0000000A099B151C00C000000130000009A0300003C0000000600000002000000000000A0FF3F8F40000000408DA732C0000000601CB051C0000000A0FF3F8F40000000C0FC7F32C0000000A099B151C00C00000013000000A20300003C000000060000000200
310
0000000000A0FF3F8F40000000408DA732C0000000601CB051C000000080FF3F8FC00000006087A732C0000000601CB051C00C00000013000000AA0300003C000000060000000200000000000080FF3F8FC0000000E0F67F32C0000000A099B151C000000080FF3F8FC00000006087A732C0000000601CB051C00C00000013
310
000000B20300003C0000000600000002000000000000A0FF3F8F40000000003ACB32C000000000CBAB51C0000000A0FF3F8F40000000408DA732C0000000601CB051C00C00000013000000BA0300003C0000000600000002000000000000A0FF3F8F40000000003ACB32C000000000CBAB51C000000080FF3F8FC000000020
310
34CB32C000000000CBAB51C00C00000013000000C20300003C000000060000000200000000000080FF3F8FC00000006087A732C0000000601CB051C000000080FF3F8FC00000002034CB32C000000000CBAB51C00C00000013000000CA0300003C0000000600000002000000000000A0FF3F8F400000004089E732C0000000
310
C011A551C0000000A0FF3F8F40000000003ACB32C000000000CBAB51C00C00000013000000D20300003C0000000600000002000000000000A0FF3F8F400000004089E732C0000000C011A551C000000080FF3F8FC00000006083E732C0000000C011A551C00C00000013000000DA0300003C00000006000000020000000000
310
0080FF3F8FC00000002034CB32C000000000CBAB51C000000080FF3F8FC00000006083E732C0000000C011A551C00C00000013000000E20300003C0000000600000002000000000000A0FF3F8F40000000E0B7F932C0000000C0989C51C0000000A0FF3F8F400000004089E732C0000000C011A551C00C00000013000000EA
310
0300003C0000000600000002000000000000A0FF3F8F40000000E0B7F932C0000000C0989C51C000000080FF3F8FC000000000B2F932C0000000C0989C51C00C00000013000000F20300003C000000060000000200000000000080FF3F8FC00000006083E732C0000000C011A551C000000080FF3F8FC000000000B2F932C0
310
000000C0989C51C00C00000013000000FA0300003C0000000600000002000000000000A0FF3F8F40000000C0FCFF32C000000040339351C0000000A0FF3F8F40000000E0B7F932C0000000C0989C51C00C00000013000000020400003C0000000600000002000000000000A0FF3F8F40000000C0FCFF32C000000040339351
310
C000000080FF3F8FC0000000E0F6FF32C000000040339351C00C000000130000000A0400003C000000060000000200000000000080FF3F8FC0000000E0F6FF32C000000040339351C000000080FF3F8FC000000000B2F932C0000000C0989C51C00C00000013000000120400003C0000000600000002000000000000A0FF3F
310
8F40000000C0FCFF32C0000000E0AD1F51C0000000A0FF3F8F40000000C0FCFF32C000000040339351C00C000000130000001A0400003C0000000600000002000000000000A0FF3F8F40000000C0FCFF32C0000000E0AD1F51C000000080FF3F8FC0000000E0F6FF32C0000000E0AD1F51C00C00000013000000220400003C
310
000000060000000200000000000080FF3F8FC0000000E0F6FF32C0000000E0AD1F51C000000080FF3F8FC0000000E0F6FF32C000000040339351C00C000000130000002A0400003C0000000600000002000000000000A0FF3F8F4000000040040A33C0000000403CA150C0000000A0FF3F8F40000000C0FCFF32C0000000E0
310
AD1F51C00C00000013000000320400003C0000000600000002000000000000A0FF3F8F4000000040040A33C0000000403CA150C000000080FF3F8FC000000060FE0933C0000000403CA150C00C000000130000003A0400003C000000060000000200000000000080FF3F8FC000000060FE0933C0000000403CA150C0000000
310
80FF3F8FC0000000E0F6FF32C0000000E0AD1F51C00C00000013000000420400003C0000000600000002000000000000A0FF3F8F4000000080BB2733C000000040512350C0000000A0FF3F8F4000000040040A33C0000000403CA150C00C000000130000004A0400003C0000000600000002000000000000A0FF3F8F400000
310
0080BB2733C000000040512350C000000080FF3F8FC0000000A0B52733C000000040512350C00C00000013000000520400003C000000060000000200000000000080FF3F8FC0000000A0B52733C000000040512350C000000080FF3F8FC000000060FE0933C0000000403CA150C00C000000130000005A0400003C00000006
310
00000002000000000000A0FF3F8F4000000080225933C000000080D94B4FC0000000A0FF3F8F4000000080BB2733C000000040512350C00C00000013000000620400003C0000000600000002000000000000A0FF3F8F4000000080225933C000000080D94B4FC000000080FF3F8FC0000000A01C5933C000000080D94B4FC0
310
0C000000130000006A0400003C000000060000000200000000000080FF3F8FC0000000A01C5933C000000080D94B4FC000000080FF3F8FC0000000A0B52733C000000040512350C00C00000013000000720400003C0000000600000002000000000000A0FF3F8F40000000E0589E33C000000040C5514EC0000000A0FF3F8F
310
4000000080225933C000000080D94B4FC00C000000130000007A0400003C0000000600000002000000000000A0FF3F8F40000000E0589E33C000000040C5514EC000000080FF3F8FC000000000539E33C000000040C5514EC00C00000013000000820400003C000000060000000200000000000080FF3F8FC000000000539E
310
33C000000040C5514EC000000080FF3F8FC0000000A01C5933C000000080D94B4FC00C000000130000008A0400003C0000000600000002000000000000A0FF3F8F40000000003FF733C000000000BE584DC0000000A0FF3F8F40000000E0589E33C000000040C5514EC00C00000013000000920400003C0000000600000002
310
000000000000A0FF3F8F40000000003FF733C000000000BE584DC000000080FF3F8FC00000002039F733C000000000BE584DC00C000000130000009A0400003C000000060000000200000000000080FF3F8FC00000002039F733C000000000BE584DC000000080FF3F8FC000000000539E33C000000040C5514EC00C000000
310
13000000A20400003C0000000600000002000000000000A0FF3F8F40000000E0756334C000000000CE614CC0000000A0FF3F8F40000000003FF733C000000000BE584DC00C00000013000000AA0400003C0000000600000002000000000000A0FF3F8F40000000E0756334C000000000CE614CC000000080FF3F8FC0000000
310
00706334C000000000CE614CC00C00000013000000B20400003C000000060000000200000000000080FF3F8FC000000000706334C000000000CE614CC000000080FF3F8FC00000002039F733C000000000BE584DC00C00000013000000BA0400003C0000000600000002000000000000A0FF3F8F400000006012E334C00000
310
0040F76C4BC0000000A0FF3F8F40000000E0756334C000000000CE614CC00C00000013000000C20400003C0000000600000002000000000000A0FF3F8F400000006012E334C000000040F76C4BC000000080FF3F8FC0000000800CE334C000000040F76C4BC00C00000013000000CA0400003C000000060000000200000000
310
000080FF3F8FC0000000800CE334C000000040F76C4BC000000080FF3F8FC000000000706334C000000000CE614CC00C00000013000000D20400003C0000000600000002000000000000A0FF3F8F40000000E0FF7535C000000040377A4AC0000000A0FF3F8F400000006012E334C000000040F76C4BC00C00000013000000
310
DA0400003C0000000600000002000000000000A0FF3F8F40000000E0FF7535C000000040377A4AC000000080FF3F8FC000000000FA7535C000000040377A4AC00C00000013000000E20400003C000000060000000200000000000080FF3F8FC000000000FA7535C000000040377A4AC000000080FF3F8FC0000000800CE334
310
C000000040F76C4BC00C00000013000000EA0400003C0000000600000002000000000000A0FF3F8F4000000020A11B36C0000000E0918A49C0000000A0FF3F8F40000000E0FF7535C000000040377A4AC00C00000013000000F20400003C0000000600000002000000000000A0FF3F8F4000000020A11B36C0000000E0918A
310
49C000000080FF3F8FC0000000409B1B36C0000000E0918A49C00C00000013000000FA0400003C000000060000000200000000000080FF3F8FC0000000409B1B36C0000000E0918A49C000000080FF3F8FC000000000FA7535C000000040377A4AC00C00000013000000020500003C0000000600000002000000000000A0FF
310
3F8F40000000400AD436C0000000A0099E48C0000000A0FF3F8F4000000020A11B36C0000000E0918A49C00C000000130000000A0500003C0000000600000002000000000000A0FF3F8F40000000400AD436C0000000A0099E48C000000080FF3F8FC00000006004D436C0000000A0099E48C00C0000001300000012050000
310
3C000000060000000200000000000080FF3F8FC00000006004D436C0000000A0099E48C000000080FF3F8FC0000000409B1B36C0000000E0918A49C00C000000130000001A0500003C0000000600000002000000000000A0FF3F8F40000000A0279F37C0000000609BB447C0000000A0FF3F8F40000000400AD436C0000000
310
A0099E48C00C00000013000000220500003C0000000600000002000000000000A0FF3F8F40000000A0279F37C0000000609BB447C000000080FF3F8FC0000000C0219F37C0000000609BB447C00C000000130000002A0500003C000000060000000200000000000080FF3F8FC0000000C0219F37C0000000609BB447C00000
310
0080FF3F8FC00000006004D436C0000000A0099E48C00C00000013000000320500003C0000000600000002000000000000A0FF3F8F4000000020207C38C0000000A040CF46C0000000A0FF3F8F40000000A0279F37C0000000609BB447C00C000000130000003A0500003C0000000600000002000000000000A0FF3F8F4000
310
000020207C38C0000000A040CF46C000000080FF3F8FC0000000401A7C38C0000000A040CF46C00C00000013000000420500003C000000060000000200000000000080FF3F8FC0000000401A7C38C0000000A040CF46C000000080FF3F8FC0000000C0219F37C0000000609BB447C00C000000130000004A0500003C000000
310
0600000002000000000000A0FF3F8F40000000E0066B39C000000060FDED45C0000000A0FF3F8F4000000020207C38C0000000A040CF46C00C00000013000000520500003C0000000600000002000000000000A0FF3F8F40000000E0066B39C000000060FDED45C000000080FF3F8FC000000000016B39C000000060FDED45
310
C00C000000130000005A0500003C000000060000000200000000000080FF3F8FC000000000016B39C000000060FDED45C000000080FF3F8FC0000000401A7C38C0000000A040CF46C00C00000013000000620500003C0000000600000002000000000000A0FF3F8F40000000E0C86B3AC0000000A0CD1045C0000000A0FF3F
310
8F40000000E0066B39C000000060FDED45C00C000000130000006A0500003C0000000600000002000000000000A0FF3F8F40000000E0C86B3AC0000000A0CD1045C000000080FF3F8FC000000000C36B3AC0000000A0CD1045C00C00000013000000720500003C000000060000000200000000000080FF3F8FC000000000C3
310
6B3AC0000000A0CD1045C000000080FF3F8FC000000000016B39C000000060FDED45C00C000000130000007A0500003C0000000600000002000000000000A0FF3F8F4000000000547D3BC0000000209D3844C0000000A0FF3F8F40000000E0C86B3AC0000000A0CD1045C00C00000013000000820500003C00000006000000
310
02000000000000A0FF3F8F4000000000547D3BC0000000209D3844C000000080FF3F8FC0000000204E7D3BC0000000209D3844C00C000000130000008A0500003C000000060000000200000000000080FF3F8FC0000000204E7D3BC0000000209D3844C000000080FF3F8FC000000000C36B3AC0000000A0CD1045C00C0000
310
0013000000920500003C0000000600000002000000000000A0FF3F8F4000000020BA9F3CC000000060716543C0000000A0FF3F8F4000000000547D3BC0000000209D3844C00C000000130000009A0500003C0000000600000002000000000000A0FF3F8F4000000020BA9F3CC000000060716543C000000080FF3F8FC00000
310
0040B49F3CC000000060716543C00C00000013000000A20500003C000000060000000200000000000080FF3F8FC000000040B49F3CC000000060716543C000000080FF3F8FC0000000204E7D3BC0000000209D3844C00C00000013000000AA0500003C0000000600000002000000000000A0FF3F8F4000000060E9D23DC000
310
000000459742C0000000A0FF3F8F4000000020BA9F3CC000000060716543C00C00000013000000B20500003C0000000600000002000000000000A0FF3F8F4000000060E9D23DC000000000459742C000000080FF3F8FC000000080E3D23DC000000000459742C00C00000013000000BA0500003C0000000600000002000000
310
00000080FF3F8FC000000080E3D23DC000000000459742C000000080FF3F8FC000000040B49F3CC000000060716543C00C00000013000000C20500003C0000000600000002000000000000A0FF3F8F40000000E099153FC000000020F4CE41C0000000A0FF3F8F4000000060E9D23DC000000000459742C00C000000130000
310
00CA0500003C0000000600000002000000000000A0FF3F8F40000000E099153FC000000020F4CE41C000000080FF3F8FC00000000094153FC000000020F4CE41C00C00000013000000D20500003C000000060000000200000000000080FF3F8FC00000000094153FC000000020F4CE41C000000080FF3F8FC000000080E3D2
310
3DC000000000459742C00C00000013000000DA0500003C0000000600000002000000000000A0FF3F8F4000000020EE3340C000000000850C41C0000000A0FF3F8F40000000E099153FC000000020F4CE41C00C00000013000000E20500003C0000000600000002000000000000A0FF3F8F4000000020EE3340C00000000085
310
0C41C000000080FF3F8FC000000040EB3340C000000000850C41C00C00000013000000EA0500003C000000060000000200000000000080FF3F8FC000000040EB3340C000000000850C41C000000080FF3F8FC00000000094153FC000000020F4CE41C00C00000013000000F20500003C0000000600000002000000000000A0
310
FF3F8F4000000000D0E440C000000060F14F40C0000000A0FF3F8F4000000020EE3340C000000000850C41C00C00000013000000FA0500003C0000000600000002000000000000A0FF3F8F4000000000D0E440C000000060F14F40C000000080FF3F8FC000000020CDE440C000000060F14F40C00C00000013000000020600
310
003C000000060000000200000000000080FF3F8FC000000020CDE440C000000060F14F40C000000080FF3F8FC000000040EB3340C000000000850C41C00C000000130000000A0600003C0000000600000002000000000000A0FF3F8F4000000080B59C41C00000000005343FC0000000A0FF3F8F4000000000D0E440C00000
310
0060F14F40C00C00000013000000120600003C0000000600000002000000000000A0FF3F8F4000000080B59C41C00000000005343FC000000080FF3F8FC0000000A0B29C41C00000000005343FC00C000000130000001A0600003C000000060000000200000000000080FF3F8FC0000000A0B29C41C00000000005343FC000
310
000080FF3F8FC000000020CDE440C000000060F14F40C00C00000013000000220600003C0000000600000002000000000000A0FF3F8F4000000060A65B42C0000000007FD53DC0000000A0FF3F8F4000000080B59C41C00000000005343FC00C000000130000002A0600003C0000000600000002000000000000A0FF3F8F40
310
00000060A65B42C0000000007FD53DC000000080FF3F8FC000000080A35B42C0000000007FD53DC00C00000013000000320600003C000000060000000200000000000080FF3F8FC000000080A35B42C0000000007FD53DC000000080FF3F8FC0000000A0B29C41C00000000005343FC00C000000130000003A0600003C0000
310
000600000002000000000000A0FF3F8F40000000209B2143C0000000C042843CC0000000A0FF3F8F4000000060A65B42C0000000007FD53DC00C00000013000000420600003C0000000600000002000000000000A0FF3F8F40000000209B2143C0000000C042843CC000000080FF3F8FC000000040982143C0000000C04284
310
3CC00C000000130000004A0600003C000000060000000200000000000080FF3F8FC000000040982143C0000000C042843CC000000080FF3F8FC000000080A35B42C0000000007FD53DC00C00000013000000520600003C0000000600000002000000000000A0FF3F8F4000000040C0ED43C0000000C0B7413BC0000000A0FF
310
3F8F40000000209B2143C0000000C042843CC00C000000130000005A0600003C0000000600000002000000000000A0FF3F8F4000000040C0ED43C0000000C0B7413BC000000080FF3F8FC000000060BDED43C0000000C0B7413BC00C00000013000000620600003C000000060000000200000000000080FF3F8FC000000060
310
BDED43C0000000C0B7413BC000000080FF3F8FC000000040982143C0000000C042843CC00C000000130000006A0600003C0000000600000002000000000000A0FF3F8F40000000A01CC044C000000000EE0D3AC0000000A0FF3F8F4000000040C0ED43C0000000C0B7413BC00C00000013000000720600003C000000060000
310
0002000000000000A0FF3F8F40000000A01CC044C000000000EE0D3AC000000080FF3F8FC0000000C019C044C000000000EE0D3AC00C000000130000007A0600003C000000060000000200000000000080FF3F8FC0000000C019C044C000000000EE0D3AC000000080FF3F8FC000000060BDED43C0000000C0B7413BC00C00
310
000013000000820600003C0000000600000002000000000000A0FF3F8F4000000060A99845C0000000A0D5E838C0000000A0FF3F8F40000000A01CC044C000000000EE0D3AC00C000000130000008A0600003C0000000600000002000000000000A0FF3F8F4000000060A99845C0000000A0D5E838C000000080FF3F8FC000
310
000080A69845C0000000A0D5E838C00C00000013000000920600003C000000060000000200000000000080FF3F8FC000000080A69845C0000000A0D5E838C000000080FF3F8FC0000000C019C044C000000000EE0D3AC00C000000130000009A0600003C0000000600000002000000000000C0FF3F8F40000000807F7646C0
310
000000C0A7D337C0000000A0FF3F8F4000000060A99845C0000000A0D5E838C00C00000013000000A20600003C0000000600000002000000000000C0FF3F8F40000000807F7646C0000000C0A7D337C000000080FF3F8FC0000000A07C7646C0000000C0A7D337C00C00000013000000AA0600003C00000006000000020000
310
0000000080FF3F8FC0000000A07C7646C0000000C0A7D337C000000080FF3F8FC000000080A69845C0000000A0D5E838C00C00000013000000B20600003C0000000600000002000000000000C0FF3F8F40000000A0A45947C00000004075CE36C0000000C0FF3F8F40000000807F7646C0000000C0A7D337C00C0000001300
310
0000BA0600003C0000000600000002000000000000C0FF3F8F40000000A0A45947C00000004075CE36C000000080FF3F8FC0000000C0A15947C00000004075CE36C00C00000013000000C20600003C000000060000000200000000000080FF3F8FC0000000C0A15947C00000004075CE36C000000080FF3F8FC0000000A07C
310
7646C0000000C0A7D337C00C00000013000000CA0600003C0000000600000002000000000000C0FF3F8F4000000040134248C0000000202DD935C0000000C0FF3F8F40000000A0A45947C00000004075CE36C00C00000013000000D20600003C0000000600000002000000000000C0FF3F8F4000000040134248C000000020
310
2DD935C000000080FF3F8FC000000060104248C0000000202DD935C00C00000013000000DA0600003C000000060000000200000000000080FF3F8FC000000060104248C0000000202DD935C000000080FF3F8FC0000000C0A15947C00000004075CE36C00C00000013000000E20600003C0000000600000002000000000000
310
C0FF3F8F4000000000D32E49C000000020D5F434C0000000C0FF3F8F4000000040134248C0000000202DD935C00C00000013000000EA0600003C0000000600000002000000000000C0FF3F8F4000000000D32E49C000000020D5F434C000000080FF3F8FC000000040D02E49C000000020D5F434C00C00000013000000F206
310
00003C000000060000000200000000000080FF3F8FC000000040D02E49C000000020D5F434C000000080FF3F8FC000000060104248C0000000202DD935C00C00000013000000FA0600003C0000000600000002000000000000C0FF3F8F40000000C0E81F4AC0000000A07F2134C0000000C0FF3F8F4000000000D32E49C000
310
000020D5F434C00C00000013000000020700003C0000000600000002000000000000C0FF3F8F40000000C0E81F4AC0000000A07F2134C000000080FF3F8FC0000000E0E51F4AC0000000A07F2134C00C000000130000000A0700003C000000060000000200000000000080FF3F8FC0000000E0E51F4AC0000000A07F2134C0
310
00000080FF3F8FC000000040D02E49C000000020D5F434C00C00000013000000120700003C0000000600000002000000000000C0FF3F8F40000000804F154BC0000000201A5F33C0000000C0FF3F8F40000000C0E81F4AC0000000A07F2134C00C000000130000001A0700003C0000000600000002000000000000C0FF3F8F
310
40000000804F154BC0000000201A5F33C000000080FF3F8FC0000000C04C154BC0000000201A5F33C00C00000013000000220700003C000000060000000200000000000080FF3F8FC0000000C04C154BC0000000201A5F33C000000080FF3F8FC0000000E0E51F4AC0000000A07F2134C00C000000130000002A0700003C00
310
00000600000002000000000000C0FF3F8F40000000A0010E4CC00000008074AE32C0000000C0FF3F8F40000000804F154BC0000000201A5F33C00C00000013000000320700003C0000000600000002000000000000C0FF3F8F40000000A0010E4CC00000008074AE32C000000080FF3F8FC0000000C0FE0D4CC00000008074
310
AE32C00C000000130000003A0700003C000000060000000200000000000080FF3F8FC0000000C0FE0D4CC00000008074AE32C000000080FF3F8FC0000000C04C154BC0000000201A5F33C00C00000013000000420700003C0000000600000002000000000000C0FF3F8F40000000C0020A4DC000000060A10F32C0000000C0
310
FF3F8F40000000A0010E4CC00000008074AE32C00C000000130000004A0700003C0000000600000002000000000000C0FF3F8F40000000C0020A4DC000000060A10F32C000000080FF3F8FC0000000C0FF094DC000000060A10F32C00C00000013000000520700003C000000060000000200000000000080FF3F8FC0000000
310
C0FF094DC000000060A10F32C000000080FF3F8FC0000000C0FE0D4CC00000008074AE32C00C000000130000005A0700003C0000000600000002000000000000C0FF3F8F40000000004F094EC0000000E08D8231C0000000C0FF3F8F40000000C0020A4DC000000060A10F32C00C00000013000000620700003C0000000600
310
000002000000000000C0FF3F8F40000000004F094EC0000000E08D8231C000000080FF3F8FC0000000004C094EC0000000E08D8231C00C000000130000006A0700003C000000060000000200000000000080FF3F8FC0000000004C094EC0000000E08D8231C000000080FF3F8FC0000000C0FF094DC000000060A10F32C00C
310
00000013000000720700003C0000000600000002000000000000C0FF3F8F4000000000D60A4FC0000000C0D00731C0000000C0FF3F8F40000000004F094EC0000000E08D8231C00C000000130000007A0700003C0000000600000002000000000000C0FF3F8F4000000000D60A4FC0000000C0D00731C000000080FF3F8FC0
310
00000000D30A4FC0000000C0D00731C00C00000013000000820700003C000000060000000200000000000080FF3F8FC000000000D30A4FC0000000C0D00731C000000080FF3F8FC0000000004C094EC0000000E08D8231C00C000000130000008A0700003C0000000600000002000000000000C0FF3F8F40000000C04D0750
310
C0000000607D9F30C0000000C0FF3F8F4000000000D60A4FC0000000C0D00731C00C00000013000000920700003C0000000600000002000000000000C0FF3F8F40000000C04D0750C0000000607D9F30C000000080FF3F8FC0000000604C0750C0000000607D9F30C00C000000130000009A0700003C000000060000000200
310
000000000080FF3F8FC0000000604C0750C0000000607D9F30C000000080FF3F8FC000000000D30A4FC0000000C0D00731C00C00000013000000A20700003C0000000600000002000000000000C0FF3F8F40000000004E8A50C000000080804930C0000000C0FF3F8F40000000C04D0750C0000000607D9F30C00C00000013
310
000000AA0700003C0000000600000002000000000000C0FF3F8F40000000004E8A50C000000080804930C000000080FF3F8FC0000000A04C8A50C000000080804930C00C00000013000000B20700003C000000060000000200000000000080FF3F8FC0000000A04C8A50C000000080804930C000000080FF3F8FC000000060
310
4C0750C0000000607D9F30C00C00000013000000BA0700003C0000000600000002000000000000C0FF3F8F4000000080DD0D51C000000080350630C0000000C0FF3F8F40000000004E8A50C000000080804930C00C00000013000000C20700003C0000000600000002000000000000C0FF3F8F4000000080DD0D51C0000000
310
80350630C000000080FF3F8FC000000020DC0D51C000000080350630C00C00000013000000CA0700003C000000060000000200000000000080FF3F8FC000000020DC0D51C000000080350630C000000080FF3F8FC0000000A04C8A50C000000080804930C00C00000013000000D20700003C00000006000000020000000000
310
00C0FF3F8F4000000040CD9151C00000008076AB2FC0000000C0FF3F8F4000000080DD0D51C000000080350630C00C00000013000000DA0700003C0000000600000002000000000000C0FF3F8F4000000040CD9151C00000008076AB2FC000000080FF3F8FC0000000C0CB9151C00000008076AB2FC00C00000013000000E2
310
0700003C000000060000000200000000000080FF3F8FC0000000C0CB9151C00000008076AB2FC000000080FF3F8FC000000020DC0D51C000000080350630C00C00000013000000EA0700003C0000000600000002000000000000C0FF3F8F40000000004C1652C000000080E66F2FC0000000C0FF3F8F4000000040CD9151C0
310
0000008076AB2FC00C00000013000000F20700003C0000000600000002000000000000C0FF3F8F40000000004C1652C000000080E66F2FC000000080FF3F8FC0000000A04A1652C000000080E66F2FC00C00000013000000FA0700003C000000060000000200000000000080FF3F8FC0000000A04A1652C000000080E66F2F
310
C000000080FF3F8FC0000000C0CB9151C00000008076AB2FC00C00000013000000020800003C0000000600000002000000000000C0FF3F8F40000000405A9B52C000000080BA592FC0000000C0FF3F8F40000000004C1652C000000080E66F2FC00C000000130000000A0800003C0000000600000002000000000000C0FF3F
310
8F40000000405A9B52C000000080BA592FC000000080FF3F8FC0000000E0589B52C000000080BA592FC00C00000013000000120800003C000000060000000200000000000080FF3F8FC0000000E0589B52C000000080BA592FC000000080FF3F8FC0000000A04A1652C000000080E66F2FC00C000000130000001A0800003C
310
0000000600000002000000000000C0FF3F8F40000000C09EA152C0000000004A5E2FC0000000C0FF3F8F40000000405A9B52C000000080BA592FC00C00000013000000220800003C0000000600000002000000000000C0FF3F8F40000000C09EA152C0000000004A5E2FC000000080FF3F8FC0000000409DA152C000000000
310
4A5E2FC00C000000130000002A0800003C000000060000000200000000000080FF3F8FC0000000E0589B52C000000080BA592FC000000080FF3F8FC0000000409DA152C0000000004A5E2FC00C00000013000000320800003C0000000600000002000000000000C0FF3F8F4000000000A7A752C000000080196C2FC0000000
310
C0FF3F8F40000000C09EA152C0000000004A5E2FC00C000000130000003A0800003C0000000600000002000000000000C0FF3F8F4000000000A7A752C000000080196C2FC000000080FF3F8FC000000080A5A752C000000080196C2FC00C00000013000000420800003C000000060000000200000000000080FF3F8FC00000
310
00409DA152C0000000004A5E2FC000000080FF3F8FC000000080A5A752C000000080196C2FC00C000000130000004A0800003C0000000600000002000000000000C0FF3F8F400000000036AD52C0000000809E822FC0000000C0FF3F8F4000000000A7A752C000000080196C2FC00C00000013000000520800003C00000006
310
00000002000000000000C0FF3F8F400000000036AD52C0000000809E822FC000000080FF3F8FC0000000A034AD52C0000000809E822FC00C000000130000005A0800003C000000060000000200000000000080FF3F8FC000000080A5A752C000000080196C2FC000000080FF3F8FC0000000A034AD52C0000000809E822FC0
310
0C00000013000000620800003C0000000600000002000000000000C0FF3F8F400000008014B252C000000080F5A02FC0000000C0FF3F8F400000000036AD52C0000000809E822FC00C000000130000006A0800003C0000000600000002000000000000C0FF3F8F400000008014B252C000000080F5A02FC000000080FF3F8F
310
C00000000013B252C000000080F5A02FC00C00000013000000720800003C000000060000000200000000000080FF3F8FC00000000013B252C000000080F5A02FC000000080FF3F8FC0000000A034AD52C0000000809E822FC00C000000130000007A0800003C0000000600000002000000000000C0FF3F8F40000000C08EA2
310
53C0000000804B6233C0000000C0FF3F8F400000008014B252C000000080F5A02FC00C00000013000000820800003C0000000600000002000000000000C0FF3F8F40000000C08EA253C0000000804B6233C000000080FF3F8FC0000000408DA253C0000000804B6233C00C000000130000008A0800003C0000000600000002
310
00000000000080FF3F8FC00000000013B252C000000080F5A02FC000000080FF3F8FC0000000408DA253C0000000804B6233C00C00000013000000920800003C0000000600000002000000000000C0FF3F8F400000006055C253C0000000408FC233C0000000C0FF3F8F40000000C08EA253C0000000804B6233C00C000000
310
130000009A0800003C0000000600000002000000000000C0FF3F8F400000006055C253C0000000408FC233C000000080FF3F8FC00000000054C253C0000000408FC233C00C00000013000000A20800003C000000060000000200000000000080FF3F8FC0000000408DA253C0000000804B6233C000000080FF3F8FC0000000
310
0054C253C0000000408FC233C00C00000013000000AA0800003C0000000600000002000000000000C0FF3F8F400000004084FC53C000000040F62C34C0000000C0FF3F8F400000006055C253C0000000408FC233C00C00000013000000B20800003C0000000600000002000000000000C0FF3F8F400000004084FC53C00000
310
0040F62C34C000000080FF3F8FC0000000C082FC53C000000040F62C34C00C00000013000000BA0800003C000000060000000200000000000080FF3F8FC0000000C082FC53C000000040F62C34C000000080FF3F8FC00000000054C253C0000000408FC233C00C00000013000000C20800003C000000060000000200000000
310
0000C0FF3F8F40000000006F3C54C0000000C0905134C0000000C0FF3F8F400000004084FC53C000000040F62C34C00C00000013000000CA0800003C0000000600000002000000000000C0FF3F8F40000000006F3C54C0000000C0905134C000000080FF3F8FC0000000806D3C54C0000000C0905134C00C00000013000000
310
D20800003C000000060000000200000000000080FF3F8FC0000000806D3C54C0000000C0905134C000000080FF3F8FC0000000C082FC53C000000040F62C34C00C00000013000000DA0800003C0000000600000002000000000000C0FF3F8F40000000C0537C54C000000000F82C34C0000000C0FF3F8F40000000006F3C54
310
C0000000C0905134C00C00000013000000E20800003C0000000600000002000000000000C0FF3F8F40000000C0537C54C000000000F82C34C000000080FF3F8FC000000040527C54C000000000F82C34C00C00000013000000EA0800003C000000060000000200000000000080FF3F8FC000000040527C54C000000000F82C
310
34C000000080FF3F8FC0000000806D3C54C0000000C0905134C00C00000013000000F20800003C0000000600000002000000000000C0FF3F8F400000000091B654C00000008065C233C0000000C0FF3F8F40000000C0537C54C000000000F82C34C00C00000013000000FA0800003C0000000600000002000000000000C0FF
310
3F8F400000000091B654C00000008065C233C000000080FF3F8FC0000000808FB654C00000008065C233C00C00000013000000020900003C000000060000000200000000000080FF3F8FC0000000808FB654C00000008065C233C000000080FF3F8FC000000040527C54C000000000F82C34C00C000000130000000A090000
310
3C0000000600000002000000000000C0FF3F8F4000000080F4E554C0000000004F1B33C0000000C0FF3F8F400000000091B654C00000008065C233C00C00000013000000120900003C0000000600000002000000000000C0FF3F8F4000000080F4E554C0000000004F1B33C000000080FF3F8FC000000000F3E554C0000000
310
004F1B33C00C000000130000001A0900003C000000060000000200000000000080FF3F8FC000000000F3E554C0000000004F1B33C000000080FF3F8FC0000000808FB654C00000008065C233C00C00000013000000220900003C0000000600000002000000000000C0FF3F8F4000000040050555C000000080D45532C00000
310
00C0FF3F8F4000000080F4E554C0000000004F1B33C00C000000130000002A0900003C0000000600000002000000000000C0FF3F8F4000000040050555C000000080D45532C000000080FF3F8FC0000000C0030555C000000080D45532C00C00000013000000320900003C000000060000000200000000000080FF3F8FC000
310
0000C0030555C000000080D45532C000000080FF3F8FC000000000F3E554C0000000004F1B33C00C000000130000003A0900003C0000000600000002000000000000C0FF3F8F40000000009C0E55C0000000409DEF31C0000000C0FF3F8F4000000040050555C000000080D45532C00C00000013000000420900003C000000
310
0600000002000000000000C0FF3F8F40000000009C0E55C0000000409DEF31C000000080FF3F8FC0000000A09A0E55C0000000409DEF31C00C000000130000004A0900003C000000060000000200000000000080FF3F8FC0000000A09A0E55C0000000409DEF31C000000080FF3F8FC0000000C0030555C000000080D45532
310
C00C00000013000000520900003C0000000600000002000000000000C0FF3F8F4000000080A43955C0000000C0A81A2FC0000000C0FF3F8F40000000009C0E55C0000000409DEF31C00C000000130000005A0900003C0000000600000002000000000000C0FF3F8F4000000080A43955C0000000C0A81A2FC000000080FF3F
310
8FC000000000A33955C0000000C0A81A2FC00C00000013000000620900003C000000060000000200000000000080FF3F8FC0000000A09A0E55C0000000409DEF31C000000080FF3F8FC000000000A33955C0000000C0A81A2FC00C000000130000006A0900003C0000000600000002000000000000C0FF3F8F4000000080F2
310
3D55C00000008078D22EC0000000C0FF3F8F4000000080A43955C0000000C0A81A2FC00C00000013000000720900003C0000000600000002000000000000C0FF3F8F4000000080F23D55C00000008078D22EC000000080FF3F8FC000000000F13D55C00000008078D22EC00C000000130000007A0900003C00000006000000
310
0200000000000080FF3F8FC000000000A33955C0000000C0A81A2FC000000080FF3F8FC000000000F13D55C00000008078D22EC00C00000013000000820900003C0000000600000002000000000000C0FF3F8F4000000080124555C000000080AA982EC0000000C0FF3F8F4000000080F23D55C00000008078D22EC00C0000
310
00130000008A0900003C0000000600000002000000000000C0FF3F8F4000000080124555C000000080AA982EC000000080FF3F8FC000000000114555C000000080AA982EC00C00000013000000920900003C000000060000000200000000000080FF3F8FC000000000F13D55C00000008078D22EC000000080FF3F8FC00000
310
0000114555C000000080AA982EC00C000000130000009A0900003C0000000600000002000000000000C0FF3F8F4000000040434E55C00000008052732EC0000000C0FF3F8F4000000080124555C000000080AA982EC00C00000013000000A20900003C0000000600000002000000000000C0FF3F8F4000000040434E55C000
310
00008052732EC000000080FF3F8FC0000000E0414E55C00000008052732EC00C00000013000000AA0900003C000000060000000200000000000080FF3F8FC000000000114555C000000080AA982EC000000080FF3F8FC0000000E0414E55C00000008052732EC00C00000013000000B20900003C0000000600000002000000
310
000000C0FF3F8F40000000408D5855C00000008067662EC0000000C0FF3F8F4000000040434E55C00000008052732EC00C00000013000000BA0900003C0000000600000002000000000000C0FF3F8F40000000408D5855C00000008067662EC000000080FF3F8FC0000000C08B5855C00000008067662EC00C000000130000
310
00C20900003C000000060000000200000000000080FF3F8FC0000000C08B5855C00000008067662EC000000080FF3F8FC0000000E0414E55C00000008052732EC00C00000013000000CA0900003C0000000600000002000000000000C0FF3F8F4000000040FF1F56C00000008067662EC0000000C0FF3F8F40000000408D58
310
55C00000008067662EC00C00000013000000D20900003C0000000600000002000000000000C0FF3F8F4000000040FF1F56C00000008067662EC000000080FF3F8FC0000000E0FD1F56C00000008067662EC00C00000013000000DA0900003C000000060000000200000000000080FF3F8FC0000000E0FD1F56C00000008067
310
662EC000000080FF3F8FC0000000C08B5855C00000008067662EC00C00000013000000E20900003C0000000600000002000000000000C0FF3F8F4000000080E32956C0000000007E5A2EC0000000C0FF3F8F4000000040FF1F56C00000008067662EC00C00000013000000EA0900003C0000000600000002000000000000C0
310
FF3F8F4000000080E32956C0000000007E5A2EC000000080FF3F8FC000000000E22956C0000000007E5A2EC00C00000013000000F20900003C000000060000000200000000000080FF3F8FC0000000E0FD1F56C00000008067662EC000000080FF3F8FC000000000E22956C0000000007E5A2EC00C00000013000000FA0900
310
003C0000000600000002000000000000C0FF3F8F40000000C0CE3256C000000080F2372EC0000000C0FF3F8F4000000080E32956C0000000007E5A2EC00C00000013000000020A00003C0000000600000002000000000000C0FF3F8F40000000C0CE3256C000000080F2372EC000000080FF3F8FC000000040CD3256C00000
310
0080F2372EC00C000000130000000A0A00003C000000060000000200000000000080FF3F8FC000000000E22956C0000000007E5A2EC000000080FF3F8FC000000040CD3256C000000080F2372EC00C00000013000000120A00003C0000000600000002000000000000C0FF3F8F4000000080E23956C00000008028022EC000
310
0000C0FF3F8F40000000C0CE3256C000000080F2372EC00C000000130000001A0A00003C0000000600000002000000000000C0FF3F8F4000000080E23956C00000008028022EC000000080FF3F8FC000000000E13956C00000008028022EC00C00000013000000220A00003C000000060000000200000000000080FF3F8FC0
310
00000040CD3256C000000080F2372EC000000080FF3F8FC000000000E13956C00000008028022EC00C000000130000002A0A00003C0000000600000002000000000000C0FF3F8F40000000006E3E56C00000004060BE2DC0000000C0FF3F8F4000000080E23956C00000008028022EC00C00000013000000320A00003C0000
310
000600000002000000000000C0FF3F8F40000000006E3E56C00000004060BE2DC000000080FF3F8FC0000000A06C3E56C00000004060BE2DC00C000000130000003A0A00003C000000060000000200000000000080FF3F8FC000000000E13956C00000008028022EC000000080FF3F8FC0000000A06C3E56C00000004060BE
310
2DC00C00000013000000420A00003C0000000600000002000000000000C0FF3F8F4000000040FF3F56C00000004034732DC0000000C0FF3F8F40000000006E3E56C00000004060BE2DC00C000000130000004A0A00003C0000000600000002000000000000C0FF3F8F4000000040FF3F56C00000004034732DC000000080FF
310
3F8FC0000000E0FD3F56C00000004034732DC00C00000013000000520A00003C000000060000000200000000000080FF3F8FC0000000E0FD3F56C00000004034732DC000000080FF3F8FC0000000A06C3E56C00000004060BE2DC00C000000130000005A0A00003C0000000600000002000000000000C0FF3F8F4000000040
310
FF3F56C00000000001C027C0000000C0FF3F8F4000000040FF3F56C00000004034732DC00C00000013000000620A00003C0000000600000002000000000000C0FF3F8F4000000040FF3F56C00000000001C027C000000080FF3F8FC0000000E0FD3F56C00000000001C027C00C000000130000006A0A00003C000000060000
310
000200000000000080FF3F8FC0000000E0FD3F56C00000000001C027C000000080FF3F8FC0000000E0FD3F56C00000004034732DC00C00000013000000720A00003C0000000600000002000000000000C0FF3F8F4000000080904156C000000000D57427C0000000C0FF3F8F4000000040FF3F56C00000000001C027C00C00
310
0000130000007A0A00003C0000000600000002000000000000C0FF3F8F4000000080904156C000000000D57427C000000080FF3F8FC0000000208F4156C000000000D57427C00C00000013000000820A00003C000000060000000200000000000080FF3F8FC0000000E0FD3F56C00000000001C027C000000080FF3F8FC000
310
0000208F4156C000000000D57427C00C000000130000008A0A00003C0000000600000002000000000000C0FF3F8F40000000401C4656C0000000800C3127C0000000C0FF3F8F4000000080904156C000000000D57427C00C00000013000000920A00003C0000000600000002000000000000C0FF3F8F40000000401C4656C0
310
000000800C3127C000000080FF3F8FC0000000C01A4656C0000000800C3127C00C000000130000009A0A00003C000000060000000200000000000080FF3F8FC0000000208F4156C000000000D57427C000000080FF3F8FC0000000C01A4656C0000000800C3127C00C00000013000000A20A00003C00000006000000020000
310
00000000C0FF3F8F4000000000304D56C00000000043FB26C0000000C0FF3F8F40000000401C4656C0000000800C3127C00C00000013000000AA0A00003C0000000600000002000000000000C0FF3F8F4000000000304D56C00000000043FB26C000000080FF3F8FC0000000802E4D56C00000000043FB26C00C0000001300
310
0000B20A00003C000000060000000200000000000080FF3F8FC0000000C01A4656C0000000800C3127C000000080FF3F8FC0000000802E4D56C00000000043FB26C00C00000013000000BA0A00003C0000000600000002000000000000C0FF3F8F40000000401B5656C000000040B7D826C0000000C0FF3F8F400000000030
310
4D56C00000000043FB26C00C00000013000000C20A00003C0000000600000002000000000000C0FF3F8F40000000401B5656C000000040B7D826C000000080FF3F8FC0000000C0195656C000000040B7D826C00C00000013000000CA0A00003C000000060000000200000000000080FF3F8FC0000000802E4D56C000000000
310
43FB26C000000080FF3F8FC0000000C0195656C000000040B7D826C00C00000013000000D20A00003C0000000600000002000000000000C0FF3F8F4000000040FF5F56C0000000C0CDCC26C0000000C0FF3F8F40000000401B5656C000000040B7D826C00C00000013000000DA0A00003C0000000600000002000000000000
310
C0FF3F8F4000000040FF5F56C0000000C0CDCC26C000000080FF3F8FC0000000E0FD5F56C0000000C0CDCC26C00C00000013000000E20A00003C000000060000000200000000000080FF3F8FC0000000E0FD5F56C0000000C0CDCC26C000000080FF3F8FC0000000C0195656C000000040B7D826C00C00000013000000EA0A
310
00003C0000000600000002000000000000C0FF3F8F40000000C0102157C0000000C0CDCC26C0000000C0FF3F8F4000000040FF5F56C0000000C0CDCC26C00C00000013000000F20A00003C0000000600000002000000000000C0FF3F8F40000000C0102157C0000000C0CDCC26C000000080FF3F8FC0000000400F2157C000
310
0000C0CDCC26C00C00000013000000FA0A00003C000000060000000200000000000080FF3F8FC0000000400F2157C0000000C0CDCC26C000000080FF3F8FC0000000E0FD5F56C0000000C0CDCC26C00C00000013000000020B00003C0000000600000002000000000000C0FF3F8F4000000000D12C57C000000000D0BB26C0
310
000000C0FF3F8F40000000C0102157C0000000C0CDCC26C00C000000130000000A0B00003C0000000600000002000000000000C0FF3F8F4000000000D12C57C000000000D0BB26C000000080FF3F8FC000000080CF2C57C000000000D0BB26C00C00000013000000120B00003C000000060000000200000000000080FF3F8F
310
C0000000400F2157C0000000C0CDCC26C000000080FF3F8FC000000080CF2C57C000000000D0BB26C00C000000130000001A0B00003C0000000600000002000000000000C0FF3F8F4000000000ED3657C000000080368B26C0000000C0FF3F8F4000000000D12C57C000000000D0BB26C00C00000013000000220B00003C00
310
00000600000002000000000000C0FF3F8F4000000000ED3657C000000080368B26C000000080FF3F8FC000000080EB3657C000000080368B26C00C000000130000002A0B00003C000000060000000200000000000080FF3F8FC000000080CF2C57C000000000D0BB26C000000080FF3F8FC000000080EB3657C00000008036
310
8B26C00C00000013000000320B00003C0000000600000002000000000000C0FF3F8F40000000C0FA3D57C000000080CB4126C0000000C0FF3F8F4000000000ED3657C000000080368B26C00C000000130000003A0B00003C0000000600000002000000000000C0FF3F8F40000000C0FA3D57C000000080CB4126C000000080
310
FF3F8FC000000060F93D57C000000080CB4126C00C00000013000000420B00003C000000060000000200000000000080FF3F8FC000000080EB3657C000000080368B26C000000080FF3F8FC000000060F93D57C000000080CB4126C00C000000130000004A0B00003C0000000600000002000000000000C0FF3F8F40000000
310
80FE4057C000000080D1E925C0000000C0FF3F8F40000000C0FA3D57C000000080CB4126C00C00000013000000520B00003C0000000600000002000000000000C0FF3F8F4000000080FE4057C000000080D1E925C000000080FF3F8FC000000000FD4057C000000080D1E925C00C000000130000005A0B00003C0000000600
310
00000200000000000080FF3F8FC000000000FD4057C000000080D1E925C000000080FF3F8FC000000060F93D57C000000080CB4126C00C00000013000000620B00003C0000000600000002000000000000C0FF3F8F40000000C0684657C000000000D88E24C0000000C0FF3F8F4000000080FE4057C000000080D1E925C00C
310
000000130000006A0B00003C0000000600000002000000000000C0FF3F8F40000000C0684657C000000000D88E24C000000080FF3F8FC000000040674657C000000000D88E24C00C00000013000000720B00003C000000060000000200000000000080FF3F8FC000000040674657C000000000D88E24C000000080FF3F8FC0
310
00000000FD4057C000000080D1E925C00C000000130000007A0B00003C0000000600000002000000000000C0FF3F8F4000000000BA5757C0000000C0B29522C0000000C0FF3F8F40000000C0684657C000000000D88E24C00C00000013000000820B00003C0000000600000002000000000000C0FF3F8F4000000000BA5757
310
C0000000C0B29522C000000080FF3F8FC000000080B85757C0000000C0B29522C00C000000130000008A0B00003C000000060000000200000000000080FF3F8FC000000080B85757C0000000C0B29522C000000080FF3F8FC000000040674657C000000000D88E24C00C00000013000000920B00003C000000060000000200
310
0000000000C0FF3F8F40000000C0A07D57C000000000621A20C0000000C0FF3F8F4000000000BA5757C0000000C0B29522C00C000000130000009A0B00003C0000000600000002000000000000C0FF3F8F40000000C0A07D57C000000000621A20C000000080FF3F8FC0000000409F7D57C000000000621A20C00C00000013
310
000000A20B00003C000000060000000200000000000080FF3F8FC0000000409F7D57C000000000621A20C000000080FF3F8FC000000080B85757C0000000C0B29522C00C00000013000000AA0B00003C0000000600000002000000000000C0FF3F8F4000000020CCB357C0000000005ECE1BC0000000C0FF3F8F40000000C0
310
A07D57C000000000621A20C00C00000013000000B20B00003C0000000600000002000000000000C0FF3F8F4000000020CCB357C0000000005ECE1BC000000080FF3F8FC0000000C0CAB357C0000000005ECE1BC00C00000013000000BA0B00003C000000060000000200000000000080FF3F8FC0000000C0CAB357C0000000
310
005ECE1BC000000080FF3F8FC0000000409F7D57C000000000621A20C00C00000013000000C20B00003C0000000600000002000000000000C0FF3F8F40000000C0F5F757C0000000009C2718C0000000C0FF3F8F4000000020CCB357C0000000005ECE1BC00C00000013000000CA0B00003C00000006000000020000000000
310
00C0FF3F8F40000000C0F5F757C0000000009C2718C000000080FF3F8FC000000040F4F757C0000000009C2718C00C00000013000000D20B00003C000000060000000200000000000080FF3F8FC000000040F4F757C0000000009C2718C000000080FF3F8FC0000000C0CAB357C0000000005ECE1BC00C00000013000000DA
310
0B00003C0000000600000002000000000000C0FF3F8F40000000003D4758C0000000000B6815C0000000C0FF3F8F40000000C0F5F757C0000000009C2718C00C00000013000000E20B00003C0000000600000002000000000000C0FF3F8F40000000003D4758C0000000000B6815C000000080FF3F8FC0000000803B4758C0
310
000000000B6815C00C00000013000000EA0B00003C000000060000000200000000000080FF3F8FC0000000803B4758C0000000000B6815C000000080FF3F8FC000000040F4F757C0000000009C2718C00C00000013000000F20B00003C0000000600000002000000000000C0FF3F8F40000000202B9E58C0000000007DAD13
310
C0000000C0FF3F8F40000000003D4758C0000000000B6815C00C00000013000000FA0B00003C0000000600000002000000000000C0FF3F8F40000000202B9E58C0000000007DAD13C000000080FF3F8FC0000000C0299E58C0000000007DAD13C00C00000013000000020C00003C000000060000000200000000000080FF3F
310
8FC0000000C0299E58C0000000007DAD13C000000080FF3F8FC0000000803B4758C0000000000B6815C00C000000130000000A0C00003C0000000600000002000000000000C0FF3F8F400000008021E258C000000000280F13C0000000C0FF3F8F40000000202B9E58C0000000007DAD13C00C00000013000000120C00003C
310
0000000600000002000000000000C0FF3F8F400000008021E258C000000000280F13C000000080FF3F8FC00000000020E258C000000000280F13C00C000000130000001A0C00003C000000060000000200000000000080FF3F8FC00000000020E258C000000000280F13C000000080FF3F8FC0000000C0299E58C000000000
310
7DAD13C00C00000013000000220C00003C0000000600000002000000000000C0FF3F8F4000000000B5ED58C00000000058E112C0000000C0FF3F8F400000008021E258C000000000280F13C00C000000130000002A0C00003C0000000600000002000000000000C0FF3F8F4000000000B5ED58C00000000058E112C0000000
310
80FF3F8FC000000080B3ED58C00000000058E112C00C00000013000000320C00003C000000060000000200000000000080FF3F8FC00000000020E258C000000000280F13C000000080FF3F8FC000000080B3ED58C00000000058E112C00C000000130000003A0C00003C0000000600000002000000000000C0FF3F8F400000
310
00005EF758C0000000001D7612C0000000C0FF3F8F4000000000B5ED58C00000000058E112C00C00000013000000420C00003C0000000600000002000000000000C0FF3F8F40000000005EF758C0000000001D7612C000000080FF3F8FC0000000805CF758C0000000001D7612C00C000000130000004A0C00003C00000006
310
0000000200000000000080FF3F8FC000000080B3ED58C00000000058E112C000000080FF3F8FC0000000805CF758C0000000001D7612C00C00000013000000520C00003C0000000600000002000000000000C0FF3F8F4000000000C3FD58C00000000075DC11C0000000C0FF3F8F40000000005EF758C0000000001D7612C0
310
0C000000130000005A0C00003C0000000600000002000000000000C0FF3F8F4000000000C3FD58C00000000075DC11C000000080FF3F8FC000000080C1FD58C00000000075DC11C00C00000013000000620C00003C000000060000000200000000000080FF3F8FC0000000805CF758C0000000001D7612C000000080FF3F8F
310
C000000080C1FD58C00000000075DC11C00C000000130000006A0C00003C0000000600000002000000000000C0FF3F8F4000000040FFFF58C000000000D72911C0000000C0FF3F8F4000000000C3FD58C00000000075DC11C00C00000013000000720C00003C0000000600000002000000000000C0FF3F8F4000000040FFFF
310
58C000000000D72911C000000080FF3F8FC0000000E0FDFF58C000000000D72911C00C000000130000007A0C00003C000000060000000200000000000080FF3F8FC0000000E0FDFF58C000000000D72911C000000080FF3F8FC000000080C1FD58C00000000075DC11C00C00000013000000820C00003C0000000600000002
310
000000000000C0FF3F8F4000000040FFFF58C0000000000000E0BE000000C0FF3F8F4000000040FFFF58C000000000D72911C00C000000130000008A0C00003C0000000600000002000000000000C0FF3F8F4000000040FFFF58C0000000000000E0BE00000080FF3F8FC0000000E0FDFF58C0000000000000E0BE0C000000
310
13000000920C00003C000000060000000200000000000080FF3F8FC0000000E0FDFF58C0000000000000E0BE00000080FF3F8FC0000000E0FDFF58C000000000D72911C00C000000130000009A0C00003C0000000600000002000000000000C0FF3F8F4000000040462657C0000000000000E0BE000000C0FF3F8F40000000
310
40FFFF58C0000000000000E0BE0C00000013000000A20C00003C0000000600000002000000000000C0FF3F8F4000000040462657C0000000000000E0BE00000080FF3F8FC0000000C0442657C0000000000000E0BE0C00000013000000AA0C00003C000000060000000200000000000080FF3F8FC0000000C0442657C00000
310
00000000E0BE00000080FF3F8FC0000000E0FDFF58C0000000000000E0BE0C00000013000000B20C00003C0000000600000002000000000000C0FF3F8F4000000040FF7F56C000000000D4CCF6BF000000C0FF3F8F4000000040462657C0000000000000E0BE0C00000013000000BA0C00003C000000060000000200000000
310
0000C0FF3F8F4000000040FF7F56C000000000D4CCF6BF00000080FF3F8FC0000000E0FD7F56C000000000D4CCF6BF0C00000013000000C20C00003C000000060000000200000000000080FF3F8FC0000000C0442657C0000000000000E0BE00000080FF3F8FC0000000E0FD7F56C000000000D4CCF6BF0C00000013000000
310
CA0C00003C0000000600000002000000000000C0FF3F8F4000000080B8D955C0000000000000E0BE000000C0FF3F8F4000000040FF7F56C000000000D4CCF6BF0C00000013000000D20C00003C0000000600000002000000000000C0FF3F8F4000000080B8D955C0000000000000E0BE00000080FF3F8FC000000000B7D955
310
C0000000000000E0BE0C00000013000000DA0C00003C000000060000000200000000000080FF3F8FC000000000B7D955C0000000000000E0BE00000080FF3F8FC0000000E0FD7F56C000000000D4CCF6BF0C00000013000000E20C00003C0000000600000002000000000000C0FF3F8F4000000040FF7F54C0000000000000
310
E0BE000000C0FF3F8F4000000080B8D955C0000000000000E0BE0C00000013000000EA0C00003C0000000600000002000000000000C0FF3F8F4000000040FF7F54C0000000000000E0BE00000080FF3F8FC0000000E0FD7F54C0000000000000E0BE0C00000013000000F20C00003C000000060000000200000000000080FF
310
3F8FC0000000E0FD7F54C0000000000000E0BE00000080FF3F8FC000000000B7D955C0000000000000E0BE0C00000013000000FA0C00003C0000000600000002000000000000C0FF3F8F4000000080289052C00000000017B418C0000000C0FF3F8F4000000040FF7F54C0000000000000E0BE0C00000013000000020D0000
310
3C0000000600000002000000000000C0FF3F8F4000000080289052C00000000017B418C000000080FF3F8FC000000020279052C00000000017B418C00C000000130000000A0D00003C000000060000000200000000000080FF3F8FC0000000E0FD7F54C0000000000000E0BE00000080FF3F8FC000000020279052C0000000
310
0017B418C00C00000013000000120D00003C0000000600000002000000000000C0FF3F8F400000000095BA51C000000000242119C0000000C0FF3F8F4000000080289052C00000000017B418C00C000000130000001A0D00003C0000000600000002000000000000C0FF3F8F400000000095BA51C000000000242119C00000
310
0080FF3F8FC00000008093BA51C000000000242119C00C00000013000000220D00003C000000060000000200000000000080FF3F8FC00000008093BA51C000000000242119C000000080FF3F8FC000000020279052C00000000017B418C00C000000130000002A0D00003C0000000600000002000000000000C0FF3F8F4000
310
000080F09E50C000000000CFA61AC0000000C0FF3F8F400000000095BA51C000000000242119C00C00000013000000320D00003C0000000600000002000000000000C0FF3F8F4000000080F09E50C000000000CFA61AC000000080FF3F8FC000000020EF9E50C000000000CFA61AC00C000000130000003A0D00003C000000
310
060000000200000000000080FF3F8FC000000020EF9E50C000000000CFA61AC000000080FF3F8FC00000008093BA51C000000000242119C00C00000013000000420D00003C0000000600000002000000000000C0FF3F8F40000000804D0B4FC00000000004501DC0000000C0FF3F8F4000000080F09E50C000000000CFA61A
310
C00C000000130000004A0D00003C0000000600000002000000000000C0FF3F8F40000000804D0B4FC00000000004501DC000000080FF3F8FC0000000A04A0B4FC00000000004501DC00C00000013000000520D00003C000000060000000200000000000080FF3F8FC0000000A04A0B4FC00000000004501DC000000080FF3F
310
8FC000000020EF9E50C000000000CFA61AC00C000000130000005A0D00003C0000000600000002000000000000C0FF3F8F400000006019E04CC000000080CC8C20C0000000C0FF3F8F40000000804D0B4FC00000000004501DC00C00000013000000620D00003C0000000600000002000000000000C0FF3F8F400000006019
310
E04CC000000080CC8C20C000000080FF3F8FC00000008016E04CC000000080CC8C20C00C000000130000006A0D00003C000000060000000200000000000080FF3F8FC00000008016E04CC000000080CC8C20C000000080FF3F8FC0000000A04A0B4FC00000000004501DC00C00000013000000720D00003C00000006000000
310
02000000000000C0FF3F8F4000000020D3BE4AC0000000008DFF22C0000000C0FF3F8F400000006019E04CC000000080CC8C20C00C000000130000007A0D00003C0000000600000002000000000000C0FF3F8F4000000020D3BE4AC0000000008DFF22C000000080FF3F8FC000000040D0BE4AC0000000008DFF22C00C0000
310
0013000000820D00003C000000060000000200000000000080FF3F8FC000000040D0BE4AC0000000008DFF22C000000080FF3F8FC00000008016E04CC000000080CC8C20C00C000000130000008A0D00003C0000000600000002000000000000C0FF3F8F40000000A0FDA948C0000000C05FFD25C0000000C0FF3F8F400000
310
0020D3BE4AC0000000008DFF22C00C00000013000000920D00003C0000000600000002000000000000C0FF3F8F40000000A0FDA948C0000000C05FFD25C000000080FF3F8FC0000000C0FAA948C0000000C05FFD25C00C000000130000009A0D00003C000000060000000200000000000080FF3F8FC0000000C0FAA948C000
310
0000C05FFD25C000000080FF3F8FC000000040D0BE4AC0000000008DFF22C00C00000013000000A20D00003C0000000600000002000000000000C0FF3F8F40000000C00CA446C000000080BE8229C0000000C0FF3F8F40000000A0FDA948C0000000C05FFD25C00C00000013000000AA0D00003C0000000600000002000000
310
000000C0FF3F8F40000000C00CA446C000000080BE8229C000000080FF3F8FC0000000E009A446C000000080BE8229C00C00000013000000B20D00003C000000060000000200000000000080FF3F8FC0000000E009A446C000000080BE8229C000000080FF3F8FC0000000C0FAA948C0000000C05FFD25C00C000000130000
310
00BA0D00003C0000000600000002000000000000A0FF3F8F400000002063AF44C000000000838B2DC0000000C0FF3F8F40000000C00CA446C000000080BE8229C00C00000013000000C20D00003C0000000600000002000000000000A0FF3F8F400000002063AF44C000000000838B2DC000000080FF3F8FC00000004060AF
310
44C000000000838B2DC00C00000013000000CA0D00003C000000060000000200000000000080FF3F8FC00000004060AF44C000000000838B2DC000000080FF3F8FC0000000E009A446C000000080BE8229C00C00000013000000D20D00003C0000000600000002000000000000A0FF3F8F40000000A04ECE42C00000000076
310
0931C0000000A0FF3F8F400000002063AF44C000000000838B2DC00C00000013000000DA0D00003C0000000600000002000000000000A0FF3F8F40000000A04ECE42C000000000760931C000000080FF3F8FC0000000C04BCE42C000000000760931C00C00000013000000E20D00003C000000060000000200000000000080
310
FF3F8FC0000000C04BCE42C000000000760931C000000080FF3F8FC00000004060AF44C000000000838B2DC00C00000013000000EA0D00003C0000000600000002000000000000A0FF3F8F4000000080060341C000000080D18933C0000000A0FF3F8F40000000A04ECE42C000000000760931C00C00000013000000F20D00
310
003C0000000600000002000000000000A0FF3F8F4000000080060341C000000080D18933C000000080FF3F8FC0000000A0030341C000000080D18933C00C00000013000000FA0D00003C000000060000000200000000000080FF3F8FC0000000A0030341C000000080D18933C000000080FF3F8FC0000000C04BCE42C00000
310
0000760931C00C00000013000000020E00003C0000000600000002000000000000A0FF3F8F4000000020509F3EC0000000A0E04336C0000000A0FF3F8F4000000080060341C000000080D18933C00C000000130000000A0E00003C0000000600000002000000000000A0FF3F8F4000000020509F3EC0000000A0E04336C000
310
000080FF3F8FC0000000404A9F3EC0000000A0E04336C00C00000013000000120E00003C000000060000000200000000000080FF3F8FC0000000404A9F3EC0000000A0E04336C000000080FF3F8FC0000000A0030341C000000080D18933C00C000000130000001A0E00003C0000000600000002000000000000A0FF3F8F40
310
00000020696C3BC0000000806D3439C0000000A0FF3F8F4000000020509F3EC0000000A0E04336C00C00000013000000220E00003C0000000600000002000000000000A0FF3F8F4000000020696C3BC0000000806D3439C000000080FF3F8FC000000040636C3BC0000000806D3439C00C000000130000002A0E00003C0000
310
00060000000200000000000080FF3F8FC000000040636C3BC0000000806D3439C000000080FF3F8FC0000000404A9F3EC0000000A0E04336C00C00000013000000320E00003C0000000600000002000000000000A0FF3F8F40000000201D7138C00000008000583CC0000000A0FF3F8F4000000020696C3BC0000000806D34
310
39C00C000000130000003A0E00003C0000000600000002000000000000A0FF3F8F40000000201D7138C00000008000583CC000000080FF3F8FC000000040177138C00000008000583CC00C00000013000000420E00003C000000060000000200000000000080FF3F8FC000000040177138C00000008000583CC000000080FF
310
3F8FC000000040636C3BC0000000806D3439C00C000000130000004A0E00003C0000000600000002000000000000A0FF3F8F40000000E0EFB035C000000080E6AA3FC0000000A0FF3F8F40000000201D7138C00000008000583CC00C00000013000000520E00003C0000000600000002000000000000A0FF3F8F40000000E0
310
EFB035C000000080E6AA3FC000000080FF3F8FC000000000EAB035C000000080E6AA3FC00C000000130000005A0E00003C000000060000000200000000000080FF3F8FC000000000EAB035C000000080E6AA3FC000000080FF3F8FC000000040177138C00000008000583CC00C00000013000000620E00003C000000060000
310
0002000000000000A0FF3F8F40000000001F2F33C0000000609A9441C0000000A0FF3F8F40000000E0EFB035C000000080E6AA3FC00C000000130000006A0E00003C0000000600000002000000000000A0FF3F8F40000000001F2F33C0000000609A9441C000000080FF3F8FC000000020192F33C0000000609A9441C00C00
310
000013000000720E00003C000000060000000200000000000080FF3F8FC000000020192F33C0000000609A9441C000000080FF3F8FC000000000EAB035C000000080E6AA3FC00C000000130000007A0E00003C0000000600000002000000000000A0FF3F8F40000000A09FEE30C000000080666743C0000000A0FF3F8F4000
310
0000001F2F33C0000000609A9441C00C00000013000000820E00003C0000000600000002000000000000A0FF3F8F40000000A09FEE30C000000080666743C000000080FF3F8FC0000000C099EE30C000000080666743C00C000000130000008A0E00003C000000060000000200000000000080FF3F8FC0000000C099EE30C0
310
00000080666743C000000080FF3F8FC000000020192F33C0000000609A9441C00C00000013000000920E00003C0000000600000002000000000000A0FF3F8F400000008031E42DC000000080B14B45C0000000A0FF3F8F40000000A09FEE30C000000080666743C00C000000130000009A0E00003C00000006000000020000
310
00000000A0FF3F8F400000008031E42DC000000080B14B45C000000080FF3F8FC0000000C025E42DC000000080B14B45C00C00000013000000A20E00003C000000060000000200000000000080FF3F8FC0000000C025E42DC000000080B14B45C000000080FF3F8FC0000000C099EE30C000000080666743C00C0000001300
310
0000AA0E00003C0000000600000002000000000000A0FF3F8F4000000080C3772AC000000040403F47C0000000A0FF3F8F400000008031E42DC000000080B14B45C00C00000013000000B20E00003C0000000600000002000000000000A0FF3F8F4000000080C3772AC000000040403F47C000000080FF3F8FC000000000B8
310
772AC000000040403F47C00C00000013000000BA0E00003C000000060000000200000000000080FF3F8FC000000000B8772AC000000040403F47C000000080FF3F8FC0000000C025E42DC000000080B14B45C00C00000013000000C20E00003C0000000600000002000000000000A0FF3F8F4000000080FE9B27C000000040
310
C63F49C0000000A0FF3F8F4000000080C3772AC000000040403F47C00C00000013000000CA0E00003C0000000600000002000000000000A0FF3F8F4000000080FE9B27C000000040C63F49C000000080FF3F8FC000000000F39B27C000000040C63F49C00C00000013000000D20E00003C0000000600000002000000000000
310
80FF3F8FC000000000F39B27C000000040C63F49C000000080FF3F8FC000000000B8772AC000000040403F47C00C00000013000000DA0E00003C0000000600000002000000000000A0FF3F8F4000000080505425C000000080D54A4BC0000000A0FF3F8F4000000080FE9B27C000000040C63F49C00C00000013000000E20E
310
00003C0000000600000002000000000000A0FF3F8F4000000080505425C000000080D54A4BC000000080FF3F8FC000000000455425C000000080D54A4BC00C00000013000000EA0E00003C000000060000000200000000000080FF3F8FC000000000455425C000000080D54A4BC000000080FF3F8FC000000000F39B27C000
310
000040C63F49C00C00000013000000F20E00003C0000000600000002000000000000A0FF3F8F400000008077FC23C0000000A08FD84CC0000000A0FF3F8F4000000080505425C000000080D54A4BC00C00000013000000FA0E00003C0000000600000002000000000000A0FF3F8F400000008077FC23C0000000A08FD84CC0
310
00000080FF3F8FC0000000006CFC23C0000000A08FD84CC00C00000013000000020F00003C000000060000000200000000000080FF3F8FC0000000006CFC23C0000000A08FD84CC000000080FF3F8FC000000000455425C000000080D54A4BC00C000000130000000A0F00003C0000000600000002000000000000A0FF3F8F
310
400000000000000A3F0000000000D051C0000000A0FF3F8F400000008077FC23C0000000A08FD84CC00C00000013000000120F00003C0000000600000002000000000000A0FF3F8F400000000000000A3F0000000000D051C000000080FF3F8FC0000000000000223F0000000000D051C00C000000130000001A0F00003C00
310
0000060000000200000000000080FF3F8FC0000000006CFC23C0000000A08FD84CC000000080FF3F8FC0000000000000223F0000000000D051C00C00000013000000220F00003C0000000600000002000000000000A0FF3F8F400000000000000A3F00000080099253C0000000A0FF3F8F400000000000000A3F0000000000
310
D051C00C000000130000002A0F00003C0000000600000002000000000000A0FF3F8F400000000000000A3F00000080099253C000000080FF3F8FC0000000000000223F00000080099253C00C00000013000000320F00003C000000060000000200000000000080FF3F8FC0000000000000223F00000080099253C000000080
310
FF3F8FC0000000000000223F0000000000D051C00C000000130000003A0F00003C0000000600000002000000000000A0FF3F8F4000000000CCFFF7BF00000000003054C0000000A0FF3F8F400000000000000A3F00000080099253C00C00000013000000420F00003C0000000600000002000000000000A0FF3F8F40000000
310
00CCFFF7BF00000000003054C000000080FF3F8FC00000000070FFF7BF00000000003054C00C000000130000004A0F00003C000000060000000200000000000080FF3F8FC0000000000000223F00000080099253C000000080FF3F8FC00000000070FFF7BF00000000003054C00C00000013000000520F00003C0000000600
310
000002000000000000A0FF3F8F400000000000000A3F00000080F6CD54C0000000A0FF3F8F4000000000CCFFF7BF00000000003054C00C000000130000005A0F00003C0000000600000002000000000000A0FF3F8F400000000000000A3F00000080F6CD54C000000080FF3F8FC0000000000000223F00000080F6CD54C00C
310
00000013000000620F00003C000000060000000200000000000080FF3F8FC0000000000000223F00000080F6CD54C000000080FF3F8FC00000000070FFF7BF00000000003054C00C000000130000006A0F00003C0000000600000002000000000000A0FF3F8F400000000000000C3F0000000000C057C0000000A0FF3F8F40
310
0000000000000A3F00000080F6CD54C00C00000013000000720F00003C000000060000000200000000000080FF3F8FC0000000000000233F0000000000C057C000000080FF3F8FC0000000000000223F00000080F6CD54C00C000000130000007A0F00003C000000060000000200000000000080FF3F8FC0000000C0442657
310
C0000000000000E0BE00000080FF3F8FC0000000E0FDFF58C000000000D72911C00C00000013000000820F00003C000000060000000200000000000080FF3F8FC0000000C0442657C0000000000000E0BE00000080FF3F8FC0000000805CF758C0000000001D7612C00C000000130000008A0F00003C000000060000000200
310
000000000080FF3F8FC0000000C0442657C0000000000000E0BE00000080FF3F8FC000000080C1FD58C00000000075DC11C00C00000013000000920F00003C000000060000000200000000000080FF3F8FC0000000C0442657C0000000000000E0BE00000080FF3F8FC00000000020E258C000000000280F13C00C00000013
310
0000009A0F00003C000000060000000200000000000080FF3F8FC0000000C0442657C0000000000000E0BE00000080FF3F8FC000000080B3ED58C00000000058E112C00C00000013000000A20F00003C000000060000000200000000000080FF3F8FC0000000C0442657C0000000000000E0BE00000080FF3F8FC000000080
310
3B4758C0000000000B6815C00C00000013000000AA0F00003C000000060000000200000000000080FF3F8FC0000000C0442657C0000000000000E0BE00000080FF3F8FC0000000C0299E58C0000000007DAD13C00C00000013000000B20F00003C000000060000000200000000000080FF3F8FC0000000C0CAB357C0000000
310
005ECE1BC000000080FF3F8FC0000000E0FD7F56C000000000D4CCF6BF0C00000013000000BA0F00003C000000060000000200000000000080FF3F8FC0000000C0442657C0000000000000E0BE00000080FF3F8FC000000040F4F757C0000000009C2718C00C00000013000000C20F00003C00000006000000020000000000
310
0080FF3F8FC000000080B85757C0000000C0B29522C000000080FF3F8FC0000000E0FD7F56C000000000D4CCF6BF0C00000013000000CA0F00003C000000060000000200000000000080FF3F8FC0000000409F7D57C000000000621A20C000000080FF3F8FC0000000E0FD7F56C000000000D4CCF6BF0C00000013000000D2
310
0F00003C000000060000000200000000000080FF3F8FC000000000B7D955C0000000000000E0BE00000080FF3F8FC000000040674657C000000000D88E24C00C00000013000000DA0F00003C000000060000000200000000000080FF3F8FC000000000B7D955C0000000000000E0BE00000080FF3F8FC000000060F93D57C0
310
00000080CB4126C00C00000013000000E20F00003C000000060000000200000000000080FF3F8FC000000000B7D955C0000000000000E0BE00000080FF3F8FC000000000FD4057C000000080D1E925C00C00000013000000EA0F00003C000000060000000200000000000080FF3F8FC000000000B7D955C0000000000000E0
310
BE00000080FF3F8FC000000080EB3657C000000080368B26C00C00000013000000F20F00003C000000060000000200000000000080FF3F8FC000000000B7D955C0000000000000E0BE00000080FF3F8FC000000080CF2C57C000000000D0BB26C00C00000013000000FA0F00003C000000060000000200000000000080FF3F
310
8FC000000000B7D955C0000000000000E0BE00000080FF3F8FC0000000400F2157C0000000C0CDCC26C00C00000013000000021000003C000000060000000200000000000080FF3F8FC0000000E0FD7F54C0000000000000E0BE00000080FF3F8FC0000000E0FD5F56C0000000C0CDCC26C00C000000130000000A1000003C
310
000000060000000200000000000080FF3F8FC0000000E0FD7F54C0000000000000E0BE00000080FF3F8FC0000000802E4D56C00000000043FB26C00C00000013000000121000003C000000060000000200000000000080FF3F8FC0000000E0FD7F54C0000000000000E0BE00000080FF3F8FC0000000C0195656C000000040
310
B7D826C00C000000130000001A1000003C000000060000000200000000000080FF3F8FC0000000E0FD7F54C0000000000000E0BE00000080FF3F8FC0000000208F4156C000000000D57427C00C00000013000000221000003C000000060000000200000000000080FF3F8FC0000000E0FD7F54C0000000000000E0BE000000
310
80FF3F8FC0000000C01A4656C0000000800C3127C00C000000130000002A1000003C000000060000000200000000000080FF3F8FC0000000E0FD7F54C0000000000000E0BE00000080FF3F8FC0000000E0FD3F56C00000004034732DC00C00000013000000321000003C000000060000000200000000000080FF3F8FC00000
310
00E0FD7F54C0000000000000E0BE00000080FF3F8FC0000000E0FD3F56C00000000001C027C00C000000130000003A1000003C000000060000000200000000000080FF3F8FC000000020279052C00000000017B418C000000080FF3F8FC000000000114555C000000080AA982EC00C00000013000000421000003C00000006
310
0000000200000000000080FF3F8FC000000020279052C00000000017B418C000000080FF3F8FC0000000E0414E55C00000008052732EC00C000000130000004A1000003C000000060000000200000000000080FF3F8FC0000000C08B5855C00000008067662EC000000080FF3F8FC000000020279052C00000000017B418C0
310
0C00000013000000521000003C000000060000000200000000000080FF3F8FC000000000A33955C0000000C0A81A2FC000000080FF3F8FC000000020279052C00000000017B418C00C000000130000005A1000003C000000060000000200000000000080FF3F8FC000000020279052C00000000017B418C000000080FF3F8F
310
C000000000F13D55C00000008078D22EC00C00000013000000621000003C000000060000000200000000000080FF3F8FC0000000A09A0E55C0000000409DEF31C000000080FF3F8FC000000020279052C00000000017B418C00C000000130000006A1000003C000000060000000200000000000080FF3F8FC0000000E0FD1F
310
56C00000008067662EC000000080FF3F8FC000000020279052C00000000017B418C00C00000013000000721000003C000000060000000200000000000080FF3F8FC000000020279052C00000000017B418C000000080FF3F8FC000000000E22956C0000000007E5A2EC00C000000130000007A1000003C0000000600000002
310
00000000000080FF3F8FC0000000E0FD7F54C0000000000000E0BE00000080FF3F8FC000000000E13956C00000008028022EC00C00000013000000821000003C000000060000000200000000000080FF3F8FC0000000E0FD7F54C0000000000000E0BE00000080FF3F8FC0000000A06C3E56C00000004060BE2DC00C000000
310
130000008A1000003C000000060000000200000000000080FF3F8FC000000020279052C00000000017B418C000000080FF3F8FC000000040CD3256C000000080F2372EC00C00000013000000921000003C000000060000000200000000000080FF3F8FC0000000A04A1652C000000080E66F2FC000000080FF3F8FC0000000
310
8093BA51C000000000242119C00C000000130000009A1000003C000000060000000200000000000080FF3F8FC0000000E0589B52C000000080BA592FC000000080FF3F8FC000000020279052C00000000017B418C00C00000013000000A21000003C000000060000000200000000000080FF3F8FC000000020279052C00000
310
000017B418C000000080FF3F8FC0000000409DA152C0000000004A5E2FC00C00000013000000AA1000003C000000060000000200000000000080FF3F8FC000000020279052C00000000017B418C000000080FF3F8FC000000080A5A752C000000080196C2FC00C00000013000000B21000003C000000060000000200000000
310
000080FF3F8FC000000020279052C00000000017B418C000000080FF3F8FC0000000A034AD52C0000000809E822FC00C00000013000000BA1000003C000000060000000200000000000080FF3F8FC00000000013B252C000000080F5A02FC000000080FF3F8FC000000020279052C00000000017B418C00C00000013000000
310
C21000003C000000060000000200000000000080FF3F8FC0000000408DA253C0000000804B6233C000000080FF3F8FC000000020279052C00000000017B418C00C00000013000000CA1000003C000000060000000200000000000080FF3F8FC00000000054C253C0000000408FC233C000000080FF3F8FC000000020279052
310
C00000000017B418C00C00000013000000D21000003C000000060000000200000000000080FF3F8FC0000000C082FC53C000000040F62C34C000000080FF3F8FC000000020279052C00000000017B418C00C00000013000000DA1000003C000000060000000200000000000080FF3F8FC0000000806D3C54C0000000C09051
310
34C000000080FF3F8FC000000020279052C00000000017B418C00C00000013000000E21000003C000000060000000200000000000080FF3F8FC000000040527C54C000000000F82C34C000000080FF3F8FC000000020279052C00000000017B418C00C00000013000000EA1000003C000000060000000200000000000080FF
310
3F8FC0000000808FB654C00000008065C233C000000080FF3F8FC000000020279052C00000000017B418C00C00000013000000F21000003C000000060000000200000000000080FF3F8FC000000000F3E554C0000000004F1B33C000000080FF3F8FC000000020279052C00000000017B418C00C00000013000000FA100000
310
3C000000060000000200000000000080FF3F8FC0000000C0030555C000000080D45532C000000080FF3F8FC000000020279052C00000000017B418C00C00000013000000021100003C000000060000000200000000000080FF3F8FC0000000C0CB9151C00000008076AB2FC000000080FF3F8FC00000008093BA51C0000000
310
00242119C00C000000130000000A1100003C000000060000000200000000000080FF3F8FC0000000006CFC23C0000000A08FD84CC000000080FF3F8FC0000000E0F6FF32C000000040339351C00C00000013000000121100003C000000060000000200000000000080FF3F8FC0000000E0F6FF32C0000000E0AD1F51C00000
310
0080FF3F8FC0000000006CFC23C0000000A08FD84CC00C000000130000001A1100003C000000060000000200000000000080FF3F8FC000000060FE0933C0000000403CA150C000000080FF3F8FC0000000006CFC23C0000000A08FD84CC00C00000013000000221100003C000000060000000200000000000080FF3F8FC000
310
0000A0B52733C000000040512350C000000080FF3F8FC000000000455425C000000080D54A4BC00C000000130000002A1100003C000000060000000200000000000080FF3F8FC0000000A01C5933C000000080D94B4FC000000080FF3F8FC000000000455425C000000080D54A4BC00C00000013000000321100003C000000
310
060000000200000000000080FF3F8FC000000000539E33C000000040C5514EC000000080FF3F8FC000000000F39B27C000000040C63F49C00C000000130000003A1100003C000000060000000200000000000080FF3F8FC00000002039F733C000000000BE584DC000000080FF3F8FC000000000F39B27C000000040C63F49
310
C00C00000013000000421100003C000000060000000200000000000080FF3F8FC000000000706334C000000000CE614CC000000080FF3F8FC000000000B8772AC000000040403F47C00C000000130000004A1100003C000000060000000200000000000080FF3F8FC0000000800CE334C000000040F76C4BC000000080FF3F
310
8FC000000000B8772AC000000040403F47C00C00000013000000521100003C000000060000000200000000000080FF3F8FC000000000FA7535C000000040377A4AC000000080FF3F8FC0000000C025E42DC000000080B14B45C00C000000130000005A1100003C000000060000000200000000000080FF3F8FC0000000409B
310
1B36C0000000E0918A49C000000080FF3F8FC0000000C025E42DC000000080B14B45C00C00000013000000621100003C000000060000000200000000000080FF3F8FC00000006004D436C0000000A0099E48C000000080FF3F8FC0000000C099EE30C000000080666743C00C000000130000006A1100003C00000006000000
310
0200000000000080FF3F8FC0000000C0219F37C0000000609BB447C000000080FF3F8FC0000000C099EE30C000000080666743C00C00000013000000721100003C000000060000000200000000000080FF3F8FC0000000401A7C38C0000000A040CF46C000000080FF3F8FC000000020192F33C0000000609A9441C00C0000
310
00130000007A1100003C000000060000000200000000000080FF3F8FC000000000016B39C000000060FDED45C000000080FF3F8FC000000020192F33C0000000609A9441C00C00000013000000821100003C000000060000000200000000000080FF3F8FC000000000C36B3AC0000000A0CD1045C000000080FF3F8FC00000
310
0000EAB035C000000080E6AA3FC00C000000130000008A1100003C000000060000000200000000000080FF3F8FC0000000204E7D3BC0000000209D3844C000000080FF3F8FC000000000EAB035C000000080E6AA3FC00C00000013000000921100003C000000060000000200000000000080FF3F8FC000000040B49F3CC000
310
000060716543C000000080FF3F8FC000000040177138C00000008000583CC00C000000130000009A1100003C000000060000000200000000000080FF3F8FC000000080E3D23DC000000000459742C000000080FF3F8FC000000040177138C00000008000583CC00C00000013000000A21100003C0000000600000002000000
310
00000080FF3F8FC00000000094153FC000000020F4CE41C000000080FF3F8FC000000040636C3BC0000000806D3439C00C00000013000000AA1100003C000000060000000200000000000080FF3F8FC000000040EB3340C000000000850C41C000000080FF3F8FC000000040636C3BC0000000806D3439C00C000000130000
310
00B21100003C000000060000000200000000000080FF3F8FC000000020CDE440C000000060F14F40C000000080FF3F8FC0000000404A9F3EC0000000A0E04336C00C00000013000000BA1100003C000000060000000200000000000080FF3F8FC0000000A0B29C41C00000000005343FC000000080FF3F8FC0000000404A9F
310
3EC0000000A0E04336C00C00000013000000C21100003C000000060000000200000000000080FF3F8FC000000080A35B42C0000000007FD53DC000000080FF3F8FC0000000A0030341C000000080D18933C00C00000013000000CA1100003C000000060000000200000000000080FF3F8FC000000040982143C0000000C042
310
843CC000000080FF3F8FC0000000A0030341C000000080D18933C00C00000013000000D21100003C000000060000000200000000000080FF3F8FC000000060BDED43C0000000C0B7413BC000000080FF3F8FC0000000C04BCE42C000000000760931C00C00000013000000DA1100003C000000060000000200000000000080
310
FF3F8FC0000000C019C044C000000000EE0D3AC000000080FF3F8FC0000000C04BCE42C000000000760931C00C00000013000000E21100003C000000060000000200000000000080FF3F8FC000000080A69845C0000000A0D5E838C000000080FF3F8FC00000004060AF44C000000000838B2DC00C00000013000000EA1100
310
003C000000060000000200000000000080FF3F8FC0000000A07C7646C0000000C0A7D337C000000080FF3F8FC00000004060AF44C000000000838B2DC00C00000013000000F21100003C000000060000000200000000000080FF3F8FC0000000C0A15947C00000004075CE36C000000080FF3F8FC0000000E009A446C00000
310
0080BE8229C00C00000013000000FA1100003C000000060000000200000000000080FF3F8FC000000060104248C0000000202DD935C000000080FF3F8FC0000000E009A446C000000080BE8229C00C00000013000000021200003C000000060000000200000000000080FF3F8FC000000040D02E49C000000020D5F434C000
310
000080FF3F8FC0000000C0FAA948C0000000C05FFD25C00C000000130000000A1200003C000000060000000200000000000080FF3F8FC0000000E0E51F4AC0000000A07F2134C000000080FF3F8FC0000000C0FAA948C0000000C05FFD25C00C00000013000000121200003C000000060000000200000000000080FF3F8FC0
310
000000C04C154BC0000000201A5F33C000000080FF3F8FC000000040D0BE4AC0000000008DFF22C00C000000130000001A1200003C000000060000000200000000000080FF3F8FC0000000C0FE0D4CC00000008074AE32C000000080FF3F8FC000000040D0BE4AC0000000008DFF22C00C00000013000000221200003C0000
310
00060000000200000000000080FF3F8FC0000000C0FF094DC000000060A10F32C000000080FF3F8FC00000008016E04CC000000080CC8C20C00C000000130000002A1200003C000000060000000200000000000080FF3F8FC0000000004C094EC0000000E08D8231C000000080FF3F8FC00000008016E04CC000000080CC8C
310
20C00C00000013000000321200003C000000060000000200000000000080FF3F8FC000000000D30A4FC0000000C0D00731C000000080FF3F8FC0000000A04A0B4FC00000000004501DC00C000000130000003A1200003C000000060000000200000000000080FF3F8FC0000000604C0750C0000000607D9F30C000000080FF
310
3F8FC0000000A04A0B4FC00000000004501DC00C00000013000000421200003C000000060000000200000000000080FF3F8FC0000000A04C8A50C000000080804930C000000080FF3F8FC000000020EF9E50C000000000CFA61AC00C000000130000004A1200003C000000060000000200000000000080FF3F8FC000000020
310
DC0D51C000000080350630C000000080FF3F8FC000000020EF9E50C000000000CFA61AC00C00000013000000521200003C000000060000000200000000000080FF3F8FC0000000006CFC23C0000000A08FD84CC000000080FF3F8FC000000000B2F932C0000000C0989C51C00C000000130000005A1200003C000000060000
310
000200000000000080FF3F8FC0000000006CFC23C0000000A08FD84CC000000080FF3F8FC00000006083E732C0000000C011A551C00C00000013000000621200003C000000060000000200000000000080FF3F8FC0000000006CFC23C0000000A08FD84CC000000080FF3F8FC00000002034CB32C000000000CBAB51C00C00
310
0000130000006A1200003C000000060000000200000000000080FF3F8FC0000000006CFC23C0000000A08FD84CC000000080FF3F8FC00000006087A732C0000000601CB051C00C00000013000000721200003C000000060000000200000000000080FF3F8FC0000000006CFC23C0000000A08FD84CC000000080FF3F8FC000
310
0000E0F67F32C0000000A099B151C00C000000130000007A1200003C000000060000000200000000000080FF3F8FC0000000006CFC23C0000000A08FD84CC000000080FF3F8FC000000000EEFF2DC0000000A099B151C00C00000013000000821200003C000000060000000200000000000080FF3F8FC0000000006CFC23C0
310
000000A08FD84CC000000080FF3F8FC00000008073692DC00000004068B751C00C000000130000008A1200003C000000060000000200000000000080FF3F8FC0000000006CFC23C0000000A08FD84CC000000080FF3F8FC000000000CDB02DC0000000C016B351C00C00000013000000921200003C00000006000000020000
310
0000000080FF3F8FC0000000000000223F0000000000D051C000000080FF3F8FC000000000D5302DC00000008021BE51C00C000000130000009A1200003C000000060000000200000000000080FF3F8FC0000000006CFC23C0000000A08FD84CC000000080FF3F8FC000000000D5302DC00000008021BE51C00C0000001300
310
0000A21200003C000000060000000200000000000080FF3F8FC0000000000000223F00000080099253C000000080FF3F8FC000000040EDFF2CC000000040332355C00C00000013000000AA1200003C000000060000000200000000000080FF3F8FC0000000000000223F0000000000D051C000000080FF3F8FC000000000EE
310
FF2CC00000000000D051C00C00000013000000B21200003C000000060000000200000000000080FF3F8FC0000000000000223F0000000000D051C000000080FF3F8FC000000080770C2DC0000000809AC651C00C00000013000000BA1200003C000000060000000200000000000080FF3F8FC0000000000000223F00000080
310
F6CD54C000000080FF3F8FC000000000B4FF0BC00000000000C057C00C00000013000000C21200003C000000060000000200000000000080FF3F8FC0000000000000223F00000080F6CD54C000000080FF3F8FC000000000383C0DC0000000E082BE57C00C00000013000000CA1200003C0000000600000002000000000000
310
80FF3F8FC0000000000000223F00000080F6CD54C000000080FF3F8FC000000000A0590EC00000006031BA57C00C00000013000000D21200003C000000060000000200000000000080FF3F8FC0000000000000223F00000080F6CD54C000000080FF3F8FC0000000001A3C0FC00000002078B357C00C00000013000000DA12
310
00003C000000060000000200000000000080FF3F8FC0000000000000223F00000080F6CD54C000000080FF3F8FC0000000008ECD0FC000000020FFAA57C00C00000013000000E21200003C000000060000000200000000000080FF3F8FC0000000000000223F00000080F6CD54C000000080FF3F8FC000000000B4FF0FC000
310
0000A099A157C00C00000013000000EA1200003C000000060000000200000000000080FF3F8FC0000000000000223F00000080F6CD54C000000080FF3F8FC000000000B51210C000000020D17057C00C00000013000000F21200003C000000060000000200000000000080FF3F8FC0000000000000223F00000080F6CD54C0
310
00000080FF3F8FC000000000B3F010C000000040ED2857C00C00000013000000FA1200003C000000060000000200000000000080FF3F8FC0000000000000223F00000080F6CD54C000000080FF3F8FC00000000032EA12C0000000403BE656C00C00000013000000021300003C000000060000000200000000000080FF3F8F
310
C0000000000000223F00000080F6CD54C000000080FF3F8FC00000000024E215C0000000C0A2AC56C00C000000130000000A1300003C000000060000000200000000000080FF3F8FC0000000000000223F00000080F6CD54C000000080FF3F8FC0000000002DAC19C000000080837F56C00C00000013000000121300003C00
310
0000060000000200000000000080FF3F8FC0000000000000223F00000080F6CD54C000000080FF3F8FC000000000780F1EC000000000806156C00C000000130000001A1300003C000000060000000200000000000080FF3F8FC0000000000000223F00000080F6CD54C000000080FF3F8FC0000000801E6521C0000000C051
310
5456C00C00000013000000221300003C000000060000000200000000000080FF3F8FC0000000000000223F00000080F6CD54C000000080FF3F8FC000000080EDFF22C000000040335356C00C000000130000002A1300003C000000060000000200000000000080FF3F8FC0000000000000223F00000080F6CD54C000000080
310
FF3F8FC0000000800E4F23C000000000B65156C00C00000013000000321300003C000000060000000200000000000080FF3F8FC0000000000000223F00000080F6CD54C000000080FF3F8FC000000080689623C0000000A0644D56C00C000000130000003A1300003C000000060000000200000000000080FF3F8FC0000000
310
000000223F00000080F6CD54C000000080FF3F8FC00000008006CF23C000000060AB4656C00C00000013000000421300003C000000060000000200000000000080FF3F8FC0000000000000223F00000080F6CD54C000000080FF3F8FC00000008063F323C000000040323E56C00C000000130000004A1300003C0000000600
310
00000200000000000080FF3F8FC0000000000000223F00000080F6CD54C000000080FF3F8FC000000080EDFF23C0000000C0CC3456C00C00000013000000521300003C000000060000000200000000000080FF3F8FC000000080EDFF23C000000000006055C000000080FF3F8FC00000000070FFF7BF00000000003054C00C
310
000000130000005A1300003C000000060000000200000000000080FF3F8FC00000000070FFF7BF00000000003054C000000080FF3F8FC000000080770C24C0000000809A5655C00C00000013000000621300003C000000060000000200000000000080FF3F8FC00000000070FFF7BF00000000003054C000000080FF3F8FC0
310
00000080D43024C000000080214E55C00C000000130000006A1300003C000000060000000200000000000080FF3F8FC00000000070FFF7BF00000000003054C000000080FF3F8FC000000080726924C000000040684755C00C00000013000000721300003C000000060000000200000000000080FF3F8FC00000000070FFF7
310
BF00000000003054C000000080FF3F8FC000000080CCB024C0000000C0164355C00C000000130000007A1300003C000000060000000200000000000080FF3F8FC000000080EDFF24C0000000A0994155C000000080FF3F8FC00000000070FFF7BF00000000003054C00C00000013000000821300003C000000060000000200
310
000000000080FF3F8FC0000000000000223F00000080099253C000000080FF3F8FC000000040EDFF2BC0000000A0994155C00C000000130000008A1300003C000000060000000200000000000080FF3F8FC0000000000000223F00000080099253C000000080FF3F8FC0000000400E4F2CC0000000601C4055C00C00000013
310
000000921300003C000000060000000200000000000080FF3F8FC0000000000000223F00000080099253C000000080FF3F8FC00000004068962CC000000000CB3B55C00C000000130000009A1300003C000000060000000200000000000080FF3F8FC0000000000000223F00000080099253C000000080FF3F8FC000000040
310
06CF2CC0000000C0113555C00C00000013000000A21300003C000000060000000200000000000080FF3F8FC0000000000000223F00000080099253C000000080FF3F8FC0000000C063F32CC0000000C0982C55C00C00000013000000AA1300003C0000000600000002000000000000C0FF3F8F4000000040462657C0000000
310
000000E0BE000000C0FF3F8F4000000040FFFF58C000000000D72911C00C00000013000000B21300003C0000000600000002000000000000C0FF3F8F4000000040462657C0000000000000E0BE000000C0FF3F8F4000000000C3FD58C00000000075DC11C00C00000013000000BA1300003C00000006000000020000000000
310
00C0FF3F8F4000000040462657C0000000000000E0BE000000C0FF3F8F40000000005EF758C0000000001D7612C00C00000013000000C21300003C0000000600000002000000000000C0FF3F8F4000000040462657C0000000000000E0BE000000C0FF3F8F4000000000B5ED58C00000000058E112C00C00000013000000CA
310
1300003C0000000600000002000000000000C0FF3F8F4000000040462657C0000000000000E0BE000000C0FF3F8F400000008021E258C000000000280F13C00C00000013000000D21300003C0000000600000002000000000000C0FF3F8F4000000040462657C0000000000000E0BE000000C0FF3F8F40000000202B9E58C0
310
000000007DAD13C00C00000013000000DA1300003C0000000600000002000000000000C0FF3F8F4000000040462657C0000000000000E0BE000000C0FF3F8F40000000003D4758C0000000000B6815C00C00000013000000E21300003C0000000600000002000000000000C0FF3F8F4000000040462657C0000000000000E0
310
BE000000C0FF3F8F40000000C0F5F757C0000000009C2718C00C00000013000000EA1300003C0000000600000002000000000000C0FF3F8F4000000040FF7F56C000000000D4CCF6BF000000C0FF3F8F4000000020CCB357C0000000005ECE1BC00C00000013000000F21300003C0000000600000002000000000000C0FF3F
310
8F4000000040FF7F56C000000000D4CCF6BF000000C0FF3F8F40000000C0A07D57C000000000621A20C00C00000013000000FA1300003C0000000600000002000000000000C0FF3F8F4000000040FF7F56C000000000D4CCF6BF000000C0FF3F8F4000000000BA5757C0000000C0B29522C00C00000013000000021400003C
310
0000000600000002000000000000C0FF3F8F4000000080B8D955C0000000000000E0BE000000C0FF3F8F40000000C0684657C000000000D88E24C00C000000130000000A1400003C0000000600000002000000000000C0FF3F8F4000000080B8D955C0000000000000E0BE000000C0FF3F8F4000000080FE4057C000000080
310
D1E925C00C00000013000000121400003C0000000600000002000000000000C0FF3F8F4000000080B8D955C0000000000000E0BE000000C0FF3F8F40000000C0FA3D57C000000080CB4126C00C000000130000001A1400003C0000000600000002000000000000C0FF3F8F4000000080B8D955C0000000000000E0BE000000
310
C0FF3F8F4000000000ED3657C000000080368B26C00C00000013000000221400003C0000000600000002000000000000C0FF3F8F4000000080B8D955C0000000000000E0BE000000C0FF3F8F4000000000D12C57C000000000D0BB26C00C000000130000002A1400003C0000000600000002000000000000C0FF3F8F400000
310
0080B8D955C0000000000000E0BE000000C0FF3F8F40000000C0102157C0000000C0CDCC26C00C00000013000000321400003C0000000600000002000000000000C0FF3F8F4000000040FF7F54C0000000000000E0BE000000C0FF3F8F4000000040FF5F56C0000000C0CDCC26C00C000000130000003A1400003C00000006
310
00000002000000000000C0FF3F8F4000000040FF7F54C0000000000000E0BE000000C0FF3F8F40000000401B5656C000000040B7D826C00C00000013000000421400003C0000000600000002000000000000C0FF3F8F4000000040FF7F54C0000000000000E0BE000000C0FF3F8F4000000000304D56C00000000043FB26C0
310
0C000000130000004A1400003C0000000600000002000000000000C0FF3F8F4000000040FF7F54C0000000000000E0BE000000C0FF3F8F40000000401C4656C0000000800C3127C00C00000013000000521400003C0000000600000002000000000000C0FF3F8F4000000040FF7F54C0000000000000E0BE000000C0FF3F8F
310
4000000080904156C000000000D57427C00C000000130000005A1400003C0000000600000002000000000000C0FF3F8F4000000040FF7F54C0000000000000E0BE000000C0FF3F8F4000000040FF3F56C00000000001C027C00C00000013000000621400003C0000000600000002000000000000C0FF3F8F4000000040FF7F
310
54C0000000000000E0BE000000C0FF3F8F4000000040FF3F56C00000004034732DC00C000000130000006A1400003C0000000600000002000000000000C0FF3F8F4000000080289052C00000000017B418C0000000C0FF3F8F4000000040434E55C00000008052732EC00C00000013000000721400003C0000000600000002
310
000000000000C0FF3F8F4000000080289052C00000000017B418C0000000C0FF3F8F4000000080124555C000000080AA982EC00C000000130000007A1400003C0000000600000002000000000000C0FF3F8F4000000080289052C00000000017B418C0000000C0FF3F8F40000000408D5855C00000008067662EC00C000000
310
13000000821400003C0000000600000002000000000000C0FF3F8F4000000080289052C00000000017B418C0000000C0FF3F8F4000000080F23D55C00000008078D22EC00C000000130000008A1400003C0000000600000002000000000000C0FF3F8F4000000080289052C00000000017B418C0000000C0FF3F8F40000000
310
80A43955C0000000C0A81A2FC00C00000013000000921400003C0000000600000002000000000000C0FF3F8F4000000080289052C00000000017B418C0000000C0FF3F8F40000000009C0E55C0000000409DEF31C00C000000130000009A1400003C0000000600000002000000000000C0FF3F8F4000000080289052C00000
310
000017B418C0000000C0FF3F8F4000000040FF1F56C00000008067662EC00C00000013000000A21400003C0000000600000002000000000000C0FF3F8F4000000080289052C00000000017B418C0000000C0FF3F8F4000000080E32956C0000000007E5A2EC00C00000013000000AA1400003C000000060000000200000000
310
0000C0FF3F8F4000000040FF7F54C0000000000000E0BE000000C0FF3F8F40000000006E3E56C00000004060BE2DC00C00000013000000B21400003C0000000600000002000000000000C0FF3F8F4000000040FF7F54C0000000000000E0BE000000C0FF3F8F4000000080E23956C00000008028022EC00C00000013000000
310
BA1400003C0000000600000002000000000000C0FF3F8F4000000080289052C00000000017B418C0000000C0FF3F8F40000000C0CE3256C000000080F2372EC00C00000013000000C21400003C0000000600000002000000000000C0FF3F8F4000000080289052C00000000017B418C0000000C0FF3F8F40000000405A9B52
310
C000000080BA592FC00C00000013000000CA1400003C0000000600000002000000000000C0FF3F8F400000000095BA51C000000000242119C0000000C0FF3F8F40000000004C1652C000000080E66F2FC00C00000013000000D21400003C0000000600000002000000000000C0FF3F8F4000000080289052C00000000017B4
310
18C0000000C0FF3F8F40000000C09EA152C0000000004A5E2FC00C00000013000000DA1400003C0000000600000002000000000000C0FF3F8F4000000080289052C00000000017B418C0000000C0FF3F8F4000000000A7A752C000000080196C2FC00C00000013000000E21400003C0000000600000002000000000000C0FF
310
3F8F4000000080289052C00000000017B418C0000000C0FF3F8F400000000036AD52C0000000809E822FC00C00000013000000EA1400003C0000000600000002000000000000C0FF3F8F4000000080289052C00000000017B418C0000000C0FF3F8F400000008014B252C000000080F5A02FC00C00000013000000F2140000
310
3C0000000600000002000000000000C0FF3F8F4000000080289052C00000000017B418C0000000C0FF3F8F40000000C08EA253C0000000804B6233C00C00000013000000FA1400003C0000000600000002000000000000C0FF3F8F4000000080289052C00000000017B418C0000000C0FF3F8F400000006055C253C0000000
310
408FC233C00C00000013000000021500003C0000000600000002000000000000C0FF3F8F4000000080289052C00000000017B418C0000000C0FF3F8F400000004084FC53C000000040F62C34C00C000000130000000A1500003C0000000600000002000000000000C0FF3F8F4000000080289052C00000000017B418C00000
310
00C0FF3F8F40000000006F3C54C0000000C0905134C00C00000013000000121500003C0000000600000002000000000000C0FF3F8F4000000080289052C00000000017B418C0000000C0FF3F8F40000000C0537C54C000000000F82C34C00C000000130000001A1500003C0000000600000002000000000000C0FF3F8F4000
310
000080289052C00000000017B418C0000000C0FF3F8F400000000091B654C00000008065C233C00C00000013000000221500003C0000000600000002000000000000C0FF3F8F4000000080289052C00000000017B418C0000000C0FF3F8F4000000080F4E554C0000000004F1B33C00C000000130000002A1500003C000000
310
0600000002000000000000C0FF3F8F4000000080289052C00000000017B418C0000000C0FF3F8F4000000040050555C000000080D45532C00C00000013000000321500003C0000000600000002000000000000C0FF3F8F400000000095BA51C000000000242119C0000000C0FF3F8F4000000040CD9151C00000008076AB2F
310
C00C000000130000003A1500003C0000000600000002000000000000A0FF3F8F400000008077FC23C0000000A08FD84CC0000000A0FF3F8F40000000C0FCFF32C0000000E0AD1F51C00C00000013000000421500003C0000000600000002000000000000A0FF3F8F400000008077FC23C0000000A08FD84CC0000000A0FF3F
310
8F40000000C0FCFF32C000000040339351C00C000000130000004A1500003C0000000600000002000000000000A0FF3F8F400000008077FC23C0000000A08FD84CC0000000A0FF3F8F4000000040040A33C0000000403CA150C00C00000013000000521500003C0000000600000002000000000000A0FF3F8F400000008050
310
5425C000000080D54A4BC0000000A0FF3F8F4000000080BB2733C000000040512350C00C000000130000005A1500003C0000000600000002000000000000A0FF3F8F4000000080505425C000000080D54A4BC0000000A0FF3F8F4000000080225933C000000080D94B4FC00C00000013000000621500003C00000006000000
310
02000000000000A0FF3F8F4000000080FE9B27C000000040C63F49C0000000A0FF3F8F40000000E0589E33C000000040C5514EC00C000000130000006A1500003C0000000600000002000000000000A0FF3F8F4000000080FE9B27C000000040C63F49C0000000A0FF3F8F40000000003FF733C000000000BE584DC00C0000
310
0013000000721500003C0000000600000002000000000000A0FF3F8F4000000080C3772AC000000040403F47C0000000A0FF3F8F40000000E0756334C000000000CE614CC00C000000130000007A1500003C0000000600000002000000000000A0FF3F8F4000000080C3772AC000000040403F47C0000000A0FF3F8F400000
310
006012E334C000000040F76C4BC00C00000013000000821500003C0000000600000002000000000000A0FF3F8F400000008031E42DC000000080B14B45C0000000A0FF3F8F40000000E0FF7535C000000040377A4AC00C000000130000008A1500003C0000000600000002000000000000A0FF3F8F400000008031E42DC000
310
000080B14B45C0000000A0FF3F8F4000000020A11B36C0000000E0918A49C00C00000013000000921500003C0000000600000002000000000000A0FF3F8F40000000A09FEE30C000000080666743C0000000A0FF3F8F40000000400AD436C0000000A0099E48C00C000000130000009A1500003C0000000600000002000000
310
000000A0FF3F8F40000000A09FEE30C000000080666743C0000000A0FF3F8F40000000A0279F37C0000000609BB447C00C00000013000000A21500003C0000000600000002000000000000A0FF3F8F40000000001F2F33C0000000609A9441C0000000A0FF3F8F4000000020207C38C0000000A040CF46C00C000000130000
310
00AA1500003C0000000600000002000000000000A0FF3F8F40000000001F2F33C0000000609A9441C0000000A0FF3F8F40000000E0066B39C000000060FDED45C00C00000013000000B21500003C0000000600000002000000000000A0FF3F8F40000000E0EFB035C000000080E6AA3FC0000000A0FF3F8F40000000E0C86B
310
3AC0000000A0CD1045C00C00000013000000BA1500003C0000000600000002000000000000A0FF3F8F40000000E0EFB035C000000080E6AA3FC0000000A0FF3F8F4000000000547D3BC0000000209D3844C00C00000013000000C21500003C0000000600000002000000000000A0FF3F8F40000000201D7138C00000008000
310
583CC0000000A0FF3F8F4000000020BA9F3CC000000060716543C00C00000013000000CA1500003C0000000600000002000000000000A0FF3F8F40000000201D7138C00000008000583CC0000000A0FF3F8F4000000060E9D23DC000000000459742C00C00000013000000D21500003C0000000600000002000000000000A0
310
FF3F8F4000000020696C3BC0000000806D3439C0000000A0FF3F8F40000000E099153FC000000020F4CE41C00C00000013000000DA1500003C0000000600000002000000000000A0FF3F8F4000000020696C3BC0000000806D3439C0000000A0FF3F8F4000000020EE3340C000000000850C41C00C00000013000000E21500
310
003C0000000600000002000000000000A0FF3F8F4000000020509F3EC0000000A0E04336C0000000A0FF3F8F4000000000D0E440C000000060F14F40C00C00000013000000EA1500003C0000000600000002000000000000A0FF3F8F4000000020509F3EC0000000A0E04336C0000000A0FF3F8F4000000080B59C41C00000
310
000005343FC00C00000013000000F21500003C0000000600000002000000000000A0FF3F8F4000000080060341C000000080D18933C0000000A0FF3F8F4000000060A65B42C0000000007FD53DC00C00000013000000FA1500003C0000000600000002000000000000A0FF3F8F4000000080060341C000000080D18933C000
310
0000A0FF3F8F40000000209B2143C0000000C042843CC00C00000013000000021600003C0000000600000002000000000000A0FF3F8F40000000A04ECE42C000000000760931C0000000A0FF3F8F4000000040C0ED43C0000000C0B7413BC00C000000130000000A1600003C0000000600000002000000000000A0FF3F8F40
310
000000A04ECE42C000000000760931C0000000A0FF3F8F40000000A01CC044C000000000EE0D3AC00C00000013000000121600003C0000000600000002000000000000A0FF3F8F400000002063AF44C000000000838B2DC0000000A0FF3F8F4000000060A99845C0000000A0D5E838C00C000000130000001A1600003C0000
310
000600000002000000000000A0FF3F8F400000002063AF44C000000000838B2DC0000000C0FF3F8F40000000807F7646C0000000C0A7D337C00C00000013000000221600003C0000000600000002000000000000C0FF3F8F40000000C00CA446C000000080BE8229C0000000C0FF3F8F40000000A0A45947C00000004075CE
310
36C00C000000130000002A1600003C0000000600000002000000000000C0FF3F8F40000000C00CA446C000000080BE8229C0000000C0FF3F8F4000000040134248C0000000202DD935C00C00000013000000321600003C0000000600000002000000000000C0FF3F8F40000000A0FDA948C0000000C05FFD25C0000000C0FF
310
3F8F4000000000D32E49C000000020D5F434C00C000000130000003A1600003C0000000600000002000000000000C0FF3F8F40000000A0FDA948C0000000C05FFD25C0000000C0FF3F8F40000000C0E81F4AC0000000A07F2134C00C00000013000000421600003C0000000600000002000000000000C0FF3F8F4000000020
310
D3BE4AC0000000008DFF22C0000000C0FF3F8F40000000804F154BC0000000201A5F33C00C000000130000004A1600003C0000000600000002000000000000C0FF3F8F4000000020D3BE4AC0000000008DFF22C0000000C0FF3F8F40000000A0010E4CC00000008074AE32C00C00000013000000521600003C000000060000
310
0002000000000000C0FF3F8F400000006019E04CC000000080CC8C20C0000000C0FF3F8F40000000C0020A4DC000000060A10F32C00C000000130000005A1600003C0000000600000002000000000000C0FF3F8F400000006019E04CC000000080CC8C20C0000000C0FF3F8F40000000004F094EC0000000E08D8231C00C00
310
000013000000621600003C0000000600000002000000000000C0FF3F8F40000000804D0B4FC00000000004501DC0000000C0FF3F8F4000000000D60A4FC0000000C0D00731C00C000000130000006A1600003C0000000600000002000000000000C0FF3F8F40000000804D0B4FC00000000004501DC0000000C0FF3F8F4000
310
0000C04D0750C0000000607D9F30C00C00000013000000721600003C0000000600000002000000000000C0FF3F8F4000000080F09E50C000000000CFA61AC0000000C0FF3F8F40000000004E8A50C000000080804930C00C000000130000007A1600003C0000000600000002000000000000C0FF3F8F4000000080F09E50C0
310
00000000CFA61AC0000000C0FF3F8F4000000080DD0D51C000000080350630C00C00000013000000821600003C0000000600000002000000000000A0FF3F8F400000008077FC23C0000000A08FD84CC0000000A0FF3F8F40000000E0B7F932C0000000C0989C51C00C000000130000008A1600003C00000006000000020000
310
00000000A0FF3F8F400000008077FC23C0000000A08FD84CC0000000A0FF3F8F400000004089E732C0000000C011A551C00C00000013000000921600003C0000000600000002000000000000A0FF3F8F400000008077FC23C0000000A08FD84CC0000000A0FF3F8F40000000003ACB32C000000000CBAB51C00C0000001300
310
00009A1600003C0000000600000002000000000000A0FF3F8F400000008077FC23C0000000A08FD84CC0000000A0FF3F8F40000000408DA732C0000000601CB051C00C00000013000000A21600003C0000000600000002000000000000A0FF3F8F400000008077FC23C0000000A08FD84CC0000000A0FF3F8F40000000C0FC
310
7F32C0000000A099B151C00C00000013000000AA1600003C0000000600000002000000000000A0FF3F8F400000008077FC23C0000000A08FD84CC0000000A0FF3F8F40000000C0F9FF2DC0000000A099B151C00C00000013000000B21600003C0000000600000002000000000000A0FF3F8F400000008077FC23C0000000A0
310
8FD84CC0000000A0FF3F8F40000000C0D8B02DC0000000C016B351C00C00000013000000BA1600003C0000000600000002000000000000A0FF3F8F400000008077FC23C0000000A08FD84CC0000000A0FF3F8F40000000407F692DC00000004068B751C00C00000013000000C21600003C0000000600000002000000000000
310
A0FF3F8F400000008077FC23C0000000A08FD84CC0000000A0FF3F8F40000000C0E0302DC00000008021BE51C00C00000013000000CA1600003C0000000600000002000000000000A0FF3F8F400000000000000A3F0000000000D051C0000000A0FF3F8F40000000C0E0302DC00000008021BE51C00C00000013000000D216
310
00003C0000000600000002000000000000A0FF3F8F400000000000000A3F0000000000D051C0000000A0FF3F8F40000000C0F9FF2CC00000000000D051C00C00000013000000DA1600003C0000000600000002000000000000A0FF3F8F400000000000000A3F00000080099253C0000000A0FF3F8F4000000000F9FF2CC000
310
000040332355C00C00000013000000E21600003C0000000600000002000000000000A0FF3F8F400000000000000A3F0000000000D051C0000000A0FF3F8F4000000040830C2DC0000000809AC651C00C00000013000000EA1600003C0000000600000002000000000000A0FF3F8F4000000000E4FF0BC00000000000C057C0
310
000000A0FF3F8F400000000000000A3F00000080F6CD54C00C00000013000000F21600003C0000000600000002000000000000A0FF3F8F400000000000000A3F00000080F6CD54C0000000A0FF3F8F4000000000683C0DC0000000E082BE57C00C00000013000000FA1600003C0000000600000002000000000000A0FF3F8F
310
400000000000000A3F00000080F6CD54C0000000A0FF3F8F4000000000CE590EC00000006031BA57C00C00000013000000021700003C0000000600000002000000000000A0FF3F8F400000000000000A3F00000080F6CD54C0000000A0FF3F8F4000000000483C0FC00000002078B357C00C000000130000000A1700003C00
310
00000600000002000000000000A0FF3F8F400000000000000A3F00000080F6CD54C0000000A0FF3F8F4000000000BECD0FC000000020FFAA57C00C00000013000000121700003C0000000600000002000000000000A0FF3F8F400000000000000A3F00000080F6CD54C0000000A0FF3F8F4000000000E4FF0FC0000000A099
310
A157C00C000000130000001A1700003C0000000600000002000000000000A0FF3F8F400000000000000A3F00000080F6CD54C0000000A0FF3F8F4000000000CC1210C000000020D17057C00C00000013000000221700003C0000000600000002000000000000A0FF3F8F400000000000000A3F00000080F6CD54C0000000A0
310
FF3F8F4000000000CAF010C000000040ED2857C00C000000130000002A1700003C0000000600000002000000000000A0FF3F8F400000000000000A3F00000080F6CD54C0000000A0FF3F8F400000000049EA12C0000000403BE656C00C00000013000000321700003C0000000600000002000000000000A0FF3F8F40000000
310
0000000A3F00000080F6CD54C0000000A0FF3F8F40000000003BE215C0000000C0A2AC56C00C000000130000003A1700003C0000000600000002000000000000A0FF3F8F400000000000000A3F00000080F6CD54C0000000A0FF3F8F400000000045AC19C000000080837F56C00C00000013000000421700003C0000000600
310
000002000000000000A0FF3F8F400000000000000A3F00000080F6CD54C0000000A0FF3F8F40000000008F0F1EC000000000806156C00C000000130000004A1700003C0000000600000002000000000000A0FF3F8F400000000000000A3F00000080F6CD54C0000000A0FF3F8F40000000802A6521C0000000C0515456C00C
310
00000013000000521700003C0000000600000002000000000000A0FF3F8F400000000000000A3F00000080F6CD54C0000000A0FF3F8F4000000000F9FF22C000000040335356C00C000000130000005A1700003C0000000600000002000000000000A0FF3F8F400000000000000A3F00000080F6CD54C0000000A0FF3F8F40
310
000000001A4F23C000000000B65156C00C00000013000000621700003C0000000600000002000000000000A0FF3F8F400000000000000A3F00000080F6CD54C0000000A0FF3F8F4000000000749623C0000000A0644D56C00C000000130000006A1700003C0000000600000002000000000000A0FF3F8F400000000000000A
310
3F00000080F6CD54C0000000A0FF3F8F400000000012CF23C000000060AB4656C00C00000013000000721700003C0000000600000002000000000000A0FF3F8F400000000000000A3F00000080F6CD54C0000000A0FF3F8F40000000806FF323C000000040323E56C00C000000130000007A1700003C000000060000000200
310
0000000000A0FF3F8F400000000000000A3F00000080F6CD54C0000000A0FF3F8F4000000000F9FF23C0000000C0CC3456C00C00000013000000821700003C0000000600000002000000000000A0FF3F8F4000000000CCFFF7BF00000000003054C0000000A0FF3F8F4000000000F9FF23C000000000006055C00C00000013
310
0000008A1700003C0000000600000002000000000000A0FF3F8F4000000000CCFFF7BF00000000003054C0000000A0FF3F8F4000000000830C24C0000000809A5655C00C00000013000000921700003C0000000600000002000000000000A0FF3F8F4000000000CCFFF7BF00000000003054C0000000A0FF3F8F4000000000
310
E03024C000000080214E55C00C000000130000009A1700003C0000000600000002000000000000A0FF3F8F4000000000CCFFF7BF00000000003054C0000000A0FF3F8F40000000807E6924C000000040684755C00C00000013000000A21700003C0000000600000002000000000000A0FF3F8F4000000000CCFFF7BF000000
310
00003054C0000000A0FF3F8F4000000080D8B024C0000000C0164355C00C00000013000000AA1700003C0000000600000002000000000000A0FF3F8F4000000000CCFFF7BF00000000003054C0000000A0FF3F8F4000000000F9FF24C0000000A0994155C00C00000013000000B21700003C00000006000000020000000000
310
00A0FF3F8F400000000000000A3F00000080099253C0000000A0FF3F8F4000000000F9FF2BC0000000A0994155C00C00000013000000BA1700003C0000000600000002000000000000A0FF3F8F400000000000000A3F00000080099253C0000000A0FF3F8F40000000001A4F2CC0000000601C4055C00C00000013000000C2
310
1700003C0000000600000002000000000000A0FF3F8F400000000000000A3F00000080099253C0000000A0FF3F8F400000000074962CC000000000CB3B55C00C00000013000000CA1700003C0000000600000002000000000000A0FF3F8F400000000000000A3F00000080099253C0000000A0FF3F8F400000000012CF2CC0
310
000000C0113555C00C00000013000000D21700003C0000000600000002000000000000A0FF3F8F400000000000000A3F00000080099253C0000000A0FF3F8F40000000806FF32CC0000000C0982C55C0
100
AcDbSubDMesh
 71
     2
 72
     0
 91
        0
 92
      330
 10
999.9998168945312
 20
-3.499946594238281
 30
-95.0
 10
999.9998168945312
 20
0.0000534057617188
 30
-95.0
 10
999.9998168945312
 20
0.0000495910644531
 30
-83.21817016601562
 10
999.9998168945312
 20
-1.499950408935546
 30
-80.75000000000001
 10
999.9998168945312
 20
0.0000495910644531
 30
-78.28182983398438
 10
999.9998168945312
 20
0.0000495910644531
 30
-71.25
 10
999.9998168945312
 20
-9.993099212646484
 30
-57.6918830871582
 10
999.9998168945312
 20
-10.66467666625976
 30
-54.58464050292969
 10
999.9998168945312
 20
-11.8046760559082
 30
-50.49823760986328
 10
999.9998168945312
 20
-13.23391342163086
 30
-46.49414825439452
 10
999.9998168945312
 20
-14.9456901550293
 30
-42.59135437011718
 10
999.9998168945312
 20
-16.9321231842041
 30
-38.80781555175781
 10
999.9998168945312
 20
-19.18406677246094
 30
-35.16096115112305
 10
999.9998168945312
 20
-21.69116020202637
 30
-31.66757965087891
 10
999.9998168945312
 20
-24.44185066223145
 30
-28.34375762939453
 10
999.9998168945312
 20
-27.4234790802002
 30
-25.20479583740235
 10
999.9998168945312
 20
-30.62231636047363
 30
-22.26514625549317
 10
999.9998168945312
 20
-34.02363586425781
 30
-19.53835296630859
 10
999.9998168945312
 20
-37.61177444458008
 30
-17.03695678710937
 10
999.9998168945312
 20
-41.37021255493164
 30
-14.77248382568359
 10
999.9998779296875
 20
-45.28163909912109
 30
-12.7553596496582
 10
999.9998779296875
 20
-49.32805252075195
 30
-10.99487113952636
 10
999.9998779296875
 20
-53.49081802368164
 30
-9.499122619628906
 10
999.9998779296875
 20
-57.75077438354492
 30
-8.27499771118164
 10
999.9998779296875
 20
-62.08830261230469
 30
-7.328140258789062
 10
999.9998779296875
 20
-66.48342895507813
 30
-6.662899017333984
 10
999.9998779296875
 20
-70.91534423828125
 30
-6.282363891601562
 10
999.9998779296875
 20
-74.25247192382812
 30
-6.175868988037109
 10
999.9998779296875
 20
-81.99995422363281
 30
-0.0000076293945313
 10
999.9998779296875
 20
-87.40188598632812
 30
-0.0000076293945313
 10
999.9998779296875
 20
-89.99995422363282
 30
-1.425006866455078
 10
999.9998779296875
 20
-92.59803771972656
 30
-0.0000076293945313
 10
999.9998779296875
 20
-99.99995422363282
 30
-0.0000076293945313
 10
999.9998779296875
 20
-99.99995422363282
 30
-4.290859222412109
 10
999.9998779296875
 20
-99.96502685546875
 30
-4.465290069580078
 10
999.9998779296875
 20
-99.8651123046875
 30
-4.615345001220703
 10
999.9998779296875
 20
-99.71417236328125
 30
-4.720062255859375
 10
999.9998779296875
 20
-99.53329467773437
 30
-4.764801025390625
 10
999.9998779296875
 20
-98.47138214111328
 30
-4.919422149658203
 10
999.9998779296875
 20
-97.11309814453125
 30
-5.351604461669921
 10
999.9998779296875
 20
-95.87437438964844
 30
-6.038681030273437
 10
999.9998779296875
 20
-94.80933380126954
 30
-6.951530456542968
 10
999.9998779296875
 20
-93.96293640136718
 30
-8.051528930664062
 10
999.9998779296875
 20
-93.3707275390625
 30
-9.29237937927246
 10
999.9998779296875
 20
-93.10014343261718
 30
-10.27899169921875
 10
999.9998779296875
 20
-93.01553344726562
 30
-10.95667648315429
 10
999.9998779296875
 20
-92.96842956542969
 30
-11.12850570678711
 10
999.9998779296875
 20
-92.85821533203124
 30
-11.27190017700195
 10
999.9998779296875
 20
-92.70025634765625
 30
-11.3668212890625
 10
999.9998779296875
 20
-92.51664733886718
 30
-11.4000072479248
 10
999.9998779296875
 20
-89.49995422363281
 30
-11.4000072479248
 10
999.9998779296875
 20
-89.3454132080078
 30
-11.42327308654785
 10
999.9998779296875
 20
-89.2060546875
 30
-11.49074554443359
 10
999.9998779296875
 20
-89.09547424316405
 30
-11.59579849243164
 10
999.9998779296875
 20
-89.02444458007812
 30
-11.72818756103515
 10
999.9998779296875
 20
-88.9999542236328
 30
-11.87500762939453
 10
999.9998779296875
 20
-88.9999542236328
 30
-14.72500801086425
 10
999.9998779296875
 20
-88.97546386718749
 30
-14.87182807922363
 10
999.9998779296875
 20
-88.90444946289063
 30
-15.00421524047851
 10
999.9998779296875
 20
-88.79386901855468
 30
-15.10927200317382
 10
999.9998779296875
 20
-88.65451049804688
 30
-15.17674255371094
 10
999.9998779296875
 20
-88.49995422363281
 30
-15.20000839233398
 10
999.9998779296875
 20
-85.3836212158203
 30
-15.20000839233398
 10
999.9998779296875
 20
-85.22285461425781
 30
-15.22523880004882
 10
999.9998779296875
 20
-85.07925415039062
 30
-15.29817581176757
 10
999.9998779296875
 20
-84.96792602539063
 30
-15.41107559204101
 10
999.9998779296875
 20
-84.90066528320312
 30
-15.55206871032715
 10
999.9998779296875
 20
-84.228271484375
 30
-17.93599319458008
 10
999.9998779296875
 20
-84.07844543457031
 30
-18.33527374267578
 10
999.9998779296875
 20
-83.59304809570312
 30
-19.10667419433593
 10
999.9998779296875
 20
-82.85260009765625
 30
-19.75936126708984
 10
999.9998779296875
 20
-81.94261169433593
 30
-20.1756591796875
 10
999.9998779296875
 20
-80.94427490234375
 30
-20.3186149597168
 10
999.9998779296875
 20
-79.94557189941406
 30
-20.17563247680664
 10
999.9998779296875
 20
-79.03646087646484
 30
-19.7599983215332
 10
999.9998779296875
 20
-78.53996276855468
 30
-19.38396453857422
 10
999.9998779296875
 20
-74.78250122070313
 30
-15.81437301635742
 10
999.9998779296875
 20
-74.7064208984375
 30
-15.7551155090332
 10
999.9998779296875
 20
-74.61956787109375
 30
-15.71113204956055
 10
999.9998779296875
 20
-74.52531433105469
 30
-15.68415832519531
 10
999.9998779296875
 20
-74.42738342285156
 30
-15.67525100708008
 10
999.9998779296875
 20
-72.348388671875
 30
-15.71855545043945
 10
999.9998779296875
 20
-70.27815246582031
 30
-15.83488845825195
 10
999.9998779296875
 20
-68.21664428710938
 30
-16.02425384521484
 10
999.9998779296875
 20
-66.1610107421875
 30
-16.28711700439453
 10
999.9998779296875
 20
-64.11412048339844
 30
-16.62300682067871
 10
999.9998779296875
 20
-62.08465576171875
 30
-17.0305290222168
 10
999.9998779296875
 20
-60.07272338867188
 30
-17.50997734069824
 10
999.9998779296875
 20
-58.07820892333984
 30
-18.06105613708496
 10
999.9998779296875
 20
-56.10942459106445
 30
-18.68146514892578
 10
999.9998779296875
 20
-54.16648864746093
 30
-19.37149238586426
 10
999.9998779296875
 20
-52.24929046630859
 30
-20.1308536529541
 10
999.9998779296875
 20
-50.36581420898437
 30
-20.95637702941894
 10
999.9998779296875
 20
-48.51621246337891
 30
-21.84834480285644
 10
999.9998779296875
 20
-46.70033645629882
 30
-22.80647659301758
 10
999.9998779296875
 20
-44.92576599121093
 30
-23.82677841186524
 10
999.9998168945312
 20
-43.19266891479492
 30
-24.90950965881348
 10
999.9998168945312
 20
-41.50087356567382
 30
-26.05441284179688
 10
999.9998168945312
 20
-39.85742950439453
 30
-27.25671005249024
 10
999.9998168945312
 20
-38.26254653930664
 30
-28.51664352416992
 10
999.9998168945312
 20
-36.71601486206055
 30
-29.83396911621094
 10
999.9998168945312
 20
-35.22428894042969
 30
-31.20320129394531
 10
999.9998168945312
 20
-33.78759765625
 30
-32.62455368041992
 10
999.9998168945312
 20
-32.40570449829102
 30
-34.09780883789063
 10
999.9998168945312
 20
-31.084379196167
 30
-35.61682510375977
 10
999.9998168945312
 20
-29.82387351989746
 30
-37.18179321289063
 10
999.9998168945312
 20
-28.62393379211426
 30
-38.79252243041992
 10
999.9998168945312
 20
-27.48956298828125
 30
-40.44229507446289
 10
999.9998168945312
 20
-26.42103385925293
 30
-42.13127517700195
 10
999.9998168945312
 20
-25.41807365417481
 30
-43.85929489135742
 10
999.9998168945312
 20
-24.48486518859863
 30
-45.61915969848633
 10
999.9998168945312
 20
-23.6216983795166
 30
-47.41099166870117
 10
999.9998168945312
 20
-22.82828140258789
 30
-49.23466873168945
 10
999.9998168945312
 20
-22.1079273223877
 30
-51.08257675170898
 10
999.9998168945312
 20
-21.46093559265137
 30
-52.9548110961914
 10
999.9998168945312
 20
-20.88699913024902
 30
-54.8512954711914
 10
999.9998168945312
 20
-20.38851737976074
 30
-56.76409912109375
 10
999.9998168945312
 20
-19.96580505371094
 30
-58.69329833984375
 10
999.9998168945312
 20
-19.61854362487793
 30
-60.63883209228515
 10
999.9998168945312
 20
-19.34818267822265
 30
-62.59257507324218
 10
999.9998168945312
 20
-19.15520477294922
 30
-64.55183410644531
 10
999.9998168945312
 20
-19.03912734985351
 30
-66.51930236816406
 10
999.9998168945312
 20
-18.99995040893555
 30
-68.49498748779296
 10
999.9998168945312
 20
-18.99995040893555
 30
-70.30000305175781
 10
999.9998168945312
 20
-18.97546195983887
 30
-70.44682312011719
 10
999.9998168945312
 20
-18.90443801879882
 30
-70.57920837402344
 10
999.9998168945312
 20
-18.79385375976562
 30
-70.68426513671875
 10
999.9998168945312
 20
-18.65449905395507
 30
-70.7517318725586
 10
999.9998168945312
 20
-18.49995040893555
 30
-70.77500152587891
 10
999.9998168945312
 20
-14.99995231628418
 30
-70.77500152587891
 10
999.9998168945312
 20
-14.84540367126465
 30
-70.79826354980468
 10
999.9998168945312
 20
-14.7060489654541
 30
-70.86573791503906
 10
999.9998168945312
 20
-14.5954647064209
 30
-70.97079467773437
 10
999.9998168945312
 20
-14.52443885803222
 30
-71.10317993164063
 10
999.9998168945312
 20
-14.49995231628418
 30
-71.25
 10
999.9998168945312
 20
-14.49994659423828
 30
-84.55000305175781
 10
999.9998168945312
 20
-14.47546005249023
 30
-84.69682312011718
 10
999.9998168945312
 20
-14.40443420410156
 30
-84.82920837402344
 10
999.9998168945312
 20
-14.29385375976562
 30
-84.93426513671876
 10
999.9998168945312
 20
-14.15449523925781
 30
-85.00173187255859
 10
999.9998168945312
 20
-13.99994659423828
 30
-85.0250015258789
 10
999.9998168945312
 20
-10.49994659423828
 30
-85.0250015258789
 10
999.9998168945312
 20
-10.34540176391601
 30
-85.04826354980469
 10
999.9998168945312
 20
-10.2060432434082
 30
-85.11573791503906
 10
999.9998168945312
 20
-10.095458984375
 30
-85.22079467773437
 10
999.9998168945312
 20
-10.02443695068359
 30
-85.35317993164062
 10
999.9998168945312
 20
-9.999946594238281
 30
-85.5
 10
999.9998168945312
 20
-9.999946594238281
 30
-88.82499694824218
 10
999.9998168945312
 20
-9.975460052490234
 30
-88.97181701660157
 10
999.9998168945312
 20
-9.904434204101562
 30
-89.10420989990234
 10
999.9998168945312
 20
-9.793853759765625
 30
-89.20926666259765
 10
999.9998168945312
 20
-9.654495239257812
 30
-89.2767333984375
 10
999.9998168945312
 20
-9.499946594238281
 30
-89.30000305175781
 10
999.9998168945312
 20
-8.697589874267578
 30
-89.31748962402343
 10
999.9998168945312
 20
-7.515193939208984
 30
-89.5234375
 10
999.9998168945312
 20
-6.418231964111328
 30
-89.99240112304688
 10
999.9998168945312
 20
-5.470928192138671
 30
-90.69743347167969
 10
999.9998168945312
 20
-4.72879409790039
 30
-91.59736633300781
 10
999.9998168945312
 20
-4.235145568847656
 30
-92.6394805908203
 10
999.9998168945312
 20
-4.018356323242187
 30
-93.76276397705078
 10
999.9998168945312
 20
-3.999946594238281
 30
-94.52500152587891
 10
999.9998168945312
 20
-3.975460052490234
 30
-94.67182159423828
 10
999.9998168945312
 20
-3.904434204101562
 30
-94.80420684814452
 10
999.9998168945312
 20
-3.793849945068359
 30
-94.90926361083984
 10
999.9998168945312
 20
-3.654495239257812
 30
-94.97673797607422
 10
-999.9997558593749
 20
-92.59794616699219
 30
-0.0000076293945313
 10
-999.9997558593749
 20
-99.99987030029297
 30
-0.0000076293945313
 10
-999.9997558593749
 20
-81.99987030029296
 30
-0.0000076293945313
 10
-999.9997558593749
 20
-87.40179443359375
 30
-0.0000076293945313
 10
-999.9997558593749
 20
-74.42729949951171
 30
-15.67525100708008
 10
-999.9997558593749
 20
-72.34830474853516
 30
-15.71855545043945
 10
-999.9997558593749
 20
-70.27806091308594
 30
-15.83488845825195
 10
-999.9997558593749
 20
-68.21656036376953
 30
-16.02425384521484
 10
-999.9997558593749
 20
-66.16092681884765
 30
-16.28711700439453
 10
-999.9997558593749
 20
-64.11403656005859
 30
-16.62300682067871
 10
-999.9997558593749
 20
-62.08456420898437
 30
-17.0305290222168
 10
-999.9997558593749
 20
-60.0726318359375
 30
-17.50997734069824
 10
-999.9997558593749
 20
-58.07811737060546
 30
-18.06105613708496
 10
-999.9997558593749
 20
-56.10933685302734
 30
-18.68146514892578
 10
-999.9997558593749
 20
-54.16640472412109
 30
-19.37149238586426
 10
-999.9997558593749
 20
-52.24920272827148
 30
-20.1308536529541
 10
-999.9997558593749
 20
-50.36573028564453
 30
-20.95637702941894
 10
-999.9997558593749
 20
-48.5161247253418
 30
-21.84834480285644
 10
-999.9997558593749
 20
-46.70024871826171
 30
-22.80647659301758
 10
-999.9997558593749
 20
-44.92567825317382
 30
-23.82677841186524
 10
-999.9997558593749
 20
-43.19258117675781
 30
-24.90950965881348
 10
-999.9997558593749
 20
-41.50078582763671
 30
-26.05441284179688
 10
-999.9997558593749
 20
-39.85734176635742
 30
-27.25671005249024
 10
-999.9997558593749
 20
-38.26245880126953
 30
-28.51664352416992
 10
-999.9997558593749
 20
-36.71592712402344
 30
-29.83396911621094
 10
-999.9997558593749
 20
-35.22420120239258
 30
-31.20320129394531
 10
-999.9997558593749
 20
-33.78750991821289
 30
-32.62455368041992
 10
-999.9997558593749
 20
-32.40561676025391
 30
-34.09780883789063
 10
-999.9997558593749
 20
-31.08428955078125
 30
-35.61682510375977
 10
-999.9997558593749
 20
-29.82378387451172
 30
-37.18179321289063
 10
-999.9997558593749
 20
-28.62384414672852
 30
-38.79252243041992
 10
-999.9997558593749
 20
-27.48947334289551
 30
-40.44229507446289
 10
-999.9997558593749
 20
-26.42094421386719
 30
-42.13127517700195
 10
-999.9997558593749
 20
-25.41798400878906
 30
-43.85929489135742
 10
-999.9997558593749
 20
-24.48477554321289
 30
-45.61915969848633
 10
-999.9997558593749
 20
-23.62160873413086
 30
-47.41099166870117
 10
-999.9997558593749
 20
-22.82819175720215
 30
-49.23466873168945
 10
-999.9997558593749
 20
-22.10783767700196
 30
-51.08257675170898
 10
-999.9997558593749
 20
-21.46084594726563
 30
-52.9548110961914
 10
-999.9997558593749
 20
-20.88690948486328
 30
-54.8512954711914
 10
-999.9997558593749
 20
-20.388427734375
 30
-56.76409912109375
 10
-999.9997558593749
 20
-19.96571540832519
 30
-58.69329833984375
 10
-999.9997558593749
 20
-19.61845397949218
 30
-60.63883209228515
 10
-999.9997558593749
 20
-19.34809303283691
 30
-62.59257507324218
 10
-999.9997558593749
 20
-19.15511512756348
 30
-64.55183410644531
 10
-999.9997558593749
 20
-19.03903770446777
 30
-66.51930236816406
 10
-999.9997558593749
 20
-18.9998607635498
 30
-68.49498748779296
 10
-999.9997558593749
 20
-74.78240966796875
 30
-15.81437301635742
 10
-999.9997558593749
 20
-78.53987121582031
 30
-19.38396453857422
 10
-999.9997558593749
 20
-84.22818756103515
 30
-17.93599319458008
 10
-999.9997558593749
 20
-84.07835388183594
 30
-18.33527374267578
 10
-999.9997558593749
 20
-83.59295654296875
 30
-19.10667419433593
 10
-999.9997558593749
 20
-82.85250854492188
 30
-19.75936126708984
 10
-999.9997558593749
 20
-81.94252014160156
 30
-20.1756591796875
 10
-999.9997558593749
 20
-80.94418334960938
 30
-20.3186149597168
 10
-999.9997558593749
 20
-79.94548034667968
 30
-20.17563247680664
 10
-999.9997558593749
 20
-79.036376953125
 30
-19.7599983215332
 10
-999.9997558593749
 20
-84.90057373046875
 30
-15.55206871032715
 10
-999.9997558593749
 20
-88.49987030029296
 30
-15.20000839233398
 10
-999.9997558593749
 20
-85.38352966308593
 30
-15.20000839233398
 10
-999.9997558593749
 20
-88.99987030029297
 30
-11.87500762939453
 10
-999.9997558593749
 20
-88.99987030029297
 30
-14.72500801086425
 10
-999.9997558593749
 20
-92.51655578613281
 30
-11.4000072479248
 10
-999.9997558593749
 20
-89.49987030029296
 30
-11.4000072479248
 10
-999.9997558593749
 20
-99.533203125
 30
-4.764801025390625
 10
-999.9997558593749
 20
-98.47129821777343
 30
-4.919422149658203
 10
-999.9997558593749
 20
-97.11300659179688
 30
-5.351604461669921
 10
-999.9997558593749
 20
-95.87428283691407
 30
-6.038681030273437
 10
-999.9997558593749
 20
-94.80924987792969
 30
-6.951530456542968
 10
-999.9997558593749
 20
-93.96284484863281
 30
-8.051528930664062
 10
-999.9997558593749
 20
-93.37063598632813
 30
-9.29237937927246
 10
-999.9997558593749
 20
-93.10005187988281
 30
-10.27899169921875
 10
-999.9997558593749
 20
-93.01544189453125
 30
-10.95667648315429
 10
-999.9997558593749
 20
-99.99987030029297
 30
-4.290859222412109
 10
-999.9997558593749
 20
-9.993011474609375
 30
-57.6918830871582
 10
-999.9997558593749
 20
-10.66458892822265
 30
-54.58464050292969
 10
-999.9997558593749
 20
-11.80458831787109
 30
-50.49823760986328
 10
-999.9997558593749
 20
-13.23382568359375
 30
-46.49414825439452
 10
-999.9997558593749
 20
-14.94560050964355
 30
-42.59135437011718
 10
-999.9997558593749
 20
-16.93203353881836
 30
-38.80781555175781
 10
-999.9997558593749
 20
-19.18397712707519
 30
-35.16096115112305
 10
-999.9997558593749
 20
-21.69107055664063
 30
-31.66757965087891
 10
-999.9997558593749
 20
-24.44176101684571
 30
-28.34375762939453
 10
-999.9997558593749
 20
-27.42338943481446
 30
-25.20479583740235
 10
-999.9997558593749
 20
-30.62222671508789
 30
-22.26514625549317
 10
-999.9997558593749
 20
-34.0235481262207
 30
-19.53835296630859
 10
-999.9997558593749
 20
-37.61168670654297
 30
-17.03695678710937
 10
-999.9997558593749
 20
-41.37012481689453
 30
-14.77248382568359
 10
-999.9997558593749
 20
-45.28155136108398
 30
-12.7553596496582
 10
-999.9997558593749
 20
-49.32796478271484
 30
-10.99487113952636
 10
-999.9997558593749
 20
-53.49073028564453
 30
-9.499122619628906
 10
-999.9997558593749
 20
-57.75068664550781
 30
-8.27499771118164
 10
-999.9997558593749
 20
-62.08821487426757
 30
-7.328140258789062
 10
-999.9997558593749
 20
-66.48334503173828
 30
-6.662899017333984
 10
-999.9997558593749
 20
-70.91525268554687
 30
-6.282363891601562
 10
-999.9997558593749
 20
-74.25238800048828
 30
-6.175868988037109
 10
-999.9997558593749
 20
-89.99987030029297
 30
-1.425006866455078
 10
-999.9997558593749
 20
0.0001449584960938
 30
-95.0
 10
-999.9997558593749
 20
0.0001373291015625
 30
-83.21817016601562
 10
-999.9997558593749
 20
0.0001373291015625
 30
-78.28182983398438
 10
-999.9997558593749
 20
0.0001373291015625
 30
-71.25
 10
-999.9997558593749
 20
-3.499855041503906
 30
-95.0
 10
-999.9997558593749
 20
-3.999855041503906
 30
-94.52500152587891
 10
-999.9997558593749
 20
-8.697498321533203
 30
-89.31748962402343
 10
-999.9997558593749
 20
-7.515106201171875
 30
-89.5234375
 10
-999.9997558593749
 20
-6.418140411376953
 30
-89.99240112304688
 10
-999.9997558593749
 20
-5.470840454101562
 30
-90.69743347167969
 10
-999.9997558593749
 20
-4.728706359863281
 30
-91.59736633300781
 10
-999.9997558593749
 20
-4.235057830810546
 30
-92.6394805908203
 10
-999.9997558593749
 20
-4.018268585205078
 30
-93.76276397705078
 10
-999.9997558593749
 20
-9.499858856201171
 30
-89.30000305175781
 10
-999.9997558593749
 20
-9.999858856201171
 30
-85.5
 10
-999.9997558593749
 20
-9.999858856201171
 30
-88.82499694824218
 10
-999.9997558593749
 20
-13.99985694885254
 30
-85.0250015258789
 10
-999.9997558593749
 20
-10.49985885620117
 30
-85.0250015258789
 10
-999.9997558593749
 20
-14.49986267089844
 30
-71.25
 10
-999.9997558593749
 20
-14.49985694885254
 30
-84.55000305175781
 10
-999.9997558593749
 20
-18.4998607635498
 30
-70.77500152587891
 10
-999.9997558593749
 20
-14.99986267089844
 30
-70.77500152587891
 10
-999.9997558593749
 20
-18.9998607635498
 30
-70.30000305175781
 10
-999.9997558593749
 20
-1.499862670898437
 30
-80.75000000000001
 10
-999.9997558593749
 20
-9.654407501220703
 30
-89.2767333984375
 10
-999.9997558593749
 20
-9.793766021728515
 30
-89.20926666259765
 10
-999.9997558593749
 20
-9.904346466064453
 30
-89.10420989990234
 10
-999.9997558593749
 20
-9.975368499755859
 30
-88.97181701660157
 10
-999.9997558593749
 20
-10.02434921264648
 30
-85.35317993164062
 10
-999.9997558593749
 20
-10.09537124633789
 30
-85.22079467773437
 10
-999.9997558593749
 20
-10.20595169067383
 30
-85.11573791503906
 10
-999.9997558593749
 20
-10.34531021118164
 30
-85.04826354980469
 10
-999.9997558593749
 20
-14.15440559387207
 30
-85.00173187255859
 10
-999.9997558593749
 20
-14.29376411437988
 30
-84.93426513671876
 10
-999.9997558593749
 20
-14.40434455871582
 30
-84.82920837402344
 10
-999.9997558593749
 20
-14.47537040710449
 30
-84.69682312011718
 10
-999.9997558593749
 20
-14.52434921264648
 30
-71.10317993164063
 10
-999.9997558593749
 20
-14.59537506103515
 30
-70.97079467773437
 10
-999.9997558593749
 20
-14.70595932006836
 30
-70.86573791503906
 10
-999.9997558593749
 20
-14.8453140258789
 30
-70.79826354980468
 10
-999.9997558593749
 20
-18.65440940856933
 30
-70.7517318725586
 10
-999.9997558593749
 20
-18.79376411437988
 30
-70.68426513671875
 10
-999.9997558593749
 20
-18.90434837341308
 30
-70.57920837402344
 10
-999.9997558593749
 20
-18.97537231445312
 30
-70.44682312011719
 10
-999.9997558593749
 20
-74.52522277832031
 30
-15.68415832519531
 10
-999.9997558593749
 20
-74.61947631835937
 30
-15.71113204956055
 10
-999.9997558593749
 20
-74.70633697509765
 30
-15.7551155090332
 10
-999.9997558593749
 20
-84.96783447265626
 30
-15.41107559204101
 10
-999.9997558593749
 20
-85.07916259765625
 30
-15.29817581176757
 10
-999.9997558593749
 20
-85.22277069091797
 30
-15.22523880004882
 10
-999.9997558593749
 20
-88.65441894531249
 30
-15.17674255371094
 10
-999.9997558593749
 20
-88.79377746582031
 30
-15.10927200317382
 10
-999.9997558593749
 20
-88.90435791015624
 30
-15.00421524047851
 10
-999.9997558593749
 20
-88.97537994384766
 30
-14.87182807922363
 10
-999.9997558593749
 20
-89.02436065673828
 30
-11.72818756103515
 10
-999.9997558593749
 20
-89.09538269042968
 30
-11.59579849243164
 10
-999.9997558593749
 20
-89.20596313476563
 30
-11.49074554443359
 10
-999.9997558593749
 20
-89.34532165527343
 30
-11.42327308654785
 10
-999.9997558593749
 20
-92.70016479492188
 30
-11.3668212890625
 10
-999.9997558593749
 20
-92.85812377929687
 30
-11.27190017700195
 10
-999.9997558593749
 20
-92.96834564208984
 30
-11.12850570678711
 10
-999.9997558593749
 20
-99.71408081054688
 30
-4.720062255859375
 10
-999.9997558593749
 20
-99.86502075195312
 30
-4.615345001220703
 10
-999.9997558593749
 20
-99.96493530273438
 30
-4.465290069580078
 10
-999.9997558593749
 20
-3.654403686523437
 30
-94.97673797607422
 10
-999.9997558593749
 20
-3.79376220703125
 30
-94.90926361083984
 10
-999.9997558593749
 20
-3.904346466064453
 30
-94.80420684814452
 10
-999.9997558593749
 20
-3.975368499755859
 30
-94.67182159423828
 93
     1961
 90
        4
 90
        1
 90
        0
 90
      266
 90
      262
 90
        4
 90
        0
 90
      164
 90
      326
 90
      266
 90
        4
 90
      164
 90
      163
 90
      327
 90
      326
 90
        4
 90
      163
 90
      162
 90
      328
 90
      327
 90
        4
 90
      162
 90
      161
 90
      329
 90
      328
 90
        4
 90
      161
 90
      160
 90
      267
 90
      329
 90
        4
 90
      160
 90
      159
 90
      274
 90
      267
 90
        4
 90
      159
 90
      158
 90
      273
 90
      274
 90
        4
 90
      158
 90
      157
 90
      272
 90
      273
 90
        4
 90
      157
 90
      156
 90
      271
 90
      272
 90
        4
 90
      156
 90
      155
 90
      270
 90
      271
 90
        4
 90
      155
 90
      154
 90
      269
 90
      270
 90
        4
 90
      154
 90
      153
 90
      268
 90
      269
 90
        4
 90
      153
 90
      152
 90
      275
 90
      268
 90
        4
 90
      152
 90
      151
 90
      286
 90
      275
 90
        4
 90
      151
 90
      150
 90
      287
 90
      286
 90
        4
 90
      150
 90
      149
 90
      288
 90
      287
 90
        4
 90
      149
 90
      148
 90
      289
 90
      288
 90
        4
 90
      148
 90
      147
 90
      277
 90
      289
 90
        4
 90
      147
 90
      146
 90
      276
 90
      277
 90
        4
 90
      146
 90
      145
 90
      290
 90
      276
 90
        4
 90
      145
 90
      144
 90
      291
 90
      290
 90
        4
 90
      144
 90
      143
 90
      292
 90
      291
 90
        4
 90
      143
 90
      142
 90
      293
 90
      292
 90
        4
 90
      142
 90
      141
 90
      279
 90
      293
 90
        4
 90
      141
 90
      140
 90
      278
 90
      279
 90
        4
 90
      140
 90
      139
 90
      294
 90
      278
 90
        4
 90
      139
 90
      138
 90
      295
 90
      294
 90
        4
 90
      138
 90
      137
 90
      296
 90
      295
 90
        4
 90
      137
 90
      136
 90
      297
 90
      296
 90
        4
 90
      136
 90
      135
 90
      281
 90
      297
 90
        4
 90
      135
 90
      134
 90
      280
 90
      281
 90
        4
 90
      134
 90
      133
 90
      298
 90
      280
 90
        4
 90
      133
 90
      132
 90
      299
 90
      298
 90
        4
 90
      132
 90
      131
 90
      300
 90
      299
 90
        4
 90
      131
 90
      130
 90
      301
 90
      300
 90
        4
 90
      130
 90
      129
 90
      283
 90
      301
 90
        4
 90
      129
 90
      128
 90
      282
 90
      283
 90
        4
 90
      128
 90
      127
 90
      302
 90
      282
 90
        4
 90
      127
 90
      126
 90
      303
 90
      302
 90
        4
 90
      126
 90
      125
 90
      304
 90
      303
 90
        4
 90
      125
 90
      124
 90
      305
 90
      304
 90
        4
 90
      124
 90
      123
 90
      284
 90
      305
 90
        4
 90
      123
 90
      122
 90
      211
 90
      284
 90
        4
 90
      122
 90
      121
 90
      210
 90
      211
 90
        4
 90
      121
 90
      120
 90
      209
 90
      210
 90
        4
 90
      120
 90
      119
 90
      208
 90
      209
 90
        4
 90
      119
 90
      118
 90
      207
 90
      208
 90
        4
 90
      118
 90
      117
 90
      206
 90
      207
 90
        4
 90
      117
 90
      116
 90
      205
 90
      206
 90
        4
 90
      116
 90
      115
 90
      204
 90
      205
 90
        4
 90
      115
 90
      114
 90
      203
 90
      204
 90
        4
 90
      114
 90
      113
 90
      202
 90
      203
 90
        4
 90
      113
 90
      112
 90
      201
 90
      202
 90
        4
 90
      112
 90
      111
 90
      200
 90
      201
 90
        4
 90
      111
 90
      110
 90
      199
 90
      200
 90
        4
 90
      110
 90
      109
 90
      198
 90
      199
 90
        4
 90
      109
 90
      108
 90
      197
 90
      198
 90
        4
 90
      108
 90
      107
 90
      196
 90
      197
 90
        4
 90
      107
 90
      106
 90
      195
 90
      196
 90
        4
 90
      106
 90
      105
 90
      194
 90
      195
 90
        4
 90
      105
 90
      104
 90
      193
 90
      194
 90
        4
 90
      104
 90
      103
 90
      192
 90
      193
 90
        4
 90
      103
 90
      102
 90
      191
 90
      192
 90
        4
 90
      102
 90
      101
 90
      190
 90
      191
 90
        4
 90
      101
 90
      100
 90
      189
 90
      190
 90
        4
 90
      100
 90
       99
 90
      188
 90
      189
 90
        4
 90
       99
 90
       98
 90
      187
 90
      188
 90
        4
 90
       98
 90
       97
 90
      186
 90
      187
 90
        4
 90
       97
 90
       96
 90
      185
 90
      186
 90
        4
 90
       96
 90
       95
 90
      184
 90
      185
 90
        4
 90
       95
 90
       94
 90
      183
 90
      184
 90
        4
 90
       94
 90
       93
 90
      182
 90
      183
 90
        4
 90
       93
 90
       92
 90
      181
 90
      182
 90
        4
 90
       92
 90
       91
 90
      180
 90
      181
 90
        4
 90
       91
 90
       90
 90
      179
 90
      180
 90
        4
 90
       90
 90
       89
 90
      178
 90
      179
 90
        4
 90
       89
 90
       88
 90
      177
 90
      178
 90
        4
 90
       88
 90
       87
 90
      176
 90
      177
 90
        4
 90
       87
 90
       86
 90
      175
 90
      176
 90
        4
 90
       86
 90
       85
 90
      174
 90
      175
 90
        4
 90
       85
 90
       84
 90
      173
 90
      174
 90
        4
 90
       84
 90
       83
 90
      172
 90
      173
 90
        4
 90
       83
 90
       82
 90
      171
 90
      172
 90
        4
 90
       82
 90
       81
 90
      170
 90
      171
 90
        4
 90
       81
 90
       80
 90
      169
 90
      170
 90
        4
 90
       80
 90
       79
 90
      306
 90
      169
 90
        4
 90
       79
 90
       78
 90
      307
 90
      306
 90
        4
 90
       78
 90
       77
 90
      308
 90
      307
 90
        4
 90
       77
 90
       76
 90
      212
 90
      308
 90
        4
 90
       76
 90
       75
 90
      213
 90
      212
 90
        4
 90
       75
 90
       74
 90
      221
 90
      213
 90
        4
 90
       74
 90
       73
 90
      220
 90
      221
 90
        4
 90
       73
 90
       72
 90
      219
 90
      220
 90
        4
 90
       72
 90
       71
 90
      218
 90
      219
 90
        4
 90
       71
 90
       70
 90
      217
 90
      218
 90
        4
 90
       70
 90
       69
 90
      216
 90
      217
 90
        4
 90
       69
 90
       68
 90
      215
 90
      216
 90
        4
 90
       68
 90
       67
 90
      214
 90
      215
 90
        4
 90
       67
 90
       66
 90
      222
 90
      214
 90
        4
 90
       66
 90
       65
 90
      309
 90
      222
 90
        4
 90
       65
 90
       64
 90
      310
 90
      309
 90
        4
 90
       64
 90
       63
 90
      311
 90
      310
 90
        4
 90
       63
 90
       62
 90
      224
 90
      311
 90
        4
 90
       62
 90
       61
 90
      223
 90
      224
 90
        4
 90
       61
 90
       60
 90
      312
 90
      223
 90
        4
 90
       60
 90
       59
 90
      313
 90
      312
 90
        4
 90
       59
 90
       58
 90
      314
 90
      313
 90
        4
 90
       58
 90
       57
 90
      315
 90
      314
 90
        4
 90
       57
 90
       56
 90
      226
 90
      315
 90
        4
 90
       56
 90
       55
 90
      225
 90
      226
 90
        4
 90
       55
 90
       54
 90
      316
 90
      225
 90
        4
 90
       54
 90
       53
 90
      317
 90
      316
 90
        4
 90
       53
 90
       52
 90
      318
 90
      317
 90
        4
 90
       52
 90
       51
 90
      319
 90
      318
 90
        4
 90
       51
 90
       50
 90
      228
 90
      319
 90
        4
 90
       50
 90
       49
 90
      227
 90
      228
 90
        4
 90
       49
 90
       48
 90
      320
 90
      227
 90
        4
 90
       48
 90
       47
 90
      321
 90
      320
 90
        4
 90
       47
 90
       46
 90
      322
 90
      321
 90
        4
 90
       46
 90
       45
 90
      237
 90
      322
 90
        4
 90
       45
 90
       44
 90
      236
 90
      237
 90
        4
 90
       44
 90
       43
 90
      235
 90
      236
 90
        4
 90
       43
 90
       42
 90
      234
 90
      235
 90
        4
 90
       42
 90
       41
 90
      233
 90
      234
 90
        4
 90
       41
 90
       40
 90
      232
 90
      233
 90
        4
 90
       40
 90
       39
 90
      231
 90
      232
 90
        4
 90
       39
 90
       38
 90
      230
 90
      231
 90
        4
 90
       38
 90
       37
 90
      229
 90
      230
 90
        4
 90
       37
 90
       36
 90
      323
 90
      229
 90
        4
 90
       36
 90
       35
 90
      324
 90
      323
 90
        4
 90
       35
 90
       34
 90
      325
 90
      324
 90
        4
 90
       34
 90
       33
 90
      238
 90
      325
 90
        4
 90
       33
 90
       32
 90
      166
 90
      238
 90
        4
 90
       32
 90
       31
 90
      165
 90
      166
 90
        4
 90
       31
 90
       30
 90
      261
 90
      165
 90
        4
 90
       30
 90
       29
 90
      168
 90
      261
 90
        4
 90
       29
 90
       28
 90
      167
 90
      168
 90
        4
 90
       28
 90
       27
 90
      260
 90
      167
 90
        4
 90
       27
 90
       26
 90
      259
 90
      260
 90
        4
 90
       26
 90
       25
 90
      258
 90
      259
 90
        4
 90
       25
 90
       24
 90
      257
 90
      258
 90
        4
 90
       24
 90
       23
 90
      256
 90
      257
 90
        4
 90
       23
 90
       22
 90
      255
 90
      256
 90
        4
 90
       22
 90
       21
 90
      254
 90
      255
 90
        4
 90
       21
 90
       20
 90
      253
 90
      254
 90
        4
 90
       20
 90
       19
 90
      252
 90
      253
 90
        4
 90
       19
 90
       18
 90
      251
 90
      252
 90
        4
 90
       18
 90
       17
 90
      250
 90
      251
 90
        4
 90
       17
 90
       16
 90
      249
 90
      250
 90
        4
 90
       16
 90
       15
 90
      248
 90
      249
 90
        4
 90
       15
 90
       14
 90
      247
 90
      248
 90
        4
 90
       14
 90
       13
 90
      246
 90
      247
 90
        4
 90
       13
 90
       12
 90
      245
 90
      246
 90
        4
 90
       12
 90
       11
 90
      244
 90
      245
 90
        4
 90
       11
 90
       10
 90
      243
 90
      244
 90
        4
 90
       10
 90
        9
 90
      242
 90
      243
 90
        4
 90
        9
 90
        8
 90
      241
 90
      242
 90
        4
 90
        8
 90
        7
 90
      240
 90
      241
 90
        4
 90
        7
 90
        6
 90
      239
 90
      240
 90
        4
 90
        6
 90
        5
 90
      265
 90
      239
 90
        4
 90
        5
 90
        4
 90
      264
 90
      265
 90
        4
 90
        4
 90
        3
 90
      285
 90
      264
 90
        4
 90
        3
 90
        2
 90
      263
 90
      285
 90
        4
 90
        2
 90
        1
 90
      262
 90
      263
 90
        3
 90
      165
 90
      238
 90
      166
 90
        3
 90
      165
 90
      324
 90
      325
 90
        3
 90
      165
 90
      325
 90
      238
 90
        3
 90
      165
 90
      229
 90
      323
 90
        3
 90
      165
 90
      323
 90
      324
 90
        3
 90
      165
 90
      231
 90
      230
 90
        3
 90
      165
 90
      230
 90
      229
 90
        4
 90
      165
 90
      261
 90
      233
 90
      232
 90
        3
 90
      165
 90
      232
 90
      231
 90
        3
 90
      261
 90
      235
 90
      234
 90
        3
 90
      261
 90
      234
 90
      233
 90
        4
 90
      261
 90
      168
 90
      236
 90
      235
 90
        3
 90
      168
 90
      322
 90
      237
 90
        3
 90
      168
 90
      237
 90
      236
 90
        3
 90
      168
 90
      321
 90
      322
 90
        3
 90
      168
 90
      320
 90
      321
 90
        3
 90
      168
 90
      227
 90
      320
 90
        4
 90
      168
 90
      167
 90
      228
 90
      227
 90
        3
 90
      167
 90
      318
 90
      319
 90
        3
 90
      167
 90
      319
 90
      228
 90
        3
 90
      167
 90
      316
 90
      317
 90
        3
 90
      167
 90
      317
 90
      318
 90
        3
 90
      167
 90
      226
 90
      225
 90
        3
 90
      167
 90
      225
 90
      316
 90
        3
 90
      260
 90
      310
 90
      311
 90
        3
 90
      260
 90
      311
 90
      224
 90
        3
 90
      260
 90
      222
 90
      309
 90
        3
 90
      260
 90
      309
 90
      310
 90
        3
 90
      260
 90
      214
 90
      222
 90
        3
 90
      260
 90
      224
 90
      223
 90
        3
 90
      260
 90
      223
 90
      312
 90
        3
 90
      167
 90
      314
 90
      315
 90
        3
 90
      167
 90
      315
 90
      226
 90
        4
 90
      167
 90
      260
 90
      313
 90
      314
 90
        3
 90
      260
 90
      312
 90
      313
 90
        4
 90
      260
 90
      259
 90
      170
 90
      169
 90
        3
 90
      260
 90
      169
 90
      306
 90
        3
 90
      260
 90
      306
 90
      307
 90
        3
 90
      260
 90
      307
 90
      308
 90
        3
 90
      260
 90
      308
 90
      212
 90
        3
 90
      260
 90
      212
 90
      213
 90
        3
 90
      260
 90
      213
 90
      221
 90
        3
 90
      260
 90
      221
 90
      220
 90
        3
 90
      260
 90
      220
 90
      219
 90
        3
 90
      260
 90
      219
 90
      218
 90
        3
 90
      260
 90
      218
 90
      217
 90
        3
 90
      260
 90
      217
 90
      216
 90
        3
 90
      260
 90
      216
 90
      215
 90
        3
 90
      260
 90
      215
 90
      214
 90
        3
 90
      259
 90
      171
 90
      170
 90
        3
 90
      239
 90
      284
 90
      211
 90
        3
 90
      239
 90
      211
 90
      210
 90
        4
 90
      240
 90
      239
 90
      210
 90
      209
 90
        3
 90
      240
 90
      209
 90
      208
 90
        4
 90
      241
 90
      240
 90
      208
 90
      207
 90
        3
 90
      241
 90
      207
 90
      206
 90
        4
 90
      242
 90
      241
 90
      206
 90
      205
 90
        3
 90
      242
 90
      205
 90
      204
 90
        4
 90
      243
 90
      242
 90
      204
 90
      203
 90
        3
 90
      243
 90
      203
 90
      202
 90
        4
 90
      244
 90
      243
 90
      202
 90
      201
 90
        3
 90
      244
 90
      201
 90
      200
 90
        4
 90
      245
 90
      244
 90
      200
 90
      199
 90
        3
 90
      245
 90
      199
 90
      198
 90
        4
 90
      246
 90
      245
 90
      198
 90
      197
 90
        3
 90
      246
 90
      197
 90
      196
 90
        4
 90
      247
 90
      246
 90
      196
 90
      195
 90
        3
 90
      247
 90
      195
 90
      194
 90
        4
 90
      248
 90
      247
 90
      194
 90
      193
 90
        3
 90
      248
 90
      193
 90
      192
 90
        4
 90
      249
 90
      248
 90
      192
 90
      191
 90
        3
 90
      249
 90
      191
 90
      190
 90
        4
 90
      250
 90
      249
 90
      190
 90
      189
 90
        3
 90
      250
 90
      189
 90
      188
 90
        4
 90
      251
 90
      250
 90
      188
 90
      187
 90
        3
 90
      251
 90
      187
 90
      186
 90
        4
 90
      252
 90
      251
 90
      186
 90
      185
 90
        3
 90
      252
 90
      185
 90
      184
 90
        4
 90
      253
 90
      252
 90
      184
 90
      183
 90
        3
 90
      253
 90
      183
 90
      182
 90
        4
 90
      254
 90
      253
 90
      182
 90
      181
 90
        3
 90
      254
 90
      181
 90
      180
 90
        4
 90
      255
 90
      254
 90
      180
 90
      179
 90
        3
 90
      255
 90
      179
 90
      178
 90
        4
 90
      256
 90
      255
 90
      178
 90
      177
 90
        3
 90
      256
 90
      177
 90
      176
 90
        4
 90
      257
 90
      256
 90
      176
 90
      175
 90
        3
 90
      257
 90
      175
 90
      174
 90
        4
 90
      258
 90
      257
 90
      174
 90
      173
 90
        3
 90
      258
 90
      173
 90
      172
 90
        4
 90
      259
 90
      258
 90
      172
 90
      171
 90
        3
 90
      239
 90
      305
 90
      284
 90
        3
 90
      239
 90
      304
 90
      305
 90
        3
 90
      239
 90
      303
 90
      304
 90
        3
 90
      239
 90
      302
 90
      303
 90
        3
 90
      239
 90
      282
 90
      302
 90
        3
 90
      239
 90
      283
 90
      282
 90
        3
 90
      239
 90
      300
 90
      301
 90
        3
 90
      239
 90
      301
 90
      283
 90
        3
 90
      239
 90
      265
 90
      299
 90
        3
 90
      239
 90
      299
 90
      300
 90
        4
 90
      265
 90
      264
 90
      281
 90
      280
 90
        3
 90
      265
 90
      280
 90
      298
 90
        3
 90
      265
 90
      298
 90
      299
 90
        3
 90
      263
 90
      262
 90
      266
 90
        3
 90
      263
 90
      266
 90
      326
 90
        3
 90
      263
 90
      326
 90
      327
 90
        3
 90
      263
 90
      327
 90
      328
 90
        3
 90
      263
 90
      328
 90
      329
 90
        3
 90
      263
 90
      329
 90
      267
 90
        3
 90
      263
 90
      267
 90
      274
 90
        3
 90
      263
 90
      274
 90
      273
 90
        3
 90
      263
 90
      273
 90
      272
 90
        3
 90
      263
 90
      272
 90
      271
 90
        3
 90
      263
 90
      271
 90
      270
 90
        3
 90
      263
 90
      270
 90
      269
 90
        3
 90
      263
 90
      269
 90
      268
 90
        3
 90
      263
 90
      268
 90
      275
 90
        3
 90
      263
 90
      275
 90
      286
 90
        3
 90
      263
 90
      286
 90
      287
 90
        3
 90
      263
 90
      287
 90
      288
 90
        3
 90
      263
 90
      288
 90
      289
 90
        3
 90
      263
 90
      289
 90
      277
 90
        4
 90
      285
 90
      263
 90
      277
 90
      276
 90
        3
 90
      285
 90
      276
 90
      290
 90
        3
 90
      285
 90
      290
 90
      291
 90
        3
 90
      285
 90
      291
 90
      292
 90
        3
 90
      285
 90
      292
 90
      293
 90
        3
 90
      285
 90
      293
 90
      279
 90
        4
 90
      264
 90
      285
 90
      279
 90
      278
 90
        3
 90
      264
 90
      278
 90
      294
 90
        3
 90
      264
 90
      294
 90
      295
 90
        3
 90
      264
 90
      295
 90
      296
 90
        3
 90
      264
 90
      296
 90
      297
 90
        3
 90
      264
 90
      297
 90
      281
 90
        3
 90
       31
 90
       32
 90
       33
 90
        3
 90
       31
 90
       34
 90
       35
 90
        3
 90
       31
 90
       33
 90
       34
 90
        3
 90
       31
 90
       36
 90
       37
 90
        3
 90
       31
 90
       35
 90
       36
 90
        3
 90
       31
 90
       38
 90
       39
 90
        3
 90
       31
 90
       37
 90
       38
 90
        4
 90
       31
 90
       40
 90
       41
 90
       30
 90
        3
 90
       31
 90
       39
 90
       40
 90
        3
 90
       30
 90
       42
 90
       43
 90
        3
 90
       30
 90
       41
 90
       42
 90
        4
 90
       30
 90
       43
 90
       44
 90
       29
 90
        3
 90
       29
 90
       45
 90
       46
 90
        3
 90
       29
 90
       44
 90
       45
 90
        3
 90
       29
 90
       46
 90
       47
 90
        3
 90
       29
 90
       47
 90
       48
 90
        3
 90
       29
 90
       48
 90
       49
 90
        4
 90
       29
 90
       49
 90
       50
 90
       28
 90
        3
 90
       28
 90
       51
 90
       52
 90
        3
 90
       28
 90
       50
 90
       51
 90
        3
 90
       28
 90
       53
 90
       54
 90
        3
 90
       28
 90
       52
 90
       53
 90
        3
 90
       28
 90
       55
 90
       56
 90
        3
 90
       28
 90
       54
 90
       55
 90
        3
 90
       27
 90
       63
 90
       64
 90
        3
 90
       27
 90
       62
 90
       63
 90
        3
 90
       27
 90
       65
 90
       66
 90
        3
 90
       27
 90
       64
 90
       65
 90
        3
 90
       27
 90
       66
 90
       67
 90
        3
 90
       27
 90
       61
 90
       62
 90
        3
 90
       27
 90
       60
 90
       61
 90
        3
 90
       28
 90
       57
 90
       58
 90
        3
 90
       28
 90
       56
 90
       57
 90
        4
 90
       28
 90
       58
 90
       59
 90
       27
 90
        3
 90
       27
 90
       59
 90
       60
 90
        4
 90
       27
 90
       80
 90
       81
 90
       26
 90
        3
 90
       27
 90
       79
 90
       80
 90
        3
 90
       27
 90
       78
 90
       79
 90
        3
 90
       27
 90
       77
 90
       78
 90
        3
 90
       27
 90
       76
 90
       77
 90
        3
 90
       27
 90
       75
 90
       76
 90
        3
 90
       27
 90
       74
 90
       75
 90
        3
 90
       27
 90
       73
 90
       74
 90
        3
 90
       27
 90
       72
 90
       73
 90
        3
 90
       27
 90
       71
 90
       72
 90
        3
 90
       27
 90
       70
 90
       71
 90
        3
 90
       27
 90
       69
 90
       70
 90
        3
 90
       27
 90
       68
 90
       69
 90
        3
 90
       27
 90
       67
 90
       68
 90
        3
 90
       26
 90
       81
 90
       82
 90
        3
 90
        6
 90
      122
 90
      123
 90
        3
 90
        6
 90
      121
 90
      122
 90
        4
 90
        7
 90
      120
 90
      121
 90
        6
 90
        3
 90
        7
 90
      119
 90
      120
 90
        4
 90
        8
 90
      118
 90
      119
 90
        7
 90
        3
 90
        8
 90
      117
 90
      118
 90
        4
 90
        9
 90
      116
 90
      117
 90
        8
 90
        3
 90
        9
 90
      115
 90
      116
 90
        4
 90
       10
 90
      114
 90
      115
 90
        9
 90
        3
 90
       10
 90
      113
 90
      114
 90
        4
 90
       11
 90
      112
 90
      113
 90
       10
 90
        3
 90
       11
 90
      111
 90
      112
 90
        4
 90
       12
 90
      110
 90
      111
 90
       11
 90
        3
 90
       12
 90
      109
 90
      110
 90
        4
 90
       13
 90
      108
 90
      109
 90
       12
 90
        3
 90
       13
 90
      107
 90
      108
 90
        4
 90
       14
 90
      106
 90
      107
 90
       13
 90
        3
 90
       14
 90
      105
 90
      106
 90
        4
 90
       15
 90
      104
 90
      105
 90
       14
 90
        3
 90
       15
 90
      103
 90
      104
 90
        4
 90
       16
 90
      102
 90
      103
 90
       15
 90
        3
 90
       16
 90
      101
 90
      102
 90
        4
 90
       17
 90
      100
 90
      101
 90
       16
 90
        3
 90
       17
 90
       99
 90
      100
 90
        4
 90
       18
 90
       98
 90
       99
 90
       17
 90
        3
 90
       18
 90
       97
 90
       98
 90
        4
 90
       19
 90
       96
 90
       97
 90
       18
 90
        3
 90
       19
 90
       95
 90
       96
 90
        4
 90
       20
 90
       94
 90
       95
 90
       19
 90
        3
 90
       20
 90
       93
 90
       94
 90
        4
 90
       21
 90
       92
 90
       93
 90
       20
 90
        3
 90
       21
 90
       91
 90
       92
 90
        4
 90
       22
 90
       90
 90
       91
 90
       21
 90
        3
 90
       22
 90
       89
 90
       90
 90
        4
 90
       23
 90
       88
 90
       89
 90
       22
 90
        3
 90
       23
 90
       87
 90
       88
 90
        4
 90
       24
 90
       86
 90
       87
 90
       23
 90
        3
 90
       24
 90
       85
 90
       86
 90
        4
 90
       25
 90
       84
 90
       85
 90
       24
 90
        3
 90
       25
 90
       83
 90
       84
 90
        4
 90
       26
 90
       82
 90
       83
 90
       25
 90
        3
 90
        6
 90
      123
 90
      124
 90
        3
 90
        6
 90
      124
 90
      125
 90
        3
 90
        6
 90
      125
 90
      126
 90
        3
 90
        6
 90
      126
 90
      127
 90
        3
 90
        6
 90
      127
 90
      128
 90
        3
 90
        6
 90
      128
 90
      129
 90
        3
 90
        6
 90
      130
 90
      131
 90
        3
 90
        6
 90
      129
 90
      130
 90
        3
 90
        6
 90
      132
 90
        5
 90
        3
 90
        6
 90
      131
 90
      132
 90
        4
 90
        5
 90
      134
 90
      135
 90
        4
 90
        3
 90
        5
 90
      133
 90
      134
 90
        3
 90
        5
 90
      132
 90
      133
 90
        3
 90
        2
 90
        0
 90
        1
 90
        3
 90
        2
 90
      164
 90
        0
 90
        3
 90
        2
 90
      163
 90
      164
 90
        3
 90
        2
 90
      162
 90
      163
 90
        3
 90
        2
 90
      161
 90
      162
 90
        3
 90
        2
 90
      160
 90
      161
 90
        3
 90
        2
 90
      159
 90
      160
 90
        3
 90
        2
 90
      158
 90
      159
 90
        3
 90
        2
 90
      157
 90
      158
 90
        3
 90
        2
 90
      156
 90
      157
 90
        3
 90
        2
 90
      155
 90
      156
 90
        3
 90
        2
 90
      154
 90
      155
 90
        3
 90
        2
 90
      153
 90
      154
 90
        3
 90
        2
 90
      152
 90
      153
 90
        3
 90
        2
 90
      151
 90
      152
 90
        3
 90
        2
 90
      150
 90
      151
 90
        3
 90
        2
 90
      149
 90
      150
 90
        3
 90
        2
 90
      148
 90
      149
 90
        3
 90
        2
 90
      147
 90
      148
 90
        4
 90
        3
 90
      146
 90
      147
 90
        2
 90
        3
 90
        3
 90
      145
 90
      146
 90
        3
 90
        3
 90
      144
 90
      145
 90
        3
 90
        3
 90
      143
 90
      144
 90
        3
 90
        3
 90
      142
 90
      143
 90
        3
 90
        3
 90
      141
 90
      142
 90
        4
 90
        4
 90
      140
 90
      141
 90
        3
 90
        3
 90
        4
 90
      139
 90
      140
 90
        3
 90
        4
 90
      138
 90
      139
 90
        3
 90
        4
 90
      137
 90
      138
 90
        3
 90
        4
 90
      136
 90
      137
 90
        3
 90
        4
 90
      135
 90
      136
 94
      763
 90
        0
 90
        1
 90
        0
 90
      266
 90
      262
 90
      266
 90
        1
 90
      262
 90
        0
 90
      164
 90
      164
 90
      326
 90
      266
 90
      326
 90
      163
 90
      164
 90
      163
 90
      327
 90
      326
 90
      327
 90
      162
 90
      163
 90
      162
 90
      328
 90
      327
 90
      328
 90
      161
 90
      162
 90
      161
 90
      329
 90
      328
 90
      329
 90
      160
 90
      161
 90
      160
 90
      267
 90
      267
 90
      329
 90
      159
 90
      160
 90
      159
 90
      274
 90
      267
 90
      274
 90
      158
 90
      159
 90
      158
 90
      273
 90
      273
 90
      274
 90
      157
 90
      158
 90
      157
 90
      272
 90
      272
 90
      273
 90
      156
 90
      157
 90
      156
 90
      271
 90
      271
 90
      272
 90
      155
 90
      156
 90
      155
 90
      270
 90
      270
 90
      271
 90
      154
 90
      155
 90
      154
 90
      269
 90
      269
 90
      270
 90
      153
 90
      154
 90
      153
 90
      268
 90
      268
 90
      269
 90
      152
 90
      153
 90
      152
 90
      275
 90
      268
 90
      275
 90
      151
 90
      152
 90
      151
 90
      286
 90
      275
 90
      286
 90
      150
 90
      151
 90
      150
 90
      287
 90
      286
 90
      287
 90
      149
 90
      150
 90
      149
 90
      288
 90
      287
 90
      288
 90
      148
 90
      149
 90
      148
 90
      289
 90
      288
 90
      289
 90
      147
 90
      148
 90
      147
 90
      277
 90
      277
 90
      289
 90
      146
 90
      147
 90
      146
 90
      276
 90
      276
 90
      277
 90
      145
 90
      146
 90
      145
 90
      290
 90
      276
 90
      290
 90
      144
 90
      145
 90
      144
 90
      291
 90
      290
 90
      291
 90
      143
 90
      144
 90
      143
 90
      292
 90
      291
 90
      292
 90
      142
 90
      143
 90
      142
 90
      293
 90
      292
 90
      293
 90
      141
 90
      142
 90
      141
 90
      279
 90
      279
 90
      293
 90
      140
 90
      141
 90
      140
 90
      278
 90
      278
 90
      279
 90
      139
 90
      140
 90
      139
 90
      294
 90
      278
 90
      294
 90
      138
 90
      139
 90
      138
 90
      295
 90
      294
 90
      295
 90
      137
 90
      138
 90
      137
 90
      296
 90
      295
 90
      296
 90
      136
 90
      137
 90
      136
 90
      297
 90
      296
 90
      297
 90
      135
 90
      136
 90
      135
 90
      281
 90
      281
 90
      297
 90
      134
 90
      135
 90
      134
 90
      280
 90
      280
 90
      281
 90
      133
 90
      134
 90
      133
 90
      298
 90
      280
 90
      298
 90
      132
 90
      133
 90
      132
 90
      299
 90
      298
 90
      299
 90
      131
 90
      132
 90
      131
 90
      300
 90
      299
 90
      300
 90
      130
 90
      131
 90
      130
 90
      301
 90
      300
 90
      301
 90
      129
 90
      130
 90
      129
 90
      283
 90
      283
 90
      301
 90
      128
 90
      129
 90
      128
 90
      282
 90
      282
 90
      283
 90
      127
 90
      128
 90
      127
 90
      302
 90
      282
 90
      302
 90
      126
 90
      127
 90
      126
 90
      303
 90
      302
 90
      303
 90
      125
 90
      126
 90
      125
 90
      304
 90
      303
 90
      304
 90
      124
 90
      125
 90
      124
 90
      305
 90
      304
 90
      305
 90
      123
 90
      124
 90
      123
 90
      284
 90
      284
 90
      305
 90
      122
 90
      123
 90
      122
 90
      211
 90
      211
 90
      284
 90
      121
 90
      122
 90
      121
 90
      210
 90
      210
 90
      211
 90
      120
 90
      121
 90
      120
 90
      209
 90
      209
 90
      210
 90
      119
 90
      120
 90
      119
 90
      208
 90
      208
 90
      209
 90
      118
 90
      119
 90
      118
 90
      207
 90
      207
 90
      208
 90
      117
 90
      118
 90
      117
 90
      206
 90
      206
 90
      207
 90
      116
 90
      117
 90
      116
 90
      205
 90
      205
 90
      206
 90
      115
 90
      116
 90
      115
 90
      204
 90
      204
 90
      205
 90
      114
 90
      115
 90
      114
 90
      203
 90
      203
 90
      204
 90
      113
 90
      114
 90
      113
 90
      202
 90
      202
 90
      203
 90
      112
 90
      113
 90
      112
 90
      201
 90
      201
 90
      202
 90
      111
 90
      112
 90
      111
 90
      200
 90
      200
 90
      201
 90
      110
 90
      111
 90
      110
 90
      199
 90
      199
 90
      200
 90
      109
 90
      110
 90
      109
 90
      198
 90
      198
 90
      199
 90
      108
 90
      109
 90
      108
 90
      197
 90
      197
 90
      198
 90
      107
 90
      108
 90
      107
 90
      196
 90
      196
 90
      197
 90
      106
 90
      107
 90
      106
 90
      195
 90
      195
 90
      196
 90
      105
 90
      106
 90
      105
 90
      194
 90
      194
 90
      195
 90
      104
 90
      105
 90
      104
 90
      193
 90
      193
 90
      194
 90
      103
 90
      104
 90
      103
 90
      192
 90
      192
 90
      193
 90
      102
 90
      103
 90
      102
 90
      191
 90
      191
 90
      192
 90
      101
 90
      102
 90
      101
 90
      190
 90
      190
 90
      191
 90
      100
 90
      101
 90
      100
 90
      189
 90
      189
 90
      190
 90
       99
 90
      100
 90
       99
 90
      188
 90
      188
 90
      189
 90
       98
 90
       99
 90
       98
 90
      187
 90
      187
 90
      188
 90
       97
 90
       98
 90
       97
 90
      186
 90
      186
 90
      187
 90
       96
 90
       97
 90
       96
 90
      185
 90
      185
 90
      186
 90
       95
 90
       96
 90
       95
 90
      184
 90
      184
 90
      185
 90
       94
 90
       95
 90
       94
 90
      183
 90
      183
 90
      184
 90
       93
 90
       94
 90
       93
 90
      182
 90
      182
 90
      183
 90
       92
 90
       93
 90
       92
 90
      181
 90
      181
 90
      182
 90
       91
 90
       92
 90
       91
 90
      180
 90
      180
 90
      181
 90
       90
 90
       91
 90
       90
 90
      179
 90
      179
 90
      180
 90
       89
 90
       90
 90
       89
 90
      178
 90
      178
 90
      179
 90
       88
 90
       89
 90
       88
 90
      177
 90
      177
 90
      178
 90
       87
 90
       88
 90
       87
 90
      176
 90
      176
 90
      177
 90
       86
 90
       87
 90
       86
 90
      175
 90
      175
 90
      176
 90
       85
 90
       86
 90
       85
 90
      174
 90
      174
 90
      175
 90
       84
 90
       85
 90
       84
 90
      173
 90
      173
 90
      174
 90
       83
 90
       84
 90
       83
 90
      172
 90
      172
 90
      173
 90
       82
 90
       83
 90
       82
 90
      171
 90
      171
 90
      172
 90
       81
 90
       82
 90
       81
 90
      170
 90
      170
 90
      171
 90
       80
 90
       81
 90
       80
 90
      169
 90
      169
 90
      170
 90
       79
 90
       80
 90
       79
 90
      306
 90
      169
 90
      306
 90
       78
 90
       79
 90
       78
 90
      307
 90
      306
 90
      307
 90
       77
 90
       78
 90
       77
 90
      308
 90
      307
 90
      308
 90
       76
 90
       77
 90
       76
 90
      212
 90
      212
 90
      308
 90
       75
 90
       76
 90
       75
 90
      213
 90
      212
 90
      213
 90
       74
 90
       75
 90
       74
 90
      221
 90
      213
 90
      221
 90
       73
 90
       74
 90
       73
 90
      220
 90
      220
 90
      221
 90
       72
 90
       73
 90
       72
 90
      219
 90
      219
 90
      220
 90
       71
 90
       72
 90
       71
 90
      218
 90
      218
 90
      219
 90
       70
 90
       71
 90
       70
 90
      217
 90
      217
 90
      218
 90
       69
 90
       70
 90
       69
 90
      216
 90
      216
 90
      217
 90
       68
 90
       69
 90
       68
 90
      215
 90
      215
 90
      216
 90
       67
 90
       68
 90
       67
 90
      214
 90
      214
 90
      215
 90
       66
 90
       67
 90
       66
 90
      222
 90
      214
 90
      222
 90
       65
 90
       66
 90
       65
 90
      309
 90
      222
 90
      309
 90
       64
 90
       65
 90
       64
 90
      310
 90
      309
 90
      310
 90
       63
 90
       64
 90
       63
 90
      311
 90
      310
 90
      311
 90
       62
 90
       63
 90
       62
 90
      224
 90
      224
 90
      311
 90
       61
 90
       62
 90
       61
 90
      223
 90
      223
 90
      224
 90
       60
 90
       61
 90
       60
 90
      312
 90
      223
 90
      312
 90
       59
 90
       60
 90
       59
 90
      313
 90
      312
 90
      313
 90
       58
 90
       59
 90
       58
 90
      314
 90
      313
 90
      314
 90
       57
 90
       58
 90
       57
 90
      315
 90
      314
 90
      315
 90
       56
 90
       57
 90
       56
 90
      226
 90
      226
 90
      315
 90
       55
 90
       56
 90
       55
 90
      225
 90
      225
 90
      226
 90
       54
 90
       55
 90
       54
 90
      316
 90
      225
 90
      316
 90
       53
 90
       54
 90
       53
 90
      317
 90
      316
 90
      317
 90
       52
 90
       53
 90
       52
 90
      318
 90
      317
 90
      318
 90
       51
 90
       52
 90
       51
 90
      319
 90
      318
 90
      319
 90
       50
 90
       51
 90
       50
 90
      228
 90
      228
 90
      319
 90
       49
 90
       50
 90
       49
 90
      227
 90
      227
 90
      228
 90
       48
 90
       49
 90
       48
 90
      320
 90
      227
 90
      320
 90
       47
 90
       48
 90
       47
 90
      321
 90
      320
 90
      321
 90
       46
 90
       47
 90
       46
 90
      322
 90
      321
 90
      322
 90
       45
 90
       46
 90
       45
 90
      237
 90
      237
 90
      322
 90
       44
 90
       45
 90
       44
 90
      236
 90
      236
 90
      237
 90
       43
 90
       44
 90
       43
 90
      235
 90
      235
 90
      236
 90
       42
 90
       43
 90
       42
 90
      234
 90
      234
 90
      235
 90
       41
 90
       42
 90
       41
 90
      233
 90
      233
 90
      234
 90
       40
 90
       41
 90
       40
 90
      232
 90
      232
 90
      233
 90
       39
 90
       40
 90
       39
 90
      231
 90
      231
 90
      232
 90
       38
 90
       39
 90
       38
 90
      230
 90
      230
 90
      231
 90
       37
 90
       38
 90
       37
 90
      229
 90
      229
 90
      230
 90
       36
 90
       37
 90
       36
 90
      323
 90
      229
 90
      323
 90
       35
 90
       36
 90
       35
 90
      324
 90
      323
 90
      324
 90
       34
 90
       35
 90
       34
 90
      325
 90
      324
 90
      325
 90
       33
 90
       34
 90
       33
 90
      238
 90
      238
 90
      325
 90
       32
 90
       33
 90
       32
 90
      166
 90
      166
 90
      238
 90
       31
 90
       32
 90
       31
 90
      165
 90
      165
 90
      166
 90
       30
 90
       31
 90
       30
 90
      261
 90
      165
 90
      261
 90
       29
 90
       30
 90
       29
 90
      168
 90
      168
 90
      261
 90
       28
 90
       29
 90
       28
 90
      167
 90
      167
 90
      168
 90
       27
 90
       28
 90
       27
 90
      260
 90
      167
 90
      260
 90
       26
 90
       27
 90
       26
 90
      259
 90
      259
 90
      260
 90
       25
 90
       26
 90
       25
 90
      258
 90
      258
 90
      259
 90
       24
 90
       25
 90
       24
 90
      257
 90
      257
 90
      258
 90
       23
 90
       24
 90
       23
 90
      256
 90
      256
 90
      257
 90
       22
 90
       23
 90
       22
 90
      255
 90
      255
 90
      256
 90
       21
 90
       22
 90
       21
 90
      254
 90
      254
 90
      255
 90
       20
 90
       21
 90
       20
 90
      253
 90
      253
 90
      254
 90
       19
 90
       20
 90
       19
 90
      252
 90
      252
 90
      253
 90
       18
 90
       19
 90
       18
 90
      251
 90
      251
 90
      252
 90
       17
 90
       18
 90
       17
 90
      250
 90
      250
 90
      251
 90
       16
 90
       17
 90
       16
 90
      249
 90
      249
 90
      250
 90
       15
 90
       16
 90
       15
 90
      248
 90
      248
 90
      249
 90
       14
 90
       15
 90
       14
 90
      247
 90
      247
 90
      248
 90
       13
 90
       14
 90
       13
 90
      246
 90
      246
 90
      247
 90
       12
 90
       13
 90
       12
 90
      245
 90
      245
 90
      246
 90
       11
 90
       12
 90
       11
 90
      244
 90
      244
 90
      245
 90
       10
 90
       11
 90
       10
 90
      243
 90
      243
 90
      244
 90
        9
 90
       10
 90
        9
 90
      242
 90
      242
 90
      243
 90
        8
 90
        9
 90
        8
 90
      241
 90
      241
 90
      242
 90
        7
 90
        8
 90
        7
 90
      240
 90
      240
 90
      241
 90
        6
 90
        7
 90
        6
 90
      239
 90
      239
 90
      240
 90
        5
 90
        6
 90
        5
 90
      265
 90
      239
 90
      265
 90
        4
 90
        5
 90
        4
 90
      264
 90
      264
 90
      265
 90
        3
 90
        4
 90
        3
 90
      285
 90
      264
 90
      285
 90
        2
 90
        3
 90
        2
 90
      263
 90
      263
 90
      285
 90
        1
 90
        2
 90
      262
 90
      263
 90
      165
 90
      238
 90
      165
 90
      324
 90
      165
 90
      325
 90
      165
 90
      229
 90
      165
 90
      323
 90
      165
 90
      231
 90
      165
 90
      230
 90
      233
 90
      261
 90
      165
 90
      232
 90
      235
 90
      261
 90
      234
 90
      261
 90
      168
 90
      236
 90
      168
 90
      322
 90
      168
 90
      237
 90
      168
 90
      321
 90
      168
 90
      320
 90
      168
 90
      227
 90
      167
 90
      228
 90
      167
 90
      318
 90
      167
 90
      319
 90
      167
 90
      316
 90
      167
 90
      317
 90
      167
 90
      226
 90
      167
 90
      225
 90
      260
 90
      310
 90
      260
 90
      311
 90
      224
 90
      260
 90
      222
 90
      260
 90
      260
 90
      309
 90
      214
 90
      260
 90
      223
 90
      260
 90
      260
 90
      312
 90
      167
 90
      314
 90
      167
 90
      315
 90
      260
 90
      313
 90
      170
 90
      259
 90
      169
 90
      260
 90
      260
 90
      306
 90
      260
 90
      307
 90
      260
 90
      308
 90
      212
 90
      260
 90
      213
 90
      260
 90
      221
 90
      260
 90
      220
 90
      260
 90
      219
 90
      260
 90
      218
 90
      260
 90
      217
 90
      260
 90
      216
 90
      260
 90
      215
 90
      260
 90
      171
 90
      259
 90
      239
 90
      284
 90
      211
 90
      239
 90
      210
 90
      239
 90
      209
 90
      240
 90
      208
 90
      240
 90
      207
 90
      241
 90
      206
 90
      241
 90
      205
 90
      242
 90
      204
 90
      242
 90
      203
 90
      243
 90
      202
 90
      243
 90
      201
 90
      244
 90
      200
 90
      244
 90
      199
 90
      245
 90
      198
 90
      245
 90
      197
 90
      246
 90
      196
 90
      246
 90
      195
 90
      247
 90
      194
 90
      247
 90
      193
 90
      248
 90
      192
 90
      248
 90
      191
 90
      249
 90
      190
 90
      249
 90
      189
 90
      250
 90
      188
 90
      250
 90
      187
 90
      251
 90
      186
 90
      251
 90
      185
 90
      252
 90
      184
 90
      252
 90
      183
 90
      253
 90
      182
 90
      253
 90
      181
 90
      254
 90
      180
 90
      254
 90
      179
 90
      255
 90
      178
 90
      255
 90
      177
 90
      256
 90
      176
 90
      256
 90
      175
 90
      257
 90
      174
 90
      257
 90
      173
 90
      258
 90
      172
 90
      258
 90
      239
 90
      305
 90
      239
 90
      304
 90
      239
 90
      303
 90
      239
 90
      302
 90
      239
 90
      282
 90
      239
 90
      283
 90
      239
 90
      300
 90
      239
 90
      301
 90
      265
 90
      299
 90
      239
 90
      299
 90
      264
 90
      281
 90
      265
 90
      280
 90
      265
 90
      298
 90
      263
 90
      266
 90
      263
 90
      326
 90
      263
 90
      327
 90
      263
 90
      328
 90
      263
 90
      329
 90
      263
 90
      267
 90
      263
 90
      274
 90
      263
 90
      273
 90
      263
 90
      272
 90
      263
 90
      271
 90
      263
 90
      270
 90
      263
 90
      269
 90
      263
 90
      268
 90
      263
 90
      275
 90
      263
 90
      286
 90
      263
 90
      287
 90
      263
 90
      288
 90
      263
 90
      289
 90
      263
 90
      277
 90
      276
 90
      285
 90
      285
 90
      290
 90
      285
 90
      291
 90
      285
 90
      292
 90
      285
 90
      293
 90
      279
 90
      285
 90
      264
 90
      278
 90
      264
 90
      294
 90
      264
 90
      295
 90
      264
 90
      296
 90
      264
 90
      297
 90
       31
 90
       33
 90
       31
 90
       34
 90
       31
 90
       35
 90
       31
 90
       36
 90
       31
 90
       37
 90
       31
 90
       38
 90
       31
 90
       39
 90
       31
 90
       40
 90
       30
 90
       41
 90
       30
 90
       42
 90
       30
 90
       43
 90
       29
 90
       44
 90
       29
 90
       45
 90
       29
 90
       46
 90
       29
 90
       47
 90
       29
 90
       48
 90
       29
 90
       49
 90
       28
 90
       50
 90
       28
 90
       51
 90
       28
 90
       52
 90
       28
 90
       53
 90
       28
 90
       54
 90
       28
 90
       55
 90
       28
 90
       56
 90
       27
 90
       63
 90
       27
 90
       64
 90
       27
 90
       62
 90
       27
 90
       65
 90
       27
 90
       66
 90
       27
 90
       67
 90
       27
 90
       61
 90
       27
 90
       60
 90
       28
 90
       57
 90
       28
 90
       58
 90
       27
 90
       59
 90
       27
 90
       80
 90
       26
 90
       81
 90
       27
 90
       79
 90
       27
 90
       78
 90
       27
 90
       77
 90
       27
 90
       76
 90
       27
 90
       75
 90
       27
 90
       74
 90
       27
 90
       73
 90
       27
 90
       72
 90
       27
 90
       71
 90
       27
 90
       70
 90
       27
 90
       69
 90
       27
 90
       68
 90
       26
 90
       82
 90
        6
 90
      122
 90
        6
 90
      123
 90
        6
 90
      121
 90
        7
 90
      120
 90
        7
 90
      119
 90
        8
 90
      118
 90
        8
 90
      117
 90
        9
 90
      116
 90
        9
 90
      115
 90
       10
 90
      114
 90
       10
 90
      113
 90
       11
 90
      112
 90
       11
 90
      111
 90
       12
 90
      110
 90
       12
 90
      109
 90
       13
 90
      108
 90
       13
 90
      107
 90
       14
 90
      106
 90
       14
 90
      105
 90
       15
 90
      104
 90
       15
 90
      103
 90
       16
 90
      102
 90
       16
 90
      101
 90
       17
 90
      100
 90
       17
 90
       99
 90
       18
 90
       98
 90
       18
 90
       97
 90
       19
 90
       96
 90
       19
 90
       95
 90
       20
 90
       94
 90
       20
 90
       93
 90
       21
 90
       92
 90
       21
 90
       91
 90
       22
 90
       90
 90
       22
 90
       89
 90
       23
 90
       88
 90
       23
 90
       87
 90
       24
 90
       86
 90
       24
 90
       85
 90
       25
 90
       84
 90
       25
 90
       83
 90
        6
 90
      124
 90
        6
 90
      125
 90
        6
 90
      126
 90
        6
 90
      127
 90
        6
 90
      128
 90
        6
 90
      129
 90
        6
 90
      130
 90
        6
 90
      131
 90
        6
 90
      132
 90
        5
 90
      132
 90
        5
 90
      134
 90
        4
 90
      135
 90
        5
 90
      133
 90
        0
 90
        2
 90
        2
 90
      164
 90
        2
 90
      163
 90
        2
 90
      162
 90
        2
 90
      161
 90
        2
 90
      160
 90
        2
 90
      159
 90
        2
 90
      158
 90
        2
 90
      157
 90
        2
 90
      156
 90
        2
 90
      155
 90
        2
 90
      154
 90
        2
 90
      153
 90
        2
 90
      152
 90
        2
 90
      151
 90
        2
 90
      150
 90
        2
 90
      149
 90
        2
 90
      148
 90
        2
 90
      147
 90
        3
 90
      146
 90
        3
 90
      145
 90
        3
 90
      144
 90
        3
 90
      143
 90
        3
 90
      142
 90
        3
 90
      141
 90
        4
 90
      140
 90
        4
 90
      139
 90
        4
 90
      138
 90
        4
 90
      137
 90
        4
 90
      136
 95
      763
140
0.0
140
0.0
140
0.0
140
0.0
140
0.0
140
0.0
140
0.0
140
0.0
140
0.0
140
0.0
140
0.0
140
0.0
140
0.0
140
0.0
140
0.0
140
0.0
140
0.0
140
0.0
140
0.0
140
0.0
140
0.0
140
0.0
140
0.0
140
0.0
140
0.0
140
0.0
140
0.0
140
0.0
140
0.0
140
0.0
140
0.0
140
0.0
140
0.0
140
0.0
140
0.0
140
0.0
140
0.0
140
0.0
140
0.0
140
0.0
140
0.0
140
0.0
140
0.0
140
0.0
140
0.0
140
0.0
140
0.0
140
0.0
140
0.0
140
0.0
140
0.0
140
0.0
140
0.0
140
0.0
140
0.0
140
0.0
140
0.0
140
0.0
140
0.0
140
0.0
140
0.0
140
0.0
140
0.0
140
0.0
140
0.0
140
0.0
140
0.0
140
0.0
140
0.0
140
0.0
140
0.0
140
0.0
140
0.0
140
0.0
140
0.0
140
0.0
140
0.0
140
0.0
140
0.0
140
0.0
140
0.0
140
0.0
140
0.0
140
0.0
140
0.0
140
0.0
140
0.0
140
0.0
140
0.0
140
0.0
140
0.0
140
0.0
140
0.0
140
0.0
140
0.0
140
0.0
140
0.0
140
0.0
140
0.0
140
0.0
140
0.0
140
0.0
140
0.0
140
0.0
140
0.0
140
0.0
140
0.0
140
0.0
140
0.0
140
0.0
140
0.0
140
0.0
140
0.0
140
0.0
140
0.0
140
0.0
140
0.0
140
0.0
140
0.0
140
0.0
140
0.0
140
0.0
140
0.0
140
0.0
140
0.0
140
0.0
140
0.0
140
0.0
140
0.0
140
0.0
140
0.0
140
0.0
140
0.0
140
0.0
140
0.0
140
0.0
140
0.0
140
0.0
140
0.0
140
0.0
140
0.0
140
0.0
140
0.0
140
0.0
140
0.0
140
0.0
140
0.0
140
0.0
140
0.0
140
0.0
140
0.0
140
0.0
140
0.0
140
0.0
140
0.0
140
0.0
140
0.0
140
0.0
140
0.0
140
0.0
140
0.0
140
0.0
140
0.0
140
0.0
140
0.0
140
0.0
140
0.0
140
0.0
140
0.0
140
0.0
140
0.0
140
0.0
140
0.0
140
0.0
140
0.0
140
0.0
140
0.0
140
0.0
140
0.0
140
0.0
140
0.0
140
0.0
140
0.0
140
0.0
140
0.0
140
0.0
140
0.0
140
0.0
140
0.0
140
0.0
140
0.0
140
0.0
140
0.0
140
0.0
140
0.0
140
0.0
140
0.0
140
0.0
140
0.0
140
0.0
140
0.0
140
0.0
140
0.0
140
0.0
140
0.0
140
0.0
140
0.0
140
0.0
140
0.0
140
0.0
140
0.0
140
0.0
140
0.0
140
0.0
140
0.0
140
0.0
140
0.0
140
0.0
140
0.0
140
0.0
140
0.0
140
0.0
140
0.0
140
0.0
140
0.0
140
0.0
140
0.0
140
0.0
140
0.0
140
0.0
140
0.0
140
0.0
140
0.0
140
0.0
140
0.0
140
0.0
140
0.0
140
0.0
140
0.0
140
0.0
140
0.0
140
0.0
140
0.0
140
0.0
140
0.0
140
0.0
140
0.0
140
0.0
140
0.0
140
0.0
140
0.0
140
0.0
140
0.0
140
0.0
140
0.0
140
0.0
140
0.0
140
0.0
140
0.0
140
0.0
140
0.0
140
0.0
140
0.0
140
0.0
140
0.0
140
0.0
140
0.0
140
0.0
140
0.0
140
0.0
140
0.0
140
0.0
140
0.0
140
0.0
140
0.0
140
0.0
140
0.0
140
0.0
140
0.0
140
0.0
140
0.0
140
0.0
140
0.0
140
0.0
140
0.0
140
0.0
140
0.0
140
0.0
140
0.0
140
0.0
140
0.0
140
0.0
140
0.0
140
0.0
140
0.0
140
0.0
140
0.0
140
0.0
140
0.0
140
0.0
140
0.0
140
0.0
140
0.0
140
0.0
140
0.0
140
0.0
140
0.0
140
0.0
140
0.0
140
0.0
140
0.0
140
0.0
140
0.0
140
0.0
140
0.0
140
0.0
140
0.0
140
0.0
140
0.0
140
0.0
140
0.0
140
0.0
140
0.0
140
0.0
140
0.0
140
0.0
140
0.0
140
0.0
140
0.0
140
0.0
140
0.0
140
0.0
140
0.0
140
0.0
140
0.0
140
0.0
140
0.0
140
0.0
140
0.0
140
0.0
140
0.0
140
0.0
140
0.0
140
0.0
140
0.0
140
0.0
140
0.0
140
0.0
140
0.0
140
0.0
140
0.0
140
0.0
140
0.0
140
0.0
140
0.0
140
0.0
140
0.0
140
0.0
140
0.0
140
0.0
140
0.0
140
0.0
140
0.0
140
0.0
140
0.0
140
0.0
140
0.0
140
0.0
140
0.0
140
0.0
140
0.0
140
0.0
140
0.0
140
0.0
140
0.0
140
0.0
140
0.0
140
0.0
140
0.0
140
0.0
140
0.0
140
0.0
140
0.0
140
0.0
140
0.0
140
0.0
140
0.0
140
0.0
140
0.0
140
0.0
140
0.0
140
0.0
140
0.0
140
0.0
140
0.0
140
0.0
140
0.0
140
0.0
140
0.0
140
0.0
140
0.0
140
0.0
140
0.0
140
0.0
140
0.0
140
0.0
140
0.0
140
0.0
140
0.0
140
0.0
140
0.0
140
0.0
140
0.0
140
0.0
140
0.0
140
0.0
140
0.0
140
0.0
140
0.0
140
0.0
140
0.0
140
0.0
140
0.0
140
0.0
140
0.0
140
0.0
140
0.0
140
0.0
140
0.0
140
0.0
140
0.0
140
0.0
140
0.0
140
0.0
140
0.0
140
0.0
140
0.0
140
0.0
140
0.0
140
0.0
140
0.0
140
0.0
140
0.0
140
0.0
140
0.0
140
0.0
140
0.0
140
0.0
140
0.0
140
0.0
140
0.0
140
0.0
140
0.0
140
0.0
140
0.0
140
0.0
140
0.0
140
0.0
140
0.0
140
0.0
140
0.0
140
0.0
140
0.0
140
0.0
140
0.0
140
0.0
140
0.0
140
0.0
140
0.0
140
0.0
140
0.0
140
0.0
140
0.0
140
0.0
140
0.0
140
0.0
140
0.0
140
0.0
140
0.0
140
0.0
140
0.0
140
0.0
140
0.0
140
0.0
140
0.0
140
0.0
140
0.0
140
0.0
140
0.0
140
0.0
140
0.0
140
0.0
140
0.0
140
0.0
140
0.0
140
0.0
140
0.0
140
0.0
140
0.0
140
0.0
140
0.0
140
0.0
140
0.0
140
0.0
140
0.0
140
0.0
140
0.0
140
0.0
140
0.0
140
0.0
140
0.0
140
0.0
140
0.0
140
0.0
140
0.0
140
0.0
140
0.0
140
0.0
140
0.0
140
0.0
140
0.0
140
0.0
140
0.0
140
0.0
140
0.0
140
0.0
140
0.0
140
0.0
140
0.0
140
0.0
140
0.0
140
0.0
140
0.0
140
0.0
140
0.0
140
0.0
140
0.0
140
0.0
140
0.0
140
0.0
140
0.0
140
0.0
140
0.0
140
0.0
140
0.0
140
0.0
140
0.0
140
0.0
140
0.0
140
0.0
140
0.0
140
0.0
140
0.0
140
0.0
140
0.0
140
0.0
140
0.0
140
0.0
140
0.0
140
0.0
140
0.0
140
0.0
140
0.0
140
0.0
140
0.0
140
0.0
140
0.0
140
0.0
140
0.0
140
0.0
140
0.0
140
0.0
140
0.0
140
0.0
140
0.0
140
0.0
140
0.0
140
0.0
140
0.0
140
0.0
140
0.0
140
0.0
140
0.0
140
0.0
140
0.0
140
0.0
140
0.0
140
0.0
140
0.0
140
0.0
140
0.0
140
0.0
140
0.0
140
0.0
140
0.0
140
0.0
140
0.0
140
0.0
140
0.0
140
0.0
140
0.0
140
0.0
140
0.0
140
0.0
140
0.0
140
0.0
140
0.0
140
0.0
140
0.0
140
0.0
140
0.0
140
0.0
140
0.0
140
0.0
140
0.0
140
0.0
140
0.0
140
0.0
140
0.0
140
0.0
140
0.0
140
0.0
140
0.0
140
0.0
140
0.0
140
0.0
140
0.0
140
0.0
140
0.0
140
0.0
140
0.0
140
0.0
140
0.0
140
0.0
140
0.0
140
0.0
140
0.0
140
0.0
140
0.0
140
0.0
140
0.0
140
0.0
140
0.0
140
0.0
140
0.0
140
0.0
140
0.0
140
0.0
140
0.0
140
0.0
140
0.0
140
0.0
140
0.0
140
0.0
140
0.0
140
0.0
140
0.0
140
0.0
140
0.0
140
0.0
140
0.0
140
0.0
140
0.0
140
0.0
140
0.0
140
0.0
140
0.0
140
0.0
140
0.0
140
0.0
140
0.0
140
0.0
140
0.0
140
0.0
140
0.0
140
0.0
140
0.0
140
0.0
140
0.0
140
0.0
140
0.0
140
0.0
140
0.0
140
0.0
140
0.0
140
0.0
140
0.0
140
0.0
140
0.0
140
0.0
140
0.0
140
0.0
140
0.0
140
0.0
140
0.0
140
0.0
140
0.0
140
0.0
140
0.0
140
0.0
140
0.0
140
0.0
140
0.0
140
0.0
140
0.0
140
0.0
140
0.0
140
0.0
140
0.0
140
0.0
140
0.0
140
0.0
140
0.0
140
0.0
140
0.0
140
0.0
140
0.0
140
0.0
140
0.0
140
0.0
140
0.0
140
0.0
140
0.0
140
0.0
140
0.0
140
0.0
140
0.0
140
0.0
140
0.0
140
0.0
140
0.0
140
0.0
140
0.0
140
0.0
140
0.0
140
0.0
140
0.0
140
0.0
140
0.0
140
0.0
140
0.0
140
0.0
140
0.0
140
0.0
140
0.0
140
0.0
140
0.0
140
0.0
140
0.0
140
0.0
140
0.0
140
0.0
140
0.0
140
0.0
140
0.0
140
0.0
140
0.0
140
0.0
140
0.0
140
0.0
140
0.0
140
0.0
140
0.0
 90
        0
  0
POLYLINE
  5
FA
330
1F
100
AcDbEntity
  8
OracDecor_cornice_mouldings
 62
   121
420
 10085590
100
AcDb3dPolyline
 66
     1
 10
0.0
 20
0.0
 30
0.0
 70
     9
  0
VERTEX
  5
FB
330
FA
100
AcDbEntity
  8
OracDecor_cornice_mouldings
 62
   121
420
 10085590
100
AcDbVertex
100
AcDb3dPolylineVertex
 10
-0.0000000000000924
 20
0.0000407122788602
 30
-83.21817016601562
 70
    32
  0
VERTEX
  5
FC
330
FA
100
AcDbEntity
  8
OracDecor_cornice_mouldings
 62
   121
420
 10085590
100
AcDbVertex
100
AcDb3dPolylineVertex
 10
-0.0000000000000924
 20
0.0000358675824828
 30
-95.0
 70
    32
  0
VERTEX
  5
FD
330
FA
100
AcDbEntity
  8
OracDecor_cornice_mouldings
 62
   121
420
 10085590
100
AcDbVertex
100
AcDb3dPolylineVertex
 10
-0.0000000000000924
 20
3.500035762786865
 30
-95.0
 70
    32
  0
VERTEX
  5
FE
330
FA
100
AcDbEntity
  8
OracDecor_cornice_mouldings
 62
   121
420
 10085590
100
AcDbVertex
100
AcDb3dPolylineVertex
 10
-0.0000000000000924
 20
3.654584407806396
 30
-94.97673797607422
 70
    32
  0
VERTEX
  5
FF
330
FA
100
AcDbEntity
  8
OracDecor_cornice_mouldings
 62
   121
420
 10085590
100
AcDbVertex
100
AcDb3dPolylineVertex
 10
-0.0000000000000924
 20
3.793939113616943
 30
-94.90926361083984
 70
    32
  0
VERTEX
  5
100
330
FA
100
AcDbEntity
  8
OracDecor_cornice_mouldings
 62
   121
420
 10085590
100
AcDbVertex
100
AcDb3dPolylineVertex
 10
-0.0000000000000924
 20
3.904523372650146
 30
-94.80420684814452
 70
    32
  0
VERTEX
  5
101
330
FA
100
AcDbEntity
  8
OracDecor_cornice_mouldings
 62
   121
420
 10085590
100
AcDbVertex
100
AcDb3dPolylineVertex
 10
-0.0000000000000924
 20
3.975549221038818
 30
-94.67182159423828
 70
    32
  0
VERTEX
  5
102
330
FA
100
AcDbEntity
  8
OracDecor_cornice_mouldings
 62
   121
420
 10085590
100
AcDbVertex
100
AcDb3dPolylineVertex
 10
-0.0000000000000924
 20
4.000036239624023
 30
-94.52500152587891
 70
    32
  0
VERTEX
  5
103
330
FA
100
AcDbEntity
  8
OracDecor_cornice_mouldings
 62
   121
420
 10085590
100
AcDbVertex
100
AcDb3dPolylineVertex
 10
-0.0000000000000924
 20
4.018445968627929
 30
-93.76276397705078
 70
    32
  0
VERTEX
  5
104
330
FA
100
AcDbEntity
  8
OracDecor_cornice_mouldings
 62
   121
420
 10085590
100
AcDbVertex
100
AcDb3dPolylineVertex
 10
-0.0000000000000924
 20
4.235235214233398
 30
-92.6394805908203
 70
    32
  0
VERTEX
  5
105
330
FA
100
AcDbEntity
  8
OracDecor_cornice_mouldings
 62
   121
420
 10085590
100
AcDbVertex
100
AcDb3dPolylineVertex
 10
-0.0000000000000924
 20
4.728885650634765
 30
-91.59736633300781
 70
    32
  0
VERTEX
  5
106
330
FA
100
AcDbEntity
  8
OracDecor_cornice_mouldings
 62
   121
420
 10085590
100
AcDbVertex
100
AcDb3dPolylineVertex
 10
-0.0000000000000924
 20
5.471019744873046
 30
-90.69743347167969
 70
    32
  0
VERTEX
  5
107
330
FA
100
AcDbEntity
  8
OracDecor_cornice_mouldings
 62
   121
420
 10085590
100
AcDbVertex
100
AcDb3dPolylineVertex
 10
-0.0000000000000924
 20
6.41832160949707
 30
-89.99240112304688
 70
    32
  0
VERTEX
  5
108
330
FA
100
AcDbEntity
  8
OracDecor_cornice_mouldings
 62
   121
420
 10085590
100
AcDbVertex
100
AcDb3dPolylineVertex
 10
-0.0000000000000924
 20
7.515284061431884
 30
-89.5234375
 70
    32
  0
VERTEX
  5
109
330
FA
100
AcDbEntity
  8
OracDecor_cornice_mouldings
 62
   121
420
 10085590
100
AcDbVertex
100
AcDb3dPolylineVertex
 10
-0.0000000000000924
 20
8.69767951965332
 30
-89.31748962402343
 70
    32
  0
VERTEX
  5
10A
330
FA
100
AcDbEntity
  8
OracDecor_cornice_mouldings
 62
   121
420
 10085590
100
AcDbVertex
100
AcDb3dPolylineVertex
 10
-0.0000000000000924
 20
9.500036239624023
 30
-89.30000305175781
 70
    32
  0
VERTEX
  5
10B
330
FA
100
AcDbEntity
  8
OracDecor_cornice_mouldings
 62
   121
420
 10085590
100
AcDbVertex
100
AcDb3dPolylineVertex
 10
-0.0000000000000924
 20
9.654584884643554
 30
-89.2767333984375
 70
    32
  0
VERTEX
  5
10C
330
FA
100
AcDbEntity
  8
OracDecor_cornice_mouldings
 62
   121
420
 10085590
100
AcDbVertex
100
AcDb3dPolylineVertex
 10
-0.0000000000000924
 20
9.793943405151367
 30
-89.20926666259765
 70
    32
  0
VERTEX
  5
10D
330
FA
100
AcDbEntity
  8
OracDecor_cornice_mouldings
 62
   121
420
 10085590
100
AcDbVertex
100
AcDb3dPolylineVertex
 10
-0.0000000000000924
 20
9.904523849487304
 30
-89.10420989990234
 70
    32
  0
VERTEX
  5
10E
330
FA
100
AcDbEntity
  8
OracDecor_cornice_mouldings
 62
   121
420
 10085590
100
AcDbVertex
100
AcDb3dPolylineVertex
 10
-0.0000000000000924
 20
9.975549697875976
 30
-88.97181701660157
 70
    32
  0
VERTEX
  5
10F
330
FA
100
AcDbEntity
  8
OracDecor_cornice_mouldings
 62
   121
420
 10085590
100
AcDbVertex
100
AcDb3dPolylineVertex
 10
-0.0000000000000924
 20
10.00003623962402
 30
-88.82499694824218
 70
    32
  0
VERTEX
  5
110
330
FA
100
AcDbEntity
  8
OracDecor_cornice_mouldings
 62
   121
420
 10085590
100
AcDbVertex
100
AcDb3dPolylineVertex
 10
-0.0000000000000924
 20
10.00003623962402
 30
-85.5
 70
    32
  0
VERTEX
  5
111
330
FA
100
AcDbEntity
  8
OracDecor_cornice_mouldings
 62
   121
420
 10085590
100
AcDbVertex
100
AcDb3dPolylineVertex
 10
-0.0000000000000924
 20
10.02452659606933
 30
-85.35317993164062
 70
    32
  0
VERTEX
  5
112
330
FA
100
AcDbEntity
  8
OracDecor_cornice_mouldings
 62
   121
420
 10085590
100
AcDbVertex
100
AcDb3dPolylineVertex
 10
-0.0000000000000924
 20
10.09554862976074
 30
-85.22079467773437
 70
    32
  0
VERTEX
  5
113
330
FA
100
AcDbEntity
  8
OracDecor_cornice_mouldings
 62
   121
420
 10085590
100
AcDbVertex
100
AcDb3dPolylineVertex
 10
-0.0000000000000924
 20
10.20613288879394
 30
-85.11573791503906
 70
    32
  0
VERTEX
  5
114
330
FA
100
AcDbEntity
  8
OracDecor_cornice_mouldings
 62
   121
420
 10085590
100
AcDbVertex
100
AcDb3dPolylineVertex
 10
-0.0000000000000924
 20
10.34549140930176
 30
-85.04826354980469
 70
    32
  0
VERTEX
  5
115
330
FA
100
AcDbEntity
  8
OracDecor_cornice_mouldings
 62
   121
420
 10085590
100
AcDbVertex
100
AcDb3dPolylineVertex
 10
-0.0000000000000924
 20
10.50003623962402
 30
-85.0250015258789
 70
    32
  0
VERTEX
  5
116
330
FA
100
AcDbEntity
  8
OracDecor_cornice_mouldings
 62
   121
420
 10085590
100
AcDbVertex
100
AcDb3dPolylineVertex
 10
-0.0000000000000924
 20
14.00003623962402
 30
-85.0250015258789
 70
    32
  0
VERTEX
  5
117
330
FA
100
AcDbEntity
  8
OracDecor_cornice_mouldings
 62
   121
420
 10085590
100
AcDbVertex
100
AcDb3dPolylineVertex
 10
-0.0000000000000924
 20
14.15458488464355
 30
-85.00173187255859
 70
    32
  0
VERTEX
  5
118
330
FA
100
AcDbEntity
  8
OracDecor_cornice_mouldings
 62
   121
420
 10085590
100
AcDbVertex
100
AcDb3dPolylineVertex
 10
-0.0000000000000924
 20
14.29394340515137
 30
-84.93426513671876
 70
    32
  0
VERTEX
  5
119
330
FA
100
AcDbEntity
  8
OracDecor_cornice_mouldings
 62
   121
420
 10085590
100
AcDbVertex
100
AcDb3dPolylineVertex
 10
-0.0000000000000924
 20
14.4045238494873
 30
-84.82920837402344
 70
    32
  0
VERTEX
  5
11A
330
FA
100
AcDbEntity
  8
OracDecor_cornice_mouldings
 62
   121
420
 10085590
100
AcDbVertex
100
AcDb3dPolylineVertex
 10
-0.0000000000000924
 20
14.47554969787598
 30
-84.69682312011718
 70
    32
  0
VERTEX
  5
11B
330
FA
100
AcDbEntity
  8
OracDecor_cornice_mouldings
 62
   121
420
 10085590
100
AcDbVertex
100
AcDb3dPolylineVertex
 10
-0.0000000000000924
 20
14.50003623962402
 30
-84.55000305175781
 70
    32
  0
VERTEX
  5
11C
330
FA
100
AcDbEntity
  8
OracDecor_cornice_mouldings
 62
   121
420
 10085590
100
AcDbVertex
100
AcDb3dPolylineVertex
 10
-0.0000000000000924
 20
14.5000410079956
 30
-71.25
 70
    32
  0
VERTEX
  5
11D
330
FA
100
AcDbEntity
  8
OracDecor_cornice_mouldings
 62
   121
420
 10085590
100
AcDbVertex
100
AcDb3dPolylineVertex
 10
-0.0000000000000924
 20
14.52452754974365
 30
-71.10317993164063
 70
    32
  0
VERTEX
  5
11E
330
FA
100
AcDbEntity
  8
OracDecor_cornice_mouldings
 62
   121
420
 10085590
100
AcDbVertex
100
AcDb3dPolylineVertex
 10
-0.0000000000000924
 20
14.59555339813232
 30
-70.97079467773437
 70
    32
  0
VERTEX
  5
11F
330
FA
100
AcDbEntity
  8
OracDecor_cornice_mouldings
 62
   121
420
 10085590
100
AcDbVertex
100
AcDb3dPolylineVertex
 10
-0.0000000000000924
 20
14.70613861083984
 30
-70.86573791503906
 70
    32
  0
VERTEX
  5
120
330
FA
100
AcDbEntity
  8
OracDecor_cornice_mouldings
 62
   121
420
 10085590
100
AcDbVertex
100
AcDb3dPolylineVertex
 10
-0.0000000000000924
 20
14.84549331665039
 30
-70.79826354980468
 70
    32
  0
VERTEX
  5
121
330
FA
100
AcDbEntity
  8
OracDecor_cornice_mouldings
 62
   121
420
 10085590
100
AcDbVertex
100
AcDb3dPolylineVertex
 10
-0.0000000000000924
 20
15.00004196166992
 30
-70.77500152587891
 70
    32
  0
VERTEX
  5
122
330
FA
100
AcDbEntity
  8
OracDecor_cornice_mouldings
 62
   121
420
 10085590
100
AcDbVertex
100
AcDb3dPolylineVertex
 10
-0.0000000000000924
 20
18.50004005432129
 30
-70.77500152587891
 70
    32
  0
VERTEX
  5
123
330
FA
100
AcDbEntity
  8
OracDecor_cornice_mouldings
 62
   121
420
 10085590
100
AcDbVertex
100
AcDb3dPolylineVertex
 10
-0.0000000000000924
 20
18.65458869934082
 30
-70.7517318725586
 70
    32
  0
VERTEX
  5
124
330
FA
100
AcDbEntity
  8
OracDecor_cornice_mouldings
 62
   121
420
 10085590
100
AcDbVertex
100
AcDb3dPolylineVertex
 10
-0.0000000000000924
 20
18.79394340515137
 30
-70.68426513671875
 70
    32
  0
VERTEX
  5
125
330
FA
100
AcDbEntity
  8
OracDecor_cornice_mouldings
 62
   121
420
 10085590
100
AcDbVertex
100
AcDb3dPolylineVertex
 10
-0.0000000000000924
 20
18.90452766418457
 30
-70.57920837402344
 70
    32
  0
VERTEX
  5
126
330
FA
100
AcDbEntity
  8
OracDecor_cornice_mouldings
 62
   121
420
 10085590
100
AcDbVertex
100
AcDb3dPolylineVertex
 10
-0.0000000000000924
 20
18.97555160522461
 30
-70.44682312011719
 70
    32
  0
VERTEX
  5
127
330
FA
100
AcDbEntity
  8
OracDecor_cornice_mouldings
 62
   121
420
 10085590
100
AcDbVertex
100
AcDb3dPolylineVertex
 10
-0.0000000000000924
 20
19.00004005432129
 30
-70.30000305175781
 70
    32
  0
VERTEX
  5
128
330
FA
100
AcDbEntity
  8
OracDecor_cornice_mouldings
 62
   121
420
 10085590
100
AcDbVertex
100
AcDb3dPolylineVertex
 10
-0.0000000000000924
 20
19.00004005432129
 30
-68.49498748779296
 70
    32
  0
VERTEX
  5
129
330
FA
100
AcDbEntity
  8
OracDecor_cornice_mouldings
 62
   121
420
 10085590
100
AcDbVertex
100
AcDb3dPolylineVertex
 10
-0.0000000000000924
 20
19.03921699523926
 30
-66.51930236816406
 70
    32
  0
VERTEX
  5
12A
330
FA
100
AcDbEntity
  8
OracDecor_cornice_mouldings
 62
   121
420
 10085590
100
AcDbVertex
100
AcDb3dPolylineVertex
 10
-0.0000000000000924
 20
19.15529441833496
 30
-64.55183410644531
 70
    32
  0
VERTEX
  5
12B
330
FA
100
AcDbEntity
  8
OracDecor_cornice_mouldings
 62
   121
420
 10085590
100
AcDbVertex
100
AcDb3dPolylineVertex
 10
-0.0000000000000924
 20
19.3482723236084
 30
-62.59257507324218
 70
    32
  0
VERTEX
  5
12C
330
FA
100
AcDbEntity
  8
OracDecor_cornice_mouldings
 62
   121
420
 10085590
100
AcDbVertex
100
AcDb3dPolylineVertex
 10
-0.0000000000000924
 20
19.61863327026367
 30
-60.63883209228515
 70
    32
  0
VERTEX
  5
12D
330
FA
100
AcDbEntity
  8
OracDecor_cornice_mouldings
 62
   121
420
 10085590
100
AcDbVertex
100
AcDb3dPolylineVertex
 10
-0.0000000000000924
 20
19.96589469909668
 30
-58.69329833984375
 70
    32
  0
VERTEX
  5
12E
330
FA
100
AcDbEntity
  8
OracDecor_cornice_mouldings
 62
   121
420
 10085590
100
AcDbVertex
100
AcDb3dPolylineVertex
 10
-0.0000000000000924
 20
20.38860702514648
 30
-56.76409912109375
 70
    32
  0
VERTEX
  5
12F
330
FA
100
AcDbEntity
  8
OracDecor_cornice_mouldings
 62
   121
420
 10085590
100
AcDbVertex
100
AcDb3dPolylineVertex
 10
-0.0000000000000924
 20
20.88708877563477
 30
-54.8512954711914
 70
    32
  0
VERTEX
  5
130
330
FA
100
AcDbEntity
  8
OracDecor_cornice_mouldings
 62
   121
420
 10085590
100
AcDbVertex
100
AcDb3dPolylineVertex
 10
-0.0000000000000924
 20
21.46102523803711
 30
-52.9548110961914
 70
    32
  0
VERTEX
  5
131
330
FA
100
AcDbEntity
  8
OracDecor_cornice_mouldings
 62
   121
420
 10085590
100
AcDbVertex
100
AcDb3dPolylineVertex
 10
-0.0000000000000924
 20
22.10801696777344
 30
-51.08257675170898
 70
    32
  0
VERTEX
  5
132
330
FA
100
AcDbEntity
  8
OracDecor_cornice_mouldings
 62
   121
420
 10085590
100
AcDbVertex
100
AcDb3dPolylineVertex
 10
-0.0000000000000924
 20
22.82837104797363
 30
-49.23466873168945
 70
    32
  0
VERTEX
  5
133
330
FA
100
AcDbEntity
  8
OracDecor_cornice_mouldings
 62
   121
420
 10085590
100
AcDbVertex
100
AcDb3dPolylineVertex
 10
-0.0000000000000924
 20
23.62178802490234
 30
-47.41099166870117
 70
    32
  0
VERTEX
  5
134
330
FA
100
AcDbEntity
  8
OracDecor_cornice_mouldings
 62
   121
420
 10085590
100
AcDbVertex
100
AcDb3dPolylineVertex
 10
-0.0000000000000924
 20
24.48495483398438
 30
-45.61915969848633
 70
    32
  0
VERTEX
  5
135
330
FA
100
AcDbEntity
  8
OracDecor_cornice_mouldings
 62
   121
420
 10085590
100
AcDbVertex
100
AcDb3dPolylineVertex
 10
-0.0000000000000924
 20
25.41816329956055
 30
-43.85929489135742
 70
    32
  0
VERTEX
  5
136
330
FA
100
AcDbEntity
  8
OracDecor_cornice_mouldings
 62
   121
420
 10085590
100
AcDbVertex
100
AcDb3dPolylineVertex
 10
-0.0000000000000924
 20
26.42112350463867
 30
-42.13127517700195
 70
    32
  0
VERTEX
  5
137
330
FA
100
AcDbEntity
  8
OracDecor_cornice_mouldings
 62
   121
420
 10085590
100
AcDbVertex
100
AcDb3dPolylineVertex
 10
-0.0000000000000924
 20
27.48965263366699
 30
-40.44229507446289
 70
    32
  0
VERTEX
  5
138
330
FA
100
AcDbEntity
  8
OracDecor_cornice_mouldings
 62
   121
420
 10085590
100
AcDbVertex
100
AcDb3dPolylineVertex
 10
-0.0000000000000924
 20
28.6240234375
 30
-38.79252243041992
 70
    32
  0
VERTEX
  5
139
330
FA
100
AcDbEntity
  8
OracDecor_cornice_mouldings
 62
   121
420
 10085590
100
AcDbVertex
100
AcDb3dPolylineVertex
 10
-0.0000000000000924
 20
29.82396316528321
 30
-37.18179321289063
 70
    32
  0
VERTEX
  5
13A
330
FA
100
AcDbEntity
  8
OracDecor_cornice_mouldings
 62
   121
420
 10085590
100
AcDbVertex
100
AcDb3dPolylineVertex
 10
-0.0000000000000924
 20
31.08446884155274
 30
-35.61682510375977
 70
    32
  0
VERTEX
  5
13B
330
FA
100
AcDbEntity
  8
OracDecor_cornice_mouldings
 62
   121
420
 10085590
100
AcDbVertex
100
AcDb3dPolylineVertex
 10
-0.0000000000000924
 20
32.40579223632813
 30
-34.09780883789063
 70
    32
  0
VERTEX
  5
13C
330
FA
100
AcDbEntity
  8
OracDecor_cornice_mouldings
 62
   121
420
 10085590
100
AcDbVertex
100
AcDb3dPolylineVertex
 10
-0.0000000000000924
 20
33.78768539428711
 30
-32.62455368041992
 70
    32
  0
VERTEX
  5
13D
330
FA
100
AcDbEntity
  8
OracDecor_cornice_mouldings
 62
   121
420
 10085590
100
AcDbVertex
100
AcDb3dPolylineVertex
 10
-0.0000000000000924
 20
35.2243766784668
 30
-31.20320129394531
 70
    32
  0
VERTEX
  5
13E
330
FA
100
AcDbEntity
  8
OracDecor_cornice_mouldings
 62
   121
420
 10085590
100
AcDbVertex
100
AcDb3dPolylineVertex
 10
-0.0000000000000924
 20
36.71610260009766
 30
-29.83396911621094
 70
    32
  0
VERTEX
  5
13F
330
FA
100
AcDbEntity
  8
OracDecor_cornice_mouldings
 62
   121
420
 10085590
100
AcDbVertex
100
AcDb3dPolylineVertex
 10
-0.0000000000000924
 20
38.26263427734375
 30
-28.51664352416992
 70
    32
  0
VERTEX
  5
140
330
FA
100
AcDbEntity
  8
OracDecor_cornice_mouldings
 62
   121
420
 10085590
100
AcDbVertex
100
AcDb3dPolylineVertex
 10
0.0000000000003624
 20
39.85751724243164
 30
-27.25671005249024
 70
    32
  0
VERTEX
  5
141
330
FA
100
AcDbEntity
  8
OracDecor_cornice_mouldings
 62
   121
420
 10085590
100
AcDbVertex
100
AcDb3dPolylineVertex
 10
0.0000000000003624
 20
41.50096130371093
 30
-26.05441284179688
 70
    32
  0
VERTEX
  5
142
330
FA
100
AcDbEntity
  8
OracDecor_cornice_mouldings
 62
   121
420
 10085590
100
AcDbVertex
100
AcDb3dPolylineVertex
 10
0.0000000000003624
 20
43.19275665283202
 30
-24.90950965881348
 70
    32
  0
VERTEX
  5
143
330
FA
100
AcDbEntity
  8
OracDecor_cornice_mouldings
 62
   121
420
 10085590
100
AcDbVertex
100
AcDb3dPolylineVertex
 10
-0.0000076293963502
 20
44.92585372924804
 30
-23.82677841186524
 70
    32
  0
VERTEX
  5
144
330
FA
100
AcDbEntity
  8
OracDecor_cornice_mouldings
 62
   121
420
 10085590
100
AcDbVertex
100
AcDb3dPolylineVertex
 10
-0.0000076293954407
 20
46.70042419433594
 30
-22.80647659301758
 70
    32
  0
VERTEX
  5
145
330
FA
100
AcDbEntity
  8
OracDecor_cornice_mouldings
 62
   121
420
 10085590
100
AcDbVertex
100
AcDb3dPolylineVertex
 10
-0.0000076293972597
 20
48.51629638671875
 30
-21.84834480285644
 70
    32
  0
VERTEX
  5
146
330
FA
100
AcDbEntity
  8
OracDecor_cornice_mouldings
 62
   121
420
 10085590
100
AcDbVertex
100
AcDb3dPolylineVertex
 10
-0.0000076293940765
 20
50.36590194702148
 30
-20.95637702941894
 70
    32
  0
VERTEX
  5
147
330
FA
100
AcDbEntity
  8
OracDecor_cornice_mouldings
 62
   121
420
 10085590
100
AcDbVertex
100
AcDb3dPolylineVertex
 10
-0.0000076293940765
 20
52.2493782043457
 30
-20.1308536529541
 70
    32
  0
VERTEX
  5
148
330
FA
100
AcDbEntity
  8
OracDecor_cornice_mouldings
 62
   121
420
 10085590
100
AcDbVertex
100
AcDb3dPolylineVertex
 10
-0.0000076293954407
 20
54.16657638549804
 30
-19.37149238586426
 70
    32
  0
VERTEX
  5
149
330
FA
100
AcDbEntity
  8
OracDecor_cornice_mouldings
 62
   121
420
 10085590
100
AcDbVertex
100
AcDb3dPolylineVertex
 10
-0.0000076293963502
 20
56.10951232910156
 30
-18.68146514892578
 70
    32
  0
VERTEX
  5
14A
330
FA
100
AcDbEntity
  8
OracDecor_cornice_mouldings
 62
   121
420
 10085590
100
AcDbVertex
100
AcDb3dPolylineVertex
 10
-0.0000076293954407
 20
58.07829666137696
 30
-18.06105613708496
 70
    32
  0
VERTEX
  5
14B
330
FA
100
AcDbEntity
  8
OracDecor_cornice_mouldings
 62
   121
420
 10085590
100
AcDbVertex
100
AcDb3dPolylineVertex
 10
-0.0000076293954407
 20
60.07281112670899
 30
-17.50997734069824
 70
    32
  0
VERTEX
  5
14C
330
FA
100
AcDbEntity
  8
OracDecor_cornice_mouldings
 62
   121
420
 10085590
100
AcDbVertex
100
AcDb3dPolylineVertex
 10
-0.0000076293963502
 20
62.08474349975586
 30
-17.0305290222168
 70
    32
  0
VERTEX
  5
14D
330
FA
100
AcDbEntity
  8
OracDecor_cornice_mouldings
 62
   121
420
 10085590
100
AcDbVertex
100
AcDb3dPolylineVertex
 10
-0.0000076293972597
 20
64.11421203613281
 30
-16.62300682067871
 70
    32
  0
VERTEX
  5
14E
330
FA
100
AcDbEntity
  8
OracDecor_cornice_mouldings
 62
   121
420
 10085590
100
AcDbVertex
100
AcDb3dPolylineVertex
 10
-0.0000076293940765
 20
66.16110229492187
 30
-16.28711700439453
 70
    32
  0
VERTEX
  5
14F
330
FA
100
AcDbEntity
  8
OracDecor_cornice_mouldings
 62
   121
420
 10085590
100
AcDbVertex
100
AcDb3dPolylineVertex
 10
-0.000007629393167
 20
68.21673583984375
 30
-16.02425384521484
 70
    32
  0
VERTEX
  5
150
330
FA
100
AcDbEntity
  8
OracDecor_cornice_mouldings
 62
   121
420
 10085590
100
AcDbVertex
100
AcDb3dPolylineVertex
 10
-0.0000076293963502
 20
70.27823638916015
 30
-15.83488845825195
 70
    32
  0
VERTEX
  5
151
330
FA
100
AcDbEntity
  8
OracDecor_cornice_mouldings
 62
   121
420
 10085590
100
AcDbVertex
100
AcDb3dPolylineVertex
 10
-0.0000076293954407
 20
72.34848022460937
 30
-15.71855640411377
 70
    32
  0
VERTEX
  5
152
330
FA
100
AcDbEntity
  8
OracDecor_cornice_mouldings
 62
   121
420
 10085590
100
AcDbVertex
100
AcDb3dPolylineVertex
 10
-0.0000076293972597
 20
74.42747497558594
 30
-15.67525196075439
 70
    32
  0
VERTEX
  5
153
330
FA
100
AcDbEntity
  8
OracDecor_cornice_mouldings
 62
   121
420
 10085590
100
AcDbVertex
100
AcDb3dPolylineVertex
 10
-0.0000076293963502
 20
74.52539825439453
 30
-15.68415927886963
 70
    32
  0
VERTEX
  5
154
330
FA
100
AcDbEntity
  8
OracDecor_cornice_mouldings
 62
   121
420
 10085590
100
AcDbVertex
100
AcDb3dPolylineVertex
 10
-0.0000076293954407
 20
74.61965179443359
 30
-15.71113109588623
 70
    32
  0
VERTEX
  5
155
330
FA
100
AcDbEntity
  8
OracDecor_cornice_mouldings
 62
   121
420
 10085590
100
AcDbVertex
100
AcDb3dPolylineVertex
 10
-0.0000076293954407
 20
74.70651245117188
 30
-15.75511646270752
 70
    32
  0
VERTEX
  5
156
330
FA
100
AcDbEntity
  8
OracDecor_cornice_mouldings
 62
   121
420
 10085590
100
AcDbVertex
100
AcDb3dPolylineVertex
 10
-0.0000076293972597
 20
74.78258514404297
 30
-15.81437397003174
 70
    32
  0
VERTEX
  5
157
330
FA
100
AcDbEntity
  8
OracDecor_cornice_mouldings
 62
   121
420
 10085590
100
AcDbVertex
100
AcDb3dPolylineVertex
 10
-0.0000076293940765
 20
78.54004669189453
 30
-19.38396453857422
 70
    32
  0
VERTEX
  5
158
330
FA
100
AcDbEntity
  8
OracDecor_cornice_mouldings
 62
   121
420
 10085590
100
AcDbVertex
100
AcDb3dPolylineVertex
 10
-0.0000076293940765
 20
79.03654479980469
 30
-19.7599983215332
 70
    32
  0
VERTEX
  5
159
330
FA
100
AcDbEntity
  8
OracDecor_cornice_mouldings
 62
   121
420
 10085590
100
AcDbVertex
100
AcDb3dPolylineVertex
 10
-0.0000076293940765
 20
79.94566345214844
 30
-20.17563247680664
 70
    32
  0
VERTEX
  5
15A
330
FA
100
AcDbEntity
  8
OracDecor_cornice_mouldings
 62
   121
420
 10085590
100
AcDbVertex
100
AcDb3dPolylineVertex
 10
-0.000007629393167
 20
80.9443588256836
 30
-20.3186149597168
 70
    32
  0
VERTEX
  5
15B
330
FA
100
AcDbEntity
  8
OracDecor_cornice_mouldings
 62
   121
420
 10085590
100
AcDbVertex
100
AcDb3dPolylineVertex
 10
-0.0000076293954407
 20
81.94269561767578
 30
-20.1756591796875
 70
    32
  0
VERTEX
  5
15C
330
FA
100
AcDbEntity
  8
OracDecor_cornice_mouldings
 62
   121
420
 10085590
100
AcDbVertex
100
AcDb3dPolylineVertex
 10
-0.0000076293963502
 20
82.85269165039062
 30
-19.75936126708984
 70
    32
  0
VERTEX
  5
15D
330
FA
100
AcDbEntity
  8
OracDecor_cornice_mouldings
 62
   121
420
 10085590
100
AcDbVertex
100
AcDb3dPolylineVertex
 10
-0.0000076293963502
 20
83.59313201904297
 30
-19.10667419433593
 70
    32
  0
VERTEX
  5
15E
330
FA
100
AcDbEntity
  8
OracDecor_cornice_mouldings
 62
   121
420
 10085590
100
AcDbVertex
100
AcDb3dPolylineVertex
 10
-0.0000076293940765
 20
84.07853698730468
 30
-18.33527374267578
 70
    32
  0
VERTEX
  5
15F
330
FA
100
AcDbEntity
  8
OracDecor_cornice_mouldings
 62
   121
420
 10085590
100
AcDbVertex
100
AcDb3dPolylineVertex
 10
-0.0000076293963502
 20
84.22835540771485
 30
-17.93599319458008
 70
    32
  0
VERTEX
  5
160
330
FA
100
AcDbEntity
  8
OracDecor_cornice_mouldings
 62
   121
420
 10085590
100
AcDbVertex
100
AcDb3dPolylineVertex
 10
-0.0000076293940765
 20
84.90074920654297
 30
-15.55206871032715
 70
    32
  0
VERTEX
  5
161
330
FA
100
AcDbEntity
  8
OracDecor_cornice_mouldings
 62
   121
420
 10085590
100
AcDbVertex
100
AcDb3dPolylineVertex
 10
-0.0000076293954407
 20
84.96800994873046
 30
-15.41107559204101
 70
    32
  0
VERTEX
  5
162
330
FA
100
AcDbEntity
  8
OracDecor_cornice_mouldings
 62
   121
420
 10085590
100
AcDbVertex
100
AcDb3dPolylineVertex
 10
-0.0000076293940765
 20
85.07933807373047
 30
-15.29817581176757
 70
    32
  0
VERTEX
  5
163
330
FA
100
AcDbEntity
  8
OracDecor_cornice_mouldings
 62
   121
420
 10085590
100
AcDbVertex
100
AcDb3dPolylineVertex
 10
-0.0000076293940765
 20
85.22294616699218
 30
-15.22523880004882
 70
    32
  0
VERTEX
  5
164
330
FA
100
AcDbEntity
  8
OracDecor_cornice_mouldings
 62
   121
420
 10085590
100
AcDbVertex
100
AcDb3dPolylineVertex
 10
-0.0000076293963502
 20
85.38370513916015
 30
-15.20000839233398
 70
    32
  0
VERTEX
  5
165
330
FA
100
AcDbEntity
  8
OracDecor_cornice_mouldings
 62
   121
420
 10085590
100
AcDbVertex
100
AcDb3dPolylineVertex
 10
-0.0000076293963502
 20
88.50004577636719
 30
-15.20000839233398
 70
    32
  0
VERTEX
  5
166
330
FA
100
AcDbEntity
  8
OracDecor_cornice_mouldings
 62
   121
420
 10085590
100
AcDbVertex
100
AcDb3dPolylineVertex
 10
-0.0000076293954407
 20
88.65459442138671
 30
-15.17674255371094
 70
    32
  0
VERTEX
  5
167
330
FA
100
AcDbEntity
  8
OracDecor_cornice_mouldings
 62
   121
420
 10085590
100
AcDbVertex
100
AcDb3dPolylineVertex
 10
-0.0000076293963502
 20
88.79395294189453
 30
-15.10927200317382
 70
    32
  0
VERTEX
  5
168
330
FA
100
AcDbEntity
  8
OracDecor_cornice_mouldings
 62
   121
420
 10085590
100
AcDbVertex
100
AcDb3dPolylineVertex
 10
-0.0000076293954407
 20
88.90453338623046
 30
-15.00421524047851
 70
    32
  0
VERTEX
  5
169
330
FA
100
AcDbEntity
  8
OracDecor_cornice_mouldings
 62
   121
420
 10085590
100
AcDbVertex
100
AcDb3dPolylineVertex
 10
-0.0000076293963502
 20
88.97555541992188
 30
-14.87182807922363
 70
    32
  0
VERTEX
  5
16A
330
FA
100
AcDbEntity
  8
OracDecor_cornice_mouldings
 62
   121
420
 10085590
100
AcDbVertex
100
AcDb3dPolylineVertex
 10
-0.0000076293963502
 20
89.00004577636719
 30
-14.72500801086425
 70
    32
  0
VERTEX
  5
16B
330
FA
100
AcDbEntity
  8
OracDecor_cornice_mouldings
 62
   121
420
 10085590
100
AcDbVertex
100
AcDb3dPolylineVertex
 10
-0.0000076293940765
 20
89.00004577636719
 30
-11.87500762939453
 70
    32
  0
VERTEX
  5
16C
330
FA
100
AcDbEntity
  8
OracDecor_cornice_mouldings
 62
   121
420
 10085590
100
AcDbVertex
100
AcDb3dPolylineVertex
 10
-0.000007629393167
 20
89.02453613281251
 30
-11.72818756103515
 70
    32
  0
VERTEX
  5
16D
330
FA
100
AcDbEntity
  8
OracDecor_cornice_mouldings
 62
   121
420
 10085590
100
AcDbVertex
100
AcDb3dPolylineVertex
 10
-0.0000076293963502
 20
89.0955581665039
 30
-11.59579849243164
 70
    32
  0
VERTEX
  5
16E
330
FA
100
AcDbEntity
  8
OracDecor_cornice_mouldings
 62
   121
420
 10085590
100
AcDbVertex
100
AcDb3dPolylineVertex
 10
-0.0000076293940765
 20
89.20613861083984
 30
-11.49074554443359
 70
    32
  0
VERTEX
  5
16F
330
FA
100
AcDbEntity
  8
OracDecor_cornice_mouldings
 62
   121
420
 10085590
100
AcDbVertex
100
AcDb3dPolylineVertex
 10
-0.0000076293954407
 20
89.34549713134765
 30
-11.42327308654785
 70
    32
  0
VERTEX
  5
170
330
FA
100
AcDbEntity
  8
OracDecor_cornice_mouldings
 62
   121
420
 10085590
100
AcDbVertex
100
AcDb3dPolylineVertex
 10
-0.0000076293954407
 20
89.50004577636718
 30
-11.4000072479248
 70
    32
  0
VERTEX
  5
171
330
FA
100
AcDbEntity
  8
OracDecor_cornice_mouldings
 62
   121
420
 10085590
100
AcDbVertex
100
AcDb3dPolylineVertex
 10
-0.0000076293954407
 20
92.51673126220703
 30
-11.4000072479248
 70
    32
  0
VERTEX
  5
172
330
FA
100
AcDbEntity
  8
OracDecor_cornice_mouldings
 62
   121
420
 10085590
100
AcDbVertex
100
AcDb3dPolylineVertex
 10
-0.0000076293954407
 20
92.7003402709961
 30
-11.3668212890625
 70
    32
  0
VERTEX
  5
173
330
FA
100
AcDbEntity
  8
OracDecor_cornice_mouldings
 62
   121
420
 10085590
100
AcDbVertex
100
AcDb3dPolylineVertex
 10
-0.0000076293954407
 20
92.85829925537109
 30
-11.27190113067627
 70
    32
  0
VERTEX
  5
174
330
FA
100
AcDbEntity
  8
OracDecor_cornice_mouldings
 62
   121
420
 10085590
100
AcDbVertex
100
AcDb3dPolylineVertex
 10
-0.0000076293954407
 20
92.96852111816406
 30
-11.12850666046142
 70
    32
  0
VERTEX
  5
175
330
FA
100
AcDbEntity
  8
OracDecor_cornice_mouldings
 62
   121
420
 10085590
100
AcDbVertex
100
AcDb3dPolylineVertex
 10
-0.0000076293954407
 20
93.01561737060547
 30
-10.95667743682861
 70
    32
  0
VERTEX
  5
176
330
FA
100
AcDbEntity
  8
OracDecor_cornice_mouldings
 62
   121
420
 10085590
100
AcDbVertex
100
AcDb3dPolylineVertex
 10
-0.0000076293954407
 20
93.10022735595703
 30
-10.27899265289306
 70
    32
  0
VERTEX
  5
177
330
FA
100
AcDbEntity
  8
OracDecor_cornice_mouldings
 62
   121
420
 10085590
100
AcDbVertex
100
AcDb3dPolylineVertex
 10
-0.0000076293954407
 20
93.37081146240235
 30
-9.29237937927246
 70
    32
  0
VERTEX
  5
178
330
FA
100
AcDbEntity
  8
OracDecor_cornice_mouldings
 62
   121
420
 10085590
100
AcDbVertex
100
AcDb3dPolylineVertex
 10
-0.0000076293954407
 20
93.96302795410155
 30
-8.051527976989746
 70
    32
  0
VERTEX
  5
179
330
FA
100
AcDbEntity
  8
OracDecor_cornice_mouldings
 62
   121
420
 10085590
100
AcDbVertex
100
AcDb3dPolylineVertex
 10
-0.0000076293954407
 20
94.80941772460937
 30
-6.951530933380126
 70
    32
  0
VERTEX
  5
17A
330
FA
100
AcDbEntity
  8
OracDecor_cornice_mouldings
 62
   121
420
 10085590
100
AcDbVertex
100
AcDb3dPolylineVertex
 10
-0.0000076293954407
 20
95.87446594238281
 30
-6.038681983947753
 70
    32
  0
VERTEX
  5
17B
330
FA
100
AcDbEntity
  8
OracDecor_cornice_mouldings
 62
   121
420
 10085590
100
AcDbVertex
100
AcDb3dPolylineVertex
 10
-0.0000076293954407
 20
97.11318969726562
 30
-5.351605415344238
 70
    32
  0
VERTEX
  5
17C
330
FA
100
AcDbEntity
  8
OracDecor_cornice_mouldings
 62
   121
420
 10085590
100
AcDbVertex
100
AcDb3dPolylineVertex
 10
-0.0000076293954407
 20
98.47146606445313
 30
-4.919421195983886
 70
    32
  0
VERTEX
  5
17D
330
FA
100
AcDbEntity
  8
OracDecor_cornice_mouldings
 62
   121
420
 10085590
100
AcDbVertex
100
AcDb3dPolylineVertex
 10
-0.0000076293954407
 20
99.53337860107422
 30
-4.764801979064941
 70
    32
  0
VERTEX
  5
17E
330
FA
100
AcDbEntity
  8
OracDecor_cornice_mouldings
 62
   121
420
 10085590
100
AcDbVertex
100
AcDb3dPolylineVertex
 10
-0.0000076293954407
 20
99.7142562866211
 30
-4.720063209533691
 70
    32
  0
VERTEX
  5
17F
330
FA
100
AcDbEntity
  8
OracDecor_cornice_mouldings
 62
   121
420
 10085590
100
AcDbVertex
100
AcDb3dPolylineVertex
 10
-0.0000076293954407
 20
99.86519622802735
 30
-4.615345954895019
 70
    32
  0
VERTEX
  5
180
330
FA
100
AcDbEntity
  8
OracDecor_cornice_mouldings
 62
   121
420
 10085590
100
AcDbVertex
100
AcDb3dPolylineVertex
 10
-0.0000076293954407
 20
99.9651107788086
 30
-4.465291023254394
 70
    32
  0
VERTEX
  5
181
330
FA
100
AcDbEntity
  8
OracDecor_cornice_mouldings
 62
   121
420
 10085590
100
AcDbVertex
100
AcDb3dPolylineVertex
 10
-0.0000076293954407
 20
100.0000457763672
 30
-4.290860176086425
 70
    32
  0
VERTEX
  5
182
330
FA
100
AcDbEntity
  8
OracDecor_cornice_mouldings
 62
   121
420
 10085590
100
AcDbVertex
100
AcDb3dPolylineVertex
 10
-0.0000076293954407
 20
100.0000457763672
 30
-0.0000087422813522
 70
    32
  0
VERTEX
  5
183
330
FA
100
AcDbEntity
  8
OracDecor_cornice_mouldings
 62
   121
420
 10085590
100
AcDbVertex
100
AcDb3dPolylineVertex
 10
-0.0000076293940765
 20
92.59812164306641
 30
-0.0000080951849668
 70
    32
  0
VERTEX
  5
184
330
FA
100
AcDbEntity
  8
OracDecor_cornice_mouldings
 62
   121
420
 10085590
100
AcDbVertex
100
AcDb3dPolylineVertex
 10
-0.0000076293963502
 20
90.00004577636719
 30
-1.425007104873657
 70
    32
  0
VERTEX
  5
185
330
FA
100
AcDbEntity
  8
OracDecor_cornice_mouldings
 62
   121
420
 10085590
100
AcDbVertex
100
AcDb3dPolylineVertex
 10
-0.0000076293940765
 20
87.40196990966797
 30
-0.0000076409232861
 70
    32
  0
VERTEX
  5
186
330
FA
100
AcDbEntity
  8
OracDecor_cornice_mouldings
 62
   121
420
 10085590
100
AcDbVertex
100
AcDb3dPolylineVertex
 10
-0.0000076293954407
 20
82.00004577636718
 30
-0.0000071686718002
 70
    32
  0
VERTEX
  5
187
330
FA
100
AcDbEntity
  8
OracDecor_cornice_mouldings
 62
   121
420
 10085590
100
AcDbVertex
100
AcDb3dPolylineVertex
 10
-0.0000076293954407
 20
74.2525634765625
 30
-6.175868034362792
 70
    32
  0
VERTEX
  5
188
330
FA
100
AcDbEntity
  8
OracDecor_cornice_mouldings
 62
   121
420
 10085590
100
AcDbVertex
100
AcDb3dPolylineVertex
 10
-0.0000076293963502
 20
70.91542816162109
 30
-6.28236436843872
 70
    32
  0
VERTEX
  5
189
330
FA
100
AcDbEntity
  8
OracDecor_cornice_mouldings
 62
   121
420
 10085590
100
AcDbVertex
100
AcDb3dPolylineVertex
 10
-0.000007629393167
 20
66.4835205078125
 30
-6.6628999710083
 70
    32
  0
VERTEX
  5
18A
330
FA
100
AcDbEntity
  8
OracDecor_cornice_mouldings
 62
   121
420
 10085590
100
AcDbVertex
100
AcDb3dPolylineVertex
 10
-0.0000076293972597
 20
62.0883903503418
 30
-7.328139305114746
 70
    32
  0
VERTEX
  5
18B
330
FA
100
AcDbEntity
  8
OracDecor_cornice_mouldings
 62
   121
420
 10085590
100
AcDbVertex
100
AcDb3dPolylineVertex
 10
-0.0000076293954407
 20
57.75086212158203
 30
-8.274998664855957
 70
    32
  0
VERTEX
  5
18C
330
FA
100
AcDbEntity
  8
OracDecor_cornice_mouldings
 62
   121
420
 10085590
100
AcDbVertex
100
AcDb3dPolylineVertex
 10
-0.0000076293963502
 20
53.49090576171875
 30
-9.499122619628906
 70
    32
  0
VERTEX
  5
18D
330
FA
100
AcDbEntity
  8
OracDecor_cornice_mouldings
 62
   121
420
 10085590
100
AcDbVertex
100
AcDb3dPolylineVertex
 10
-0.0000076293954407
 20
49.32814025878906
 30
-10.99487113952636
 70
    32
  0
VERTEX
  5
18E
330
FA
100
AcDbEntity
  8
OracDecor_cornice_mouldings
 62
   121
420
 10085590
100
AcDbVertex
100
AcDb3dPolylineVertex
 10
-0.0000076293954407
 20
45.2817268371582
 30
-12.7553596496582
 70
    32
  0
VERTEX
  5
18F
330
FA
100
AcDbEntity
  8
OracDecor_cornice_mouldings
 62
   121
420
 10085590
100
AcDbVertex
100
AcDb3dPolylineVertex
 10
-0.0000000000000924
 20
41.37030029296875
 30
-14.77248382568359
 70
    32
  0
VERTEX
  5
190
330
FA
100
AcDbEntity
  8
OracDecor_cornice_mouldings
 62
   121
420
 10085590
100
AcDbVertex
100
AcDb3dPolylineVertex
 10
-0.0000000000000924
 20
37.61186218261719
 30
-17.03695678710937
 70
    32
  0
VERTEX
  5
191
330
FA
100
AcDbEntity
  8
OracDecor_cornice_mouldings
 62
   121
420
 10085590
100
AcDbVertex
100
AcDb3dPolylineVertex
 10
-0.0000000000000924
 20
34.02372741699219
 30
-19.53835296630859
 70
    32
  0
VERTEX
  5
192
330
FA
100
AcDbEntity
  8
OracDecor_cornice_mouldings
 62
   121
420
 10085590
100
AcDbVertex
100
AcDb3dPolylineVertex
 10
-0.0000000000000924
 20
30.62240600585937
 30
-22.26514625549317
 70
    32
  0
VERTEX
  5
193
330
FA
100
AcDbEntity
  8
OracDecor_cornice_mouldings
 62
   121
420
 10085590
100
AcDbVertex
100
AcDb3dPolylineVertex
 10
-0.0000000000000924
 20
27.42356872558594
 30
-25.20479583740235
 70
    32
  0
VERTEX
  5
194
330
FA
100
AcDbEntity
  8
OracDecor_cornice_mouldings
 62
   121
420
 10085590
100
AcDbVertex
100
AcDb3dPolylineVertex
 10
-0.0000000000000924
 20
24.44194030761719
 30
-28.34375762939453
 70
    32
  0
VERTEX
  5
195
330
FA
100
AcDbEntity
  8
OracDecor_cornice_mouldings
 62
   121
420
 10085590
100
AcDbVertex
100
AcDb3dPolylineVertex
 10
-0.0000000000000924
 20
21.69124984741211
 30
-31.66757965087891
 70
    32
  0
VERTEX
  5
196
330
FA
100
AcDbEntity
  8
OracDecor_cornice_mouldings
 62
   121
420
 10085590
100
AcDbVertex
100
AcDb3dPolylineVertex
 10
-0.0000000000000924
 20
19.18415641784668
 30
-35.16096115112305
 70
    32
  0
VERTEX
  5
197
330
FA
100
AcDbEntity
  8
OracDecor_cornice_mouldings
 62
   121
420
 10085590
100
AcDbVertex
100
AcDb3dPolylineVertex
 10
-0.0000000000000924
 20
16.93221282958984
 30
-38.80781555175781
 70
    32
  0
VERTEX
  5
198
330
FA
100
AcDbEntity
  8
OracDecor_cornice_mouldings
 62
   121
420
 10085590
100
AcDbVertex
100
AcDb3dPolylineVertex
 10
-0.0000000000000924
 20
14.94577980041504
 30
-42.59135437011718
 70
    32
  0
VERTEX
  5
199
330
FA
100
AcDbEntity
  8
OracDecor_cornice_mouldings
 62
   121
420
 10085590
100
AcDbVertex
100
AcDb3dPolylineVertex
 10
-0.0000000000000924
 20
13.23400497436523
 30
-46.49414825439452
 70
    32
  0
VERTEX
  5
19A
330
FA
100
AcDbEntity
  8
OracDecor_cornice_mouldings
 62
   121
420
 10085590
100
AcDbVertex
100
AcDb3dPolylineVertex
 10
-0.0000000000000924
 20
11.80476665496826
 30
-50.49823760986328
 70
    32
  0
VERTEX
  5
19B
330
FA
100
AcDbEntity
  8
OracDecor_cornice_mouldings
 62
   121
420
 10085590
100
AcDbVertex
100
AcDb3dPolylineVertex
 10
-0.0000000000000924
 20
10.66476917266846
 30
-54.58464050292969
 70
    32
  0
VERTEX
  5
19C
330
FA
100
AcDbEntity
  8
OracDecor_cornice_mouldings
 62
   121
420
 10085590
100
AcDbVertex
100
AcDb3dPolylineVertex
 10
-0.0000000000000924
 20
9.993191719055175
 30
-57.6918830871582
 70
    32
  0
VERTEX
  5
19D
330
FA
100
AcDbEntity
  8
OracDecor_cornice_mouldings
 62
   121
420
 10085590
100
AcDbVertex
100
AcDb3dPolylineVertex
 10
-0.0000000000000924
 20
0.000041758568841
 30
-71.25
 70
    32
  0
VERTEX
  5
19E
330
FA
100
AcDbEntity
  8
OracDecor_cornice_mouldings
 62
   121
420
 10085590
100
AcDbVertex
100
AcDb3dPolylineVertex
 10
-0.0000000000000924
 20
0.0000411438268202
 30
-78.28182983398438
 70
    32
  0
VERTEX
  5
19F
330
FA
100
AcDbEntity
  8
OracDecor_cornice_mouldings
 62
   121
420
 10085590
100
AcDbVertex
100
AcDb3dPolylineVertex
 10
-0.0000000000000924
 20
1.500041007995605
 30
-80.75000000000001
 70
    32
  0
SEQEND
  5
1A0
330
FA
100
AcDbEntity
  8
OracDecor_cornice_mouldings
 62
   121
420
 10085590
  0
ENDSEC
  0
SECTION
  2
OBJECTS
  0
DICTIONARY
  5
C
330
0
100
AcDbDictionary
281
     1
  3
ACAD_COLOR
350
DC
  3
ACAD_DETAILVIEWSTYLE
350
F5
  3
ACAD_GROUP
350
D
  3
ACAD_LAYOUT
350
1A
  3
ACAD_MATERIAL
350
AA
  3
ACAD_MLEADERSTYLE
350
F1
  3
ACAD_MLINESTYLE
350
17
  3
ACAD_PLOTSETTINGS
350
19
  3
ACAD_PLOTSTYLENAME
350
E
  3
ACAD_SCALELIST
350
DF
  3
ACAD_SECTIONVIEWSTYLE
350
F3
  3
ACAD_TABLESTYLE
350
DD
  3
ACAD_VISUALSTYLE
350
C3
  3
ACDB_RECOMPOSE_DATA
350
1AD
  3
AcDbVariableDictionary
350
1A1
  0
DICTIONARY
  5
DC
102
{ACAD_REACTORS
330
C
102
}
330
C
100
AcDbDictionary
281
     1
  0
DICTIONARY
  5
F5
102
{ACAD_REACTORS
330
C
102
}
330
C
100
AcDbDictionary
281
     1
  3
Imperial24
350
F6
  0
DICTIONARY
  5
D
102
{ACAD_REACTORS
330
C
102
}
330
C
100
AcDbDictionary
281
     1
  0
DICTIONARY
  5
1A
102
{ACAD_REACTORS
330
C
102
}
330
C
100
AcDbDictionary
281
     1
  3
Layout1
350
1E
  3
Layout2
350
26
  3
Model
350
22
  0
DICTIONARY
  5
AA
102
{ACAD_REACTORS
330
C
102
}
330
C
100
AcDbDictionary
281
     1
  3
ByBlock
350
B3
  3
ByLayer
350
AB
  3
Global
350
BB
  0
DICTIONARY
  5
F1
102
{ACAD_REACTORS
330
C
102
}
330
C
100
AcDbDictionary
281
     1
  3
Standard
350
F2
  0
DICTIONARY
  5
17
102
{ACAD_REACTORS
330
C
102
}
330
C
100
AcDbDictionary
281
     1
  3
Standard
350
18
  0
DICTIONARY
  5
19
102
{ACAD_REACTORS
330
C
102
}
330
C
100
AcDbDictionary
281
     1
  0
ACDBDICTIONARYWDFLT
  5
E
102
{ACAD_REACTORS
330
C
102
}
330
C
100
AcDbDictionary
281
     1
  3
ByLayer
350
2D
  3
Normal
350
F
100
AcDbDictionaryWithDefault
340
F
  0
DICTIONARY
  5
DF
102
{ACAD_REACTORS
330
C
102
}
330
C
100
AcDbDictionary
281
     1
  3
A0
350
E0
  3
A1
350
E1
  3
A2
350
E2
  3
A3
350
E3
  3
A4
350
E4
  3
A5
350
E5
  3
A6
350
E6
  3
A7
350
E7
  3
A8
350
E8
  3
A9
350
E9
  3
B0
350
EA
  3
B1
350
EB
  3
B2
350
EC
  3
B3
350
ED
  3
B4
350
EE
  3
B5
350
EF
  3
B6
350
F0
  0
DICTIONARY
  5
F3
102
{ACAD_REACTORS
330
C
102
}
330
C
100
AcDbDictionary
281
     1
  3
Imperial24
350
F4
  0
DICTIONARY
  5
DD
102
{ACAD_REACTORS
330
C
102
}
330
C
100
AcDbDictionary
281
     1
  3
Standard
350
DE
  0
DICTIONARY
  5
C3
102
{ACAD_REACTORS
330
C
102
}
330
C
100
AcDbDictionary
281
     1
  3
2dWireframe
350
C9
  3
Basic
350
C8
  3
Brighten
350
CF
  3
ColorChange
350
D3
  3
Conceptual
350
CC
  3
Dim
350
CE
  3
EdgeColorOff
350
DB
  3
Facepattern
350
D2
  3
Flat
350
C4
  3
FlatWithEdges
350
C5
  3
Gouraud
350
C6
  3
GouraudWithEdges
350
C7
  3
Hidden
350
CB
  3
JitterOff
350
D9
  3
Linepattern
350
D1
  3
OverhangOff
350
DA
  3
Realistic
350
CD
  3
Shaded
350
D8
  3
Shaded with edges
350
D7
  3
Shades of Gray
350
D4
  3
Sketchy
350
D5
  3
Thicken
350
D0
  3
Wireframe
350
CA
  3
X-Ray
350
D6
  0
XRECORD
  5
1AD
102
{ACAD_REACTORS
330
C
102
}
330
C
100
AcDbXrecord
280
     1
 90
        1
330
DE
  0
DICTIONARY
  5
1A1
102
{ACAD_REACTORS
330
C
102
}
330
C
100
AcDbDictionary
281
     1
  3
CANNOSCALE
350
1A7
  3
CMLEADERSTYLE
350
1A3
  3
CTABLESTYLE
350
1A2
  3
CVIEWDETAILSTYLE
350
1A4
  3
CVIEWSECTIONSTYLE
350
1A5
  3
LAYEREVAL
350
1A9
  3
LAYERNOTIFY
350
1AA
  3
LIGHTINGUNITS
350
1A8
  3
MSLTSCALE
350
1A6
  0
ACDBDETAILVIEWSTYLE
  5
F6
102
{ACAD_XDICTIONARY
360
1E2
102
}
102
{ACAD_REACTORS
330
F5
102
}
330
F5
100
AcDbModelDocViewStyle
 70
     0
  3
Imperial24
290
     0
100
AcDbDetailViewStyle
 70
     0
 71
     0
 90
        3
 71
     1
340
11
 62
   256
 40
0.24
340
0
 62
   256
 40
0.24
300

 40
0.36
280
     3
 71
     2
340
16
 90
       25
 62
   256
 71
     3
340
11
 62
   256
 40
0.24
 90
        1
 40
0.75
 90
        1
300
%<\AcVar ViewType \f "%tc1">% %<\AcVar ViewDetailId>%\PSCALE %<\AcVar ViewScale \f "%sn">%
 71
     4
340
16
 90
       25
 62
   256
340
16
 90
       25
 62
   256
280
     0
  0
LAYOUT
  5
1E
102
{ACAD_REACTORS
330
1A
102
}
330
1A
100
AcDbPlotSettings
  1

  2
\\KTXNTBDC\CASF2PN1
  4

  6

 40
0.0
 41
0.0
 42
0.0
 43
0.0
 44
0.0
 45
0.0
 46
0.0
 47
0.0
 48
0.0
 49
0.0
140
0.0
141
0.0
142
1.0
143
1.0
 70
   688
 72
     0
 73
     0
 74
     5
  7

 75
    16
147
1.0
 76
     0
 77
     2
 78
   300
148
0.0
149
0.0
100
AcDbLayout
  1
Layout1
 70
     1
 71
     1
 10
0.0
 20
0.0
 11
12.0
 21
9.0
 12
0.0
 22
0.0
 32
0.0
 14
1.000000000000000E+20
 24
1.000000000000000E+20
 34
1.000000000000000E+20
 15
-1.000000000000000E+20
 25
-1.000000000000000E+20
 35
-1.000000000000000E+20
146
0.0
 13
0.0
 23
0.0
 33
0.0
 16
1.0
 26
0.0
 36
0.0
 17
0.0
 27
1.0
 37
0.0
 76
     0
330
1B
  0
LAYOUT
  5
26
102
{ACAD_REACTORS
330
1A
102
}
330
1A
100
AcDbPlotSettings
  1

  2
\\KTXNTBDC\CASF2PN1
  4

  6

 40
0.0
 41
0.0
 42
0.0
 43
0.0
 44
0.0
 45
0.0
 46
0.0
 47
0.0
 48
0.0
 49
0.0
140
0.0
141
0.0
142
1.0
143
1.0
 70
   688
 72
     0
 73
     0
 74
     5
  7

 75
    16
147
1.0
 76
     0
 77
     2
 78
   300
148
0.0
149
0.0
100
AcDbLayout
  1
Layout2
 70
     1
 71
     2
 10
0.0
 20
0.0
 11
12.0
 21
9.0
 12
0.0
 22
0.0
 32
0.0
 14
0.0
 24
0.0
 34
0.0
 15
0.0
 25
0.0
 35
0.0
146
0.0
 13
0.0
 23
0.0
 33
0.0
 16
1.0
 26
0.0
 36
0.0
 17
0.0
 27
1.0
 37
0.0
 76
     0
330
23
  0
LAYOUT
  5
22
102
{ACAD_REACTORS
330
1A
102
}
330
1A
100
AcDbPlotSettings
  1

  2
\\KTXNTBDC\CASF2PN1
  4

  6

 40
0.0
 41
0.0
 42
0.0
 43
0.0
 44
0.0
 45
0.0
 46
0.0
 47
0.0
 48
0.0
 49
0.0
140
0.0
141
0.0
142
1.0
143
1.0
 70
  1712
 72
     0
 73
     0
 74
     0
  7

 75
     0
147
1.0
 76
     0
 77
     2
 78
   300
148
0.0
149
0.0
100
AcDbLayout
  1
Model
 70
     1
 71
     0
 10
0.0
 20
0.0
 11
12.0
 21
9.0
 12
0.0
 22
0.0
 32
0.0
 14
0.0
 24
0.0
 34
0.0
 15
0.0
 25
0.0
 35
0.0
146
0.0
 13
0.0
 23
0.0
 33
0.0
 16
1.0
 26
0.0
 36
0.0
 17
0.0
 27
1.0
 37
0.0
 76
     0
330
1F
  0
MATERIAL
  5
B3
102
{ACAD_XDICTIONARY
360
B4
102
}
102
{ACAD_REACTORS
330
AA
102
}
330
AA
100
AcDbMaterial
  1
ByBlock
 72
     0
 43
0.0208333333333333
 43
0.0
 43
0.0
 43
0.0
 43
0.0
 43
0.0208333333333333
 43
0.0
 43
0.0
 43
0.0
 43
0.0
 43
1.0
 43
0.0
 43
0.0
 43
0.0
 43
0.0
 43
1.0
 77
     0
 47
0.0208333333333333
 47
0.0
 47
0.0
 47
0.0
 47
0.0
 47
0.0208333333333333
 47
0.0
 47
0.0
 47
0.0
 47
0.0
 47
1.0
 47
0.0
 47
0.0
 47
0.0
 47
0.0
 47
1.0
171
     0
 49
0.0208333333333333
 49
0.0
 49
0.0
 49
0.0
 49
0.0
 49
0.0208333333333333
 49
0.0
 49
0.0
 49
0.0
 49
0.0
 49
1.0
 49
0.0
 49
0.0
 49
0.0
 49
0.0
 49
1.0
175
     0
142
0.0208333333333333
142
0.0
142
0.0
142
0.0
142
0.0
142
0.0208333333333333
142
0.0
142
0.0
142
0.0
142
0.0
142
1.0
142
0.0
142
0.0
142
0.0
142
0.0
142
1.0
179
     0
144
0.0208333333333333
144
0.0
144
0.0
144
0.0
144
0.0
144
0.0208333333333333
144
0.0
144
0.0
144
0.0
144
0.0
144
1.0
144
0.0
144
0.0
144
0.0
144
0.0
144
1.0
147
0.0208333333333333
147
0.0
147
0.0
147
0.0
147
0.0
147
0.0208333333333333
147
0.0
147
0.0
147
0.0
147
0.0
147
1.0
147
0.0
147
0.0
147
0.0
147
0.0
147
1.0
  0
MATERIAL
  5
AB
102
{ACAD_XDICTIONARY
360
AC
102
}
102
{ACAD_REACTORS
330
AA
102
}
330
AA
100
AcDbMaterial
  1
ByLayer
 72
     0
 43
0.0208333333333333
 43
0.0
 43
0.0
 43
0.0
 43
0.0
 43
0.0208333333333333
 43
0.0
 43
0.0
 43
0.0
 43
0.0
 43
1.0
 43
0.0
 43
0.0
 43
0.0
 43
0.0
 43
1.0
 77
     0
 47
0.0208333333333333
 47
0.0
 47
0.0
 47
0.0
 47
0.0
 47
0.0208333333333333
 47
0.0
 47
0.0
 47
0.0
 47
0.0
 47
1.0
 47
0.0
 47
0.0
 47
0.0
 47
0.0
 47
1.0
171
     0
 49
0.0208333333333333
 49
0.0
 49
0.0
 49
0.0
 49
0.0
 49
0.0208333333333333
 49
0.0
 49
0.0
 49
0.0
 49
0.0
 49
1.0
 49
0.0
 49
0.0
 49
0.0
 49
0.0
 49
1.0
175
     0
142
0.0208333333333333
142
0.0
142
0.0
142
0.0
142
0.0
142
0.0208333333333333
142
0.0
142
0.0
142
0.0
142
0.0
142
1.0
142
0.0
142
0.0
142
0.0
142
0.0
142
1.0
179
     0
144
0.0208333333333333
144
0.0
144
0.0
144
0.0
144
0.0
144
0.0208333333333333
144
0.0
144
0.0
144
0.0
144
0.0
144
1.0
144
0.0
144
0.0
144
0.0
144
0.0
144
1.0
147
0.0208333333333333
147
0.0
147
0.0
147
0.0
147
0.0
147
0.0208333333333333
147
0.0
147
0.0
147
0.0
147
0.0
147
1.0
147
0.0
147
0.0
147
0.0
147
0.0
147
1.0
  0
MATERIAL
  5
BB
102
{ACAD_XDICTIONARY
360
BC
102
}
102
{ACAD_REACTORS
330
AA
102
}
330
AA
100
AcDbMaterial
  1
Global
 72
     0
 43
0.0208333333333333
 43
0.0
 43
0.0
 43
0.0
 43
0.0
 43
0.0208333333333333
 43
0.0
 43
0.0
 43
0.0
 43
0.0
 43
1.0
 43
0.0
 43
0.0
 43
0.0
 43
0.0
 43
1.0
 77
     0
 47
0.0208333333333333
 47
0.0
 47
0.0
 47
0.0
 47
0.0
 47
0.0208333333333333
 47
0.0
 47
0.0
 47
0.0
 47
0.0
 47
1.0
 47
0.0
 47
0.0
 47
0.0
 47
0.0
 47
1.0
171
     0
 49
0.0208333333333333
 49
0.0
 49
0.0
 49
0.0
 49
0.0
 49
0.0208333333333333
 49
0.0
 49
0.0
 49
0.0
 49
0.0
 49
1.0
 49
0.0
 49
0.0
 49
0.0
 49
0.0
 49
1.0
175
     0
142
0.0208333333333333
142
0.0
142
0.0
142
0.0
142
0.0
142
0.0208333333333333
142
0.0
142
0.0
142
0.0
142
0.0
142
1.0
142
0.0
142
0.0
142
0.0
142
0.0
142
1.0
179
     0
144
0.0208333333333333
144
0.0
144
0.0
144
0.0
144
0.0
144
0.0208333333333333
144
0.0
144
0.0
144
0.0
144
0.0
144
1.0
144
0.0
144
0.0
144
0.0
144
0.0
144
1.0
147
0.0208333333333333
147
0.0
147
0.0
147
0.0
147
0.0
147
0.0208333333333333
147
0.0
147
0.0
147
0.0
147
0.0
147
1.0
147
0.0
147
0.0
147
0.0
147
0.0
147
1.0
  0
MLEADERSTYLE
  5
F2
102
{ACAD_XDICTIONARY
360
1DE
102
}
102
{ACAD_REACTORS
330
F1
102
}
330
F1
100
AcDbMLeaderStyle
179
     2
170
     2
171
     1
172
     0
 90
        2
 40
0.0
 41
0.0
173
     1
 91
-1056964608
340
14
 92
       -2
290
     1
 42
0.09
291
     1
 43
0.36
  3
Standard
 44
0.18
300

342
11
174
     1
178
     6
175
     1
176
     0
 93
-1056964608
 45
0.18
292
     0
297
     0
 46
0.18
 94
-1056964608
 47
1.0
 49
1.0
140
1.0
293
     1
141
0.0
294
     1
177
     0
142
1.0
295
     0
296
     0
143
0.125
271
     0
272
     9
273
     9
  0
MLINESTYLE
  5
18
102
{ACAD_REACTORS
330
17
102
}
330
17
100
AcDbMlineStyle
  2
STANDARD
 70
     0
  3

 62
   256
 51
90.0
 52
90.0
 71
     2
 49
0.5
 62
   256
  6
BYLAYER
 49
-0.5
 62
   256
  6
BYLAYER
  0
ACDBPLACEHOLDER
  5
2D
102
{ACAD_REACTORS
330
E
102
}
330
E
  0
ACDBPLACEHOLDER
  5
F
102
{ACAD_REACTORS
330
E
102
}
330
E
  0
SCALE
  5
E0
102
{ACAD_REACTORS
330
DF
102
}
330
DF
100
AcDbScale
 70
     0
300
1:1
140
1.0
141
1.0
290
     1
  0
SCALE
  5
E1
102
{ACAD_REACTORS
330
DF
102
}
330
DF
100
AcDbScale
 70
     0
300
1/128" = 1'-0"
140
0.0078125
141
12.0
290
     0
  0
SCALE
  5
E2
102
{ACAD_REACTORS
330
DF
102
}
330
DF
100
AcDbScale
 70
     0
300
1/64" = 1'-0"
140
0.015625
141
12.0
290
     0
  0
SCALE
  5
E3
102
{ACAD_REACTORS
330
DF
102
}
330
DF
100
AcDbScale
 70
     0
300
1/32" = 1'-0"
140
0.03125
141
12.0
290
     0
  0
SCALE
  5
E4
102
{ACAD_REACTORS
330
DF
102
}
330
DF
100
AcDbScale
 70
     0
300
1/16" = 1'-0"
140
0.0625
141
12.0
290
     0
  0
SCALE
  5
E5
102
{ACAD_REACTORS
330
DF
102
}
330
DF
100
AcDbScale
 70
     0
300
3/32" = 1'-0"
140
0.09375
141
12.0
290
     0
  0
SCALE
  5
E6
102
{ACAD_REACTORS
330
DF
102
}
330
DF
100
AcDbScale
 70
     0
300
1/8" = 1'-0"
140
0.125
141
12.0
290
     0
  0
SCALE
  5
E7
102
{ACAD_REACTORS
330
DF
102
}
330
DF
100
AcDbScale
 70
     0
300
3/16" = 1'-0"
140
0.1875
141
12.0
290
     0
  0
SCALE
  5
E8
102
{ACAD_REACTORS
330
DF
102
}
330
DF
100
AcDbScale
 70
     0
300
1/4" = 1'-0"
140
0.25
141
12.0
290
     0
  0
SCALE
  5
E9
102
{ACAD_REACTORS
330
DF
102
}
330
DF
100
AcDbScale
 70
     0
300
3/8" = 1'-0"
140
0.375
141
12.0
290
     0
  0
SCALE
  5
EA
102
{ACAD_REACTORS
330
DF
102
}
330
DF
100
AcDbScale
 70
     0
300
1/2" = 1'-0"
140
0.5
141
12.0
290
     0
  0
SCALE
  5
EB
102
{ACAD_REACTORS
330
DF
102
}
330
DF
100
AcDbScale
 70
     0
300
3/4" = 1'-0"
140
0.75
141
12.0
290
     0
  0
SCALE
  5
EC
102
{ACAD_REACTORS
330
DF
102
}
330
DF
100
AcDbScale
 70
     0
300
1" = 1'-0"
140
1.0
141
12.0
290
     0
  0
SCALE
  5
ED
102
{ACAD_REACTORS
330
DF
102
}
330
DF
100
AcDbScale
 70
     0
300
1-1/2" = 1'-0"
140
1.5
141
12.0
290
     0
  0
SCALE
  5
EE
102
{ACAD_REACTORS
330
DF
102
}
330
DF
100
AcDbScale
 70
     0
300
3" = 1'-0"
140
3.0
141
12.0
290
     0
  0
SCALE
  5
EF
102
{ACAD_REACTORS
330
DF
102
}
330
DF
100
AcDbScale
 70
     0
300
6" = 1'-0"
140
6.0
141
12.0
290
     0
  0
SCALE
  5
F0
102
{ACAD_REACTORS
330
DF
102
}
330
DF
100
AcDbScale
 70
     0
300
1'-0" = 1'-0"
140
12.0
141
12.0
290
     0
  0
ACDBSECTIONVIEWSTYLE
  5
F4
102
{ACAD_XDICTIONARY
360
1E0
102
}
102
{ACAD_REACTORS
330
F3
102
}
330
F3
100
AcDbModelDocViewStyle
 70
     0
  3
Imperial24
290
     0
100
AcDbSectionViewStyle
 70
     0
 71
     0
 90
       78
 71
     1
340
11
 62
   256
 40
0.24
340
0
340
0
 62
   256
 40
0.24
300
I, O, Q, S, X, Z
 40
0.48
 90
        3
 40
0.18
 90
        1
 71
     2
340
16
 90
       25
 62
   256
340
16
 90
       50
 62
   256
 40
0.24
 40
0.0
 40
0.24
 71
     3
340
11
 62
   256
 40
0.24
 90
        1
 40
0.75
 90
        1
300
%<\AcVar ViewType \f "%tc1">% %<\AcVar ViewSectionStartId>%-%<\AcVar ViewSectionEndId>%\PSCALE %<\AcVar ViewScale \f "%sn">%
 71
     4
 62
   256
 62
   257
300
ANSI31
 40
1.0
 90
        0
290
     0
290
     0
 90
        6
 40
0.0
 40
1.570796326794896
 40
0.2617993877991494
 40
1.308996938995747
 40
-0.2617993877991494
 40
1.832595714594046
  0
TABLESTYLE
  5
DE
102
{ACAD_XDICTIONARY
360
1AB
102
}
102
{ACAD_REACTORS
330
DD
102
}
330
DD
100
AcDbTableStyle
280
     0
  3
Standard
 70
     0
 71
     0
 40
0.06
 41
0.06
280
     0
281
     0
  7
Standard
140
0.18
170
     2
 62
     0
 63
     7
283
     0
 90
      512
 91
        0
  1

274
    -2
284
     1
 64
     0
275
    -2
285
     1
 65
     0
276
    -2
286
     1
 66
     0
277
    -2
287
     1
 67
     0
278
    -2
288
     1
 68
     0
279
    -2
289
     1
 69
     0
  7
Standard
140
0.25
170
     5
 62
     0
 63
     7
283
     0
 90
      512
 91
        0
  1

274
    -2
284
     1
 64
     0
275
    -2
285
     1
 65
     0
276
    -2
286
     1
 66
     0
277
    -2
287
     1
 67
     0
278
    -2
288
     1
 68
     0
279
    -2
289
     1
 69
     0
  7
Standard
140
0.18
170
     5
 62
     0
 63
     7
283
     0
 90
      512
 91
        0
  1

274
    -2
284
     1
 64
     0
275
    -2
285
     1
 65
     0
276
    -2
286
     1
 66
     0
277
    -2
287
     1
 67
     0
278
    -2
288
     1
 68
     0
279
    -2
289
     1
 69
     0
  0
VISUALSTYLE
  5
C9
102
{ACAD_XDICTIONARY
360
1B8
102
}
102
{ACAD_REACTORS
330
C3
102
}
330
C3
100
AcDbVisualStyle
  2
2dWireframe
 70
     4
177
     2
291
     0
 71
     0
176
     1
 72
     2
176
     1
 73
     0
176
     1
 90
        0
176
     1
 40
0.6
176
     1
 41
30.0
176
     1
 63
     7
421
 16777215
176
     1
 74
     1
176
     1
 91
        4
176
     1
 64
     7
176
     1
 65
   257
176
     1
 75
     1
176
     1
175
     1
176
     1
 42
1.0
176
     1
 92
        0
176
     1
 66
   257
176
     1
 43
1.0
176
     1
 76
     1
176
     1
 77
     6
176
     1
 78
     2
176
     1
 67
     7
176
     1
 79
     5
176
     1
170
     0
176
     1
171
     0
176
     1
290
     0
176
     1
 93
        1
176
     1
 44
0.0
176
     1
173
     0
176
     1
1001
ACAD
1000
AcDbSavedByObjectVersion
1070
     0
  0
VISUALSTYLE
  5
C8
102
{ACAD_XDICTIONARY
360
1B6
102
}
102
{ACAD_REACTORS
330
C3
102
}
330
C3
100
AcDbVisualStyle
  2
Basic
 70
     7
177
     2
291
     1
 71
     1
176
     1
 72
     0
176
     1
 73
     1
176
     1
 90
        0
176
     1
 40
0.6
176
     1
 41
30.0
176
     1
 63
     7
421
 16777215
176
     1
 74
     0
176
     1
 91
        4
176
     1
 64
     7
176
     1
 65
   257
176
     1
 75
     1
176
     1
175
     1
176
     1
 42
1.0
176
     1
 92
        8
176
     1
 66
     7
176
     1
 43
1.0
176
     1
 76
     1
176
     1
 77
     6
176
     1
 78
     2
176
     1
 67
     7
176
     1
 79
     5
176
     1
170
     0
176
     1
171
     0
176
     1
290
     0
176
     1
 93
        1
176
     1
 44
0.0
176
     1
173
     0
176
     1
1001
ACAD
1000
AcDbSavedByObjectVersion
1070
     0
  0
VISUALSTYLE
  5
CF
102
{ACAD_XDICTIONARY
360
1C4
102
}
102
{ACAD_REACTORS
330
C3
102
}
330
C3
100
AcDbVisualStyle
  2
Brighten
 70
    12
177
     2
291
     1
 71
     2
176
     1
 72
     2
176
     1
 73
     0
176
     1
 90
        0
176
     1
 40
0.6
176
     1
 41
30.0
176
     1
 63
     7
421
 16777215
176
     1
 74
     1
176
     1
 91
        4
176
     1
 64
     7
176
     1
 65
   257
176
     1
 75
     1
176
     1
175
     1
176
     1
 42
1.0
176
     1
 92
        8
176
     1
 66
     7
176
     1
 43
1.0
176
     1
 76
     1
176
     1
 77
     6
176
     1
 78
     2
176
     1
 67
     7
176
     1
 79
     5
176
     1
170
     0
176
     1
171
     0
176
     1
290
     0
176
     1
 93
        1
176
     1
 44
50.0
176
     1
173
     0
176
     1
1001
ACAD
1000
AcDbSavedByObjectVersion
1070
     0
  0
VISUALSTYLE
  5
D3
102
{ACAD_XDICTIONARY
360
1CC
102
}
102
{ACAD_REACTORS
330
C3
102
}
330
C3
100
AcDbVisualStyle
  2
ColorChange
 70
    16
177
     2
291
     1
 71
     2
176
     1
 72
     2
176
     1
 73
     3
176
     1
 90
        0
176
     1
 40
0.6
176
     1
 41
30.0
176
     1
 63
     8
421
  8421504
176
     1
 74
     1
176
     1
 91
        4
176
     1
 64
     7
176
     1
 65
   257
176
     1
 75
     1
176
     1
175
     1
176
     1
 42
1.0
176
     1
 92
        8
176
     1
 66
     8
424
  8421504
176
     1
 43
1.0
176
     1
 76
     1
176
     1
 77
     6
176
     1
 78
     2
176
     1
 67
     7
176
     1
 79
     5
176
     1
170
     0
176
     1
171
     0
176
     1
290
     0
176
     1
 93
        1
176
     1
 44
0.0
176
     1
173
     0
176
     1
1001
ACAD
1000
AcDbSavedByObjectVersion
1070
     0
  0
VISUALSTYLE
  5
CC
102
{ACAD_XDICTIONARY
360
1BE
102
}
102
{ACAD_REACTORS
330
C3
102
}
330
C3
100
AcDbVisualStyle
  2
Conceptual
 70
     9
177
     2
291
     0
 71
     3
176
     1
 72
     2
176
     1
 73
     0
176
     1
 90
        0
176
     1
 40
0.6
176
     1
 41
30.0
176
     1
 63
     7
421
 16777215
176
     1
 74
     2
176
     1
 91
        2
176
     1
 64
     7
176
     1
 65
   257
176
     1
 75
     1
176
     1
175
     1
176
     1
 42
179.0
176
     1
 92
        8
176
     1
 66
     7
176
     1
 43
1.0
176
     1
 76
     1
176
     1
 77
     6
176
     1
 78
     2
176
     1
 67
     7
176
     1
 79
     3
176
     1
170
     0
176
     1
171
     0
176
     1
290
     0
176
     1
 93
        1
176
     1
 44
0.0
176
     1
173
     0
176
     1
1001
ACAD
1000
AcDbSavedByObjectVersion
1070
     0
  0
VISUALSTYLE
  5
CE
102
{ACAD_XDICTIONARY
360
1C2
102
}
102
{ACAD_REACTORS
330
C3
102
}
330
C3
100
AcDbVisualStyle
  2
Dim
 70
    11
177
     2
291
     1
 71
     2
176
     1
 72
     2
176
     1
 73
     0
176
     1
 90
        0
176
     1
 40
0.6
176
     1
 41
30.0
176
     1
 63
     7
421
 16777215
176
     1
 74
     1
176
     1
 91
        4
176
     1
 64
     7
176
     1
 65
   257
176
     1
 75
     1
176
     1
175
     1
176
     1
 42
1.0
176
     1
 92
        8
176
     1
 66
     7
176
     1
 43
1.0
176
     1
 76
     1
176
     1
 77
     6
176
     1
 78
     2
176
     1
 67
     7
176
     1
 79
     5
176
     1
170
     0
176
     1
171
     0
176
     1
290
     0
176
     1
 93
        1
176
     1
 44
-50.0
176
     1
173
     0
176
     1
1001
ACAD
1000
AcDbSavedByObjectVersion
1070
     0
  0
VISUALSTYLE
  5
DB
102
{ACAD_XDICTIONARY
360
1DC
102
}
102
{ACAD_REACTORS
330
C3
102
}
330
C3
100
AcDbVisualStyle
  2
EdgeColorOff
 70
    22
177
     2
291
     1
 71
     2
176
     0
 72
     2
176
     0
 73
     0
176
     0
 90
        0
176
     0
 40
0.6
176
     0
 41
30.0
176
     0
 63
     7
421
 16777215
176
     0
 74
     1
176
     0
 91
        4
176
     0
 64
     7
176
     0
 65
   257
176
     0
 75
     1
176
     0
175
     1
176
     0
 42
1.0
176
     0
 92
        8
176
     2
 66
     7
176
     0
 43
1.0
176
     0
 76
     1
176
     0
 77
     6
176
     0
 78
     2
176
     0
 67
     7
176
     0
 79
     5
176
     0
170
     0
176
     0
171
     0
176
     0
290
     0
176
     0
 93
        1
176
     0
 44
0.0
176
     0
173
     0
176
     0
1001
ACAD
1000
AcDbSavedByObjectVersion
1070
     0
  0
VISUALSTYLE
  5
D2
102
{ACAD_XDICTIONARY
360
1CA
102
}
102
{ACAD_REACTORS
330
C3
102
}
330
C3
100
AcDbVisualStyle
  2
Facepattern
 70
    15
177
     2
291
     1
 71
     2
176
     1
 72
     2
176
     1
 73
     0
176
     1
 90
        0
176
     1
 40
0.6
176
     1
 41
30.0
176
     1
 63
     7
421
 16777215
176
     1
 74
     1
176
     1
 91
        4
176
     1
 64
     7
176
     1
 65
   257
176
     1
 75
     1
176
     1
175
     1
176
     1
 42
1.0
176
     1
 92
        8
176
     1
 66
     7
176
     1
 43
1.0
176
     1
 76
     1
176
     1
 77
     6
176
     1
 78
     2
176
     1
 67
     7
176
     1
 79
     5
176
     1
170
     0
176
     1
171
     0
176
     1
290
     0
176
     1
 93
        1
176
     1
 44
0.0
176
     1
173
     0
176
     1
1001
ACAD
1000
AcDbSavedByObjectVersion
1070
     0
  0
VISUALSTYLE
  5
C4
102
{ACAD_XDICTIONARY
360
1AE
102
}
102
{ACAD_REACTORS
330
C3
102
}
330
C3
100
AcDbVisualStyle
  2
Flat
 70
     0
177
     2
291
     1
 71
     2
176
     1
 72
     1
176
     1
 73
     1
176
     1
 90
        2
176
     1
 40
0.6
176
     1
 41
30.0
176
     1
 63
     7
421
 16777215
176
     1
 74
     0
176
     1
 91
        0
176
     1
 64
     7
176
     1
 65
   257
176
     1
 75
     1
176
     1
175
     1
176
     1
 42
1.0
176
     1
 92
        8
176
     1
 66
     7
176
     1
 43
1.0
176
     1
 76
     1
176
     1
 77
     6
176
     1
 78
     2
176
     1
 67
     7
176
     1
 79
     5
176
     1
170
     0
176
     1
171
     0
176
     1
290
     0
176
     1
 93
       13
176
     1
 44
0.0
176
     1
173
     0
176
     1
1001
ACAD
1000
AcDbSavedByObjectVersion
1070
     0
  0
VISUALSTYLE
  5
C5
102
{ACAD_XDICTIONARY
360
1B0
102
}
102
{ACAD_REACTORS
330
C3
102
}
330
C3
100
AcDbVisualStyle
  2
FlatWithEdges
 70
     1
177
     2
291
     1
 71
     2
176
     1
 72
     1
176
     1
 73
     1
176
     1
 90
        2
176
     1
 40
0.6
176
     1
 41
30.0
176
     1
 63
     7
421
 16777215
176
     1
 74
     1
176
     1
 91
        0
176
     1
 64
     7
176
     1
 65
   257
176
     1
 75
     1
176
     1
175
     1
176
     1
 42
1.0
176
     1
 92
        0
176
     1
 66
   257
176
     1
 43
1.0
176
     1
 76
     1
176
     1
 77
     6
176
     1
 78
     2
176
     1
 67
     7
176
     1
 79
     5
176
     1
170
     0
176
     1
171
     0
176
     1
290
     0
176
     1
 93
       13
176
     1
 44
0.0
176
     1
173
     0
176
     1
1001
ACAD
1000
AcDbSavedByObjectVersion
1070
     0
  0
VISUALSTYLE
  5
C6
102
{ACAD_XDICTIONARY
360
1B2
102
}
102
{ACAD_REACTORS
330
C3
102
}
330
C3
100
AcDbVisualStyle
  2
Gouraud
 70
     2
177
     2
291
     1
 71
     2
176
     1
 72
     2
176
     1
 73
     1
176
     1
 90
        2
176
     1
 40
0.6
176
     1
 41
30.0
176
     1
 63
     7
421
 16777215
176
     1
 74
     0
176
     1
 91
        0
176
     1
 64
     7
176
     1
 65
   257
176
     1
 75
     1
176
     1
175
     1
176
     1
 42
1.0
176
     1
 92
        0
176
     1
 66
     7
176
     1
 43
1.0
176
     1
 76
     1
176
     1
 77
     6
176
     1
 78
     2
176
     1
 67
     7
176
     1
 79
     5
176
     1
170
     0
176
     1
171
     0
176
     1
290
     0
176
     1
 93
       13
176
     1
 44
0.0
176
     1
173
     0
176
     1
1001
ACAD
1000
AcDbSavedByObjectVersion
1070
     0
  0
VISUALSTYLE
  5
C7
102
{ACAD_XDICTIONARY
360
1B4
102
}
102
{ACAD_REACTORS
330
C3
102
}
330
C3
100
AcDbVisualStyle
  2
GouraudWithEdges
 70
     3
177
     2
291
     1
 71
     2
176
     1
 72
     2
176
     1
 73
     1
176
     1
 90
        2
176
     1
 40
0.6
176
     1
 41
30.0
176
     1
 63
     7
421
 16777215
176
     1
 74
     1
176
     1
 91
        0
176
     1
 64
     7
176
     1
 65
   257
176
     1
 75
     1
176
     1
175
     1
176
     1
 42
1.0
176
     1
 92
        0
176
     1
 66
   257
176
     1
 43
1.0
176
     1
 76
     1
176
     1
 77
     6
176
     1
 78
     2
176
     1
 67
     7
176
     1
 79
     5
176
     1
170
     0
176
     1
171
     0
176
     1
290
     0
176
     1
 93
       13
176
     1
 44
0.0
176
     1
173
     0
176
     1
1001
ACAD
1000
AcDbSavedByObjectVersion
1070
     0
  0
VISUALSTYLE
  5
CB
102
{ACAD_XDICTIONARY
360
1BC
102
}
102
{ACAD_REACTORS
330
C3
102
}
330
C3
100
AcDbVisualStyle
  2
Hidden
 70
     6
177
     2
291
     0
 71
     1
176
     1
 72
     2
176
     1
 73
     2
176
     1
 90
        0
176
     1
 40
0.6
176
     1
 41
30.0
176
     1
 63
     7
421
 16777215
176
     1
 74
     2
176
     1
 91
        2
176
     1
 64
     7
176
     1
 65
   257
176
     1
 75
     2
176
     1
175
     1
176
     1
 42
40.0
176
     1
 92
        0
176
     1
 66
   257
176
     1
 43
1.0
176
     1
 76
     1
176
     1
 77
     6
176
     1
 78
     2
176
     1
 67
     7
176
     1
 79
     3
176
     1
170
     0
176
     1
171
     0
176
     1
290
     0
176
     1
 93
        1
176
     1
 44
0.0
176
     1
173
     0
176
     1
1001
ACAD
1000
AcDbSavedByObjectVersion
1070
     0
  0
VISUALSTYLE
  5
D9
102
{ACAD_XDICTIONARY
360
1D8
102
}
102
{ACAD_REACTORS
330
C3
102
}
330
C3
100
AcDbVisualStyle
  2
JitterOff
 70
    20
177
     2
291
     1
 71
     2
176
     0
 72
     2
176
     0
 73
     0
176
     0
 90
        0
176
     0
 40
0.6
176
     0
 41
30.0
176
     0
 63
     7
421
 16777215
176
     0
 74
     1
176
     0
 91
        4
176
     0
 64
     7
176
     0
 65
   257
176
     0
 75
     1
176
     0
175
     1
176
     0
 42
1.0
176
     0
 92
       10
176
     2
 66
     7
176
     0
 43
1.0
176
     0
 76
     1
176
     0
 77
     6
176
     0
 78
     2
176
     0
 67
     7
176
     0
 79
     5
176
     0
170
     0
176
     0
171
     0
176
     0
290
     0
176
     0
 93
        1
176
     0
 44
0.0
176
     0
173
     0
176
     0
1001
ACAD
1000
AcDbSavedByObjectVersion
1070
     0
  0
VISUALSTYLE
  5
D1
102
{ACAD_XDICTIONARY
360
1C8
102
}
102
{ACAD_REACTORS
330
C3
102
}
330
C3
100
AcDbVisualStyle
  2
Linepattern
 70
    14
177
     2
291
     1
 71
     2
176
     1
 72
     2
176
     1
 73
     0
176
     1
 90
        0
176
     1
 40
0.6
176
     1
 41
30.0
176
     1
 63
     7
421
 16777215
176
     1
 74
     1
176
     1
 91
        4
176
     1
 64
     7
176
     1
 65
   257
176
     1
 75
     7
176
     1
175
     7
176
     1
 42
1.0
176
     1
 92
        8
176
     1
 66
     7
176
     1
 43
1.0
176
     1
 76
     1
176
     1
 77
     6
176
     1
 78
     2
176
     1
 67
     7
176
     1
 79
     5
176
     1
170
     0
176
     1
171
     0
176
     1
290
     0
176
     1
 93
        1
176
     1
 44
0.0
176
     1
173
     0
176
     1
1001
ACAD
1000
AcDbSavedByObjectVersion
1070
     0
  0
VISUALSTYLE
  5
DA
102
{ACAD_XDICTIONARY
360
1DA
102
}
102
{ACAD_REACTORS
330
C3
102
}
330
C3
100
AcDbVisualStyle
  2
OverhangOff
 70
    21
177
     2
291
     1
 71
     2
176
     0
 72
     2
176
     0
 73
     0
176
     0
 90
        0
176
     0
 40
0.6
176
     0
 41
30.0
176
     0
 63
     7
421
 16777215
176
     0
 74
     1
176
     0
 91
        4
176
     0
 64
     7
176
     0
 65
   257
176
     0
 75
     1
176
     0
175
     1
176
     0
 42
1.0
176
     0
 92
        9
176
     2
 66
     7
176
     0
 43
1.0
176
     0
 76
     1
176
     0
 77
     6
176
     0
 78
     2
176
     0
 67
     7
176
     0
 79
     5
176
     0
170
     0
176
     0
171
     0
176
     0
290
     0
176
     0
 93
        1
176
     0
 44
0.0
176
     0
173
     0
176
     0
1001
ACAD
1000
AcDbSavedByObjectVersion
1070
     0
  0
VISUALSTYLE
  5
CD
102
{ACAD_XDICTIONARY
360
1C0
102
}
102
{ACAD_REACTORS
330
C3
102
}
330
C3
100
AcDbVisualStyle
  2
Realistic
 70
     8
177
     2
291
     0
 71
     2
176
     1
 72
     3
176
     1
 73
     0
176
     1
 90
        2
176
     1
 40
0.6
176
     1
 41
30.0
176
     1
 63
     7
421
 16777215
176
     1
 74
     0
176
     1
 91
        0
176
     1
 64
     7
176
     1
 65
   257
176
     1
 75
     1
176
     1
175
     1
176
     1
 42
1.0
176
     1
 92
        8
176
     1
 66
   257
176
     1
 43
1.0
176
     1
 76
     1
176
     1
 77
     6
176
     1
 78
     2
176
     1
 67
     7
176
     1
 79
     3
176
     1
170
     0
176
     1
171
     0
176
     1
290
     0
176
     1
 93
       13
176
     1
 44
0.0
176
     1
173
     0
176
     1
1001
ACAD
1000
AcDbSavedByObjectVersion
1070
     0
  0
VISUALSTYLE
  5
D8
102
{ACAD_XDICTIONARY
360
1D6
102
}
102
{ACAD_REACTORS
330
C3
102
}
330
C3
100
AcDbVisualStyle
  2
Shaded
 70
    27
177
     2
291
     0
 71
     2
176
     1
 72
     2
176
     1
 73
     1
176
     1
 90
        2
176
     1
 40
0.6
176
     1
 41
30.0
176
     1
 63
     7
421
 16777215
176
     1
 74
     0
176
     1
 91
        4
176
     1
 64
     7
176
     1
 65
   257
176
     1
 75
     1
176
     1
175
     1
176
     1
 42
1.0
176
     1
 92
        8
176
     1
 66
   257
176
     1
 43
1.0
176
     1
 76
     1
176
     1
 77
     6
176
     1
 78
     2
176
     1
 67
     8
425
  7895160
176
     1
 79
     3
176
     1
170
     0
176
     1
171
     0
176
     1
290
     0
176
     1
 93
        5
176
     1
 44
0.0
176
     1
173
     0
176
     1
1001
ACAD
1000
AcDbSavedByObjectVersion
1070
     0
  0
VISUALSTYLE
  5
D7
102
{ACAD_XDICTIONARY
360
1D4
102
}
102
{ACAD_REACTORS
330
C3
102
}
330
C3
100
AcDbVisualStyle
  2
Shaded with edges
 70
    26
177
     2
291
     0
 71
     2
176
     1
 72
     2
176
     1
 73
     1
176
     1
 90
        2
176
     1
 40
0.6
176
     1
 41
30.0
176
     1
 63
     7
421
 16777215
176
     1
 74
     1
176
     1
 91
       10
176
     1
 64
     7
176
     1
 65
   257
176
     1
 75
     2
176
     1
175
     1
176
     1
 42
1.0
176
     1
 92
        8
176
     1
 66
   257
176
     1
 43
1.0
176
     1
 76
     1
176
     1
 77
     6
176
     1
 78
     2
176
     1
 67
     7
176
     1
 79
     3
176
     1
170
     0
176
     1
171
     0
176
     1
290
     0
176
     1
 93
        5
176
     1
 44
0.0
176
     1
173
     0
176
     1
1001
ACAD
1000
AcDbSavedByObjectVersion
1070
     0
  0
VISUALSTYLE
  5
D4
102
{ACAD_XDICTIONARY
360
1CE
102
}
102
{ACAD_REACTORS
330
C3
102
}
330
C3
100
AcDbVisualStyle
  2
Shades of Gray
 70
    23
177
     2
291
     0
 71
     2
176
     1
 72
     2
176
     1
 73
     3
176
     1
 90
        0
176
     1
 40
0.6
176
     1
 41
30.0
176
     1
 63
     7
421
 16777215
176
     1
 74
     2
176
     1
 91
        2
176
     1
 64
     7
176
     1
 65
     7
176
     1
 75
     1
176
     1
175
     1
176
     1
 42
40.0
176
     1
 92
        8
176
     1
 66
     7
176
     1
 43
1.0
176
     1
 76
     1
176
     1
 77
     6
176
     1
 78
     2
176
     1
 67
     7
176
     1
 79
     3
176
     1
170
     0
176
     1
171
     0
176
     1
290
     0
176
     1
 93
        1
176
     1
 44
0.0
176
     1
173
     0
176
     1
1001
ACAD
1000
AcDbSavedByObjectVersion
1070
     0
  0
VISUALSTYLE
  5
D5
102
{ACAD_XDICTIONARY
360
1D0
102
}
102
{ACAD_REACTORS
330
C3
102
}
330
C3
100
AcDbVisualStyle
  2
Sketchy
 70
    24
177
     2
291
     0
 71
     1
176
     1
 72
     2
176
     1
 73
     2
176
     1
 90
        0
176
     1
 40
0.6
176
     1
 41
30.0
176
     1
 63
     7
421
 16777215
176
     1
 74
     2
176
     1
 91
        2
176
     1
 64
     7
176
     1
 65
     7
176
     1
 75
     1
176
     1
175
     1
176
     1
 42
40.0
176
     1
 92
       11
176
     1
 66
     7
176
     1
 43
1.0
176
     1
 76
     1
176
     1
 77
     6
176
     1
 78
     2
176
     1
 67
     7
176
     1
 79
     6
176
     1
170
     0
176
     1
171
     0
176
     1
290
     0
176
     1
 93
        1
176
     1
 44
0.0
176
     1
173
     0
176
     1
1001
ACAD
1000
AcDbSavedByObjectVersion
1070
     0
  0
VISUALSTYLE
  5
D0
102
{ACAD_XDICTIONARY
360
1C6
102
}
102
{ACAD_REACTORS
330
C3
102
}
330
C3
100
AcDbVisualStyle
  2
Thicken
 70
    13
177
     2
291
     1
 71
     2
176
     1
 72
     2
176
     1
 73
     0
176
     1
 90
        0
176
     1
 40
0.6
176
     1
 41
30.0
176
     1
 63
     7
421
 16777215
176
     1
 74
     1
176
     1
 91
        4
176
     1
 64
     7
176
     1
 65
   257
176
     1
 75
     1
176
     1
175
     1
176
     1
 42
1.0
176
     1
 92
       12
176
     1
 66
     7
176
     1
 43
1.0
176
     1
 76
     1
176
     1
 77
     6
176
     1
 78
     2
176
     1
 67
     7
176
     1
 79
     5
176
     1
170
     0
176
     1
171
     0
176
     1
290
     0
176
     1
 93
        1
176
     1
 44
0.0
176
     1
173
     0
176
     1
1001
ACAD
1000
AcDbSavedByObjectVersion
1070
     0
  0
VISUALSTYLE
  5
CA
102
{ACAD_XDICTIONARY
360
1BA
102
}
102
{ACAD_REACTORS
330
C3
102
}
330
C3
100
AcDbVisualStyle
  2
Wireframe
 70
     5
177
     2
291
     0
 71
     0
176
     1
 72
     2
176
     1
 73
     0
176
     1
 90
        0
176
     1
 40
0.6
176
     1
 41
30.0
176
     1
 63
     7
421
 16777215
176
     1
 74
     1
176
     1
 91
        4
176
     1
 64
     7
176
     1
 65
   257
176
     1
 75
     1
176
     1
175
     1
176
     1
 42
1.0
176
     1
 92
        0
176
     1
 66
   257
176
     1
 43
1.0
176
     1
 76
     1
176
     1
 77
     6
176
     1
 78
     2
176
     1
 67
     7
176
     1
 79
     3
176
     1
170
     0
176
     1
171
     0
176
     1
290
     0
176
     1
 93
        1
176
     1
 44
0.0
176
     1
173
     0
176
     1
1001
ACAD
1000
AcDbSavedByObjectVersion
1070
     0
  0
VISUALSTYLE
  5
D6
102
{ACAD_XDICTIONARY
360
1D2
102
}
102
{ACAD_REACTORS
330
C3
102
}
330
C3
100
AcDbVisualStyle
  2
X-Ray
 70
    25
177
     2
291
     0
 71
     2
176
     1
 72
     2
176
     1
 73
     1
176
     1
 90
        1
176
     1
 40
0.5
176
     1
 41
30.0
176
     1
 63
     7
421
 16777215
176
     1
 74
     1
176
     1
 91
        0
176
     1
 64
     7
176
     1
 65
   257
176
     1
 75
     1
176
     1
175
     1
176
     1
 42
1.0
176
     1
 92
        8
176
     1
 66
     7
176
     1
 43
1.0
176
     1
 76
     1
176
     1
 77
     6
176
     1
 78
     2
176
     1
 67
     7
176
     1
 79
     3
176
     1
170
     0
176
     1
171
     0
176
     1
290
     0
176
     1
 93
       13
176
     1
 44
0.0
176
     1
173
     0
176
     1
1001
ACAD
1000
AcDbSavedByObjectVersion
1070
     0
  0
DICTIONARYVAR
  5
1A7
102
{ACAD_REACTORS
330
1A1
102
}
330
1A1
100
DictionaryVariables
280
     0
  1
1:1
  0
DICTIONARYVAR
  5
1A3
102
{ACAD_REACTORS
330
1A1
102
}
330
1A1
100
DictionaryVariables
280
     0
  1
STANDARD
  0
DICTIONARYVAR
  5
1A2
102
{ACAD_REACTORS
330
1A1
102
}
330
1A1
100
DictionaryVariables
280
     0
  1
STANDARD
  0
DICTIONARYVAR
  5
1A4
102
{ACAD_REACTORS
330
1A1
102
}
330
1A1
100
DictionaryVariables
280
     0
  1
Imperial24
  0
DICTIONARYVAR
  5
1A5
102
{ACAD_REACTORS
330
1A1
102
}
330
1A1
100
DictionaryVariables
280
     0
  1
Imperial24
  0
DICTIONARYVAR
  5
1A9
102
{ACAD_REACTORS
330
1A1
102
}
330
1A1
100
DictionaryVariables
280
     0
  1
1
  0
DICTIONARYVAR
  5
1AA
102
{ACAD_REACTORS
330
1A1
102
}
330
1A1
100
DictionaryVariables
280
     0
  1
15
  0
DICTIONARYVAR
  5
1A8
102
{ACAD_REACTORS
330
1A1
102
}
330
1A1
100
DictionaryVariables
280
     0
  1
0
  0
DICTIONARYVAR
  5
1A6
102
{ACAD_REACTORS
330
1A1
102
}
330
1A1
100
DictionaryVariables
280
     0
  1
0
  0
DICTIONARY
  5
1E2
330
F6
100
AcDbDictionary
280
     1
281
     1
  3
ACAD_XREC_ROUNDTRIP
360
1E3
  0
DICTIONARY
  5
B4
330
B3
100
AcDbDictionary
280
     1
281
     1
  3
BUMPTILE
360
B6
  3
DIFFUSETILE
360
B5
  3
OPACITYTILE
360
B9
  3
REFLECTIONTILE
360
B8
  3
REFRACTIONTILE
360
BA
  3
SPECULARTILE
360
B7
  0
DICTIONARY
  5
AC
330
AB
100
AcDbDictionary
280
     1
281
     1
  3
BUMPTILE
360
AE
  3
DIFFUSETILE
360
AD
  3
OPACITYTILE
360
B1
  3
REFLECTIONTILE
360
B0
  3
REFRACTIONTILE
360
B2
  3
SPECULARTILE
360
AF
  0
DICTIONARY
  5
BC
330
BB
100
AcDbDictionary
280
     1
281
     1
  3
BUMPTILE
360
BE
  3
DIFFUSETILE
360
BD
  3
OPACITYTILE
360
C1
  3
REFLECTIONTILE
360
C0
  3
REFRACTIONTILE
360
C2
  3
SPECULARTILE
360
BF
  0
DICTIONARY
  5
1DE
330
F2
100
AcDbDictionary
280
     1
281
     1
  3
ACAD_XREC_ROUNDTRIP
360
1DF
  0
DICTIONARY
  5
1E0
330
F4
100
AcDbDictionary
280
     1
281
     1
  3
ACAD_XREC_ROUNDTRIP
360
1E1
  0
DICTIONARY
  5
1AB
330
DE
100
AcDbDictionary
280
     1
281
     1
  3
ACAD_ROUNDTRIP_2008_TABLESTYLE_CELLSTYLEMAP
360
1AC
  0
DICTIONARY
  5
1B8
330
C9
100
AcDbDictionary
280
     1
281
     1
  3
ACAD_XREC_ROUNDTRIP
360
1B9
  0
DICTIONARY
  5
1B6
330
C8
100
AcDbDictionary
280
     1
281
     1
  3
ACAD_XREC_ROUNDTRIP
360
1B7
  0
DICTIONARY
  5
1C4
330
CF
100
AcDbDictionary
280
     1
281
     1
  3
ACAD_XREC_ROUNDTRIP
360
1C5
  0
DICTIONARY
  5
1CC
330
D3
100
AcDbDictionary
280
     1
281
     1
  3
ACAD_XREC_ROUNDTRIP
360
1CD
  0
DICTIONARY
  5
1BE
330
CC
100
AcDbDictionary
280
     1
281
     1
  3
ACAD_XREC_ROUNDTRIP
360
1BF
  0
DICTIONARY
  5
1C2
330
CE
100
AcDbDictionary
280
     1
281
     1
  3
ACAD_XREC_ROUNDTRIP
360
1C3
  0
DICTIONARY
  5
1DC
330
DB
100
AcDbDictionary
280
     1
281
     1
  3
ACAD_XREC_ROUNDTRIP
360
1DD
  0
DICTIONARY
  5
1CA
330
D2
100
AcDbDictionary
280
     1
281
     1
  3
ACAD_XREC_ROUNDTRIP
360
1CB
  0
DICTIONARY
  5
1AE
330
C4
100
AcDbDictionary
280
     1
281
     1
  3
ACAD_XREC_ROUNDTRIP
360
1AF
  0
DICTIONARY
  5
1B0
330
C5
100
AcDbDictionary
280
     1
281
     1
  3
ACAD_XREC_ROUNDTRIP
360
1B1
  0
DICTIONARY
  5
1B2
330
C6
100
AcDbDictionary
280
     1
281
     1
  3
ACAD_XREC_ROUNDTRIP
360
1B3
  0
DICTIONARY
  5
1B4
330
C7
100
AcDbDictionary
280
     1
281
     1
  3
ACAD_XREC_ROUNDTRIP
360
1B5
  0
DICTIONARY
  5
1BC
330
CB
100
AcDbDictionary
280
     1
281
     1
  3
ACAD_XREC_ROUNDTRIP
360
1BD
  0
DICTIONARY
  5
1D8
330
D9
100
AcDbDictionary
280
     1
281
     1
  3
ACAD_XREC_ROUNDTRIP
360
1D9
  0
DICTIONARY
  5
1C8
330
D1
100
AcDbDictionary
280
     1
281
     1
  3
ACAD_XREC_ROUNDTRIP
360
1C9
  0
DICTIONARY
  5
1DA
330
DA
100
AcDbDictionary
280
     1
281
     1
  3
ACAD_XREC_ROUNDTRIP
360
1DB
  0
DICTIONARY
  5
1C0
330
CD
100
AcDbDictionary
280
     1
281
     1
  3
ACAD_XREC_ROUNDTRIP
360
1C1
  0
DICTIONARY
  5
1D6
330
D8
100
AcDbDictionary
280
     1
281
     1
  3
ACAD_XREC_ROUNDTRIP
360
1D7
  0
DICTIONARY
  5
1D4
330
D7
100
AcDbDictionary
280
     1
281
     1
  3
ACAD_XREC_ROUNDTRIP
360
1D5
  0
DICTIONARY
  5
1CE
330
D4
100
AcDbDictionary
280
     1
281
     1
  3
ACAD_XREC_ROUNDTRIP
360
1CF
  0
DICTIONARY
  5
1D0
330
D5
100
AcDbDictionary
280
     1
281
     1
  3
ACAD_XREC_ROUNDTRIP
360
1D1
  0
DICTIONARY
  5
1C6
330
D0
100
AcDbDictionary
280
     1
281
     1
  3
ACAD_XREC_ROUNDTRIP
360
1C7
  0
DICTIONARY
  5
1BA
330
CA
100
AcDbDictionary
280
     1
281
     1
  3
ACAD_XREC_ROUNDTRIP
360
1BB
  0
DICTIONARY
  5
1D2
330
D6
100
AcDbDictionary
280
     1
281
     1
  3
ACAD_XREC_ROUNDTRIP
360
1D3
  0
XRECORD
  5
1E3
102
{ACAD_REACTORS
330
1E2
102
}
330
1E2
100
AcDbXrecord
280
     1
102
DISPLAYNAME
  1
Imperial24
102
FLAGS
 90
        0
  0
XRECORD
  5
B6
102
{ACAD_REACTORS
330
B4
102
}
330
B4
100
AcDbXrecord
280
     1
270
     1
271
     1
  0
XRECORD
  5
B5
102
{ACAD_REACTORS
330
B4
102
}
330
B4
100
AcDbXrecord
280
     1
270
     1
271
     1
  0
XRECORD
  5
B9
102
{ACAD_REACTORS
330
B4
102
}
330
B4
100
AcDbXrecord
280
     1
270
     1
271
     1
  0
XRECORD
  5
B8
102
{ACAD_REACTORS
330
B4
102
}
330
B4
100
AcDbXrecord
280
     1
270
     1
271
     1
  0
XRECORD
  5
BA
102
{ACAD_REACTORS
330
B4
102
}
330
B4
100
AcDbXrecord
280
     1
270
     1
271
     1
  0
XRECORD
  5
B7
102
{ACAD_REACTORS
330
B4
102
}
330
B4
100
AcDbXrecord
280
     1
270
     1
271
     1
  0
XRECORD
  5
AE
102
{ACAD_REACTORS
330
AC
102
}
330
AC
100
AcDbXrecord
280
     1
270
     1
271
     1
  0
XRECORD
  5
AD
102
{ACAD_REACTORS
330
AC
102
}
330
AC
100
AcDbXrecord
280
     1
270
     1
271
     1
  0
XRECORD
  5
B1
102
{ACAD_REACTORS
330
AC
102
}
330
AC
100
AcDbXrecord
280
     1
270
     1
271
     1
  0
XRECORD
  5
B0
102
{ACAD_REACTORS
330
AC
102
}
330
AC
100
AcDbXrecord
280
     1
270
     1
271
     1
  0
XRECORD
  5
B2
102
{ACAD_REACTORS
330
AC
102
}
330
AC
100
AcDbXrecord
280
     1
270
     1
271
     1
  0
XRECORD
  5
AF
102
{ACAD_REACTORS
330
AC
102
}
330
AC
100
AcDbXrecord
280
     1
270
     1
271
     1
  0
XRECORD
  5
BE
102
{ACAD_REACTORS
330
BC
102
}
330
BC
100
AcDbXrecord
280
     1
270
     1
271
     1
  0
XRECORD
  5
BD
102
{ACAD_REACTORS
330
BC
102
}
330
BC
100
AcDbXrecord
280
     1
270
     1
271
     1
  0
XRECORD
  5
C1
102
{ACAD_REACTORS
330
BC
102
}
330
BC
100
AcDbXrecord
280
     1
270
     1
271
     1
  0
XRECORD
  5
C0
102
{ACAD_REACTORS
330
BC
102
}
330
BC
100
AcDbXrecord
280
     1
270
     1
271
     1
  0
XRECORD
  5
C2
102
{ACAD_REACTORS
330
BC
102
}
330
BC
100
AcDbXrecord
280
     1
270
     1
271
     1
  0
XRECORD
  5
BF
102
{ACAD_REACTORS
330
BC
102
}
330
BC
100
AcDbXrecord
280
     1
270
     1
271
     1
  0
XRECORD
  5
1DF
102
{ACAD_REACTORS
330
1DE
102
}
330
1DE
100
AcDbXrecord
280
     1
102
ACAD_ROUNDTRIP_2012_MLEADER_STYLE
298
     1
  0
XRECORD
  5
1E1
102
{ACAD_REACTORS
330
1E0
102
}
330
1E0
100
AcDbXrecord
280
     1
102
DISPLAYNAME
  1
Imperial24
102
FLAGS
 90
        0
  0
CELLSTYLEMAP
  5
1AC
102
{ACAD_REACTORS
330
1AB
102
}
330
1AB
100
AcDbCellStyleMap
 90
        3
300
CELLSTYLE
  1
TABLEFORMAT_BEGIN
 90
        5
170
     1
 91
        0
 92
    32768
 62
   257
 93
        1
300
CONTENTFORMAT
  1
CONTENTFORMAT_BEGIN
 90
        0
 91
        0
 92
      512
 93
        0
300

 40
0.0
140
1.0
 94
        5
 62
     0
340
11
144
0.25
309
CONTENTFORMAT_END
171
     0
 94
        0
309
TABLEFORMAT_END
  1
CELLSTYLE_BEGIN
 90
        1
 91
        1
300
_TITLE
309
CELLSTYLE_END
300
CELLSTYLE
  1
TABLEFORMAT_BEGIN
 90
        5
170
     1
 91
        0
 92
        0
 62
   257
 93
        1
300
CONTENTFORMAT
  1
CONTENTFORMAT_BEGIN
 90
        0
 91
        0
 92
      512
 93
        0
300

 40
0.0
140
1.0
 94
        5
 62
     0
340
11
144
0.18
309
CONTENTFORMAT_END
171
     0
 94
        0
309
TABLEFORMAT_END
  1
CELLSTYLE_BEGIN
 90
        2
 91
        1
300
_HEADER
309
CELLSTYLE_END
300
CELLSTYLE
  1
TABLEFORMAT_BEGIN
 90
        5
170
     1
 91
        0
 92
        0
 62
   257
 93
        1
300
CONTENTFORMAT
  1
CONTENTFORMAT_BEGIN
 90
        0
 91
        0
 92
      512
 93
        0
300

 40
0.0
140
1.0
 94
        2
 62
     0
340
11
144
0.18
309
CONTENTFORMAT_END
171
     0
 94
        0
309
TABLEFORMAT_END
  1
CELLSTYLE_BEGIN
 90
        3
 91
        2
300
_DATA
309
CELLSTYLE_END
  0
XRECORD
  5
1B9
102
{ACAD_REACTORS
330
1B8
102
}
330
1B8
100
AcDbXrecord
280
     1
102
RTVSPost2010Prop28
280
     1
102
RTVSPost2010PropOp28
 70
     1
102
RTVSPost2010Prop29
280
     1
102
RTVSPost2010PropOp29
 70
     1
102
RTVSPost2010Prop30
280
     0
102
RTVSPost2010PropOp30
 70
     1
102
RTVSPost2010Prop31
280
     0
102
RTVSPost2010PropOp31
 70
     1
102
RTVSPost2010Prop32
280
     0
102
RTVSPost2010PropOp32
 70
     1
102
RTVSPost2010Prop33
280
     0
102
RTVSPost2010PropOp33
 70
     1
102
RTVSPost2010Prop34
280
     0
102
RTVSPost2010PropOp34
 70
     1
102
RTVSPost2010Prop35
280
     0
102
RTVSPost2010PropOp35
 70
     1
102
RTVSPost2010Prop36
280
     0
102
RTVSPost2010PropOp36
 70
     1
102
RTVSPost2010Prop37
 90
       50
102
RTVSPost2010PropOp37
 70
     1
102
RTVSPost2010Prop38
140
0.0
102
RTVSPost2010PropOp38
 70
     1
102
RTVSPost2010Prop39
140
1.0
102
RTVSPost2010PropOp39
 70
     1
102
RTVSPost2010Prop40
 90
        0
102
RTVSPost2010PropOp40
 70
     1
102
RTVSPost2010Prop41ColorIndex
 90
       18
102
RTVSPost2010Prop41ColorRGB
 90
        0
102
RTVSPost2010PropOp41
 70
     1
102
RTVSPost2010Prop42
 90
       50
102
RTVSPost2010PropOp42
 70
     1
102
RTVSPost2010Prop43
 90
        3
102
RTVSPost2010PropOp43
 70
     1
102
RTVSPost2010Prop44ColorIndex
 90
        5
102
RTVSPost2010Prop44ColorRGB
 90
      255
102
RTVSPost2010PropOp44
 70
     1
102
RTVSPost2010Prop45
280
     0
102
RTVSPost2010PropOp45
 70
     1
102
RTVSPost2010Prop46
 90
       50
102
RTVSPost2010PropOp46
 70
     1
102
RTVSPost2010Prop47
 90
       50
102
RTVSPost2010PropOp47
 70
     1
102
RTVSPost2010Prop48
 90
       50
102
RTVSPost2010PropOp48
 70
     1
102
RTVSPost2010Prop49
280
     0
102
RTVSPost2010PropOp49
 70
     1
102
RTVSPost2010Prop50
 90
       50
102
RTVSPost2010PropOp50
 70
     1
102
RTVSPost2010Prop51ColorIndex
 90
      256
102
RTVSPost2010Prop51ColorRGB
 90
-16777216
102
RTVSPost2010PropOp51
 70
     0
102
RTVSPost2010Prop52
140
1.0
102
RTVSPost2010PropOp52
 70
     0
102
RTVSPost2010Prop53
 90
        2
102
RTVSPost2010PropOp53
 70
     1
102
RTVSPost2010Prop54
  1
strokes_ogs.tif
102
RTVSPost2010PropOp54
 70
     1
102
RTVSPost2010Prop55
280
     0
102
RTVSPost2010PropOp55
 70
     1
102
RTVSPost2010Prop56
140
1.0
102
RTVSPost2010PropOp56
 70
     1
102
RTVSPost2010Prop57
140
1.0
102
RTVSPost2010PropOp57
 70
     1
  0
XRECORD
  5
1B7
102
{ACAD_REACTORS
330
1B6
102
}
330
1B6
100
AcDbXrecord
280
     1
102
RTVSPost2010Prop28
280
     0
102
RTVSPost2010PropOp28
 70
     1
102
RTVSPost2010Prop29
280
     1
102
RTVSPost2010PropOp29
 70
     1
102
RTVSPost2010Prop30
280
     1
102
RTVSPost2010PropOp30
 70
     1
102
RTVSPost2010Prop31
280
     0
102
RTVSPost2010PropOp31
 70
     1
102
RTVSPost2010Prop32
280
     0
102
RTVSPost2010PropOp32
 70
     1
102
RTVSPost2010Prop33
280
     0
102
RTVSPost2010PropOp33
 70
     1
102
RTVSPost2010Prop34
280
     0
102
RTVSPost2010PropOp34
 70
     1
102
RTVSPost2010Prop35
280
     0
102
RTVSPost2010PropOp35
 70
     1
102
RTVSPost2010Prop36
280
     0
102
RTVSPost2010PropOp36
 70
     1
102
RTVSPost2010Prop37
 90
       50
102
RTVSPost2010PropOp37
 70
     1
102
RTVSPost2010Prop38
140
0.0
102
RTVSPost2010PropOp38
 70
     1
102
RTVSPost2010Prop39
140
1.0
102
RTVSPost2010PropOp39
 70
     1
102
RTVSPost2010Prop40
 90
        0
102
RTVSPost2010PropOp40
 70
     1
102
RTVSPost2010Prop41ColorIndex
 90
       18
102
RTVSPost2010Prop41ColorRGB
 90
        0
102
RTVSPost2010PropOp41
 70
     1
102
RTVSPost2010Prop42
 90
       50
102
RTVSPost2010PropOp42
 70
     1
102
RTVSPost2010Prop43
 90
        3
102
RTVSPost2010PropOp43
 70
     1
102
RTVSPost2010Prop44ColorIndex
 90
        5
102
RTVSPost2010Prop44ColorRGB
 90
      255
102
RTVSPost2010PropOp44
 70
     1
102
RTVSPost2010Prop45
280
     0
102
RTVSPost2010PropOp45
 70
     1
102
RTVSPost2010Prop46
 90
       50
102
RTVSPost2010PropOp46
 70
     1
102
RTVSPost2010Prop47
 90
       50
102
RTVSPost2010PropOp47
 70
     1
102
RTVSPost2010Prop48
 90
       50
102
RTVSPost2010PropOp48
 70
     1
102
RTVSPost2010Prop49
280
     0
102
RTVSPost2010PropOp49
 70
     1
102
RTVSPost2010Prop50
 90
       50
102
RTVSPost2010PropOp50
 70
     1
102
RTVSPost2010Prop51ColorIndex
 90
      256
102
RTVSPost2010Prop51ColorRGB
 90
-16777216
102
RTVSPost2010PropOp51
 70
     0
102
RTVSPost2010Prop52
140
1.0
102
RTVSPost2010PropOp52
 70
     0
102
RTVSPost2010Prop53
 90
        2
102
RTVSPost2010PropOp53
 70
     1
102
RTVSPost2010Prop54
  1
strokes_ogs.tif
102
RTVSPost2010PropOp54
 70
     1
102
RTVSPost2010Prop55
280
     0
102
RTVSPost2010PropOp55
 70
     1
102
RTVSPost2010Prop56
140
1.0
102
RTVSPost2010PropOp56
 70
     1
102
RTVSPost2010Prop57
140
1.0
102
RTVSPost2010PropOp57
 70
     1
  0
XRECORD
  5
1C5
102
{ACAD_REACTORS
330
1C4
102
}
330
1C4
100
AcDbXrecord
280
     1
102
RTVSPost2010Prop28
280
     0
102
RTVSPost2010PropOp28
 70
     1
102
RTVSPost2010Prop29
280
     1
102
RTVSPost2010PropOp29
 70
     1
102
RTVSPost2010Prop30
280
     1
102
RTVSPost2010PropOp30
 70
     1
102
RTVSPost2010Prop31
280
     0
102
RTVSPost2010PropOp31
 70
     1
102
RTVSPost2010Prop32
280
     0
102
RTVSPost2010PropOp32
 70
     1
102
RTVSPost2010Prop33
280
     0
102
RTVSPost2010PropOp33
 70
     1
102
RTVSPost2010Prop34
280
     0
102
RTVSPost2010PropOp34
 70
     1
102
RTVSPost2010Prop35
280
     0
102
RTVSPost2010PropOp35
 70
     1
102
RTVSPost2010Prop36
280
     0
102
RTVSPost2010PropOp36
 70
     1
102
RTVSPost2010Prop37
 90
       50
102
RTVSPost2010PropOp37
 70
     1
102
RTVSPost2010Prop38
140
0.0
102
RTVSPost2010PropOp38
 70
     1
102
RTVSPost2010Prop39
140
1.0
102
RTVSPost2010PropOp39
 70
     1
102
RTVSPost2010Prop40
 90
        0
102
RTVSPost2010PropOp40
 70
     1
102
RTVSPost2010Prop41ColorIndex
 90
       18
102
RTVSPost2010Prop41ColorRGB
 90
        0
102
RTVSPost2010PropOp41
 70
     1
102
RTVSPost2010Prop42
 90
       50
102
RTVSPost2010PropOp42
 70
     1
102
RTVSPost2010Prop43
 90
        3
102
RTVSPost2010PropOp43
 70
     1
102
RTVSPost2010Prop44ColorIndex
 90
        5
102
RTVSPost2010Prop44ColorRGB
 90
      255
102
RTVSPost2010PropOp44
 70
     1
102
RTVSPost2010Prop45
280
     0
102
RTVSPost2010PropOp45
 70
     1
102
RTVSPost2010Prop46
 90
       50
102
RTVSPost2010PropOp46
 70
     1
102
RTVSPost2010Prop47
 90
       50
102
RTVSPost2010PropOp47
 70
     1
102
RTVSPost2010Prop48
 90
       50
102
RTVSPost2010PropOp48
 70
     1
102
RTVSPost2010Prop49
280
     0
102
RTVSPost2010PropOp49
 70
     1
102
RTVSPost2010Prop50
 90
       50
102
RTVSPost2010PropOp50
 70
     1
102
RTVSPost2010Prop51ColorIndex
 90
      256
102
RTVSPost2010Prop51ColorRGB
 90
-16777216
102
RTVSPost2010PropOp51
 70
     0
102
RTVSPost2010Prop52
140
1.0
102
RTVSPost2010PropOp52
 70
     0
102
RTVSPost2010Prop53
 90
        2
102
RTVSPost2010PropOp53
 70
     1
102
RTVSPost2010Prop54
  1
strokes_ogs.tif
102
RTVSPost2010PropOp54
 70
     1
102
RTVSPost2010Prop55
280
     0
102
RTVSPost2010PropOp55
 70
     1
102
RTVSPost2010Prop56
140
1.0
102
RTVSPost2010PropOp56
 70
     1
102
RTVSPost2010Prop57
140
1.0
102
RTVSPost2010PropOp57
 70
     1
  0
XRECORD
  5
1CD
102
{ACAD_REACTORS
330
1CC
102
}
330
1CC
100
AcDbXrecord
280
     1
102
RTVSPost2010Prop28
280
     0
102
RTVSPost2010PropOp28
 70
     1
102
RTVSPost2010Prop29
280
     1
102
RTVSPost2010PropOp29
 70
     1
102
RTVSPost2010Prop30
280
     1
102
RTVSPost2010PropOp30
 70
     1
102
RTVSPost2010Prop31
280
     0
102
RTVSPost2010PropOp31
 70
     1
102
RTVSPost2010Prop32
280
     0
102
RTVSPost2010PropOp32
 70
     1
102
RTVSPost2010Prop33
280
     0
102
RTVSPost2010PropOp33
 70
     1
102
RTVSPost2010Prop34
280
     0
102
RTVSPost2010PropOp34
 70
     1
102
RTVSPost2010Prop35
280
     0
102
RTVSPost2010PropOp35
 70
     1
102
RTVSPost2010Prop36
280
     0
102
RTVSPost2010PropOp36
 70
     1
102
RTVSPost2010Prop37
 90
       50
102
RTVSPost2010PropOp37
 70
     1
102
RTVSPost2010Prop38
140
0.0
102
RTVSPost2010PropOp38
 70
     1
102
RTVSPost2010Prop39
140
1.0
102
RTVSPost2010PropOp39
 70
     1
102
RTVSPost2010Prop40
 90
        0
102
RTVSPost2010PropOp40
 70
     1
102
RTVSPost2010Prop41ColorIndex
 90
       18
102
RTVSPost2010Prop41ColorRGB
 90
        0
102
RTVSPost2010PropOp41
 70
     1
102
RTVSPost2010Prop42
 90
       50
102
RTVSPost2010PropOp42
 70
     1
102
RTVSPost2010Prop43
 90
        3
102
RTVSPost2010PropOp43
 70
     1
102
RTVSPost2010Prop44ColorIndex
 90
        5
102
RTVSPost2010Prop44ColorRGB
 90
      255
102
RTVSPost2010PropOp44
 70
     1
102
RTVSPost2010Prop45
280
     0
102
RTVSPost2010PropOp45
 70
     1
102
RTVSPost2010Prop46
 90
       50
102
RTVSPost2010PropOp46
 70
     1
102
RTVSPost2010Prop47
 90
       50
102
RTVSPost2010PropOp47
 70
     1
102
RTVSPost2010Prop48
 90
       50
102
RTVSPost2010PropOp48
 70
     1
102
RTVSPost2010Prop49
280
     0
102
RTVSPost2010PropOp49
 70
     1
102
RTVSPost2010Prop50
 90
       50
102
RTVSPost2010PropOp50
 70
     1
102
RTVSPost2010Prop51ColorIndex
 90
      256
102
RTVSPost2010Prop51ColorRGB
 90
-16777216
102
RTVSPost2010PropOp51
 70
     0
102
RTVSPost2010Prop52
140
1.0
102
RTVSPost2010PropOp52
 70
     0
102
RTVSPost2010Prop53
 90
        2
102
RTVSPost2010PropOp53
 70
     1
102
RTVSPost2010Prop54
  1
strokes_ogs.tif
102
RTVSPost2010PropOp54
 70
     1
102
RTVSPost2010Prop55
280
     0
102
RTVSPost2010PropOp55
 70
     1
102
RTVSPost2010Prop56
140
1.0
102
RTVSPost2010PropOp56
 70
     1
102
RTVSPost2010Prop57
140
1.0
102
RTVSPost2010PropOp57
 70
     1
  0
XRECORD
  5
1BF
102
{ACAD_REACTORS
330
1BE
102
}
330
1BE
100
AcDbXrecord
280
     1
102
RTVSPost2010Prop28
280
     0
102
RTVSPost2010PropOp28
 70
     1
102
RTVSPost2010Prop29
280
     1
102
RTVSPost2010PropOp29
 70
     1
102
RTVSPost2010Prop30
280
     1
102
RTVSPost2010PropOp30
 70
     1
102
RTVSPost2010Prop31
280
     0
102
RTVSPost2010PropOp31
 70
     1
102
RTVSPost2010Prop32
280
     0
102
RTVSPost2010PropOp32
 70
     1
102
RTVSPost2010Prop33
280
     0
102
RTVSPost2010PropOp33
 70
     1
102
RTVSPost2010Prop34
280
     0
102
RTVSPost2010PropOp34
 70
     1
102
RTVSPost2010Prop35
280
     0
102
RTVSPost2010PropOp35
 70
     1
102
RTVSPost2010Prop36
280
     0
102
RTVSPost2010PropOp36
 70
     1
102
RTVSPost2010Prop37
 90
       50
102
RTVSPost2010PropOp37
 70
     1
102
RTVSPost2010Prop38
140
0.0
102
RTVSPost2010PropOp38
 70
     1
102
RTVSPost2010Prop39
140
1.0
102
RTVSPost2010PropOp39
 70
     1
102
RTVSPost2010Prop40
 90
        0
102
RTVSPost2010PropOp40
 70
     1
102
RTVSPost2010Prop41ColorIndex
 90
       18
102
RTVSPost2010Prop41ColorRGB
 90
        0
102
RTVSPost2010PropOp41
 70
     1
102
RTVSPost2010Prop42
 90
       50
102
RTVSPost2010PropOp42
 70
     1
102
RTVSPost2010Prop43
 90
        3
102
RTVSPost2010PropOp43
 70
     1
102
RTVSPost2010Prop44ColorIndex
 90
        5
102
RTVSPost2010Prop44ColorRGB
 90
      255
102
RTVSPost2010PropOp44
 70
     1
102
RTVSPost2010Prop45
280
     0
102
RTVSPost2010PropOp45
 70
     1
102
RTVSPost2010Prop46
 90
       50
102
RTVSPost2010PropOp46
 70
     1
102
RTVSPost2010Prop47
 90
       50
102
RTVSPost2010PropOp47
 70
     1
102
RTVSPost2010Prop48
 90
       50
102
RTVSPost2010PropOp48
 70
     1
102
RTVSPost2010Prop49
280
     0
102
RTVSPost2010PropOp49
 70
     1
102
RTVSPost2010Prop50
 90
       50
102
RTVSPost2010PropOp50
 70
     1
102
RTVSPost2010Prop51ColorIndex
 90
      256
102
RTVSPost2010Prop51ColorRGB
 90
-16777216
102
RTVSPost2010PropOp51
 70
     0
102
RTVSPost2010Prop52
140
1.0
102
RTVSPost2010PropOp52
 70
     0
102
RTVSPost2010Prop53
 90
        2
102
RTVSPost2010PropOp53
 70
     1
102
RTVSPost2010Prop54
  1
strokes_ogs.tif
102
RTVSPost2010PropOp54
 70
     1
102
RTVSPost2010Prop55
280
     0
102
RTVSPost2010PropOp55
 70
     1
102
RTVSPost2010Prop56
140
1.0
102
RTVSPost2010PropOp56
 70
     1
102
RTVSPost2010Prop57
140
1.0
102
RTVSPost2010PropOp57
 70
     1
  0
XRECORD
  5
1C3
102
{ACAD_REACTORS
330
1C2
102
}
330
1C2
100
AcDbXrecord
280
     1
102
RTVSPost2010Prop28
280
     0
102
RTVSPost2010PropOp28
 70
     1
102
RTVSPost2010Prop29
280
     1
102
RTVSPost2010PropOp29
 70
     1
102
RTVSPost2010Prop30
280
     1
102
RTVSPost2010PropOp30
 70
     1
102
RTVSPost2010Prop31
280
     0
102
RTVSPost2010PropOp31
 70
     1
102
RTVSPost2010Prop32
280
     0
102
RTVSPost2010PropOp32
 70
     1
102
RTVSPost2010Prop33
280
     0
102
RTVSPost2010PropOp33
 70
     1
102
RTVSPost2010Prop34
280
     0
102
RTVSPost2010PropOp34
 70
     1
102
RTVSPost2010Prop35
280
     0
102
RTVSPost2010PropOp35
 70
     1
102
RTVSPost2010Prop36
280
     0
102
RTVSPost2010PropOp36
 70
     1
102
RTVSPost2010Prop37
 90
       50
102
RTVSPost2010PropOp37
 70
     1
102
RTVSPost2010Prop38
140
0.0
102
RTVSPost2010PropOp38
 70
     1
102
RTVSPost2010Prop39
140
1.0
102
RTVSPost2010PropOp39
 70
     1
102
RTVSPost2010Prop40
 90
        0
102
RTVSPost2010PropOp40
 70
     1
102
RTVSPost2010Prop41ColorIndex
 90
       18
102
RTVSPost2010Prop41ColorRGB
 90
        0
102
RTVSPost2010PropOp41
 70
     1
102
RTVSPost2010Prop42
 90
       50
102
RTVSPost2010PropOp42
 70
     1
102
RTVSPost2010Prop43
 90
        3
102
RTVSPost2010PropOp43
 70
     1
102
RTVSPost2010Prop44ColorIndex
 90
        5
102
RTVSPost2010Prop44ColorRGB
 90
      255
102
RTVSPost2010PropOp44
 70
     1
102
RTVSPost2010Prop45
280
     0
102
RTVSPost2010PropOp45
 70
     1
102
RTVSPost2010Prop46
 90
       50
102
RTVSPost2010PropOp46
 70
     1
102
RTVSPost2010Prop47
 90
       50
102
RTVSPost2010PropOp47
 70
     1
102
RTVSPost2010Prop48
 90
       50
102
RTVSPost2010PropOp48
 70
     1
102
RTVSPost2010Prop49
280
     0
102
RTVSPost2010PropOp49
 70
     1
102
RTVSPost2010Prop50
 90
       50
102
RTVSPost2010PropOp50
 70
     1
102
RTVSPost2010Prop51ColorIndex
 90
      256
102
RTVSPost2010Prop51ColorRGB
 90
-16777216
102
RTVSPost2010PropOp51
 70
     0
102
RTVSPost2010Prop52
140
1.0
102
RTVSPost2010PropOp52
 70
     0
102
RTVSPost2010Prop53
 90
        2
102
RTVSPost2010PropOp53
 70
     1
102
RTVSPost2010Prop54
  1
strokes_ogs.tif
102
RTVSPost2010PropOp54
 70
     1
102
RTVSPost2010Prop55
280
     0
102
RTVSPost2010PropOp55
 70
     1
102
RTVSPost2010Prop56
140
1.0
102
RTVSPost2010PropOp56
 70
     1
102
RTVSPost2010Prop57
140
1.0
102
RTVSPost2010PropOp57
 70
     1
  0
XRECORD
  5
1DD
102
{ACAD_REACTORS
330
1DC
102
}
330
1DC
100
AcDbXrecord
280
     1
102
RTVSPost2010Prop28
280
     0
102
RTVSPost2010PropOp28
 70
     0
102
RTVSPost2010Prop29
280
     1
102
RTVSPost2010PropOp29
 70
     0
102
RTVSPost2010Prop30
280
     1
102
RTVSPost2010PropOp30
 70
     0
102
RTVSPost2010Prop31
280
     0
102
RTVSPost2010PropOp31
 70
     0
102
RTVSPost2010Prop32
280
     0
102
RTVSPost2010PropOp32
 70
     0
102
RTVSPost2010Prop33
280
     0
102
RTVSPost2010PropOp33
 70
     0
102
RTVSPost2010Prop34
280
     0
102
RTVSPost2010PropOp34
 70
     0
102
RTVSPost2010Prop35
280
     0
102
RTVSPost2010PropOp35
 70
     0
102
RTVSPost2010Prop36
280
     0
102
RTVSPost2010PropOp36
 70
     0
102
RTVSPost2010Prop37
 90
       50
102
RTVSPost2010PropOp37
 70
     0
102
RTVSPost2010Prop38
140
0.0
102
RTVSPost2010PropOp38
 70
     0
102
RTVSPost2010Prop39
140
1.0
102
RTVSPost2010PropOp39
 70
     0
102
RTVSPost2010Prop40
 90
        0
102
RTVSPost2010PropOp40
 70
     0
102
RTVSPost2010Prop41ColorIndex
 90
       18
102
RTVSPost2010Prop41ColorRGB
 90
        0
102
RTVSPost2010PropOp41
 70
     0
102
RTVSPost2010Prop42
 90
       50
102
RTVSPost2010PropOp42
 70
     0
102
RTVSPost2010Prop43
 90
        3
102
RTVSPost2010PropOp43
 70
     0
102
RTVSPost2010Prop44ColorIndex
 90
        5
102
RTVSPost2010Prop44ColorRGB
 90
      255
102
RTVSPost2010PropOp44
 70
     0
102
RTVSPost2010Prop45
280
     0
102
RTVSPost2010PropOp45
 70
     0
102
RTVSPost2010Prop46
 90
       50
102
RTVSPost2010PropOp46
 70
     0
102
RTVSPost2010Prop47
 90
       50
102
RTVSPost2010PropOp47
 70
     0
102
RTVSPost2010Prop48
 90
       50
102
RTVSPost2010PropOp48
 70
     0
102
RTVSPost2010Prop49
280
     0
102
RTVSPost2010PropOp49
 70
     0
102
RTVSPost2010Prop50
 90
       50
102
RTVSPost2010PropOp50
 70
     0
102
RTVSPost2010Prop51ColorIndex
 90
      256
102
RTVSPost2010Prop51ColorRGB
 90
-16777216
102
RTVSPost2010PropOp51
 70
     0
102
RTVSPost2010Prop52
140
1.0
102
RTVSPost2010PropOp52
 70
     0
102
RTVSPost2010Prop53
 90
        2
102
RTVSPost2010PropOp53
 70
     0
102
RTVSPost2010Prop54
  1
strokes_ogs.tif
102
RTVSPost2010PropOp54
 70
     0
102
RTVSPost2010Prop55
280
     0
102
RTVSPost2010PropOp55
 70
     0
102
RTVSPost2010Prop56
140
1.0
102
RTVSPost2010PropOp56
 70
     0
102
RTVSPost2010Prop57
140
1.0
102
RTVSPost2010PropOp57
 70
     0
  0
XRECORD
  5
1CB
102
{ACAD_REACTORS
330
1CA
102
}
330
1CA
100
AcDbXrecord
280
     1
102
RTVSPost2010Prop28
280
     0
102
RTVSPost2010PropOp28
 70
     1
102
RTVSPost2010Prop29
280
     1
102
RTVSPost2010PropOp29
 70
     1
102
RTVSPost2010Prop30
280
     1
102
RTVSPost2010PropOp30
 70
     1
102
RTVSPost2010Prop31
280
     0
102
RTVSPost2010PropOp31
 70
     1
102
RTVSPost2010Prop32
280
     0
102
RTVSPost2010PropOp32
 70
     1
102
RTVSPost2010Prop33
280
     0
102
RTVSPost2010PropOp33
 70
     1
102
RTVSPost2010Prop34
280
     0
102
RTVSPost2010PropOp34
 70
     1
102
RTVSPost2010Prop35
280
     0
102
RTVSPost2010PropOp35
 70
     1
102
RTVSPost2010Prop36
280
     0
102
RTVSPost2010PropOp36
 70
     1
102
RTVSPost2010Prop37
 90
       50
102
RTVSPost2010PropOp37
 70
     1
102
RTVSPost2010Prop38
140
0.0
102
RTVSPost2010PropOp38
 70
     1
102
RTVSPost2010Prop39
140
1.0
102
RTVSPost2010PropOp39
 70
     1
102
RTVSPost2010Prop40
 90
        0
102
RTVSPost2010PropOp40
 70
     1
102
RTVSPost2010Prop41ColorIndex
 90
       18
102
RTVSPost2010Prop41ColorRGB
 90
        0
102
RTVSPost2010PropOp41
 70
     1
102
RTVSPost2010Prop42
 90
       50
102
RTVSPost2010PropOp42
 70
     1
102
RTVSPost2010Prop43
 90
        3
102
RTVSPost2010PropOp43
 70
     1
102
RTVSPost2010Prop44ColorIndex
 90
        5
102
RTVSPost2010Prop44ColorRGB
 90
      255
102
RTVSPost2010PropOp44
 70
     1
102
RTVSPost2010Prop45
280
     0
102
RTVSPost2010PropOp45
 70
     1
102
RTVSPost2010Prop46
 90
       50
102
RTVSPost2010PropOp46
 70
     1
102
RTVSPost2010Prop47
 90
       50
102
RTVSPost2010PropOp47
 70
     1
102
RTVSPost2010Prop48
 90
       50
102
RTVSPost2010PropOp48
 70
     1
102
RTVSPost2010Prop49
280
     0
102
RTVSPost2010PropOp49
 70
     1
102
RTVSPost2010Prop50
 90
       50
102
RTVSPost2010PropOp50
 70
     1
102
RTVSPost2010Prop51ColorIndex
 90
      256
102
RTVSPost2010Prop51ColorRGB
 90
-16777216
102
RTVSPost2010PropOp51
 70
     0
102
RTVSPost2010Prop52
140
1.0
102
RTVSPost2010PropOp52
 70
     0
102
RTVSPost2010Prop53
 90
        2
102
RTVSPost2010PropOp53
 70
     1
102
RTVSPost2010Prop54
  1
strokes_ogs.tif
102
RTVSPost2010PropOp54
 70
     1
102
RTVSPost2010Prop55
280
     0
102
RTVSPost2010PropOp55
 70
     1
102
RTVSPost2010Prop56
140
1.0
102
RTVSPost2010PropOp56
 70
     1
102
RTVSPost2010Prop57
140
1.0
102
RTVSPost2010PropOp57
 70
     1
  0
XRECORD
  5
1AF
102
{ACAD_REACTORS
330
1AE
102
}
330
1AE
100
AcDbXrecord
280
     1
102
RTVSPost2010Prop28
280
     0
102
RTVSPost2010PropOp28
 70
     1
102
RTVSPost2010Prop29
280
     1
102
RTVSPost2010PropOp29
 70
     1
102
RTVSPost2010Prop30
280
     1
102
RTVSPost2010PropOp30
 70
     1
102
RTVSPost2010Prop31
280
     0
102
RTVSPost2010PropOp31
 70
     1
102
RTVSPost2010Prop32
280
     0
102
RTVSPost2010PropOp32
 70
     1
102
RTVSPost2010Prop33
280
     0
102
RTVSPost2010PropOp33
 70
     1
102
RTVSPost2010Prop34
280
     0
102
RTVSPost2010PropOp34
 70
     1
102
RTVSPost2010Prop35
280
     0
102
RTVSPost2010PropOp35
 70
     1
102
RTVSPost2010Prop36
280
     0
102
RTVSPost2010PropOp36
 70
     1
102
RTVSPost2010Prop37
 90
       50
102
RTVSPost2010PropOp37
 70
     1
102
RTVSPost2010Prop38
140
0.0
102
RTVSPost2010PropOp38
 70
     1
102
RTVSPost2010Prop39
140
1.0
102
RTVSPost2010PropOp39
 70
     1
102
RTVSPost2010Prop40
 90
        0
102
RTVSPost2010PropOp40
 70
     1
102
RTVSPost2010Prop41ColorIndex
 90
       18
102
RTVSPost2010Prop41ColorRGB
 90
        0
102
RTVSPost2010PropOp41
 70
     1
102
RTVSPost2010Prop42
 90
       50
102
RTVSPost2010PropOp42
 70
     1
102
RTVSPost2010Prop43
 90
        3
102
RTVSPost2010PropOp43
 70
     1
102
RTVSPost2010Prop44ColorIndex
 90
        5
102
RTVSPost2010Prop44ColorRGB
 90
      255
102
RTVSPost2010PropOp44
 70
     1
102
RTVSPost2010Prop45
280
     0
102
RTVSPost2010PropOp45
 70
     1
102
RTVSPost2010Prop46
 90
       50
102
RTVSPost2010PropOp46
 70
     1
102
RTVSPost2010Prop47
 90
       50
102
RTVSPost2010PropOp47
 70
     1
102
RTVSPost2010Prop48
 90
       50
102
RTVSPost2010PropOp48
 70
     1
102
RTVSPost2010Prop49
280
     0
102
RTVSPost2010PropOp49
 70
     1
102
RTVSPost2010Prop50
 90
       50
102
RTVSPost2010PropOp50
 70
     1
102
RTVSPost2010Prop51ColorIndex
 90
      256
102
RTVSPost2010Prop51ColorRGB
 90
-16777216
102
RTVSPost2010PropOp51
 70
     0
102
RTVSPost2010Prop52
140
1.0
102
RTVSPost2010PropOp52
 70
     0
102
RTVSPost2010Prop53
 90
        2
102
RTVSPost2010PropOp53
 70
     1
102
RTVSPost2010Prop54
  1
strokes_ogs.tif
102
RTVSPost2010PropOp54
 70
     1
102
RTVSPost2010Prop55
280
     0
102
RTVSPost2010PropOp55
 70
     1
102
RTVSPost2010Prop56
140
1.0
102
RTVSPost2010PropOp56
 70
     1
102
RTVSPost2010Prop57
140
1.0
102
RTVSPost2010PropOp57
 70
     1
  0
XRECORD
  5
1B1
102
{ACAD_REACTORS
330
1B0
102
}
330
1B0
100
AcDbXrecord
280
     1
102
RTVSPost2010Prop28
280
     0
102
RTVSPost2010PropOp28
 70
     1
102
RTVSPost2010Prop29
280
     1
102
RTVSPost2010PropOp29
 70
     1
102
RTVSPost2010Prop30
280
     1
102
RTVSPost2010PropOp30
 70
     1
102
RTVSPost2010Prop31
280
     0
102
RTVSPost2010PropOp31
 70
     1
102
RTVSPost2010Prop32
280
     0
102
RTVSPost2010PropOp32
 70
     1
102
RTVSPost2010Prop33
280
     0
102
RTVSPost2010PropOp33
 70
     1
102
RTVSPost2010Prop34
280
     0
102
RTVSPost2010PropOp34
 70
     1
102
RTVSPost2010Prop35
280
     0
102
RTVSPost2010PropOp35
 70
     1
102
RTVSPost2010Prop36
280
     0
102
RTVSPost2010PropOp36
 70
     1
102
RTVSPost2010Prop37
 90
       50
102
RTVSPost2010PropOp37
 70
     1
102
RTVSPost2010Prop38
140
0.0
102
RTVSPost2010PropOp38
 70
     1
102
RTVSPost2010Prop39
140
1.0
102
RTVSPost2010PropOp39
 70
     1
102
RTVSPost2010Prop40
 90
        0
102
RTVSPost2010PropOp40
 70
     1
102
RTVSPost2010Prop41ColorIndex
 90
       18
102
RTVSPost2010Prop41ColorRGB
 90
        0
102
RTVSPost2010PropOp41
 70
     1
102
RTVSPost2010Prop42
 90
       50
102
RTVSPost2010PropOp42
 70
     1
102
RTVSPost2010Prop43
 90
        3
102
RTVSPost2010PropOp43
 70
     1
102
RTVSPost2010Prop44ColorIndex
 90
        5
102
RTVSPost2010Prop44ColorRGB
 90
      255
102
RTVSPost2010PropOp44
 70
     1
102
RTVSPost2010Prop45
280
     0
102
RTVSPost2010PropOp45
 70
     1
102
RTVSPost2010Prop46
 90
       50
102
RTVSPost2010PropOp46
 70
     1
102
RTVSPost2010Prop47
 90
       50
102
RTVSPost2010PropOp47
 70
     1
102
RTVSPost2010Prop48
 90
       50
102
RTVSPost2010PropOp48
 70
     1
102
RTVSPost2010Prop49
280
     0
102
RTVSPost2010PropOp49
 70
     1
102
RTVSPost2010Prop50
 90
       50
102
RTVSPost2010PropOp50
 70
     1
102
RTVSPost2010Prop51ColorIndex
 90
      256
102
RTVSPost2010Prop51ColorRGB
 90
-16777216
102
RTVSPost2010PropOp51
 70
     0
102
RTVSPost2010Prop52
140
1.0
102
RTVSPost2010PropOp52
 70
     0
102
RTVSPost2010Prop53
 90
        2
102
RTVSPost2010PropOp53
 70
     1
102
RTVSPost2010Prop54
  1
strokes_ogs.tif
102
RTVSPost2010PropOp54
 70
     1
102
RTVSPost2010Prop55
280
     0
102
RTVSPost2010PropOp55
 70
     1
102
RTVSPost2010Prop56
140
1.0
102
RTVSPost2010PropOp56
 70
     1
102
RTVSPost2010Prop57
140
1.0
102
RTVSPost2010PropOp57
 70
     1
  0
XRECORD
  5
1B3
102
{ACAD_REACTORS
330
1B2
102
}
330
1B2
100
AcDbXrecord
280
     1
102
RTVSPost2010Prop28
280
     0
102
RTVSPost2010PropOp28
 70
     1
102
RTVSPost2010Prop29
280
     1
102
RTVSPost2010PropOp29
 70
     1
102
RTVSPost2010Prop30
280
     1
102
RTVSPost2010PropOp30
 70
     1
102
RTVSPost2010Prop31
280
     0
102
RTVSPost2010PropOp31
 70
     1
102
RTVSPost2010Prop32
280
     0
102
RTVSPost2010PropOp32
 70
     1
102
RTVSPost2010Prop33
280
     0
102
RTVSPost2010PropOp33
 70
     1
102
RTVSPost2010Prop34
280
     0
102
RTVSPost2010PropOp34
 70
     1
102
RTVSPost2010Prop35
280
     0
102
RTVSPost2010PropOp35
 70
     1
102
RTVSPost2010Prop36
280
     0
102
RTVSPost2010PropOp36
 70
     1
102
RTVSPost2010Prop37
 90
       50
102
RTVSPost2010PropOp37
 70
     1
102
RTVSPost2010Prop38
140
0.0
102
RTVSPost2010PropOp38
 70
     1
102
RTVSPost2010Prop39
140
1.0
102
RTVSPost2010PropOp39
 70
     1
102
RTVSPost2010Prop40
 90
        0
102
RTVSPost2010PropOp40
 70
     1
102
RTVSPost2010Prop41ColorIndex
 90
       18
102
RTVSPost2010Prop41ColorRGB
 90
        0
102
RTVSPost2010PropOp41
 70
     1
102
RTVSPost2010Prop42
 90
       50
102
RTVSPost2010PropOp42
 70
     1
102
RTVSPost2010Prop43
 90
        3
102
RTVSPost2010PropOp43
 70
     1
102
RTVSPost2010Prop44ColorIndex
 90
        5
102
RTVSPost2010Prop44ColorRGB
 90
      255
102
RTVSPost2010PropOp44
 70
     1
102
RTVSPost2010Prop45
280
     0
102
RTVSPost2010PropOp45
 70
     1
102
RTVSPost2010Prop46
 90
       50
102
RTVSPost2010PropOp46
 70
     1
102
RTVSPost2010Prop47
 90
       50
102
RTVSPost2010PropOp47
 70
     1
102
RTVSPost2010Prop48
 90
       50
102
RTVSPost2010PropOp48
 70
     1
102
RTVSPost2010Prop49
280
     0
102
RTVSPost2010PropOp49
 70
     1
102
RTVSPost2010Prop50
 90
       50
102
RTVSPost2010PropOp50
 70
     1
102
RTVSPost2010Prop51ColorIndex
 90
      256
102
RTVSPost2010Prop51ColorRGB
 90
-16777216
102
RTVSPost2010PropOp51
 70
     0
102
RTVSPost2010Prop52
140
1.0
102
RTVSPost2010PropOp52
 70
     0
102
RTVSPost2010Prop53
 90
        2
102
RTVSPost2010PropOp53
 70
     1
102
RTVSPost2010Prop54
  1
strokes_ogs.tif
102
RTVSPost2010PropOp54
 70
     1
102
RTVSPost2010Prop55
280
     0
102
RTVSPost2010PropOp55
 70
     1
102
RTVSPost2010Prop56
140
1.0
102
RTVSPost2010PropOp56
 70
     1
102
RTVSPost2010Prop57
140
1.0
102
RTVSPost2010PropOp57
 70
     1
  0
XRECORD
  5
1B5
102
{ACAD_REACTORS
330
1B4
102
}
330
1B4
100
AcDbXrecord
280
     1
102
RTVSPost2010Prop28
280
     0
102
RTVSPost2010PropOp28
 70
     1
102
RTVSPost2010Prop29
280
     1
102
RTVSPost2010PropOp29
 70
     1
102
RTVSPost2010Prop30
280
     1
102
RTVSPost2010PropOp30
 70
     1
102
RTVSPost2010Prop31
280
     0
102
RTVSPost2010PropOp31
 70
     1
102
RTVSPost2010Prop32
280
     0
102
RTVSPost2010PropOp32
 70
     1
102
RTVSPost2010Prop33
280
     0
102
RTVSPost2010PropOp33
 70
     1
102
RTVSPost2010Prop34
280
     0
102
RTVSPost2010PropOp34
 70
     1
102
RTVSPost2010Prop35
280
     0
102
RTVSPost2010PropOp35
 70
     1
102
RTVSPost2010Prop36
280
     0
102
RTVSPost2010PropOp36
 70
     1
102
RTVSPost2010Prop37
 90
       50
102
RTVSPost2010PropOp37
 70
     1
102
RTVSPost2010Prop38
140
0.0
102
RTVSPost2010PropOp38
 70
     1
102
RTVSPost2010Prop39
140
1.0
102
RTVSPost2010PropOp39
 70
     1
102
RTVSPost2010Prop40
 90
        0
102
RTVSPost2010PropOp40
 70
     1
102
RTVSPost2010Prop41ColorIndex
 90
       18
102
RTVSPost2010Prop41ColorRGB
 90
        0
102
RTVSPost2010PropOp41
 70
     1
102
RTVSPost2010Prop42
 90
       50
102
RTVSPost2010PropOp42
 70
     1
102
RTVSPost2010Prop43
 90
        3
102
RTVSPost2010PropOp43
 70
     1
102
RTVSPost2010Prop44ColorIndex
 90
        5
102
RTVSPost2010Prop44ColorRGB
 90
      255
102
RTVSPost2010PropOp44
 70
     1
102
RTVSPost2010Prop45
280
     0
102
RTVSPost2010PropOp45
 70
     1
102
RTVSPost2010Prop46
 90
       50
102
RTVSPost2010PropOp46
 70
     1
102
RTVSPost2010Prop47
 90
       50
102
RTVSPost2010PropOp47
 70
     1
102
RTVSPost2010Prop48
 90
       50
102
RTVSPost2010PropOp48
 70
     1
102
RTVSPost2010Prop49
280
     0
102
RTVSPost2010PropOp49
 70
     1
102
RTVSPost2010Prop50
 90
       50
102
RTVSPost2010PropOp50
 70
     1
102
RTVSPost2010Prop51ColorIndex
 90
      256
102
RTVSPost2010Prop51ColorRGB
 90
-16777216
102
RTVSPost2010PropOp51
 70
     0
102
RTVSPost2010Prop52
140
1.0
102
RTVSPost2010PropOp52
 70
     0
102
RTVSPost2010Prop53
 90
        2
102
RTVSPost2010PropOp53
 70
     1
102
RTVSPost2010Prop54
  1
strokes_ogs.tif
102
RTVSPost2010PropOp54
 70
     1
102
RTVSPost2010Prop55
280
     0
102
RTVSPost2010PropOp55
 70
     1
102
RTVSPost2010Prop56
140
1.0
102
RTVSPost2010PropOp56
 70
     1
102
RTVSPost2010Prop57
140
1.0
102
RTVSPost2010PropOp57
 70
     1
  0
XRECORD
  5
1BD
102
{ACAD_REACTORS
330
1BC
102
}
330
1BC
100
AcDbXrecord
280
     1
102
RTVSPost2010Prop28
280
     0
102
RTVSPost2010PropOp28
 70
     1
102
RTVSPost2010Prop29
280
     1
102
RTVSPost2010PropOp29
 70
     1
102
RTVSPost2010Prop30
280
     1
102
RTVSPost2010PropOp30
 70
     1
102
RTVSPost2010Prop31
280
     0
102
RTVSPost2010PropOp31
 70
     1
102
RTVSPost2010Prop32
280
     0
102
RTVSPost2010PropOp32
 70
     1
102
RTVSPost2010Prop33
280
     0
102
RTVSPost2010PropOp33
 70
     1
102
RTVSPost2010Prop34
280
     0
102
RTVSPost2010PropOp34
 70
     1
102
RTVSPost2010Prop35
280
     0
102
RTVSPost2010PropOp35
 70
     1
102
RTVSPost2010Prop36
280
     0
102
RTVSPost2010PropOp36
 70
     1
102
RTVSPost2010Prop37
 90
       50
102
RTVSPost2010PropOp37
 70
     1
102
RTVSPost2010Prop38
140
0.0
102
RTVSPost2010PropOp38
 70
     1
102
RTVSPost2010Prop39
140
1.0
102
RTVSPost2010PropOp39
 70
     1
102
RTVSPost2010Prop40
 90
        0
102
RTVSPost2010PropOp40
 70
     1
102
RTVSPost2010Prop41ColorIndex
 90
       18
102
RTVSPost2010Prop41ColorRGB
 90
        0
102
RTVSPost2010PropOp41
 70
     1
102
RTVSPost2010Prop42
 90
       50
102
RTVSPost2010PropOp42
 70
     1
102
RTVSPost2010Prop43
 90
        3
102
RTVSPost2010PropOp43
 70
     1
102
RTVSPost2010Prop44ColorIndex
 90
        5
102
RTVSPost2010Prop44ColorRGB
 90
      255
102
RTVSPost2010PropOp44
 70
     1
102
RTVSPost2010Prop45
280
     0
102
RTVSPost2010PropOp45
 70
     1
102
RTVSPost2010Prop46
 90
       50
102
RTVSPost2010PropOp46
 70
     1
102
RTVSPost2010Prop47
 90
       50
102
RTVSPost2010PropOp47
 70
     1
102
RTVSPost2010Prop48
 90
       50
102
RTVSPost2010PropOp48
 70
     1
102
RTVSPost2010Prop49
280
     0
102
RTVSPost2010PropOp49
 70
     1
102
RTVSPost2010Prop50
 90
       50
102
RTVSPost2010PropOp50
 70
     1
102
RTVSPost2010Prop51ColorIndex
 90
      256
102
RTVSPost2010Prop51ColorRGB
 90
-16777216
102
RTVSPost2010PropOp51
 70
     0
102
RTVSPost2010Prop52
140
1.0
102
RTVSPost2010PropOp52
 70
     0
102
RTVSPost2010Prop53
 90
        2
102
RTVSPost2010PropOp53
 70
     1
102
RTVSPost2010Prop54
  1
strokes_ogs.tif
102
RTVSPost2010PropOp54
 70
     1
102
RTVSPost2010Prop55
280
     0
102
RTVSPost2010PropOp55
 70
     1
102
RTVSPost2010Prop56
140
1.0
102
RTVSPost2010PropOp56
 70
     1
102
RTVSPost2010Prop57
140
1.0
102
RTVSPost2010PropOp57
 70
     1
  0
XRECORD
  5
1D9
102
{ACAD_REACTORS
330
1D8
102
}
330
1D8
100
AcDbXrecord
280
     1
102
RTVSPost2010Prop28
280
     0
102
RTVSPost2010PropOp28
 70
     0
102
RTVSPost2010Prop29
280
     1
102
RTVSPost2010PropOp29
 70
     0
102
RTVSPost2010Prop30
280
     1
102
RTVSPost2010PropOp30
 70
     0
102
RTVSPost2010Prop31
280
     0
102
RTVSPost2010PropOp31
 70
     0
102
RTVSPost2010Prop32
280
     0
102
RTVSPost2010PropOp32
 70
     0
102
RTVSPost2010Prop33
280
     0
102
RTVSPost2010PropOp33
 70
     0
102
RTVSPost2010Prop34
280
     0
102
RTVSPost2010PropOp34
 70
     0
102
RTVSPost2010Prop35
280
     0
102
RTVSPost2010PropOp35
 70
     0
102
RTVSPost2010Prop36
280
     0
102
RTVSPost2010PropOp36
 70
     0
102
RTVSPost2010Prop37
 90
       50
102
RTVSPost2010PropOp37
 70
     0
102
RTVSPost2010Prop38
140
0.0
102
RTVSPost2010PropOp38
 70
     0
102
RTVSPost2010Prop39
140
1.0
102
RTVSPost2010PropOp39
 70
     0
102
RTVSPost2010Prop40
 90
        0
102
RTVSPost2010PropOp40
 70
     0
102
RTVSPost2010Prop41ColorIndex
 90
       18
102
RTVSPost2010Prop41ColorRGB
 90
        0
102
RTVSPost2010PropOp41
 70
     0
102
RTVSPost2010Prop42
 90
       50
102
RTVSPost2010PropOp42
 70
     0
102
RTVSPost2010Prop43
 90
        3
102
RTVSPost2010PropOp43
 70
     0
102
RTVSPost2010Prop44ColorIndex
 90
        5
102
RTVSPost2010Prop44ColorRGB
 90
      255
102
RTVSPost2010PropOp44
 70
     0
102
RTVSPost2010Prop45
280
     0
102
RTVSPost2010PropOp45
 70
     0
102
RTVSPost2010Prop46
 90
       50
102
RTVSPost2010PropOp46
 70
     0
102
RTVSPost2010Prop47
 90
       50
102
RTVSPost2010PropOp47
 70
     0
102
RTVSPost2010Prop48
 90
       50
102
RTVSPost2010PropOp48
 70
     0
102
RTVSPost2010Prop49
280
     0
102
RTVSPost2010PropOp49
 70
     0
102
RTVSPost2010Prop50
 90
       50
102
RTVSPost2010PropOp50
 70
     0
102
RTVSPost2010Prop51ColorIndex
 90
      256
102
RTVSPost2010Prop51ColorRGB
 90
-16777216
102
RTVSPost2010PropOp51
 70
     0
102
RTVSPost2010Prop52
140
1.0
102
RTVSPost2010PropOp52
 70
     0
102
RTVSPost2010Prop53
 90
        2
102
RTVSPost2010PropOp53
 70
     0
102
RTVSPost2010Prop54
  1
strokes_ogs.tif
102
RTVSPost2010PropOp54
 70
     0
102
RTVSPost2010Prop55
280
     0
102
RTVSPost2010PropOp55
 70
     0
102
RTVSPost2010Prop56
140
1.0
102
RTVSPost2010PropOp56
 70
     0
102
RTVSPost2010Prop57
140
1.0
102
RTVSPost2010PropOp57
 70
     0
  0
XRECORD
  5
1C9
102
{ACAD_REACTORS
330
1C8
102
}
330
1C8
100
AcDbXrecord
280
     1
102
RTVSPost2010Prop28
280
     0
102
RTVSPost2010PropOp28
 70
     1
102
RTVSPost2010Prop29
280
     1
102
RTVSPost2010PropOp29
 70
     1
102
RTVSPost2010Prop30
280
     1
102
RTVSPost2010PropOp30
 70
     1
102
RTVSPost2010Prop31
280
     0
102
RTVSPost2010PropOp31
 70
     1
102
RTVSPost2010Prop32
280
     0
102
RTVSPost2010PropOp32
 70
     1
102
RTVSPost2010Prop33
280
     0
102
RTVSPost2010PropOp33
 70
     1
102
RTVSPost2010Prop34
280
     0
102
RTVSPost2010PropOp34
 70
     1
102
RTVSPost2010Prop35
280
     0
102
RTVSPost2010PropOp35
 70
     1
102
RTVSPost2010Prop36
280
     0
102
RTVSPost2010PropOp36
 70
     1
102
RTVSPost2010Prop37
 90
       50
102
RTVSPost2010PropOp37
 70
     1
102
RTVSPost2010Prop38
140
0.0
102
RTVSPost2010PropOp38
 70
     1
102
RTVSPost2010Prop39
140
1.0
102
RTVSPost2010PropOp39
 70
     1
102
RTVSPost2010Prop40
 90
        0
102
RTVSPost2010PropOp40
 70
     1
102
RTVSPost2010Prop41ColorIndex
 90
       18
102
RTVSPost2010Prop41ColorRGB
 90
        0
102
RTVSPost2010PropOp41
 70
     1
102
RTVSPost2010Prop42
 90
       50
102
RTVSPost2010PropOp42
 70
     1
102
RTVSPost2010Prop43
 90
        3
102
RTVSPost2010PropOp43
 70
     1
102
RTVSPost2010Prop44ColorIndex
 90
        5
102
RTVSPost2010Prop44ColorRGB
 90
      255
102
RTVSPost2010PropOp44
 70
     1
102
RTVSPost2010Prop45
280
     0
102
RTVSPost2010PropOp45
 70
     1
102
RTVSPost2010Prop46
 90
       50
102
RTVSPost2010PropOp46
 70
     1
102
RTVSPost2010Prop47
 90
       50
102
RTVSPost2010PropOp47
 70
     1
102
RTVSPost2010Prop48
 90
       50
102
RTVSPost2010PropOp48
 70
     1
102
RTVSPost2010Prop49
280
     0
102
RTVSPost2010PropOp49
 70
     1
102
RTVSPost2010Prop50
 90
       50
102
RTVSPost2010PropOp50
 70
     1
102
RTVSPost2010Prop51ColorIndex
 90
      256
102
RTVSPost2010Prop51ColorRGB
 90
-16777216
102
RTVSPost2010PropOp51
 70
     0
102
RTVSPost2010Prop52
140
1.0
102
RTVSPost2010PropOp52
 70
     0
102
RTVSPost2010Prop53
 90
        2
102
RTVSPost2010PropOp53
 70
     1
102
RTVSPost2010Prop54
  1
strokes_ogs.tif
102
RTVSPost2010PropOp54
 70
     1
102
RTVSPost2010Prop55
280
     0
102
RTVSPost2010PropOp55
 70
     1
102
RTVSPost2010Prop56
140
1.0
102
RTVSPost2010PropOp56
 70
     1
102
RTVSPost2010Prop57
140
1.0
102
RTVSPost2010PropOp57
 70
     1
  0
XRECORD
  5
1DB
102
{ACAD_REACTORS
330
1DA
102
}
330
1DA
100
AcDbXrecord
280
     1
102
RTVSPost2010Prop28
280
     0
102
RTVSPost2010PropOp28
 70
     0
102
RTVSPost2010Prop29
280
     1
102
RTVSPost2010PropOp29
 70
     0
102
RTVSPost2010Prop30
280
     1
102
RTVSPost2010PropOp30
 70
     0
102
RTVSPost2010Prop31
280
     0
102
RTVSPost2010PropOp31
 70
     0
102
RTVSPost2010Prop32
280
     0
102
RTVSPost2010PropOp32
 70
     0
102
RTVSPost2010Prop33
280
     0
102
RTVSPost2010PropOp33
 70
     0
102
RTVSPost2010Prop34
280
     0
102
RTVSPost2010PropOp34
 70
     0
102
RTVSPost2010Prop35
280
     0
102
RTVSPost2010PropOp35
 70
     0
102
RTVSPost2010Prop36
280
     0
102
RTVSPost2010PropOp36
 70
     0
102
RTVSPost2010Prop37
 90
       50
102
RTVSPost2010PropOp37
 70
     0
102
RTVSPost2010Prop38
140
0.0
102
RTVSPost2010PropOp38
 70
     0
102
RTVSPost2010Prop39
140
1.0
102
RTVSPost2010PropOp39
 70
     0
102
RTVSPost2010Prop40
 90
        0
102
RTVSPost2010PropOp40
 70
     0
102
RTVSPost2010Prop41ColorIndex
 90
       18
102
RTVSPost2010Prop41ColorRGB
 90
        0
102
RTVSPost2010PropOp41
 70
     0
102
RTVSPost2010Prop42
 90
       50
102
RTVSPost2010PropOp42
 70
     0
102
RTVSPost2010Prop43
 90
        3
102
RTVSPost2010PropOp43
 70
     0
102
RTVSPost2010Prop44ColorIndex
 90
        5
102
RTVSPost2010Prop44ColorRGB
 90
      255
102
RTVSPost2010PropOp44
 70
     0
102
RTVSPost2010Prop45
280
     0
102
RTVSPost2010PropOp45
 70
     0
102
RTVSPost2010Prop46
 90
       50
102
RTVSPost2010PropOp46
 70
     0
102
RTVSPost2010Prop47
 90
       50
102
RTVSPost2010PropOp47
 70
     0
102
RTVSPost2010Prop48
 90
       50
102
RTVSPost2010PropOp48
 70
     0
102
RTVSPost2010Prop49
280
     0
102
RTVSPost2010PropOp49
 70
     0
102
RTVSPost2010Prop50
 90
       50
102
RTVSPost2010PropOp50
 70
     0
102
RTVSPost2010Prop51ColorIndex
 90
      256
102
RTVSPost2010Prop51ColorRGB
 90
-16777216
102
RTVSPost2010PropOp51
 70
     0
102
RTVSPost2010Prop52
140
1.0
102
RTVSPost2010PropOp52
 70
     0
102
RTVSPost2010Prop53
 90
        2
102
RTVSPost2010PropOp53
 70
     0
102
RTVSPost2010Prop54
  1
strokes_ogs.tif
102
RTVSPost2010PropOp54
 70
     0
102
RTVSPost2010Prop55
280
     0
102
RTVSPost2010PropOp55
 70
     0
102
RTVSPost2010Prop56
140
1.0
102
RTVSPost2010PropOp56
 70
     0
102
RTVSPost2010Prop57
140
1.0
102
RTVSPost2010PropOp57
 70
     0
  0
XRECORD
  5
1C1
102
{ACAD_REACTORS
330
1C0
102
}
330
1C0
100
AcDbXrecord
280
     1
102
RTVSPost2010Prop28
280
     0
102
RTVSPost2010PropOp28
 70
     1
102
RTVSPost2010Prop29
280
     1
102
RTVSPost2010PropOp29
 70
     1
102
RTVSPost2010Prop30
280
     1
102
RTVSPost2010PropOp30
 70
     1
102
RTVSPost2010Prop31
280
     0
102
RTVSPost2010PropOp31
 70
     1
102
RTVSPost2010Prop32
280
     0
102
RTVSPost2010PropOp32
 70
     1
102
RTVSPost2010Prop33
280
     0
102
RTVSPost2010PropOp33
 70
     1
102
RTVSPost2010Prop34
280
     0
102
RTVSPost2010PropOp34
 70
     1
102
RTVSPost2010Prop35
280
     0
102
RTVSPost2010PropOp35
 70
     1
102
RTVSPost2010Prop36
280
     0
102
RTVSPost2010PropOp36
 70
     1
102
RTVSPost2010Prop37
 90
       50
102
RTVSPost2010PropOp37
 70
     1
102
RTVSPost2010Prop38
140
0.0
102
RTVSPost2010PropOp38
 70
     1
102
RTVSPost2010Prop39
140
1.0
102
RTVSPost2010PropOp39
 70
     1
102
RTVSPost2010Prop40
 90
        0
102
RTVSPost2010PropOp40
 70
     1
102
RTVSPost2010Prop41ColorIndex
 90
       18
102
RTVSPost2010Prop41ColorRGB
 90
        0
102
RTVSPost2010PropOp41
 70
     1
102
RTVSPost2010Prop42
 90
       50
102
RTVSPost2010PropOp42
 70
     1
102
RTVSPost2010Prop43
 90
        3
102
RTVSPost2010PropOp43
 70
     1
102
RTVSPost2010Prop44ColorIndex
 90
        5
102
RTVSPost2010Prop44ColorRGB
 90
      255
102
RTVSPost2010PropOp44
 70
     1
102
RTVSPost2010Prop45
280
     0
102
RTVSPost2010PropOp45
 70
     1
102
RTVSPost2010Prop46
 90
       50
102
RTVSPost2010PropOp46
 70
     1
102
RTVSPost2010Prop47
 90
       50
102
RTVSPost2010PropOp47
 70
     1
102
RTVSPost2010Prop48
 90
       50
102
RTVSPost2010PropOp48
 70
     1
102
RTVSPost2010Prop49
280
     0
102
RTVSPost2010PropOp49
 70
     1
102
RTVSPost2010Prop50
 90
       50
102
RTVSPost2010PropOp50
 70
     1
102
RTVSPost2010Prop51ColorIndex
 90
      256
102
RTVSPost2010Prop51ColorRGB
 90
-16777216
102
RTVSPost2010PropOp51
 70
     0
102
RTVSPost2010Prop52
140
1.0
102
RTVSPost2010PropOp52
 70
     0
102
RTVSPost2010Prop53
 90
        2
102
RTVSPost2010PropOp53
 70
     1
102
RTVSPost2010Prop54
  1
strokes_ogs.tif
102
RTVSPost2010PropOp54
 70
     1
102
RTVSPost2010Prop55
280
     0
102
RTVSPost2010PropOp55
 70
     1
102
RTVSPost2010Prop56
140
1.0
102
RTVSPost2010PropOp56
 70
     1
102
RTVSPost2010Prop57
140
1.0
102
RTVSPost2010PropOp57
 70
     1
  0
XRECORD
  5
1D7
102
{ACAD_REACTORS
330
1D6
102
}
330
1D6
100
AcDbXrecord
280
     1
102
RTVSPost2010Prop28
280
     0
102
RTVSPost2010PropOp28
 70
     1
102
RTVSPost2010Prop29
280
     1
102
RTVSPost2010PropOp29
 70
     1
102
RTVSPost2010Prop30
280
     1
102
RTVSPost2010PropOp30
 70
     1
102
RTVSPost2010Prop31
280
     0
102
RTVSPost2010PropOp31
 70
     1
102
RTVSPost2010Prop32
280
     0
102
RTVSPost2010PropOp32
 70
     1
102
RTVSPost2010Prop33
280
     0
102
RTVSPost2010PropOp33
 70
     1
102
RTVSPost2010Prop34
280
     0
102
RTVSPost2010PropOp34
 70
     1
102
RTVSPost2010Prop35
280
     0
102
RTVSPost2010PropOp35
 70
     1
102
RTVSPost2010Prop36
280
     0
102
RTVSPost2010PropOp36
 70
     1
102
RTVSPost2010Prop37
 90
       50
102
RTVSPost2010PropOp37
 70
     1
102
RTVSPost2010Prop38
140
0.0
102
RTVSPost2010PropOp38
 70
     1
102
RTVSPost2010Prop39
140
1.0
102
RTVSPost2010PropOp39
 70
     1
102
RTVSPost2010Prop40
 90
        0
102
RTVSPost2010PropOp40
 70
     1
102
RTVSPost2010Prop41ColorIndex
 90
       18
102
RTVSPost2010Prop41ColorRGB
 90
        0
102
RTVSPost2010PropOp41
 70
     1
102
RTVSPost2010Prop42
 90
       50
102
RTVSPost2010PropOp42
 70
     1
102
RTVSPost2010Prop43
 90
        3
102
RTVSPost2010PropOp43
 70
     1
102
RTVSPost2010Prop44ColorIndex
 90
        5
102
RTVSPost2010Prop44ColorRGB
 90
      255
102
RTVSPost2010PropOp44
 70
     1
102
RTVSPost2010Prop45
280
     0
102
RTVSPost2010PropOp45
 70
     1
102
RTVSPost2010Prop46
 90
       50
102
RTVSPost2010PropOp46
 70
     1
102
RTVSPost2010Prop47
 90
       50
102
RTVSPost2010PropOp47
 70
     1
102
RTVSPost2010Prop48
 90
       50
102
RTVSPost2010PropOp48
 70
     1
102
RTVSPost2010Prop49
280
     0
102
RTVSPost2010PropOp49
 70
     1
102
RTVSPost2010Prop50
 90
       50
102
RTVSPost2010PropOp50
 70
     1
102
RTVSPost2010Prop51ColorIndex
 90
      256
102
RTVSPost2010Prop51ColorRGB
 90
-16777216
102
RTVSPost2010PropOp51
 70
     0
102
RTVSPost2010Prop52
140
1.0
102
RTVSPost2010PropOp52
 70
     0
102
RTVSPost2010Prop53
 90
        2
102
RTVSPost2010PropOp53
 70
     1
102
RTVSPost2010Prop54
  1
strokes_ogs.tif
102
RTVSPost2010PropOp54
 70
     1
102
RTVSPost2010Prop55
280
     0
102
RTVSPost2010PropOp55
 70
     1
102
RTVSPost2010Prop56
140
1.0
102
RTVSPost2010PropOp56
 70
     1
102
RTVSPost2010Prop57
140
1.0
102
RTVSPost2010PropOp57
 70
     1
  0
XRECORD
  5
1D5
102
{ACAD_REACTORS
330
1D4
102
}
330
1D4
100
AcDbXrecord
280
     1
102
RTVSPost2010Prop28
280
     0
102
RTVSPost2010PropOp28
 70
     1
102
RTVSPost2010Prop29
280
     1
102
RTVSPost2010PropOp29
 70
     1
102
RTVSPost2010Prop30
280
     1
102
RTVSPost2010PropOp30
 70
     1
102
RTVSPost2010Prop31
280
     0
102
RTVSPost2010PropOp31
 70
     1
102
RTVSPost2010Prop32
280
     0
102
RTVSPost2010PropOp32
 70
     1
102
RTVSPost2010Prop33
280
     0
102
RTVSPost2010PropOp33
 70
     1
102
RTVSPost2010Prop34
280
     0
102
RTVSPost2010PropOp34
 70
     1
102
RTVSPost2010Prop35
280
     0
102
RTVSPost2010PropOp35
 70
     1
102
RTVSPost2010Prop36
280
     0
102
RTVSPost2010PropOp36
 70
     1
102
RTVSPost2010Prop37
 90
       50
102
RTVSPost2010PropOp37
 70
     1
102
RTVSPost2010Prop38
140
0.0
102
RTVSPost2010PropOp38
 70
     1
102
RTVSPost2010Prop39
140
1.0
102
RTVSPost2010PropOp39
 70
     1
102
RTVSPost2010Prop40
 90
        0
102
RTVSPost2010PropOp40
 70
     1
102
RTVSPost2010Prop41ColorIndex
 90
       18
102
RTVSPost2010Prop41ColorRGB
 90
        0
102
RTVSPost2010PropOp41
 70
     1
102
RTVSPost2010Prop42
 90
       50
102
RTVSPost2010PropOp42
 70
     1
102
RTVSPost2010Prop43
 90
        3
102
RTVSPost2010PropOp43
 70
     1
102
RTVSPost2010Prop44ColorIndex
 90
        5
102
RTVSPost2010Prop44ColorRGB
 90
      255
102
RTVSPost2010PropOp44
 70
     1
102
RTVSPost2010Prop45
280
     0
102
RTVSPost2010PropOp45
 70
     1
102
RTVSPost2010Prop46
 90
       50
102
RTVSPost2010PropOp46
 70
     1
102
RTVSPost2010Prop47
 90
       50
102
RTVSPost2010PropOp47
 70
     1
102
RTVSPost2010Prop48
 90
       50
102
RTVSPost2010PropOp48
 70
     1
102
RTVSPost2010Prop49
280
     0
102
RTVSPost2010PropOp49
 70
     1
102
RTVSPost2010Prop50
 90
       50
102
RTVSPost2010PropOp50
 70
     1
102
RTVSPost2010Prop51ColorIndex
 90
      256
102
RTVSPost2010Prop51ColorRGB
 90
-16777216
102
RTVSPost2010PropOp51
 70
     0
102
RTVSPost2010Prop52
140
1.0
102
RTVSPost2010PropOp52
 70
     0
102
RTVSPost2010Prop53
 90
        2
102
RTVSPost2010PropOp53
 70
     1
102
RTVSPost2010Prop54
  1
strokes_ogs.tif
102
RTVSPost2010PropOp54
 70
     1
102
RTVSPost2010Prop55
280
     0
102
RTVSPost2010PropOp55
 70
     1
102
RTVSPost2010Prop56
140
1.0
102
RTVSPost2010PropOp56
 70
     1
102
RTVSPost2010Prop57
140
1.0
102
RTVSPost2010PropOp57
 70
     1
  0
XRECORD
  5
1CF
102
{ACAD_REACTORS
330
1CE
102
}
330
1CE
100
AcDbXrecord
280
     1
102
RTVSPost2010Prop28
280
     0
102
RTVSPost2010PropOp28
 70
     1
102
RTVSPost2010Prop29
280
     1
102
RTVSPost2010PropOp29
 70
     1
102
RTVSPost2010Prop30
280
     1
102
RTVSPost2010PropOp30
 70
     1
102
RTVSPost2010Prop31
280
     0
102
RTVSPost2010PropOp31
 70
     1
102
RTVSPost2010Prop32
280
     0
102
RTVSPost2010PropOp32
 70
     1
102
RTVSPost2010Prop33
280
     0
102
RTVSPost2010PropOp33
 70
     1
102
RTVSPost2010Prop34
280
     0
102
RTVSPost2010PropOp34
 70
     1
102
RTVSPost2010Prop35
280
     0
102
RTVSPost2010PropOp35
 70
     1
102
RTVSPost2010Prop36
280
     0
102
RTVSPost2010PropOp36
 70
     1
102
RTVSPost2010Prop37
 90
       50
102
RTVSPost2010PropOp37
 70
     1
102
RTVSPost2010Prop38
140
0.0
102
RTVSPost2010PropOp38
 70
     1
102
RTVSPost2010Prop39
140
1.0
102
RTVSPost2010PropOp39
 70
     1
102
RTVSPost2010Prop40
 90
        0
102
RTVSPost2010PropOp40
 70
     1
102
RTVSPost2010Prop41ColorIndex
 90
       18
102
RTVSPost2010Prop41ColorRGB
 90
        0
102
RTVSPost2010PropOp41
 70
     1
102
RTVSPost2010Prop42
 90
       50
102
RTVSPost2010PropOp42
 70
     1
102
RTVSPost2010Prop43
 90
        3
102
RTVSPost2010PropOp43
 70
     1
102
RTVSPost2010Prop44ColorIndex
 90
        5
102
RTVSPost2010Prop44ColorRGB
 90
      255
102
RTVSPost2010PropOp44
 70
     1
102
RTVSPost2010Prop45
280
     0
102
RTVSPost2010PropOp45
 70
     1
102
RTVSPost2010Prop46
 90
       50
102
RTVSPost2010PropOp46
 70
     1
102
RTVSPost2010Prop47
 90
       50
102
RTVSPost2010PropOp47
 70
     1
102
RTVSPost2010Prop48
 90
       50
102
RTVSPost2010PropOp48
 70
     1
102
RTVSPost2010Prop49
280
     0
102
RTVSPost2010PropOp49
 70
     1
102
RTVSPost2010Prop50
 90
       50
102
RTVSPost2010PropOp50
 70
     1
102
RTVSPost2010Prop51ColorIndex
 90
      256
102
RTVSPost2010Prop51ColorRGB
 90
-16777216
102
RTVSPost2010PropOp51
 70
     0
102
RTVSPost2010Prop52
140
1.0
102
RTVSPost2010PropOp52
 70
     0
102
RTVSPost2010Prop53
 90
        2
102
RTVSPost2010PropOp53
 70
     1
102
RTVSPost2010Prop54
  1
strokes_ogs.tif
102
RTVSPost2010PropOp54
 70
     1
102
RTVSPost2010Prop55
280
     0
102
RTVSPost2010PropOp55
 70
     1
102
RTVSPost2010Prop56
140
1.0
102
RTVSPost2010PropOp56
 70
     1
102
RTVSPost2010Prop57
140
1.0
102
RTVSPost2010PropOp57
 70
     1
  0
XRECORD
  5
1D1
102
{ACAD_REACTORS
330
1D0
102
}
330
1D0
100
AcDbXrecord
280
     1
102
RTVSPost2010Prop28
280
     0
102
RTVSPost2010PropOp28
 70
     1
102
RTVSPost2010Prop29
280
     1
102
RTVSPost2010PropOp29
 70
     1
102
RTVSPost2010Prop30
280
     1
102
RTVSPost2010PropOp30
 70
     1
102
RTVSPost2010Prop31
280
     0
102
RTVSPost2010PropOp31
 70
     1
102
RTVSPost2010Prop32
280
     0
102
RTVSPost2010PropOp32
 70
     1
102
RTVSPost2010Prop33
280
     0
102
RTVSPost2010PropOp33
 70
     1
102
RTVSPost2010Prop34
280
     0
102
RTVSPost2010PropOp34
 70
     1
102
RTVSPost2010Prop35
280
     0
102
RTVSPost2010PropOp35
 70
     1
102
RTVSPost2010Prop36
280
     0
102
RTVSPost2010PropOp36
 70
     1
102
RTVSPost2010Prop37
 90
       50
102
RTVSPost2010PropOp37
 70
     1
102
RTVSPost2010Prop38
140
0.0
102
RTVSPost2010PropOp38
 70
     1
102
RTVSPost2010Prop39
140
1.0
102
RTVSPost2010PropOp39
 70
     1
102
RTVSPost2010Prop40
 90
        0
102
RTVSPost2010PropOp40
 70
     1
102
RTVSPost2010Prop41ColorIndex
 90
       18
102
RTVSPost2010Prop41ColorRGB
 90
        0
102
RTVSPost2010PropOp41
 70
     1
102
RTVSPost2010Prop42
 90
       50
102
RTVSPost2010PropOp42
 70
     1
102
RTVSPost2010Prop43
 90
        3
102
RTVSPost2010PropOp43
 70
     1
102
RTVSPost2010Prop44ColorIndex
 90
        5
102
RTVSPost2010Prop44ColorRGB
 90
      255
102
RTVSPost2010PropOp44
 70
     1
102
RTVSPost2010Prop45
280
     0
102
RTVSPost2010PropOp45
 70
     1
102
RTVSPost2010Prop46
 90
       50
102
RTVSPost2010PropOp46
 70
     1
102
RTVSPost2010Prop47
 90
       50
102
RTVSPost2010PropOp47
 70
     1
102
RTVSPost2010Prop48
 90
       50
102
RTVSPost2010PropOp48
 70
     1
102
RTVSPost2010Prop49
280
     0
102
RTVSPost2010PropOp49
 70
     1
102
RTVSPost2010Prop50
 90
       50
102
RTVSPost2010PropOp50
 70
     1
102
RTVSPost2010Prop51ColorIndex
 90
      256
102
RTVSPost2010Prop51ColorRGB
 90
-16777216
102
RTVSPost2010PropOp51
 70
     0
102
RTVSPost2010Prop52
140
1.0
102
RTVSPost2010PropOp52
 70
     0
102
RTVSPost2010Prop53
 90
        2
102
RTVSPost2010PropOp53
 70
     1
102
RTVSPost2010Prop54
  1
strokes_ogs.tif
102
RTVSPost2010PropOp54
 70
     1
102
RTVSPost2010Prop55
280
     0
102
RTVSPost2010PropOp55
 70
     1
102
RTVSPost2010Prop56
140
1.0
102
RTVSPost2010PropOp56
 70
     1
102
RTVSPost2010Prop57
140
1.0
102
RTVSPost2010PropOp57
 70
     1
  0
XRECORD
  5
1C7
102
{ACAD_REACTORS
330
1C6
102
}
330
1C6
100
AcDbXrecord
280
     1
102
RTVSPost2010Prop28
280
     0
102
RTVSPost2010PropOp28
 70
     1
102
RTVSPost2010Prop29
280
     1
102
RTVSPost2010PropOp29
 70
     1
102
RTVSPost2010Prop30
280
     1
102
RTVSPost2010PropOp30
 70
     1
102
RTVSPost2010Prop31
280
     0
102
RTVSPost2010PropOp31
 70
     1
102
RTVSPost2010Prop32
280
     0
102
RTVSPost2010PropOp32
 70
     1
102
RTVSPost2010Prop33
280
     0
102
RTVSPost2010PropOp33
 70
     1
102
RTVSPost2010Prop34
280
     0
102
RTVSPost2010PropOp34
 70
     1
102
RTVSPost2010Prop35
280
     0
102
RTVSPost2010PropOp35
 70
     1
102
RTVSPost2010Prop36
280
     0
102
RTVSPost2010PropOp36
 70
     1
102
RTVSPost2010Prop37
 90
       50
102
RTVSPost2010PropOp37
 70
     1
102
RTVSPost2010Prop38
140
0.0
102
RTVSPost2010PropOp38
 70
     1
102
RTVSPost2010Prop39
140
1.0
102
RTVSPost2010PropOp39
 70
     1
102
RTVSPost2010Prop40
 90
        0
102
RTVSPost2010PropOp40
 70
     1
102
RTVSPost2010Prop41ColorIndex
 90
       18
102
RTVSPost2010Prop41ColorRGB
 90
        0
102
RTVSPost2010PropOp41
 70
     1
102
RTVSPost2010Prop42
 90
       50
102
RTVSPost2010PropOp42
 70
     1
102
RTVSPost2010Prop43
 90
        3
102
RTVSPost2010PropOp43
 70
     1
102
RTVSPost2010Prop44ColorIndex
 90
        5
102
RTVSPost2010Prop44ColorRGB
 90
      255
102
RTVSPost2010PropOp44
 70
     1
102
RTVSPost2010Prop45
280
     0
102
RTVSPost2010PropOp45
 70
     1
102
RTVSPost2010Prop46
 90
       50
102
RTVSPost2010PropOp46
 70
     1
102
RTVSPost2010Prop47
 90
       50
102
RTVSPost2010PropOp47
 70
     1
102
RTVSPost2010Prop48
 90
       50
102
RTVSPost2010PropOp48
 70
     1
102
RTVSPost2010Prop49
280
     0
102
RTVSPost2010PropOp49
 70
     1
102
RTVSPost2010Prop50
 90
       50
102
RTVSPost2010PropOp50
 70
     1
102
RTVSPost2010Prop51ColorIndex
 90
      256
102
RTVSPost2010Prop51ColorRGB
 90
-16777216
102
RTVSPost2010PropOp51
 70
     0
102
RTVSPost2010Prop52
140
1.0
102
RTVSPost2010PropOp52
 70
     0
102
RTVSPost2010Prop53
 90
        2
102
RTVSPost2010PropOp53
 70
     1
102
RTVSPost2010Prop54
  1
strokes_ogs.tif
102
RTVSPost2010PropOp54
 70
     1
102
RTVSPost2010Prop55
280
     0
102
RTVSPost2010PropOp55
 70
     1
102
RTVSPost2010Prop56
140
1.0
102
RTVSPost2010PropOp56
 70
     1
102
RTVSPost2010Prop57
140
1.0
102
RTVSPost2010PropOp57
 70
     1
  0
XRECORD
  5
1BB
102
{ACAD_REACTORS
330
1BA
102
}
330
1BA
100
AcDbXrecord
280
     1
102
RTVSPost2010Prop28
280
     0
102
RTVSPost2010PropOp28
 70
     1
102
RTVSPost2010Prop29
280
     1
102
RTVSPost2010PropOp29
 70
     1
102
RTVSPost2010Prop30
280
     1
102
RTVSPost2010PropOp30
 70
     1
102
RTVSPost2010Prop31
280
     0
102
RTVSPost2010PropOp31
 70
     1
102
RTVSPost2010Prop32
280
     0
102
RTVSPost2010PropOp32
 70
     1
102
RTVSPost2010Prop33
280
     0
102
RTVSPost2010PropOp33
 70
     1
102
RTVSPost2010Prop34
280
     0
102
RTVSPost2010PropOp34
 70
     1
102
RTVSPost2010Prop35
280
     0
102
RTVSPost2010PropOp35
 70
     1
102
RTVSPost2010Prop36
280
     0
102
RTVSPost2010PropOp36
 70
     1
102
RTVSPost2010Prop37
 90
       50
102
RTVSPost2010PropOp37
 70
     1
102
RTVSPost2010Prop38
140
0.0
102
RTVSPost2010PropOp38
 70
     1
102
RTVSPost2010Prop39
140
1.0
102
RTVSPost2010PropOp39
 70
     1
102
RTVSPost2010Prop40
 90
        0
102
RTVSPost2010PropOp40
 70
     1
102
RTVSPost2010Prop41ColorIndex
 90
       18
102
RTVSPost2010Prop41ColorRGB
 90
        0
102
RTVSPost2010PropOp41
 70
     1
102
RTVSPost2010Prop42
 90
       50
102
RTVSPost2010PropOp42
 70
     1
102
RTVSPost2010Prop43
 90
        3
102
RTVSPost2010PropOp43
 70
     1
102
RTVSPost2010Prop44ColorIndex
 90
        5
102
RTVSPost2010Prop44ColorRGB
 90
      255
102
RTVSPost2010PropOp44
 70
     1
102
RTVSPost2010Prop45
280
     0
102
RTVSPost2010PropOp45
 70
     1
102
RTVSPost2010Prop46
 90
       50
102
RTVSPost2010PropOp46
 70
     1
102
RTVSPost2010Prop47
 90
       50
102
RTVSPost2010PropOp47
 70
     1
102
RTVSPost2010Prop48
 90
       50
102
RTVSPost2010PropOp48
 70
     1
102
RTVSPost2010Prop49
280
     0
102
RTVSPost2010PropOp49
 70
     1
102
RTVSPost2010Prop50
 90
       50
102
RTVSPost2010PropOp50
 70
     1
102
RTVSPost2010Prop51ColorIndex
 90
      256
102
RTVSPost2010Prop51ColorRGB
 90
-16777216
102
RTVSPost2010PropOp51
 70
     0
102
RTVSPost2010Prop52
140
1.0
102
RTVSPost2010PropOp52
 70
     0
102
RTVSPost2010Prop53
 90
        2
102
RTVSPost2010PropOp53
 70
     1
102
RTVSPost2010Prop54
  1
strokes_ogs.tif
102
RTVSPost2010PropOp54
 70
     1
102
RTVSPost2010Prop55
280
     0
102
RTVSPost2010PropOp55
 70
     1
102
RTVSPost2010Prop56
140
1.0
102
RTVSPost2010PropOp56
 70
     1
102
RTVSPost2010Prop57
140
1.0
102
RTVSPost2010PropOp57
 70
     1
  0
XRECORD
  5
1D3
102
{ACAD_REACTORS
330
1D2
102
}
330
1D2
100
AcDbXrecord
280
     1
102
RTVSPost2010Prop28
280
     0
102
RTVSPost2010PropOp28
 70
     1
102
RTVSPost2010Prop29
280
     1
102
RTVSPost2010PropOp29
 70
     1
102
RTVSPost2010Prop30
280
     1
102
RTVSPost2010PropOp30
 70
     1
102
RTVSPost2010Prop31
280
     0
102
RTVSPost2010PropOp31
 70
     1
102
RTVSPost2010Prop32
280
     0
102
RTVSPost2010PropOp32
 70
     1
102
RTVSPost2010Prop33
280
     0
102
RTVSPost2010PropOp33
 70
     1
102
RTVSPost2010Prop34
280
     0
102
RTVSPost2010PropOp34
 70
     1
102
RTVSPost2010Prop35
280
     0
102
RTVSPost2010PropOp35
 70
     1
102
RTVSPost2010Prop36
280
     0
102
RTVSPost2010PropOp36
 70
     1
102
RTVSPost2010Prop37
 90
       50
102
RTVSPost2010PropOp37
 70
     1
102
RTVSPost2010Prop38
140
0.0
102
RTVSPost2010PropOp38
 70
     1
102
RTVSPost2010Prop39
140
1.0
102
RTVSPost2010PropOp39
 70
     1
102
RTVSPost2010Prop40
 90
        0
102
RTVSPost2010PropOp40
 70
     1
102
RTVSPost2010Prop41ColorIndex
 90
       18
102
RTVSPost2010Prop41ColorRGB
 90
        0
102
RTVSPost2010PropOp41
 70
     1
102
RTVSPost2010Prop42
 90
       50
102
RTVSPost2010PropOp42
 70
     1
102
RTVSPost2010Prop43
 90
        3
102
RTVSPost2010PropOp43
 70
     1
102
RTVSPost2010Prop44ColorIndex
 90
        5
102
RTVSPost2010Prop44ColorRGB
 90
      255
102
RTVSPost2010PropOp44
 70
     1
102
RTVSPost2010Prop45
280
     0
102
RTVSPost2010PropOp45
 70
     1
102
RTVSPost2010Prop46
 90
       50
102
RTVSPost2010PropOp46
 70
     1
102
RTVSPost2010Prop47
 90
       50
102
RTVSPost2010PropOp47
 70
     1
102
RTVSPost2010Prop48
 90
       50
102
RTVSPost2010PropOp48
 70
     1
102
RTVSPost2010Prop49
280
     0
102
RTVSPost2010PropOp49
 70
     1
102
RTVSPost2010Prop50
 90
       50
102
RTVSPost2010PropOp50
 70
     1
102
RTVSPost2010Prop51ColorIndex
 90
      256
102
RTVSPost2010Prop51ColorRGB
 90
-16777216
102
RTVSPost2010PropOp51
 70
     0
102
RTVSPost2010Prop52
140
1.0
102
RTVSPost2010PropOp52
 70
     0
102
RTVSPost2010Prop53
 90
        2
102
RTVSPost2010PropOp53
 70
     1
102
RTVSPost2010Prop54
  1
strokes_ogs.tif
102
RTVSPost2010PropOp54
 70
     1
102
RTVSPost2010Prop55
280
     0
102
RTVSPost2010PropOp55
 70
     1
102
RTVSPost2010Prop56
140
1.0
102
RTVSPost2010PropOp56
 70
     1
102
RTVSPost2010Prop57
140
1.0
102
RTVSPost2010PropOp57
 70
     1
  0
ENDSEC
  0
EOF
